  0
SECTION
  2
HEADER
  9
$ACADVER
  1
AC1015
  9
$ACADMAINTVER
 70
     6
  9
$DWGCODEPAGE
  3
ANSI_1250
  9
$INSBASE
 10
0.0
 20
0.0
 30
0.0
  9
$EXTMIN
 10
0.0
 20
0.0
 30
0.0
  9
$EXTMAX
 10
431.8
 20
279.4
 30
0.0
  9
$LIMMIN
 10
0.0
 20
0.0
  9
$LIMMAX
 10
431.8
 20
279.4
  9
$ORTHOMODE
 70
     0
  9
$REGENMODE
 70
     1
  9
$FILLMODE
 70
     1
  9
$QTEXTMODE
 70
     0
  9
$MIRRTEXT
 70
     1
  9
$LTSCALE
 40
1.0
  9
$ATTMODE
 70
     1
  9
$TEXTSIZE
 40
3.8805555556
  9
$TRACEWID
 40
1.0
  9
$TEXTSTYLE
  7
Standard
  9
$CLAYER
  8
0
  9
$CELTYPE
  6
ByLayer
  9
$CECOLOR
 62
   256
  9
$CELTSCALE
 40
1.0
  9
$DISPSILH
 70
     0
  9
$DIMSCALE
 40
1.0
  9
$DIMASZ
 40
3.302
  9
$DIMEXO
 40
1.0
  9
$DIMDLI
 40
3.75
  9
$DIMRND
 40
0.0
  9
$DIMDLE
 40
0.0
  9
$DIMEXE
 40
1.0
  9
$DIMTP
 40
0.0
  9
$DIMTM
 40
0.0
  9
$DIMTXT
 40
3.8805555556
  9
$DIMCEN
 40
2.5
  9
$DIMTSZ
 40
0.0
  9
$DIMTOL
 70
     0
  9
$DIMLIM
 70
     0
  9
$DIMTIH
 70
     1
  9
$DIMTOH
 70
     1
  9
$DIMSE1
 70
     0
  9
$DIMSE2
 70
     0
  9
$DIMTAD
 70
     1
  9
$DIMZIN
 70
     0
  9
$DIMBLK
  1

  9
$DIMASO
 70
     1
  9
$DIMSHO
 70
     1
  9
$DIMPOST
  1

  9
$DIMAPOST
  1

  9
$DIMALT
 70
     0
  9
$DIMALTD
 70
     3
  9
$DIMALTF
 40
0.0393700787
  9
$DIMLFAC
 40
1.0
  9
$DIMTOFL
 70
     1
  9
$DIMTVP
 40
0.0
  9
$DIMTIX
 70
     0
  9
$DIMSOXD
 70
     0
  9
$DIMSAH
 70
     0
  9
$DIMBLK1
  1

  9
$DIMBLK2
  1

  9
$DIMSTYLE
  2
ISO-25
  9
$DIMCLRD
 70
     0
  9
$DIMCLRE
 70
     0
  9
$DIMCLRT
 70
     0
  9
$DIMTFAC
 40
1.0
  9
$DIMGAP
 40
1.524
  9
$DIMJUST
 70
     0
  9
$DIMSD1
 70
     0
  9
$DIMSD2
 70
     0
  9
$DIMTOLJ
 70
     0
  9
$DIMTZIN
 70
     0
  9
$DIMALTZ
 70
     0
  9
$DIMALTTZ
 70
     0
  9
$DIMUPT
 70
     0
  9
$DIMDEC
 70
     1
  9
$DIMTDEC
 70
     1
  9
$DIMALTU
 70
     2
  9
$DIMALTTD
 70
     3
  9
$DIMTXSTY
  7
Standard
  9
$DIMAUNIT
 70
     0
  9
$DIMADEC
 70
     1
  9
$DIMALTRND
 40
0.0
  9
$DIMAZIN
 70
     0
  9
$DIMDSEP
 70
    44
  9
$DIMATFIT
 70
     3
  9
$DIMFRAC
 70
     0
  9
$DIMLDRBLK
  1

  9
$DIMLUNIT
 70
     2
  9
$DIMLWD
 70
    -2
  9
$DIMLWE
 70
    -2
  9
$DIMTMOVE
 70
     0
  9
$LUNITS
 70
     2
  9
$LUPREC
 70
     1
  9
$SKETCHINC
 40
1.0
  9
$FILLETRAD
 40
10.0
  9
$AUNITS
 70
     0
  9
$AUPREC
 70
     1
  9
$MENU
  1
.
  9
$ELEVATION
 40
0.0
  9
$PELEVATION
 40
0.0
  9
$THICKNESS
 40
0.0
  9
$LIMCHECK
 70
     0
  9
$CHAMFERA
 40
0.0
  9
$CHAMFERB
 40
0.0
  9
$CHAMFERC
 40
0.0
  9
$CHAMFERD
 40
0.0
  9
$SKPOLY
 70
     0
  9
$TDCREATE
 40
2459678.520547801
  9
$TDUCREATE
 40
2459678.437214468
  9
$TDUPDATE
 40
2459678.520548264
  9
$TDUUPDATE
 40
2459678.437214931
  9
$TDINDWG
 40
0.0000000116
  9
$TDUSRTIMER
 40
0.0000000116
  9
$USRTIMER
 70
     1
  9
$ANGBASE
 50
0.0
  9
$ANGDIR
 70
     0
  9
$PDMODE
 70
     0
  9
$PDSIZE
 40
-1.0
  9
$PLINEWID
 40
0.0
  9
$SPLFRAME
 70
     0
  9
$SPLINETYPE
 70
     6
  9
$SPLINESEGS
 70
     8
  9
$HANDSEED
  5
420
  9
$SURFTAB1
 70
     6
  9
$SURFTAB2
 70
     6
  9
$SURFTYPE
 70
     6
  9
$SURFU
 70
     6
  9
$SURFV
 70
     6
  9
$UCSBASE
  2

  9
$UCSNAME
  2

  9
$UCSORG
 10
0.0
 20
0.0
 30
0.0
  9
$UCSXDIR
 10
1.0
 20
0.0
 30
0.0
  9
$UCSYDIR
 10
0.0
 20
1.0
 30
0.0
  9
$UCSORTHOREF
  2

  9
$UCSORTHOVIEW
 70
     0
  9
$UCSORGTOP
 10
0.0
 20
0.0
 30
0.0
  9
$UCSORGBOTTOM
 10
0.0
 20
0.0
 30
0.0
  9
$UCSORGLEFT
 10
0.0
 20
0.0
 30
0.0
  9
$UCSORGRIGHT
 10
0.0
 20
0.0
 30
0.0
  9
$UCSORGFRONT
 10
0.0
 20
0.0
 30
0.0
  9
$UCSORGBACK
 10
0.0
 20
0.0
 30
0.0
  9
$PUCSBASE
  2

  9
$PUCSNAME
  2

  9
$PUCSORG
 10
0.0
 20
0.0
 30
0.0
  9
$PUCSXDIR
 10
1.0
 20
0.0
 30
0.0
  9
$PUCSYDIR
 10
0.0
 20
1.0
 30
0.0
  9
$PUCSORTHOREF
  2

  9
$PUCSORTHOVIEW
 70
     0
  9
$PUCSORGTOP
 10
0.0
 20
0.0
 30
0.0
  9
$PUCSORGBOTTOM
 10
0.0
 20
0.0
 30
0.0
  9
$PUCSORGLEFT
 10
0.0
 20
0.0
 30
0.0
  9
$PUCSORGRIGHT
 10
0.0
 20
0.0
 30
0.0
  9
$PUCSORGFRONT
 10
0.0
 20
0.0
 30
0.0
  9
$PUCSORGBACK
 10
0.0
 20
0.0
 30
0.0
  9
$USERI1
 70
     0
  9
$USERI2
 70
     0
  9
$USERI3
 70
     0
  9
$USERI4
 70
     0
  9
$USERI5
 70
     0
  9
$USERR1
 40
0.0
  9
$USERR2
 40
0.0
  9
$USERR3
 40
0.0
  9
$USERR4
 40
0.0
  9
$USERR5
 40
0.0
  9
$WORLDVIEW
 70
     1
  9
$SHADEDGE
 70
     3
  9
$SHADEDIF
 70
    70
  9
$TILEMODE
 70
     1
  9
$MAXACTVP
 70
    64
  9
$PINSBASE
 10
0.0
 20
0.0
 30
0.0
  9
$PLIMCHECK
 70
     0
  9
$PEXTMIN
 10
1.0000000000E+20
 20
1.0000000000E+20
 30
1.0000000000E+20
  9
$PEXTMAX
 10
-1.0000000000E+20
 20
-1.0000000000E+20
 30
-1.0000000000E+20
  9
$PLIMMIN
 10
0.0
 20
0.0
  9
$PLIMMAX
 10
420.0
 20
297.0
  9
$UNITMODE
 70
     0
  9
$VISRETAIN
 70
     1
  9
$PLINEGEN
 70
     0
  9
$PSLTSCALE
 70
     1
  9
$TREEDEPTH
 70
  3020
  9
$CMLSTYLE
  2
Standard
  9
$CMLJUST
 70
     0
  9
$CMLSCALE
 40
20.0
  9
$PROXYGRAPHICS
 70
     1
  9
$MEASUREMENT
 70
     1
  9
$CELWEIGHT
370
    -1
  9
$ENDCAPS
280
     0
  9
$JOINSTYLE
280
     0
  9
$LWDISPLAY
290
     1
  9
$INSUNITS
 70
     4
  9
$HYPERLINKBASE
  1

  9
$STYLESHEET
  1

  9
$XEDIT
290
     1
  9
$CEPSNTYPE
380
     0
  9
$PSTYLEMODE
290
     1
  9
$FINGERPRINTGUID
  2
{63e3aa14-d60e-4027-860c-445b7eb08c5c}
  9
$VERSIONGUID
  2
{FAEB1C32-E019-11D5-929B-00C0DF256EC4}
  9
$EXTNAMES
290
     1
  9
$PSVPSCALE
 40
0.0
  9
$OLESTARTUP
290
     0
  0
ENDSEC
  0
SECTION
  2
CLASSES
  0
CLASS
  1
ACDBDICTIONARYWDFLT
  2
AcDbDictionaryWithDefault
  3
ObjectDBX Classes
 90
        0
280
     0
281
     0
  0
CLASS
  1
VISUALSTYLE
  2
AcDbVisualStyle
  3
ObjectDBX Classes
 90
     4095
280
     0
281
     0
  0
CLASS
  1
MATERIAL
  2
AcDbMaterial
  3
ObjectDBX Classes
 90
     1153
280
     0
281
     0
  0
CLASS
  1
SCALE
  2
AcDbScale
  3
ObjectDBX Classes
 90
     1153
280
     0
281
     0
  0
CLASS
  1
TABLESTYLE
  2
AcDbTableStyle
  3
ObjectDBX Classes
 90
     4095
280
     0
281
     0
  0
CLASS
  1
MLEADERSTYLE
  2
AcDbMLeaderStyle
  3
ACDB_MLEADERSTYLE_CLASS
 90
     4095
280
     0
281
     0
  0
CLASS
  1
SUN
  2
AcDbSun
  3
SCENEOE
 90
     1153
280
     0
281
     0
  0
CLASS
  1
ACDBPLACEHOLDER
  2
AcDbPlaceHolder
  3
ObjectDBX Classes
 90
        0
280
     0
281
     0
  0
CLASS
  1
LAYOUT
  2
AcDbLayout
  3
ObjectDBX Classes
 90
        0
280
     0
281
     0
  0
ENDSEC
  0
SECTION
  2
TABLES
  0
TABLE
  2
VPORT
  5
8
330
0
100
AcDbSymbolTable
 70
     1
  0
VPORT
  5
29
330
8
100
AcDbSymbolTableRecord
100
AcDbViewportTableRecord
  2
*Active
 70
     0
 10
0.0
 20
0.0
 11
1.0
 21
1.0
 12
215.9
 22
139.7
 13
0.0
 23
0.0
 14
10.0
 24
10.0
 15
10.0
 25
10.0
 16
0.0
 26
0.0
 36
1.0
 17
0.0
 27
0.0
 37
0.0
 40
279.4
 41
1.5454545455
 42
50.0
 43
0.0
 44
0.0
 50
0.0
 51
0.0
 71
     0
 72
  2000
 73
     1
 74
     3
 75
     0
 76
     0
 77
     0
 78
     0
281
     0
 65
     1
110
0.0
120
0.0
130
0.0
111
1.0
121
0.0
131
0.0
112
0.0
122
1.0
132
0.0
 79
     0
146
0.0
  0
ENDTAB
  0
TABLE
  2
LTYPE
  5
5
330
0
100
AcDbSymbolTable
 70
     6
  0
LTYPE
  5
14
330
5
100
AcDbSymbolTableRecord
100
AcDbLinetypeTableRecord
  2
ByBlock
 70
     0
  3

 72
    65
 73
     0
 40
0.0
  0
LTYPE
  5
15
330
5
100
AcDbSymbolTableRecord
100
AcDbLinetypeTableRecord
  2
ByLayer
 70
     0
  3

 72
    65
 73
     0
 40
0.0
  0
LTYPE
  5
16
330
5
100
AcDbSymbolTableRecord
100
AcDbLinetypeTableRecord
  2
Continuous
 70
     0
  3
Solid line
 72
    65
 73
     0
 40
0.0
  0
LTYPE
  5
6E
330
5
100
AcDbSymbolTableRecord
100
AcDbLinetypeTableRecord
  2
HIDDEN
 70
     0
  3
Hidden __ __ __ __ __ __ __ __ __ __ __ __ __ __
 72
    65
 73
     2
 40
1.905
 49
1.27
 74
     0
 49
-0.635
 74
     0
  0
LTYPE
  5
6F
330
5
100
AcDbSymbolTableRecord
100
AcDbLinetypeTableRecord
  2
PHANTOM
 70
     0
  3
Phantom ______  __  __  ______  __  __  ______
 72
    65
 73
     6
 40
12.7
 49
6.35
 74
     0
 49
-1.27
 74
     0
 49
1.27
 74
     0
 49
-1.27
 74
     0
 49
1.27
 74
     0
 49
-1.27
 74
     0
  0
LTYPE
  5
70
330
5
100
AcDbSymbolTableRecord
100
AcDbLinetypeTableRecord
  2
CENTER
 70
     0
  3
Center ____ _ ____ _ ____ _ ____ _ ____ _ ____
 72
    65
 73
     4
 40
10.16
 49
6.35
 74
     0
 49
-1.27
 74
     0
 49
1.27
 74
     0
 49
-1.27
 74
     0
  0
LTYPE
  5
71
330
5
100
AcDbSymbolTableRecord
100
AcDbLinetypeTableRecord
  2
CENTERX2
 70
     0
  3
Center (2x) ________  __  ________  __  _____
 72
    65
 73
     4
 40
20.32
 49
12.7
 74
     0
 49
-2.54
 74
     0
 49
2.54
 74
     0
 49
-2.54
 74
     0
  0
LTYPE
  5
72
330
5
100
AcDbSymbolTableRecord
100
AcDbLinetypeTableRecord
  2
DOT2
 70
     0
  3
Dot (.5x) ........................................
 72
    65
 73
     2
 40
0.635
 49
0.0
 74
     0
 49
-0.635
 74
     0
  0
ENDTAB
  0
TABLE
  2
LAYER
  5
2
330
0
100
AcDbSymbolTable
 70
     3
  0
LAYER
  5
10
330
2
100
AcDbSymbolTableRecord
100
AcDbLayerTableRecord
  2
0
 70
     0
 62
     7
  6
Continuous
370
    -3
390
F
  0
LAYER
  5
73
330
2
100
AcDbSymbolTableRecord
100
AcDbLayerTableRecord
  2
FRAME_&_TABLE
 70
     0
 62
     8
  6
Continuous
370
    50
390
F
  0
LAYER
  5
74
330
2
100
AcDbSymbolTableRecord
100
AcDbLayerTableRecord
  2
DIMENSIONS
 70
     0
 62
     7
  6
Continuous
370
    -3
390
F
  0
ENDTAB
  0
TABLE
  2
STYLE
  5
3
330
0
100
AcDbSymbolTable
 70
     1
  0
STYLE
  5
11
330
3
100
AcDbSymbolTableRecord
100
AcDbTextStyleTableRecord
  2
Standard
 70
     0
 40
0.0
 41
1.0
 50
0.0
 71
     0
 42
3.8805555556
  3
txt
  4

  0
ENDTAB
  0
TABLE
  2
VIEW
  5
6
330
0
100
AcDbSymbolTable
 70
     0
  0
ENDTAB
  0
TABLE
  2
UCS
  5
7
330
0
100
AcDbSymbolTable
 70
     0
  0
ENDTAB
  0
TABLE
  2
APPID
  5
9
330
0
100
AcDbSymbolTable
 70
     1
  0
APPID
  5
12
330
9
100
AcDbSymbolTableRecord
100
AcDbRegAppTableRecord
  2
ACAD
 70
     0
  0
ENDTAB
  0
TABLE
  2
DIMSTYLE
  5
A
330
0
100
AcDbSymbolTable
 70
     1
100
AcDbDimStyleTable
  0
DIMSTYLE
105
27
330
A
100
AcDbSymbolTableRecord
100
AcDbDimStyleTableRecord
  2
ISO-25
 70
     0
 41
2.5
 42
0.625
 43
3.75
 44
1.25
 73
     0
 74
     0
 77
     1
 78
     8
140
2.5
141
2.5
143
0.0393700787
147
0.625
171
     3
172
     1
178
     0
271
     2
272
     2
274
     3
278
    44
283
     0
284
     8
340
11
  0
ENDTAB
  0
TABLE
  2
BLOCK_RECORD
  5
1
330
0
100
AcDbSymbolTable
 70
     1
  0
BLOCK_RECORD
  5
1F
330
1
100
AcDbSymbolTableRecord
100
AcDbBlockTableRecord
  2
*Model_Space
340
22
  0
BLOCK_RECORD
  5
1B
330
1
100
AcDbSymbolTableRecord
100
AcDbBlockTableRecord
  2
*Paper_Space
340
1E
  0
BLOCK_RECORD
  5
23
330
1
100
AcDbSymbolTableRecord
100
AcDbBlockTableRecord
  2
*Paper_Space0
340
26
  0
ENDTAB
  0
ENDSEC
  0
SECTION
  2
BLOCKS
  0
BLOCK
  5
20
330
1F
100
AcDbEntity
  8
0
100
AcDbBlockBegin
  2
*Model_Space
 70
     0
 10
0.0
 20
0.0
 30
0.0
  3
*Model_Space
  1

  0
ENDBLK
  5
21
330
1F
100
AcDbEntity
  8
0
100
AcDbBlockEnd
  0
BLOCK
  5
1C
330
1B
100
AcDbEntity
 67
     1
  8
0
100
AcDbBlockBegin
  2
*Paper_Space
 70
     0
 10
0.0
 20
0.0
 30
0.0
  3
*Paper_Space
  1

  0
ENDBLK
  5
1D
330
1B
100
AcDbEntity
 67
     1
  8
0
100
AcDbBlockEnd
  0
BLOCK
  5
24
330
23
100
AcDbEntity
  8
0
100
AcDbBlockBegin
  2
*Paper_Space0
 70
     0
 10
0.0
 20
0.0
 30
0.0
  3
*Paper_Space0
  1

  0
ENDBLK
  5
25
330
23
100
AcDbEntity
  8
0
100
AcDbBlockEnd
  0
ENDSEC
  0
SECTION
  2
ENTITIES
  0
LINE
  5
75
330
1F
100
AcDbEntity
  8
0
  6
Continuous
 62
     7
370
    25
100
AcDbLine
 10
620.1274902889
 20
187.4536732789
 30
0.0
 11
620.1274902889
 21
130.8536732789
 31
0.0
  0
LINE
  5
76
330
1F
100
AcDbEntity
  8
0
  6
Continuous
 62
     7
370
    25
100
AcDbLine
 10
647.0274902889
 20
130.8536732789
 30
0.0
 11
647.0274902889
 21
187.4536732789
 31
0.0
  0
LINE
  5
77
330
1F
100
AcDbEntity
  8
0
  6
Continuous
 62
     7
370
    25
100
AcDbLine
 10
-222.9117983402
 20
130.8536732789
 30
0.0
 11
-222.9117983402
 21
187.4536732789
 31
0.0
  0
LINE
  5
78
330
1F
100
AcDbEntity
  8
0
  6
Continuous
 62
     7
370
    25
100
AcDbLine
 10
-249.8117983402
 20
187.4536732789
 30
0.0
 11
-249.8117983402
 21
130.8536732789
 31
0.0
  0
ARC
  5
79
330
1F
100
AcDbEntity
  8
0
  6
Continuous
 62
     7
370
    25
100
AcDbCircle
 10
-236.2341060325
 20
116.1536732789
 30
0.0
 40
19.87230769230769
100
AcDbArc
 50
0.0
 51
47.7078116412
  0
ARC
  5
7A
330
1F
100
AcDbEntity
  8
0
  6
Continuous
 62
     7
370
    25
100
AcDbCircle
 10
-236.4894906479
 20
116.1536732789
 30
0.0
 40
19.87230769230769
100
AcDbArc
 50
132.2921883588
 51
180.0
  0
LINE
  5
7B
330
1F
100
AcDbEntity
  8
0
  6
Continuous
 62
     7
370
    25
100
AcDbLine
 10
-216.3617983402
 20
114.1536732789
 30
0.0
 11
-216.3617983402
 21
116.1536732789
 31
0.0
  0
LINE
  5
7C
330
1F
100
AcDbEntity
  8
0
  6
Continuous
 62
     7
370
    25
100
AcDbLine
 10
-256.3617983402
 20
116.1536732789
 30
0.0
 11
-256.3617983402
 21
114.1536732789
 31
0.0
  0
ARC
  5
7D
330
1F
100
AcDbEntity
  8
0
  6
Continuous
 62
     7
370
    25
100
AcDbCircle
 10
633.7051825966
 20
116.1536732789
 30
0.0
 40
19.87230769230769
100
AcDbArc
 50
0.0
 51
47.7078116412
  0
ARC
  5
7E
330
1F
100
AcDbEntity
  8
0
  6
Continuous
 62
     7
370
    25
100
AcDbCircle
 10
633.4497979812
 20
116.1536732789
 30
0.0
 40
19.87230769230771
100
AcDbArc
 50
132.2921883588
 51
180.0
  0
LINE
  5
7F
330
1F
100
AcDbEntity
  8
0
  6
Continuous
 62
     7
370
    25
100
AcDbLine
 10
653.5774902889
 20
114.1536732789
 30
0.0
 11
653.5774902889
 21
116.1536732789
 31
0.0
  0
LINE
  5
80
330
1F
100
AcDbEntity
  8
0
  6
Continuous
 62
     7
370
    25
100
AcDbLine
 10
613.5774902889
 20
116.1536732789
 30
0.0
 11
613.5774902889
 21
114.1536732789
 31
0.0
  0
ARC
  5
81
330
1F
100
AcDbEntity
  8
0
  6
Continuous
 62
     7
370
    25
100
AcDbCircle
 10
633.4497979812
 20
202.1536732789
 30
0.0
 40
19.87230769230768
100
AcDbArc
 50
180.0
 51
227.7078116412
  0
ARC
  5
82
330
1F
100
AcDbEntity
  8
0
  6
Continuous
 62
     7
370
    25
100
AcDbCircle
 10
633.7051825966
 20
202.1536732789
 30
0.0
 40
19.87230769230769
100
AcDbArc
 50
312.2921883588
 51
0.0
  0
LINE
  5
83
330
1F
100
AcDbEntity
  8
0
  6
Continuous
 62
     7
370
    25
100
AcDbLine
 10
613.5774902889
 20
204.1536732789
 30
0.0
 11
613.5774902889
 21
202.1536732789
 31
0.0
  0
LINE
  5
84
330
1F
100
AcDbEntity
  8
0
  6
Continuous
 62
     7
370
    25
100
AcDbLine
 10
653.5774902889
 20
202.1536732789
 30
0.0
 11
653.5774902889
 21
204.1536732789
 31
0.0
  0
ARC
  5
85
330
1F
100
AcDbEntity
  8
0
  6
Continuous
 62
     7
370
    25
100
AcDbCircle
 10
-236.4894906479
 20
202.1536732789
 30
0.0
 40
19.8723076923077
100
AcDbArc
 50
180.0
 51
227.7078116412
  0
ARC
  5
86
330
1F
100
AcDbEntity
  8
0
  6
Continuous
 62
     7
370
    25
100
AcDbCircle
 10
-236.2341060325
 20
202.1536732789
 30
0.0
 40
19.8723076923077
100
AcDbArc
 50
312.2921883588
 51
0.0
  0
LINE
  5
87
330
1F
100
AcDbEntity
  8
0
  6
Continuous
 62
     7
370
    25
100
AcDbLine
 10
-256.3617983402
 20
204.1536732789
 30
0.0
 11
-256.3617983402
 21
202.1536732789
 31
0.0
  0
LINE
  5
88
330
1F
100
AcDbEntity
  8
0
  6
Continuous
 62
     7
370
    25
100
AcDbLine
 10
-216.3617983402
 20
202.1536732789
 30
0.0
 11
-216.3617983402
 21
204.1536732789
 31
0.0
  0
ARC
  5
89
330
1F
100
AcDbEntity
  8
0
  6
Continuous
 62
     7
370
    25
100
AcDbCircle
 10
-23.5285374077
 20
96.1536732789
 30
0.0
 40
3.000000000000004
100
AcDbArc
 50
270.0
 51
0.0
  0
LINE
  5
8A
330
1F
100
AcDbEntity
  8
0
  6
Continuous
 62
     7
370
    25
100
AcDbLine
 10
-20.5285374077
 20
96.1536732789
 30
0.0
 11
-20.5285374077
 21
99.1536732789
 31
0.0
  0
ARC
  5
8B
330
1F
100
AcDbEntity
  8
0
  6
Continuous
 62
     7
370
    25
100
AcDbCircle
 10
-24.5285374077
 20
90.1536732789
 30
0.0
 40
3.000000000000014
100
AcDbArc
 50
90.0
 51
180.0
  0
ARC
  5
8C
330
1F
100
AcDbEntity
  8
0
  6
Continuous
 62
     7
370
    25
100
AcDbCircle
 10
-60.5285374077
 20
10.1536732789
 30
0.0
 40
1.000000000000002
100
AcDbArc
 50
180.0
 51
270.0
  0
ARC
  5
8D
330
1F
100
AcDbEntity
  8
0
  6
Continuous
 62
     7
370
    25
100
AcDbCircle
 10
-28.5285374077
 20
10.1536732789
 30
0.0
 40
1.000000000000002
100
AcDbArc
 50
270.0
 51
0.0
  0
LINE
  5
8E
330
1F
100
AcDbEntity
  8
0
  6
Continuous
 62
     7
370
    25
100
AcDbLine
 10
-61.5285374077
 20
80.6180615218
 30
0.0
 11
-61.5285374077
 21
10.1536732789
 31
0.0
  0
LINE
  5
8F
330
1F
100
AcDbEntity
  8
0
  6
Continuous
 62
     7
370
    25
100
AcDbLine
 10
-27.5285374077
 20
10.1536732789
 30
0.0
 11
-27.5285374077
 21
90.1536732789
 31
0.0
  0
ARC
  5
90
330
1F
100
AcDbEntity
  8
0
  6
Continuous
 62
     7
370
    25
100
AcDbCircle
 10
654.5774902889
 20
222.1536732789
 30
0.0
 40
3.0
100
AcDbArc
 50
0.0
 51
90.0
  0
ARC
  5
91
330
1F
100
AcDbEntity
  8
0
  6
Continuous
 62
     7
370
    25
100
AcDbCircle
 10
612.5774902889
 20
222.1536732789
 30
0.0
 40
3.0
100
AcDbArc
 50
90.0
 51
180.0
  0
LINE
  5
92
330
1F
100
AcDbEntity
  8
0
  6
Continuous
 62
     7
370
    25
100
AcDbLine
 10
657.5774902889
 20
219.1536732789
 30
0.0
 11
657.5774902889
 21
222.1536732789
 31
0.0
  0
LINE
  5
93
330
1F
100
AcDbEntity
  8
0
  6
Continuous
 62
     7
370
    25
100
AcDbLine
 10
609.5774902889
 20
222.1536732789
 30
0.0
 11
609.5774902889
 21
219.1536732789
 31
0.0
  0
ARC
  5
94
330
1F
100
AcDbEntity
  8
0
  6
Continuous
 62
     7
370
    25
100
AcDbCircle
 10
653.5774902889
 20
228.1536732789
 30
0.0
 40
3.0
100
AcDbArc
 50
180.0
 51
270.0
  0
ARC
  5
95
330
1F
100
AcDbEntity
  8
0
  6
Continuous
 62
     7
370
    25
100
AcDbCircle
 10
613.5774902889
 20
228.1536732789
 30
0.0
 40
3.0
100
AcDbArc
 50
270.0
 51
0.0
  0
LINE
  5
96
330
1F
100
AcDbEntity
  8
0
  6
Continuous
 62
     7
370
    25
100
AcDbLine
 10
650.5774902889
 20
228.1536732789
 30
0.0
 11
650.5774902889
 21
308.1536732789
 31
0.0
  0
LINE
  5
97
330
1F
100
AcDbEntity
  8
0
  6
Continuous
 62
     7
370
    25
100
AcDbLine
 10
616.5774902889
 20
308.1536732789
 30
0.0
 11
616.5774902889
 21
228.1536732789
 31
0.0
  0
ARC
  5
98
330
1F
100
AcDbEntity
  8
0
  6
Continuous
 62
     7
370
    25
100
AcDbCircle
 10
649.5774902889
 20
308.1536732789
 30
0.0
 40
1.0
100
AcDbArc
 50
0.0
 51
90.0
  0
ARC
  5
99
330
1F
100
AcDbEntity
  8
0
  6
Continuous
 62
     7
370
    25
100
AcDbCircle
 10
617.5774902889
 20
308.1536732789
 30
0.0
 40
1.000000000000057
100
AcDbArc
 50
90.0
 51
180.0
  0
LINE
  5
9A
330
1F
100
AcDbEntity
  8
0
  6
Continuous
 62
     7
370
    25
100
AcDbLine
 10
-20.5285374077
 20
219.1536732789
 30
0.0
 11
-20.5285374077
 21
222.1536732789
 31
0.0
  0
ARC
  5
9B
330
1F
100
AcDbEntity
  8
0
  6
Continuous
 62
     7
370
    25
100
AcDbCircle
 10
-23.5285374077
 20
222.1536732789
 30
0.0
 40
3.000000000000004
100
AcDbArc
 50
0.0
 51
90.0
  0
ARC
  5
9C
330
1F
100
AcDbEntity
  8
0
  6
Continuous
 62
     7
370
    25
100
AcDbCircle
 10
-24.5285374077
 20
228.1536732789
 30
0.0
 40
3.000000000000004
100
AcDbArc
 50
180.0
 51
270.0
  0
ARC
  5
9D
330
1F
100
AcDbEntity
  8
0
  6
Continuous
 62
     7
370
    25
100
AcDbCircle
 10
-28.5285374077
 20
308.1536732789
 30
0.0
 40
1.000000000000004
100
AcDbArc
 50
0.0
 51
90.0
  0
ARC
  5
9E
330
1F
100
AcDbEntity
  8
0
  6
Continuous
 62
     7
370
    25
100
AcDbCircle
 10
-60.5285374077
 20
308.1536732789
 30
0.0
 40
1.0
100
AcDbArc
 50
90.0
 51
180.0
  0
LINE
  5
9F
330
1F
100
AcDbEntity
  8
0
  6
Continuous
 62
     7
370
    25
100
AcDbLine
 10
-27.5285374077
 20
228.1536732789
 30
0.0
 11
-27.5285374077
 21
308.1536732789
 31
0.0
  0
LINE
  5
A0
330
1F
100
AcDbEntity
  8
0
  6
Continuous
 62
     7
370
    25
100
AcDbLine
 10
-61.5285374077
 20
308.1536732789
 30
0.0
 11
-61.5285374077
 21
237.6892850359
 31
0.0
  0
ARC
  5
A1
330
1F
100
AcDbEntity
  8
0
  6
Continuous
 62
     7
370
    25
100
AcDbCircle
 10
-257.3617983402
 20
96.1536732789
 30
0.0
 40
3.0
100
AcDbArc
 50
180.0
 51
270.0
  0
ARC
  5
A2
330
1F
100
AcDbEntity
  8
0
  6
Continuous
 62
     7
370
    25
100
AcDbCircle
 10
-215.3617983402
 20
96.1536732789
 30
0.0
 40
3.000000000000028
100
AcDbArc
 50
270.0
 51
0.0
  0
LINE
  5
A3
330
1F
100
AcDbEntity
  8
0
  6
Continuous
 62
     7
370
    25
100
AcDbLine
 10
-260.3617983402
 20
99.1536732789
 30
0.0
 11
-260.3617983402
 21
96.1536732789
 31
0.0
  0
LINE
  5
A4
330
1F
100
AcDbEntity
  8
0
  6
Continuous
 62
     7
370
    25
100
AcDbLine
 10
-212.3617983402
 20
96.1536732789
 30
0.0
 11
-212.3617983402
 21
99.1536732789
 31
0.0
  0
ARC
  5
A5
330
1F
100
AcDbEntity
  8
0
  6
Continuous
 62
     7
370
    25
100
AcDbCircle
 10
-256.3617983402
 20
90.1536732789
 30
0.0
 40
3.000000000000014
100
AcDbArc
 50
0.0
 51
90.0
  0
ARC
  5
A6
330
1F
100
AcDbEntity
  8
0
  6
Continuous
 62
     7
370
    25
100
AcDbCircle
 10
-216.3617983402
 20
90.1536732789
 30
0.0
 40
3.000000000000014
100
AcDbArc
 50
90.0
 51
180.0
  0
ARC
  5
A7
330
1F
100
AcDbEntity
  8
0
  6
Continuous
 62
     7
370
    25
100
AcDbCircle
 10
-252.3617983402
 20
10.1536732789
 30
0.0
 40
1.0
100
AcDbArc
 50
180.0
 51
270.0
  0
ARC
  5
A8
330
1F
100
AcDbEntity
  8
0
  6
Continuous
 62
     7
370
    25
100
AcDbCircle
 10
-220.3617983402
 20
10.1536732789
 30
0.0
 40
1.0
100
AcDbArc
 50
270.0
 51
0.0
  0
LINE
  5
A9
330
1F
100
AcDbEntity
  8
0
  6
Continuous
 62
     7
370
    25
100
AcDbLine
 10
-253.3617983402
 20
90.1536732789
 30
0.0
 11
-253.3617983402
 21
10.1536732789
 31
0.0
  0
LINE
  5
AA
330
1F
100
AcDbEntity
  8
0
  6
Continuous
 62
     7
370
    25
100
AcDbLine
 10
-219.3617983402
 20
10.1536732789
 30
0.0
 11
-219.3617983402
 21
90.1536732789
 31
0.0
  0
ARC
  5
AB
330
1F
100
AcDbEntity
  8
0
  6
Continuous
 62
     7
370
    25
100
AcDbCircle
 10
-215.3617983402
 20
222.1536732789
 30
0.0
 40
3.0
100
AcDbArc
 50
0.0
 51
90.0
  0
ARC
  5
AC
330
1F
100
AcDbEntity
  8
0
  6
Continuous
 62
     7
370
    25
100
AcDbCircle
 10
-257.3617983402
 20
222.1536732789
 30
0.0
 40
3.0
100
AcDbArc
 50
90.0
 51
180.0
  0
LINE
  5
AD
330
1F
100
AcDbEntity
  8
0
  6
Continuous
 62
     7
370
    25
100
AcDbLine
 10
-212.3617983402
 20
219.1536732789
 30
0.0
 11
-212.3617983402
 21
222.1536732789
 31
0.0
  0
LINE
  5
AE
330
1F
100
AcDbEntity
  8
0
  6
Continuous
 62
     7
370
    25
100
AcDbLine
 10
-260.3617983402
 20
222.1536732789
 30
0.0
 11
-260.3617983402
 21
219.1536732789
 31
0.0
  0
ARC
  5
AF
330
1F
100
AcDbEntity
  8
0
  6
Continuous
 62
     7
370
    25
100
AcDbCircle
 10
-216.3617983402
 20
228.1536732789
 30
0.0
 40
3.0
100
AcDbArc
 50
180.0
 51
270.0
  0
ARC
  5
B0
330
1F
100
AcDbEntity
  8
0
  6
Continuous
 62
     7
370
    25
100
AcDbCircle
 10
-256.3617983402
 20
228.1536732789
 30
0.0
 40
3.0
100
AcDbArc
 50
270.0
 51
0.0
  0
LINE
  5
B1
330
1F
100
AcDbEntity
  8
0
  6
Continuous
 62
     7
370
    25
100
AcDbLine
 10
-219.3617983402
 20
228.1536732789
 30
0.0
 11
-219.3617983402
 21
308.1536732789
 31
0.0
  0
LINE
  5
B2
330
1F
100
AcDbEntity
  8
0
  6
Continuous
 62
     7
370
    25
100
AcDbLine
 10
-253.3617983402
 20
308.1536732789
 30
0.0
 11
-253.3617983402
 21
228.1536732789
 31
0.0
  0
ARC
  5
B3
330
1F
100
AcDbEntity
  8
0
  6
Continuous
 62
     7
370
    25
100
AcDbCircle
 10
-220.3617983402
 20
308.1536732789
 30
0.0
 40
1.0
100
AcDbArc
 50
0.0
 51
90.0
  0
ARC
  5
B4
330
1F
100
AcDbEntity
  8
0
  6
Continuous
 62
     7
370
    25
100
AcDbCircle
 10
-252.3617983402
 20
308.1536732789
 30
0.0
 40
1.0
100
AcDbArc
 50
90.0
 51
180.0
  0
ARC
  5
B5
330
1F
100
AcDbEntity
  8
0
  6
Continuous
 62
     7
370
    25
100
AcDbCircle
 10
420.7442293564
 20
222.1536732789
 30
0.0
 40
3.0
100
AcDbArc
 50
90.0
 51
180.0
  0
LINE
  5
B6
330
1F
100
AcDbEntity
  8
0
  6
Continuous
 62
     7
370
    25
100
AcDbLine
 10
417.7442293564
 20
222.1536732789
 30
0.0
 11
417.7442293564
 21
219.1536732789
 31
0.0
  0
ARC
  5
B7
330
1F
100
AcDbEntity
  8
0
  6
Continuous
 62
     7
370
    25
100
AcDbCircle
 10
421.7442293564
 20
228.1536732789
 30
0.0
 40
3.0
100
AcDbArc
 50
270.0
 51
0.0
  0
ARC
  5
B8
330
1F
100
AcDbEntity
  8
0
  6
Continuous
 62
     7
370
    25
100
AcDbCircle
 10
457.7442293564
 20
308.1536732789
 30
0.0
 40
1.0
100
AcDbArc
 50
0.0
 51
90.0
  0
ARC
  5
B9
330
1F
100
AcDbEntity
  8
0
  6
Continuous
 62
     7
370
    25
100
AcDbCircle
 10
425.7442293564
 20
308.1536732789
 30
0.0
 40
1.0
100
AcDbArc
 50
90.0
 51
180.0
  0
LINE
  5
BA
330
1F
100
AcDbEntity
  8
0
  6
Continuous
 62
     7
370
    25
100
AcDbLine
 10
458.7442293564
 20
237.6892850359
 30
0.0
 11
458.7442293564
 21
308.1536732789
 31
0.0
  0
LINE
  5
BB
330
1F
100
AcDbEntity
  8
0
  6
Continuous
 62
     7
370
    25
100
AcDbLine
 10
424.7442293564
 20
308.1536732789
 30
0.0
 11
424.7442293564
 21
228.1536732789
 31
0.0
  0
LINE
  5
BC
330
1F
100
AcDbEntity
  8
0
  6
Continuous
 62
     7
370
    25
100
AcDbLine
 10
609.5774902889
 20
99.1536732789
 30
0.0
 11
609.5774902889
 21
96.1536732789
 31
0.0
  0
LINE
  5
BD
330
1F
100
AcDbEntity
  8
0
  6
Continuous
 62
     7
370
    25
100
AcDbLine
 10
657.5774902889
 20
96.1536732789
 30
0.0
 11
657.5774902889
 21
99.1536732789
 31
0.0
  0
ARC
  5
BE
330
1F
100
AcDbEntity
  8
0
  6
Continuous
 62
     7
370
    25
100
AcDbCircle
 10
612.5774902889
 20
96.1536732789
 30
0.0
 40
3.0
100
AcDbArc
 50
180.0
 51
270.0
  0
ARC
  5
BF
330
1F
100
AcDbEntity
  8
0
  6
Continuous
 62
     7
370
    25
100
AcDbCircle
 10
654.5774902889
 20
96.1536732789
 30
0.0
 40
3.0
100
AcDbArc
 50
270.0
 51
0.0
  0
ARC
  5
C0
330
1F
100
AcDbEntity
  8
0
  6
Continuous
 62
     7
370
    25
100
AcDbCircle
 10
613.5774902889
 20
90.1536732789
 30
0.0
 40
3.000000000000014
100
AcDbArc
 50
0.0
 51
90.0
  0
ARC
  5
C1
330
1F
100
AcDbEntity
  8
0
  6
Continuous
 62
     7
370
    25
100
AcDbCircle
 10
653.5774902889
 20
90.1536732789
 30
0.0
 40
3.000000000000014
100
AcDbArc
 50
90.0
 51
180.0
  0
LINE
  5
C2
330
1F
100
AcDbEntity
  8
0
  6
Continuous
 62
     7
370
    25
100
AcDbLine
 10
616.5774902889
 20
90.1536732789
 30
0.0
 11
616.5774902889
 21
10.1536732789
 31
0.0
  0
LINE
  5
C3
330
1F
100
AcDbEntity
  8
0
  6
Continuous
 62
     7
370
    25
100
AcDbLine
 10
650.5774902889
 20
10.1536732789
 30
0.0
 11
650.5774902889
 21
90.1536732789
 31
0.0
  0
ARC
  5
C4
330
1F
100
AcDbEntity
  8
0
  6
Continuous
 62
     7
370
    25
100
AcDbCircle
 10
617.5774902889
 20
10.1536732789
 30
0.0
 40
1.0
100
AcDbArc
 50
180.0
 51
270.0
  0
ARC
  5
C5
330
1F
100
AcDbEntity
  8
0
  6
Continuous
 62
     7
370
    25
100
AcDbCircle
 10
649.5774902889
 20
10.1536732789
 30
0.0
 40
1.0
100
AcDbArc
 50
270.0
 51
0.0
  0
LINE
  5
C6
330
1F
100
AcDbEntity
  8
0
  6
Continuous
 62
     7
370
    25
100
AcDbLine
 10
417.7442293564
 20
99.1536732789
 30
0.0
 11
417.7442293564
 21
96.1536732789
 31
0.0
  0
ARC
  5
C7
330
1F
100
AcDbEntity
  8
0
  6
Continuous
 62
     7
370
    25
100
AcDbCircle
 10
420.7442293564
 20
96.1536732789
 30
0.0
 40
3.000000000000014
100
AcDbArc
 50
180.0
 51
270.0
  0
ARC
  5
C8
330
1F
100
AcDbEntity
  8
0
  6
Continuous
 62
     7
370
    25
100
AcDbCircle
 10
421.7442293564
 20
90.1536732789
 30
0.0
 40
3.0
100
AcDbArc
 50
0.0
 51
90.0
  0
LINE
  5
C9
330
1F
100
AcDbEntity
  8
0
  6
Continuous
 62
     7
370
    25
100
AcDbLine
 10
424.7442293564
 20
90.1536732789
 30
0.0
 11
424.7442293564
 21
10.1536732789
 31
0.0
  0
LINE
  5
CA
330
1F
100
AcDbEntity
  8
0
  6
Continuous
 62
     7
370
    25
100
AcDbLine
 10
458.7442293564
 20
10.1536732789
 30
0.0
 11
458.7442293564
 21
80.6180615218
 31
0.0
  0
ARC
  5
CB
330
1F
100
AcDbEntity
  8
0
  6
Continuous
 62
     7
370
    25
100
AcDbCircle
 10
425.7442293564
 20
10.1536732789
 30
0.0
 40
1.000000000000002
100
AcDbArc
 50
180.0
 51
270.0
  0
ARC
  5
CC
330
1F
100
AcDbEntity
  8
0
  6
Continuous
 62
     7
370
    25
100
AcDbCircle
 10
457.7442293564
 20
10.1536732789
 30
0.0
 40
1.0
100
AcDbArc
 50
270.0
 51
0.0
  0
ARC
  5
CD
330
1F
100
AcDbEntity
  8
0
  6
Continuous
 62
     7
370
    25
100
AcDbCircle
 10
417.7442293564
 20
322.5338726012
 30
0.0
 40
1.0
100
AcDbArc
 50
180.0
 51
221.6335393366
  0
ARC
  5
CE
330
1F
100
AcDbEntity
  8
0
  6
Continuous
 62
     7
370
    25
100
AcDbCircle
 10
465.7442293564
 20
322.5338726012
 30
0.0
 40
1.0
100
AcDbArc
 50
318.3664606634
 51
0.0
  0
ARC
  5
CF
330
1F
100
AcDbEntity
  8
0
  6
Continuous
 62
     7
370
    25
100
AcDbCircle
 10
417.7442293564
 20
325.3139721028
 30
0.0
 40
1.0
100
AcDbArc
 50
99.5630855191
 51
180.0
  0
ARC
  5
D0
330
1F
100
AcDbEntity
  8
0
  6
Continuous
 62
     7
370
    25
100
AcDbCircle
 10
465.7442293564
 20
325.3139721028
 30
0.0
 40
1.0
100
AcDbArc
 50
0.0
 51
80.4369144809
  0
LINE
  5
D1
330
1F
100
AcDbEntity
  8
0
  6
Continuous
 62
     7
370
    25
100
AcDbLine
 10
466.7442293564
 20
322.5338726012
 30
0.0
 11
466.7442293564
 21
325.3139721028
 31
0.0
  0
LINE
  5
D2
330
1F
100
AcDbEntity
  8
0
  6
Continuous
 62
     7
370
    25
100
AcDbLine
 10
416.7442293564
 20
325.3139721028
 30
0.0
 11
416.7442293564
 21
322.5338726012
 31
0.0
  0
LINE
  5
D3
330
1F
100
AcDbEntity
  8
0
  6
Continuous
 62
     7
370
    25
100
AcDbLine
 10
416.9968200377
 20
321.8695087624
 30
0.0
 11
424.4916386751
 21
313.4378377954
 31
0.0
  0
LINE
  5
D4
330
1F
100
AcDbEntity
  8
0
  6
Continuous
 62
     7
370
    25
100
AcDbLine
 10
458.9968200377
 20
313.4378377954
 30
0.0
 11
466.4916386751
 21
321.8695087624
 31
0.0
  0
ARC
  5
D5
330
1F
100
AcDbEntity
  8
0
  6
Continuous
 62
     7
370
    25
100
AcDbCircle
 10
455.7055684586
 20
265.7284034035
 30
0.0
 40
61.42528204188939
100
AcDbArc
 50
80.4369144809
 51
89.963938197
  0
ARC
  5
D6
330
1F
100
AcDbEntity
  8
0
  6
Continuous
 62
     7
370
    25
100
AcDbCircle
 10
427.7828902541
 20
265.7284034035
 30
0.0
 40
61.42528204188933
100
AcDbArc
 50
90.036061803
 51
99.5630855191
  0
ARC
  5
D7
330
1F
100
AcDbEntity
  8
0
  6
Continuous
 62
     7
370
    25
100
AcDbCircle
 10
459.7442293564
 20
312.7734739565
 30
0.0
 40
1.000000000000013
100
AcDbArc
 50
138.3664606634
 51
180.0
  0
ARC
  5
D8
330
1F
100
AcDbEntity
  8
0
  6
Continuous
 62
     7
370
    25
100
AcDbCircle
 10
423.7442293564
 20
312.7734739565
 30
0.0
 40
1.000000000000018
100
AcDbArc
 50
0.0
 51
41.6335393366
  0
LINE
  5
D9
330
1F
100
AcDbEntity
  8
0
  6
Continuous
 62
     7
370
    25
100
AcDbLine
 10
458.7442293564
 20
310.1536732789
 30
0.0
 11
458.7442293564
 21
312.7734739565
 31
0.0
  0
LINE
  5
DA
330
1F
100
AcDbEntity
  8
0
  6
Continuous
 62
     7
370
    25
100
AcDbLine
 10
424.7442293564
 20
312.7734739565
 30
0.0
 11
424.7442293564
 21
310.1536732789
 31
0.0
  0
ARC
  5
DB
330
1F
100
AcDbEntity
  8
0
  6
Continuous
 62
     7
370
    25
100
AcDbCircle
 10
457.7442293564
 20
310.1536732789
 30
0.0
 40
1.0
100
AcDbArc
 50
270.0
 51
0.0
  0
ARC
  5
DC
330
1F
100
AcDbEntity
  8
0
  6
Continuous
 62
     7
370
    25
100
AcDbCircle
 10
425.7442293564
 20
310.1536732789
 30
0.0
 40
1.0
100
AcDbArc
 50
180.0
 51
270.0
  0
ARC
  5
DD
330
1F
100
AcDbEntity
  8
0
  6
Continuous
 62
     7
370
    25
100
AcDbCircle
 10
-212.3617983402
 20
-7.0066255451
 30
0.0
 40
1.0
100
AcDbArc
 50
279.5630855191
 51
0.0
  0
ARC
  5
DE
330
1F
100
AcDbEntity
  8
0
  6
Continuous
 62
     7
370
    25
100
AcDbCircle
 10
-260.3617983402
 20
-7.0066255451
 30
0.0
 40
1.0
100
AcDbArc
 50
180.0
 51
260.4369144809
  0
LINE
  5
DF
330
1F
100
AcDbEntity
  8
0
  6
Continuous
 62
     7
370
    25
100
AcDbLine
 10
-261.3617983402
 20
-4.2265260435
 30
0.0
 11
-261.3617983402
 21
-7.0066255451
 31
0.0
  0
LINE
  5
E0
330
1F
100
AcDbEntity
  8
0
  6
Continuous
 62
     7
370
    25
100
AcDbLine
 10
-211.3617983402
 20
-7.0066255451
 30
0.0
 11
-211.3617983402
 21
-4.2265260435
 31
0.0
  0
ARC
  5
E1
330
1F
100
AcDbEntity
  8
0
  6
Continuous
 62
     7
370
    25
100
AcDbCircle
 10
-212.3617983402
 20
-4.2265260435
 30
0.0
 40
1.0
100
AcDbArc
 50
0.0
 51
41.6335393366
  0
ARC
  5
E2
330
1F
100
AcDbEntity
  8
0
  6
Continuous
 62
     7
370
    25
100
AcDbCircle
 10
-260.3617983402
 20
-4.2265260435
 30
0.0
 40
1.0
100
AcDbArc
 50
138.3664606634
 51
180.0
  0
LINE
  5
E3
330
1F
100
AcDbEntity
  8
0
  6
Continuous
 62
     7
370
    25
100
AcDbLine
 10
-211.6143890215
 20
-3.5621622046
 30
0.0
 11
-219.1092076589
 21
4.8695087624
 31
0.0
  0
LINE
  5
E4
330
1F
100
AcDbEntity
  8
0
  6
Continuous
 62
     7
370
    25
100
AcDbLine
 10
-253.6143890215
 20
4.8695087624
 30
0.0
 11
-261.1092076589
 21
-3.5621622046
 31
0.0
  0
ARC
  5
E5
330
1F
100
AcDbEntity
  8
0
  6
Continuous
 62
     7
370
    25
100
AcDbCircle
 10
-250.3231374425
 20
52.5789431542
 30
0.0
 40
61.4252820418894
100
AcDbArc
 50
260.4369144809
 51
269.963938197
  0
ARC
  5
E6
330
1F
100
AcDbEntity
  8
0
  6
Continuous
 62
     7
370
    25
100
AcDbCircle
 10
-222.400459238
 20
52.5789431542
 30
0.0
 40
61.4252820418894
100
AcDbArc
 50
270.036061803
 51
279.5630855191
  0
ARC
  5
E7
330
1F
100
AcDbEntity
  8
0
  6
Continuous
 62
     7
370
    25
100
AcDbCircle
 10
-254.3617983402
 20
5.5338726012
 30
0.0
 40
1.000000000000012
100
AcDbArc
 50
318.3664606634
 51
0.0
  0
ARC
  5
E8
330
1F
100
AcDbEntity
  8
0
  6
Continuous
 62
     7
370
    25
100
AcDbCircle
 10
-218.3617983402
 20
5.5338726012
 30
0.0
 40
1.0
100
AcDbArc
 50
180.0
 51
221.6335393366
  0
ARC
  5
E9
330
1F
100
AcDbEntity
  8
0
  6
Continuous
 62
     7
370
    25
100
AcDbCircle
 10
-252.3617983402
 20
8.1536732789
 30
0.0
 40
1.000000000000002
100
AcDbArc
 50
90.0
 51
180.0
  0
ARC
  5
EA
330
1F
100
AcDbEntity
  8
0
  6
Continuous
 62
     7
370
    25
100
AcDbCircle
 10
-220.3617983402
 20
8.1536732789
 30
0.0
 40
1.000000000000002
100
AcDbArc
 50
0.0
 51
90.0
  0
LINE
  5
EB
330
1F
100
AcDbEntity
  8
0
  6
Continuous
 62
     7
370
    25
100
AcDbLine
 10
-253.3617983402
 20
8.1536732789
 30
0.0
 11
-253.3617983402
 21
5.5338726012
 31
0.0
  0
LINE
  5
EC
330
1F
100
AcDbEntity
  8
0
  6
Continuous
 62
     7
370
    25
100
AcDbLine
 10
-219.3617983402
 20
5.5338726012
 30
0.0
 11
-219.3617983402
 21
8.1536732789
 31
0.0
  0
ARC
  5
ED
330
1F
100
AcDbEntity
  8
0
  6
Continuous
 62
     7
370
    25
100
AcDbCircle
 10
-68.5285374077
 20
322.5338726012
 30
0.0
 40
1.000000000000038
100
AcDbArc
 50
180.0
 51
221.6335393366
  0
ARC
  5
EE
330
1F
100
AcDbEntity
  8
0
  6
Continuous
 62
     7
370
    25
100
AcDbCircle
 10
-20.5285374077
 20
322.5338726012
 30
0.0
 40
1.0
100
AcDbArc
 50
318.3664606634
 51
0.0
  0
LINE
  5
EF
330
1F
100
AcDbEntity
  8
0
  6
Continuous
 62
     7
370
    25
100
AcDbLine
 10
-19.5285374077
 20
322.5338726012
 30
0.0
 11
-19.5285374077
 21
325.3139721028
 31
0.0
  0
LINE
  5
F0
330
1F
100
AcDbEntity
  8
0
  6
Continuous
 62
     7
370
    25
100
AcDbLine
 10
-69.5285374077
 20
325.3139721028
 30
0.0
 11
-69.5285374077
 21
322.5338726012
 31
0.0
  0
ARC
  5
F1
330
1F
100
AcDbEntity
  8
0
  6
Continuous
 62
     7
370
    25
100
AcDbCircle
 10
-68.5285374077
 20
325.3139721028
 30
0.0
 40
1.0
100
AcDbArc
 50
99.5630855191
 51
180.0
  0
ARC
  5
F2
330
1F
100
AcDbEntity
  8
0
  6
Continuous
 62
     7
370
    25
100
AcDbCircle
 10
-20.5285374077
 20
325.3139721028
 30
0.0
 40
1.0
100
AcDbArc
 50
0.0
 51
80.4369144809
  0
LINE
  5
F3
330
1F
100
AcDbEntity
  8
0
  6
Continuous
 62
     7
370
    25
100
AcDbLine
 10
-69.2759467264
 20
321.8695087624
 30
0.0
 11
-61.781128089
 21
313.4378377954
 31
0.0
  0
LINE
  5
F4
330
1F
100
AcDbEntity
  8
0
  6
Continuous
 62
     7
370
    25
100
AcDbLine
 10
-27.2759467264
 20
313.4378377954
 30
0.0
 11
-19.781128089
 21
321.8695087624
 31
0.0
  0
ARC
  5
F5
330
1F
100
AcDbEntity
  8
0
  6
Continuous
 62
     7
370
    25
100
AcDbCircle
 10
-30.5671983055
 20
265.7284034035
 30
0.0
 40
61.42528204188933
100
AcDbArc
 50
80.4369144809
 51
89.963938197
  0
ARC
  5
F6
330
1F
100
AcDbEntity
  8
0
  6
Continuous
 62
     7
370
    25
100
AcDbCircle
 10
-58.48987651
 20
265.7284034035
 30
0.0
 40
61.42528204188939
100
AcDbArc
 50
90.036061803
 51
99.5630855191
  0
ARC
  5
F7
330
1F
100
AcDbEntity
  8
0
  6
Continuous
 62
     7
370
    25
100
AcDbCircle
 10
-26.5285374077
 20
312.7734739565
 30
0.0
 40
1.000000000000027
100
AcDbArc
 50
138.3664606634
 51
180.0
  0
ARC
  5
F8
330
1F
100
AcDbEntity
  8
0
  6
Continuous
 62
     7
370
    25
100
AcDbCircle
 10
-62.5285374077
 20
312.7734739565
 30
0.0
 40
1.0
100
AcDbArc
 50
0.0
 51
41.6335393366
  0
LINE
  5
F9
330
1F
100
AcDbEntity
  8
0
  6
Continuous
 62
     7
370
    25
100
AcDbLine
 10
-27.5285374077
 20
310.1536732789
 30
0.0
 11
-27.5285374077
 21
312.7734739565
 31
0.0
  0
LINE
  5
FA
330
1F
100
AcDbEntity
  8
0
  6
Continuous
 62
     7
370
    25
100
AcDbLine
 10
-61.5285374077
 20
312.7734739565
 30
0.0
 11
-61.5285374077
 21
310.1536732789
 31
0.0
  0
ARC
  5
FB
330
1F
100
AcDbEntity
  8
0
  6
Continuous
 62
     7
370
    25
100
AcDbCircle
 10
-28.5285374077
 20
310.1536732789
 30
0.0
 40
1.000000000000004
100
AcDbArc
 50
270.0
 51
0.0
  0
ARC
  5
FC
330
1F
100
AcDbEntity
  8
0
  6
Continuous
 62
     7
370
    25
100
AcDbCircle
 10
-60.5285374077
 20
310.1536732789
 30
0.0
 40
1.0
100
AcDbArc
 50
180.0
 51
270.0
  0
ARC
  5
FD
330
1F
100
AcDbEntity
  8
0
  6
Continuous
 62
     7
370
    25
100
AcDbCircle
 10
609.5774902889
 20
325.3139721028
 30
0.0
 40
1.000000000000114
100
AcDbArc
 50
99.5630855191
 51
180.0
  0
ARC
  5
FE
330
1F
100
AcDbEntity
  8
0
  6
Continuous
 62
     7
370
    25
100
AcDbCircle
 10
657.5774902889
 20
325.3139721028
 30
0.0
 40
1.000000000000114
100
AcDbArc
 50
0.0
 51
80.4369144809
  0
LINE
  5
FF
330
1F
100
AcDbEntity
  8
0
  6
Continuous
 62
     7
370
    25
100
AcDbLine
 10
658.5774902889
 20
322.5338726012
 30
0.0
 11
658.5774902889
 21
325.3139721028
 31
0.0
  0
LINE
  5
100
330
1F
100
AcDbEntity
  8
0
  6
Continuous
 62
     7
370
    25
100
AcDbLine
 10
608.5774902889
 20
325.3139721028
 30
0.0
 11
608.5774902889
 21
322.5338726012
 31
0.0
  0
ARC
  5
101
330
1F
100
AcDbEntity
  8
0
  6
Continuous
 62
     7
370
    25
100
AcDbCircle
 10
609.5774902889
 20
322.5338726012
 30
0.0
 40
1.000000000000114
100
AcDbArc
 50
180.0
 51
221.6335393366
  0
ARC
  5
102
330
1F
100
AcDbEntity
  8
0
  6
Continuous
 62
     7
370
    25
100
AcDbCircle
 10
657.5774902889
 20
322.5338726012
 30
0.0
 40
1.000000000000114
100
AcDbArc
 50
318.3664606634
 51
0.0
  0
LINE
  5
103
330
1F
100
AcDbEntity
  8
0
  6
Continuous
 62
     7
370
    25
100
AcDbLine
 10
608.8300809702
 20
321.8695087624
 30
0.0
 11
616.3248996076
 21
313.4378377954
 31
0.0
  0
LINE
  5
104
330
1F
100
AcDbEntity
  8
0
  6
Continuous
 62
     7
370
    25
100
AcDbLine
 10
650.8300809702
 20
313.4378377954
 30
0.0
 11
658.3248996076
 21
321.8695087624
 31
0.0
  0
ARC
  5
105
330
1F
100
AcDbEntity
  8
0
  6
Continuous
 62
     7
370
    25
100
AcDbCircle
 10
647.5388293911
 20
265.7284034035
 30
0.0
 40
61.42528204188948
100
AcDbArc
 50
80.4369144809
 51
89.963938197
  0
ARC
  5
106
330
1F
100
AcDbEntity
  8
0
  6
Continuous
 62
     7
370
    25
100
AcDbCircle
 10
619.6161511866
 20
265.7284034035
 30
0.0
 40
61.42528204188946
100
AcDbArc
 50
90.036061803
 51
99.5630855191
  0
ARC
  5
107
330
1F
100
AcDbEntity
  8
0
  6
Continuous
 62
     7
370
    25
100
AcDbCircle
 10
651.5774902889
 20
312.7734739565
 30
0.0
 40
1.0
100
AcDbArc
 50
138.3664606634
 51
180.0
  0
ARC
  5
108
330
1F
100
AcDbEntity
  8
0
  6
Continuous
 62
     7
370
    25
100
AcDbCircle
 10
615.5774902889
 20
312.7734739565
 30
0.0
 40
1.0
100
AcDbArc
 50
0.0
 51
41.6335393366
  0
LINE
  5
109
330
1F
100
AcDbEntity
  8
0
  6
Continuous
 62
     7
370
    25
100
AcDbLine
 10
650.5774902889
 20
310.1536732789
 30
0.0
 11
650.5774902889
 21
312.7734739565
 31
0.0
  0
LINE
  5
10A
330
1F
100
AcDbEntity
  8
0
  6
Continuous
 62
     7
370
    25
100
AcDbLine
 10
616.5774902889
 20
312.7734739565
 30
0.0
 11
616.5774902889
 21
310.1536732789
 31
0.0
  0
ARC
  5
10B
330
1F
100
AcDbEntity
  8
0
  6
Continuous
 62
     7
370
    25
100
AcDbCircle
 10
649.5774902889
 20
310.1536732789
 30
0.0
 40
1.0
100
AcDbArc
 50
270.0
 51
0.0
  0
ARC
  5
10C
330
1F
100
AcDbEntity
  8
0
  6
Continuous
 62
     7
370
    25
100
AcDbCircle
 10
617.5774902889
 20
310.1536732789
 30
0.0
 40
1.0
100
AcDbArc
 50
180.0
 51
270.0
  0
ARC
  5
10D
330
1F
100
AcDbEntity
  8
0
  6
Continuous
 62
     7
370
    25
100
AcDbCircle
 10
657.5774902889
 20
-7.0066255451
 30
0.0
 40
1.000000000000008
100
AcDbArc
 50
279.5630855191
 51
0.0
  0
ARC
  5
10E
330
1F
100
AcDbEntity
  8
0
  6
Continuous
 62
     7
370
    25
100
AcDbCircle
 10
609.5774902889
 20
-7.0066255451
 30
0.0
 40
0.9999999999999885
100
AcDbArc
 50
180.0
 51
260.4369144809
  0
LINE
  5
10F
330
1F
100
AcDbEntity
  8
0
  6
Continuous
 62
     7
370
    25
100
AcDbLine
 10
608.5774902889
 20
-4.2265260435
 30
0.0
 11
608.5774902889
 21
-7.0066255451
 31
0.0
  0
LINE
  5
110
330
1F
100
AcDbEntity
  8
0
  6
Continuous
 62
     7
370
    25
100
AcDbLine
 10
658.5774902889
 20
-7.0066255451
 30
0.0
 11
658.5774902889
 21
-4.2265260435
 31
0.0
  0
ARC
  5
111
330
1F
100
AcDbEntity
  8
0
  6
Continuous
 62
     7
370
    25
100
AcDbCircle
 10
657.5774902889
 20
-4.2265260435
 30
0.0
 40
1.000000000000068
100
AcDbArc
 50
0.0
 51
41.6335393366
  0
ARC
  5
112
330
1F
100
AcDbEntity
  8
0
  6
Continuous
 62
     7
370
    25
100
AcDbCircle
 10
609.5774902889
 20
-4.2265260435
 30
0.0
 40
0.9999999999999832
100
AcDbArc
 50
138.3664606634
 51
180.0
  0
LINE
  5
113
330
1F
100
AcDbEntity
  8
0
  6
Continuous
 62
     7
370
    25
100
AcDbLine
 10
658.3248996076
 20
-3.5621622046
 30
0.0
 11
650.8300809702
 21
4.8695087624
 31
0.0
  0
LINE
  5
114
330
1F
100
AcDbEntity
  8
0
  6
Continuous
 62
     7
370
    25
100
AcDbLine
 10
616.3248996076
 20
4.8695087624
 30
0.0
 11
608.8300809702
 21
-3.5621622046
 31
0.0
  0
ARC
  5
115
330
1F
100
AcDbEntity
  8
0
  6
Continuous
 62
     7
370
    25
100
AcDbCircle
 10
619.6161511866
 20
52.5789431542
 30
0.0
 40
61.4252820418894
100
AcDbArc
 50
260.4369144809
 51
269.963938197
  0
ARC
  5
116
330
1F
100
AcDbEntity
  8
0
  6
Continuous
 62
     7
370
    25
100
AcDbCircle
 10
647.5388293911
 20
52.5789431542
 30
0.0
 40
61.4252820418894
100
AcDbArc
 50
270.036061803
 51
279.5630855191
  0
ARC
  5
117
330
1F
100
AcDbEntity
  8
0
  6
Continuous
 62
     7
370
    25
100
AcDbCircle
 10
615.5774902889
 20
5.5338726012
 30
0.0
 40
1.000000000000114
100
AcDbArc
 50
318.3664606634
 51
0.0
  0
ARC
  5
118
330
1F
100
AcDbEntity
  8
0
  6
Continuous
 62
     7
370
    25
100
AcDbCircle
 10
651.5774902889
 20
5.5338726012
 30
0.0
 40
1.0
100
AcDbArc
 50
180.0
 51
221.6335393366
  0
ARC
  5
119
330
1F
100
AcDbEntity
  8
0
  6
Continuous
 62
     7
370
    25
100
AcDbCircle
 10
617.5774902889
 20
8.1536732789
 30
0.0
 40
1.000000000000002
100
AcDbArc
 50
90.0
 51
180.0
  0
ARC
  5
11A
330
1F
100
AcDbEntity
  8
0
  6
Continuous
 62
     7
370
    25
100
AcDbCircle
 10
649.5774902889
 20
8.1536732789
 30
0.0
 40
1.000000000000002
100
AcDbArc
 50
0.0
 51
90.0
  0
LINE
  5
11B
330
1F
100
AcDbEntity
  8
0
  6
Continuous
 62
     7
370
    25
100
AcDbLine
 10
616.5774902889
 20
8.1536732789
 30
0.0
 11
616.5774902889
 21
5.5338726012
 31
0.0
  0
LINE
  5
11C
330
1F
100
AcDbEntity
  8
0
  6
Continuous
 62
     7
370
    25
100
AcDbLine
 10
650.5774902889
 20
5.5338726012
 30
0.0
 11
650.5774902889
 21
8.1536732789
 31
0.0
  0
ARC
  5
11D
330
1F
100
AcDbEntity
  8
0
  6
Continuous
 62
     7
370
    25
100
AcDbCircle
 10
-20.5285374077
 20
-7.0066255451
 30
0.0
 40
1.000000000000014
100
AcDbArc
 50
279.5630855191
 51
0.0
  0
ARC
  5
11E
330
1F
100
AcDbEntity
  8
0
  6
Continuous
 62
     7
370
    25
100
AcDbCircle
 10
-68.5285374077
 20
-7.0066255451
 30
0.0
 40
1.0
100
AcDbArc
 50
180.0
 51
260.4369144809
  0
ARC
  5
11F
330
1F
100
AcDbEntity
  8
0
  6
Continuous
 62
     7
370
    25
100
AcDbCircle
 10
-20.5285374077
 20
-4.2265260435
 30
0.0
 40
1.0
100
AcDbArc
 50
0.0
 51
41.6335393366
  0
ARC
  5
120
330
1F
100
AcDbEntity
  8
0
  6
Continuous
 62
     7
370
    25
100
AcDbCircle
 10
-68.5285374077
 20
-4.2265260435
 30
0.0
 40
1.0
100
AcDbArc
 50
138.3664606634
 51
180.0
  0
LINE
  5
121
330
1F
100
AcDbEntity
  8
0
  6
Continuous
 62
     7
370
    25
100
AcDbLine
 10
-69.5285374077
 20
-4.2265260435
 30
0.0
 11
-69.5285374077
 21
-7.0066255451
 31
0.0
  0
LINE
  5
122
330
1F
100
AcDbEntity
  8
0
  6
Continuous
 62
     7
370
    25
100
AcDbLine
 10
-19.5285374077
 20
-7.0066255451
 30
0.0
 11
-19.5285374077
 21
-4.2265260435
 31
0.0
  0
LINE
  5
123
330
1F
100
AcDbEntity
  8
0
  6
Continuous
 62
     7
370
    25
100
AcDbLine
 10
-19.781128089
 20
-3.5621622046
 30
0.0
 11
-27.2759467264
 21
4.8695087624
 31
0.0
  0
LINE
  5
124
330
1F
100
AcDbEntity
  8
0
  6
Continuous
 62
     7
370
    25
100
AcDbLine
 10
-61.781128089
 20
4.8695087624
 30
0.0
 11
-69.2759467264
 21
-3.5621622046
 31
0.0
  0
ARC
  5
125
330
1F
100
AcDbEntity
  8
0
  6
Continuous
 62
     7
370
    25
100
AcDbCircle
 10
-58.48987651
 20
52.5789431542
 30
0.0
 40
61.42528204188942
100
AcDbArc
 50
260.4369144809
 51
269.963938197
  0
ARC
  5
126
330
1F
100
AcDbEntity
  8
0
  6
Continuous
 62
     7
370
    25
100
AcDbCircle
 10
-30.5671983055
 20
52.5789431542
 30
0.0
 40
61.42528204188939
100
AcDbArc
 50
270.036061803
 51
279.5630855191
  0
ARC
  5
127
330
1F
100
AcDbEntity
  8
0
  6
Continuous
 62
     7
370
    25
100
AcDbCircle
 10
-62.5285374077
 20
5.5338726012
 30
0.0
 40
1.000000000000024
100
AcDbArc
 50
318.3664606634
 51
0.0
  0
ARC
  5
128
330
1F
100
AcDbEntity
  8
0
  6
Continuous
 62
     7
370
    25
100
AcDbCircle
 10
-26.5285374077
 20
5.5338726012
 30
0.0
 40
1.0
100
AcDbArc
 50
180.0
 51
221.6335393366
  0
LINE
  5
129
330
1F
100
AcDbEntity
  8
0
  6
Continuous
 62
     7
370
    25
100
AcDbLine
 10
-61.5285374077
 20
8.1536732789
 30
0.0
 11
-61.5285374077
 21
5.5338726012
 31
0.0
  0
LINE
  5
12A
330
1F
100
AcDbEntity
  8
0
  6
Continuous
 62
     7
370
    25
100
AcDbLine
 10
-27.5285374077
 20
5.5338726012
 30
0.0
 11
-27.5285374077
 21
8.1536732789
 31
0.0
  0
ARC
  5
12B
330
1F
100
AcDbEntity
  8
0
  6
Continuous
 62
     7
370
    25
100
AcDbCircle
 10
-60.5285374077
 20
8.1536732789
 30
0.0
 40
1.0
100
AcDbArc
 50
90.0
 51
180.0
  0
ARC
  5
12C
330
1F
100
AcDbEntity
  8
0
  6
Continuous
 62
     7
370
    25
100
AcDbCircle
 10
-28.5285374077
 20
8.1536732789
 30
0.0
 40
1.0
100
AcDbArc
 50
0.0
 51
90.0
  0
ARC
  5
12D
330
1F
100
AcDbEntity
  8
0
  6
Continuous
 62
     7
370
    25
100
AcDbCircle
 10
-260.3617983402
 20
325.3139721028
 30
0.0
 40
1.000000000000053
100
AcDbArc
 50
99.5630855191
 51
180.0
  0
ARC
  5
12E
330
1F
100
AcDbEntity
  8
0
  6
Continuous
 62
     7
370
    25
100
AcDbCircle
 10
-212.3617983402
 20
325.3139721028
 30
0.0
 40
1.0
100
AcDbArc
 50
0.0
 51
80.4369144809
  0
LINE
  5
12F
330
1F
100
AcDbEntity
  8
0
  6
Continuous
 62
     7
370
    25
100
AcDbLine
 10
-211.3617983402
 20
322.5338726012
 30
0.0
 11
-211.3617983402
 21
325.3139721028
 31
0.0
  0
LINE
  5
130
330
1F
100
AcDbEntity
  8
0
  6
Continuous
 62
     7
370
    25
100
AcDbLine
 10
-261.3617983402
 20
325.3139721028
 30
0.0
 11
-261.3617983402
 21
322.5338726012
 31
0.0
  0
ARC
  5
131
330
1F
100
AcDbEntity
  8
0
  6
Continuous
 62
     7
370
    25
100
AcDbCircle
 10
-260.3617983402
 20
322.5338726012
 30
0.0
 40
1.000000000000027
100
AcDbArc
 50
180.0
 51
221.6335393366
  0
ARC
  5
132
330
1F
100
AcDbEntity
  8
0
  6
Continuous
 62
     7
370
    25
100
AcDbCircle
 10
-212.3617983402
 20
322.5338726012
 30
0.0
 40
1.0
100
AcDbArc
 50
318.3664606634
 51
0.0
  0
LINE
  5
133
330
1F
100
AcDbEntity
  8
0
  6
Continuous
 62
     7
370
    25
100
AcDbLine
 10
-261.1092076589
 20
321.8695087624
 30
0.0
 11
-253.6143890215
 21
313.4378377954
 31
0.0
  0
LINE
  5
134
330
1F
100
AcDbEntity
  8
0
  6
Continuous
 62
     7
370
    25
100
AcDbLine
 10
-219.1092076589
 20
313.4378377954
 30
0.0
 11
-211.6143890215
 21
321.8695087624
 31
0.0
  0
ARC
  5
135
330
1F
100
AcDbEntity
  8
0
  6
Continuous
 62
     7
370
    25
100
AcDbCircle
 10
-222.400459238
 20
265.7284034035
 30
0.0
 40
61.42528204188945
100
AcDbArc
 50
80.4369144809
 51
89.963938197
  0
ARC
  5
136
330
1F
100
AcDbEntity
  8
0
  6
Continuous
 62
     7
370
    25
100
AcDbCircle
 10
-250.3231374425
 20
265.7284034035
 30
0.0
 40
61.42528204188945
100
AcDbArc
 50
90.036061803
 51
99.5630855191
  0
ARC
  5
137
330
1F
100
AcDbEntity
  8
0
  6
Continuous
 62
     7
370
    25
100
AcDbCircle
 10
-218.3617983402
 20
312.7734739565
 30
0.0
 40
1.000000000000013
100
AcDbArc
 50
138.3664606634
 51
180.0
  0
ARC
  5
138
330
1F
100
AcDbEntity
  8
0
  6
Continuous
 62
     7
370
    25
100
AcDbCircle
 10
-254.3617983402
 20
312.7734739565
 30
0.0
 40
1.0
100
AcDbArc
 50
0.0
 51
41.6335393366
  0
ARC
  5
139
330
1F
100
AcDbEntity
  8
0
  6
Continuous
 62
     7
370
    25
100
AcDbCircle
 10
-220.3617983402
 20
310.1536732789
 30
0.0
 40
1.0
100
AcDbArc
 50
270.0
 51
0.0
  0
ARC
  5
13A
330
1F
100
AcDbEntity
  8
0
  6
Continuous
 62
     7
370
    25
100
AcDbCircle
 10
-252.3617983402
 20
310.1536732789
 30
0.0
 40
1.0
100
AcDbArc
 50
180.0
 51
270.0
  0
LINE
  5
13B
330
1F
100
AcDbEntity
  8
0
  6
Continuous
 62
     7
370
    25
100
AcDbLine
 10
-219.3617983402
 20
310.1536732789
 30
0.0
 11
-219.3617983402
 21
312.7734739565
 31
0.0
  0
LINE
  5
13C
330
1F
100
AcDbEntity
  8
0
  6
Continuous
 62
     7
370
    25
100
AcDbLine
 10
-253.3617983402
 20
312.7734739565
 30
0.0
 11
-253.3617983402
 21
310.1536732789
 31
0.0
  0
ARC
  5
13D
330
1F
100
AcDbEntity
  8
0
  6
Continuous
 62
     7
370
    25
100
AcDbCircle
 10
465.7442293564
 20
-7.0066255451
 30
0.0
 40
1.000000000000016
100
AcDbArc
 50
279.5630855191
 51
0.0
  0
ARC
  5
13E
330
1F
100
AcDbEntity
  8
0
  6
Continuous
 62
     7
370
    25
100
AcDbCircle
 10
417.7442293564
 20
-7.0066255451
 30
0.0
 40
1.0
100
AcDbArc
 50
180.0
 51
260.4369144809
  0
ARC
  5
13F
330
1F
100
AcDbEntity
  8
0
  6
Continuous
 62
     7
370
    25
100
AcDbCircle
 10
465.7442293564
 20
-4.2265260435
 30
0.0
 40
1.000000000000026
100
AcDbArc
 50
0.0
 51
41.6335393366
  0
ARC
  5
140
330
1F
100
AcDbEntity
  8
0
  6
Continuous
 62
     7
370
    25
100
AcDbCircle
 10
417.7442293564
 20
-4.2265260435
 30
0.0
 40
1.0
100
AcDbArc
 50
138.3664606634
 51
180.0
  0
LINE
  5
141
330
1F
100
AcDbEntity
  8
0
  6
Continuous
 62
     7
370
    25
100
AcDbLine
 10
416.7442293564
 20
-4.2265260435
 30
0.0
 11
416.7442293564
 21
-7.0066255451
 31
0.0
  0
LINE
  5
142
330
1F
100
AcDbEntity
  8
0
  6
Continuous
 62
     7
370
    25
100
AcDbLine
 10
466.7442293564
 20
-7.0066255451
 30
0.0
 11
466.7442293564
 21
-4.2265260435
 31
0.0
  0
LINE
  5
143
330
1F
100
AcDbEntity
  8
0
  6
Continuous
 62
     7
370
    25
100
AcDbLine
 10
466.4916386751
 20
-3.5621622046
 30
0.0
 11
458.9968200377
 21
4.8695087624
 31
0.0
  0
LINE
  5
144
330
1F
100
AcDbEntity
  8
0
  6
Continuous
 62
     7
370
    25
100
AcDbLine
 10
424.4916386751
 20
4.8695087624
 30
0.0
 11
416.9968200377
 21
-3.5621622046
 31
0.0
  0
ARC
  5
145
330
1F
100
AcDbEntity
  8
0
  6
Continuous
 62
     7
370
    25
100
AcDbCircle
 10
427.7828902541
 20
52.5789431542
 30
0.0
 40
61.42528204188942
100
AcDbArc
 50
260.4369144809
 51
269.963938197
  0
ARC
  5
146
330
1F
100
AcDbEntity
  8
0
  6
Continuous
 62
     7
370
    25
100
AcDbCircle
 10
455.7055684586
 20
52.5789431542
 30
0.0
 40
61.4252820418894
100
AcDbArc
 50
270.036061803
 51
279.5630855191
  0
ARC
  5
147
330
1F
100
AcDbEntity
  8
0
  6
Continuous
 62
     7
370
    25
100
AcDbCircle
 10
423.7442293564
 20
5.5338726012
 30
0.0
 40
1.0
100
AcDbArc
 50
318.3664606634
 51
0.0
  0
ARC
  5
148
330
1F
100
AcDbEntity
  8
0
  6
Continuous
 62
     7
370
    25
100
AcDbCircle
 10
459.7442293564
 20
5.5338726012
 30
0.0
 40
1.0
100
AcDbArc
 50
180.0
 51
221.6335393366
  0
ARC
  5
149
330
1F
100
AcDbEntity
  8
0
  6
Continuous
 62
     7
370
    25
100
AcDbCircle
 10
425.7442293564
 20
8.1536732789
 30
0.0
 40
1.0
100
AcDbArc
 50
90.0
 51
180.0
  0
ARC
  5
14A
330
1F
100
AcDbEntity
  8
0
  6
Continuous
 62
     7
370
    25
100
AcDbCircle
 10
457.7442293564
 20
8.1536732789
 30
0.0
 40
1.000000000000002
100
AcDbArc
 50
0.0
 51
90.0
  0
LINE
  5
14B
330
1F
100
AcDbEntity
  8
0
  6
Continuous
 62
     7
370
    25
100
AcDbLine
 10
424.7442293564
 20
8.1536732789
 30
0.0
 11
424.7442293564
 21
5.5338726012
 31
0.0
  0
LINE
  5
14C
330
1F
100
AcDbEntity
  8
0
  6
Continuous
 62
     7
370
    25
100
AcDbLine
 10
458.7442293564
 20
5.5338726012
 30
0.0
 11
458.7442293564
 21
8.1536732789
 31
0.0
  0
ARC
  5
14D
330
1F
100
AcDbEntity
  8
0
  6
Continuous
 62
     7
370
    25
100
AcDbCircle
 10
428.9942293564
 20
-9.0941811161
 30
0.0
 40
1.000000000000008
100
AcDbArc
 50
180.0
 51
254.3504861218
  0
ARC
  5
14E
330
1F
100
AcDbEntity
  8
0
  6
Continuous
 62
     7
370
    25
100
AcDbCircle
 10
454.4942293564
 20
-9.0941811161
 30
0.0
 40
1.00000000000001
100
AcDbArc
 50
285.6495138782
 51
0.0
  0
LINE
  5
14F
330
1F
100
AcDbEntity
  8
0
  6
Continuous
 62
     7
370
    25
100
AcDbLine
 10
427.9942293564
 20
-8.8463267211
 30
0.0
 11
427.9942293564
 21
-9.0941811161
 31
0.0
  0
LINE
  5
150
330
1F
100
AcDbEntity
  8
0
  6
Continuous
 62
     7
370
    25
100
AcDbLine
 10
455.4942293564
 20
-9.0941811161
 30
0.0
 11
455.4942293564
 21
-8.8463267211
 31
0.0
  0
ARC
  5
151
330
1F
100
AcDbEntity
  8
0
  6
Continuous
 62
     7
370
    25
100
AcDbCircle
 10
441.7442293564
 20
36.4192982789
 30
0.0
 40
48.26562500000041
100
AcDbArc
 50
254.3504861218
 51
285.6495138782
  0
LINE
  5
152
330
1F
100
AcDbEntity
  8
0
  6
Continuous
 62
     7
370
    25
100
AcDbLine
 10
-30.7785374077
 20
327.1536732789
 30
0.0
 11
-30.7785374077
 21
327.4015276739
 31
0.0
  0
LINE
  5
153
330
1F
100
AcDbEntity
  8
0
  6
Continuous
 62
     7
370
    25
100
AcDbLine
 10
-58.2785374077
 20
327.4015276739
 30
0.0
 11
-58.2785374077
 21
327.1536732789
 31
0.0
  0
ARC
  5
154
330
1F
100
AcDbEntity
  8
0
  6
Continuous
 62
     7
370
    25
100
AcDbCircle
 10
-31.7785374077
 20
327.4015276739
 30
0.0
 40
1.0
100
AcDbArc
 50
0.0
 51
74.3504861218
  0
ARC
  5
155
330
1F
100
AcDbEntity
  8
0
  6
Continuous
 62
     7
370
    25
100
AcDbCircle
 10
-57.2785374077
 20
327.4015276739
 30
0.0
 40
1.0
100
AcDbArc
 50
105.6495138782
 51
180.0
  0
ARC
  5
156
330
1F
100
AcDbEntity
  8
0
  6
Continuous
 62
     7
370
    25
100
AcDbCircle
 10
-44.5285374077
 20
281.8880482789
 30
0.0
 40
48.26562500000034
100
AcDbArc
 50
74.3504861218
 51
105.6495138782
  0
LINE
  5
157
330
1F
100
AcDbEntity
  8
0
  6
Continuous
 62
     7
370
    25
100
AcDbLine
 10
-250.1117983402
 20
-8.8463267211
 30
0.0
 11
-250.1117983402
 21
-9.0941811161
 31
0.0
  0
LINE
  5
158
330
1F
100
AcDbEntity
  8
0
  6
Continuous
 62
     7
370
    25
100
AcDbLine
 10
-222.6117983402
 20
-9.0941811161
 30
0.0
 11
-222.6117983402
 21
-8.8463267211
 31
0.0
  0
ARC
  5
159
330
1F
100
AcDbEntity
  8
0
  6
Continuous
 62
     7
370
    25
100
AcDbCircle
 10
-249.1117983402
 20
-9.0941811161
 30
0.0
 40
1.000000000000001
100
AcDbArc
 50
180.0
 51
254.3504861218
  0
ARC
  5
15A
330
1F
100
AcDbEntity
  8
0
  6
Continuous
 62
     7
370
    25
100
AcDbCircle
 10
-223.6117983402
 20
-9.0941811161
 30
0.0
 40
1.000000000000001
100
AcDbArc
 50
285.6495138782
 51
0.0
  0
ARC
  5
15B
330
1F
100
AcDbEntity
  8
0
  6
Continuous
 62
     7
370
    25
100
AcDbCircle
 10
-236.3617983402
 20
36.4192982789
 30
0.0
 40
48.2656250000004
100
AcDbArc
 50
254.3504861218
 51
285.6495138782
  0
ARC
  5
15C
330
1F
100
AcDbEntity
  8
0
  6
Continuous
 62
     7
370
    25
100
AcDbCircle
 10
646.3274902889
 20
327.4015276739
 30
0.0
 40
1.000000000000019
100
AcDbArc
 50
0.0
 51
74.3504861218
  0
ARC
  5
15D
330
1F
100
AcDbEntity
  8
0
  6
Continuous
 62
     7
370
    25
100
AcDbCircle
 10
620.8274902889
 20
327.4015276739
 30
0.0
 40
1.000000000000073
100
AcDbArc
 50
105.6495138782
 51
180.0
  0
LINE
  5
15E
330
1F
100
AcDbEntity
  8
0
  6
Continuous
 62
     7
370
    25
100
AcDbLine
 10
647.3274902889
 20
327.1536732789
 30
0.0
 11
647.3274902889
 21
327.4015276739
 31
0.0
  0
LINE
  5
15F
330
1F
100
AcDbEntity
  8
0
  6
Continuous
 62
     7
370
    25
100
AcDbLine
 10
619.8274902889
 20
327.4015276739
 30
0.0
 11
619.8274902889
 21
327.1536732789
 31
0.0
  0
ARC
  5
160
330
1F
100
AcDbEntity
  8
0
  6
Continuous
 62
     7
370
    25
100
AcDbCircle
 10
633.5774902889
 20
281.8880482789
 30
0.0
 40
48.26562500000043
100
AcDbArc
 50
74.3504861218
 51
105.6495138782
  0
ARC
  5
161
330
1F
100
AcDbEntity
  8
0
  6
Continuous
 62
     7
370
    25
100
AcDbCircle
 10
-57.2785374077
 20
-9.0941811161
 30
0.0
 40
1.00000000000003
100
AcDbArc
 50
180.0
 51
254.3504861218
  0
ARC
  5
162
330
1F
100
AcDbEntity
  8
0
  6
Continuous
 62
     7
370
    25
100
AcDbCircle
 10
-31.7785374077
 20
-9.0941811161
 30
0.0
 40
1.000000000000004
100
AcDbArc
 50
285.6495138782
 51
0.0
  0
LINE
  5
163
330
1F
100
AcDbEntity
  8
0
  6
Continuous
 62
     7
370
    25
100
AcDbLine
 10
-58.2785374077
 20
-8.8463267211
 30
0.0
 11
-58.2785374077
 21
-9.0941811161
 31
0.0
  0
LINE
  5
164
330
1F
100
AcDbEntity
  8
0
  6
Continuous
 62
     7
370
    25
100
AcDbLine
 10
-30.7785374077
 20
-9.0941811161
 30
0.0
 11
-30.7785374077
 21
-8.8463267211
 31
0.0
  0
ARC
  5
165
330
1F
100
AcDbEntity
  8
0
  6
Continuous
 62
     7
370
    25
100
AcDbCircle
 10
-44.5285374077
 20
36.4192982789
 30
0.0
 40
48.2656250000004
100
AcDbArc
 50
254.3504861218
 51
285.6495138782
  0
ARC
  5
166
330
1F
100
AcDbEntity
  8
0
  6
Continuous
 62
     7
370
    25
100
AcDbCircle
 10
-223.6117983402
 20
327.4015276739
 30
0.0
 40
1.0
100
AcDbArc
 50
0.0
 51
74.3504861218
  0
ARC
  5
167
330
1F
100
AcDbEntity
  8
0
  6
Continuous
 62
     7
370
    25
100
AcDbCircle
 10
-249.1117983402
 20
327.4015276739
 30
0.0
 40
1.0
100
AcDbArc
 50
105.6495138782
 51
180.0
  0
LINE
  5
168
330
1F
100
AcDbEntity
  8
0
  6
Continuous
 62
     7
370
    25
100
AcDbLine
 10
-222.6117983402
 20
327.1536732789
 30
0.0
 11
-222.6117983402
 21
327.4015276739
 31
0.0
  0
LINE
  5
169
330
1F
100
AcDbEntity
  8
0
  6
Continuous
 62
     7
370
    25
100
AcDbLine
 10
-250.1117983402
 20
327.4015276739
 30
0.0
 11
-250.1117983402
 21
327.1536732789
 31
0.0
  0
ARC
  5
16A
330
1F
100
AcDbEntity
  8
0
  6
Continuous
 62
     7
370
    25
100
AcDbCircle
 10
-236.3617983402
 20
281.8880482789
 30
0.0
 40
48.26562500000034
100
AcDbArc
 50
74.3504861218
 51
105.6495138782
  0
ARC
  5
16B
330
1F
100
AcDbEntity
  8
0
  6
Continuous
 62
     7
370
    25
100
AcDbCircle
 10
620.8274902889
 20
-9.0941811161
 30
0.0
 40
1.000000000000024
100
AcDbArc
 50
180.0
 51
254.3504861218
  0
ARC
  5
16C
330
1F
100
AcDbEntity
  8
0
  6
Continuous
 62
     7
370
    25
100
AcDbCircle
 10
646.3274902889
 20
-9.0941811161
 30
0.0
 40
1.000000000000114
100
AcDbArc
 50
285.6495138782
 51
0.0
  0
LINE
  5
16D
330
1F
100
AcDbEntity
  8
0
  6
Continuous
 62
     7
370
    25
100
AcDbLine
 10
619.8274902889
 20
-8.8463267211
 30
0.0
 11
619.8274902889
 21
-9.0941811161
 31
0.0
  0
LINE
  5
16E
330
1F
100
AcDbEntity
  8
0
  6
Continuous
 62
     7
370
    25
100
AcDbLine
 10
647.3274902889
 20
-9.0941811161
 30
0.0
 11
647.3274902889
 21
-8.8463267211
 31
0.0
  0
ARC
  5
16F
330
1F
100
AcDbEntity
  8
0
  6
Continuous
 62
     7
370
    25
100
AcDbCircle
 10
633.5774902889
 20
36.4192982789
 30
0.0
 40
48.2656250000004
100
AcDbArc
 50
254.3504861218
 51
285.6495138782
  0
ARC
  5
170
330
1F
100
AcDbEntity
  8
0
  6
Continuous
 62
     7
370
    25
100
AcDbCircle
 10
454.4942293564
 20
327.4015276739
 30
0.0
 40
1.000000000000003
100
AcDbArc
 50
0.0
 51
74.3504861218
  0
ARC
  5
171
330
1F
100
AcDbEntity
  8
0
  6
Continuous
 62
     7
370
    25
100
AcDbCircle
 10
428.9942293564
 20
327.4015276739
 30
0.0
 40
1.0
100
AcDbArc
 50
105.6495138782
 51
180.0
  0
LINE
  5
172
330
1F
100
AcDbEntity
  8
0
  6
Continuous
 62
     7
370
    25
100
AcDbLine
 10
455.4942293564
 20
327.1536732789
 30
0.0
 11
455.4942293564
 21
327.4015276739
 31
0.0
  0
LINE
  5
173
330
1F
100
AcDbEntity
  8
0
  6
Continuous
 62
     7
370
    25
100
AcDbLine
 10
427.9942293564
 20
327.4015276739
 30
0.0
 11
427.9942293564
 21
327.1536732789
 31
0.0
  0
ARC
  5
174
330
1F
100
AcDbEntity
  8
0
  6
Continuous
 62
     7
370
    25
100
AcDbCircle
 10
441.7442293564
 20
281.8880482789
 30
0.0
 40
48.26562500000038
100
AcDbArc
 50
74.3504861218
 51
105.6495138782
  0
LINE
  5
175
330
1F
100
AcDbEntity
  8
0
  6
Continuous
 62
     7
370
    25
100
AcDbLine
 10
673.3541472591
 20
102.1536732789
 30
0.0
 11
673.3541472591
 21
111.1536732789
 31
0.0
  0
ARC
  5
176
330
1F
100
AcDbEntity
  8
0
  6
Continuous
 62
     7
370
    25
100
AcDbCircle
 10
670.3541472591
 20
102.1536732789
 30
0.0
 40
3.0
100
AcDbArc
 50
270.0
 51
0.0
  0
ARC
  5
177
330
1F
100
AcDbEntity
  8
0
  6
Continuous
 62
     7
370
    25
100
AcDbCircle
 10
670.3541472591
 20
111.1536732789
 30
0.0
 40
3.0
100
AcDbArc
 50
0.0
 51
90.0
  0
ARC
  5
178
330
1F
100
AcDbEntity
  8
0
  6
Continuous
 62
     7
370
    25
100
AcDbCircle
 10
404.9675723861
 20
102.1536732789
 30
0.0
 40
3.000000000000057
100
AcDbArc
 50
180.0
 51
270.0
  0
LINE
  5
179
330
1F
100
AcDbEntity
  8
0
  6
Continuous
 62
     7
370
    25
100
AcDbLine
 10
401.9675723861
 20
111.1536732789
 30
0.0
 11
401.9675723861
 21
102.1536732789
 31
0.0
  0
ARC
  5
17A
330
1F
100
AcDbEntity
  8
0
  6
Continuous
 62
     7
370
    25
100
AcDbCircle
 10
404.9675723861
 20
111.1536732789
 30
0.0
 40
3.0
100
AcDbArc
 50
90.0
 51
180.0
  0
LINE
  5
17B
330
1F
100
AcDbEntity
  8
0
  6
Continuous
 62
     7
370
    25
100
AcDbLine
 10
-575.2842033951
 20
194.1536732789
 30
0.0
 11
-575.2842033951
 21
172.1011199139
 31
0.0
  0
LINE
  5
17C
330
1F
100
AcDbEntity
  8
0
  6
Continuous
 62
     7
370
    25
100
AcDbLine
 10
-575.2842033951
 20
146.2062269387
 30
0.0
 11
-575.2842033951
 21
124.1536732789
 31
0.0
  0
ARC
  5
17D
330
1F
100
AcDbEntity
  8
0
  6
Continuous
 62
     7
370
    25
100
AcDbCircle
 10
-571.2842033951
 20
194.1536732789
 30
0.0
 40
4.0
100
AcDbArc
 50
90.0
 51
180.0
  0
ARC
  5
17E
330
1F
100
AcDbEntity
  8
0
  6
Continuous
 62
     7
370
    25
100
AcDbCircle
 10
-571.2842033951
 20
124.1536732789
 30
0.0
 40
4.0
100
AcDbArc
 50
180.0
 51
270.0
  0
ARC
  5
17F
330
1F
100
AcDbEntity
  8
0
  6
Continuous
 62
     7
370
    25
100
AcDbCircle
 10
968.4998953438
 20
124.1536732789
 30
0.0
 40
4.0
100
AcDbArc
 50
270.0
 51
0.0
  0
LINE
  5
180
330
1F
100
AcDbEntity
  8
0
  6
Continuous
 62
     7
370
    25
100
AcDbLine
 10
972.4998953438
 20
124.1536732789
 30
0.0
 11
972.4998953438
 21
146.2062266439
 31
0.0
  0
LINE
  5
181
330
1F
100
AcDbEntity
  8
0
  6
Continuous
 62
     7
370
    25
100
AcDbLine
 10
972.4998953438
 20
172.101119619
 30
0.0
 11
972.4998953438
 21
194.1536732789
 31
0.0
  0
ARC
  5
182
330
1F
100
AcDbEntity
  8
0
  6
Continuous
 62
     7
370
    25
100
AcDbCircle
 10
968.4998953438
 20
194.1536732789
 30
0.0
 40
4.0
100
AcDbArc
 50
0.0
 51
90.0
  0
ARC
  5
183
330
1F
100
AcDbEntity
  8
0
  6
Continuous
 62
     7
370
    25
100
AcDbCircle
 10
-275.3687458014
 20
111.1536732789
 30
0.0
 40
3.0
100
AcDbArc
 50
90.0
 51
180.0
  0
LINE
  5
184
330
1F
100
AcDbEntity
  8
0
  6
Continuous
 62
     7
370
    25
100
AcDbLine
 10
-278.3687458014
 20
111.1536732789
 30
0.0
 11
-278.3687458014
 21
102.1536732789
 31
0.0
  0
ARC
  5
185
330
1F
100
AcDbEntity
  8
0
  6
Continuous
 62
     7
370
    25
100
AcDbCircle
 10
-275.3687458014
 20
102.1536732789
 30
0.0
 40
3.000000000000057
100
AcDbArc
 50
180.0
 51
270.0
  0
ARC
  5
186
330
1F
100
AcDbEntity
  8
0
  6
Continuous
 62
     7
370
    25
100
AcDbCircle
 10
-5.5215899466
 20
102.1536732789
 30
0.0
 40
3.000000000000014
100
AcDbArc
 50
270.0
 51
0.0
  0
ARC
  5
187
330
1F
100
AcDbEntity
  8
0
  6
Continuous
 62
     7
370
    25
100
AcDbCircle
 10
-5.5215899466
 20
111.1536732789
 30
0.0
 40
3.000000000000003
100
AcDbArc
 50
0.0
 51
90.0
  0
LINE
  5
188
330
1F
100
AcDbEntity
  8
0
  6
Continuous
 62
     7
370
    25
100
AcDbLine
 10
-2.5215899466
 20
102.1536732789
 30
0.0
 11
-2.5215899466
 21
111.1536732789
 31
0.0
  0
ARC
  5
189
330
1F
100
AcDbEntity
  8
0
  6
Continuous
 62
     7
370
    25
100
AcDbCircle
 10
672.58443775
 20
216.1536732789
 30
0.0
 40
3.0
100
AcDbArc
 50
0.0
 51
90.0
  0
ARC
  5
18A
330
1F
100
AcDbEntity
  8
0
  6
Continuous
 62
     7
370
    25
100
AcDbCircle
 10
672.58443775
 20
207.1536732789
 30
0.0
 40
3.000000000000114
100
AcDbArc
 50
270.0
 51
0.0
  0
LINE
  5
18B
330
1F
100
AcDbEntity
  8
0
  6
Continuous
 62
     7
370
    25
100
AcDbLine
 10
675.58443775
 20
207.1536732789
 30
0.0
 11
675.58443775
 21
216.1536732789
 31
0.0
  0
ARC
  5
18C
330
1F
100
AcDbEntity
  8
0
  6
Continuous
 62
     7
370
    25
100
AcDbCircle
 10
402.7372818952
 20
216.1536732789
 30
0.0
 40
3.0
100
AcDbArc
 50
90.0
 51
180.0
  0
ARC
  5
18D
330
1F
100
AcDbEntity
  8
0
  6
Continuous
 62
     7
370
    25
100
AcDbCircle
 10
402.7372818952
 20
207.1536732789
 30
0.0
 40
3.000000000000028
100
AcDbArc
 50
180.0
 51
270.0
  0
LINE
  5
18E
330
1F
100
AcDbEntity
  8
0
  6
Continuous
 62
     7
370
    25
100
AcDbLine
 10
399.7372818952
 20
216.1536732789
 30
0.0
 11
399.7372818952
 21
207.1536732789
 31
0.0
  0
ARC
  5
18F
330
1F
100
AcDbEntity
  8
0
  6
Continuous
 62
     7
370
    25
100
AcDbCircle
 10
-275.3687458014
 20
207.1536732789
 30
0.0
 40
3.000000000000057
100
AcDbArc
 50
180.0
 51
270.0
  0
LINE
  5
190
330
1F
100
AcDbEntity
  8
0
  6
Continuous
 62
     7
370
    25
100
AcDbLine
 10
-278.3687458014
 20
216.1536732789
 30
0.0
 11
-278.3687458014
 21
207.1536732789
 31
0.0
  0
ARC
  5
191
330
1F
100
AcDbEntity
  8
0
  6
Continuous
 62
     7
370
    25
100
AcDbCircle
 10
-275.3687458014
 20
216.1536732789
 30
0.0
 40
3.0
100
AcDbArc
 50
90.0
 51
180.0
  0
ARC
  5
192
330
1F
100
AcDbEntity
  8
0
  6
Continuous
 62
     7
370
    25
100
AcDbCircle
 10
-5.5215899466
 20
207.1536732789
 30
0.0
 40
3.000000000000003
100
AcDbArc
 50
270.0
 51
0.0
  0
ARC
  5
193
330
1F
100
AcDbEntity
  8
0
  6
Continuous
 62
     7
370
    25
100
AcDbCircle
 10
-5.5215899466
 20
216.1536732789
 30
0.0
 40
3.000000000000003
100
AcDbArc
 50
0.0
 51
90.0
  0
LINE
  5
194
330
1F
100
AcDbEntity
  8
0
  6
Continuous
 62
     7
370
    25
100
AcDbLine
 10
-2.5215899466
 20
207.1536732789
 30
0.0
 11
-2.5215899466
 21
216.1536732789
 31
0.0
  0
LINE
  5
195
330
1F
100
AcDbEntity
  8
0
  6
Continuous
 62
     7
370
    25
100
AcDbLine
 10
98.6078459743
 20
207.6536732789
 30
0.0
 11
98.6078459743
 21
209.6536732789
 31
0.0
  0
LINE
  5
196
330
1F
100
AcDbEntity
  8
0
  6
Continuous
 62
     7
370
    25
100
AcDbLine
 10
58.6078459743
 20
209.6536732789
 30
0.0
 11
58.6078459743
 21
207.6536732789
 31
0.0
  0
ARC
  5
197
330
1F
100
AcDbEntity
  8
0
  6
Continuous
 62
     7
370
    25
100
AcDbCircle
 10
78.735538282
 20
209.6536732789
 30
0.0
 40
19.8723076923077
100
AcDbArc
 50
0.0
 51
46.9233678463
  0
ARC
  5
198
330
1F
100
AcDbEntity
  8
0
  6
Continuous
 62
     7
370
    25
100
AcDbCircle
 10
78.4801536666
 20
209.6536732789
 30
0.0
 40
19.87230769230769
100
AcDbArc
 50
133.0766321537
 51
180.0
  0
ARC
  5
199
330
1F
100
AcDbEntity
  8
0
  6
Continuous
 62
     7
370
    25
100
AcDbCircle
 10
318.735538282
 20
209.6536732789
 30
0.0
 40
19.87230769230769
100
AcDbArc
 50
0.0
 51
46.9233678463
  0
ARC
  5
19A
330
1F
100
AcDbEntity
  8
0
  6
Continuous
 62
     7
370
    25
100
AcDbCircle
 10
318.4801536666
 20
209.6536732789
 30
0.0
 40
19.87230769230771
100
AcDbArc
 50
133.0766321537
 51
180.0
  0
LINE
  5
19B
330
1F
100
AcDbEntity
  8
0
  6
Continuous
 62
     7
370
    25
100
AcDbLine
 10
338.6078459743
 20
207.6536732789
 30
0.0
 11
338.6078459743
 21
209.6536732789
 31
0.0
  0
LINE
  5
19C
330
1F
100
AcDbEntity
  8
0
  6
Continuous
 62
     7
370
    25
100
AcDbLine
 10
298.6078459743
 20
209.6536732789
 30
0.0
 11
298.6078459743
 21
207.6536732789
 31
0.0
  0
LINE
  5
19D
330
1F
100
AcDbEntity
  8
0
  6
Continuous
 62
     7
370
    25
100
AcDbLine
 10
539.1660704185
 20
99.1536732789
 30
0.0
 11
539.1660704185
 21
97.1536732789
 31
0.0
  0
LINE
  5
19E
330
1F
100
AcDbEntity
  8
0
  6
Continuous
 62
     7
370
    25
100
AcDbLine
 10
579.1660704185
 20
97.1536732789
 30
0.0
 11
579.1660704185
 21
99.1536732789
 31
0.0
  0
ARC
  5
19F
330
1F
100
AcDbEntity
  8
0
  6
Continuous
 62
     7
370
    25
100
AcDbCircle
 10
559.0383781108
 20
97.1536732789
 30
0.0
 40
19.87230769230773
100
AcDbArc
 50
180.0
 51
226.9233678463
  0
ARC
  5
1A0
330
1F
100
AcDbEntity
  8
0
  6
Continuous
 62
     7
370
    25
100
AcDbCircle
 10
559.2937627262
 20
97.1536732789
 30
0.0
 40
19.87230769230774
100
AcDbArc
 50
313.0766321537
 51
0.0
  0
ARC
  5
1A1
330
1F
100
AcDbEntity
  8
0
  6
Continuous
 62
     7
370
    25
100
AcDbCircle
 10
559.2937627262
 20
221.1536732789
 30
0.0
 40
19.87230769230773
100
AcDbArc
 50
0.0
 51
46.9233678463
  0
ARC
  5
1A2
330
1F
100
AcDbEntity
  8
0
  6
Continuous
 62
     7
370
    25
100
AcDbCircle
 10
559.0383781108
 20
221.1536732789
 30
0.0
 40
19.87230769230771
100
AcDbArc
 50
133.0766321537
 51
180.0
  0
LINE
  5
1A3
330
1F
100
AcDbEntity
  8
0
  6
Continuous
 62
     7
370
    25
100
AcDbLine
 10
579.1660704185
 20
219.1536732789
 30
0.0
 11
579.1660704185
 21
221.1536732789
 31
0.0
  0
LINE
  5
1A4
330
1F
100
AcDbEntity
  8
0
  6
Continuous
 62
     7
370
    25
100
AcDbLine
 10
539.1660704185
 20
221.1536732789
 30
0.0
 11
539.1660704185
 21
219.1536732789
 31
0.0
  0
ARC
  5
1A5
330
1F
100
AcDbEntity
  8
0
  6
Continuous
 62
     7
370
    25
100
AcDbCircle
 10
78.4801536666
 20
108.6536732789
 30
0.0
 40
19.87230769230769
100
AcDbArc
 50
180.0
 51
226.9233678463
  0
ARC
  5
1A6
330
1F
100
AcDbEntity
  8
0
  6
Continuous
 62
     7
370
    25
100
AcDbCircle
 10
78.735538282
 20
108.6536732789
 30
0.0
 40
19.8723076923077
100
AcDbArc
 50
313.0766321537
 51
0.0
  0
LINE
  5
1A7
330
1F
100
AcDbEntity
  8
0
  6
Continuous
 62
     7
370
    25
100
AcDbLine
 10
58.6078459743
 20
110.6536732789
 30
0.0
 11
58.6078459743
 21
108.6536732789
 31
0.0
  0
LINE
  5
1A8
330
1F
100
AcDbEntity
  8
0
  6
Continuous
 62
     7
370
    25
100
AcDbLine
 10
98.6078459743
 20
108.6536732789
 30
0.0
 11
98.6078459743
 21
110.6536732789
 31
0.0
  0
LINE
  5
1A9
330
1F
100
AcDbEntity
  8
0
  6
Continuous
 62
     7
370
    25
100
AcDbLine
 10
-92.9799051797
 20
99.1536732789
 30
0.0
 11
-92.9799051797
 21
97.1536732789
 31
0.0
  0
LINE
  5
1AA
330
1F
100
AcDbEntity
  8
0
  6
Continuous
 62
     7
370
    25
100
AcDbLine
 10
-52.9799051797
 20
97.1536732789
 30
0.0
 11
-52.9799051797
 21
99.1536732789
 31
0.0
  0
ARC
  5
1AB
330
1F
100
AcDbEntity
  8
0
  6
Continuous
 62
     7
370
    25
100
AcDbCircle
 10
-73.1075974874
 20
97.1536732789
 30
0.0
 40
19.87230769230769
100
AcDbArc
 50
180.0
 51
226.9233678463
  0
ARC
  5
1AC
330
1F
100
AcDbEntity
  8
0
  6
Continuous
 62
     7
370
    25
100
AcDbCircle
 10
-72.852212872
 20
97.1536732789
 30
0.0
 40
19.87230769230769
100
AcDbArc
 50
313.0766321537
 51
0.0
  0
ARC
  5
1AD
330
1F
100
AcDbEntity
  8
0
  6
Continuous
 62
     7
370
    25
100
AcDbCircle
 10
-162.0780707775
 20
97.1536732789
 30
0.0
 40
19.87230769230771
100
AcDbArc
 50
180.0
 51
226.9233678463
  0
ARC
  5
1AE
330
1F
100
AcDbEntity
  8
0
  6
Continuous
 62
     7
370
    25
100
AcDbCircle
 10
-161.8226861621
 20
97.1536732789
 30
0.0
 40
19.87230769230769
100
AcDbArc
 50
313.0766321537
 51
0.0
  0
LINE
  5
1AF
330
1F
100
AcDbEntity
  8
0
  6
Continuous
 62
     7
370
    25
100
AcDbLine
 10
-181.9503784698
 20
99.1536732789
 30
0.0
 11
-181.9503784698
 21
97.1536732789
 31
0.0
  0
LINE
  5
1B0
330
1F
100
AcDbEntity
  8
0
  6
Continuous
 62
     7
370
    25
100
AcDbLine
 10
-141.9503784698
 20
97.1536732789
 30
0.0
 11
-141.9503784698
 21
99.1536732789
 31
0.0
  0
LINE
  5
1B1
330
1F
100
AcDbEntity
  8
0
  6
Continuous
 62
     7
370
    25
100
AcDbLine
 10
490.1955971284
 20
219.1536732789
 30
0.0
 11
490.1955971284
 21
221.1536732789
 31
0.0
  0
LINE
  5
1B2
330
1F
100
AcDbEntity
  8
0
  6
Continuous
 62
     7
370
    25
100
AcDbLine
 10
450.1955971284
 20
221.1536732789
 30
0.0
 11
450.1955971284
 21
219.1536732789
 31
0.0
  0
ARC
  5
1B3
330
1F
100
AcDbEntity
  8
0
  6
Continuous
 62
     7
370
    25
100
AcDbCircle
 10
470.323289436
 20
221.1536732789
 30
0.0
 40
19.87230769230769
100
AcDbArc
 50
0.0
 51
46.9233678463
  0
ARC
  5
1B4
330
1F
100
AcDbEntity
  8
0
  6
Continuous
 62
     7
370
    25
100
AcDbCircle
 10
470.0679048207
 20
221.1536732789
 30
0.0
 40
19.87230769230769
100
AcDbArc
 50
133.0766321537
 51
180.0
  0
ARC
  5
1B5
330
1F
100
AcDbEntity
  8
0
  6
Continuous
 62
     7
370
    25
100
AcDbCircle
 10
318.4801536666
 20
108.6536732789
 30
0.0
 40
19.8723076923077
100
AcDbArc
 50
180.0
 51
226.9233678463
  0
ARC
  5
1B6
330
1F
100
AcDbEntity
  8
0
  6
Continuous
 62
     7
370
    25
100
AcDbCircle
 10
318.735538282
 20
108.6536732789
 30
0.0
 40
19.8723076923077
100
AcDbArc
 50
313.0766321537
 51
0.0
  0
LINE
  5
1B7
330
1F
100
AcDbEntity
  8
0
  6
Continuous
 62
     7
370
    25
100
AcDbLine
 10
298.6078459743
 20
110.6536732789
 30
0.0
 11
298.6078459743
 21
108.6536732789
 31
0.0
  0
LINE
  5
1B8
330
1F
100
AcDbEntity
  8
0
  6
Continuous
 62
     7
370
    25
100
AcDbLine
 10
338.6078459743
 20
108.6536732789
 30
0.0
 11
338.6078459743
 21
110.6536732789
 31
0.0
  0
ARC
  5
1B9
330
1F
100
AcDbEntity
  8
0
  6
Continuous
 62
     7
370
    25
100
AcDbCircle
 10
-161.8226861621
 20
221.1536732789
 30
0.0
 40
19.87230769230769
100
AcDbArc
 50
0.0
 51
46.9233678463
  0
ARC
  5
1BA
330
1F
100
AcDbEntity
  8
0
  6
Continuous
 62
     7
370
    25
100
AcDbCircle
 10
-162.0780707775
 20
221.1536732789
 30
0.0
 40
19.87230769230771
100
AcDbArc
 50
133.0766321537
 51
180.0
  0
LINE
  5
1BB
330
1F
100
AcDbEntity
  8
0
  6
Continuous
 62
     7
370
    25
100
AcDbLine
 10
-141.9503784698
 20
219.1536732789
 30
0.0
 11
-141.9503784698
 21
221.1536732789
 31
0.0
  0
LINE
  5
1BC
330
1F
100
AcDbEntity
  8
0
  6
Continuous
 62
     7
370
    25
100
AcDbLine
 10
-181.9503784698
 20
221.1536732789
 30
0.0
 11
-181.9503784698
 21
219.1536732789
 31
0.0
  0
ARC
  5
1BD
330
1F
100
AcDbEntity
  8
0
  6
Continuous
 62
     7
370
    25
100
AcDbCircle
 10
-72.852212872
 20
221.1536732789
 30
0.0
 40
19.87230769230769
100
AcDbArc
 50
0.0
 51
46.9233678463
  0
ARC
  5
1BE
330
1F
100
AcDbEntity
  8
0
  6
Continuous
 62
     7
370
    25
100
AcDbCircle
 10
-73.1075974874
 20
221.1536732789
 30
0.0
 40
19.87230769230769
100
AcDbArc
 50
133.0766321537
 51
180.0
  0
LINE
  5
1BF
330
1F
100
AcDbEntity
  8
0
  6
Continuous
 62
     7
370
    25
100
AcDbLine
 10
-52.9799051797
 20
219.1536732789
 30
0.0
 11
-52.9799051797
 21
221.1536732789
 31
0.0
  0
LINE
  5
1C0
330
1F
100
AcDbEntity
  8
0
  6
Continuous
 62
     7
370
    25
100
AcDbLine
 10
-92.9799051797
 20
221.1536732789
 30
0.0
 11
-92.9799051797
 21
219.1536732789
 31
0.0
  0
LINE
  5
1C1
330
1F
100
AcDbEntity
  8
0
  6
Continuous
 62
     7
370
    25
100
AcDbLine
 10
450.1955971284
 20
99.1536732789
 30
0.0
 11
450.1955971284
 21
97.1536732789
 31
0.0
  0
LINE
  5
1C2
330
1F
100
AcDbEntity
  8
0
  6
Continuous
 62
     7
370
    25
100
AcDbLine
 10
490.1955971284
 20
97.1536732789
 30
0.0
 11
490.1955971284
 21
99.1536732789
 31
0.0
  0
ARC
  5
1C3
330
1F
100
AcDbEntity
  8
0
  6
Continuous
 62
     7
370
    25
100
AcDbCircle
 10
470.0679048207
 20
97.1536732789
 30
0.0
 40
19.87230769230769
100
AcDbArc
 50
180.0
 51
226.9233678463
  0
ARC
  5
1C4
330
1F
100
AcDbEntity
  8
0
  6
Continuous
 62
     7
370
    25
100
AcDbCircle
 10
470.323289436
 20
97.1536732789
 30
0.0
 40
19.8723076923077
100
AcDbArc
 50
313.0766321537
 51
0.0
  0
ARC
  5
1C5
330
1F
100
AcDbEntity
  8
0
  6
Continuous
 62
     7
370
    25
100
AcDbCircle
 10
-59.8799051797
 20
236.2840645973
 30
0.0
 40
0.600000000000044
100
AcDbArc
 50
0.0
 51
63.6246146768
  0
ARC
  5
1C6
330
1F
100
AcDbEntity
  8
0
  6
Continuous
 62
     7
370
    25
100
AcDbCircle
 10
-86.0799051797
 20
236.2840645973
 30
0.0
 40
0.5999999999999943
100
AcDbArc
 50
116.3753853232
 51
180.0
  0
LINE
  5
1C7
330
1F
100
AcDbEntity
  8
0
  6
Continuous
 62
     7
370
    25
100
AcDbLine
 10
-59.2799051797
 20
235.6692193218
 30
0.0
 11
-59.2799051797
 21
236.2840645973
 31
0.0
  0
LINE
  5
1C8
330
1F
100
AcDbEntity
  8
0
  6
Continuous
 62
     7
370
    25
100
AcDbLine
 10
-86.6799051797
 20
236.2840645973
 30
0.0
 11
-86.6799051797
 21
235.6692193218
 31
0.0
  0
ARC
  5
1C9
330
1F
100
AcDbEntity
  8
0
  6
Continuous
 62
     7
370
    25
100
AcDbCircle
 10
-72.9799051797
 20
209.865794491
 30
0.0
 40
30.08787878787881
100
AcDbArc
 50
63.6246146768
 51
116.3753853232
  0
ARC
  5
1CA
330
1F
100
AcDbEntity
  8
0
  6
Continuous
 62
     7
370
    25
100
AcDbCircle
 10
91.7078459743
 20
224.7840645973
 30
0.0
 40
0.5999999999999801
100
AcDbArc
 50
0.0
 51
63.6246146768
  0
ARC
  5
1CB
330
1F
100
AcDbEntity
  8
0
  6
Continuous
 62
     7
370
    25
100
AcDbCircle
 10
65.5078459743
 20
224.7840645973
 30
0.0
 40
0.6000000000000227
100
AcDbArc
 50
116.3753853232
 51
180.0
  0
LINE
  5
1CC
330
1F
100
AcDbEntity
  8
0
  6
Continuous
 62
     7
370
    25
100
AcDbLine
 10
92.3078459743
 20
224.1692193218
 30
0.0
 11
92.3078459743
 21
224.7840645973
 31
0.0
  0
LINE
  5
1CD
330
1F
100
AcDbEntity
  8
0
  6
Continuous
 62
     7
370
    25
100
AcDbLine
 10
64.9078459743
 20
224.7840645973
 30
0.0
 11
64.9078459743
 21
224.1692193218
 31
0.0
  0
ARC
  5
1CE
330
1F
100
AcDbEntity
  8
0
  6
Continuous
 62
     7
370
    25
100
AcDbCircle
 10
78.6078459743
 20
198.365794491
 30
0.0
 40
30.08787878787878
100
AcDbArc
 50
63.6246146768
 51
116.3753853232
  0
LINE
  5
1CF
330
1F
100
AcDbEntity
  8
0
  6
Continuous
 62
     7
370
    25
100
AcDbLine
 10
304.9078459743
 20
94.138127236
 30
0.0
 11
304.9078459743
 21
93.5232819605
 31
0.0
  0
LINE
  5
1D0
330
1F
100
AcDbEntity
  8
0
  6
Continuous
 62
     7
370
    25
100
AcDbLine
 10
332.3078459743
 20
93.5232819605
 30
0.0
 11
332.3078459743
 21
94.138127236
 31
0.0
  0
ARC
  5
1D1
330
1F
100
AcDbEntity
  8
0
  6
Continuous
 62
     7
370
    25
100
AcDbCircle
 10
305.5078459743
 20
93.5232819605
 30
0.0
 40
0.6000000000000227
100
AcDbArc
 50
180.0
 51
243.6246146768
  0
ARC
  5
1D2
330
1F
100
AcDbEntity
  8
0
  6
Continuous
 62
     7
370
    25
100
AcDbCircle
 10
331.7078459743
 20
93.5232819605
 30
0.0
 40
0.6000000000000227
100
AcDbArc
 50
296.3753853232
 51
360.0
  0
ARC
  5
1D3
330
1F
100
AcDbEntity
  8
0
  6
Continuous
 62
     7
370
    25
100
AcDbCircle
 10
318.6078459743
 20
119.9415520668
 30
0.0
 40
30.0878787878788
100
AcDbArc
 50
243.6246146768
 51
296.3753853232
  0
LINE
  5
1D4
330
1F
100
AcDbEntity
  8
0
  6
Continuous
 62
     7
370
    25
100
AcDbLine
 10
483.8955971284
 20
235.6692193218
 30
0.0
 11
483.8955971284
 21
236.2840645973
 31
0.0
  0
LINE
  5
1D5
330
1F
100
AcDbEntity
  8
0
  6
Continuous
 62
     7
370
    25
100
AcDbLine
 10
456.4955971284
 20
236.2840645973
 30
0.0
 11
456.4955971284
 21
235.6692193218
 31
0.0
  0
ARC
  5
1D6
330
1F
100
AcDbEntity
  8
0
  6
Continuous
 62
     7
370
    25
100
AcDbCircle
 10
483.2955971284
 20
236.2840645973
 30
0.0
 40
0.6000000000000311
100
AcDbArc
 50
0.0
 51
63.6246146768
  0
ARC
  5
1D7
330
1F
100
AcDbEntity
  8
0
  6
Continuous
 62
     7
370
    25
100
AcDbCircle
 10
457.0955971284
 20
236.2840645973
 30
0.0
 40
0.6000000000000227
100
AcDbArc
 50
116.3753853232
 51
180.0
  0
ARC
  5
1D8
330
1F
100
AcDbEntity
  8
0
  6
Continuous
 62
     7
370
    25
100
AcDbCircle
 10
470.1955971284
 20
209.865794491
 30
0.0
 40
30.08787878787884
100
AcDbArc
 50
63.6246146768
 51
116.3753853232
  0
LINE
  5
1D9
330
1F
100
AcDbEntity
  8
0
  6
Continuous
 62
     7
370
    25
100
AcDbLine
 10
456.4955971284
 20
82.638127236
 30
0.0
 11
456.4955971284
 21
82.0232819605
 31
0.0
  0
LINE
  5
1DA
330
1F
100
AcDbEntity
  8
0
  6
Continuous
 62
     7
370
    25
100
AcDbLine
 10
483.8955971284
 20
82.0232819605
 30
0.0
 11
483.8955971284
 21
82.638127236
 31
0.0
  0
ARC
  5
1DB
330
1F
100
AcDbEntity
  8
0
  6
Continuous
 62
     7
370
    25
100
AcDbCircle
 10
457.0955971284
 20
82.0232819605
 30
0.0
 40
0.6000000000000227
100
AcDbArc
 50
180.0
 51
243.6246146768
  0
ARC
  5
1DC
330
1F
100
AcDbEntity
  8
0
  6
Continuous
 62
     7
370
    25
100
AcDbCircle
 10
483.2955971284
 20
82.0232819605
 30
0.0
 40
0.6000000000000227
100
AcDbArc
 50
296.3753853232
 51
0.0
  0
ARC
  5
1DD
330
1F
100
AcDbEntity
  8
0
  6
Continuous
 62
     7
370
    25
100
AcDbCircle
 10
470.1955971284
 20
108.4415520668
 30
0.0
 40
30.08787878787881
100
AcDbArc
 50
243.6246146768
 51
296.3753853232
  0
LINE
  5
1DE
330
1F
100
AcDbEntity
  8
0
  6
Continuous
 62
     7
370
    25
100
AcDbLine
 10
-175.6503784698
 20
82.638127236
 30
0.0
 11
-175.6503784698
 21
82.0232819605
 31
0.0
  0
LINE
  5
1DF
330
1F
100
AcDbEntity
  8
0
  6
Continuous
 62
     7
370
    25
100
AcDbLine
 10
-148.2503784698
 20
82.0232819605
 30
0.0
 11
-148.2503784698
 21
82.638127236
 31
0.0
  0
ARC
  5
1E0
330
1F
100
AcDbEntity
  8
0
  6
Continuous
 62
     7
370
    25
100
AcDbCircle
 10
-175.0503784698
 20
82.0232819605
 30
0.0
 40
0.5999999999999943
100
AcDbArc
 50
180.0
 51
243.6246146768
  0
ARC
  5
1E1
330
1F
100
AcDbEntity
  8
0
  6
Continuous
 62
     7
370
    25
100
AcDbCircle
 10
-148.8503784698
 20
82.0232819605
 30
0.0
 40
0.6000000000000512
100
AcDbArc
 50
296.3753853232
 51
0.0
  0
ARC
  5
1E2
330
1F
100
AcDbEntity
  8
0
  6
Continuous
 62
     7
370
    25
100
AcDbCircle
 10
-161.9503784698
 20
108.4415520668
 30
0.0
 40
30.0878787878788
100
AcDbArc
 50
243.6246146768
 51
296.3753853232
  0
LINE
  5
1E3
330
1F
100
AcDbEntity
  8
0
  6
Continuous
 62
     7
370
    25
100
AcDbLine
 10
545.4660704185
 20
82.638127236
 30
0.0
 11
545.4660704185
 21
82.0232819605
 31
0.0
  0
LINE
  5
1E4
330
1F
100
AcDbEntity
  8
0
  6
Continuous
 62
     7
370
    25
100
AcDbLine
 10
572.8660704185
 20
82.0232819605
 30
0.0
 11
572.8660704185
 21
82.638127236
 31
0.0
  0
ARC
  5
1E5
330
1F
100
AcDbEntity
  8
0
  6
Continuous
 62
     7
370
    25
100
AcDbCircle
 10
546.0660704185
 20
82.0232819605
 30
0.0
 40
0.6000000000000227
100
AcDbArc
 50
180.0
 51
243.6246146768
  0
ARC
  5
1E6
330
1F
100
AcDbEntity
  8
0
  6
Continuous
 62
     7
370
    25
100
AcDbCircle
 10
572.2660704185
 20
82.0232819605
 30
0.0
 40
0.6000000000000227
100
AcDbArc
 50
296.3753853232
 51
0.0
  0
ARC
  5
1E7
330
1F
100
AcDbEntity
  8
0
  6
Continuous
 62
     7
370
    25
100
AcDbCircle
 10
559.1660704185
 20
108.4415520668
 30
0.0
 40
30.0878787878788
100
AcDbArc
 50
243.6246146768
 51
296.3753853232
  0
ARC
  5
1E8
330
1F
100
AcDbEntity
  8
0
  6
Continuous
 62
     7
370
    25
100
AcDbCircle
 10
572.2660704185
 20
236.2840645973
 30
0.0
 40
0.6000000000000227
100
AcDbArc
 50
0.0
 51
63.6246146768
  0
ARC
  5
1E9
330
1F
100
AcDbEntity
  8
0
  6
Continuous
 62
     7
370
    25
100
AcDbCircle
 10
546.0660704185
 20
236.2840645973
 30
0.0
 40
0.6000000000000227
100
AcDbArc
 50
116.3753853232
 51
180.0
  0
LINE
  5
1EA
330
1F
100
AcDbEntity
  8
0
  6
Continuous
 62
     7
370
    25
100
AcDbLine
 10
572.8660704185
 20
235.6692193218
 30
0.0
 11
572.8660704185
 21
236.2840645973
 31
0.0
  0
LINE
  5
1EB
330
1F
100
AcDbEntity
  8
0
  6
Continuous
 62
     7
370
    25
100
AcDbLine
 10
545.4660704185
 20
236.2840645973
 30
0.0
 11
545.4660704185
 21
235.6692193218
 31
0.0
  0
ARC
  5
1EC
330
1F
100
AcDbEntity
  8
0
  6
Continuous
 62
     7
370
    25
100
AcDbCircle
 10
559.1660704185
 20
209.865794491
 30
0.0
 40
30.08787878787884
100
AcDbArc
 50
63.6246146768
 51
116.3753853232
  0
LINE
  5
1ED
330
1F
100
AcDbEntity
  8
0
  6
Continuous
 62
     7
370
    25
100
AcDbLine
 10
332.3078459743
 20
224.1692193218
 30
0.0
 11
332.3078459743
 21
224.7840645973
 31
0.0
  0
LINE
  5
1EE
330
1F
100
AcDbEntity
  8
0
  6
Continuous
 62
     7
370
    25
100
AcDbLine
 10
304.9078459743
 20
224.7840645973
 30
0.0
 11
304.9078459743
 21
224.1692193218
 31
0.0
  0
ARC
  5
1EF
330
1F
100
AcDbEntity
  8
0
  6
Continuous
 62
     7
370
    25
100
AcDbCircle
 10
331.7078459743
 20
224.7840645973
 30
0.0
 40
0.5999999999999659
100
AcDbArc
 50
0.0
 51
63.6246146768
  0
ARC
  5
1F0
330
1F
100
AcDbEntity
  8
0
  6
Continuous
 62
     7
370
    25
100
AcDbCircle
 10
305.5078459743
 20
224.7840645973
 30
0.0
 40
0.6000000000000796
100
AcDbArc
 50
116.3753853232
 51
180.0
  0
ARC
  5
1F1
330
1F
100
AcDbEntity
  8
0
  6
Continuous
 62
     7
370
    25
100
AcDbCircle
 10
318.6078459743
 20
198.365794491
 30
0.0
 40
30.08787878787878
100
AcDbArc
 50
63.6246146768
 51
116.3753853232
  0
LINE
  5
1F2
330
1F
100
AcDbEntity
  8
0
  6
Continuous
 62
     7
370
    25
100
AcDbLine
 10
-86.6799051797
 20
82.638127236
 30
0.0
 11
-86.6799051797
 21
82.0232819605
 31
0.0
  0
LINE
  5
1F3
330
1F
100
AcDbEntity
  8
0
  6
Continuous
 62
     7
370
    25
100
AcDbLine
 10
-59.2799051797
 20
82.0232819605
 30
0.0
 11
-59.2799051797
 21
82.638127236
 31
0.0
  0
ARC
  5
1F4
330
1F
100
AcDbEntity
  8
0
  6
Continuous
 62
     7
370
    25
100
AcDbCircle
 10
-86.0799051797
 20
82.0232819605
 30
0.0
 40
0.5999999999999943
100
AcDbArc
 50
180.0
 51
243.6246146768
  0
ARC
  5
1F5
330
1F
100
AcDbEntity
  8
0
  6
Continuous
 62
     7
370
    25
100
AcDbCircle
 10
-59.8799051797
 20
82.0232819605
 30
0.0
 40
0.600000000000044
100
AcDbArc
 50
296.3753853232
 51
0.0
  0
ARC
  5
1F6
330
1F
100
AcDbEntity
  8
0
  6
Continuous
 62
     7
370
    25
100
AcDbCircle
 10
-72.9799051797
 20
108.4415520668
 30
0.0
 40
30.08787878787881
100
AcDbArc
 50
243.6246146768
 51
296.3753853232
  0
ARC
  5
1F7
330
1F
100
AcDbEntity
  8
0
  6
Continuous
 62
     7
370
    25
100
AcDbCircle
 10
65.5078459743
 20
93.5232819605
 30
0.0
 40
0.6000000000000227
100
AcDbArc
 50
180.0
 51
243.6246146768
  0
ARC
  5
1F8
330
1F
100
AcDbEntity
  8
0
  6
Continuous
 62
     7
370
    25
100
AcDbCircle
 10
91.7078459743
 20
93.5232819605
 30
0.0
 40
0.6000000000000056
100
AcDbArc
 50
296.3753853232
 51
0.0
  0
LINE
  5
1F9
330
1F
100
AcDbEntity
  8
0
  6
Continuous
 62
     7
370
    25
100
AcDbLine
 10
64.9078459743
 20
94.138127236
 30
0.0
 11
64.9078459743
 21
93.5232819605
 31
0.0
  0
LINE
  5
1FA
330
1F
100
AcDbEntity
  8
0
  6
Continuous
 62
     7
370
    25
100
AcDbLine
 10
92.3078459743
 20
93.5232819605
 30
0.0
 11
92.3078459743
 21
94.138127236
 31
0.0
  0
ARC
  5
1FB
330
1F
100
AcDbEntity
  8
0
  6
Continuous
 62
     7
370
    25
100
AcDbCircle
 10
78.6078459743
 20
119.9415520668
 30
0.0
 40
30.08787878787881
100
AcDbArc
 50
243.6246146768
 51
296.3753853232
  0
LINE
  5
1FC
330
1F
100
AcDbEntity
  8
0
  6
Continuous
 62
     7
370
    25
100
AcDbLine
 10
-148.2503784698
 20
235.6692193218
 30
0.0
 11
-148.2503784698
 21
236.2840645973
 31
0.0
  0
LINE
  5
1FD
330
1F
100
AcDbEntity
  8
0
  6
Continuous
 62
     7
370
    25
100
AcDbLine
 10
-175.6503784698
 20
236.2840645973
 30
0.0
 11
-175.6503784698
 21
235.6692193218
 31
0.0
  0
ARC
  5
1FE
330
1F
100
AcDbEntity
  8
0
  6
Continuous
 62
     7
370
    25
100
AcDbCircle
 10
-148.8503784698
 20
236.2840645973
 30
0.0
 40
0.6000000000000512
100
AcDbArc
 50
0.0
 51
63.6246146768
  0
ARC
  5
1FF
330
1F
100
AcDbEntity
  8
0
  6
Continuous
 62
     7
370
    25
100
AcDbCircle
 10
-175.0503784698
 20
236.2840645973
 30
0.0
 40
0.5999999999999943
100
AcDbArc
 50
116.3753853232
 51
180.0
  0
ARC
  5
200
330
1F
100
AcDbEntity
  8
0
  6
Continuous
 62
     7
370
    25
100
AcDbCircle
 10
-161.9503784698
 20
209.865794491
 30
0.0
 40
30.08787878787884
100
AcDbArc
 50
63.6246146768
 51
116.3753853232
  0
LINE
  5
201
330
1F
100
AcDbEntity
  8
0
  6
Continuous
 62
     7
370
    25
100
AcDbLine
 10
253.4227455389
 20
100.8252088635
 30
0.0
 11
251.164871714
 21
98.7691118599
 31
0.0
  0
ARC
  5
202
330
1F
100
AcDbEntity
  8
0
  6
Continuous
 62
     7
370
    25
100
AcDbCircle
 10
201.7036395799
 20
162.5959724718
 30
0.0
 40
75.5177402891371
100
AcDbArc
 50
36.6303852757
 51
58.6984965373
  0
ARC
  5
203
330
1F
100
AcDbEntity
  8
0
  6
Continuous
 62
     7
370
    25
100
AcDbCircle
 10
198.6257386333
 20
159.0116403526
 30
0.0
 40
79.948181310884
100
AcDbArc
 50
217.2192273454
 51
322.7807726547
  0
ARC
  5
204
330
1F
100
AcDbEntity
  8
0
  6
Continuous
 62
     7
370
    25
100
AcDbCircle
 10
198.3358070977
 20
159.5510354956
 30
0.0
 40
79.60512473319346
100
AcDbArc
 50
101.2337535497
 51
142.8239871038
  0
LINE
  5
205
330
1F
100
AcDbEntity
  8
0
  6
Continuous
 62
     7
370
    25
100
AcDbLine
 10
205.6905292173
 20
258.7943629989
 30
0.0
 11
204.6650462208
 21
258.8680126001
 31
0.0
  0
ARC
  5
206
330
1F
100
AcDbEntity
  8
0
  6
Continuous
 62
     7
370
    25
100
AcDbCircle
 10
198.3871213822
 20
159.5965846455
 30
0.0
 40
99.452256771494
100
AcDbArc
 50
91.984949965
 51
151.104234594
  0
ARC
  5
207
330
1F
100
AcDbEntity
  8
0
  6
Continuous
 62
     7
370
    25
100
AcDbCircle
 10
198.6086654413
 20
158.9865329214
 30
0.0
 40
99.7851690674253
100
AcDbArc
 50
208.9711504907
 51
331.0288495093
  0
ARC
  5
208
330
1F
100
AcDbEntity
  8
0
  6
Continuous
 62
     7
370
    25
100
AcDbCircle
 10
199.1536425758
 20
159.8654793519
 30
0.0
 40
99.05096749729326
100
AcDbArc
 50
28.8462344878
 51
72.4835821643
  0
LINE
  5
209
330
1F
100
AcDbEntity
  8
0
  6
Continuous
 62
     7
370
    25
100
AcDbLine
 10
265.4234912372
 20
84.9354140557
 30
0.0
 11
267.3946188477
 21
86.7608420844
 31
0.0
  0
LINE
  5
20A
330
1F
100
AcDbEntity
  8
0
  6
Continuous
 62
     7
370
    25
100
AcDbLine
 10
-1875.2842033951
 20
-11.8463267211
 30
0.0
 11
-1875.2842033951
 21
330.1536732789
 31
0.0
  0
ARC
  5
20B
330
1F
100
AcDbEntity
  8
0
  6
Continuous
 62
     7
370
    25
100
AcDbCircle
 10
-575.2842033951
 20
330.1536732789
 30
0.0
 40
1300.0
100
AcDbArc
 50
90.0
 51
180.0
  0
LINE
  5
20C
330
1F
100
AcDbEntity
  8
0
  6
Continuous
 62
     7
370
    25
100
AcDbLine
 10
-575.2842033951
 20
1630.1536732789
 30
0.0
 11
972.4998953438
 21
1630.1536732789
 31
0.0
  0
ARC
  5
20D
330
1F
100
AcDbEntity
  8
0
  6
Continuous
 62
     7
370
    25
100
AcDbCircle
 10
972.4998953438
 20
330.1536732789
 30
0.0
 40
1300.000000000001
100
AcDbArc
 50
0.0
 51
90.0
  0
LINE
  5
20E
330
1F
100
AcDbEntity
  8
0
  6
Continuous
 62
     7
370
    25
100
AcDbLine
 10
2272.4998953438
 20
330.1536732789
 30
0.0
 11
2272.4998953438
 21
-11.8463267211
 31
0.0
  0
ARC
  5
20F
330
1F
100
AcDbEntity
  8
0
  6
Continuous
 62
     7
370
    25
100
AcDbCircle
 10
972.4998953438
 20
-11.8463267211
 30
0.0
 40
1300.000000000001
100
AcDbArc
 50
270.0
 51
0.0
  0
LINE
  5
210
330
1F
100
AcDbEntity
  8
0
  6
Continuous
 62
     7
370
    25
100
AcDbLine
 10
972.4998953438
 20
-1311.8463267211
 30
0.0
 11
-575.2842033951
 21
-1311.8463267211
 31
0.0
  0
ARC
  5
211
330
1F
100
AcDbEntity
  8
0
  6
Continuous
 62
     7
370
    25
100
AcDbCircle
 10
-575.2842033951
 20
-11.8463267211
 30
0.0
 40
1300.0
100
AcDbArc
 50
180.0
 51
270.0
  0
LINE
  5
212
330
1F
100
AcDbEntity
  8
0
  6
Continuous
 62
     7
370
    25
100
AcDbLine
 10
-222.8617983402
 20
130.8536732789
 30
0.0
 11
-249.8617983402
 21
130.8536732789
 31
0.0
  0
LINE
  5
213
330
1F
100
AcDbEntity
  8
0
  6
Continuous
 62
     7
370
    25
100
AcDbLine
 10
643.0578526884
 20
130.8536732789
 30
0.0
 11
620.0774902889
 21
130.8536732789
 31
0.0
  0
LINE
  5
214
330
1F
100
AcDbEntity
  8
0
  6
Continuous
 62
     7
370
    25
100
AcDbLine
 10
647.0774902889
 20
130.8536732789
 30
0.0
 11
643.0578526884
 21
130.8536732789
 31
0.0
  0
LINE
  5
215
330
1F
100
AcDbEntity
  8
0
  6
Continuous
 62
     7
370
    25
100
AcDbLine
 10
620.0774902889
 20
187.4536732789
 30
0.0
 11
647.0774902889
 21
187.4536732789
 31
0.0
  0
LINE
  5
216
330
1F
100
AcDbEntity
  8
0
  6
Continuous
 62
     7
370
    25
100
AcDbLine
 10
-245.8421607397
 20
187.4536732789
 30
0.0
 11
-222.8617983402
 21
187.4536732789
 31
0.0
  0
LINE
  5
217
330
1F
100
AcDbEntity
  8
0
  6
Continuous
 62
     7
370
    25
100
AcDbLine
 10
-249.8617983402
 20
187.4536732789
 30
0.0
 11
-245.8421607397
 21
187.4536732789
 31
0.0
  0
LINE
  5
218
330
1F
100
AcDbEntity
  8
0
  6
Continuous
 62
     7
370
    25
100
AcDbLine
 10
-23.5285374362
 20
93.1536732789
 30
0.0
 11
-53.3866377966
 21
93.1536732789
 31
0.0
  0
LINE
  5
219
330
1F
100
AcDbEntity
  8
0
  6
Continuous
 62
     7
370
    25
100
AcDbLine
 10
-28.5285374379
 20
9.1536732789
 30
0.0
 11
-60.5285374077
 21
9.1536732789
 31
0.0
  0
LINE
  5
21A
330
1F
100
AcDbEntity
  8
0
  6
Continuous
 62
     7
370
    25
100
AcDbLine
 10
612.5774903173
 20
225.1536732789
 30
0.0
 11
654.5774902889
 21
225.1536732789
 31
0.0
  0
LINE
  5
21B
330
1F
100
AcDbEntity
  8
0
  6
Continuous
 62
     7
370
    25
100
AcDbLine
 10
617.5774903191
 20
309.1536732789
 30
0.0
 11
649.5774902889
 21
309.1536732789
 31
0.0
  0
LINE
  5
21C
330
1F
100
AcDbEntity
  8
0
  6
Continuous
 62
     7
370
    25
100
AcDbLine
 10
-53.3866377966
 20
225.1536732789
 30
0.0
 11
-23.5285374077
 21
225.1536732789
 31
0.0
  0
LINE
  5
21D
330
1F
100
AcDbEntity
  8
0
  6
Continuous
 62
     7
370
    25
100
AcDbLine
 10
-60.5285373775
 20
309.1536732789
 30
0.0
 11
-28.5285374077
 21
309.1536732789
 31
0.0
  0
LINE
  5
21E
330
1F
100
AcDbEntity
  8
0
  6
Continuous
 62
     7
370
    25
100
AcDbLine
 10
-215.3617983687
 20
93.1536732789
 30
0.0
 11
-257.3617983402
 21
93.1536732789
 31
0.0
  0
LINE
  5
21F
330
1F
100
AcDbEntity
  8
0
  6
Continuous
 62
     7
370
    25
100
AcDbLine
 10
-220.3617983705
 20
9.1536732789
 30
0.0
 11
-252.3617983402
 21
9.1536732789
 31
0.0
  0
LINE
  5
220
330
1F
100
AcDbEntity
  8
0
  6
Continuous
 62
     7
370
    25
100
AcDbLine
 10
-257.3617983118
 20
225.1536732789
 30
0.0
 11
-215.3617983402
 21
225.1536732789
 31
0.0
  0
LINE
  5
221
330
1F
100
AcDbEntity
  8
0
  6
Continuous
 62
     7
370
    25
100
AcDbLine
 10
-252.36179831
 20
309.1536732789
 30
0.0
 11
-220.3617983402
 21
309.1536732789
 31
0.0
  0
LINE
  5
222
330
1F
100
AcDbEntity
  8
0
  6
Continuous
 62
     7
370
    25
100
AcDbLine
 10
420.7442293848
 20
225.1536732789
 30
0.0
 11
450.6023297452
 21
225.1536732789
 31
0.0
  0
LINE
  5
223
330
1F
100
AcDbEntity
  8
0
  6
Continuous
 62
     7
370
    25
100
AcDbLine
 10
425.7442293866
 20
309.1536732789
 30
0.0
 11
457.7442293564
 21
309.1536732789
 31
0.0
  0
LINE
  5
224
330
1F
100
AcDbEntity
  8
0
  6
Continuous
 62
     7
370
    25
100
AcDbLine
 10
654.5774902604
 20
93.1536732789
 30
0.0
 11
612.5774902889
 21
93.1536732789
 31
0.0
  0
LINE
  5
225
330
1F
100
AcDbEntity
  8
0
  6
Continuous
 62
     7
370
    25
100
AcDbLine
 10
649.5774902587
 20
9.1536732789
 30
0.0
 11
617.5774902889
 21
9.1536732789
 31
0.0
  0
LINE
  5
226
330
1F
100
AcDbEntity
  8
0
  6
Continuous
 62
     7
370
    25
100
AcDbLine
 10
450.6023297452
 20
93.1536732789
 30
0.0
 11
420.7442293564
 21
93.1536732789
 31
0.0
  0
LINE
  5
227
330
1F
100
AcDbEntity
  8
0
  6
Continuous
 62
     7
370
    25
100
AcDbLine
 10
457.7442293261
 20
9.1536732789
 30
0.0
 11
425.7442293564
 21
9.1536732789
 31
0.0
  0
LINE
  5
228
330
1F
100
AcDbEntity
  8
0
  6
Continuous
 62
     7
370
    25
100
AcDbLine
 10
455.7442293564
 20
327.1536732789
 30
0.0
 11
427.7442293564
 21
327.1536732789
 31
0.0
  0
LINE
  5
229
330
1F
100
AcDbEntity
  8
0
  6
Continuous
 62
     7
370
    25
100
AcDbLine
 10
457.7442293564
 20
309.1536732789
 30
0.0
 11
425.7442293564
 21
309.1536732789
 31
0.0
  0
LINE
  5
22A
330
1F
100
AcDbEntity
  8
0
  6
Continuous
 62
     7
370
    25
100
AcDbLine
 10
-250.3617983402
 20
-8.8463267211
 30
0.0
 11
-222.3617983402
 21
-8.8463267211
 31
0.0
  0
LINE
  5
22B
330
1F
100
AcDbEntity
  8
0
  6
Continuous
 62
     7
370
    25
100
AcDbLine
 10
-252.3617983402
 20
9.1536732789
 30
0.0
 11
-220.3617983402
 21
9.1536732789
 31
0.0
  0
LINE
  5
22C
330
1F
100
AcDbEntity
  8
0
  6
Continuous
 62
     7
370
    25
100
AcDbLine
 10
-30.5285374077
 20
327.1536732789
 30
0.0
 11
-58.5285374077
 21
327.1536732789
 31
0.0
  0
LINE
  5
22D
330
1F
100
AcDbEntity
  8
0
  6
Continuous
 62
     7
370
    25
100
AcDbLine
 10
-28.5285374077
 20
309.1536732789
 30
0.0
 11
-60.5285374077
 21
309.1536732789
 31
0.0
  0
LINE
  5
22E
330
1F
100
AcDbEntity
  8
0
  6
Continuous
 62
     7
370
    25
100
AcDbLine
 10
647.5774902889
 20
327.1536732789
 30
0.0
 11
619.5774902889
 21
327.1536732789
 31
0.0
  0
LINE
  5
22F
330
1F
100
AcDbEntity
  8
0
  6
Continuous
 62
     7
370
    25
100
AcDbLine
 10
649.5774902889
 20
309.1536732789
 30
0.0
 11
617.5774902889
 21
309.1536732789
 31
0.0
  0
LINE
  5
230
330
1F
100
AcDbEntity
  8
0
  6
Continuous
 62
     7
370
    25
100
AcDbLine
 10
619.5774902889
 20
-8.8463267211
 30
0.0
 11
647.5774902889
 21
-8.8463267211
 31
0.0
  0
LINE
  5
231
330
1F
100
AcDbEntity
  8
0
  6
Continuous
 62
     7
370
    25
100
AcDbLine
 10
617.5774902889
 20
9.1536732789
 30
0.0
 11
649.5774902889
 21
9.1536732789
 31
0.0
  0
LINE
  5
232
330
1F
100
AcDbEntity
  8
0
  6
Continuous
 62
     7
370
    25
100
AcDbLine
 10
-58.5285374077
 20
-8.8463267211
 30
0.0
 11
-30.5285374077
 21
-8.8463267211
 31
0.0
  0
LINE
  5
233
330
1F
100
AcDbEntity
  8
0
  6
Continuous
 62
     7
370
    25
100
AcDbLine
 10
-60.5285374077
 20
9.1536732789
 30
0.0
 11
-28.5285374077
 21
9.1536732789
 31
0.0
  0
LINE
  5
234
330
1F
100
AcDbEntity
  8
0
  6
Continuous
 62
     7
370
    25
100
AcDbLine
 10
-222.3617983402
 20
327.1536732789
 30
0.0
 11
-250.3617983402
 21
327.1536732789
 31
0.0
  0
LINE
  5
235
330
1F
100
AcDbEntity
  8
0
  6
Continuous
 62
     7
370
    25
100
AcDbLine
 10
-220.3617983402
 20
309.1536732789
 30
0.0
 11
-252.3617983402
 21
309.1536732789
 31
0.0
  0
LINE
  5
236
330
1F
100
AcDbEntity
  8
0
  6
Continuous
 62
     7
370
    25
100
AcDbLine
 10
427.7442293564
 20
-8.8463267211
 30
0.0
 11
455.7442293564
 21
-8.8463267211
 31
0.0
  0
LINE
  5
237
330
1F
100
AcDbEntity
  8
0
  6
Continuous
 62
     7
370
    25
100
AcDbLine
 10
425.7442293564
 20
9.1536732789
 30
0.0
 11
457.7442293564
 21
9.1536732789
 31
0.0
  0
LINE
  5
238
330
1F
100
AcDbEntity
  8
0
  6
Continuous
 62
     7
370
    25
100
AcDbLine
 10
584.6412305925
 20
111.1536732789
 30
0.0
 11
584.6412305925
 21
102.1536732789
 31
0.0
  0
LINE
  5
239
330
1F
100
AcDbEntity
  8
0
  6
Continuous
 62
     7
370
    25
100
AcDbLine
 10
670.3541472591
 20
99.1536732789
 30
0.0
 11
587.3912305925
 21
99.1536732789
 31
0.0
  0
ARC
  5
23A
330
1F
100
AcDbEntity
  8
0
  6
Continuous
 62
     7
370
    25
100
AcDbCircle
 10
587.5219124106
 20
102.0338816122
 30
0.0
 40
2.883171479639323
100
AcDbArc
 50
177.6187565511
 51
267.4021376049
  0
LINE
  5
23B
330
1F
100
AcDbEntity
  8
0
  6
Continuous
 62
     7
370
    25
100
AcDbLine
 10
587.3912305925
 20
114.1536732789
 30
0.0
 11
670.3541472591
 21
114.1536732789
 31
0.0
  0
ARC
  5
23C
330
1F
100
AcDbEntity
  8
0
  6
Continuous
 62
     7
370
    25
100
AcDbCircle
 10
587.5219124106
 20
111.2734649455
 30
0.0
 40
2.883171479639693
100
AcDbArc
 50
92.5978623951
 51
182.3812434489
  0
LINE
  5
23D
330
1F
100
AcDbEntity
  8
0
  6
Continuous
 62
     7
370
    25
100
AcDbLine
 10
584.6412305925
 20
111.1536732789
 30
0.0
 11
405.8246557195
 21
111.1536732789
 31
0.0
  0
LINE
  5
23E
330
1F
100
AcDbEntity
  8
0
  6
Continuous
 62
     7
370
    25
100
AcDbLine
 10
405.8246557195
 20
102.1536732789
 30
0.0
 11
584.6412305925
 21
102.1536732789
 31
0.0
  0
LINE
  5
23F
330
1F
100
AcDbEntity
  8
0
  6
Continuous
 62
     7
370
    25
100
AcDbLine
 10
405.8246557195
 20
111.1536732789
 30
0.0
 11
405.8246557195
 21
102.1536732789
 31
0.0
  0
ARC
  5
240
330
1F
100
AcDbEntity
  8
0
  6
Continuous
 62
     7
370
    25
100
AcDbCircle
 10
408.7053375376
 20
111.2734649455
 30
0.0
 40
2.883171479639516
100
AcDbArc
 50
92.5978623951
 51
182.3812434489
  0
LINE
  5
241
330
1F
100
AcDbEntity
  8
0
  6
Continuous
 62
     7
370
    25
100
AcDbLine
 10
484.7730589314
 20
114.1536732789
 30
0.0
 11
587.3912305925
 21
114.1536732789
 31
0.0
  0
ARC
  5
242
330
1F
100
AcDbEntity
  8
0
  6
Continuous
 62
     7
370
    25
100
AcDbCircle
 10
408.7053375376
 20
102.0338816122
 30
0.0
 40
2.883171479639622
100
AcDbArc
 50
177.6187565511
 51
267.4021376049
  0
LINE
  5
243
330
1F
100
AcDbEntity
  8
0
  6
Continuous
 62
     7
370
    25
100
AcDbLine
 10
587.3912305925
 20
99.1536732789
 30
0.0
 11
463.9925711075
 21
99.1536732789
 31
0.0
  0
LINE
  5
244
330
1F
100
AcDbEntity
  8
0
  6
Continuous
 62
     7
370
    25
100
AcDbLine
 10
450.1955971284
 20
99.1536732789
 30
0.0
 11
408.5746557195
 21
99.1536732789
 31
0.0
  0
LINE
  5
245
330
1F
100
AcDbEntity
  8
0
  6
Continuous
 62
     7
370
    25
100
AcDbLine
 10
408.5746557195
 20
99.1536732789
 30
0.0
 11
404.9675723861
 21
99.1536732789
 31
0.0
  0
ARC
  5
246
330
1F
100
AcDbEntity
  8
0
  6
Continuous
 62
     7
370
    25
100
AcDbCircle
 10
-486.3921540257
 20
144.1536732789
 30
0.0
 40
2.250000000000023
100
AcDbArc
 50
90.0
 51
150.0
  0
ARC
  5
247
330
1F
100
AcDbEntity
  8
0
  6
Continuous
 62
     7
370
    25
100
AcDbCircle
 10
-486.3921540257
 20
145.9536732789
 30
0.0
 40
0.4499999999999602
100
AcDbArc
 50
90.0
 51
166.6582417728
  0
ARC
  5
248
330
1F
100
AcDbEntity
  8
0
  6
Continuous
 62
     7
370
    25
100
AcDbCircle
 10
-487.5962550761
 20
146.2392374756
 30
0.0
 40
0.7875000000001995
100
AcDbArc
 50
253.3417582272
 51
346.6582417728
  0
ARC
  5
249
330
1F
100
AcDbEntity
  8
0
  6
Continuous
 62
     7
370
    25
100
AcDbCircle
 10
-487.9509997525
 20
145.0536732789
 30
0.0
 40
0.4500000000001664
100
AcDbArc
 50
73.3417582273
 51
150.0
  0
ARC
  5
24A
330
1F
100
AcDbEntity
  8
0
  6
Continuous
 62
     7
370
    25
100
AcDbCircle
 10
-486.3921540257
 20
144.1536732789
 30
0.0
 40
2.250000000000115
100
AcDbArc
 50
270.0
 51
330.0
  0
ARC
  5
24B
330
1F
100
AcDbEntity
  8
0
  6
Continuous
 62
     7
370
    25
100
AcDbCircle
 10
-485.1880529753
 20
142.0681090822
 30
0.0
 40
0.7875000000002286
100
AcDbArc
 50
73.3417582272
 51
166.6582417728
  0
ARC
  5
24C
330
1F
100
AcDbEntity
  8
0
  6
Continuous
 62
     7
370
    25
100
AcDbCircle
 10
-484.8333082989
 20
143.2536732789
 30
0.0
 40
0.4500000000003349
100
AcDbArc
 50
253.3417582273
 51
330.0
  0
ARC
  5
24D
330
1F
100
AcDbEntity
  8
0
  6
Continuous
 62
     7
370
    25
100
AcDbCircle
 10
-486.3921540257
 20
142.3536732789
 30
0.0
 40
0.4499999999998181
100
AcDbArc
 50
270.0
 51
346.6582417728
  0
ARC
  5
24E
330
1F
100
AcDbEntity
  8
0
  6
Continuous
 62
     7
370
    25
100
AcDbCircle
 10
-486.3921540257
 20
144.1536732789
 30
0.0
 40
2.250000000000164
100
AcDbArc
 50
210.0
 51
270.0
  0
ARC
  5
24F
330
1F
100
AcDbEntity
  8
0
  6
Continuous
 62
     7
370
    25
100
AcDbCircle
 10
-487.9509997525
 20
143.2536732789
 30
0.0
 40
0.4500000000000246
100
AcDbArc
 50
210.0
 51
286.6582417728
  0
ARC
  5
250
330
1F
100
AcDbEntity
  8
0
  6
Continuous
 62
     7
370
    25
100
AcDbCircle
 10
-487.5962550761
 20
142.0681090822
 30
0.0
 40
0.7875000000001339
100
AcDbArc
 50
13.3417582272
 51
106.6582417728
  0
ARC
  5
251
330
1F
100
AcDbEntity
  8
0
  6
Continuous
 62
     7
370
    25
100
AcDbCircle
 10
-486.3921540257
 20
142.3536732789
 30
0.0
 40
0.4499999999999679
100
AcDbArc
 50
193.3417582272
 51
270.0
  0
ARC
  5
252
330
1F
100
AcDbEntity
  8
0
  6
Continuous
 62
     7
370
    25
100
AcDbCircle
 10
-486.3921540257
 20
144.1536732789
 30
0.0
 40
2.250000000000115
100
AcDbArc
 50
330.0
 51
30.0
  0
ARC
  5
253
330
1F
100
AcDbEntity
  8
0
  6
Continuous
 62
     7
370
    25
100
AcDbCircle
 10
-484.8333082989
 20
145.0536732789
 30
0.0
 40
0.4500000000001364
100
AcDbArc
 50
313.3417582273
 51
30.0
  0
ARC
  5
254
330
1F
100
AcDbEntity
  8
0
  6
Continuous
 62
     7
370
    25
100
AcDbCircle
 10
-483.9839519249
 20
144.1536732789
 30
0.0
 40
0.7875000000000296
100
AcDbArc
 50
133.3417582272
 51
226.6582417728
  0
ARC
  5
255
330
1F
100
AcDbEntity
  8
0
  6
Continuous
 62
     7
370
    25
100
AcDbCircle
 10
-484.8333082989
 20
143.2536732789
 30
0.0
 40
0.4500000000003349
100
AcDbArc
 50
330.0
 51
46.6582417728
  0
ARC
  5
256
330
1F
100
AcDbEntity
  8
0
  6
Continuous
 62
     7
370
    25
100
AcDbCircle
 10
-486.3921540257
 20
144.1536732789
 30
0.0
 40
2.250000000000164
100
AcDbArc
 50
150.0
 51
210.0
  0
ARC
  5
257
330
1F
100
AcDbEntity
  8
0
  6
Continuous
 62
     7
370
    25
100
AcDbCircle
 10
-487.9509997525
 20
145.0536732789
 30
0.0
 40
0.4500000000001664
100
AcDbArc
 50
150.0
 51
226.6582417728
  0
ARC
  5
258
330
1F
100
AcDbEntity
  8
0
  6
Continuous
 62
     7
370
    25
100
AcDbCircle
 10
-488.8003561265
 20
144.1536732789
 30
0.0
 40
0.7875000000001326
100
AcDbArc
 50
313.3417582272
 51
46.6582417728
  0
ARC
  5
259
330
1F
100
AcDbEntity
  8
0
  6
Continuous
 62
     7
370
    25
100
AcDbCircle
 10
-487.9509997525
 20
143.2536732789
 30
0.0
 40
0.4500000000000264
100
AcDbArc
 50
133.3417582272
 51
210.0
  0
ARC
  5
25A
330
1F
100
AcDbEntity
  8
0
  6
Continuous
 62
     7
370
    25
100
AcDbCircle
 10
-486.3921540257
 20
144.1536732789
 30
0.0
 40
2.249999999999972
100
AcDbArc
 50
30.0
 51
90.0
  0
CIRCLE
  5
25B
330
1F
100
AcDbEntity
  8
0
  6
Continuous
 62
     7
370
    25
100
AcDbCircle
 10
-486.3921540257
 20
144.1536732789
 30
0.0
 40
3.849999999999994
  0
ARC
  5
25C
330
1F
100
AcDbEntity
  8
0
  6
Continuous
 62
     7
370
    25
100
AcDbCircle
 10
-485.1880529753
 20
146.2392374756
 30
0.0
 40
0.7875000000001166
100
AcDbArc
 50
193.3417582272
 51
286.6582417728
  0
ARC
  5
25D
330
1F
100
AcDbEntity
  8
0
  6
Continuous
 62
     7
370
    25
100
AcDbCircle
 10
-486.3921540257
 20
145.9536732789
 30
0.0
 40
0.4500000000001573
100
AcDbArc
 50
13.3417582272
 51
90.0
  0
ARC
  5
25E
330
1F
100
AcDbEntity
  8
0
  6
Continuous
 62
     7
370
    25
100
AcDbCircle
 10
-484.8333082989
 20
145.0536732789
 30
0.0
 40
0.4500000000000604
100
AcDbArc
 50
30.0
 51
106.6582417727
  0
ARC
  5
25F
330
1F
100
AcDbEntity
  8
0
  6
Continuous
 62
     7
370
    25
100
AcDbCircle
 10
793.6078459743
 20
159.1536732789
 30
0.0
 40
2.250000000000115
100
AcDbArc
 50
150.0
 51
210.0
  0
ARC
  5
260
330
1F
100
AcDbEntity
  8
0
  6
Continuous
 62
     7
370
    25
100
AcDbCircle
 10
792.0490002475
 20
160.0536732789
 30
0.0
 40
0.4500000000001664
100
AcDbArc
 50
150.0
 51
226.6582417728
  0
ARC
  5
261
330
1F
100
AcDbEntity
  8
0
  6
Continuous
 62
     7
370
    25
100
AcDbCircle
 10
792.0490002475
 20
158.2536732789
 30
0.0
 40
0.4500000000000264
100
AcDbArc
 50
133.3417582272
 51
210.0
  0
ARC
  5
262
330
1F
100
AcDbEntity
  8
0
  6
Continuous
 62
     7
370
    25
100
AcDbCircle
 10
791.1996438735
 20
159.1536732789
 30
0.0
 40
0.7875000000001717
100
AcDbArc
 50
313.3417582272
 51
46.6582417728
  0
ARC
  5
263
330
1F
100
AcDbEntity
  8
0
  6
Continuous
 62
     7
370
    25
100
AcDbCircle
 10
793.6078459743
 20
159.1536732789
 30
0.0
 40
2.250000000000115
100
AcDbArc
 50
210.0
 51
270.0
  0
ARC
  5
264
330
1F
100
AcDbEntity
  8
0
  6
Continuous
 62
     7
370
    25
100
AcDbCircle
 10
792.4037449239
 20
157.0681090822
 30
0.0
 40
0.7875000000001892
100
AcDbArc
 50
13.3417582272
 51
106.6582417728
  0
ARC
  5
265
330
1F
100
AcDbEntity
  8
0
  6
Continuous
 62
     7
370
    25
100
AcDbCircle
 10
793.6078459743
 20
157.3536732789
 30
0.0
 40
0.4499999999999126
100
AcDbArc
 50
193.3417582272
 51
270.0
  0
ARC
  5
266
330
1F
100
AcDbEntity
  8
0
  6
Continuous
 62
     7
370
    25
100
AcDbCircle
 10
792.0490002475
 20
158.2536732789
 30
0.0
 40
0.4500000000000083
100
AcDbArc
 50
210.0
 51
286.6582417728
  0
ARC
  5
267
330
1F
100
AcDbEntity
  8
0
  6
Continuous
 62
     7
370
    25
100
AcDbCircle
 10
793.6078459743
 20
159.1536732789
 30
0.0
 40
2.250000000000115
100
AcDbArc
 50
330.0
 51
30.0
  0
ARC
  5
268
330
1F
100
AcDbEntity
  8
0
  6
Continuous
 62
     7
370
    25
100
AcDbCircle
 10
795.1666917011
 20
158.2536732789
 30
0.0
 40
0.4500000000003349
100
AcDbArc
 50
330.0
 51
46.6582417728
  0
ARC
  5
269
330
1F
100
AcDbEntity
  8
0
  6
Continuous
 62
     7
370
    25
100
AcDbCircle
 10
796.0160480751
 20
159.1536732789
 30
0.0
 40
0.7875000000000296
100
AcDbArc
 50
133.3417582272
 51
226.6582417728
  0
ARC
  5
26A
330
1F
100
AcDbEntity
  8
0
  6
Continuous
 62
     7
370
    25
100
AcDbCircle
 10
795.1666917011
 20
160.0536732789
 30
0.0
 40
0.4500000000001364
100
AcDbArc
 50
313.3417582273
 51
30.0
  0
ARC
  5
26B
330
1F
100
AcDbEntity
  8
0
  6
Continuous
 62
     7
370
    25
100
AcDbCircle
 10
793.6078459743
 20
159.1536732789
 30
0.0
 40
2.250000000000115
100
AcDbArc
 50
270.0
 51
330.0
  0
ARC
  5
26C
330
1F
100
AcDbEntity
  8
0
  6
Continuous
 62
     7
370
    25
100
AcDbCircle
 10
795.1666917011
 20
158.2536732789
 30
0.0
 40
0.4500000000003349
100
AcDbArc
 50
253.3417582273
 51
330.0
  0
ARC
  5
26D
330
1F
100
AcDbEntity
  8
0
  6
Continuous
 62
     7
370
    25
100
AcDbCircle
 10
793.6078459743
 20
157.3536732789
 30
0.0
 40
0.4499999999998465
100
AcDbArc
 50
270.0
 51
346.6582417728
  0
ARC
  5
26E
330
1F
100
AcDbEntity
  8
0
  6
Continuous
 62
     7
370
    25
100
AcDbCircle
 10
794.8119470247
 20
157.0681090822
 30
0.0
 40
0.7875000000002286
100
AcDbArc
 50
73.3417582272
 51
166.6582417728
  0
ARC
  5
26F
330
1F
100
AcDbEntity
  8
0
  6
Continuous
 62
     7
370
    25
100
AcDbCircle
 10
793.6078459743
 20
159.1536732789
 30
0.0
 40
2.25
100
AcDbArc
 50
90.0
 51
150.0
  0
ARC
  5
270
330
1F
100
AcDbEntity
  8
0
  6
Continuous
 62
     7
370
    25
100
AcDbCircle
 10
793.6078459743
 20
160.9536732789
 30
0.0
 40
0.4499999999999886
100
AcDbArc
 50
90.0
 51
166.6582417728
  0
ARC
  5
271
330
1F
100
AcDbEntity
  8
0
  6
Continuous
 62
     7
370
    25
100
AcDbCircle
 10
792.4037449239
 20
161.2392374756
 30
0.0
 40
0.7875000000002613
100
AcDbArc
 50
253.3417582272
 51
346.6582417728
  0
ARC
  5
272
330
1F
100
AcDbEntity
  8
0
  6
Continuous
 62
     7
370
    25
100
AcDbCircle
 10
792.0490002475
 20
160.0536732789
 30
0.0
 40
0.4500000000001664
100
AcDbArc
 50
73.3417582273
 51
150.0
  0
ARC
  5
273
330
1F
100
AcDbEntity
  8
0
  6
Continuous
 62
     7
370
    25
100
AcDbCircle
 10
793.6078459743
 20
159.1536732789
 30
0.0
 40
2.25
100
AcDbArc
 50
30.0
 51
90.0
  0
CIRCLE
  5
274
330
1F
100
AcDbEntity
  8
0
  6
Continuous
 62
     7
370
    25
100
AcDbCircle
 10
793.6078459743
 20
159.1536732789
 30
0.0
 40
3.849999999999994
  0
ARC
  5
275
330
1F
100
AcDbEntity
  8
0
  6
Continuous
 62
     7
370
    25
100
AcDbCircle
 10
793.6078459743
 20
160.9536732789
 30
0.0
 40
0.4500000000002126
100
AcDbArc
 50
13.3417582272
 51
90.0
  0
ARC
  5
276
330
1F
100
AcDbEntity
  8
0
  6
Continuous
 62
     7
370
    25
100
AcDbCircle
 10
794.8119470247
 20
161.2392374756
 30
0.0
 40
0.7875000000001274
100
AcDbArc
 50
193.3417582272
 51
286.6582417728
  0
ARC
  5
277
330
1F
100
AcDbEntity
  8
0
  6
Continuous
 62
     7
370
    25
100
AcDbCircle
 10
795.1666917011
 20
160.0536732789
 30
0.0
 40
0.4500000000000194
100
AcDbArc
 50
30.0
 51
106.6582417727
  0
ARC
  5
278
330
1F
100
AcDbEntity
  8
0
  6
Continuous
 62
     7
370
    25
100
AcDbCircle
 10
-396.3921540257
 20
159.1536732789
 30
0.0
 40
2.250000000000072
100
AcDbArc
 50
90.0
 51
150.0
  0
ARC
  5
279
330
1F
100
AcDbEntity
  8
0
  6
Continuous
 62
     7
370
    25
100
AcDbCircle
 10
-396.3921540257
 20
159.1536732789
 30
0.0
 40
2.250000000000213
100
AcDbArc
 50
150.0
 51
210.0
  0
ARC
  5
27A
330
1F
100
AcDbEntity
  8
0
  6
Continuous
 62
     7
370
    25
100
AcDbCircle
 10
-396.3921540257
 20
159.1536732789
 30
0.0
 40
2.250000000000213
100
AcDbArc
 50
210.0
 51
270.0
  0
ARC
  5
27B
330
1F
100
AcDbEntity
  8
0
  6
Continuous
 62
     7
370
    25
100
AcDbCircle
 10
-396.3921540257
 20
159.1536732789
 30
0.0
 40
2.250000000000066
100
AcDbArc
 50
270.0
 51
330.0
  0
ARC
  5
27C
330
1F
100
AcDbEntity
  8
0
  6
Continuous
 62
     7
370
    25
100
AcDbCircle
 10
-396.3921540257
 20
159.1536732789
 30
0.0
 40
2.250000000000066
100
AcDbArc
 50
330.0
 51
30.0
  0
ARC
  5
27D
330
1F
100
AcDbEntity
  8
0
  6
Continuous
 62
     7
370
    25
100
AcDbCircle
 10
-396.3921540257
 20
159.1536732789
 30
0.0
 40
2.25
100
AcDbArc
 50
30.0
 51
90.0
  0
CIRCLE
  5
27E
330
1F
100
AcDbEntity
  8
0
  6
Continuous
 62
     7
370
    25
100
AcDbCircle
 10
-396.3921540257
 20
159.1536732789
 30
0.0
 40
3.849999999999994
  0
ARC
  5
27F
330
1F
100
AcDbEntity
  8
0
  6
Continuous
 62
     7
370
    25
100
AcDbCircle
 10
-394.8333082989
 20
158.2536732789
 30
0.0
 40
0.4500000000003349
100
AcDbArc
 50
330.0
 51
46.6582417728
  0
ARC
  5
280
330
1F
100
AcDbEntity
  8
0
  6
Continuous
 62
     7
370
    25
100
AcDbCircle
 10
-393.9839519249
 20
159.1536732789
 30
0.0
 40
0.7874999999999905
100
AcDbArc
 50
133.3417582272
 51
226.6582417728
  0
ARC
  5
281
330
1F
100
AcDbEntity
  8
0
  6
Continuous
 62
     7
370
    25
100
AcDbCircle
 10
-394.8333082989
 20
160.0536732789
 30
0.0
 40
0.4500000000001364
100
AcDbArc
 50
313.3417582273
 51
30.0
  0
ARC
  5
282
330
1F
100
AcDbEntity
  8
0
  6
Continuous
 62
     7
370
    25
100
AcDbCircle
 10
-396.3921540257
 20
160.9536732789
 30
0.0
 40
0.4500000000001573
100
AcDbArc
 50
13.3417582272
 51
90.0
  0
ARC
  5
283
330
1F
100
AcDbEntity
  8
0
  6
Continuous
 62
     7
370
    25
100
AcDbCircle
 10
-395.1880529753
 20
161.2392374756
 30
0.0
 40
0.7875000000001601
100
AcDbArc
 50
193.3417582272
 51
286.6582417728
  0
ARC
  5
284
330
1F
100
AcDbEntity
  8
0
  6
Continuous
 62
     7
370
    25
100
AcDbCircle
 10
-394.8333082989
 20
160.0536732789
 30
0.0
 40
0.4500000000000112
100
AcDbArc
 50
30.0
 51
106.6582417727
  0
ARC
  5
285
330
1F
100
AcDbEntity
  8
0
  6
Continuous
 62
     7
370
    25
100
AcDbCircle
 10
-397.9509997525
 20
158.2536732789
 30
0.0
 40
0.4500000000000264
100
AcDbArc
 50
133.3417582272
 51
210.0
  0
ARC
  5
286
330
1F
100
AcDbEntity
  8
0
  6
Continuous
 62
     7
370
    25
100
AcDbCircle
 10
-397.9509997525
 20
160.0536732789
 30
0.0
 40
0.4500000000002157
100
AcDbArc
 50
150.0
 51
226.6582417728
  0
ARC
  5
287
330
1F
100
AcDbEntity
  8
0
  6
Continuous
 62
     7
370
    25
100
AcDbCircle
 10
-398.8003561265
 20
159.1536732789
 30
0.0
 40
0.7875000000001717
100
AcDbArc
 50
313.3417582272
 51
46.6582417728
  0
ARC
  5
288
330
1F
100
AcDbEntity
  8
0
  6
Continuous
 62
     7
370
    25
100
AcDbCircle
 10
-396.3921540257
 20
157.3536732789
 30
0.0
 40
0.4499999999998465
100
AcDbArc
 50
270.0
 51
346.6582417728
  0
ARC
  5
289
330
1F
100
AcDbEntity
  8
0
  6
Continuous
 62
     7
370
    25
100
AcDbCircle
 10
-395.1880529753
 20
157.0681090822
 30
0.0
 40
0.7875000000001733
100
AcDbArc
 50
73.3417582272
 51
166.6582417728
  0
ARC
  5
28A
330
1F
100
AcDbEntity
  8
0
  6
Continuous
 62
     7
370
    25
100
AcDbCircle
 10
-394.8333082989
 20
158.2536732789
 30
0.0
 40
0.4500000000003349
100
AcDbArc
 50
253.3417582273
 51
330.0
  0
ARC
  5
28B
330
1F
100
AcDbEntity
  8
0
  6
Continuous
 62
     7
370
    25
100
AcDbCircle
 10
-397.5962550761
 20
161.2392374756
 30
0.0
 40
0.7875000000002613
100
AcDbArc
 50
253.3417582272
 51
346.6582417728
  0
ARC
  5
28C
330
1F
100
AcDbEntity
  8
0
  6
Continuous
 62
     7
370
    25
100
AcDbCircle
 10
-396.3921540257
 20
160.9536732789
 30
0.0
 40
0.4499999999999886
100
AcDbArc
 50
90.0
 51
166.6582417728
  0
ARC
  5
28D
330
1F
100
AcDbEntity
  8
0
  6
Continuous
 62
     7
370
    25
100
AcDbCircle
 10
-397.9509997525
 20
160.0536732789
 30
0.0
 40
0.4500000000002157
100
AcDbArc
 50
73.3417582273
 51
150.0
  0
ARC
  5
28E
330
1F
100
AcDbEntity
  8
0
  6
Continuous
 62
     7
370
    25
100
AcDbCircle
 10
-396.3921540257
 20
157.3536732789
 30
0.0
 40
0.4499999999999679
100
AcDbArc
 50
193.3417582272
 51
270.0
  0
ARC
  5
28F
330
1F
100
AcDbEntity
  8
0
  6
Continuous
 62
     7
370
    25
100
AcDbCircle
 10
-397.5962550761
 20
157.0681090822
 30
0.0
 40
0.7875000000001892
100
AcDbArc
 50
13.3417582272
 51
106.6582417728
  0
ARC
  5
290
330
1F
100
AcDbEntity
  8
0
  6
Continuous
 62
     7
370
    25
100
AcDbCircle
 10
-397.9509997525
 20
158.2536732789
 30
0.0
 40
0.4500000000000246
100
AcDbArc
 50
210.0
 51
286.6582417728
  0
ARC
  5
291
330
1F
100
AcDbEntity
  8
0
  6
Continuous
 62
     7
370
    25
100
AcDbCircle
 10
883.6078459743
 20
144.1536732789
 30
0.0
 40
2.250000000000072
100
AcDbArc
 50
90.0
 51
150.0
  0
ARC
  5
292
330
1F
100
AcDbEntity
  8
0
  6
Continuous
 62
     7
370
    25
100
AcDbCircle
 10
883.6078459743
 20
144.1536732789
 30
0.0
 40
2.250000000000213
100
AcDbArc
 50
150.0
 51
210.0
  0
ARC
  5
293
330
1F
100
AcDbEntity
  8
0
  6
Continuous
 62
     7
370
    25
100
AcDbCircle
 10
883.6078459743
 20
144.1536732789
 30
0.0
 40
2.250000000000213
100
AcDbArc
 50
210.0
 51
270.0
  0
ARC
  5
294
330
1F
100
AcDbEntity
  8
0
  6
Continuous
 62
     7
370
    25
100
AcDbCircle
 10
883.6078459743
 20
144.1536732789
 30
0.0
 40
2.250000000000115
100
AcDbArc
 50
270.0
 51
330.0
  0
ARC
  5
295
330
1F
100
AcDbEntity
  8
0
  6
Continuous
 62
     7
370
    25
100
AcDbCircle
 10
883.6078459743
 20
144.1536732789
 30
0.0
 40
2.250000000000115
100
AcDbArc
 50
330.0
 51
30.0
  0
ARC
  5
296
330
1F
100
AcDbEntity
  8
0
  6
Continuous
 62
     7
370
    25
100
AcDbCircle
 10
883.6078459743
 20
144.1536732789
 30
0.0
 40
2.249999999999972
100
AcDbArc
 50
30.0
 51
90.0
  0
CIRCLE
  5
297
330
1F
100
AcDbEntity
  8
0
  6
Continuous
 62
     7
370
    25
100
AcDbCircle
 10
883.6078459743
 20
144.1536732789
 30
0.0
 40
3.849999999999994
  0
ARC
  5
298
330
1F
100
AcDbEntity
  8
0
  6
Continuous
 62
     7
370
    25
100
AcDbCircle
 10
885.1666917011
 20
143.2536732789
 30
0.0
 40
0.4500000000003349
100
AcDbArc
 50
330.0
 51
46.6582417728
  0
ARC
  5
299
330
1F
100
AcDbEntity
  8
0
  6
Continuous
 62
     7
370
    25
100
AcDbCircle
 10
886.0160480751
 20
144.1536732789
 30
0.0
 40
0.7874999999999516
100
AcDbArc
 50
133.3417582272
 51
226.6582417728
  0
ARC
  5
29A
330
1F
100
AcDbEntity
  8
0
  6
Continuous
 62
     7
370
    25
100
AcDbCircle
 10
885.1666917011
 20
145.0536732789
 30
0.0
 40
0.4500000000001364
100
AcDbArc
 50
313.3417582273
 51
30.0
  0
ARC
  5
29B
330
1F
100
AcDbEntity
  8
0
  6
Continuous
 62
     7
370
    25
100
AcDbCircle
 10
883.6078459743
 20
142.3536732789
 30
0.0
 40
0.4499999999998181
100
AcDbArc
 50
270.0
 51
346.6582417728
  0
ARC
  5
29C
330
1F
100
AcDbEntity
  8
0
  6
Continuous
 62
     7
370
    25
100
AcDbCircle
 10
884.8119470247
 20
142.0681090822
 30
0.0
 40
0.787500000000118
100
AcDbArc
 50
73.3417582272
 51
166.6582417728
  0
ARC
  5
29D
330
1F
100
AcDbEntity
  8
0
  6
Continuous
 62
     7
370
    25
100
AcDbCircle
 10
885.1666917011
 20
143.2536732789
 30
0.0
 40
0.4500000000003349
100
AcDbArc
 50
253.3417582273
 51
330.0
  0
ARC
  5
29E
330
1F
100
AcDbEntity
  8
0
  6
Continuous
 62
     7
370
    25
100
AcDbCircle
 10
882.0490002475
 20
143.2536732789
 30
0.0
 40
0.450000000000068
100
AcDbArc
 50
210.0
 51
286.6582417728
  0
ARC
  5
29F
330
1F
100
AcDbEntity
  8
0
  6
Continuous
 62
     7
370
    25
100
AcDbCircle
 10
882.4037449239
 20
142.0681090822
 30
0.0
 40
0.7875000000001892
100
AcDbArc
 50
13.3417582272
 51
106.6582417728
  0
ARC
  5
2A0
330
1F
100
AcDbEntity
  8
0
  6
Continuous
 62
     7
370
    25
100
AcDbCircle
 10
883.6078459743
 20
142.3536732789
 30
0.0
 40
0.4499999999999126
100
AcDbArc
 50
193.3417582272
 51
270.0
  0
ARC
  5
2A1
330
1F
100
AcDbEntity
  8
0
  6
Continuous
 62
     7
370
    25
100
AcDbCircle
 10
882.0490002475
 20
145.0536732789
 30
0.0
 40
0.4500000000002649
100
AcDbArc
 50
150.0
 51
226.6582417728
  0
ARC
  5
2A2
330
1F
100
AcDbEntity
  8
0
  6
Continuous
 62
     7
370
    25
100
AcDbCircle
 10
882.0490002475
 20
143.2536732789
 30
0.0
 40
0.450000000000068
100
AcDbArc
 50
133.3417582272
 51
210.0
  0
ARC
  5
2A3
330
1F
100
AcDbEntity
  8
0
  6
Continuous
 62
     7
370
    25
100
AcDbCircle
 10
881.1996438735
 20
144.1536732789
 30
0.0
 40
0.7875000000001717
100
AcDbArc
 50
313.3417582272
 51
46.6582417728
  0
ARC
  5
2A4
330
1F
100
AcDbEntity
  8
0
  6
Continuous
 62
     7
370
    25
100
AcDbCircle
 10
883.6078459743
 20
145.9536732789
 30
0.0
 40
0.4499999999999602
100
AcDbArc
 50
90.0
 51
166.6582417728
  0
ARC
  5
2A5
330
1F
100
AcDbEntity
  8
0
  6
Continuous
 62
     7
370
    25
100
AcDbCircle
 10
882.4037449239
 20
146.2392374756
 30
0.0
 40
0.7875000000002548
100
AcDbArc
 50
253.3417582272
 51
346.6582417728
  0
ARC
  5
2A6
330
1F
100
AcDbEntity
  8
0
  6
Continuous
 62
     7
370
    25
100
AcDbCircle
 10
882.0490002475
 20
145.0536732789
 30
0.0
 40
0.4500000000002649
100
AcDbArc
 50
73.3417582273
 51
150.0
  0
ARC
  5
2A7
330
1F
100
AcDbEntity
  8
0
  6
Continuous
 62
     7
370
    25
100
AcDbCircle
 10
883.6078459743
 20
145.9536732789
 30
0.0
 40
0.4500000000002126
100
AcDbArc
 50
13.3417582272
 51
90.0
  0
ARC
  5
2A8
330
1F
100
AcDbEntity
  8
0
  6
Continuous
 62
     7
370
    25
100
AcDbCircle
 10
884.8119470247
 20
146.2392374756
 30
0.0
 40
0.7875000000001329
100
AcDbArc
 50
193.3417582272
 51
286.6582417728
  0
ARC
  5
2A9
330
1F
100
AcDbEntity
  8
0
  6
Continuous
 62
     7
370
    25
100
AcDbCircle
 10
885.1666917011
 20
145.0536732789
 30
0.0
 40
0.4500000000000194
100
AcDbArc
 50
30.0
 51
106.6582417727
  0
ARC
  5
2AA
330
1F
100
AcDbEntity
  8
0
  6
Continuous
 62
     7
370
    25
100
AcDbCircle
 10
883.6078459743
 20
174.1536732789
 30
0.0
 40
2.250000000000213
100
AcDbArc
 50
210.0
 51
270.0
  0
ARC
  5
2AB
330
1F
100
AcDbEntity
  8
0
  6
Continuous
 62
     7
370
    25
100
AcDbCircle
 10
882.0490002475
 20
173.2536732789
 30
0.0
 40
0.450000000000068
100
AcDbArc
 50
210.0
 51
286.6582417728
  0
ARC
  5
2AC
330
1F
100
AcDbEntity
  8
0
  6
Continuous
 62
     7
370
    25
100
AcDbCircle
 10
882.4037449239
 20
172.0681090822
 30
0.0
 40
0.7875000000001892
100
AcDbArc
 50
13.3417582272
 51
106.6582417728
  0
ARC
  5
2AD
330
1F
100
AcDbEntity
  8
0
  6
Continuous
 62
     7
370
    25
100
AcDbCircle
 10
883.6078459743
 20
172.3536732789
 30
0.0
 40
0.4499999999999126
100
AcDbArc
 50
193.3417582272
 51
270.0
  0
ARC
  5
2AE
330
1F
100
AcDbEntity
  8
0
  6
Continuous
 62
     7
370
    25
100
AcDbCircle
 10
883.6078459743
 20
174.1536732789
 30
0.0
 40
2.250000000000072
100
AcDbArc
 50
90.0
 51
150.0
  0
ARC
  5
2AF
330
1F
100
AcDbEntity
  8
0
  6
Continuous
 62
     7
370
    25
100
AcDbCircle
 10
883.6078459743
 20
175.9536732789
 30
0.0
 40
0.4499999999999602
100
AcDbArc
 50
90.0
 51
166.6582417728
  0
ARC
  5
2B0
330
1F
100
AcDbEntity
  8
0
  6
Continuous
 62
     7
370
    25
100
AcDbCircle
 10
882.4037449239
 20
176.2392374756
 30
0.0
 40
0.7875000000002548
100
AcDbArc
 50
253.3417582272
 51
346.6582417728
  0
ARC
  5
2B1
330
1F
100
AcDbEntity
  8
0
  6
Continuous
 62
     7
370
    25
100
AcDbCircle
 10
882.0490002475
 20
175.0536732789
 30
0.0
 40
0.4500000000002649
100
AcDbArc
 50
73.3417582273
 51
150.0
  0
ARC
  5
2B2
330
1F
100
AcDbEntity
  8
0
  6
Continuous
 62
     7
370
    25
100
AcDbCircle
 10
883.6078459743
 20
174.1536732789
 30
0.0
 40
2.250000000000115
100
AcDbArc
 50
270.0
 51
330.0
  0
ARC
  5
2B3
330
1F
100
AcDbEntity
  8
0
  6
Continuous
 62
     7
370
    25
100
AcDbCircle
 10
883.6078459743
 20
172.3536732789
 30
0.0
 40
0.4499999999998465
100
AcDbArc
 50
270.0
 51
346.6582417728
  0
ARC
  5
2B4
330
1F
100
AcDbEntity
  8
0
  6
Continuous
 62
     7
370
    25
100
AcDbCircle
 10
884.8119470247
 20
172.0681090822
 30
0.0
 40
0.787500000000118
100
AcDbArc
 50
73.3417582272
 51
166.6582417728
  0
ARC
  5
2B5
330
1F
100
AcDbEntity
  8
0
  6
Continuous
 62
     7
370
    25
100
AcDbCircle
 10
885.1666917011
 20
173.2536732789
 30
0.0
 40
0.4500000000003349
100
AcDbArc
 50
253.3417582273
 51
330.0
  0
ARC
  5
2B6
330
1F
100
AcDbEntity
  8
0
  6
Continuous
 62
     7
370
    25
100
AcDbCircle
 10
883.6078459743
 20
174.1536732789
 30
0.0
 40
2.249999999999972
100
AcDbArc
 50
30.0
 51
90.0
  0
ARC
  5
2B7
330
1F
100
AcDbEntity
  8
0
  6
Continuous
 62
     7
370
    25
100
AcDbCircle
 10
885.1666917011
 20
175.0536732789
 30
0.0
 40
0.4500000000000194
100
AcDbArc
 50
30.0
 51
106.6582417727
  0
ARC
  5
2B8
330
1F
100
AcDbEntity
  8
0
  6
Continuous
 62
     7
370
    25
100
AcDbCircle
 10
884.8119470247
 20
176.2392374756
 30
0.0
 40
0.7875000000001329
100
AcDbArc
 50
193.3417582272
 51
286.6582417728
  0
ARC
  5
2B9
330
1F
100
AcDbEntity
  8
0
  6
Continuous
 62
     7
370
    25
100
AcDbCircle
 10
883.6078459743
 20
175.9536732789
 30
0.0
 40
0.4500000000002126
100
AcDbArc
 50
13.3417582272
 51
90.0
  0
ARC
  5
2BA
330
1F
100
AcDbEntity
  8
0
  6
Continuous
 62
     7
370
    25
100
AcDbCircle
 10
883.6078459743
 20
174.1536732789
 30
0.0
 40
2.250000000000213
100
AcDbArc
 50
150.0
 51
210.0
  0
ARC
  5
2BB
330
1F
100
AcDbEntity
  8
0
  6
Continuous
 62
     7
370
    25
100
AcDbCircle
 10
883.6078459743
 20
174.1536732789
 30
0.0
 40
2.250000000000115
100
AcDbArc
 50
330.0
 51
30.0
  0
CIRCLE
  5
2BC
330
1F
100
AcDbEntity
  8
0
  6
Continuous
 62
     7
370
    25
100
AcDbCircle
 10
883.6078459743
 20
174.1536732789
 30
0.0
 40
3.849999999999994
  0
ARC
  5
2BD
330
1F
100
AcDbEntity
  8
0
  6
Continuous
 62
     7
370
    25
100
AcDbCircle
 10
885.1666917011
 20
175.0536732789
 30
0.0
 40
0.4500000000001364
100
AcDbArc
 50
313.3417582273
 51
30.0
  0
ARC
  5
2BE
330
1F
100
AcDbEntity
  8
0
  6
Continuous
 62
     7
370
    25
100
AcDbCircle
 10
886.0160480751
 20
174.1536732789
 30
0.0
 40
0.7874999999999516
100
AcDbArc
 50
133.3417582272
 51
226.6582417728
  0
ARC
  5
2BF
330
1F
100
AcDbEntity
  8
0
  6
Continuous
 62
     7
370
    25
100
AcDbCircle
 10
885.1666917011
 20
173.2536732789
 30
0.0
 40
0.4500000000003349
100
AcDbArc
 50
330.0
 51
46.6582417728
  0
ARC
  5
2C0
330
1F
100
AcDbEntity
  8
0
  6
Continuous
 62
     7
370
    25
100
AcDbCircle
 10
881.1996438735
 20
174.1536732789
 30
0.0
 40
0.7875000000001717
100
AcDbArc
 50
313.3417582272
 51
46.6582417728
  0
ARC
  5
2C1
330
1F
100
AcDbEntity
  8
0
  6
Continuous
 62
     7
370
    25
100
AcDbCircle
 10
882.0490002475
 20
173.2536732789
 30
0.0
 40
0.450000000000068
100
AcDbArc
 50
133.3417582272
 51
210.0
  0
ARC
  5
2C2
330
1F
100
AcDbEntity
  8
0
  6
Continuous
 62
     7
370
    25
100
AcDbCircle
 10
882.0490002475
 20
175.0536732789
 30
0.0
 40
0.4500000000002649
100
AcDbArc
 50
150.0
 51
226.6582417728
  0
ARC
  5
2C3
330
1F
100
AcDbEntity
  8
0
  6
Continuous
 62
     7
370
    25
100
AcDbCircle
 10
-486.3921540257
 20
174.1536732789
 30
0.0
 40
2.250000000000023
100
AcDbArc
 50
90.0
 51
150.0
  0
ARC
  5
2C4
330
1F
100
AcDbEntity
  8
0
  6
Continuous
 62
     7
370
    25
100
AcDbCircle
 10
-486.3921540257
 20
175.9536732789
 30
0.0
 40
0.4499999999999602
100
AcDbArc
 50
90.0
 51
166.6582417728
  0
ARC
  5
2C5
330
1F
100
AcDbEntity
  8
0
  6
Continuous
 62
     7
370
    25
100
AcDbCircle
 10
-487.9509997525
 20
175.0536732789
 30
0.0
 40
0.4500000000001664
100
AcDbArc
 50
73.3417582273
 51
150.0
  0
ARC
  5
2C6
330
1F
100
AcDbEntity
  8
0
  6
Continuous
 62
     7
370
    25
100
AcDbCircle
 10
-487.5962550761
 20
176.2392374756
 30
0.0
 40
0.7875000000001995
100
AcDbArc
 50
253.3417582272
 51
346.6582417728
  0
ARC
  5
2C7
330
1F
100
AcDbEntity
  8
0
  6
Continuous
 62
     7
370
    25
100
AcDbCircle
 10
-486.3921540257
 20
174.1536732789
 30
0.0
 40
2.249999999999972
100
AcDbArc
 50
30.0
 51
90.0
  0
ARC
  5
2C8
330
1F
100
AcDbEntity
  8
0
  6
Continuous
 62
     7
370
    25
100
AcDbCircle
 10
-484.8333082989
 20
175.0536732789
 30
0.0
 40
0.4500000000000604
100
AcDbArc
 50
30.0
 51
106.6582417727
  0
ARC
  5
2C9
330
1F
100
AcDbEntity
  8
0
  6
Continuous
 62
     7
370
    25
100
AcDbCircle
 10
-485.1880529753
 20
176.2392374756
 30
0.0
 40
0.7875000000001166
100
AcDbArc
 50
193.3417582272
 51
286.6582417728
  0
ARC
  5
2CA
330
1F
100
AcDbEntity
  8
0
  6
Continuous
 62
     7
370
    25
100
AcDbCircle
 10
-486.3921540257
 20
175.9536732789
 30
0.0
 40
0.4500000000001573
100
AcDbArc
 50
13.3417582272
 51
90.0
  0
ARC
  5
2CB
330
1F
100
AcDbEntity
  8
0
  6
Continuous
 62
     7
370
    25
100
AcDbCircle
 10
-486.3921540257
 20
174.1536732789
 30
0.0
 40
2.250000000000115
100
AcDbArc
 50
330.0
 51
30.0
  0
ARC
  5
2CC
330
1F
100
AcDbEntity
  8
0
  6
Continuous
 62
     7
370
    25
100
AcDbCircle
 10
-484.8333082989
 20
173.2536732789
 30
0.0
 40
0.4500000000003349
100
AcDbArc
 50
330.0
 51
46.6582417728
  0
ARC
  5
2CD
330
1F
100
AcDbEntity
  8
0
  6
Continuous
 62
     7
370
    25
100
AcDbCircle
 10
-483.9839519249
 20
174.1536732789
 30
0.0
 40
0.7875000000000296
100
AcDbArc
 50
133.3417582272
 51
226.6582417728
  0
ARC
  5
2CE
330
1F
100
AcDbEntity
  8
0
  6
Continuous
 62
     7
370
    25
100
AcDbCircle
 10
-484.8333082989
 20
175.0536732789
 30
0.0
 40
0.4500000000001364
100
AcDbArc
 50
313.3417582273
 51
30.0
  0
ARC
  5
2CF
330
1F
100
AcDbEntity
  8
0
  6
Continuous
 62
     7
370
    25
100
AcDbCircle
 10
-486.3921540257
 20
174.1536732789
 30
0.0
 40
2.250000000000164
100
AcDbArc
 50
210.0
 51
270.0
  0
ARC
  5
2D0
330
1F
100
AcDbEntity
  8
0
  6
Continuous
 62
     7
370
    25
100
AcDbCircle
 10
-487.9509997525
 20
173.2536732789
 30
0.0
 40
0.4500000000000246
100
AcDbArc
 50
210.0
 51
286.6582417728
  0
ARC
  5
2D1
330
1F
100
AcDbEntity
  8
0
  6
Continuous
 62
     7
370
    25
100
AcDbCircle
 10
-486.3921540257
 20
172.3536732789
 30
0.0
 40
0.4499999999999679
100
AcDbArc
 50
193.3417582272
 51
270.0
  0
ARC
  5
2D2
330
1F
100
AcDbEntity
  8
0
  6
Continuous
 62
     7
370
    25
100
AcDbCircle
 10
-487.5962550761
 20
172.0681090822
 30
0.0
 40
0.7875000000001339
100
AcDbArc
 50
13.3417582272
 51
106.6582417728
  0
ARC
  5
2D3
330
1F
100
AcDbEntity
  8
0
  6
Continuous
 62
     7
370
    25
100
AcDbCircle
 10
-486.3921540257
 20
174.1536732789
 30
0.0
 40
2.250000000000164
100
AcDbArc
 50
150.0
 51
210.0
  0
ARC
  5
2D4
330
1F
100
AcDbEntity
  8
0
  6
Continuous
 62
     7
370
    25
100
AcDbCircle
 10
-488.8003561265
 20
174.1536732789
 30
0.0
 40
0.7875000000001326
100
AcDbArc
 50
313.3417582272
 51
46.6582417728
  0
ARC
  5
2D5
330
1F
100
AcDbEntity
  8
0
  6
Continuous
 62
     7
370
    25
100
AcDbCircle
 10
-487.9509997525
 20
173.2536732789
 30
0.0
 40
0.4500000000000264
100
AcDbArc
 50
133.3417582272
 51
210.0
  0
ARC
  5
2D6
330
1F
100
AcDbEntity
  8
0
  6
Continuous
 62
     7
370
    25
100
AcDbCircle
 10
-487.9509997525
 20
175.0536732789
 30
0.0
 40
0.4500000000001664
100
AcDbArc
 50
150.0
 51
226.6582417728
  0
ARC
  5
2D7
330
1F
100
AcDbEntity
  8
0
  6
Continuous
 62
     7
370
    25
100
AcDbCircle
 10
-486.3921540257
 20
174.1536732789
 30
0.0
 40
2.250000000000115
100
AcDbArc
 50
270.0
 51
330.0
  0
ARC
  5
2D8
330
1F
100
AcDbEntity
  8
0
  6
Continuous
 62
     7
370
    25
100
AcDbCircle
 10
-484.8333082989
 20
173.2536732789
 30
0.0
 40
0.4500000000003349
100
AcDbArc
 50
253.3417582273
 51
330.0
  0
ARC
  5
2D9
330
1F
100
AcDbEntity
  8
0
  6
Continuous
 62
     7
370
    25
100
AcDbCircle
 10
-485.1880529753
 20
172.0681090822
 30
0.0
 40
0.7875000000002286
100
AcDbArc
 50
73.3417582272
 51
166.6582417728
  0
ARC
  5
2DA
330
1F
100
AcDbEntity
  8
0
  6
Continuous
 62
     7
370
    25
100
AcDbCircle
 10
-486.3921540257
 20
172.3536732789
 30
0.0
 40
0.4499999999998465
100
AcDbArc
 50
270.0
 51
346.6582417728
  0
CIRCLE
  5
2DB
330
1F
100
AcDbEntity
  8
0
  6
Continuous
 62
     7
370
    25
100
AcDbCircle
 10
-486.3921540257
 20
174.1536732789
 30
0.0
 40
3.849999999999994
  0
ARC
  5
2DC
330
1F
100
AcDbEntity
  8
0
  6
Continuous
 62
     7
370
    25
100
AcDbCircle
 10
878.1085376731
 20
213.1518776193
 30
0.0
 40
63.47444413198318
100
AcDbArc
 50
67.7246621443
 51
140.422626138
  0
LWPOLYLINE
  5
2DD
330
1F
100
AcDbEntity
  8
0
  6
Continuous
 62
     7
370
    25
100
AcDbPolyline
 90
        7
 70
   128
 43
0.0
 10
902.1690259743
 20
271.8894121314
 10
902.1004364382
 20
271.7348756302
 10
901.9024360172
 20
271.2887235241
 10
901.5973548213
 20
270.6011549534
 10
901.2195122887
 20
269.7493735408
 10
900.9700446412
 20
269.1868484993
 10
900.9519178855
 20
269.1459699286
  0
ARC
  5
2DE
330
1F
100
AcDbEntity
  8
0
  6
Continuous
 62
     7
370
    25
100
AcDbCircle
 10
878.1085376731
 20
213.1518776193
 30
0.0
 40
60.47444413198319
100
AcDbArc
 50
67.8064786741
 51
140.4360199895
  0
LWPOLYLINE
  5
2DF
330
1F
100
AcDbEntity
  8
0
  6
Continuous
 62
     7
370
    25
100
AcDbPolyline
 90
        7
 70
   128
 43
0.0
 10
829.1846639743
 20
253.5926941314
 10
829.3144919717
 20
253.4843255639
 10
829.6893437366
 20
253.1714454633
 10
830.2669746707
 20
252.689345236
 10
830.9822859491
 20
252.0923940179
 10
831.4026265856
 20
251.7416365573
 10
831.4879530451
 20
251.670437847
  0
ARC
  5
2E0
330
1F
100
AcDbEntity
  8
0
  6
Continuous
 62
     7
370
    25
100
AcDbCircle
 10
733.6078819414
 20
334.1536115307
 30
0.0
 40
124.9999307039029
100
AcDbArc
 50
277.9281298636
 51
319.8727244278
  0
ARC
  5
2E1
330
1F
100
AcDbEntity
  8
0
  6
Continuous
 62
     7
370
    25
100
AcDbCircle
 10
733.6078819414
 20
334.1536115307
 30
0.0
 40
127.9999307039029
100
AcDbArc
 50
277.928130342
 51
319.8792848399
  0
LINE
  5
2E2
330
1F
100
AcDbEntity
  8
0
  6
Continuous
 62
     7
370
    25
100
AcDbLine
 10
750.8492259743
 20
210.3484471314
 30
0.0
 11
751.2630195192
 21
207.3771216861
 31
0.0
  0
ARC
  5
2E3
330
1F
100
AcDbEntity
  8
0
  6
Continuous
 62
     7
370
    25
100
AcDbCircle
 10
878.1085383525
 20
105.1554691436
 30
0.0
 40
60.47444433711905
100
AcDbArc
 50
219.5639792539
 51
292.1935205693
  0
LWPOLYLINE
  5
2E4
330
1F
100
AcDbEntity
  8
0
  6
Continuous
 62
     7
370
    25
100
AcDbPolyline
 90
        7
 70
   128
 43
0.0
 10
902.1690259743
 20
46.4179341314
 10
902.1004364392
 20
46.5724706331
 10
901.9024360211
 20
47.0186227405
 10
901.5973548297
 20
47.7061913131
 10
901.2195123026
 20
48.5579727281
 10
900.9700446564
 20
49.1204977764
 10
900.9519179031
 20
49.1613763428
  0
ARC
  5
2E5
330
1F
100
AcDbEntity
  8
0
  6
Continuous
 62
     7
370
    25
100
AcDbCircle
 10
878.1085383525
 20
105.1554691436
 30
0.0
 40
63.47444433711906
100
AcDbArc
 50
219.5773731234
 51
292.2753371171
  0
LWPOLYLINE
  5
2E6
330
1F
100
AcDbEntity
  8
0
  6
Continuous
 62
     7
370
    25
100
AcDbPolyline
 90
        7
 70
   128
 43
0.0
 10
831.4879530578
 20
66.6369094009
 10
831.4026266551
 20
66.5657107389
 10
830.9822859589
 20
66.2149532332
 10
830.2669746766
 20
65.6180020199
 10
829.6893437393
 20
65.1359017963
 10
829.3144919724
 20
64.8230216982
 10
829.1846639743
 20
64.7146531314
  0
ARC
  5
2E7
330
1F
100
AcDbEntity
  8
0
  6
Continuous
 62
     7
370
    25
100
AcDbCircle
 10
733.6078819414
 20
-15.8462642678
 30
0.0
 40
127.9999307039032
100
AcDbArc
 50
40.1207151513
 51
82.0718701364
  0
ARC
  5
2E8
330
1F
100
AcDbEntity
  8
0
  6
Continuous
 62
     7
370
    25
100
AcDbCircle
 10
733.6078819414
 20
-15.8462642678
 30
0.0
 40
124.9999307039031
100
AcDbArc
 50
40.1272755722
 51
82.0718701364
  0
LINE
  5
2E9
330
1F
100
AcDbEntity
  8
0
  6
Continuous
 62
     7
370
    25
100
AcDbLine
 10
751.2630184605
 20
110.9302257242
 30
0.0
 11
750.8492259743
 21
107.9589001314
 31
0.0
  0
ARC
  5
2EA
330
1F
100
AcDbEntity
  8
0
  6
Continuous
 62
     7
370
    25
100
AcDbCircle
 10
848.172257847
 20
159.1536731314
 30
0.0
 40
124.9999912642761
100
AcDbArc
 50
295.5929116477
 51
64.4070883523
  0
ARC
  5
2EB
330
1F
100
AcDbEntity
  8
0
  6
Continuous
 62
     7
370
    25
100
AcDbCircle
 10
848.172257847
 20
159.1536731314
 30
0.0
 40
121.9999912642761
100
AcDbArc
 50
295.6339596125
 51
64.3660403967
  0
LINE
  5
2EC
330
1F
100
AcDbEntity
  8
0
  6
Continuous
 62
     7
370
    25
100
AcDbLine
 10
736.6078459743
 20
190.5396101314
 30
0.0
 11
736.6078459743
 21
127.7677376528
 31
0.0
  0
LINE
  5
2ED
330
1F
100
AcDbEntity
  8
0
  6
Continuous
 62
     7
370
    25
100
AcDbLine
 10
736.6078459743
 20
127.7677376528
 30
0.0
 11
733.6078459743
 21
127.7677371314
 31
0.0
  0
LINE
  5
2EE
330
1F
100
AcDbEntity
  8
0
  6
Continuous
 62
     7
370
    25
100
AcDbLine
 10
733.6078459743
 20
127.7677371314
 30
0.0
 11
733.6078459743
 21
190.5396101314
 31
0.0
  0
LINE
  5
2EF
330
1F
100
AcDbEntity
  8
0
  6
Continuous
 62
     7
370
    25
100
AcDbLine
 10
736.6078459743
 20
190.5396101314
 30
0.0
 11
733.6078459743
 21
190.5396101314
 31
0.0
  0
ARC
  5
2F0
330
1F
100
AcDbEntity
  8
0
  6
Continuous
 62
     7
370
    25
100
AcDbCircle
 10
753.6078501876
 20
127.7677406069
 30
0.0
 40
17.00000421330677
100
AcDbArc
 50
180.0000099564
 51
262.0718461204
  0
ARC
  5
2F1
330
1F
100
AcDbEntity
  8
0
  6
Continuous
 62
     7
370
    25
100
AcDbCircle
 10
753.6078501876
 20
127.7677406069
 30
0.0
 40
20.00000421330681
100
AcDbArc
 50
180.0000099564
 51
262.0718497228
  0
ARC
  5
2F2
330
1F
100
AcDbEntity
  8
0
  6
Continuous
 62
     7
370
    25
100
AcDbCircle
 10
753.6078501876
 20
190.539606656
 30
0.0
 40
17.00000421330675
100
AcDbArc
 50
97.9281502772
 51
179.9999882865
  0
CIRCLE
  5
2F3
330
1F
100
AcDbEntity
  8
0
  6
Continuous
 62
     7
370
    25
100
AcDbCircle
 10
883.6078459743
 20
144.1536732789
 30
0.0
 40
4.699999999999989
  0
CIRCLE
  5
2F4
330
1F
100
AcDbEntity
  8
0
  6
Continuous
 62
     7
370
    25
100
AcDbCircle
 10
883.6078459743
 20
174.1536732789
 30
0.0
 40
4.69999999999996
  0
CIRCLE
  5
2F5
330
1F
100
AcDbEntity
  8
0
  6
Continuous
 62
     7
370
    25
100
AcDbCircle
 10
793.6078459743
 20
159.1536732789
 30
0.0
 40
4.69999999999996
  0
ARC
  5
2F6
330
1F
100
AcDbEntity
  8
0
  6
Continuous
 62
     7
370
    25
100
AcDbCircle
 10
753.6078501876
 20
190.539606656
 30
0.0
 40
20.0000042133067
100
AcDbArc
 50
97.9281502772
 51
179.9999900436
  0
ARC
  5
2F7
330
1F
100
AcDbEntity
  8
0
  6
Continuous
 62
     7
370
    25
100
AcDbCircle
 10
-480.8928457244
 20
105.1554689385
 30
0.0
 40
63.47444413198316
100
AcDbArc
 50
247.7246621443
 51
320.422626138
  0
LWPOLYLINE
  5
2F8
330
1F
100
AcDbEntity
  8
0
  6
Continuous
 62
     7
370
    25
100
AcDbPolyline
 90
        7
 70
   128
 43
0.0
 10
-504.9533340257
 20
46.4179344263
 10
-504.8847444896
 20
46.5724709276
 10
-504.6867440685
 20
47.0186230337
 10
-504.3816628726
 20
47.7061916044
 10
-504.0038203401
 20
48.5579730169
 10
-503.7543526925
 20
49.1204980585
 10
-503.7362259369
 20
49.1613766292
  0
ARC
  5
2F9
330
1F
100
AcDbEntity
  8
0
  6
Continuous
 62
     7
370
    25
100
AcDbCircle
 10
-480.8928457244
 20
105.1554689385
 30
0.0
 40
60.47444413198313
100
AcDbArc
 50
247.8064786741
 51
320.4360199895
  0
LWPOLYLINE
  5
2FA
330
1F
100
AcDbEntity
  8
0
  6
Continuous
 62
     7
370
    25
100
AcDbPolyline
 90
        7
 70
   128
 43
0.0
 10
-431.9689720257
 20
64.7146524263
 10
-432.0988000231
 20
64.8230209939
 10
-432.473651788
 20
65.1359010945
 10
-433.051282722
 20
65.6180013218
 10
-433.7665940004
 20
66.2149525399
 10
-434.1869346369
 20
66.5657100005
 10
-434.2722610964
 20
66.6369087108
  0
ARC
  5
2FB
330
1F
100
AcDbEntity
  8
0
  6
Continuous
 62
     7
370
    25
100
AcDbCircle
 10
-336.3921899927
 20
-15.8462649729
 30
0.0
 40
124.9999307039029
100
AcDbArc
 50
97.9281298636
 51
139.8727244278
  0
ARC
  5
2FC
330
1F
100
AcDbEntity
  8
0
  6
Continuous
 62
     7
370
    25
100
AcDbCircle
 10
-336.3921899927
 20
-15.8462649729
 30
0.0
 40
127.9999307039029
100
AcDbArc
 50
97.928130342
 51
139.8792848399
  0
LINE
  5
2FD
330
1F
100
AcDbEntity
  8
0
  6
Continuous
 62
     7
370
    25
100
AcDbLine
 10
-353.6335340257
 20
107.9588994263
 30
0.0
 11
-354.0473275705
 21
110.9302248717
 31
0.0
  0
ARC
  5
2FE
330
1F
100
AcDbEntity
  8
0
  6
Continuous
 62
     7
370
    25
100
AcDbCircle
 10
-480.8928464039
 20
213.1518774141
 30
0.0
 40
60.47444433711905
100
AcDbArc
 50
39.5639792539
 51
112.1935205693
  0
LWPOLYLINE
  5
2FF
330
1F
100
AcDbEntity
  8
0
  6
Continuous
 62
     7
370
    25
100
AcDbPolyline
 90
        7
 70
   128
 43
0.0
 10
-504.9533340257
 20
271.8894124263
 10
-504.8847444906
 20
271.7348759246
 10
-504.6867440725
 20
271.2887238173
 10
-504.381662881
 20
270.6011552447
 10
-504.003820354
 20
269.7493738296
 10
-503.7543527078
 20
269.1868487813
 10
-503.7362259544
 20
269.145970215
  0
ARC
  5
300
330
1F
100
AcDbEntity
  8
0
  6
Continuous
 62
     7
370
    25
100
AcDbCircle
 10
-480.8928464039
 20
213.1518774141
 30
0.0
 40
63.47444433711905
100
AcDbArc
 50
39.5773731234
 51
112.2753371171
  0
LWPOLYLINE
  5
301
330
1F
100
AcDbEntity
  8
0
  6
Continuous
 62
     7
370
    25
100
AcDbPolyline
 90
        7
 70
   128
 43
0.0
 10
-434.2722611091
 20
251.6704371569
 10
-434.1869347064
 20
251.7416358188
 10
-433.7665940102
 20
252.0923933245
 10
-433.0512827279
 20
252.6893445379
 10
-432.4736517907
 20
253.1714447614
 10
-432.0988000238
 20
253.4843248596
 10
-431.9689720257
 20
253.5926934263
  0
ARC
  5
302
330
1F
100
AcDbEntity
  8
0
  6
Continuous
 62
     7
370
    25
100
AcDbCircle
 10
-336.3921899927
 20
334.1536108255
 30
0.0
 40
127.9999307039032
100
AcDbArc
 50
220.1207151513
 51
262.0718701364
  0
ARC
  5
303
330
1F
100
AcDbEntity
  8
0
  6
Continuous
 62
     7
370
    25
100
AcDbCircle
 10
-336.3921899927
 20
334.1536108255
 30
0.0
 40
124.9999307039031
100
AcDbArc
 50
220.1272755722
 51
262.0718701364
  0
LINE
  5
304
330
1F
100
AcDbEntity
  8
0
  6
Continuous
 62
     7
370
    25
100
AcDbLine
 10
-354.0473265119
 20
207.3771208335
 30
0.0
 11
-353.6335340257
 21
210.3484464263
 31
0.0
  0
ARC
  5
305
330
1F
100
AcDbEntity
  8
0
  6
Continuous
 62
     7
370
    25
100
AcDbCircle
 10
-450.9565658984
 20
159.1536734263
 30
0.0
 40
124.9999912642761
100
AcDbArc
 50
115.5929116477
 51
244.4070883523
  0
ARC
  5
306
330
1F
100
AcDbEntity
  8
0
  6
Continuous
 62
     7
370
    25
100
AcDbCircle
 10
-450.9565658984
 20
159.1536734263
 30
0.0
 40
121.9999912642761
100
AcDbArc
 50
115.6339596125
 51
244.3660403967
  0
ARC
  5
307
330
1F
100
AcDbEntity
  8
0
  6
Continuous
 62
     7
370
    25
100
AcDbCircle
 10
-356.392158239
 20
127.7677399018
 30
0.0
 40
17.00000421330675
100
AcDbArc
 50
277.9281502772
 51
359.9999882865
  0
LINE
  5
308
330
1F
100
AcDbEntity
  8
0
  6
Continuous
 62
     7
370
    25
100
AcDbLine
 10
-339.3921540257
 20
127.7677364263
 30
0.0
 11
-336.3921540257
 21
127.7677364263
 31
0.0
  0
ARC
  5
309
330
1F
100
AcDbEntity
  8
0
  6
Continuous
 62
     7
370
    25
100
AcDbCircle
 10
-356.392158239
 20
127.7677399018
 30
0.0
 40
20.00000421330671
100
AcDbArc
 50
277.9281502772
 51
359.9999900436
  0
CIRCLE
  5
30A
330
1F
100
AcDbEntity
  8
0
  6
Continuous
 62
     7
370
    25
100
AcDbCircle
 10
-486.3921540257
 20
144.1536732789
 30
0.0
 40
4.699999999999989
  0
ARC
  5
30B
330
1F
100
AcDbEntity
  8
0
  6
Continuous
 62
     7
370
    25
100
AcDbCircle
 10
-356.392158239
 20
190.5396059509
 30
0.0
 40
17.00000421330677
100
AcDbArc
 50
0.0000099564
 51
82.0718461204
  0
LINE
  5
30C
330
1F
100
AcDbEntity
  8
0
  6
Continuous
 62
     7
370
    25
100
AcDbLine
 10
-339.3921540257
 20
127.7677364263
 30
0.0
 11
-339.3921540257
 21
190.539608905
 31
0.0
  0
CIRCLE
  5
30D
330
1F
100
AcDbEntity
  8
0
  6
Continuous
 62
     7
370
    25
100
AcDbCircle
 10
-486.3921540257
 20
174.1536732789
 30
0.0
 40
4.699999999999989
  0
CIRCLE
  5
30E
330
1F
100
AcDbEntity
  8
0
  6
Continuous
 62
     7
370
    25
100
AcDbCircle
 10
-396.3921540257
 20
159.1536732789
 30
0.0
 40
4.699999999999989
  0
ARC
  5
30F
330
1F
100
AcDbEntity
  8
0
  6
Continuous
 62
     7
370
    25
100
AcDbCircle
 10
-356.392158239
 20
190.5396059509
 30
0.0
 40
20.00000421330681
100
AcDbArc
 50
0.0000099564
 51
82.0718497228
  0
LINE
  5
310
330
1F
100
AcDbEntity
  8
0
  6
Continuous
 62
     7
370
    25
100
AcDbLine
 10
-339.3921540257
 20
190.539608905
 30
0.0
 11
-336.3921540257
 21
190.5396094263
 31
0.0
  0
LINE
  5
311
330
1F
100
AcDbEntity
  8
0
  6
Continuous
 62
     7
370
    25
100
AcDbLine
 10
-336.3921540257
 20
190.5396094263
 30
0.0
 11
-336.3921540257
 21
127.7677364263
 31
0.0
  0
LINE
  5
312
330
1F
100
AcDbEntity
  8
0
  6
Continuous
 62
     7
370
    25
100
AcDbLine
 10
-571.2842033951
 20
198.1536732789
 30
0.0
 11
-569.7168194665
 21
198.1536732789
 31
0.0
  0
LINE
  5
313
330
1F
100
AcDbEntity
  8
0
  6
Continuous
 62
     7
370
    25
100
AcDbLine
 10
-569.7168193697
 20
120.1536732789
 30
0.0
 11
-571.2842033951
 21
120.1536732789
 31
0.0
  0
LINE
  5
314
330
1F
100
AcDbEntity
  8
0
  6
Continuous
 62
     7
370
    25
100
AcDbLine
 10
968.4998953438
 20
120.1536732789
 30
0.0
 11
966.9325114152
 21
120.1536732789
 31
0.0
  0
LINE
  5
315
330
1F
100
AcDbEntity
  8
0
  6
Continuous
 62
     7
370
    25
100
AcDbLine
 10
966.9325113183
 20
198.1536732789
 30
0.0
 11
968.4998953438
 21
198.1536732789
 31
0.0
  0
LINE
  5
316
330
1F
100
AcDbEntity
  8
0
  6
Continuous
 62
     7
370
    25
100
AcDbLine
 10
-275.3687458014
 20
114.1536732789
 30
0.0
 11
-185.285412468
 21
114.1536732789
 31
0.0
  0
ARC
  5
317
330
1F
100
AcDbEntity
  8
0
  6
Continuous
 62
     7
370
    25
100
AcDbCircle
 10
-185.4160942862
 20
111.2734649455
 30
0.0
 40
2.883171479639239
100
AcDbArc
 50
357.6187565511
 51
87.4021376049
  0
LINE
  5
318
330
1F
100
AcDbEntity
  8
0
  6
Continuous
 62
     7
370
    25
100
AcDbLine
 10
-182.535412468
 20
102.1536732789
 30
0.0
 11
-182.535412468
 21
111.1536732789
 31
0.0
  0
LINE
  5
319
330
1F
100
AcDbEntity
  8
0
  6
Continuous
 62
     7
370
    25
100
AcDbLine
 10
-185.285412468
 20
99.1536732789
 30
0.0
 11
-275.3687458014
 21
99.1536732789
 31
0.0
  0
ARC
  5
31A
330
1F
100
AcDbEntity
  8
0
  6
Continuous
 62
     7
370
    25
100
AcDbCircle
 10
-185.4160942862
 20
102.0338816122
 30
0.0
 40
2.883171479639913
100
AcDbArc
 50
272.5978623951
 51
2.3812434489
  0
LINE
  5
31B
330
1F
100
AcDbEntity
  8
0
  6
Continuous
 62
     7
370
    25
100
AcDbLine
 10
-182.535412468
 20
102.1536732789
 30
0.0
 11
-6.6882566132
 21
102.1536732789
 31
0.0
  0
ARC
  5
31C
330
1F
100
AcDbEntity
  8
0
  6
Continuous
 62
     7
370
    25
100
AcDbCircle
 10
-9.5689384314
 20
102.0338816122
 30
0.0
 40
2.883171479639099
100
AcDbArc
 50
272.5978623951
 51
2.3812434489
  0
LINE
  5
31D
330
1F
100
AcDbEntity
  8
0
  6
Continuous
 62
     7
370
    25
100
AcDbLine
 10
-9.4382566132
 20
99.1536732789
 30
0.0
 11
-52.9799051797
 21
99.1536732789
 31
0.0
  0
LINE
  5
31E
330
1F
100
AcDbEntity
  8
0
  6
Continuous
 62
     7
370
    25
100
AcDbLine
 10
-61.6071735452
 20
99.1536732789
 30
0.0
 11
-185.285412468
 21
99.1536732789
 31
0.0
  0
ARC
  5
31F
330
1F
100
AcDbEntity
  8
0
  6
Continuous
 62
     7
370
    25
100
AcDbCircle
 10
-9.5689384314
 20
111.2734649455
 30
0.0
 40
2.883171479638872
100
AcDbArc
 50
357.6187565511
 51
87.4021376049
  0
LINE
  5
320
330
1F
100
AcDbEntity
  8
0
  6
Continuous
 62
     7
370
    25
100
AcDbLine
 10
-6.6882566132
 20
111.1536732789
 30
0.0
 11
-182.535412468
 21
111.1536732789
 31
0.0
  0
LINE
  5
321
330
1F
100
AcDbEntity
  8
0
  6
Continuous
 62
     7
370
    25
100
AcDbLine
 10
-185.285412468
 20
114.1536732789
 30
0.0
 11
-83.5046397101
 21
114.1536732789
 31
0.0
  0
LINE
  5
322
330
1F
100
AcDbEntity
  8
0
  6
Continuous
 62
     7
370
    25
100
AcDbLine
 10
-6.6882566132
 20
102.1536732789
 30
0.0
 11
-6.6882566132
 21
111.1536732789
 31
0.0
  0
LINE
  5
323
330
1F
100
AcDbEntity
  8
0
  6
Continuous
 62
     7
370
    25
100
AcDbLine
 10
-5.5215899466
 20
99.1536732789
 30
0.0
 11
-9.4382566132
 21
99.1536732789
 31
0.0
  0
LINE
  5
324
330
1F
100
AcDbEntity
  8
0
  6
Continuous
 62
     7
370
    25
100
AcDbLine
 10
582.5011044167
 20
219.1536732789
 30
0.0
 11
672.58443775
 21
219.1536732789
 31
0.0
  0
ARC
  5
325
330
1F
100
AcDbEntity
  8
0
  6
Continuous
 62
     7
370
    25
100
AcDbCircle
 10
582.6317862349
 20
216.2734649455
 30
0.0
 40
2.883171479639821
100
AcDbArc
 50
92.5978623951
 51
182.3812434489
  0
LINE
  5
326
330
1F
100
AcDbEntity
  8
0
  6
Continuous
 62
     7
370
    25
100
AcDbLine
 10
672.58443775
 20
204.1536732789
 30
0.0
 11
582.5011044167
 21
204.1536732789
 31
0.0
  0
ARC
  5
327
330
1F
100
AcDbEntity
  8
0
  6
Continuous
 62
     7
370
    25
100
AcDbCircle
 10
582.6317862349
 20
207.0338816122
 30
0.0
 40
2.883171479639297
100
AcDbArc
 50
177.6187565511
 51
267.4021376049
  0
LINE
  5
328
330
1F
100
AcDbEntity
  8
0
  6
Continuous
 62
     7
370
    25
100
AcDbLine
 10
579.7511044167
 20
216.1536732789
 30
0.0
 11
579.7511044167
 21
207.1536732789
 31
0.0
  0
ARC
  5
329
330
1F
100
AcDbEntity
  8
0
  6
Continuous
 62
     7
370
    25
100
AcDbCircle
 10
406.7846303801
 20
207.0338816122
 30
0.0
 40
2.883171479638964
100
AcDbArc
 50
177.6187565511
 51
267.4021376049
  0
LINE
  5
32A
330
1F
100
AcDbEntity
  8
0
  6
Continuous
 62
     7
370
    25
100
AcDbLine
 10
403.9039485619
 20
207.1536732789
 30
0.0
 11
579.7511044167
 21
207.1536732789
 31
0.0
  0
LINE
  5
32B
330
1F
100
AcDbEntity
  8
0
  6
Continuous
 62
     7
370
    25
100
AcDbLine
 10
582.5011044167
 20
204.1536732789
 30
0.0
 11
480.7203316587
 21
204.1536732789
 31
0.0
  0
LINE
  5
32C
330
1F
100
AcDbEntity
  8
0
  6
Continuous
 62
     7
370
    25
100
AcDbLine
 10
579.7511044167
 20
216.1536732789
 30
0.0
 11
403.9039485619
 21
216.1536732789
 31
0.0
  0
ARC
  5
32D
330
1F
100
AcDbEntity
  8
0
  6
Continuous
 62
     7
370
    25
100
AcDbCircle
 10
406.7846303801
 20
216.2734649455
 30
0.0
 40
2.883171479639075
100
AcDbArc
 50
92.5978623951
 51
182.3812434489
  0
LINE
  5
32E
330
1F
100
AcDbEntity
  8
0
  6
Continuous
 62
     7
370
    25
100
AcDbLine
 10
406.6539485619
 20
219.1536732789
 30
0.0
 11
450.1955971284
 21
219.1536732789
 31
0.0
  0
LINE
  5
32F
330
1F
100
AcDbEntity
  8
0
  6
Continuous
 62
     7
370
    25
100
AcDbLine
 10
458.8228654939
 20
219.1536732789
 30
0.0
 11
582.5011044167
 21
219.1536732789
 31
0.0
  0
LINE
  5
330
330
1F
100
AcDbEntity
  8
0
  6
Continuous
 62
     7
370
    25
100
AcDbLine
 10
403.9039485619
 20
216.1536732789
 30
0.0
 11
403.9039485619
 21
207.1536732789
 31
0.0
  0
LINE
  5
331
330
1F
100
AcDbEntity
  8
0
  6
Continuous
 62
     7
370
    25
100
AcDbLine
 10
402.7372818952
 20
219.1536732789
 30
0.0
 11
406.6539485619
 21
219.1536732789
 31
0.0
  0
LINE
  5
332
330
1F
100
AcDbEntity
  8
0
  6
Continuous
 62
     7
370
    25
100
AcDbLine
 10
-185.285412468
 20
204.1536732789
 30
0.0
 11
-275.3687458014
 21
204.1536732789
 31
0.0
  0
ARC
  5
333
330
1F
100
AcDbEntity
  8
0
  6
Continuous
 62
     7
370
    25
100
AcDbCircle
 10
-185.4160942862
 20
207.0338816122
 30
0.0
 40
2.883171479639893
100
AcDbArc
 50
272.5978623951
 51
2.3812434489
  0
LINE
  5
334
330
1F
100
AcDbEntity
  8
0
  6
Continuous
 62
     7
370
    25
100
AcDbLine
 10
-182.535412468
 20
207.1536732789
 30
0.0
 11
-182.535412468
 21
216.1536732789
 31
0.0
  0
LINE
  5
335
330
1F
100
AcDbEntity
  8
0
  6
Continuous
 62
     7
370
    25
100
AcDbLine
 10
-275.3687458014
 20
219.1536732789
 30
0.0
 11
-185.285412468
 21
219.1536732789
 31
0.0
  0
ARC
  5
336
330
1F
100
AcDbEntity
  8
0
  6
Continuous
 62
     7
370
    25
100
AcDbCircle
 10
-185.4160942862
 20
216.2734649455
 30
0.0
 40
2.883171479639297
100
AcDbArc
 50
357.6187565511
 51
87.4021376049
  0
ARC
  5
337
330
1F
100
AcDbEntity
  8
0
  6
Continuous
 62
     7
370
    25
100
AcDbCircle
 10
-9.5689384314
 20
216.2734649455
 30
0.0
 40
2.883171479638912
100
AcDbArc
 50
357.6187565511
 51
87.4021376049
  0
LINE
  5
338
330
1F
100
AcDbEntity
  8
0
  6
Continuous
 62
     7
370
    25
100
AcDbLine
 10
-6.6882566132
 20
216.1536732789
 30
0.0
 11
-182.535412468
 21
216.1536732789
 31
0.0
  0
LINE
  5
339
330
1F
100
AcDbEntity
  8
0
  6
Continuous
 62
     7
370
    25
100
AcDbLine
 10
-185.285412468
 20
219.1536732789
 30
0.0
 11
-61.6071735452
 21
219.1536732789
 31
0.0
  0
LINE
  5
33A
330
1F
100
AcDbEntity
  8
0
  6
Continuous
 62
     7
370
    25
100
AcDbLine
 10
-52.9799051797
 20
219.1536732789
 30
0.0
 11
-9.4382566132
 21
219.1536732789
 31
0.0
  0
LINE
  5
33B
330
1F
100
AcDbEntity
  8
0
  6
Continuous
 62
     7
370
    25
100
AcDbLine
 10
-182.535412468
 20
207.1536732789
 30
0.0
 11
-6.6882566132
 21
207.1536732789
 31
0.0
  0
ARC
  5
33C
330
1F
100
AcDbEntity
  8
0
  6
Continuous
 62
     7
370
    25
100
AcDbCircle
 10
-9.5689384314
 20
207.0338816122
 30
0.0
 40
2.883171479639132
100
AcDbArc
 50
272.5978623951
 51
2.3812434489
  0
LINE
  5
33D
330
1F
100
AcDbEntity
  8
0
  6
Continuous
 62
     7
370
    25
100
AcDbLine
 10
-83.5046397101
 20
204.1536732789
 30
0.0
 11
-185.285412468
 21
204.1536732789
 31
0.0
  0
LINE
  5
33E
330
1F
100
AcDbEntity
  8
0
  6
Continuous
 62
     7
370
    25
100
AcDbLine
 10
-6.6882566132
 20
207.1536732789
 30
0.0
 11
-6.6882566132
 21
216.1536732789
 31
0.0
  0
LINE
  5
33F
330
1F
100
AcDbEntity
  8
0
  6
Continuous
 62
     7
370
    25
100
AcDbLine
 10
-9.4382566132
 20
219.1536732789
 30
0.0
 11
-5.5215899466
 21
219.1536732789
 31
0.0
  0
LINE
  5
340
330
1F
100
AcDbEntity
  8
0
  6
Continuous
 62
     7
370
    25
100
AcDbLine
 10
-341.7409692319
 20
204.1536732789
 30
0.0
 11
-275.3687458014
 21
204.1536732789
 31
0.0
  0
LINE
  5
341
330
1F
100
AcDbEntity
  8
0
  6
Continuous
 62
     7
370
    25
100
AcDbLine
 10
-83.5046397101
 20
204.1536732789
 30
0.0
 11
480.7203316587
 21
204.1536732789
 31
0.0
  0
LINE
  5
342
330
1F
100
AcDbEntity
  8
0
  6
Continuous
 62
     7
370
    25
100
AcDbLine
 10
672.58443775
 20
204.1536732789
 30
0.0
 11
738.9566605254
 21
204.1536732789
 31
0.0
  0
LINE
  5
343
330
1F
100
AcDbEntity
  8
0
  6
Continuous
 62
     7
370
    25
100
AcDbLine
 10
738.9566611806
 20
114.1536732789
 30
0.0
 11
670.3541472591
 21
114.1536732789
 31
0.0
  0
LINE
  5
344
330
1F
100
AcDbEntity
  8
0
  6
Continuous
 62
     7
370
    25
100
AcDbLine
 10
484.7730589314
 20
114.1536732789
 30
0.0
 11
-83.5046397101
 21
114.1536732789
 31
0.0
  0
LINE
  5
345
330
1F
100
AcDbEntity
  8
0
  6
Continuous
 62
     7
370
    25
100
AcDbLine
 10
-275.3687458014
 20
114.1536732789
 30
0.0
 11
-341.7409685767
 21
114.1536732789
 31
0.0
  0
LINE
  5
346
330
1F
100
AcDbEntity
  8
0
  6
Continuous
 62
     7
370
    25
100
AcDbLine
 10
338.6078459743
 20
110.6536732789
 30
0.0
 11
335.6078459743
 21
110.6536732789
 31
0.0
  0
LINE
  5
347
330
1F
100
AcDbEntity
  8
0
  6
Continuous
 62
     7
370
    25
100
AcDbLine
 10
335.6078459743
 20
113.6536732789
 30
0.0
 11
335.6078459743
 21
110.6536732789
 31
0.0
  0
LINE
  5
348
330
1F
100
AcDbEntity
  8
0
  6
Continuous
 62
     7
370
    25
100
AcDbLine
 10
338.6078459743
 20
113.6536732789
 30
0.0
 11
338.6078459743
 21
110.6536732789
 31
0.0
  0
LINE
  5
349
330
1F
100
AcDbEntity
  8
0
  6
Continuous
 62
     7
370
    25
100
AcDbLine
 10
338.6078459743
 20
113.6536732789
 30
0.0
 11
335.6078459743
 21
113.6536732789
 31
0.0
  0
LINE
  5
34A
330
1F
100
AcDbEntity
  8
0
  6
Continuous
 62
     7
370
    25
100
AcDbLine
 10
61.6078459743
 20
113.6536732789
 30
0.0
 11
61.6078459743
 21
110.6536732789
 31
0.0
  0
LINE
  5
34B
330
1F
100
AcDbEntity
  8
0
  6
Continuous
 62
     7
370
    25
100
AcDbLine
 10
61.6078459743
 20
110.6536732789
 30
0.0
 11
335.6078459743
 21
110.6536732789
 31
0.0
  0
LINE
  5
34C
330
1F
100
AcDbEntity
  8
0
  6
Continuous
 62
     7
370
    25
100
AcDbLine
 10
61.6078459743
 20
113.6536732789
 30
0.0
 11
335.6078459743
 21
113.6536732789
 31
0.0
  0
LINE
  5
34D
330
1F
100
AcDbEntity
  8
0
  6
Continuous
 62
     7
370
    25
100
AcDbLine
 10
338.6078459743
 20
204.6536732789
 30
0.0
 11
338.6078459743
 21
207.6536732789
 31
0.0
  0
LINE
  5
34E
330
1F
100
AcDbEntity
  8
0
  6
Continuous
 62
     7
370
    25
100
AcDbLine
 10
335.6078459743
 20
204.6536732789
 30
0.0
 11
335.6078459743
 21
207.6536732789
 31
0.0
  0
LINE
  5
34F
330
1F
100
AcDbEntity
  8
0
  6
Continuous
 62
     7
370
    25
100
AcDbLine
 10
335.6078459743
 20
204.6536732789
 30
0.0
 11
338.6078459743
 21
204.6536732789
 31
0.0
  0
LINE
  5
350
330
1F
100
AcDbEntity
  8
0
  6
Continuous
 62
     7
370
    25
100
AcDbLine
 10
335.6078459743
 20
207.6536732789
 30
0.0
 11
338.6078459743
 21
207.6536732789
 31
0.0
  0
LINE
  5
351
330
1F
100
AcDbEntity
  8
0
  6
Continuous
 62
     7
370
    25
100
AcDbLine
 10
61.6078459743
 20
204.6536732789
 30
0.0
 11
61.6078459743
 21
207.6536732789
 31
0.0
  0
LINE
  5
352
330
1F
100
AcDbEntity
  8
0
  6
Continuous
 62
     7
370
    25
100
AcDbLine
 10
61.6078459743
 20
204.6536732789
 30
0.0
 11
335.6078459743
 21
204.6536732789
 31
0.0
  0
LINE
  5
353
330
1F
100
AcDbEntity
  8
0
  6
Continuous
 62
     7
370
    25
100
AcDbLine
 10
61.6078459743
 20
207.6536732789
 30
0.0
 11
335.6078459743
 21
207.6536732789
 31
0.0
  0
LINE
  5
354
330
1F
100
AcDbEntity
  8
0
  6
Continuous
 62
     7
370
    25
100
AcDbLine
 10
58.6078459743
 20
113.6536732789
 30
0.0
 11
58.6078459743
 21
110.6536732789
 31
0.0
  0
LINE
  5
355
330
1F
100
AcDbEntity
  8
0
  6
Continuous
 62
     7
370
    25
100
AcDbLine
 10
61.6078459743
 20
110.6536732789
 30
0.0
 11
58.6078459743
 21
110.6536732789
 31
0.0
  0
LINE
  5
356
330
1F
100
AcDbEntity
  8
0
  6
Continuous
 62
     7
370
    25
100
AcDbLine
 10
61.6078459743
 20
113.6536732789
 30
0.0
 11
58.6078459743
 21
113.6536732789
 31
0.0
  0
LINE
  5
357
330
1F
100
AcDbEntity
  8
0
  6
Continuous
 62
     7
370
    25
100
AcDbLine
 10
58.6078459743
 20
204.6536732789
 30
0.0
 11
58.6078459743
 21
207.6536732789
 31
0.0
  0
LINE
  5
358
330
1F
100
AcDbEntity
  8
0
  6
Continuous
 62
     7
370
    25
100
AcDbLine
 10
58.6078459743
 20
204.6536732789
 30
0.0
 11
61.6078459743
 21
204.6536732789
 31
0.0
  0
LINE
  5
359
330
1F
100
AcDbEntity
  8
0
  6
Continuous
 62
     7
370
    25
100
AcDbLine
 10
58.6078459743
 20
207.6536732789
 30
0.0
 11
61.6078459743
 21
207.6536732789
 31
0.0
  0
LINE
  5
35A
330
1F
100
AcDbEntity
  8
0
  6
Continuous
 62
     7
370
    25
100
AcDbLine
 10
58.6078459743
 20
114.1536732789
 30
0.0
 11
58.6078459743
 21
113.6536732789
 31
0.0
  0
LINE
  5
35B
330
1F
100
AcDbEntity
  8
0
  6
Continuous
 62
     7
370
    25
100
AcDbLine
 10
338.6078459743
 20
114.1536732789
 30
0.0
 11
338.6078459743
 21
113.6536732789
 31
0.0
  0
LINE
  5
35C
330
1F
100
AcDbEntity
  8
0
  6
Continuous
 62
     7
370
    25
100
AcDbLine
 10
58.6078459743
 20
204.6536732789
 30
0.0
 11
58.6078459743
 21
204.1536732789
 31
0.0
  0
LINE
  5
35D
330
1F
100
AcDbEntity
  8
0
  6
Continuous
 62
     7
370
    25
100
AcDbLine
 10
338.6078459743
 20
204.6536732789
 30
0.0
 11
338.6078459743
 21
204.1536732789
 31
0.0
  0
LINE
  5
35E
330
1F
100
AcDbEntity
  8
0
  6
Continuous
 62
     7
370
    25
100
AcDbLine
 10
-53.0109406124
 20
99.1536732789
 30
0.0
 11
-52.9799051797
 21
99.1536732789
 31
0.0
  0
LINE
  5
35F
330
1F
100
AcDbEntity
  8
0
  6
Continuous
 62
     7
370
    25
100
AcDbLine
 10
-61.6071735452
 20
99.1536732789
 30
0.0
 11
-53.0109406124
 21
99.1536732789
 31
0.0
  0
LINE
  5
360
330
1F
100
AcDbEntity
  8
0
  6
Continuous
 62
     7
370
    25
100
AcDbLine
 10
450.2266325611
 20
219.1536732789
 30
0.0
 11
450.1955971284
 21
219.1536732789
 31
0.0
  0
LINE
  5
361
330
1F
100
AcDbEntity
  8
0
  6
Continuous
 62
     7
370
    25
100
AcDbLine
 10
458.8228654939
 20
219.1536732789
 30
0.0
 11
450.2266325611
 21
219.1536732789
 31
0.0
  0
LINE
  5
362
330
1F
100
AcDbEntity
  8
0
  6
Continuous
 62
     7
370
    25
100
AcDbLine
 10
-52.9799051797
 20
219.1536732789
 30
0.0
 11
-61.6071735452
 21
219.1536732789
 31
0.0
  0
LINE
  5
363
330
1F
100
AcDbEntity
  8
0
  6
Continuous
 62
     7
370
    25
100
AcDbLine
 10
450.1955971284
 20
99.1536732789
 30
0.0
 11
463.9925711075
 21
99.1536732789
 31
0.0
  0
ARC
  5
364
330
1F
100
AcDbEntity
  8
0
  6
Continuous
 62
     7
370
    25
100
AcDbCircle
 10
198.4103030313
 20
158.3536129372
 30
0.0
 40
80.88741500318378
100
AcDbArc
 50
37.5526266349
 51
142.4473733651
  0
LWPOLYLINE
  5
365
330
1F
100
AcDbEntity
  8
0
  6
Continuous
 62
     7
370
    25
100
AcDbPolyline
 90
       34
 70
   128
 43
0.0
 10
130.8263995947
 20
110.6536732789
 10
131.2366985675
 20
109.9713467638
 10
135.4798029595
 20
104.0584251175
 10
140.1837964118
 20
98.5047559421
 10
145.3863407399
 20
93.2716428211
 10
150.9773089845
 20
88.4546564192
 10
157.0385332919
 20
83.9684036384
 10
163.3760811548
 20
79.8778112793
 10
168.467411015
 20
76.8740157448
 10
170.1872802282
 20
75.8939127455
 10
171.8743169844
 20
74.8604812859
 10
173.4278415215
 20
73.6545831153
 10
173.9205679647
 20
73.0986515563
 10
174.0480751348
 20
72.8244405079
 10
174.0688676792
 20
72.6581439179
 10
174.0310694437
 20
72.4934309816
 10
173.9503595843
 20
72.3692103645
 10
173.7648294535
 20
72.2187090675
 10
173.213388372
 20
72.0118433519
 10
172.1851608585
 20
71.8799597302
 10
171.1273687681
 20
71.8725358926
 10
169.0640313207
 20
72.0357263909
 10
167.0166616684
 20
72.3508806399
 10
162.9198250966
 20
73.2797094399
 10
157.217731189
 20
75.1071971011
 10
151.6920580923
 20
77.4193989724
 10
146.2182449463
 20
80.2273235888
 10
140.9694171662
 20
83.4371228741
 10
135.8963174911
 20
87.073147059
 10
131.0962830401
 20
91.0631394308
 10
126.4976803811
 20
95.4718871001
 10
122.2196443149
 20
100.1925221541
 10
117.6898959155
 20
106.0151879073
 10
114.6431336836
 20
110.6536732789
  0
ARC
  5
366
330
1F
100
AcDbEntity
  8
0
  6
Continuous
 62
     7
370
    25
100
AcDbCircle
 10
198.849912865
 20
160.1955240219
 30
0.0
 40
98.91175236886143
100
AcDbArc
 50
37.2516004906
 51
151.3274677105
  0
ARC
  5
367
330
1F
100
AcDbEntity
  8
0
  6
Continuous
 62
     7
370
    25
100
AcDbCircle
 10
117.500629499
 20
371.8916371912
 30
0.0
 40
220.6272845342567
100
AcDbArc
 50
311.8912387227
 51
316.5166726171
  0
LINE
  5
368
330
1F
100
AcDbEntity
  8
0
  6
Continuous
 62
     7
370
    25
100
AcDbLine
 10
277.5821933765
 20
220.0684123951
 30
0.0
 11
264.6649736164
 21
207.6536732789
 31
0.0
  0
LINE
  5
369
330
1F
100
AcDbEntity
  8
0
  6
Continuous
 62
     8
370
    25
100
AcDbLine
 10
-216.3617983402
 20
116.1536732789
 30
0.0
 11
-256.3617983402
 21
116.1536732789
 31
0.0
  0
LINE
  5
36A
330
1F
100
AcDbEntity
  8
0
  6
Continuous
 62
     8
370
    25
100
AcDbLine
 10
647.6224716214
 20
116.1536732789
 30
0.0
 11
613.5774902889
 21
116.1536732789
 31
0.0
  0
LINE
  5
36B
330
1F
100
AcDbEntity
  8
0
  6
Continuous
 62
     8
370
    25
100
AcDbLine
 10
653.5774902889
 20
116.1536732789
 30
0.0
 11
647.6224716214
 21
116.1536732789
 31
0.0
  0
LINE
  5
36C
330
1F
100
AcDbEntity
  8
0
  6
Continuous
 62
     8
370
    25
100
AcDbLine
 10
613.5774902889
 20
202.1536732789
 30
0.0
 11
653.5774902889
 21
202.1536732789
 31
0.0
  0
LINE
  5
36D
330
1F
100
AcDbEntity
  8
0
  6
Continuous
 62
     8
370
    25
100
AcDbLine
 10
-250.4067796728
 20
202.1536732789
 30
0.0
 11
-216.3617983402
 21
202.1536732789
 31
0.0
  0
LINE
  5
36E
330
1F
100
AcDbEntity
  8
0
  6
Continuous
 62
     8
370
    25
100
AcDbLine
 10
-256.3617983402
 20
202.1536732789
 30
0.0
 11
-250.4067796728
 21
202.1536732789
 31
0.0
  0
LINE
  5
36F
330
1F
100
AcDbEntity
  8
0
  6
Continuous
 62
     8
370
    25
100
AcDbLine
 10
-53.0050817691
 20
96.1536732789
 30
0.0
 11
-20.5285374077
 21
96.1536732789
 31
0.0
  0
LINE
  5
370
330
1F
100
AcDbEntity
  8
0
  6
Continuous
 62
     8
370
    25
100
AcDbLine
 10
-27.5285374077
 20
90.1536732789
 30
0.0
 11
-54.2535942938
 21
90.1536732789
 31
0.0
  0
LINE
  5
371
330
1F
100
AcDbEntity
  8
0
  6
Continuous
 62
     8
370
    25
100
AcDbLine
 10
-61.5285374077
 20
10.1536732789
 30
0.0
 11
-27.5285374077
 21
10.1536732789
 31
0.0
  0
LINE
  5
372
330
1F
100
AcDbEntity
  8
0
  6
Continuous
 62
     8
370
    25
100
AcDbLine
 10
657.5774902889
 20
222.1536732789
 30
0.0
 11
609.5774902889
 21
222.1536732789
 31
0.0
  0
LINE
  5
373
330
1F
100
AcDbEntity
  8
0
  6
Continuous
 62
     8
370
    25
100
AcDbLine
 10
616.5774902889
 20
228.1536732789
 30
0.0
 11
650.5774902889
 21
228.1536732789
 31
0.0
  0
LINE
  5
374
330
1F
100
AcDbEntity
  8
0
  6
Continuous
 62
     8
370
    25
100
AcDbLine
 10
650.5774902889
 20
308.1536732789
 30
0.0
 11
616.5774902889
 21
308.1536732789
 31
0.0
  0
LINE
  5
375
330
1F
100
AcDbEntity
  8
0
  6
Continuous
 62
     8
370
    25
100
AcDbLine
 10
-20.5285374077
 20
222.1536732789
 30
0.0
 11
-53.0050817691
 21
222.1536732789
 31
0.0
  0
LINE
  5
376
330
1F
100
AcDbEntity
  8
0
  6
Continuous
 62
     8
370
    25
100
AcDbLine
 10
-54.2535942938
 20
228.1536732789
 30
0.0
 11
-27.5285374077
 21
228.1536732789
 31
0.0
  0
LINE
  5
377
330
1F
100
AcDbEntity
  8
0
  6
Continuous
 62
     8
370
    25
100
AcDbLine
 10
-27.5285374077
 20
308.1536732789
 30
0.0
 11
-61.5285374077
 21
308.1536732789
 31
0.0
  0
LINE
  5
378
330
1F
100
AcDbEntity
  8
0
  6
Continuous
 62
     8
370
    25
100
AcDbLine
 10
-260.3617983402
 20
96.1536732789
 30
0.0
 11
-212.3617983402
 21
96.1536732789
 31
0.0
  0
LINE
  5
379
330
1F
100
AcDbEntity
  8
0
  6
Continuous
 62
     8
370
    25
100
AcDbLine
 10
-219.3617983402
 20
90.1536732789
 30
0.0
 11
-253.3617983402
 21
90.1536732789
 31
0.0
  0
LINE
  5
37A
330
1F
100
AcDbEntity
  8
0
  6
Continuous
 62
     8
370
    25
100
AcDbLine
 10
-253.3617983402
 20
10.1536732789
 30
0.0
 11
-219.3617983402
 21
10.1536732789
 31
0.0
  0
LINE
  5
37B
330
1F
100
AcDbEntity
  8
0
  6
Continuous
 62
     8
370
    25
100
AcDbLine
 10
-212.3617983402
 20
222.1536732789
 30
0.0
 11
-260.3617983402
 21
222.1536732789
 31
0.0
  0
LINE
  5
37C
330
1F
100
AcDbEntity
  8
0
  6
Continuous
 62
     8
370
    25
100
AcDbLine
 10
-253.3617983402
 20
228.1536732789
 30
0.0
 11
-219.3617983402
 21
228.1536732789
 31
0.0
  0
LINE
  5
37D
330
1F
100
AcDbEntity
  8
0
  6
Continuous
 62
     8
370
    25
100
AcDbLine
 10
-219.3617983402
 20
308.1536732789
 30
0.0
 11
-253.3617983402
 21
308.1536732789
 31
0.0
  0
LINE
  5
37E
330
1F
100
AcDbEntity
  8
0
  6
Continuous
 62
     8
370
    25
100
AcDbLine
 10
450.2207737177
 20
222.1536732789
 30
0.0
 11
417.7442293564
 21
222.1536732789
 31
0.0
  0
LINE
  5
37F
330
1F
100
AcDbEntity
  8
0
  6
Continuous
 62
     8
370
    25
100
AcDbLine
 10
424.7442293564
 20
228.1536732789
 30
0.0
 11
451.4692862425
 21
228.1536732789
 31
0.0
  0
LINE
  5
380
330
1F
100
AcDbEntity
  8
0
  6
Continuous
 62
     8
370
    25
100
AcDbLine
 10
458.7442293564
 20
308.1536732789
 30
0.0
 11
424.7442293564
 21
308.1536732789
 31
0.0
  0
LINE
  5
381
330
1F
100
AcDbEntity
  8
0
  6
Continuous
 62
     8
370
    25
100
AcDbLine
 10
609.5774902889
 20
96.1536732789
 30
0.0
 11
657.5774902889
 21
96.1536732789
 31
0.0
  0
LINE
  5
382
330
1F
100
AcDbEntity
  8
0
  6
Continuous
 62
     8
370
    25
100
AcDbLine
 10
650.5774902889
 20
90.1536732789
 30
0.0
 11
616.5774902889
 21
90.1536732789
 31
0.0
  0
LINE
  5
383
330
1F
100
AcDbEntity
  8
0
  6
Continuous
 62
     8
370
    25
100
AcDbLine
 10
616.5774902889
 20
10.1536732789
 30
0.0
 11
650.5774902889
 21
10.1536732789
 31
0.0
  0
LINE
  5
384
330
1F
100
AcDbEntity
  8
0
  6
Continuous
 62
     8
370
    25
100
AcDbLine
 10
417.7442293564
 20
96.1536732789
 30
0.0
 11
450.2207737177
 21
96.1536732789
 31
0.0
  0
LINE
  5
385
330
1F
100
AcDbEntity
  8
0
  6
Continuous
 62
     8
370
    25
100
AcDbLine
 10
451.4692862425
 20
90.1536732789
 30
0.0
 11
424.7442293564
 21
90.1536732789
 31
0.0
  0
LINE
  5
386
330
1F
100
AcDbEntity
  8
0
  6
Continuous
 62
     8
370
    25
100
AcDbLine
 10
424.7442293564
 20
10.1536732789
 30
0.0
 11
458.7442293564
 21
10.1536732789
 31
0.0
  0
LINE
  5
387
330
1F
100
AcDbEntity
  8
0
  6
Continuous
 62
     8
370
    25
100
AcDbLine
 10
466.4916386751
 20
321.8695087624
 30
0.0
 11
416.9968200377
 21
321.8695087624
 31
0.0
  0
LINE
  5
388
330
1F
100
AcDbEntity
  8
0
  6
Continuous
 62
     8
370
    25
100
AcDbLine
 10
416.7442293564
 20
322.5338726012
 30
0.0
 11
466.7442293564
 21
322.5338726012
 31
0.0
  0
LINE
  5
389
330
1F
100
AcDbEntity
  8
0
  6
Continuous
 62
     8
370
    25
100
AcDbLine
 10
466.7442293564
 20
325.3139721028
 30
0.0
 11
416.7442293564
 21
325.3139721028
 31
0.0
  0
LINE
  5
38A
330
1F
100
AcDbEntity
  8
0
  6
Continuous
 62
     8
370
    25
100
AcDbLine
 10
417.578095901
 20
326.3000753809
 30
0.0
 11
465.9103628117
 21
326.3000753809
 31
0.0
  0
LINE
  5
38B
330
1F
100
AcDbEntity
  8
0
  6
Continuous
 62
     8
370
    25
100
AcDbLine
 10
424.4916386751
 20
313.4378377954
 30
0.0
 11
458.9968200377
 21
313.4378377954
 31
0.0
  0
LINE
  5
38C
330
1F
100
AcDbEntity
  8
0
  6
Continuous
 62
     8
370
    25
100
AcDbLine
 10
458.7442293564
 20
312.7734739565
 30
0.0
 11
424.7442293564
 21
312.7734739565
 31
0.0
  0
LINE
  5
38D
330
1F
100
AcDbEntity
  8
0
  6
Continuous
 62
     8
370
    25
100
AcDbLine
 10
424.7442293564
 20
310.1536732789
 30
0.0
 11
458.7442293564
 21
310.1536732789
 31
0.0
  0
LINE
  5
38E
330
1F
100
AcDbEntity
  8
0
  6
Continuous
 62
     8
370
    25
100
AcDbLine
 10
-261.3617983402
 20
-7.0066255451
 30
0.0
 11
-211.3617983402
 21
-7.0066255451
 31
0.0
  0
LINE
  5
38F
330
1F
100
AcDbEntity
  8
0
  6
Continuous
 62
     8
370
    25
100
AcDbLine
 10
-212.1956648849
 20
-7.9927288231
 30
0.0
 11
-260.5279317956
 21
-7.9927288231
 31
0.0
  0
LINE
  5
390
330
1F
100
AcDbEntity
  8
0
  6
Continuous
 62
     8
370
    25
100
AcDbLine
 10
-211.3617983402
 20
-4.2265260435
 30
0.0
 11
-261.3617983402
 21
-4.2265260435
 31
0.0
  0
LINE
  5
391
330
1F
100
AcDbEntity
  8
0
  6
Continuous
 62
     8
370
    25
100
AcDbLine
 10
-261.1092076589
 20
-3.5621622046
 30
0.0
 11
-211.6143890215
 21
-3.5621622046
 31
0.0
  0
LINE
  5
392
330
1F
100
AcDbEntity
  8
0
  6
Continuous
 62
     8
370
    25
100
AcDbLine
 10
-219.1092076589
 20
4.8695087624
 30
0.0
 11
-253.6143890215
 21
4.8695087624
 31
0.0
  0
LINE
  5
393
330
1F
100
AcDbEntity
  8
0
  6
Continuous
 62
     8
370
    25
100
AcDbLine
 10
-253.3617983402
 20
5.5338726012
 30
0.0
 11
-219.3617983402
 21
5.5338726012
 31
0.0
  0
LINE
  5
394
330
1F
100
AcDbEntity
  8
0
  6
Continuous
 62
     8
370
    25
100
AcDbLine
 10
-219.3617983402
 20
8.1536732789
 30
0.0
 11
-253.3617983402
 21
8.1536732789
 31
0.0
  0
LINE
  5
395
330
1F
100
AcDbEntity
  8
0
  6
Continuous
 62
     8
370
    25
100
AcDbLine
 10
-19.781128089
 20
321.8695087624
 30
0.0
 11
-69.2759467264
 21
321.8695087624
 31
0.0
  0
LINE
  5
396
330
1F
100
AcDbEntity
  8
0
  6
Continuous
 62
     8
370
    25
100
AcDbLine
 10
-69.5285374077
 20
322.5338726012
 30
0.0
 11
-19.5285374077
 21
322.5338726012
 31
0.0
  0
LINE
  5
397
330
1F
100
AcDbEntity
  8
0
  6
Continuous
 62
     8
370
    25
100
AcDbLine
 10
-19.5285374077
 20
325.3139721028
 30
0.0
 11
-69.5285374077
 21
325.3139721028
 31
0.0
  0
LINE
  5
398
330
1F
100
AcDbEntity
  8
0
  6
Continuous
 62
     8
370
    25
100
AcDbLine
 10
-68.6946708631
 20
326.3000753809
 30
0.0
 11
-20.3624039523
 21
326.3000753809
 31
0.0
  0
LINE
  5
399
330
1F
100
AcDbEntity
  8
0
  6
Continuous
 62
     8
370
    25
100
AcDbLine
 10
-61.781128089
 20
313.4378377954
 30
0.0
 11
-27.2759467264
 21
313.4378377954
 31
0.0
  0
LINE
  5
39A
330
1F
100
AcDbEntity
  8
0
  6
Continuous
 62
     8
370
    25
100
AcDbLine
 10
-27.5285374077
 20
312.7734739565
 30
0.0
 11
-61.5285374077
 21
312.7734739565
 31
0.0
  0
LINE
  5
39B
330
1F
100
AcDbEntity
  8
0
  6
Continuous
 62
     8
370
    25
100
AcDbLine
 10
-61.5285374077
 20
310.1536732789
 30
0.0
 11
-27.5285374077
 21
310.1536732789
 31
0.0
  0
LINE
  5
39C
330
1F
100
AcDbEntity
  8
0
  6
Continuous
 62
     8
370
    25
100
AcDbLine
 10
658.5774902889
 20
325.3139721028
 30
0.0
 11
608.5774902889
 21
325.3139721028
 31
0.0
  0
LINE
  5
39D
330
1F
100
AcDbEntity
  8
0
  6
Continuous
 62
     8
370
    25
100
AcDbLine
 10
609.4113568335
 20
326.3000753809
 30
0.0
 11
657.7436237443
 21
326.3000753809
 31
0.0
  0
LINE
  5
39E
330
1F
100
AcDbEntity
  8
0
  6
Continuous
 62
     8
370
    25
100
AcDbLine
 10
608.5774902889
 20
322.5338726012
 30
0.0
 11
658.5774902889
 21
322.5338726012
 31
0.0
  0
LINE
  5
39F
330
1F
100
AcDbEntity
  8
0
  6
Continuous
 62
     8
370
    25
100
AcDbLine
 10
658.3248996076
 20
321.8695087624
 30
0.0
 11
608.8300809702
 21
321.8695087624
 31
0.0
  0
LINE
  5
3A0
330
1F
100
AcDbEntity
  8
0
  6
Continuous
 62
     8
370
    25
100
AcDbLine
 10
616.3248996076
 20
313.4378377954
 30
0.0
 11
650.8300809702
 21
313.4378377954
 31
0.0
  0
LINE
  5
3A1
330
1F
100
AcDbEntity
  8
0
  6
Continuous
 62
     8
370
    25
100
AcDbLine
 10
650.5774902889
 20
312.7734739565
 30
0.0
 11
616.5774902889
 21
312.7734739565
 31
0.0
  0
LINE
  5
3A2
330
1F
100
AcDbEntity
  8
0
  6
Continuous
 62
     8
370
    25
100
AcDbLine
 10
616.5774902889
 20
310.1536732789
 30
0.0
 11
650.5774902889
 21
310.1536732789
 31
0.0
  0
LINE
  5
3A3
330
1F
100
AcDbEntity
  8
0
  6
Continuous
 62
     8
370
    25
100
AcDbLine
 10
608.5774902889
 20
-7.0066255451
 30
0.0
 11
658.5774902889
 21
-7.0066255451
 31
0.0
  0
LINE
  5
3A4
330
1F
100
AcDbEntity
  8
0
  6
Continuous
 62
     8
370
    25
100
AcDbLine
 10
657.7436237443
 20
-7.9927288231
 30
0.0
 11
609.4113568335
 21
-7.9927288231
 31
0.0
  0
LINE
  5
3A5
330
1F
100
AcDbEntity
  8
0
  6
Continuous
 62
     8
370
    25
100
AcDbLine
 10
658.5774902889
 20
-4.2265260435
 30
0.0
 11
608.5774902889
 21
-4.2265260435
 31
0.0
  0
LINE
  5
3A6
330
1F
100
AcDbEntity
  8
0
  6
Continuous
 62
     8
370
    25
100
AcDbLine
 10
608.8300809702
 20
-3.5621622046
 30
0.0
 11
658.3248996076
 21
-3.5621622046
 31
0.0
  0
LINE
  5
3A7
330
1F
100
AcDbEntity
  8
0
  6
Continuous
 62
     8
370
    25
100
AcDbLine
 10
650.8300809702
 20
4.8695087624
 30
0.0
 11
616.3248996076
 21
4.8695087624
 31
0.0
  0
LINE
  5
3A8
330
1F
100
AcDbEntity
  8
0
  6
Continuous
 62
     8
370
    25
100
AcDbLine
 10
616.5774902889
 20
5.5338726012
 30
0.0
 11
650.5774902889
 21
5.5338726012
 31
0.0
  0
LINE
  5
3A9
330
1F
100
AcDbEntity
  8
0
  6
Continuous
 62
     8
370
    25
100
AcDbLine
 10
650.5774902889
 20
8.1536732789
 30
0.0
 11
616.5774902889
 21
8.1536732789
 31
0.0
  0
LINE
  5
3AA
330
1F
100
AcDbEntity
  8
0
  6
Continuous
 62
     8
370
    25
100
AcDbLine
 10
-69.5285374077
 20
-7.0066255451
 30
0.0
 11
-19.5285374077
 21
-7.0066255451
 31
0.0
  0
LINE
  5
3AB
330
1F
100
AcDbEntity
  8
0
  6
Continuous
 62
     8
370
    25
100
AcDbLine
 10
-20.3624039523
 20
-7.9927288231
 30
0.0
 11
-68.6946708631
 21
-7.9927288231
 31
0.0
  0
LINE
  5
3AC
330
1F
100
AcDbEntity
  8
0
  6
Continuous
 62
     8
370
    25
100
AcDbLine
 10
-69.2759467264
 20
-3.5621622046
 30
0.0
 11
-19.781128089
 21
-3.5621622046
 31
0.0
  0
LINE
  5
3AD
330
1F
100
AcDbEntity
  8
0
  6
Continuous
 62
     8
370
    25
100
AcDbLine
 10
-19.5285374077
 20
-4.2265260435
 30
0.0
 11
-69.5285374077
 21
-4.2265260435
 31
0.0
  0
LINE
  5
3AE
330
1F
100
AcDbEntity
  8
0
  6
Continuous
 62
     8
370
    25
100
AcDbLine
 10
-27.2759467264
 20
4.8695087624
 30
0.0
 11
-61.781128089
 21
4.8695087624
 31
0.0
  0
LINE
  5
3AF
330
1F
100
AcDbEntity
  8
0
  6
Continuous
 62
     8
370
    25
100
AcDbLine
 10
-61.5285374077
 20
5.5338726012
 30
0.0
 11
-27.5285374077
 21
5.5338726012
 31
0.0
  0
LINE
  5
3B0
330
1F
100
AcDbEntity
  8
0
  6
Continuous
 62
     8
370
    25
100
AcDbLine
 10
-27.5285374077
 20
8.1536732789
 30
0.0
 11
-61.5285374077
 21
8.1536732789
 31
0.0
  0
LINE
  5
3B1
330
1F
100
AcDbEntity
  8
0
  6
Continuous
 62
     8
370
    25
100
AcDbLine
 10
-211.3617983402
 20
325.3139721028
 30
0.0
 11
-261.3617983402
 21
325.3139721028
 31
0.0
  0
LINE
  5
3B2
330
1F
100
AcDbEntity
  8
0
  6
Continuous
 62
     8
370
    25
100
AcDbLine
 10
-260.5279317956
 20
326.3000753809
 30
0.0
 11
-212.1956648849
 21
326.3000753809
 31
0.0
  0
LINE
  5
3B3
330
1F
100
AcDbEntity
  8
0
  6
Continuous
 62
     8
370
    25
100
AcDbLine
 10
-261.3617983402
 20
322.5338726012
 30
0.0
 11
-211.3617983402
 21
322.5338726012
 31
0.0
  0
LINE
  5
3B4
330
1F
100
AcDbEntity
  8
0
  6
Continuous
 62
     8
370
    25
100
AcDbLine
 10
-211.6143890215
 20
321.8695087624
 30
0.0
 11
-261.1092076589
 21
321.8695087624
 31
0.0
  0
LINE
  5
3B5
330
1F
100
AcDbEntity
  8
0
  6
Continuous
 62
     8
370
    25
100
AcDbLine
 10
-253.6143890215
 20
313.4378377954
 30
0.0
 11
-219.1092076589
 21
313.4378377954
 31
0.0
  0
LINE
  5
3B6
330
1F
100
AcDbEntity
  8
0
  6
Continuous
 62
     8
370
    25
100
AcDbLine
 10
-219.3617983402
 20
312.7734739565
 30
0.0
 11
-253.3617983402
 21
312.7734739565
 31
0.0
  0
LINE
  5
3B7
330
1F
100
AcDbEntity
  8
0
  6
Continuous
 62
     8
370
    25
100
AcDbLine
 10
-253.3617983402
 20
310.1536732789
 30
0.0
 11
-219.3617983402
 21
310.1536732789
 31
0.0
  0
LINE
  5
3B8
330
1F
100
AcDbEntity
  8
0
  6
Continuous
 62
     8
370
    25
100
AcDbLine
 10
416.7442293564
 20
-7.0066255451
 30
0.0
 11
466.7442293564
 21
-7.0066255451
 31
0.0
  0
LINE
  5
3B9
330
1F
100
AcDbEntity
  8
0
  6
Continuous
 62
     8
370
    25
100
AcDbLine
 10
465.9103628117
 20
-7.9927288232
 30
0.0
 11
417.578095901
 21
-7.9927288232
 31
0.0
  0
LINE
  5
3BA
330
1F
100
AcDbEntity
  8
0
  6
Continuous
 62
     8
370
    25
100
AcDbLine
 10
416.9968200377
 20
-3.5621622046
 30
0.0
 11
466.4916386751
 21
-3.5621622046
 31
0.0
  0
LINE
  5
3BB
330
1F
100
AcDbEntity
  8
0
  6
Continuous
 62
     8
370
    25
100
AcDbLine
 10
466.7442293564
 20
-4.2265260435
 30
0.0
 11
416.7442293564
 21
-4.2265260435
 31
0.0
  0
LINE
  5
3BC
330
1F
100
AcDbEntity
  8
0
  6
Continuous
 62
     8
370
    25
100
AcDbLine
 10
458.9968200377
 20
4.8695087624
 30
0.0
 11
424.4916386751
 21
4.8695087624
 31
0.0
  0
LINE
  5
3BD
330
1F
100
AcDbEntity
  8
0
  6
Continuous
 62
     8
370
    25
100
AcDbLine
 10
424.7442293564
 20
5.5338726012
 30
0.0
 11
458.7442293564
 21
5.5338726012
 31
0.0
  0
LINE
  5
3BE
330
1F
100
AcDbEntity
  8
0
  6
Continuous
 62
     8
370
    25
100
AcDbLine
 10
458.7442293564
 20
8.1536732789
 30
0.0
 11
424.7442293564
 21
8.1536732789
 31
0.0
  0
LINE
  5
3BF
330
1F
100
AcDbEntity
  8
0
  6
Continuous
 62
     8
370
    25
100
AcDbLine
 10
427.9942293564
 20
-9.0941811161
 30
0.0
 11
455.4942293564
 21
-9.0941811161
 31
0.0
  0
LINE
  5
3C0
330
1F
100
AcDbEntity
  8
0
  6
Continuous
 62
     8
370
    25
100
AcDbLine
 10
454.7639814225
 20
-10.0571109281
 30
0.0
 11
428.7244772903
 21
-10.0571109281
 31
0.0
  0
LINE
  5
3C1
330
1F
100
AcDbEntity
  8
0
  6
Continuous
 62
     8
370
    25
100
AcDbLine
 10
-30.7785374077
 20
327.4015276739
 30
0.0
 11
-58.2785374077
 21
327.4015276739
 31
0.0
  0
LINE
  5
3C2
330
1F
100
AcDbEntity
  8
0
  6
Continuous
 62
     8
370
    25
100
AcDbLine
 10
-57.5482894738
 20
328.3644574859
 30
0.0
 11
-31.5087853416
 21
328.3644574859
 31
0.0
  0
LINE
  5
3C3
330
1F
100
AcDbEntity
  8
0
  6
Continuous
 62
     8
370
    25
100
AcDbLine
 10
-250.1117983402
 20
-9.0941811161
 30
0.0
 11
-222.6117983402
 21
-9.0941811161
 31
0.0
  0
LINE
  5
3C4
330
1F
100
AcDbEntity
  8
0
  6
Continuous
 62
     8
370
    25
100
AcDbLine
 10
-223.3420462741
 20
-10.0571109281
 30
0.0
 11
-249.3815504063
 21
-10.0571109281
 31
0.0
  0
LINE
  5
3C5
330
1F
100
AcDbEntity
  8
0
  6
Continuous
 62
     8
370
    25
100
AcDbLine
 10
647.3274902889
 20
327.4015276739
 30
0.0
 11
619.8274902889
 21
327.4015276739
 31
0.0
  0
LINE
  5
3C6
330
1F
100
AcDbEntity
  8
0
  6
Continuous
 62
     8
370
    25
100
AcDbLine
 10
620.5577382228
 20
328.3644574859
 30
0.0
 11
646.597242355
 21
328.3644574859
 31
0.0
  0
LINE
  5
3C7
330
1F
100
AcDbEntity
  8
0
  6
Continuous
 62
     8
370
    25
100
AcDbLine
 10
-58.2785374077
 20
-9.0941811161
 30
0.0
 11
-30.7785374077
 21
-9.0941811161
 31
0.0
  0
LINE
  5
3C8
330
1F
100
AcDbEntity
  8
0
  6
Continuous
 62
     8
370
    25
100
AcDbLine
 10
-31.5087853416
 20
-10.0571109281
 30
0.0
 11
-57.5482894738
 21
-10.0571109281
 31
0.0
  0
LINE
  5
3C9
330
1F
100
AcDbEntity
  8
0
  6
Continuous
 62
     8
370
    25
100
AcDbLine
 10
-222.6117983402
 20
327.4015276739
 30
0.0
 11
-250.1117983402
 21
327.4015276739
 31
0.0
  0
LINE
  5
3CA
330
1F
100
AcDbEntity
  8
0
  6
Continuous
 62
     8
370
    25
100
AcDbLine
 10
-249.3815504063
 20
328.3644574859
 30
0.0
 11
-223.3420462741
 21
328.3644574859
 31
0.0
  0
LINE
  5
3CB
330
1F
100
AcDbEntity
  8
0
  6
Continuous
 62
     8
370
    25
100
AcDbLine
 10
619.8274902889
 20
-9.0941811161
 30
0.0
 11
647.3274902889
 21
-9.0941811161
 31
0.0
  0
LINE
  5
3CC
330
1F
100
AcDbEntity
  8
0
  6
Continuous
 62
     8
370
    25
100
AcDbLine
 10
646.597242355
 20
-10.0571109281
 30
0.0
 11
620.5577382228
 21
-10.0571109281
 31
0.0
  0
LINE
  5
3CD
330
1F
100
AcDbEntity
  8
0
  6
Continuous
 62
     8
370
    25
100
AcDbLine
 10
455.4942293564
 20
327.4015276739
 30
0.0
 11
427.9942293564
 21
327.4015276739
 31
0.0
  0
LINE
  5
3CE
330
1F
100
AcDbEntity
  8
0
  6
Continuous
 62
     8
370
    25
100
AcDbLine
 10
428.7244772903
 20
328.3644574859
 30
0.0
 11
454.7639814225
 21
328.3644574859
 31
0.0
  0
LINE
  5
3CF
330
1F
100
AcDbEntity
  8
0
  6
Continuous
 62
     8
370
    25
100
AcDbLine
 10
673.3541472591
 20
111.1536732789
 30
0.0
 11
584.6412305925
 21
111.1536732789
 31
0.0
  0
LINE
  5
3D0
330
1F
100
AcDbEntity
  8
0
  6
Continuous
 62
     8
370
    25
100
AcDbLine
 10
584.6412305925
 20
102.1536732789
 30
0.0
 11
673.3541472591
 21
102.1536732789
 31
0.0
  0
LINE
  5
3D1
330
1F
100
AcDbEntity
  8
0
  6
Continuous
 62
     8
370
    25
100
AcDbLine
 10
401.9675723861
 20
102.1536732789
 30
0.0
 11
405.8246557195
 21
102.1536732789
 31
0.0
  0
LINE
  5
3D2
330
1F
100
AcDbEntity
  8
0
  6
Continuous
 62
     8
370
    25
100
AcDbLine
 10
405.8246557195
 20
111.1536732789
 30
0.0
 11
401.9675723861
 21
111.1536732789
 31
0.0
  0
LINE
  5
3D3
330
1F
100
AcDbEntity
  8
0
  6
Continuous
 62
     8
370
    25
100
AcDbLine
 10
-570.9565568417
 20
194.1536732789
 30
0.0
 11
-575.2842033951
 21
194.1536732789
 31
0.0
  0
LINE
  5
3D4
330
1F
100
AcDbEntity
  8
0
  6
Continuous
 62
     8
370
    25
100
AcDbLine
 10
-575.2842033951
 20
124.1536732789
 30
0.0
 11
-570.9565567557
 21
124.1536732789
 31
0.0
  0
LINE
  5
3D5
330
1F
100
AcDbEntity
  8
0
  6
Continuous
 62
     8
370
    25
100
AcDbLine
 10
968.1722487903
 20
124.1536732789
 30
0.0
 11
972.4998953438
 21
124.1536732789
 31
0.0
  0
LINE
  5
3D6
330
1F
100
AcDbEntity
  8
0
  6
Continuous
 62
     8
370
    25
100
AcDbLine
 10
972.4998953438
 20
194.1536732789
 30
0.0
 11
968.1722487043
 21
194.1536732789
 31
0.0
  0
LINE
  5
3D7
330
1F
100
AcDbEntity
  8
0
  6
Continuous
 62
     8
370
    25
100
AcDbLine
 10
-182.535412468
 20
111.1536732789
 30
0.0
 11
-278.3687458014
 21
111.1536732789
 31
0.0
  0
LINE
  5
3D8
330
1F
100
AcDbEntity
  8
0
  6
Continuous
 62
     8
370
    25
100
AcDbLine
 10
-278.3687458014
 20
102.1536732789
 30
0.0
 11
-182.535412468
 21
102.1536732789
 31
0.0
  0
LINE
  5
3D9
330
1F
100
AcDbEntity
  8
0
  6
Continuous
 62
     8
370
    25
100
AcDbLine
 10
-6.6882566132
 20
102.1536732789
 30
0.0
 11
-2.5215899466
 21
102.1536732789
 31
0.0
  0
LINE
  5
3DA
330
1F
100
AcDbEntity
  8
0
  6
Continuous
 62
     8
370
    25
100
AcDbLine
 10
-2.5215899466
 20
111.1536732789
 30
0.0
 11
-6.6882566132
 21
111.1536732789
 31
0.0
  0
LINE
  5
3DB
330
1F
100
AcDbEntity
  8
0
  6
Continuous
 62
     8
370
    25
100
AcDbLine
 10
675.58443775
 20
216.1536732789
 30
0.0
 11
579.7511044167
 21
216.1536732789
 31
0.0
  0
LINE
  5
3DC
330
1F
100
AcDbEntity
  8
0
  6
Continuous
 62
     8
370
    25
100
AcDbLine
 10
579.7511044167
 20
207.1536732789
 30
0.0
 11
675.58443775
 21
207.1536732789
 31
0.0
  0
LINE
  5
3DD
330
1F
100
AcDbEntity
  8
0
  6
Continuous
 62
     8
370
    25
100
AcDbLine
 10
403.9039485619
 20
216.1536732789
 30
0.0
 11
399.7372818952
 21
216.1536732789
 31
0.0
  0
LINE
  5
3DE
330
1F
100
AcDbEntity
  8
0
  6
Continuous
 62
     8
370
    25
100
AcDbLine
 10
399.7372818952
 20
207.1536732789
 30
0.0
 11
403.9039485619
 21
207.1536732789
 31
0.0
  0
LINE
  5
3DF
330
1F
100
AcDbEntity
  8
0
  6
Continuous
 62
     8
370
    25
100
AcDbLine
 10
-278.3687458014
 20
207.1536732789
 30
0.0
 11
-182.535412468
 21
207.1536732789
 31
0.0
  0
LINE
  5
3E0
330
1F
100
AcDbEntity
  8
0
  6
Continuous
 62
     8
370
    25
100
AcDbLine
 10
-182.535412468
 20
216.1536732789
 30
0.0
 11
-278.3687458014
 21
216.1536732789
 31
0.0
  0
LINE
  5
3E1
330
1F
100
AcDbEntity
  8
0
  6
Continuous
 62
     8
370
    25
100
AcDbLine
 10
-6.6882566132
 20
207.1536732789
 30
0.0
 11
-2.5215899466
 21
207.1536732789
 31
0.0
  0
LINE
  5
3E2
330
1F
100
AcDbEntity
  8
0
  6
Continuous
 62
     8
370
    25
100
AcDbLine
 10
-2.5215899466
 20
216.1536732789
 30
0.0
 11
-6.6882566132
 21
216.1536732789
 31
0.0
  0
LINE
  5
3E3
330
1F
100
AcDbEntity
  8
0
  6
Continuous
 62
     8
370
    25
100
AcDbLine
 10
736.6566921665
 20
201.1536732789
 30
0.0
 11
653.5523136995
 21
201.1536732789
 31
0.0
  0
LINE
  5
3E4
330
1F
100
AcDbEntity
  8
0
  6
Continuous
 62
     8
370
    25
100
AcDbLine
 10
613.6026668782
 20
201.1536732789
 30
0.0
 11
-216.3869749296
 21
201.1536732789
 31
0.0
  0
LINE
  5
3E5
330
1F
100
AcDbEntity
  8
0
  6
Continuous
 62
     8
370
    25
100
AcDbLine
 10
-256.3366217509
 20
201.1536732789
 30
0.0
 11
-339.4410006594
 21
201.1536732789
 31
0.0
  0
LINE
  5
3E6
330
1F
100
AcDbEntity
  8
0
  6
Continuous
 62
     8
370
    25
100
AcDbLine
 10
-339.4410002179
 20
117.1536732789
 30
0.0
 11
-256.3366217509
 21
117.1536732789
 31
0.0
  0
LINE
  5
3E7
330
1F
100
AcDbEntity
  8
0
  6
Continuous
 62
     8
370
    25
100
AcDbLine
 10
-216.3869749296
 20
117.1536732789
 30
0.0
 11
613.6026668782
 21
117.1536732789
 31
0.0
  0
LINE
  5
3E8
330
1F
100
AcDbEntity
  8
0
  6
Continuous
 62
     8
370
    25
100
AcDbLine
 10
653.5523136995
 20
117.1536732789
 30
0.0
 11
736.656692608
 21
117.1536732789
 31
0.0
  0
LINE
  5
3E9
330
1F
100
AcDbEntity
  8
0
  6
Continuous
 62
     8
370
    25
100
AcDbLine
 10
92.8465407833
 20
209.6536732789
 30
0.0
 11
58.6078459743
 21
209.6536732789
 31
0.0
  0
LINE
  5
3EA
330
1F
100
AcDbEntity
  8
0
  6
Continuous
 62
     8
370
    25
100
AcDbLine
 10
98.6078459743
 20
209.6536732789
 30
0.0
 11
92.8465407833
 21
209.6536732789
 31
0.0
  0
LINE
  5
3EB
330
1F
100
AcDbEntity
  8
0
  6
Continuous
 62
     8
370
    25
100
AcDbLine
 10
338.6078459743
 20
209.6536732789
 30
0.0
 11
298.6078459743
 21
209.6536732789
 31
0.0
  0
LINE
  5
3EC
330
1F
100
AcDbEntity
  8
0
  6
Continuous
 62
     8
370
    25
100
AcDbLine
 10
539.1660704185
 20
97.1536732789
 30
0.0
 11
579.1660704185
 21
97.1536732789
 31
0.0
  0
LINE
  5
3ED
330
1F
100
AcDbEntity
  8
0
  6
Continuous
 62
     8
370
    25
100
AcDbLine
 10
539.1971058512
 20
221.1536732789
 30
0.0
 11
539.1660704185
 21
221.1536732789
 31
0.0
  0
LINE
  5
3EE
330
1F
100
AcDbEntity
  8
0
  6
Continuous
 62
     8
370
    25
100
AcDbLine
 10
579.1660704185
 20
221.1536732789
 30
0.0
 11
539.1971058512
 21
221.1536732789
 31
0.0
  0
LINE
  5
3EF
330
1F
100
AcDbEntity
  8
0
  6
Continuous
 62
     8
370
    25
100
AcDbLine
 10
58.6078459743
 20
108.6536732789
 30
0.0
 11
98.6078459743
 21
108.6536732789
 31
0.0
  0
LINE
  5
3F0
330
1F
100
AcDbEntity
  8
0
  6
Continuous
 62
     8
370
    25
100
AcDbLine
 10
-53.0109406124
 20
97.1536732789
 30
0.0
 11
-52.9799051797
 21
97.1536732789
 31
0.0
  0
LINE
  5
3F1
330
1F
100
AcDbEntity
  8
0
  6
Continuous
 62
     8
370
    25
100
AcDbLine
 10
-92.9799051797
 20
97.1536732789
 30
0.0
 11
-53.0109406124
 21
97.1536732789
 31
0.0
  0
LINE
  5
3F2
330
1F
100
AcDbEntity
  8
0
  6
Continuous
 62
     8
370
    25
100
AcDbLine
 10
-141.9814139026
 20
97.1536732789
 30
0.0
 11
-141.9503784698
 21
97.1536732789
 31
0.0
  0
LINE
  5
3F3
330
1F
100
AcDbEntity
  8
0
  6
Continuous
 62
     8
370
    25
100
AcDbLine
 10
-181.9503784698
 20
97.1536732789
 30
0.0
 11
-141.9814139026
 21
97.1536732789
 31
0.0
  0
LINE
  5
3F4
330
1F
100
AcDbEntity
  8
0
  6
Continuous
 62
     8
370
    25
100
AcDbLine
 10
450.2266325611
 20
221.1536732789
 30
0.0
 11
450.1955971284
 21
221.1536732789
 31
0.0
  0
LINE
  5
3F5
330
1F
100
AcDbEntity
  8
0
  6
Continuous
 62
     8
370
    25
100
AcDbLine
 10
490.1955971284
 20
221.1536732789
 30
0.0
 11
450.2266325611
 21
221.1536732789
 31
0.0
  0
LINE
  5
3F6
330
1F
100
AcDbEntity
  8
0
  6
Continuous
 62
     8
370
    25
100
AcDbLine
 10
304.3691511654
 20
108.6536732789
 30
0.0
 11
338.6078459743
 21
108.6536732789
 31
0.0
  0
LINE
  5
3F7
330
1F
100
AcDbEntity
  8
0
  6
Continuous
 62
     8
370
    25
100
AcDbLine
 10
298.6078459743
 20
108.6536732789
 30
0.0
 11
304.3691511654
 21
108.6536732789
 31
0.0
  0
LINE
  5
3F8
330
1F
100
AcDbEntity
  8
0
  6
Continuous
 62
     8
370
    25
100
AcDbLine
 10
-141.9503784698
 20
221.1536732789
 30
0.0
 11
-181.9503784698
 21
221.1536732789
 31
0.0
  0
LINE
  5
3F9
330
1F
100
AcDbEntity
  8
0
  6
Continuous
 62
     8
370
    25
100
AcDbLine
 10
-52.9799051797
 20
221.1536732789
 30
0.0
 11
-92.9799051797
 21
221.1536732789
 31
0.0
  0
LINE
  5
3FA
330
1F
100
AcDbEntity
  8
0
  6
Continuous
 62
     8
370
    25
100
AcDbLine
 10
450.1955971284
 20
97.1536732789
 30
0.0
 11
490.1955971284
 21
97.1536732789
 31
0.0
  0
LINE
  5
3FB
330
1F
100
AcDbEntity
  8
0
  6
Continuous
 62
     8
370
    25
100
AcDbLine
 10
-59.2799051797
 20
236.2840645973
 30
0.0
 11
-86.6799051797
 21
236.2840645973
 31
0.0
  0
LINE
  5
3FC
330
1F
100
AcDbEntity
  8
0
  6
Continuous
 62
     8
370
    25
100
AcDbLine
 10
-59.6133549793
 20
236.8216062149
 30
0.0
 11
-86.3464553801
 21
236.8216062149
 31
0.0
  0
LINE
  5
3FD
330
1F
100
AcDbEntity
  8
0
  6
Continuous
 62
     8
370
    25
100
AcDbLine
 10
88.3613519185
 20
224.7840645973
 30
0.0
 11
64.9078459743
 21
224.7840645973
 31
0.0
  0
LINE
  5
3FE
330
1F
100
AcDbEntity
  8
0
  6
Continuous
 62
     8
370
    25
100
AcDbLine
 10
92.3078459743
 20
224.7840645973
 30
0.0
 11
88.3613519185
 21
224.7840645973
 31
0.0
  0
LINE
  5
3FF
330
1F
100
AcDbEntity
  8
0
  6
Continuous
 62
     8
370
    25
100
AcDbLine
 10
88.1239574219
 20
225.3216062149
 30
0.0
 11
65.2412957739
 21
225.3216062149
 31
0.0
  0
LINE
  5
400
330
1F
100
AcDbEntity
  8
0
  6
Continuous
 62
     8
370
    25
100
AcDbLine
 10
91.9743961747
 20
225.3216062149
 30
0.0
 11
88.1239574219
 21
225.3216062149
 31
0.0
  0
LINE
  5
401
330
1F
100
AcDbEntity
  8
0
  6
Continuous
 62
     8
370
    25
100
AcDbLine
 10
308.8543400302
 20
93.5232819605
 30
0.0
 11
332.3078459743
 21
93.5232819605
 31
0.0
  0
LINE
  5
402
330
1F
100
AcDbEntity
  8
0
  6
Continuous
 62
     8
370
    25
100
AcDbLine
 10
304.9078459743
 20
93.5232819605
 30
0.0
 11
308.8543400302
 21
93.5232819605
 31
0.0
  0
LINE
  5
403
330
1F
100
AcDbEntity
  8
0
  6
Continuous
 62
     8
370
    25
100
AcDbLine
 10
309.0917345267
 20
92.9857403429
 30
0.0
 11
331.9743961747
 21
92.9857403429
 31
0.0
  0
LINE
  5
404
330
1F
100
AcDbEntity
  8
0
  6
Continuous
 62
     8
370
    25
100
AcDbLine
 10
305.2412957739
 20
92.9857403429
 30
0.0
 11
309.0917345267
 21
92.9857403429
 31
0.0
  0
LINE
  5
405
330
1F
100
AcDbEntity
  8
0
  6
Continuous
 62
     8
370
    25
100
AcDbLine
 10
456.5168563998
 20
236.2840645973
 30
0.0
 11
456.4955971284
 21
236.2840645973
 31
0.0
  0
LINE
  5
406
330
1F
100
AcDbEntity
  8
0
  6
Continuous
 62
     8
370
    25
100
AcDbLine
 10
483.8955971284
 20
236.2840645973
 30
0.0
 11
456.5168563998
 21
236.2840645973
 31
0.0
  0
LINE
  5
407
330
1F
100
AcDbEntity
  8
0
  6
Continuous
 62
     8
370
    25
100
AcDbLine
 10
456.8497887615
 20
236.8216062149
 30
0.0
 11
456.829046928
 21
236.8216062149
 31
0.0
  0
LINE
  5
408
330
1F
100
AcDbEntity
  8
0
  6
Continuous
 62
     8
370
    25
100
AcDbLine
 10
483.5621473287
 20
236.8216062149
 30
0.0
 11
456.8497887615
 21
236.8216062149
 31
0.0
  0
LINE
  5
409
330
1F
100
AcDbEntity
  8
0
  6
Continuous
 62
     8
370
    25
100
AcDbLine
 10
456.4955971284
 20
82.0232819605
 30
0.0
 11
483.8955971284
 21
82.0232819605
 31
0.0
  0
LINE
  5
40A
330
1F
100
AcDbEntity
  8
0
  6
Continuous
 62
     8
370
    25
100
AcDbLine
 10
456.829046928
 20
81.4857403429
 30
0.0
 11
483.5621473287
 21
81.4857403429
 31
0.0
  0
LINE
  5
40B
330
1F
100
AcDbEntity
  8
0
  6
Continuous
 62
     8
370
    25
100
AcDbLine
 10
-148.2716377413
 20
82.0232819605
 30
0.0
 11
-148.2503784698
 21
82.0232819605
 31
0.0
  0
LINE
  5
40C
330
1F
100
AcDbEntity
  8
0
  6
Continuous
 62
     8
370
    25
100
AcDbLine
 10
-175.6503784698
 20
82.0232819605
 30
0.0
 11
-148.2716377413
 21
82.0232819605
 31
0.0
  0
LINE
  5
40D
330
1F
100
AcDbEntity
  8
0
  6
Continuous
 62
     8
370
    25
100
AcDbLine
 10
-148.6045701029
 20
81.4857403429
 30
0.0
 11
-148.5838282694
 21
81.4857403429
 31
0.0
  0
LINE
  5
40E
330
1F
100
AcDbEntity
  8
0
  6
Continuous
 62
     8
370
    25
100
AcDbLine
 10
-175.3169286702
 20
81.4857403429
 30
0.0
 11
-148.6045701029
 21
81.4857403429
 31
0.0
  0
LINE
  5
40F
330
1F
100
AcDbEntity
  8
0
  6
Continuous
 62
     8
370
    25
100
AcDbLine
 10
545.4660704185
 20
82.0232819605
 30
0.0
 11
572.8660704185
 21
82.0232819605
 31
0.0
  0
LINE
  5
410
330
1F
100
AcDbEntity
  8
0
  6
Continuous
 62
     8
370
    25
100
AcDbLine
 10
545.7995202181
 20
81.4857403429
 30
0.0
 11
572.5326206189
 21
81.4857403429
 31
0.0
  0
LINE
  5
411
330
1F
100
AcDbEntity
  8
0
  6
Continuous
 62
     8
370
    25
100
AcDbLine
 10
545.4873296899
 20
236.2840645973
 30
0.0
 11
545.4660704185
 21
236.2840645973
 31
0.0
  0
LINE
  5
412
330
1F
100
AcDbEntity
  8
0
  6
Continuous
 62
     8
370
    25
100
AcDbLine
 10
572.8660704185
 20
236.2840645973
 30
0.0
 11
545.4873296899
 21
236.2840645973
 31
0.0
  0
LINE
  5
413
330
1F
100
AcDbEntity
  8
0
  6
Continuous
 62
     8
370
    25
100
AcDbLine
 10
545.8202620516
 20
236.8216062149
 30
0.0
 11
545.7995202181
 21
236.8216062149
 31
0.0
  0
LINE
  5
414
330
1F
100
AcDbEntity
  8
0
  6
Continuous
 62
     8
370
    25
100
AcDbLine
 10
572.5326206189
 20
236.8216062149
 30
0.0
 11
545.8202620516
 21
236.8216062149
 31
0.0
  0
LINE
  5
415
330
1F
100
AcDbEntity
  8
0
  6
Continuous
 62
     8
370
    25
100
AcDbLine
 10
332.3078459743
 20
224.7840645973
 30
0.0
 11
304.9078459743
 21
224.7840645973
 31
0.0
  0
LINE
  5
416
330
1F
100
AcDbEntity
  8
0
  6
Continuous
 62
     8
370
    25
100
AcDbLine
 10
331.9743961747
 20
225.3216062149
 30
0.0
 11
305.2412957739
 21
225.3216062149
 31
0.0
  0
LINE
  5
417
330
1F
100
AcDbEntity
  8
0
  6
Continuous
 62
     8
370
    25
100
AcDbLine
 10
-59.3011644511
 20
82.0232819605
 30
0.0
 11
-59.2799051797
 21
82.0232819605
 31
0.0
  0
LINE
  5
418
330
1F
100
AcDbEntity
  8
0
  6
Continuous
 62
     8
370
    25
100
AcDbLine
 10
-86.6799051797
 20
82.0232819605
 30
0.0
 11
-59.3011644511
 21
82.0232819605
 31
0.0
  0
LINE
  5
419
330
1F
100
AcDbEntity
  8
0
  6
Continuous
 62
     8
370
    25
100
AcDbLine
 10
-59.6340968128
 20
81.4857403429
 30
0.0
 11
-59.6133549793
 21
81.4857403429
 31
0.0
  0
LINE
  5
41A
330
1F
100
AcDbEntity
  8
0
  6
Continuous
 62
     8
370
    25
100
AcDbLine
 10
-86.3464553801
 20
81.4857403429
 30
0.0
 11
-59.6340968128
 21
81.4857403429
 31
0.0
  0
LINE
  5
41B
330
1F
100
AcDbEntity
  8
0
  6
Continuous
 62
     8
370
    25
100
AcDbLine
 10
64.9078459743
 20
93.5232819605
 30
0.0
 11
92.3078459743
 21
93.5232819605
 31
0.0
  0
LINE
  5
41C
330
1F
100
AcDbEntity
  8
0
  6
Continuous
 62
     8
370
    25
100
AcDbLine
 10
65.2412957739
 20
92.9857403429
 30
0.0
 11
91.9743961747
 21
92.9857403429
 31
0.0
  0
LINE
  5
41D
330
1F
100
AcDbEntity
  8
0
  6
Continuous
 62
     8
370
    25
100
AcDbLine
 10
-148.2503784698
 20
236.2840645973
 30
0.0
 11
-175.6503784698
 21
236.2840645973
 31
0.0
  0
LINE
  5
41E
330
1F
100
AcDbEntity
  8
0
  6
Continuous
 62
     8
370
    25
100
AcDbLine
 10
-148.5838282694
 20
236.8216062149
 30
0.0
 11
-175.3169286702
 21
236.8216062149
 31
0.0
  0
ENDSEC
  0
SECTION
  2
OBJECTS
  0
DICTIONARY
  5
C
330
0
100
AcDbDictionary
281
     1
  3
ACAD_GROUP
350
D
  3
ACAD_LAYOUT
350
1A
  3
ACAD_MLINESTYLE
350
17
  3
ACAD_PLOTSETTINGS
350
19
  3
ACAD_PLOTSTYLENAME
350
E
  3
ACAD_SCALELIST
350
47
  3
DWGPROPS
350
41F
  0
DICTIONARY
  5
D
102
{ACAD_REACTORS
330
C
102
}
330
C
100
AcDbDictionary
281
     1
  0
DICTIONARY
  5
1A
102
{ACAD_REACTORS
330
C
102
}
330
C
100
AcDbDictionary
281
     1
  3
Layout1
350
1E
  3
Layout2
350
26
  3
Model
350
22
  0
DICTIONARY
  5
17
102
{ACAD_REACTORS
330
C
102
}
330
C
100
AcDbDictionary
281
     1
  3
Standard
350
18
  0
DICTIONARY
  5
19
102
{ACAD_REACTORS
330
C
102
}
330
C
100
AcDbDictionary
281
     1
  0
ACDBDICTIONARYWDFLT
  5
E
102
{ACAD_REACTORS
330
C
102
}
330
C
100
AcDbDictionary
281
     1
  3
Normal
350
F
100
AcDbDictionaryWithDefault
340
F
  0
DICTIONARY
  5
47
102
{ACAD_REACTORS
330
C
102
}
330
C
100
AcDbDictionary
281
     1
  3
A0
350
48
  3
A1
350
49
  3
A2
350
4A
  3
A3
350
4B
  3
A4
350
4C
  3
A5
350
4D
  3
A6
350
4E
  3
A7
350
4F
  3
A8
350
50
  3
A9
350
51
  3
B0
350
52
  3
B1
350
53
  3
B2
350
54
  3
B3
350
55
  3
B4
350
56
  3
B5
350
57
  3
B6
350
58
  3
B7
350
59
  3
B8
350
5A
  3
B9
350
5B
  3
C0
350
5C
  3
C1
350
5D
  3
C2
350
5E
  3
C3
350
5F
  3
C4
350
60
  3
C5
350
61
  3
C6
350
62
  3
C7
350
63
  3
C8
350
64
  3
C9
350
65
  3
D0
350
66
  3
D1
350
67
  3
D2
350
68
  0
XRECORD
  5
41F
102
{ACAD_REACTORS
330
C
102
}
330
C
100
AcDbXrecord
280
     1
  1
DWGPROPS COOKIE
  2

  3

  4

  6

  7

  8
Swing
  9

300
=
301
=
302
=
303
=
304
=
305
=
306
=
307
=
308
=
309
=
 40
0.0
 41
2459678.437214468
 42
2459678.437214931
  1

 90
        0
  0
LAYOUT
  5
1E
102
{ACAD_REACTORS
330
1A
102
}
330
1A
100
AcDbPlotSettings
  1

  2
none_device
  4

  6

 40
0.0
 41
0.0
 42
0.0
 43
0.0
 44
0.0
 45
0.0
 46
0.0
 47
0.0
 48
0.0
 49
0.0
140
0.0
141
0.0
142
1.0
143
1.0
 70
   688
 72
     1
 73
     0
 74
     5
  7

 75
    16
147
1.0
148
0.0
149
0.0
100
AcDbLayout
  1
Layout1
 70
     1
 71
     1
 10
0.0
 20
0.0
 11
420.0
 21
297.0
 12
0.0
 22
0.0
 32
0.0
 14
1.0000000000E+20
 24
1.0000000000E+20
 34
1.0000000000E+20
 15
-1.0000000000E+20
 25
-1.0000000000E+20
 35
-1.0000000000E+20
146
0.0
 13
0.0
 23
0.0
 33
0.0
 16
1.0
 26
0.0
 36
0.0
 17
0.0
 27
1.0
 37
0.0
 76
     0
330
1B
  0
LAYOUT
  5
26
102
{ACAD_REACTORS
330
1A
102
}
330
1A
100
AcDbPlotSettings
  1

  2
none_device
  4

  6

 40
0.0
 41
0.0
 42
0.0
 43
0.0
 44
0.0
 45
0.0
 46
0.0
 47
0.0
 48
0.0
 49
0.0
140
0.0
141
0.0
142
1.0
143
1.0
 70
   688
 72
     1
 73
     0
 74
     5
  7

 75
    16
147
1.0
148
0.0
149
0.0
100
AcDbLayout
  1
Layout2
 70
     1
 71
     2
 10
0.0
 20
0.0
 11
0.0
 21
0.0
 12
0.0
 22
0.0
 32
0.0
 14
0.0
 24
0.0
 34
0.0
 15
0.0
 25
0.0
 35
0.0
146
0.0
 13
0.0
 23
0.0
 33
0.0
 16
1.0
 26
0.0
 36
0.0
 17
0.0
 27
1.0
 37
0.0
 76
     0
330
23
  0
LAYOUT
  5
22
102
{ACAD_REACTORS
330
1A
102
}
330
1A
100
AcDbPlotSettings
  1

  2
none_device
  4
Letter_(8.50_x_11.00_Inches)
  6

 40
6.35
 41
6.35
 42
6.35000508
 43
6.35000508
 44
215.9
 45
279.4
 46
0.0
 47
0.0
 48
0.0
 49
0.0
140
0.0
141
0.0
142
1.0
143
1.0
 70
  1712
 72
     1
 73
     0
 74
     0
  7

 75
     0
147
1.0
148
0.0
149
0.0
100
AcDbLayout
  1
Model
 70
     1
 71
     0
 10
0.0
 20
0.0
 11
431.8
 21
279.4
 12
0.0
 22
0.0
 32
0.0
 14
0.0
 24
0.0
 34
0.0
 15
431.8
 25
279.4
 35
0.0
146
0.0
 13
0.0
 23
0.0
 33
0.0
 16
1.0
 26
0.0
 36
0.0
 17
0.0
 27
1.0
 37
0.0
 76
     0
330
1F
331
29
  0
MLINESTYLE
  5
18
102
{ACAD_REACTORS
330
17
102
}
330
17
100
AcDbMlineStyle
  2
Standard
 70
     0
  3

 62
   256
 51
90.0
 52
90.0
 71
     2
 49
0.5
 62
   256
  6
BYLAYER
 49
-0.5
 62
   256
  6
BYLAYER
  0
ACDBPLACEHOLDER
  5
F
102
{ACAD_REACTORS
330
E
102
}
330
E
  0
SCALE
  5
48
102
{ACAD_REACTORS
330
47
102
}
330
47
100
AcDbScale
 70
     0
300
1:1
140
1.0
141
1.0
290
     1
  0
SCALE
  5
49
102
{ACAD_REACTORS
330
47
102
}
330
47
100
AcDbScale
 70
     0
300
1:2
140
1.0
141
2.0
290
     0
  0
SCALE
  5
4A
102
{ACAD_REACTORS
330
47
102
}
330
47
100
AcDbScale
 70
     0
300
1:4
140
1.0
141
4.0
290
     0
  0
SCALE
  5
4B
102
{ACAD_REACTORS
330
47
102
}
330
47
100
AcDbScale
 70
     0
300
1:5
140
1.0
141
5.0
290
     0
  0
SCALE
  5
4C
102
{ACAD_REACTORS
330
47
102
}
330
47
100
AcDbScale
 70
     0
300
1:8
140
1.0
141
8.0
290
     0
  0
SCALE
  5
4D
102
{ACAD_REACTORS
330
47
102
}
330
47
100
AcDbScale
 70
     0
300
1:10
140
1.0
141
10.0
290
     0
  0
SCALE
  5
4E
102
{ACAD_REACTORS
330
47
102
}
330
47
100
AcDbScale
 70
     0
300
1:16
140
1.0
141
16.0
290
     0
  0
SCALE
  5
4F
102
{ACAD_REACTORS
330
47
102
}
330
47
100
AcDbScale
 70
     0
300
1:20
140
1.0
141
20.0
290
     0
  0
SCALE
  5
50
102
{ACAD_REACTORS
330
47
102
}
330
47
100
AcDbScale
 70
     0
300
1:30
140
1.0
141
30.0
290
     0
  0
SCALE
  5
51
102
{ACAD_REACTORS
330
47
102
}
330
47
100
AcDbScale
 70
     0
300
1:40
140
1.0
141
40.0
290
     0
  0
SCALE
  5
52
102
{ACAD_REACTORS
330
47
102
}
330
47
100
AcDbScale
 70
     0
300
1:50
140
1.0
141
50.0
290
     0
  0
SCALE
  5
53
102
{ACAD_REACTORS
330
47
102
}
330
47
100
AcDbScale
 70
     0
300
1:100
140
1.0
141
100.0
290
     0
  0
SCALE
  5
54
102
{ACAD_REACTORS
330
47
102
}
330
47
100
AcDbScale
 70
     0
300
2:1
140
2.0
141
1.0
290
     0
  0
SCALE
  5
55
102
{ACAD_REACTORS
330
47
102
}
330
47
100
AcDbScale
 70
     0
300
4:1
140
4.0
141
1.0
290
     0
  0
SCALE
  5
56
102
{ACAD_REACTORS
330
47
102
}
330
47
100
AcDbScale
 70
     0
300
8:1
140
8.0
141
1.0
290
     0
  0
SCALE
  5
57
102
{ACAD_REACTORS
330
47
102
}
330
47
100
AcDbScale
 70
     0
300
10:1
140
10.0
141
1.0
290
     0
  0
SCALE
  5
58
102
{ACAD_REACTORS
330
47
102
}
330
47
100
AcDbScale
 70
     0
300
100:1
140
100.0
141
1.0
290
     0
  0
SCALE
  5
59
102
{ACAD_REACTORS
330
47
102
}
330
47
100
AcDbScale
 70
     0
300
1/128" = 1'-0"
140
0.0078125
141
12.0
290
     0
  0
SCALE
  5
5A
102
{ACAD_REACTORS
330
47
102
}
330
47
100
AcDbScale
 70
     0
300
1/64" = 1'-0"
140
0.015625
141
12.0
290
     0
  0
SCALE
  5
5B
102
{ACAD_REACTORS
330
47
102
}
330
47
100
AcDbScale
 70
     0
300
1/32" = 1'-0"
140
0.03125
141
12.0
290
     0
  0
SCALE
  5
5C
102
{ACAD_REACTORS
330
47
102
}
330
47
100
AcDbScale
 70
     0
300
1/16" = 1'-0"
140
0.0625
141
12.0
290
     0
  0
SCALE
  5
5D
102
{ACAD_REACTORS
330
47
102
}
330
47
100
AcDbScale
 70
     0
300
3/32" = 1'-0"
140
0.09375
141
12.0
290
     0
  0
SCALE
  5
5E
102
{ACAD_REACTORS
330
47
102
}
330
47
100
AcDbScale
 70
     0
300
1/8" = 1'-0"
140
0.125
141
12.0
290
     0
  0
SCALE
  5
5F
102
{ACAD_REACTORS
330
47
102
}
330
47
100
AcDbScale
 70
     0
300
3/16" = 1'-0"
140
0.1875
141
12.0
290
     0
  0
SCALE
  5
60
102
{ACAD_REACTORS
330
47
102
}
330
47
100
AcDbScale
 70
     0
300
1/4" = 1'-0"
140
0.25
141
12.0
290
     0
  0
SCALE
  5
61
102
{ACAD_REACTORS
330
47
102
}
330
47
100
AcDbScale
 70
     0
300
3/8" = 1'-0"
140
0.375
141
12.0
290
     0
  0
SCALE
  5
62
102
{ACAD_REACTORS
330
47
102
}
330
47
100
AcDbScale
 70
     0
300
1/2" = 1'-0"
140
0.5
141
12.0
290
     0
  0
SCALE
  5
63
102
{ACAD_REACTORS
330
47
102
}
330
47
100
AcDbScale
 70
     0
300
3/4" = 1'-0"
140
0.75
141
12.0
290
     0
  0
SCALE
  5
64
102
{ACAD_REACTORS
330
47
102
}
330
47
100
AcDbScale
 70
     0
300
1" = 1'-0"
140
1.0
141
12.0
290
     0
  0
SCALE
  5
65
102
{ACAD_REACTORS
330
47
102
}
330
47
100
AcDbScale
 70
     0
300
1-1/2" = 1'-0"
140
1.5
141
12.0
290
     0
  0
SCALE
  5
66
102
{ACAD_REACTORS
330
47
102
}
330
47
100
AcDbScale
 70
     0
300
3" = 1'-0"
140
3.0
141
12.0
290
     0
  0
SCALE
  5
67
102
{ACAD_REACTORS
330
47
102
}
330
47
100
AcDbScale
 70
     0
300
6" = 1'-0"
140
6.0
141
12.0
290
     0
  0
SCALE
  5
68
102
{ACAD_REACTORS
330
47
102
}
330
47
100
AcDbScale
 70
     0
300
1'-0" = 1'-0"
140
12.0
141
12.0
290
     0
  0
ENDSEC
  0
EOF
