  0
SECTION
  2
HEADER
  9
$ACADVER
  1
AC1015
  9
$ACADMAINTVER
 70
     6
  9
$DWGCODEPAGE
  3
ANSI_1250
  9
$INSBASE
 10
0.0
 20
0.0
 30
0.0
  9
$EXTMIN
 10
0.0
 20
0.0
 30
0.0
  9
$EXTMAX
 10
431.8
 20
279.4
 30
0.0
  9
$LIMMIN
 10
0.0
 20
0.0
  9
$LIMMAX
 10
431.8
 20
279.4
  9
$ORTHOMODE
 70
     0
  9
$REGENMODE
 70
     1
  9
$FILLMODE
 70
     1
  9
$QTEXTMODE
 70
     0
  9
$MIRRTEXT
 70
     1
  9
$LTSCALE
 40
1.0
  9
$ATTMODE
 70
     1
  9
$TEXTSIZE
 40
3.8805555556
  9
$TRACEWID
 40
1.0
  9
$TEXTSTYLE
  7
Standard
  9
$CLAYER
  8
0
  9
$CELTYPE
  6
ByLayer
  9
$CECOLOR
 62
   256
  9
$CELTSCALE
 40
1.0
  9
$DISPSILH
 70
     0
  9
$DIMSCALE
 40
1.0
  9
$DIMASZ
 40
3.302
  9
$DIMEXO
 40
1.0
  9
$DIMDLI
 40
3.75
  9
$DIMRND
 40
0.0
  9
$DIMDLE
 40
0.0
  9
$DIMEXE
 40
1.0
  9
$DIMTP
 40
0.0
  9
$DIMTM
 40
0.0
  9
$DIMTXT
 40
3.8805555556
  9
$DIMCEN
 40
2.5
  9
$DIMTSZ
 40
0.0
  9
$DIMTOL
 70
     0
  9
$DIMLIM
 70
     0
  9
$DIMTIH
 70
     1
  9
$DIMTOH
 70
     1
  9
$DIMSE1
 70
     0
  9
$DIMSE2
 70
     0
  9
$DIMTAD
 70
     1
  9
$DIMZIN
 70
     0
  9
$DIMBLK
  1

  9
$DIMASO
 70
     1
  9
$DIMSHO
 70
     1
  9
$DIMPOST
  1

  9
$DIMAPOST
  1

  9
$DIMALT
 70
     0
  9
$DIMALTD
 70
     3
  9
$DIMALTF
 40
0.0393700787
  9
$DIMLFAC
 40
1.0
  9
$DIMTOFL
 70
     1
  9
$DIMTVP
 40
0.0
  9
$DIMTIX
 70
     0
  9
$DIMSOXD
 70
     0
  9
$DIMSAH
 70
     0
  9
$DIMBLK1
  1

  9
$DIMBLK2
  1

  9
$DIMSTYLE
  2
ISO-25
  9
$DIMCLRD
 70
     0
  9
$DIMCLRE
 70
     0
  9
$DIMCLRT
 70
     0
  9
$DIMTFAC
 40
1.0
  9
$DIMGAP
 40
1.524
  9
$DIMJUST
 70
     0
  9
$DIMSD1
 70
     0
  9
$DIMSD2
 70
     0
  9
$DIMTOLJ
 70
     0
  9
$DIMTZIN
 70
     0
  9
$DIMALTZ
 70
     0
  9
$DIMALTTZ
 70
     0
  9
$DIMUPT
 70
     0
  9
$DIMDEC
 70
     1
  9
$DIMTDEC
 70
     1
  9
$DIMALTU
 70
     2
  9
$DIMALTTD
 70
     3
  9
$DIMTXSTY
  7
Standard
  9
$DIMAUNIT
 70
     0
  9
$DIMADEC
 70
     1
  9
$DIMALTRND
 40
0.0
  9
$DIMAZIN
 70
     0
  9
$DIMDSEP
 70
    44
  9
$DIMATFIT
 70
     3
  9
$DIMFRAC
 70
     0
  9
$DIMLDRBLK
  1

  9
$DIMLUNIT
 70
     2
  9
$DIMLWD
 70
    -2
  9
$DIMLWE
 70
    -2
  9
$DIMTMOVE
 70
     0
  9
$LUNITS
 70
     2
  9
$LUPREC
 70
     1
  9
$SKETCHINC
 40
1.0
  9
$FILLETRAD
 40
10.0
  9
$AUNITS
 70
     0
  9
$AUPREC
 70
     1
  9
$MENU
  1
.
  9
$ELEVATION
 40
0.0
  9
$PELEVATION
 40
0.0
  9
$THICKNESS
 40
0.0
  9
$LIMCHECK
 70
     0
  9
$CHAMFERA
 40
0.0
  9
$CHAMFERB
 40
0.0
  9
$CHAMFERC
 40
0.0
  9
$CHAMFERD
 40
0.0
  9
$SKPOLY
 70
     0
  9
$TDCREATE
 40
2459557.313968808
  9
$TDUCREATE
 40
2459557.272302141
  9
$TDUPDATE
 40
2459557.313969329
  9
$TDUUPDATE
 40
2459557.272302662
  9
$TDINDWG
 40
0.0000000116
  9
$TDUSRTIMER
 40
0.0000000116
  9
$USRTIMER
 70
     1
  9
$ANGBASE
 50
0.0
  9
$ANGDIR
 70
     0
  9
$PDMODE
 70
     0
  9
$PDSIZE
 40
-1.0
  9
$PLINEWID
 40
0.0
  9
$SPLFRAME
 70
     0
  9
$SPLINETYPE
 70
     6
  9
$SPLINESEGS
 70
     8
  9
$HANDSEED
  5
3BA
  9
$SURFTAB1
 70
     6
  9
$SURFTAB2
 70
     6
  9
$SURFTYPE
 70
     6
  9
$SURFU
 70
     6
  9
$SURFV
 70
     6
  9
$UCSBASE
  2

  9
$UCSNAME
  2

  9
$UCSORG
 10
0.0
 20
0.0
 30
0.0
  9
$UCSXDIR
 10
1.0
 20
0.0
 30
0.0
  9
$UCSYDIR
 10
0.0
 20
1.0
 30
0.0
  9
$UCSORTHOREF
  2

  9
$UCSORTHOVIEW
 70
     0
  9
$UCSORGTOP
 10
0.0
 20
0.0
 30
0.0
  9
$UCSORGBOTTOM
 10
0.0
 20
0.0
 30
0.0
  9
$UCSORGLEFT
 10
0.0
 20
0.0
 30
0.0
  9
$UCSORGRIGHT
 10
0.0
 20
0.0
 30
0.0
  9
$UCSORGFRONT
 10
0.0
 20
0.0
 30
0.0
  9
$UCSORGBACK
 10
0.0
 20
0.0
 30
0.0
  9
$PUCSBASE
  2

  9
$PUCSNAME
  2

  9
$PUCSORG
 10
0.0
 20
0.0
 30
0.0
  9
$PUCSXDIR
 10
1.0
 20
0.0
 30
0.0
  9
$PUCSYDIR
 10
0.0
 20
1.0
 30
0.0
  9
$PUCSORTHOREF
  2

  9
$PUCSORTHOVIEW
 70
     0
  9
$PUCSORGTOP
 10
0.0
 20
0.0
 30
0.0
  9
$PUCSORGBOTTOM
 10
0.0
 20
0.0
 30
0.0
  9
$PUCSORGLEFT
 10
0.0
 20
0.0
 30
0.0
  9
$PUCSORGRIGHT
 10
0.0
 20
0.0
 30
0.0
  9
$PUCSORGFRONT
 10
0.0
 20
0.0
 30
0.0
  9
$PUCSORGBACK
 10
0.0
 20
0.0
 30
0.0
  9
$USERI1
 70
     0
  9
$USERI2
 70
     0
  9
$USERI3
 70
     0
  9
$USERI4
 70
     0
  9
$USERI5
 70
     0
  9
$USERR1
 40
0.0
  9
$USERR2
 40
0.0
  9
$USERR3
 40
0.0
  9
$USERR4
 40
0.0
  9
$USERR5
 40
0.0
  9
$WORLDVIEW
 70
     1
  9
$SHADEDGE
 70
     3
  9
$SHADEDIF
 70
    70
  9
$TILEMODE
 70
     1
  9
$MAXACTVP
 70
    64
  9
$PINSBASE
 10
0.0
 20
0.0
 30
0.0
  9
$PLIMCHECK
 70
     0
  9
$PEXTMIN
 10
1.0000000000E+20
 20
1.0000000000E+20
 30
1.0000000000E+20
  9
$PEXTMAX
 10
-1.0000000000E+20
 20
-1.0000000000E+20
 30
-1.0000000000E+20
  9
$PLIMMIN
 10
0.0
 20
0.0
  9
$PLIMMAX
 10
420.0
 20
297.0
  9
$UNITMODE
 70
     0
  9
$VISRETAIN
 70
     1
  9
$PLINEGEN
 70
     0
  9
$PSLTSCALE
 70
     1
  9
$TREEDEPTH
 70
  3020
  9
$CMLSTYLE
  2
Standard
  9
$CMLJUST
 70
     0
  9
$CMLSCALE
 40
20.0
  9
$PROXYGRAPHICS
 70
     1
  9
$MEASUREMENT
 70
     1
  9
$CELWEIGHT
370
    -1
  9
$ENDCAPS
280
     0
  9
$JOINSTYLE
280
     0
  9
$LWDISPLAY
290
     1
  9
$INSUNITS
 70
     4
  9
$HYPERLINKBASE
  1

  9
$STYLESHEET
  1

  9
$XEDIT
290
     1
  9
$CEPSNTYPE
380
     0
  9
$PSTYLEMODE
290
     1
  9
$FINGERPRINTGUID
  2
{ce92abde-7948-4c2b-90ab-2e4828cc0c7d}
  9
$VERSIONGUID
  2
{FAEB1C32-E019-11D5-929B-00C0DF256EC4}
  9
$EXTNAMES
290
     1
  9
$PSVPSCALE
 40
0.0
  9
$OLESTARTUP
290
     0
  0
ENDSEC
  0
SECTION
  2
CLASSES
  0
CLASS
  1
ACDBDICTIONARYWDFLT
  2
AcDbDictionaryWithDefault
  3
ObjectDBX Classes
 90
        0
280
     0
281
     0
  0
CLASS
  1
VISUALSTYLE
  2
AcDbVisualStyle
  3
ObjectDBX Classes
 90
     4095
280
     0
281
     0
  0
CLASS
  1
MATERIAL
  2
AcDbMaterial
  3
ObjectDBX Classes
 90
     1153
280
     0
281
     0
  0
CLASS
  1
SCALE
  2
AcDbScale
  3
ObjectDBX Classes
 90
     1153
280
     0
281
     0
  0
CLASS
  1
TABLESTYLE
  2
AcDbTableStyle
  3
ObjectDBX Classes
 90
     4095
280
     0
281
     0
  0
CLASS
  1
MLEADERSTYLE
  2
AcDbMLeaderStyle
  3
ACDB_MLEADERSTYLE_CLASS
 90
     4095
280
     0
281
     0
  0
CLASS
  1
SUN
  2
AcDbSun
  3
SCENEOE
 90
     1153
280
     0
281
     0
  0
CLASS
  1
ACDBPLACEHOLDER
  2
AcDbPlaceHolder
  3
ObjectDBX Classes
 90
        0
280
     0
281
     0
  0
CLASS
  1
LAYOUT
  2
AcDbLayout
  3
ObjectDBX Classes
 90
        0
280
     0
281
     0
  0
ENDSEC
  0
SECTION
  2
TABLES
  0
TABLE
  2
VPORT
  5
8
330
0
100
AcDbSymbolTable
 70
     1
  0
VPORT
  5
29
330
8
100
AcDbSymbolTableRecord
100
AcDbViewportTableRecord
  2
*Active
 70
     0
 10
0.0
 20
0.0
 11
1.0
 21
1.0
 12
215.9
 22
139.7
 13
0.0
 23
0.0
 14
10.0
 24
10.0
 15
10.0
 25
10.0
 16
0.0
 26
0.0
 36
1.0
 17
0.0
 27
0.0
 37
0.0
 40
279.4
 41
1.5454545455
 42
50.0
 43
0.0
 44
0.0
 50
0.0
 51
0.0
 71
     0
 72
  2000
 73
     1
 74
     3
 75
     0
 76
     0
 77
     0
 78
     0
281
     0
 65
     1
110
0.0
120
0.0
130
0.0
111
1.0
121
0.0
131
0.0
112
0.0
122
1.0
132
0.0
 79
     0
146
0.0
  0
ENDTAB
  0
TABLE
  2
LTYPE
  5
5
330
0
100
AcDbSymbolTable
 70
     6
  0
LTYPE
  5
14
330
5
100
AcDbSymbolTableRecord
100
AcDbLinetypeTableRecord
  2
ByBlock
 70
     0
  3

 72
    65
 73
     0
 40
0.0
  0
LTYPE
  5
15
330
5
100
AcDbSymbolTableRecord
100
AcDbLinetypeTableRecord
  2
ByLayer
 70
     0
  3

 72
    65
 73
     0
 40
0.0
  0
LTYPE
  5
16
330
5
100
AcDbSymbolTableRecord
100
AcDbLinetypeTableRecord
  2
Continuous
 70
     0
  3
Solid line
 72
    65
 73
     0
 40
0.0
  0
LTYPE
  5
6E
330
5
100
AcDbSymbolTableRecord
100
AcDbLinetypeTableRecord
  2
HIDDEN
 70
     0
  3
Hidden __ __ __ __ __ __ __ __ __ __ __ __ __ __
 72
    65
 73
     2
 40
1.905
 49
1.27
 74
     0
 49
-0.635
 74
     0
  0
LTYPE
  5
6F
330
5
100
AcDbSymbolTableRecord
100
AcDbLinetypeTableRecord
  2
PHANTOM
 70
     0
  3
Phantom ______  __  __  ______  __  __  ______
 72
    65
 73
     6
 40
12.7
 49
6.35
 74
     0
 49
-1.27
 74
     0
 49
1.27
 74
     0
 49
-1.27
 74
     0
 49
1.27
 74
     0
 49
-1.27
 74
     0
  0
LTYPE
  5
70
330
5
100
AcDbSymbolTableRecord
100
AcDbLinetypeTableRecord
  2
CENTER
 70
     0
  3
Center ____ _ ____ _ ____ _ ____ _ ____ _ ____
 72
    65
 73
     4
 40
10.16
 49
6.35
 74
     0
 49
-1.27
 74
     0
 49
1.27
 74
     0
 49
-1.27
 74
     0
  0
LTYPE
  5
71
330
5
100
AcDbSymbolTableRecord
100
AcDbLinetypeTableRecord
  2
CENTERX2
 70
     0
  3
Center (2x) ________  __  ________  __  _____
 72
    65
 73
     4
 40
20.32
 49
12.7
 74
     0
 49
-2.54
 74
     0
 49
2.54
 74
     0
 49
-2.54
 74
     0
  0
LTYPE
  5
72
330
5
100
AcDbSymbolTableRecord
100
AcDbLinetypeTableRecord
  2
DOT2
 70
     0
  3
Dot (.5x) ........................................
 72
    65
 73
     2
 40
0.635
 49
0.0
 74
     0
 49
-0.635
 74
     0
  0
ENDTAB
  0
TABLE
  2
LAYER
  5
2
330
0
100
AcDbSymbolTable
 70
     3
  0
LAYER
  5
10
330
2
100
AcDbSymbolTableRecord
100
AcDbLayerTableRecord
  2
0
 70
     0
 62
     7
  6
Continuous
370
    -3
390
F
  0
LAYER
  5
73
330
2
100
AcDbSymbolTableRecord
100
AcDbLayerTableRecord
  2
FRAME_&_TABLE
 70
     0
 62
     8
  6
Continuous
370
    50
390
F
  0
LAYER
  5
74
330
2
100
AcDbSymbolTableRecord
100
AcDbLayerTableRecord
  2
DIMENSIONS
 70
     0
 62
     7
  6
Continuous
370
    -3
390
F
  0
ENDTAB
  0
TABLE
  2
STYLE
  5
3
330
0
100
AcDbSymbolTable
 70
     1
  0
STYLE
  5
11
330
3
100
AcDbSymbolTableRecord
100
AcDbTextStyleTableRecord
  2
Standard
 70
     0
 40
0.0
 41
1.0
 50
0.0
 71
     0
 42
3.8805555556
  3
txt
  4

  0
ENDTAB
  0
TABLE
  2
VIEW
  5
6
330
0
100
AcDbSymbolTable
 70
     0
  0
ENDTAB
  0
TABLE
  2
UCS
  5
7
330
0
100
AcDbSymbolTable
 70
     0
  0
ENDTAB
  0
TABLE
  2
APPID
  5
9
330
0
100
AcDbSymbolTable
 70
     1
  0
APPID
  5
12
330
9
100
AcDbSymbolTableRecord
100
AcDbRegAppTableRecord
  2
ACAD
 70
     0
  0
ENDTAB
  0
TABLE
  2
DIMSTYLE
  5
A
330
0
100
AcDbSymbolTable
 70
     1
100
AcDbDimStyleTable
  0
DIMSTYLE
105
27
330
A
100
AcDbSymbolTableRecord
100
AcDbDimStyleTableRecord
  2
ISO-25
 70
     0
 41
2.5
 42
0.625
 43
3.75
 44
1.25
 73
     0
 74
     0
 77
     1
 78
     8
140
2.5
141
2.5
143
0.0393700787
147
0.625
171
     3
172
     1
178
     0
271
     2
272
     2
274
     3
278
    44
283
     0
284
     8
340
11
  0
ENDTAB
  0
TABLE
  2
BLOCK_RECORD
  5
1
330
0
100
AcDbSymbolTable
 70
     1
  0
BLOCK_RECORD
  5
1F
330
1
100
AcDbSymbolTableRecord
100
AcDbBlockTableRecord
  2
*Model_Space
340
22
  0
BLOCK_RECORD
  5
1B
330
1
100
AcDbSymbolTableRecord
100
AcDbBlockTableRecord
  2
*Paper_Space
340
1E
  0
BLOCK_RECORD
  5
23
330
1
100
AcDbSymbolTableRecord
100
AcDbBlockTableRecord
  2
*Paper_Space0
340
26
  0
ENDTAB
  0
ENDSEC
  0
SECTION
  2
BLOCKS
  0
BLOCK
  5
20
330
1F
100
AcDbEntity
  8
0
100
AcDbBlockBegin
  2
*Model_Space
 70
     0
 10
0.0
 20
0.0
 30
0.0
  3
*Model_Space
  1

  0
ENDBLK
  5
21
330
1F
100
AcDbEntity
  8
0
100
AcDbBlockEnd
  0
BLOCK
  5
1C
330
1B
100
AcDbEntity
 67
     1
  8
0
100
AcDbBlockBegin
  2
*Paper_Space
 70
     0
 10
0.0
 20
0.0
 30
0.0
  3
*Paper_Space
  1

  0
ENDBLK
  5
1D
330
1B
100
AcDbEntity
 67
     1
  8
0
100
AcDbBlockEnd
  0
BLOCK
  5
24
330
23
100
AcDbEntity
  8
0
100
AcDbBlockBegin
  2
*Paper_Space0
 70
     0
 10
0.0
 20
0.0
 30
0.0
  3
*Paper_Space0
  1

  0
ENDBLK
  5
25
330
23
100
AcDbEntity
  8
0
100
AcDbBlockEnd
  0
ENDSEC
  0
SECTION
  2
ENTITIES
  0
LINE
  5
75
330
1F
100
AcDbEntity
  8
0
  6
Continuous
 62
     7
370
    25
100
AcDbLine
 10
-70.780824713
 20
172.4799719953
 30
0.0
 11
-70.780824713
 21
172.0099719953
 31
0.0
  0
LINE
  5
76
330
1F
100
AcDbEntity
  8
0
  6
Continuous
 62
     7
370
    25
100
AcDbLine
 10
-59.440824713
 20
172.0099719953
 30
0.0
 11
-59.440824713
 21
172.4799719953
 31
0.0
  0
LINE
  5
77
330
1F
100
AcDbEntity
  8
0
  6
Continuous
 62
     7
370
    25
100
AcDbLine
 10
-59.440824713
 20
126.5399719953
 30
0.0
 11
-59.440824713
 21
127.0099719953
 31
0.0
  0
LINE
  5
78
330
1F
100
AcDbEntity
  8
0
  6
Continuous
 62
     7
370
    25
100
AcDbLine
 10
-70.780824713
 20
127.0099719953
 30
0.0
 11
-70.780824713
 21
126.5399719953
 31
0.0
  0
LINE
  5
79
330
1F
100
AcDbEntity
  8
0
  6
Continuous
 62
     7
370
    25
100
AcDbLine
 10
38.2092811329
 20
126.5399719953
 30
0.0
 11
38.2092811329
 21
127.0099719953
 31
0.0
  0
LINE
  5
7A
330
1F
100
AcDbEntity
  8
0
  6
Continuous
 62
     7
370
    25
100
AcDbLine
 10
38.2092811329
 20
172.0099719953
 30
0.0
 11
38.2092811329
 21
172.4799719953
 31
0.0
  0
ARC
  5
7B
330
1F
100
AcDbEntity
  8
0
  6
Continuous
 62
     7
370
    25
100
AcDbCircle
 10
517.3871493056
 20
141.0099719953
 30
0.0
 40
16.29605263157898
100
AcDbArc
 50
315.1144932694
 51
0.0
  0
ARC
  5
7C
330
1F
100
AcDbEntity
  8
0
  6
Continuous
 62
     7
370
    25
100
AcDbCircle
 10
518.9792545688
 20
141.0099719953
 30
0.0
 40
16.29605263157893
100
AcDbArc
 50
180.0
 51
224.8855067306
  0
LINE
  5
7D
330
1F
100
AcDbEntity
  8
0
  6
Continuous
 62
     7
370
    25
100
AcDbLine
 10
502.6832019372
 20
142.0099719953
 30
0.0
 11
502.6832019372
 21
141.0099719953
 31
0.0
  0
LINE
  5
7E
330
1F
100
AcDbEntity
  8
0
  6
Continuous
 62
     7
370
    25
100
AcDbLine
 10
533.6832019372
 20
141.0099719953
 30
0.0
 11
533.6832019372
 21
142.0099719953
 31
0.0
  0
ARC
  5
7F
330
1F
100
AcDbEntity
  8
0
  6
Continuous
 62
     7
370
    25
100
AcDbCircle
 10
518.9792545688
 20
158.0099719953
 30
0.0
 40
16.29605263157892
100
AcDbArc
 50
135.1144932694
 51
180.0
  0
ARC
  5
80
330
1F
100
AcDbEntity
  8
0
  6
Continuous
 62
     7
370
    25
100
AcDbCircle
 10
517.3871493056
 20
158.0099719953
 30
0.0
 40
16.29605263157896
100
AcDbArc
 50
0.0
 51
44.8855067306
  0
LINE
  5
81
330
1F
100
AcDbEntity
  8
0
  6
Continuous
 62
     7
370
    25
100
AcDbLine
 10
533.6832019372
 20
157.0099719953
 30
0.0
 11
533.6832019372
 21
158.0099719953
 31
0.0
  0
LINE
  5
82
330
1F
100
AcDbEntity
  8
0
  6
Continuous
 62
     7
370
    25
100
AcDbLine
 10
502.6832019372
 20
158.0099719953
 30
0.0
 11
502.6832019372
 21
157.0099719953
 31
0.0
  0
ARC
  5
83
330
1F
100
AcDbEntity
  8
0
  6
Continuous
 62
     7
370
    25
100
AcDbCircle
 10
502.7693696282
 20
142.6193469953
 30
0.0
 40
29.89062499999999
100
AcDbArc
 50
79.5054844951
 51
100.4945155049
  0
ARC
  5
84
330
1F
100
AcDbEntity
  8
0
  6
Continuous
 62
     7
370
    25
100
AcDbCircle
 10
528.3332019372
 20
170.0951220143
 30
0.0
 40
0.6000000000000505
100
AcDbArc
 50
0.0
 51
69.724946748
  0
ARC
  5
85
330
1F
100
AcDbEntity
  8
0
  6
Continuous
 62
     7
370
    25
100
AcDbCircle
 10
508.0332019372
 20
170.0951220143
 30
0.0
 40
0.6000000000000796
100
AcDbArc
 50
110.275053252
 51
180.0
  0
LINE
  5
86
330
1F
100
AcDbEntity
  8
0
  6
Continuous
 62
     7
370
    25
100
AcDbLine
 10
528.9332019372
 20
169.5099719953
 30
0.0
 11
528.9332019372
 21
170.0951220143
 31
0.0
  0
LINE
  5
87
330
1F
100
AcDbEntity
  8
0
  6
Continuous
 62
     7
370
    25
100
AcDbLine
 10
507.4332019372
 20
170.0951220143
 30
0.0
 11
507.4332019372
 21
169.5099719953
 31
0.0
  0
ARC
  5
88
330
1F
100
AcDbEntity
  8
0
  6
Continuous
 62
     7
370
    25
100
AcDbCircle
 10
518.1832019372
 20
142.6193469953
 30
0.0
 40
29.89062499999999
100
AcDbArc
 50
69.724946748
 51
110.275053252
  0
LINE
  5
89
330
1F
100
AcDbEntity
  8
0
  6
Continuous
 62
     7
370
    25
100
AcDbLine
 10
507.4332019372
 20
129.5099719953
 30
0.0
 11
507.4332019372
 21
128.9248219764
 31
0.0
  0
LINE
  5
8A
330
1F
100
AcDbEntity
  8
0
  6
Continuous
 62
     7
370
    25
100
AcDbLine
 10
528.9332019372
 20
128.9248219764
 30
0.0
 11
528.9332019372
 21
129.5099719953
 31
0.0
  0
ARC
  5
8B
330
1F
100
AcDbEntity
  8
0
  6
Continuous
 62
     7
370
    25
100
AcDbCircle
 10
508.0332019372
 20
128.9248219764
 30
0.0
 40
0.6000000000000796
100
AcDbArc
 50
180.0
 51
249.724946748
  0
ARC
  5
8C
330
1F
100
AcDbEntity
  8
0
  6
Continuous
 62
     7
370
    25
100
AcDbCircle
 10
528.3332019372
 20
128.9248219764
 30
0.0
 40
0.6000000000000238
100
AcDbArc
 50
290.275053252
 51
0.0
  0
ARC
  5
8D
330
1F
100
AcDbEntity
  8
0
  6
Continuous
 62
     7
370
    25
100
AcDbCircle
 10
518.1832019372
 20
156.4005969953
 30
0.0
 40
29.89062499999996
100
AcDbArc
 50
249.724946748
 51
290.275053252
  0
ARC
  5
8E
330
1F
100
AcDbEntity
  8
0
  6
Continuous
 62
     7
370
    25
100
AcDbCircle
 10
502.7693696282
 20
156.4005969953
 30
0.0
 40
29.89062499999997
100
AcDbArc
 50
259.5054844951
 51
280.4945155049
  0
LINE
  5
8F
330
1F
100
AcDbEntity
  8
0
  6
Continuous
 62
     7
370
    25
100
AcDbLine
 10
-73.7737810374
 20
114.5107412543
 30
0.0
 11
-73.7737810374
 21
53.0099719953
 31
0.0
  0
LINE
  5
90
330
1F
100
AcDbEntity
  8
0
  6
Continuous
 62
     7
370
    25
100
AcDbLine
 10
-39.7737810374
 20
53.0099719953
 30
0.0
 11
-39.7737810374
 21
109.3168064911
 31
0.0
  0
ARC
  5
91
330
1F
100
AcDbEntity
  8
0
  6
Continuous
 62
     7
370
    25
100
AcDbCircle
 10
-72.7737810374
 20
53.0099719953
 30
0.0
 40
1.000000000000014
100
AcDbArc
 50
180.0
 51
270.0
  0
ARC
  5
92
330
1F
100
AcDbEntity
  8
0
  6
Continuous
 62
     7
370
    25
100
AcDbCircle
 10
-40.7737810374
 20
53.0099719953
 30
0.0
 40
1.0
100
AcDbArc
 50
270.0
 51
0.0
  0
LINE
  5
93
330
1F
100
AcDbEntity
  8
0
  6
Continuous
 62
     7
370
    25
100
AcDbLine
 10
35.9675231042
 20
157.0099719953
 30
0.0
 11
35.9675231042
 21
160.0099719953
 31
0.0
  0
LINE
  5
94
330
1F
100
AcDbEntity
  8
0
  6
Continuous
 62
     7
370
    25
100
AcDbLine
 10
-12.0324768958
 20
160.0099719953
 30
0.0
 11
-12.0324768958
 21
157.0099719953
 31
0.0
  0
ARC
  5
95
330
1F
100
AcDbEntity
  8
0
  6
Continuous
 62
     7
370
    25
100
AcDbCircle
 10
32.9675231042
 20
160.0099719953
 30
0.0
 40
3.0
100
AcDbArc
 50
0.0
 51
90.0
  0
ARC
  5
96
330
1F
100
AcDbEntity
  8
0
  6
Continuous
 62
     7
370
    25
100
AcDbCircle
 10
-9.0324768958
 20
160.0099719953
 30
0.0
 40
3.000000000000004
100
AcDbArc
 50
90.0
 51
180.0
  0
ARC
  5
97
330
1F
100
AcDbEntity
  8
0
  6
Continuous
 62
     7
370
    25
100
AcDbCircle
 10
31.9675231042
 20
166.0099719953
 30
0.0
 40
3.0
100
AcDbArc
 50
180.0
 51
270.0
  0
ARC
  5
98
330
1F
100
AcDbEntity
  8
0
  6
Continuous
 62
     7
370
    25
100
AcDbCircle
 10
-8.0324768958
 20
166.0099719953
 30
0.0
 40
3.000000000000003
100
AcDbArc
 50
270.0
 51
0.0
  0
ARC
  5
99
330
1F
100
AcDbEntity
  8
0
  6
Continuous
 62
     7
370
    25
100
AcDbCircle
 10
27.9675231042
 20
246.0099719953
 30
0.0
 40
1.000000000000004
100
AcDbArc
 50
0.0
 51
90.0
  0
ARC
  5
9A
330
1F
100
AcDbEntity
  8
0
  6
Continuous
 62
     7
370
    25
100
AcDbCircle
 10
-4.0324768958
 20
246.0099719953
 30
0.0
 40
1.000000000000001
100
AcDbArc
 50
90.0
 51
180.0
  0
LINE
  5
9B
330
1F
100
AcDbEntity
  8
0
  6
Continuous
 62
     7
370
    25
100
AcDbLine
 10
28.9675231042
 20
166.0099719953
 30
0.0
 11
28.9675231042
 21
246.0099719953
 31
0.0
  0
LINE
  5
9C
330
1F
100
AcDbEntity
  8
0
  6
Continuous
 62
     7
370
    25
100
AcDbLine
 10
-5.0324768958
 20
246.0099719953
 30
0.0
 11
-5.0324768958
 21
166.0099719953
 31
0.0
  0
LINE
  5
9D
330
1F
100
AcDbEntity
  8
0
  6
Continuous
 62
     7
370
    25
100
AcDbLine
 10
-39.7737810374
 20
189.7031374995
 30
0.0
 11
-39.7737810374
 21
246.0099719953
 31
0.0
  0
LINE
  5
9E
330
1F
100
AcDbEntity
  8
0
  6
Continuous
 62
     7
370
    25
100
AcDbLine
 10
-73.7737810374
 20
246.0099719953
 30
0.0
 11
-73.7737810374
 21
184.5092027364
 31
0.0
  0
ARC
  5
9F
330
1F
100
AcDbEntity
  8
0
  6
Continuous
 62
     7
370
    25
100
AcDbCircle
 10
-40.7737810374
 20
246.0099719953
 30
0.0
 40
1.0
100
AcDbArc
 50
0.0
 51
90.0
  0
ARC
  5
A0
330
1F
100
AcDbEntity
  8
0
  6
Continuous
 62
     7
370
    25
100
AcDbCircle
 10
-72.7737810374
 20
246.0099719953
 30
0.0
 40
1.000000000000014
100
AcDbArc
 50
90.0
 51
180.0
  0
ARC
  5
A1
330
1F
100
AcDbEntity
  8
0
  6
Continuous
 62
     7
370
    25
100
AcDbCircle
 10
-9.0324768958
 20
139.0099719953
 30
0.0
 40
3.000000000000004
100
AcDbArc
 50
180.0
 51
270.0
  0
ARC
  5
A2
330
1F
100
AcDbEntity
  8
0
  6
Continuous
 62
     7
370
    25
100
AcDbCircle
 10
32.9675231042
 20
139.0099719953
 30
0.0
 40
3.0
100
AcDbArc
 50
270.0
 51
0.0
  0
LINE
  5
A3
330
1F
100
AcDbEntity
  8
0
  6
Continuous
 62
     7
370
    25
100
AcDbLine
 10
-12.0324768958
 20
142.0099719953
 30
0.0
 11
-12.0324768958
 21
139.0099719953
 31
0.0
  0
LINE
  5
A4
330
1F
100
AcDbEntity
  8
0
  6
Continuous
 62
     7
370
    25
100
AcDbLine
 10
35.9675231042
 20
139.0099719953
 30
0.0
 11
35.9675231042
 21
142.0099719953
 31
0.0
  0
ARC
  5
A5
330
1F
100
AcDbEntity
  8
0
  6
Continuous
 62
     7
370
    25
100
AcDbCircle
 10
-8.0324768958
 20
133.0099719953
 30
0.0
 40
3.000000000000003
100
AcDbArc
 50
0.0
 51
90.0
  0
ARC
  5
A6
330
1F
100
AcDbEntity
  8
0
  6
Continuous
 62
     7
370
    25
100
AcDbCircle
 10
31.9675231042
 20
133.0099719953
 30
0.0
 40
3.0
100
AcDbArc
 50
90.0
 51
180.0
  0
ARC
  5
A7
330
1F
100
AcDbEntity
  8
0
  6
Continuous
 62
     7
370
    25
100
AcDbCircle
 10
-4.0324768958
 20
53.0099719953
 30
0.0
 40
1.000000000000001
100
AcDbArc
 50
180.0
 51
270.0
  0
ARC
  5
A8
330
1F
100
AcDbEntity
  8
0
  6
Continuous
 62
     7
370
    25
100
AcDbCircle
 10
27.9675231042
 20
53.0099719953
 30
0.0
 40
1.000000000000004
100
AcDbArc
 50
270.0
 51
0.0
  0
LINE
  5
A9
330
1F
100
AcDbEntity
  8
0
  6
Continuous
 62
     7
370
    25
100
AcDbLine
 10
-5.0324768958
 20
133.0099719953
 30
0.0
 11
-5.0324768958
 21
53.0099719953
 31
0.0
  0
LINE
  5
AA
330
1F
100
AcDbEntity
  8
0
  6
Continuous
 62
     7
370
    25
100
AcDbLine
 10
28.9675231042
 20
53.0099719953
 30
0.0
 11
28.9675231042
 21
133.0099719953
 31
0.0
  0
ARC
  5
AB
330
1F
100
AcDbEntity
  8
0
  6
Continuous
 62
     7
370
    25
100
AcDbCircle
 10
35.9675231042
 20
35.8496731714
 30
0.0
 40
1.0
100
AcDbArc
 50
279.5630855191
 51
0.0
  0
ARC
  5
AC
330
1F
100
AcDbEntity
  8
0
  6
Continuous
 62
     7
370
    25
100
AcDbCircle
 10
-12.0324768958
 20
35.8496731714
 30
0.0
 40
1.0
100
AcDbArc
 50
180.0
 51
260.4369144809
  0
ARC
  5
AD
330
1F
100
AcDbEntity
  8
0
  6
Continuous
 62
     7
370
    25
100
AcDbCircle
 10
35.9675231042
 20
38.629772673
 30
0.0
 40
1.00000000000001
100
AcDbArc
 50
0.0
 51
41.6335393366
  0
ARC
  5
AE
330
1F
100
AcDbEntity
  8
0
  6
Continuous
 62
     7
370
    25
100
AcDbCircle
 10
-12.0324768958
 20
38.629772673
 30
0.0
 40
1.000000000000011
100
AcDbArc
 50
138.3664606634
 51
180.0
  0
LINE
  5
AF
330
1F
100
AcDbEntity
  8
0
  6
Continuous
 62
     7
370
    25
100
AcDbLine
 10
-13.0324768958
 20
38.629772673
 30
0.0
 11
-13.0324768958
 21
35.8496731714
 31
0.0
  0
LINE
  5
B0
330
1F
100
AcDbEntity
  8
0
  6
Continuous
 62
     7
370
    25
100
AcDbLine
 10
36.9675231042
 20
35.8496731714
 30
0.0
 11
36.9675231042
 21
38.629772673
 31
0.0
  0
LINE
  5
B1
330
1F
100
AcDbEntity
  8
0
  6
Continuous
 62
     7
370
    25
100
AcDbLine
 10
36.7149324229
 20
39.2941365118
 30
0.0
 11
29.2201137855
 21
47.7258074789
 31
0.0
  0
LINE
  5
B2
330
1F
100
AcDbEntity
  8
0
  6
Continuous
 62
     7
370
    25
100
AcDbLine
 10
-5.2850675771
 20
47.7258074789
 30
0.0
 11
-12.7798862145
 21
39.2941365118
 31
0.0
  0
ARC
  5
B3
330
1F
100
AcDbEntity
  8
0
  6
Continuous
 62
     7
370
    25
100
AcDbCircle
 10
-1.993815998
 20
95.4352418707
 30
0.0
 40
61.4252820418894
100
AcDbArc
 50
260.4369144809
 51
269.963938197
  0
ARC
  5
B4
330
1F
100
AcDbEntity
  8
0
  6
Continuous
 62
     7
370
    25
100
AcDbCircle
 10
25.9288622065
 20
95.4352418707
 30
0.0
 40
61.4252820418894
100
AcDbArc
 50
270.036061803
 51
279.5630855191
  0
ARC
  5
B5
330
1F
100
AcDbEntity
  8
0
  6
Continuous
 62
     7
370
    25
100
AcDbCircle
 10
-6.0324768958
 20
48.3901713177
 30
0.0
 40
1.000000000000006
100
AcDbArc
 50
318.3664606634
 51
0.0
  0
ARC
  5
B6
330
1F
100
AcDbEntity
  8
0
  6
Continuous
 62
     7
370
    25
100
AcDbCircle
 10
29.9675231042
 20
48.3901713177
 30
0.0
 40
1.0
100
AcDbArc
 50
180.0
 51
221.6335393366
  0
LINE
  5
B7
330
1F
100
AcDbEntity
  8
0
  6
Continuous
 62
     7
370
    25
100
AcDbLine
 10
-5.0324768958
 20
51.0099719953
 30
0.0
 11
-5.0324768958
 21
48.3901713177
 31
0.0
  0
LINE
  5
B8
330
1F
100
AcDbEntity
  8
0
  6
Continuous
 62
     7
370
    25
100
AcDbLine
 10
28.9675231042
 20
48.3901713177
 30
0.0
 11
28.9675231042
 21
51.0099719953
 31
0.0
  0
ARC
  5
B9
330
1F
100
AcDbEntity
  8
0
  6
Continuous
 62
     7
370
    25
100
AcDbCircle
 10
-4.0324768958
 20
51.0099719953
 30
0.0
 40
1.000000000000001
100
AcDbArc
 50
90.0
 51
180.0
  0
ARC
  5
BA
330
1F
100
AcDbEntity
  8
0
  6
Continuous
 62
     7
370
    25
100
AcDbCircle
 10
27.9675231042
 20
51.0099719953
 30
0.0
 40
1.000000000000004
100
AcDbArc
 50
0.0
 51
90.0
  0
ARC
  5
BB
330
1F
100
AcDbEntity
  8
0
  6
Continuous
 62
     7
370
    25
100
AcDbCircle
 10
-32.7737810374
 20
35.8496731714
 30
0.0
 40
1.000000000000004
100
AcDbArc
 50
279.5630855191
 51
0.0
  0
ARC
  5
BC
330
1F
100
AcDbEntity
  8
0
  6
Continuous
 62
     7
370
    25
100
AcDbCircle
 10
-80.7737810374
 20
35.8496731714
 30
0.0
 40
1.0
100
AcDbArc
 50
180.0
 51
260.4369144809
  0
LINE
  5
BD
330
1F
100
AcDbEntity
  8
0
  6
Continuous
 62
     7
370
    25
100
AcDbLine
 10
-81.7737810374
 20
38.629772673
 30
0.0
 11
-81.7737810374
 21
35.8496731714
 31
0.0
  0
LINE
  5
BE
330
1F
100
AcDbEntity
  8
0
  6
Continuous
 62
     7
370
    25
100
AcDbLine
 10
-31.7737810374
 20
35.8496731714
 30
0.0
 11
-31.7737810374
 21
38.629772673
 31
0.0
  0
ARC
  5
BF
330
1F
100
AcDbEntity
  8
0
  6
Continuous
 62
     7
370
    25
100
AcDbCircle
 10
-32.7737810374
 20
38.629772673
 30
0.0
 40
1.00000000000001
100
AcDbArc
 50
0.0
 51
41.6335393366
  0
ARC
  5
C0
330
1F
100
AcDbEntity
  8
0
  6
Continuous
 62
     7
370
    25
100
AcDbCircle
 10
-80.7737810374
 20
38.629772673
 30
0.0
 40
1.00000000000001
100
AcDbArc
 50
138.3664606634
 51
180.0
  0
LINE
  5
C1
330
1F
100
AcDbEntity
  8
0
  6
Continuous
 62
     7
370
    25
100
AcDbLine
 10
-32.0263717187
 20
39.2941365118
 30
0.0
 11
-39.5211903561
 21
47.7258074789
 31
0.0
  0
LINE
  5
C2
330
1F
100
AcDbEntity
  8
0
  6
Continuous
 62
     7
370
    25
100
AcDbLine
 10
-74.0263717187
 20
47.7258074789
 30
0.0
 11
-81.5211903561
 21
39.2941365118
 31
0.0
  0
ARC
  5
C3
330
1F
100
AcDbEntity
  8
0
  6
Continuous
 62
     7
370
    25
100
AcDbCircle
 10
-70.7351201396
 20
95.4352418707
 30
0.0
 40
61.42528204188941
100
AcDbArc
 50
260.4369144809
 51
269.963938197
  0
ARC
  5
C4
330
1F
100
AcDbEntity
  8
0
  6
Continuous
 62
     7
370
    25
100
AcDbCircle
 10
-42.8124419351
 20
95.4352418707
 30
0.0
 40
61.4252820418894
100
AcDbArc
 50
270.036061803
 51
279.5630855191
  0
ARC
  5
C5
330
1F
100
AcDbEntity
  8
0
  6
Continuous
 62
     7
370
    25
100
AcDbCircle
 10
-74.7737810374
 20
48.3901713177
 30
0.0
 40
1.0
100
AcDbArc
 50
318.3664606634
 51
0.0
  0
ARC
  5
C6
330
1F
100
AcDbEntity
  8
0
  6
Continuous
 62
     7
370
    25
100
AcDbCircle
 10
-38.7737810374
 20
48.3901713177
 30
0.0
 40
1.00000000000001
100
AcDbArc
 50
180.0
 51
221.6335393366
  0
LINE
  5
C7
330
1F
100
AcDbEntity
  8
0
  6
Continuous
 62
     7
370
    25
100
AcDbLine
 10
-73.7737810374
 20
51.0099719953
 30
0.0
 11
-73.7737810374
 21
48.3901713177
 31
0.0
  0
LINE
  5
C8
330
1F
100
AcDbEntity
  8
0
  6
Continuous
 62
     7
370
    25
100
AcDbLine
 10
-39.7737810374
 20
48.3901713177
 30
0.0
 11
-39.7737810374
 21
51.0099719953
 31
0.0
  0
ARC
  5
C9
330
1F
100
AcDbEntity
  8
0
  6
Continuous
 62
     7
370
    25
100
AcDbCircle
 10
-72.7737810374
 20
51.0099719953
 30
0.0
 40
1.000000000000014
100
AcDbArc
 50
90.0
 51
180.0
  0
ARC
  5
CA
330
1F
100
AcDbEntity
  8
0
  6
Continuous
 62
     7
370
    25
100
AcDbCircle
 10
-40.7737810374
 20
51.0099719953
 30
0.0
 40
1.0
100
AcDbArc
 50
0.0
 51
90.0
  0
ARC
  5
CB
330
1F
100
AcDbEntity
  8
0
  6
Continuous
 62
     7
370
    25
100
AcDbCircle
 10
-80.7737810374
 20
263.1702708193
 30
0.0
 40
1.0
100
AcDbArc
 50
99.5630855191
 51
180.0
  0
ARC
  5
CC
330
1F
100
AcDbEntity
  8
0
  6
Continuous
 62
     7
370
    25
100
AcDbCircle
 10
-32.7737810374
 20
263.1702708193
 30
0.0
 40
1.000000000000004
100
AcDbArc
 50
0.0
 51
80.4369144809
  0
ARC
  5
CD
330
1F
100
AcDbEntity
  8
0
  6
Continuous
 62
     7
370
    25
100
AcDbCircle
 10
-80.7737810374
 20
260.3901713177
 30
0.0
 40
1.000000000000029
100
AcDbArc
 50
180.0
 51
221.6335393366
  0
ARC
  5
CE
330
1F
100
AcDbEntity
  8
0
  6
Continuous
 62
     7
370
    25
100
AcDbCircle
 10
-32.7737810374
 20
260.3901713177
 30
0.0
 40
1.000000000000029
100
AcDbArc
 50
318.3664606634
 51
0.0
  0
LINE
  5
CF
330
1F
100
AcDbEntity
  8
0
  6
Continuous
 62
     7
370
    25
100
AcDbLine
 10
-31.7737810374
 20
260.3901713177
 30
0.0
 11
-31.7737810374
 21
263.1702708193
 31
0.0
  0
LINE
  5
D0
330
1F
100
AcDbEntity
  8
0
  6
Continuous
 62
     7
370
    25
100
AcDbLine
 10
-81.7737810374
 20
263.1702708193
 30
0.0
 11
-81.7737810374
 21
260.3901713177
 31
0.0
  0
LINE
  5
D1
330
1F
100
AcDbEntity
  8
0
  6
Continuous
 62
     7
370
    25
100
AcDbLine
 10
-81.5211903561
 20
259.7258074789
 30
0.0
 11
-74.0263717187
 21
251.2941365118
 31
0.0
  0
LINE
  5
D2
330
1F
100
AcDbEntity
  8
0
  6
Continuous
 62
     7
370
    25
100
AcDbLine
 10
-39.5211903561
 20
251.2941365118
 30
0.0
 11
-32.0263717187
 21
259.7258074789
 31
0.0
  0
ARC
  5
D3
330
1F
100
AcDbEntity
  8
0
  6
Continuous
 62
     7
370
    25
100
AcDbCircle
 10
-42.8124419351
 20
203.58470212
 30
0.0
 40
61.42528204188938
100
AcDbArc
 50
80.4369144809
 51
89.963938197
  0
ARC
  5
D4
330
1F
100
AcDbEntity
  8
0
  6
Continuous
 62
     7
370
    25
100
AcDbCircle
 10
-70.7351201396
 20
203.58470212
 30
0.0
 40
61.42528204188939
100
AcDbArc
 50
90.036061803
 51
99.5630855191
  0
ARC
  5
D5
330
1F
100
AcDbEntity
  8
0
  6
Continuous
 62
     7
370
    25
100
AcDbCircle
 10
-38.7737810374
 20
250.629772673
 30
0.0
 40
1.000000000000034
100
AcDbArc
 50
138.3664606634
 51
180.0
  0
ARC
  5
D6
330
1F
100
AcDbEntity
  8
0
  6
Continuous
 62
     7
370
    25
100
AcDbCircle
 10
-74.7737810374
 20
250.629772673
 30
0.0
 40
1.0
100
AcDbArc
 50
0.0
 51
41.6335393366
  0
ARC
  5
D7
330
1F
100
AcDbEntity
  8
0
  6
Continuous
 62
     7
370
    25
100
AcDbCircle
 10
-40.7737810374
 20
248.0099719953
 30
0.0
 40
1.0
100
AcDbArc
 50
270.0
 51
0.0
  0
ARC
  5
D8
330
1F
100
AcDbEntity
  8
0
  6
Continuous
 62
     7
370
    25
100
AcDbCircle
 10
-72.7737810374
 20
248.0099719953
 30
0.0
 40
1.000000000000014
100
AcDbArc
 50
180.0
 51
270.0
  0
LINE
  5
D9
330
1F
100
AcDbEntity
  8
0
  6
Continuous
 62
     7
370
    25
100
AcDbLine
 10
-39.7737810374
 20
248.0099719953
 30
0.0
 11
-39.7737810374
 21
250.629772673
 31
0.0
  0
LINE
  5
DA
330
1F
100
AcDbEntity
  8
0
  6
Continuous
 62
     7
370
    25
100
AcDbLine
 10
-73.7737810374
 20
250.629772673
 30
0.0
 11
-73.7737810374
 21
248.0099719953
 31
0.0
  0
ARC
  5
DB
330
1F
100
AcDbEntity
  8
0
  6
Continuous
 62
     7
370
    25
100
AcDbCircle
 10
-12.0324768958
 20
263.1702708193
 30
0.0
 40
1.0
100
AcDbArc
 50
99.5630855191
 51
180.0
  0
ARC
  5
DC
330
1F
100
AcDbEntity
  8
0
  6
Continuous
 62
     7
370
    25
100
AcDbCircle
 10
35.9675231042
 20
263.1702708193
 30
0.0
 40
1.0
100
AcDbArc
 50
0.0
 51
80.4369144809
  0
ARC
  5
DD
330
1F
100
AcDbEntity
  8
0
  6
Continuous
 62
     7
370
    25
100
AcDbCircle
 10
-12.0324768958
 20
260.3901713177
 30
0.0
 40
1.00000000000003
100
AcDbArc
 50
180.0
 51
221.6335393366
  0
ARC
  5
DE
330
1F
100
AcDbEntity
  8
0
  6
Continuous
 62
     7
370
    25
100
AcDbCircle
 10
35.9675231042
 20
260.3901713177
 30
0.0
 40
1.000000000000029
100
AcDbArc
 50
318.3664606634
 51
0.0
  0
LINE
  5
DF
330
1F
100
AcDbEntity
  8
0
  6
Continuous
 62
     7
370
    25
100
AcDbLine
 10
36.9675231042
 20
260.3901713177
 30
0.0
 11
36.9675231042
 21
263.1702708193
 31
0.0
  0
LINE
  5
E0
330
1F
100
AcDbEntity
  8
0
  6
Continuous
 62
     7
370
    25
100
AcDbLine
 10
-13.0324768958
 20
263.1702708193
 30
0.0
 11
-13.0324768958
 21
260.3901713177
 31
0.0
  0
LINE
  5
E1
330
1F
100
AcDbEntity
  8
0
  6
Continuous
 62
     7
370
    25
100
AcDbLine
 10
-12.7798862145
 20
259.7258074789
 30
0.0
 11
-5.2850675771
 21
251.2941365118
 31
0.0
  0
LINE
  5
E2
330
1F
100
AcDbEntity
  8
0
  6
Continuous
 62
     7
370
    25
100
AcDbLine
 10
29.2201137855
 20
251.2941365118
 30
0.0
 11
36.7149324229
 21
259.7258074789
 31
0.0
  0
ARC
  5
E3
330
1F
100
AcDbEntity
  8
0
  6
Continuous
 62
     7
370
    25
100
AcDbCircle
 10
25.9288622065
 20
203.58470212
 30
0.0
 40
61.42528204188938
100
AcDbArc
 50
80.4369144809
 51
89.963938197
  0
ARC
  5
E4
330
1F
100
AcDbEntity
  8
0
  6
Continuous
 62
     7
370
    25
100
AcDbCircle
 10
-1.993815998
 20
203.58470212
 30
0.0
 40
61.42528204188938
100
AcDbArc
 50
90.036061803
 51
99.5630855191
  0
ARC
  5
E5
330
1F
100
AcDbEntity
  8
0
  6
Continuous
 62
     7
370
    25
100
AcDbCircle
 10
29.9675231042
 20
250.629772673
 30
0.0
 40
1.00000000000001
100
AcDbArc
 50
138.3664606634
 51
180.0
  0
ARC
  5
E6
330
1F
100
AcDbEntity
  8
0
  6
Continuous
 62
     7
370
    25
100
AcDbCircle
 10
-6.0324768958
 20
250.629772673
 30
0.0
 40
1.00000000000003
100
AcDbArc
 50
0.0
 51
41.6335393366
  0
LINE
  5
E7
330
1F
100
AcDbEntity
  8
0
  6
Continuous
 62
     7
370
    25
100
AcDbLine
 10
28.9675231042
 20
248.0099719953
 30
0.0
 11
28.9675231042
 21
250.629772673
 31
0.0
  0
LINE
  5
E8
330
1F
100
AcDbEntity
  8
0
  6
Continuous
 62
     7
370
    25
100
AcDbLine
 10
-5.0324768958
 20
250.629772673
 30
0.0
 11
-5.0324768958
 21
248.0099719953
 31
0.0
  0
ARC
  5
E9
330
1F
100
AcDbEntity
  8
0
  6
Continuous
 62
     7
370
    25
100
AcDbCircle
 10
27.9675231042
 20
248.0099719953
 30
0.0
 40
1.000000000000004
100
AcDbArc
 50
270.0
 51
0.0
  0
ARC
  5
EA
330
1F
100
AcDbEntity
  8
0
  6
Continuous
 62
     7
370
    25
100
AcDbCircle
 10
-4.0324768958
 20
248.0099719953
 30
0.0
 40
1.000000000000001
100
AcDbArc
 50
180.0
 51
270.0
  0
LINE
  5
EB
330
1F
100
AcDbEntity
  8
0
  6
Continuous
 62
     7
370
    25
100
AcDbLine
 10
-1.7824768958
 20
34.0099719953
 30
0.0
 11
-1.7824768958
 21
33.7621176003
 31
0.0
  0
LINE
  5
EC
330
1F
100
AcDbEntity
  8
0
  6
Continuous
 62
     7
370
    25
100
AcDbLine
 10
25.7175231042
 20
33.7621176003
 30
0.0
 11
25.7175231042
 21
34.0099719953
 31
0.0
  0
ARC
  5
ED
330
1F
100
AcDbEntity
  8
0
  6
Continuous
 62
     7
370
    25
100
AcDbCircle
 10
-0.7824768958
 20
33.7621176003
 30
0.0
 40
1.000000000000002
100
AcDbArc
 50
180.0
 51
254.3504861218
  0
ARC
  5
EE
330
1F
100
AcDbEntity
  8
0
  6
Continuous
 62
     7
370
    25
100
AcDbCircle
 10
24.7175231042
 20
33.7621176003
 30
0.0
 40
1.000000000000004
100
AcDbArc
 50
285.6495138782
 51
0.0
  0
ARC
  5
EF
330
1F
100
AcDbEntity
  8
0
  6
Continuous
 62
     7
370
    25
100
AcDbCircle
 10
11.9675231042
 20
79.2755969953
 30
0.0
 40
48.26562500000036
100
AcDbArc
 50
254.3504861218
 51
285.6495138782
  0
LINE
  5
F0
330
1F
100
AcDbEntity
  8
0
  6
Continuous
 62
     7
370
    25
100
AcDbLine
 10
-70.5237810374
 20
34.0099719953
 30
0.0
 11
-70.5237810374
 21
33.7621176003
 31
0.0
  0
LINE
  5
F1
330
1F
100
AcDbEntity
  8
0
  6
Continuous
 62
     7
370
    25
100
AcDbLine
 10
-43.0237810374
 20
33.7621176003
 30
0.0
 11
-43.0237810374
 21
34.0099719953
 31
0.0
  0
ARC
  5
F2
330
1F
100
AcDbEntity
  8
0
  6
Continuous
 62
     7
370
    25
100
AcDbCircle
 10
-69.5237810374
 20
33.7621176003
 30
0.0
 40
1.000000000000003
100
AcDbArc
 50
180.0
 51
254.3504861218
  0
ARC
  5
F3
330
1F
100
AcDbEntity
  8
0
  6
Continuous
 62
     7
370
    25
100
AcDbCircle
 10
-44.0237810374
 20
33.7621176003
 30
0.0
 40
1.000000000000001
100
AcDbArc
 50
285.6495138782
 51
0.0
  0
ARC
  5
F4
330
1F
100
AcDbEntity
  8
0
  6
Continuous
 62
     7
370
    25
100
AcDbCircle
 10
-56.7737810374
 20
79.2755969953
 30
0.0
 40
48.26562500000037
100
AcDbArc
 50
254.3504861218
 51
285.6495138782
  0
LINE
  5
F5
330
1F
100
AcDbEntity
  8
0
  6
Continuous
 62
     7
370
    25
100
AcDbLine
 10
-43.0237810374
 20
265.0099719953
 30
0.0
 11
-43.0237810374
 21
265.2578263903
 31
0.0
  0
LINE
  5
F6
330
1F
100
AcDbEntity
  8
0
  6
Continuous
 62
     7
370
    25
100
AcDbLine
 10
-70.5237810374
 20
265.2578263903
 30
0.0
 11
-70.5237810374
 21
265.0099719953
 31
0.0
  0
ARC
  5
F7
330
1F
100
AcDbEntity
  8
0
  6
Continuous
 62
     7
370
    25
100
AcDbCircle
 10
-44.0237810374
 20
265.2578263903
 30
0.0
 40
1.0
100
AcDbArc
 50
0.0
 51
74.3504861218
  0
ARC
  5
F8
330
1F
100
AcDbEntity
  8
0
  6
Continuous
 62
     7
370
    25
100
AcDbCircle
 10
-69.5237810374
 20
265.2578263903
 30
0.0
 40
1.0
100
AcDbArc
 50
105.6495138782
 51
180.0
  0
ARC
  5
F9
330
1F
100
AcDbEntity
  8
0
  6
Continuous
 62
     7
370
    25
100
AcDbCircle
 10
-56.7737810374
 20
219.7443469953
 30
0.0
 40
48.26562500000037
100
AcDbArc
 50
74.3504861218
 51
105.6495138782
  0
ARC
  5
FA
330
1F
100
AcDbEntity
  8
0
  6
Continuous
 62
     7
370
    25
100
AcDbCircle
 10
24.7175231042
 20
265.2578263903
 30
0.0
 40
1.000000000000004
100
AcDbArc
 50
0.0
 51
74.3504861218
  0
ARC
  5
FB
330
1F
100
AcDbEntity
  8
0
  6
Continuous
 62
     7
370
    25
100
AcDbCircle
 10
-0.7824768958
 20
265.2578263903
 30
0.0
 40
1.000000000000001
100
AcDbArc
 50
105.6495138782
 51
180.0
  0
LINE
  5
FC
330
1F
100
AcDbEntity
  8
0
  6
Continuous
 62
     7
370
    25
100
AcDbLine
 10
25.7175231042
 20
265.0099719953
 30
0.0
 11
25.7175231042
 21
265.2578263903
 31
0.0
  0
LINE
  5
FD
330
1F
100
AcDbEntity
  8
0
  6
Continuous
 62
     7
370
    25
100
AcDbLine
 10
-1.7824768958
 20
265.2578263903
 30
0.0
 11
-1.7824768958
 21
265.0099719953
 31
0.0
  0
ARC
  5
FE
330
1F
100
AcDbEntity
  8
0
  6
Continuous
 62
     7
370
    25
100
AcDbCircle
 10
11.9675231042
 20
219.7443469953
 30
0.0
 40
48.26562500000036
100
AcDbArc
 50
74.3504861218
 51
105.6495138782
  0
LINE
  5
FF
330
1F
100
AcDbEntity
  8
0
  6
Continuous
 62
     7
370
    25
100
AcDbLine
 10
-85.110824713
 20
139.0099719953
 30
0.0
 11
-85.110824713
 21
130.0099719953
 31
0.0
  0
ARC
  5
100
330
1F
100
AcDbEntity
  8
0
  6
Continuous
 62
     7
370
    25
100
AcDbCircle
 10
-82.110824713
 20
130.0099719953
 30
0.0
 40
3.0
100
AcDbArc
 50
180.0
 51
270.0
  0
ARC
  5
101
330
1F
100
AcDbEntity
  8
0
  6
Continuous
 62
     7
370
    25
100
AcDbCircle
 10
-82.110824713
 20
139.0099719953
 30
0.0
 40
3.000000000000028
100
AcDbArc
 50
90.0
 51
180.0
  0
ARC
  5
102
330
1F
100
AcDbEntity
  8
0
  6
Continuous
 62
     7
370
    25
100
AcDbCircle
 10
-82.110824713
 20
169.0099719953
 30
0.0
 40
3.000000000000028
100
AcDbArc
 50
90.0
 51
180.0
  0
ARC
  5
103
330
1F
100
AcDbEntity
  8
0
  6
Continuous
 62
     7
370
    25
100
AcDbCircle
 10
-82.110824713
 20
160.0099719953
 30
0.0
 40
3.0
100
AcDbArc
 50
180.0
 51
270.0
  0
LINE
  5
104
330
1F
100
AcDbEntity
  8
0
  6
Continuous
 62
     7
370
    25
100
AcDbLine
 10
-85.110824713
 20
169.0099719953
 30
0.0
 11
-85.110824713
 21
160.0099719953
 31
0.0
  0
ARC
  5
105
330
1F
100
AcDbEntity
  8
0
  6
Continuous
 62
     7
370
    25
100
AcDbCircle
 10
534.158973082
 20
160.0099719953
 30
0.0
 40
3.0
100
AcDbArc
 50
270.0
 51
0.0
  0
LINE
  5
106
330
1F
100
AcDbEntity
  8
0
  6
Continuous
 62
     7
370
    25
100
AcDbLine
 10
537.158973082
 20
160.0099719953
 30
0.0
 11
537.158973082
 21
169.0099719953
 31
0.0
  0
ARC
  5
107
330
1F
100
AcDbEntity
  8
0
  6
Continuous
 62
     7
370
    25
100
AcDbCircle
 10
534.158973082
 20
169.0099719953
 30
0.0
 40
3.000000000000028
100
AcDbArc
 50
0.0
 51
90.0
  0
LINE
  5
108
330
1F
100
AcDbEntity
  8
0
  6
Continuous
 62
     7
370
    25
100
AcDbLine
 10
537.158973082
 20
130.0099719953
 30
0.0
 11
537.158973082
 21
139.0099719953
 31
0.0
  0
ARC
  5
109
330
1F
100
AcDbEntity
  8
0
  6
Continuous
 62
     7
370
    25
100
AcDbCircle
 10
534.158973082
 20
130.0099719953
 30
0.0
 40
3.0
100
AcDbArc
 50
270.0
 51
0.0
  0
ARC
  5
10A
330
1F
100
AcDbEntity
  8
0
  6
Continuous
 62
     7
370
    25
100
AcDbCircle
 10
534.158973082
 20
139.0099719953
 30
0.0
 40
3.000000000000028
100
AcDbArc
 50
0.0
 51
90.0
  0
LINE
  5
10B
330
1F
100
AcDbEntity
  8
0
  6
Continuous
 62
     7
370
    25
100
AcDbLine
 10
538.1832020075
 20
145.0099719953
 30
0.0
 11
538.1832020075
 21
154.0099719953
 31
0.0
  0
ARC
  5
10C
330
1F
100
AcDbEntity
  8
0
  6
Continuous
 62
     7
370
    25
100
AcDbCircle
 10
535.1832020075
 20
154.0099719953
 30
0.0
 40
3.0
100
AcDbArc
 50
0.0
 51
90.0
  0
ARC
  5
10D
330
1F
100
AcDbEntity
  8
0
  6
Continuous
 62
     7
370
    25
100
AcDbCircle
 10
535.1832020075
 20
145.0099719953
 30
0.0
 40
3.0
100
AcDbArc
 50
270.0
 51
0.0
  0
ARC
  5
10E
330
1F
100
AcDbEntity
  8
0
  6
Continuous
 62
     7
370
    25
100
AcDbCircle
 10
624.280661307
 20
145.0099719953
 30
0.0
 40
3.0
100
AcDbArc
 50
270.0
 51
0.0
  0
ARC
  5
10F
330
1F
100
AcDbEntity
  8
0
  6
Continuous
 62
     7
370
    25
100
AcDbCircle
 10
624.280661307
 20
154.0099719953
 30
0.0
 40
3.0
100
AcDbArc
 50
0.0
 51
90.0
  0
LINE
  5
110
330
1F
100
AcDbEntity
  8
0
  6
Continuous
 62
     7
370
    25
100
AcDbLine
 10
627.280661307
 20
145.0099719953
 30
0.0
 11
627.280661307
 21
154.0099719953
 31
0.0
  0
LINE
  5
111
330
1F
100
AcDbEntity
  8
0
  6
Continuous
 62
     7
370
    25
100
AcDbLine
 10
56.9675231042
 20
145.0099719953
 30
0.0
 11
56.9675231042
 21
154.0099719953
 31
0.0
  0
ARC
  5
112
330
1F
100
AcDbEntity
  8
0
  6
Continuous
 62
     7
370
    25
100
AcDbCircle
 10
53.9675231042
 20
154.0099719953
 30
0.0
 40
3.000000000000007
100
AcDbArc
 50
0.0
 51
90.0
  0
ARC
  5
113
330
1F
100
AcDbEntity
  8
0
  6
Continuous
 62
     7
370
    25
100
AcDbCircle
 10
53.9675231042
 20
145.0099719953
 30
0.0
 40
3.000000000000007
100
AcDbArc
 50
270.0
 51
0.0
  0
ARC
  5
114
330
1F
100
AcDbEntity
  8
0
  6
Continuous
 62
     7
370
    25
100
AcDbCircle
 10
-41.6968347274
 20
154.0099719953
 30
0.0
 40
3.0
100
AcDbArc
 50
90.0
 51
180.0
  0
ARC
  5
115
330
1F
100
AcDbEntity
  8
0
  6
Continuous
 62
     7
370
    25
100
AcDbCircle
 10
-41.6968347274
 20
145.0099719953
 30
0.0
 40
3.0
100
AcDbArc
 50
180.0
 51
270.0
  0
LINE
  5
116
330
1F
100
AcDbEntity
  8
0
  6
Continuous
 62
     7
370
    25
100
AcDbLine
 10
-44.6968347274
 20
154.0099719953
 30
0.0
 11
-44.6968347274
 21
145.0099719953
 31
0.0
  0
LINE
  5
117
330
1F
100
AcDbEntity
  8
0
  6
Continuous
 62
     7
370
    25
100
AcDbLine
 10
-85.110824713
 20
154.0099719953
 30
0.0
 11
-85.110824713
 21
145.0099719953
 31
0.0
  0
ARC
  5
118
330
1F
100
AcDbEntity
  8
0
  6
Continuous
 62
     7
370
    25
100
AcDbCircle
 10
-82.110824713
 20
154.0099719953
 30
0.0
 40
3.0
100
AcDbArc
 50
90.0
 51
180.0
  0
ARC
  5
119
330
1F
100
AcDbEntity
  8
0
  6
Continuous
 62
     7
370
    25
100
AcDbCircle
 10
-82.110824713
 20
145.0099719953
 30
0.0
 40
3.0
100
AcDbArc
 50
180.0
 51
270.0
  0
ARC
  5
11A
330
1F
100
AcDbEntity
  8
0
  6
Continuous
 62
     7
370
    25
100
AcDbCircle
 10
168.2254686525
 20
145.0099719953
 30
0.0
 40
3.0
100
AcDbArc
 50
270.0
 51
0.0
  0
ARC
  5
11B
330
1F
100
AcDbEntity
  8
0
  6
Continuous
 62
     7
370
    25
100
AcDbCircle
 10
168.2254686525
 20
154.0099719953
 30
0.0
 40
3.0
100
AcDbArc
 50
0.0
 51
90.0
  0
LINE
  5
11C
330
1F
100
AcDbEntity
  8
0
  6
Continuous
 62
     7
370
    25
100
AcDbLine
 10
171.2254686525
 20
145.0099719953
 30
0.0
 11
171.2254686525
 21
154.0099719953
 31
0.0
  0
ARC
  5
11D
330
1F
100
AcDbEntity
  8
0
  6
Continuous
 62
     7
370
    25
100
AcDbCircle
 10
-56.9014733451
 20
125.0099719953
 30
0.0
 40
19.87230769230769
100
AcDbArc
 50
180.0
 51
226.9233678463
  0
LWPOLYLINE
  5
11E
330
1F
100
AcDbEntity
  8
0
  6
Continuous
 62
     7
370
    25
100
AcDbPolyline
 90
        3
 70
   128
 43
0.0
 10
-43.0737810374
 20
110.4944259524
 10
-41.9729010321
 20
111.6082491282
 10
-41.6160092843
 20
112.0097671937
  0
LINE
  5
11F
330
1F
100
AcDbEntity
  8
0
  6
Continuous
 62
     7
370
    25
100
AcDbLine
 10
-76.7737810374
 20
127.0099719953
 30
0.0
 11
-76.7737810374
 21
125.0099719953
 31
0.0
  0
ARC
  5
120
330
1F
100
AcDbEntity
  8
0
  6
Continuous
 62
     7
370
    25
100
AcDbCircle
 10
112.3435224976
 20
122.0099719953
 30
0.0
 40
19.87230769230769
100
AcDbArc
 50
180.0
 51
226.9233678463
  0
ARC
  5
121
330
1F
100
AcDbEntity
  8
0
  6
Continuous
 62
     7
370
    25
100
AcDbCircle
 10
112.598907113
 20
122.0099719953
 30
0.0
 40
19.87230769230769
100
AcDbArc
 50
313.0766321537
 51
0.0
  0
LINE
  5
122
330
1F
100
AcDbEntity
  8
0
  6
Continuous
 62
     7
370
    25
100
AcDbLine
 10
92.4712148053
 20
124.0099719953
 30
0.0
 11
92.4712148053
 21
122.0099719953
 31
0.0
  0
LINE
  5
123
330
1F
100
AcDbEntity
  8
0
  6
Continuous
 62
     7
370
    25
100
AcDbLine
 10
132.4712148053
 20
122.0099719953
 30
0.0
 11
132.4712148053
 21
124.0099719953
 31
0.0
  0
LINE
  5
124
330
1F
100
AcDbEntity
  8
0
  6
Continuous
 62
     7
370
    25
100
AcDbLine
 10
-46.4582375313
 20
127.0099719953
 30
0.0
 11
-46.4582375313
 21
125.0099719953
 31
0.0
  0
LINE
  5
125
330
1F
100
AcDbEntity
  8
0
  6
Continuous
 62
     7
370
    25
100
AcDbLine
 10
-6.4582375313
 20
125.0099719953
 30
0.0
 11
-6.4582375313
 21
127.0099719953
 31
0.0
  0
ARC
  5
126
330
1F
100
AcDbEntity
  8
0
  6
Continuous
 62
     7
370
    25
100
AcDbCircle
 10
-26.585929839
 20
125.0099719953
 30
0.0
 40
19.87230769230769
100
AcDbArc
 50
180.0
 51
226.9233678463
  0
ARC
  5
127
330
1F
100
AcDbEntity
  8
0
  6
Continuous
 62
     7
370
    25
100
AcDbCircle
 10
-26.3305452236
 20
125.0099719953
 30
0.0
 40
19.87230769230769
100
AcDbArc
 50
313.0766321537
 51
0.0
  0
ARC
  5
128
330
1F
100
AcDbEntity
  8
0
  6
Continuous
 62
     7
370
    25
100
AcDbCircle
 10
112.598907113
 20
177.0099719953
 30
0.0
 40
19.87230769230769
100
AcDbArc
 50
0.0
 51
46.9233678463
  0
ARC
  5
129
330
1F
100
AcDbEntity
  8
0
  6
Continuous
 62
     7
370
    25
100
AcDbCircle
 10
112.3435224976
 20
177.0099719953
 30
0.0
 40
19.87230769230769
100
AcDbArc
 50
133.0766321537
 51
180.0
  0
LINE
  5
12A
330
1F
100
AcDbEntity
  8
0
  6
Continuous
 62
     7
370
    25
100
AcDbLine
 10
132.4712148053
 20
175.0099719953
 30
0.0
 11
132.4712148053
 21
177.0099719953
 31
0.0
  0
LINE
  5
12B
330
1F
100
AcDbEntity
  8
0
  6
Continuous
 62
     7
370
    25
100
AcDbLine
 10
92.4712148053
 20
177.0099719953
 30
0.0
 11
92.4712148053
 21
175.0099719953
 31
0.0
  0
ARC
  5
12C
330
1F
100
AcDbEntity
  8
0
  6
Continuous
 62
     7
370
    25
100
AcDbCircle
 10
-26.3305452236
 20
174.0099719953
 30
0.0
 40
19.8723076923077
100
AcDbArc
 50
0.0
 51
46.9233678463
  0
ARC
  5
12D
330
1F
100
AcDbEntity
  8
0
  6
Continuous
 62
     7
370
    25
100
AcDbCircle
 10
-26.585929839
 20
174.0099719953
 30
0.0
 40
19.87230769230772
100
AcDbArc
 50
133.0766321537
 51
180.0
  0
LINE
  5
12E
330
1F
100
AcDbEntity
  8
0
  6
Continuous
 62
     7
370
    25
100
AcDbLine
 10
-6.4582375313
 20
172.0099719953
 30
0.0
 11
-6.4582375313
 21
174.0099719953
 31
0.0
  0
LINE
  5
12F
330
1F
100
AcDbEntity
  8
0
  6
Continuous
 62
     7
370
    25
100
AcDbLine
 10
-46.4582375313
 20
174.0099719953
 30
0.0
 11
-46.4582375313
 21
172.0099719953
 31
0.0
  0
LWPOLYLINE
  5
130
330
1F
100
AcDbEntity
  8
0
  6
Continuous
 62
     7
370
    25
100
AcDbPolyline
 90
        3
 70
   128
 43
0.0
 10
-41.6160092843
 20
187.010176797
 10
-41.9729010321
 20
187.4116948625
 10
-43.0737810374
 20
188.5255180382
  0
ARC
  5
131
330
1F
100
AcDbEntity
  8
0
  6
Continuous
 62
     7
370
    25
100
AcDbCircle
 10
-56.9014733451
 20
174.0099719953
 30
0.0
 40
19.87230769230772
100
AcDbArc
 50
133.0766321537
 51
180.0
  0
LINE
  5
132
330
1F
100
AcDbEntity
  8
0
  6
Continuous
 62
     7
370
    25
100
AcDbLine
 10
-76.7737810374
 20
174.0099719953
 30
0.0
 11
-76.7737810374
 21
172.0099719953
 31
0.0
  0
ARC
  5
133
330
1F
100
AcDbEntity
  8
0
  6
Continuous
 62
     7
370
    25
100
AcDbCircle
 10
-69.8737810374
 20
109.8795806769
 30
0.0
 40
0.6000000000000123
100
AcDbArc
 50
180.0
 51
243.6246146768
  0
ARC
  5
134
330
1F
100
AcDbEntity
  8
0
  6
Continuous
 62
     7
370
    25
100
AcDbCircle
 10
-43.6737810374
 20
109.8795806769
 30
0.0
 40
0.6000000000000123
100
AcDbArc
 50
296.3753853232
 51
0.0
  0
LINE
  5
135
330
1F
100
AcDbEntity
  8
0
  6
Continuous
 62
     7
370
    25
100
AcDbLine
 10
-70.4737810374
 20
110.4944259524
 30
0.0
 11
-70.4737810374
 21
109.8795806769
 31
0.0
  0
LINE
  5
136
330
1F
100
AcDbEntity
  8
0
  6
Continuous
 62
     7
370
    25
100
AcDbLine
 10
-43.0737810374
 20
109.8795806769
 30
0.0
 11
-43.0737810374
 21
110.4944259524
 31
0.0
  0
ARC
  5
137
330
1F
100
AcDbEntity
  8
0
  6
Continuous
 62
     7
370
    25
100
AcDbCircle
 10
-56.7737810374
 20
136.2978507832
 30
0.0
 40
30.08787878787878
100
AcDbArc
 50
243.6246146768
 51
296.3753853232
  0
ARC
  5
138
330
1F
100
AcDbEntity
  8
0
  6
Continuous
 62
     7
370
    25
100
AcDbCircle
 10
-13.3582375313
 20
189.1403633137
 30
0.0
 40
0.599999999999989
100
AcDbArc
 50
0.0
 51
63.6246146768
  0
ARC
  5
139
330
1F
100
AcDbEntity
  8
0
  6
Continuous
 62
     7
370
    25
100
AcDbCircle
 10
-39.5582375313
 20
189.1403633137
 30
0.0
 40
0.5999999999999872
100
AcDbArc
 50
116.3753853232
 51
180.0
  0
LINE
  5
13A
330
1F
100
AcDbEntity
  8
0
  6
Continuous
 62
     7
370
    25
100
AcDbLine
 10
-12.7582375313
 20
188.5255180382
 30
0.0
 11
-12.7582375313
 21
189.1403633137
 31
0.0
  0
LINE
  5
13B
330
1F
100
AcDbEntity
  8
0
  6
Continuous
 62
     7
370
    25
100
AcDbLine
 10
-40.1582375313
 20
189.1403633137
 30
0.0
 11
-40.1582375313
 21
188.5255180382
 31
0.0
  0
ARC
  5
13C
330
1F
100
AcDbEntity
  8
0
  6
Continuous
 62
     7
370
    25
100
AcDbCircle
 10
-26.4582375313
 20
162.7220932075
 30
0.0
 40
30.08787878787877
100
AcDbArc
 50
63.6246146768
 51
116.3753853232
  0
ARC
  5
13D
330
1F
100
AcDbEntity
  8
0
  6
Continuous
 62
     7
370
    25
100
AcDbCircle
 10
125.5712148053
 20
192.1403633137
 30
0.0
 40
0.6000000000000123
100
AcDbArc
 50
0.0
 51
63.6246146768
  0
ARC
  5
13E
330
1F
100
AcDbEntity
  8
0
  6
Continuous
 62
     7
370
    25
100
AcDbCircle
 10
99.3712148053
 20
192.1403633137
 30
0.0
 40
0.600000000000006
100
AcDbArc
 50
116.3753853232
 51
180.0
  0
LINE
  5
13F
330
1F
100
AcDbEntity
  8
0
  6
Continuous
 62
     7
370
    25
100
AcDbLine
 10
126.1712148053
 20
191.5255180382
 30
0.0
 11
126.1712148053
 21
192.1403633137
 31
0.0
  0
LINE
  5
140
330
1F
100
AcDbEntity
  8
0
  6
Continuous
 62
     7
370
    25
100
AcDbLine
 10
98.7712148053
 20
192.1403633137
 30
0.0
 11
98.7712148053
 21
191.5255180382
 31
0.0
  0
ARC
  5
141
330
1F
100
AcDbEntity
  8
0
  6
Continuous
 62
     7
370
    25
100
AcDbCircle
 10
112.4712148053
 20
165.7220932075
 30
0.0
 40
30.0878787878788
100
AcDbArc
 50
63.6246146768
 51
116.3753853232
  0
ARC
  5
142
330
1F
100
AcDbEntity
  8
0
  6
Continuous
 62
     7
370
    25
100
AcDbCircle
 10
-43.6737810374
 20
189.1403633137
 30
0.0
 40
0.6000000000000512
100
AcDbArc
 50
0.0
 51
63.6246146768
  0
ARC
  5
143
330
1F
100
AcDbEntity
  8
0
  6
Continuous
 62
     7
370
    25
100
AcDbCircle
 10
-69.8737810374
 20
189.1403633137
 30
0.0
 40
0.5999999999999801
100
AcDbArc
 50
116.3753853232
 51
180.0
  0
LINE
  5
144
330
1F
100
AcDbEntity
  8
0
  6
Continuous
 62
     7
370
    25
100
AcDbLine
 10
-43.0737810374
 20
188.5255180382
 30
0.0
 11
-43.0737810374
 21
189.1403633137
 31
0.0
  0
LINE
  5
145
330
1F
100
AcDbEntity
  8
0
  6
Continuous
 62
     7
370
    25
100
AcDbLine
 10
-70.4737810374
 20
189.1403633137
 30
0.0
 11
-70.4737810374
 21
188.5255180382
 31
0.0
  0
ARC
  5
146
330
1F
100
AcDbEntity
  8
0
  6
Continuous
 62
     7
370
    25
100
AcDbCircle
 10
-56.7737810374
 20
162.7220932075
 30
0.0
 40
30.0878787878788
100
AcDbArc
 50
63.6246146768
 51
116.3753853232
  0
ARC
  5
147
330
1F
100
AcDbEntity
  8
0
  6
Continuous
 62
     7
370
    25
100
AcDbCircle
 10
-39.5582375313
 20
109.8795806769
 30
0.0
 40
0.6000000000000028
100
AcDbArc
 50
180.0
 51
243.6246146768
  0
ARC
  5
148
330
1F
100
AcDbEntity
  8
0
  6
Continuous
 62
     7
370
    25
100
AcDbCircle
 10
-13.3582375313
 20
109.8795806769
 30
0.0
 40
0.599999999999989
100
AcDbArc
 50
296.3753853232
 51
0.0
  0
LINE
  5
149
330
1F
100
AcDbEntity
  8
0
  6
Continuous
 62
     7
370
    25
100
AcDbLine
 10
-40.1582375313
 20
110.4944259524
 30
0.0
 11
-40.1582375313
 21
109.8795806769
 31
0.0
  0
LINE
  5
14A
330
1F
100
AcDbEntity
  8
0
  6
Continuous
 62
     7
370
    25
100
AcDbLine
 10
-12.7582375313
 20
109.8795806769
 30
0.0
 11
-12.7582375313
 21
110.4944259524
 31
0.0
  0
ARC
  5
14B
330
1F
100
AcDbEntity
  8
0
  6
Continuous
 62
     7
370
    25
100
AcDbCircle
 10
-26.4582375313
 20
136.2978507832
 30
0.0
 40
30.08787878787878
100
AcDbArc
 50
243.6246146768
 51
296.3753853232
  0
ARC
  5
14C
330
1F
100
AcDbEntity
  8
0
  6
Continuous
 62
     7
370
    25
100
AcDbCircle
 10
99.3712148053
 20
106.8795806769
 30
0.0
 40
0.6000000000000085
100
AcDbArc
 50
180.0
 51
243.6246146768
  0
ARC
  5
14D
330
1F
100
AcDbEntity
  8
0
  6
Continuous
 62
     7
370
    25
100
AcDbCircle
 10
125.5712148053
 20
106.8795806769
 30
0.0
 40
0.6000000000000085
100
AcDbArc
 50
296.3753853232
 51
0.0
  0
LINE
  5
14E
330
1F
100
AcDbEntity
  8
0
  6
Continuous
 62
     7
370
    25
100
AcDbLine
 10
98.7712148053
 20
107.4944259524
 30
0.0
 11
98.7712148053
 21
106.8795806769
 31
0.0
  0
LINE
  5
14F
330
1F
100
AcDbEntity
  8
0
  6
Continuous
 62
     7
370
    25
100
AcDbLine
 10
126.1712148053
 20
106.8795806769
 30
0.0
 11
126.1712148053
 21
107.4944259524
 31
0.0
  0
ARC
  5
150
330
1F
100
AcDbEntity
  8
0
  6
Continuous
 62
     7
370
    25
100
AcDbCircle
 10
112.4712148053
 20
133.2978507832
 30
0.0
 40
30.08787878787876
100
AcDbArc
 50
243.6246146768
 51
296.3753853232
  0
LINE
  5
151
330
1F
100
AcDbEntity
  8
0
  6
Continuous
 62
     7
370
    25
100
AcDbLine
 10
184.167367228
 20
53.8452537904
 30
0.0
 11
187.8195051306
 21
60.1709421939
 31
0.0
  0
LINE
  5
152
330
1F
100
AcDbEntity
  8
0
  6
Continuous
 62
     7
370
    25
100
AcDbLine
 10
197.7671155239
 20
77.400708809
 30
0.0
 11
201.167367228
 21
83.2901175191
 31
0.0
  0
LINE
  5
153
330
1F
100
AcDbEntity
  8
0
  6
Continuous
 62
     7
370
    25
100
AcDbLine
 10
190.7750623826
 20
89.2901175191
 30
0.0
 11
187.3769428014
 21
83.4044017542
 31
0.0
  0
LINE
  5
154
330
1F
100
AcDbEntity
  8
0
  6
Continuous
 62
     7
370
    25
100
AcDbLine
 10
177.4059129415
 20
66.1340714332
 30
0.0
 11
173.7750623826
 21
59.8452537904
 31
0.0
  0
LINE
  5
155
330
1F
100
AcDbEntity
  8
0
  6
Continuous
 62
     7
370
    25
100
AcDbLine
 10
173.7750623826
 20
239.1746902003
 30
0.0
 11
177.4155978777
 21
232.869097756
 31
0.0
  0
LINE
  5
156
330
1F
100
AcDbEntity
  8
0
  6
Continuous
 62
     7
370
    25
100
AcDbLine
 10
187.392428018
 20
215.5887210545
 30
0.0
 11
190.7750623826
 21
209.7298264716
 31
0.0
  0
LINE
  5
157
330
1F
100
AcDbEntity
  8
0
  6
Continuous
 62
     7
370
    25
100
AcDbLine
 10
201.167367228
 20
215.7298264716
 30
0.0
 11
197.7658307625
 21
221.6214604536
 31
0.0
  0
LINE
  5
158
330
1F
100
AcDbEntity
  8
0
  6
Continuous
 62
     7
370
    25
100
AcDbLine
 10
187.7852961116
 20
238.9082535557
 30
0.0
 11
184.167367228
 21
245.1746902003
 31
0.0
  0
LINE
  5
159
330
1F
100
AcDbEntity
  8
0
  6
Continuous
 62
     7
370
    25
100
AcDbLine
 10
240.2915953123
 20
249.0976807205
 30
0.0
 11
240.098401004
 21
249.111555825
 31
0.0
  0
ARC
  5
15A
330
1F
100
AcDbEntity
  8
0
  6
Continuous
 62
     7
370
    25
100
AcDbCircle
 10
232.3921387624
 20
149.6518809861
 30
0.0
 40
99.77924780665872
100
AcDbArc
 50
90.2467980482
 51
165.277253332
  0
ARC
  5
15B
330
1F
100
AcDbEntity
  8
0
  6
Continuous
 62
     7
370
    25
100
AcDbCircle
 10
232.3507284918
 20
149.3690951164
 30
0.0
 40
99.75783610105076
100
AcDbArc
 50
194.7265911
 51
278.0009677837
  0
LINE
  5
15C
330
1F
100
AcDbEntity
  8
0
  6
Continuous
 62
     7
370
    25
100
AcDbLine
 10
627.280661307
 20
-1268.9900280047
 30
0.0
 11
-189.4949156827
 21
-1268.9900280047
 31
0.0
  0
ARC
  5
15D
330
1F
100
AcDbEntity
  8
0
  6
Continuous
 62
     7
370
    25
100
AcDbCircle
 10
-189.4949156827
 20
31.0099719953
 30
0.0
 40
1300.0
100
AcDbArc
 50
180.0
 51
270.0
  0
LINE
  5
15E
330
1F
100
AcDbEntity
  8
0
  6
Continuous
 62
     7
370
    25
100
AcDbLine
 10
-1489.4949156827
 20
31.0099719953
 30
0.0
 11
-1489.4949156827
 21
268.0099719953
 31
0.0
  0
ARC
  5
15F
330
1F
100
AcDbEntity
  8
0
  6
Continuous
 62
     7
370
    25
100
AcDbCircle
 10
-189.4949156827
 20
268.0099719953
 30
0.0
 40
1300.0
100
AcDbArc
 50
90.0
 51
180.0
  0
LINE
  5
160
330
1F
100
AcDbEntity
  8
0
  6
Continuous
 62
     7
370
    25
100
AcDbLine
 10
-189.4949156827
 20
1568.0099719953
 30
0.0
 11
627.280661307
 21
1568.0099719953
 31
0.0
  0
ARC
  5
161
330
1F
100
AcDbEntity
  8
0
  6
Continuous
 62
     7
370
    25
100
AcDbCircle
 10
627.280661307
 20
268.0099719953
 30
0.0
 40
1300.0
100
AcDbArc
 50
0.0
 51
90.0
  0
LINE
  5
162
330
1F
100
AcDbEntity
  8
0
  6
Continuous
 62
     7
370
    25
100
AcDbLine
 10
1927.280661307
 20
268.0099719953
 30
0.0
 11
1927.280661307
 21
31.0099719953
 31
0.0
  0
ARC
  5
163
330
1F
100
AcDbEntity
  8
0
  6
Continuous
 62
     7
370
    25
100
AcDbCircle
 10
627.280661307
 20
31.0099719953
 30
0.0
 40
1300.0
100
AcDbArc
 50
270.0
 51
0.0
  0
ARC
  5
164
330
1F
100
AcDbEntity
  8
0
  6
Continuous
 62
     7
370
    25
100
AcDbCircle
 10
206.4629665288
 20
149.5099719953
 30
0.0
 40
2.250000000000027
100
AcDbArc
 50
240.0
 51
300.0
  0
ARC
  5
165
330
1F
100
AcDbEntity
  8
0
  6
Continuous
 62
     7
370
    25
100
AcDbCircle
 10
205.5629665288
 20
147.9511262685
 30
0.0
 40
0.4500000000000292
100
AcDbArc
 50
240.0
 51
316.6582417728
  0
ARC
  5
166
330
1F
100
AcDbEntity
  8
0
  6
Continuous
 62
     7
370
    25
100
AcDbCircle
 10
206.4629665288
 20
147.1017698946
 30
0.0
 40
0.787500000000002
100
AcDbArc
 50
43.3417582272
 51
136.6582417728
  0
ARC
  5
167
330
1F
100
AcDbEntity
  8
0
  6
Continuous
 62
     7
370
    25
100
AcDbCircle
 10
207.3629665288
 20
147.9511262685
 30
0.0
 40
0.4500000000000434
100
AcDbArc
 50
223.3417582272
 51
300.0
  0
ARC
  5
168
330
1F
100
AcDbEntity
  8
0
  6
Continuous
 62
     7
370
    25
100
AcDbCircle
 10
206.4629665288
 20
149.5099719953
 30
0.0
 40
2.250000000000027
100
AcDbArc
 50
300.0
 51
0.0
  0
ARC
  5
169
330
1F
100
AcDbEntity
  8
0
  6
Continuous
 62
     7
370
    25
100
AcDbCircle
 10
208.2629665288
 20
149.5099719953
 30
0.0
 40
0.4499999999999886
100
AcDbArc
 50
283.3417582272
 51
0.0
  0
ARC
  5
16A
330
1F
100
AcDbEntity
  8
0
  6
Continuous
 62
     7
370
    25
100
AcDbCircle
 10
208.5485307255
 20
148.3058709449
 30
0.0
 40
0.7875000000000298
100
AcDbArc
 50
103.3417582272
 51
196.6582417728
  0
ARC
  5
16B
330
1F
100
AcDbEntity
  8
0
  6
Continuous
 62
     7
370
    25
100
AcDbCircle
 10
207.3629665288
 20
147.9511262685
 30
0.0
 40
0.4500000000000434
100
AcDbArc
 50
300.0
 51
16.6582417728
  0
ARC
  5
16C
330
1F
100
AcDbEntity
  8
0
  6
Continuous
 62
     7
370
    25
100
AcDbCircle
 10
206.4629665288
 20
149.5099719953
 30
0.0
 40
2.250000000000027
100
AcDbArc
 50
60.0
 51
120.0
  0
ARC
  5
16D
330
1F
100
AcDbEntity
  8
0
  6
Continuous
 62
     7
370
    25
100
AcDbCircle
 10
207.3629665288
 20
151.0688177221
 30
0.0
 40
0.4500000000000188
100
AcDbArc
 50
60.0
 51
136.6582417728
  0
ARC
  5
16E
330
1F
100
AcDbEntity
  8
0
  6
Continuous
 62
     7
370
    25
100
AcDbCircle
 10
205.5629665288
 20
151.0688177221
 30
0.0
 40
0.4500000000000046
100
AcDbArc
 50
43.3417582272
 51
120.0
  0
ARC
  5
16F
330
1F
100
AcDbEntity
  8
0
  6
Continuous
 62
     7
370
    25
100
AcDbCircle
 10
206.4629665288
 20
151.9181740961
 30
0.0
 40
0.7875000000000214
100
AcDbArc
 50
223.3417582272
 51
316.6582417728
  0
ARC
  5
170
330
1F
100
AcDbEntity
  8
0
  6
Continuous
 62
     7
370
    25
100
AcDbCircle
 10
206.4629665288
 20
149.5099719953
 30
0.0
 40
2.250000000000027
100
AcDbArc
 50
0.0
 51
60.0
  0
ARC
  5
171
330
1F
100
AcDbEntity
  8
0
  6
Continuous
 62
     7
370
    25
100
AcDbCircle
 10
207.3629665288
 20
151.0688177221
 30
0.0
 40
0.4500000000000188
100
AcDbArc
 50
343.3417582272
 51
60.0
  0
ARC
  5
172
330
1F
100
AcDbEntity
  8
0
  6
Continuous
 62
     7
370
    25
100
AcDbCircle
 10
208.2629665288
 20
149.5099719953
 30
0.0
 40
0.4500000000000138
100
AcDbArc
 50
0.0
 51
76.6582417728
  0
ARC
  5
173
330
1F
100
AcDbEntity
  8
0
  6
Continuous
 62
     7
370
    25
100
AcDbCircle
 10
208.5485307255
 20
150.7140730457
 30
0.0
 40
0.7875000000000022
100
AcDbArc
 50
163.3417582272
 51
256.6582417728
  0
ARC
  5
174
330
1F
100
AcDbEntity
  8
0
  6
Continuous
 62
     7
370
    25
100
AcDbCircle
 10
206.4629665288
 20
149.5099719953
 30
0.0
 40
2.250000000000012
100
AcDbArc
 50
120.0
 51
180.0
  0
ARC
  5
175
330
1F
100
AcDbEntity
  8
0
  6
Continuous
 62
     7
370
    25
100
AcDbCircle
 10
206.4629665288
 20
149.5099719953
 30
0.0
 40
2.250000000000012
100
AcDbArc
 50
180.0
 51
240.0
  0
CIRCLE
  5
176
330
1F
100
AcDbEntity
  8
0
  6
Continuous
 62
     7
370
    25
100
AcDbCircle
 10
206.4629665288
 20
149.5099719953
 30
0.0
 40
3.849999999999994
  0
ARC
  5
177
330
1F
100
AcDbEntity
  8
0
  6
Continuous
 62
     7
370
    25
100
AcDbCircle
 10
204.3774023321
 20
150.7140730457
 30
0.0
 40
0.7875000000000022
100
AcDbArc
 50
283.3417582272
 51
16.6582417728
  0
ARC
  5
178
330
1F
100
AcDbEntity
  8
0
  6
Continuous
 62
     7
370
    25
100
AcDbCircle
 10
204.6629665288
 20
149.5099719953
 30
0.0
 40
0.4500000000000204
100
AcDbArc
 50
103.3417582272
 51
180.0
  0
ARC
  5
179
330
1F
100
AcDbEntity
  8
0
  6
Continuous
 62
     7
370
    25
100
AcDbCircle
 10
205.5629665288
 20
151.0688177221
 30
0.0
 40
0.4500000000000046
100
AcDbArc
 50
120.0
 51
196.6582417728
  0
ARC
  5
17A
330
1F
100
AcDbEntity
  8
0
  6
Continuous
 62
     7
370
    25
100
AcDbCircle
 10
204.3774023321
 20
148.3058709449
 30
0.0
 40
0.7875000000000022
100
AcDbArc
 50
343.3417582272
 51
76.6582417728
  0
ARC
  5
17B
330
1F
100
AcDbEntity
  8
0
  6
Continuous
 62
     7
370
    25
100
AcDbCircle
 10
205.5629665288
 20
147.9511262685
 30
0.0
 40
0.4500000000000292
100
AcDbArc
 50
163.3417582272
 51
240.0
  0
ARC
  5
17C
330
1F
100
AcDbEntity
  8
0
  6
Continuous
 62
     7
370
    25
100
AcDbCircle
 10
204.6629665288
 20
149.5099719953
 30
0.0
 40
0.4500000000000171
100
AcDbArc
 50
180.0
 51
256.6582417728
  0
ARC
  5
17D
330
1F
100
AcDbEntity
  8
0
  6
Continuous
 62
     7
370
    25
100
AcDbCircle
 10
296.4629665288
 20
134.5099719953
 30
0.0
 40
2.249999999999988
100
AcDbArc
 50
240.0
 51
300.0
  0
ARC
  5
17E
330
1F
100
AcDbEntity
  8
0
  6
Continuous
 62
     7
370
    25
100
AcDbCircle
 10
295.5629665288
 20
132.9511262685
 30
0.0
 40
0.4499999999999904
100
AcDbArc
 50
240.0
 51
316.6582417728
  0
ARC
  5
17F
330
1F
100
AcDbEntity
  8
0
  6
Continuous
 62
     7
370
    25
100
AcDbCircle
 10
297.3629665288
 20
132.9511262685
 30
0.0
 40
0.4499999999999904
100
AcDbArc
 50
223.3417582272
 51
300.0
  0
ARC
  5
180
330
1F
100
AcDbEntity
  8
0
  6
Continuous
 62
     7
370
    25
100
AcDbCircle
 10
296.4629665288
 20
132.1017698946
 30
0.0
 40
0.7875000000000422
100
AcDbArc
 50
43.3417582272
 51
136.6582417728
  0
ARC
  5
181
330
1F
100
AcDbEntity
  8
0
  6
Continuous
 62
     7
370
    25
100
AcDbCircle
 10
296.4629665288
 20
134.5099719953
 30
0.0
 40
2.250000000000012
100
AcDbArc
 50
60.0
 51
120.0
  0
ARC
  5
182
330
1F
100
AcDbEntity
  8
0
  6
Continuous
 62
     7
370
    25
100
AcDbCircle
 10
297.3629665288
 20
136.0688177221
 30
0.0
 40
0.4499999999999904
100
AcDbArc
 50
60.0
 51
136.6582417728
  0
ARC
  5
183
330
1F
100
AcDbEntity
  8
0
  6
Continuous
 62
     7
370
    25
100
AcDbCircle
 10
296.4629665288
 20
136.9181740961
 30
0.0
 40
0.7875000000000422
100
AcDbArc
 50
223.3417582272
 51
316.6582417728
  0
ARC
  5
184
330
1F
100
AcDbEntity
  8
0
  6
Continuous
 62
     7
370
    25
100
AcDbCircle
 10
295.5629665288
 20
136.0688177221
 30
0.0
 40
0.4499999999999904
100
AcDbArc
 50
43.3417582272
 51
120.0
  0
ARC
  5
185
330
1F
100
AcDbEntity
  8
0
  6
Continuous
 62
     7
370
    25
100
AcDbCircle
 10
296.4629665288
 20
134.5099719953
 30
0.0
 40
2.25
100
AcDbArc
 50
0.0
 51
60.0
  0
ARC
  5
186
330
1F
100
AcDbEntity
  8
0
  6
Continuous
 62
     7
370
    25
100
AcDbCircle
 10
296.4629665288
 20
134.5099719953
 30
0.0
 40
2.250000000000057
100
AcDbArc
 50
120.0
 51
180.0
  0
ARC
  5
187
330
1F
100
AcDbEntity
  8
0
  6
Continuous
 62
     7
370
    25
100
AcDbCircle
 10
296.4629665288
 20
134.5099719953
 30
0.0
 40
2.250000000000057
100
AcDbArc
 50
180.0
 51
240.0
  0
ARC
  5
188
330
1F
100
AcDbEntity
  8
0
  6
Continuous
 62
     7
370
    25
100
AcDbCircle
 10
296.4629665288
 20
134.5099719953
 30
0.0
 40
2.25
100
AcDbArc
 50
300.0
 51
0.0
  0
CIRCLE
  5
189
330
1F
100
AcDbEntity
  8
0
  6
Continuous
 62
     7
370
    25
100
AcDbCircle
 10
296.4629665288
 20
134.5099719953
 30
0.0
 40
3.849999999999966
  0
ARC
  5
18A
330
1F
100
AcDbEntity
  8
0
  6
Continuous
 62
     7
370
    25
100
AcDbCircle
 10
297.3629665288
 20
132.9511262685
 30
0.0
 40
0.4500000000000193
100
AcDbArc
 50
300.0
 51
16.6582417728
  0
ARC
  5
18B
330
1F
100
AcDbEntity
  8
0
  6
Continuous
 62
     7
370
    25
100
AcDbCircle
 10
298.2629665288
 20
134.5099719953
 30
0.0
 40
0.4499999999999886
100
AcDbArc
 50
283.3417582272
 51
0.0
  0
ARC
  5
18C
330
1F
100
AcDbEntity
  8
0
  6
Continuous
 62
     7
370
    25
100
AcDbCircle
 10
298.5485307255
 20
133.3058709449
 30
0.0
 40
0.7875000000000087
100
AcDbArc
 50
103.3417582272
 51
196.6582417728
  0
ARC
  5
18D
330
1F
100
AcDbEntity
  8
0
  6
Continuous
 62
     7
370
    25
100
AcDbCircle
 10
298.5485307255
 20
135.7140730457
 30
0.0
 40
0.7875000000000087
100
AcDbArc
 50
163.3417582272
 51
256.6582417728
  0
ARC
  5
18E
330
1F
100
AcDbEntity
  8
0
  6
Continuous
 62
     7
370
    25
100
AcDbCircle
 10
297.3629665288
 20
136.0688177221
 30
0.0
 40
0.4500000000000193
100
AcDbArc
 50
343.3417582272
 51
60.0
  0
ARC
  5
18F
330
1F
100
AcDbEntity
  8
0
  6
Continuous
 62
     7
370
    25
100
AcDbCircle
 10
298.2629665288
 20
134.5099719953
 30
0.0
 40
0.4500000000000073
100
AcDbArc
 50
0.0
 51
76.6582417728
  0
ARC
  5
190
330
1F
100
AcDbEntity
  8
0
  6
Continuous
 62
     7
370
    25
100
AcDbCircle
 10
295.5629665288
 20
136.0688177221
 30
0.0
 40
0.4500000000000193
100
AcDbArc
 50
120.0
 51
196.6582417728
  0
ARC
  5
191
330
1F
100
AcDbEntity
  8
0
  6
Continuous
 62
     7
370
    25
100
AcDbCircle
 10
294.3774023321
 20
135.7140730457
 30
0.0
 40
0.7875000000000087
100
AcDbArc
 50
283.3417582272
 51
16.6582417728
  0
ARC
  5
192
330
1F
100
AcDbEntity
  8
0
  6
Continuous
 62
     7
370
    25
100
AcDbCircle
 10
294.6629665288
 20
134.5099719953
 30
0.0
 40
0.4500000000000073
100
AcDbArc
 50
103.3417582272
 51
180.0
  0
ARC
  5
193
330
1F
100
AcDbEntity
  8
0
  6
Continuous
 62
     7
370
    25
100
AcDbCircle
 10
294.6629665288
 20
134.5099719953
 30
0.0
 40
0.4499999999999886
100
AcDbArc
 50
180.0
 51
256.6582417728
  0
ARC
  5
194
330
1F
100
AcDbEntity
  8
0
  6
Continuous
 62
     7
370
    25
100
AcDbCircle
 10
294.3774023321
 20
133.3058709449
 30
0.0
 40
0.7875000000000087
100
AcDbArc
 50
343.3417582272
 51
76.6582417728
  0
ARC
  5
195
330
1F
100
AcDbEntity
  8
0
  6
Continuous
 62
     7
370
    25
100
AcDbCircle
 10
295.5629665288
 20
132.9511262685
 30
0.0
 40
0.4500000000000193
100
AcDbArc
 50
163.3417582272
 51
240.0
  0
ARC
  5
196
330
1F
100
AcDbEntity
  8
0
  6
Continuous
 62
     7
370
    25
100
AcDbCircle
 10
296.4629665288
 20
164.5099719953
 30
0.0
 40
2.249999999999988
100
AcDbArc
 50
240.0
 51
300.0
  0
ARC
  5
197
330
1F
100
AcDbEntity
  8
0
  6
Continuous
 62
     7
370
    25
100
AcDbCircle
 10
295.5629665288
 20
162.9511262685
 30
0.0
 40
0.4499999999999904
100
AcDbArc
 50
240.0
 51
316.6582417728
  0
ARC
  5
198
330
1F
100
AcDbEntity
  8
0
  6
Continuous
 62
     7
370
    25
100
AcDbCircle
 10
296.4629665288
 20
162.1017698946
 30
0.0
 40
0.7875000000000422
100
AcDbArc
 50
43.3417582272
 51
136.6582417728
  0
ARC
  5
199
330
1F
100
AcDbEntity
  8
0
  6
Continuous
 62
     7
370
    25
100
AcDbCircle
 10
297.3629665288
 20
162.9511262685
 30
0.0
 40
0.4499999999999904
100
AcDbArc
 50
223.3417582272
 51
300.0
  0
ARC
  5
19A
330
1F
100
AcDbEntity
  8
0
  6
Continuous
 62
     7
370
    25
100
AcDbCircle
 10
296.4629665288
 20
164.5099719953
 30
0.0
 40
2.250000000000057
100
AcDbArc
 50
0.0
 51
60.0
  0
ARC
  5
19B
330
1F
100
AcDbEntity
  8
0
  6
Continuous
 62
     7
370
    25
100
AcDbCircle
 10
298.2629665288
 20
164.5099719953
 30
0.0
 40
0.4499999999999886
100
AcDbArc
 50
360.0
 51
76.6582417728
  0
ARC
  5
19C
330
1F
100
AcDbEntity
  8
0
  6
Continuous
 62
     7
370
    25
100
AcDbCircle
 10
298.5485307255
 20
165.7140730457
 30
0.0
 40
0.7875000000000087
100
AcDbArc
 50
163.3417582272
 51
256.6582417728
  0
ARC
  5
19D
330
1F
100
AcDbEntity
  8
0
  6
Continuous
 62
     7
370
    25
100
AcDbCircle
 10
297.3629665288
 20
166.0688177221
 30
0.0
 40
0.4500000000000193
100
AcDbArc
 50
343.3417582272
 51
60.0
  0
ARC
  5
19E
330
1F
100
AcDbEntity
  8
0
  6
Continuous
 62
     7
370
    25
100
AcDbCircle
 10
296.4629665288
 20
164.5099719953
 30
0.0
 40
2.250000000000012
100
AcDbArc
 50
60.0
 51
120.0
  0
ARC
  5
19F
330
1F
100
AcDbEntity
  8
0
  6
Continuous
 62
     7
370
    25
100
AcDbCircle
 10
295.5629665288
 20
166.0688177221
 30
0.0
 40
0.4499999999999904
100
AcDbArc
 50
43.3417582272
 51
120.0
  0
ARC
  5
1A0
330
1F
100
AcDbEntity
  8
0
  6
Continuous
 62
     7
370
    25
100
AcDbCircle
 10
297.3629665288
 20
166.0688177221
 30
0.0
 40
0.4499999999999904
100
AcDbArc
 50
60.0
 51
136.6582417728
  0
ARC
  5
1A1
330
1F
100
AcDbEntity
  8
0
  6
Continuous
 62
     7
370
    25
100
AcDbCircle
 10
296.4629665288
 20
166.9181740961
 30
0.0
 40
0.7875000000000422
100
AcDbArc
 50
223.3417582272
 51
316.6582417728
  0
ARC
  5
1A2
330
1F
100
AcDbEntity
  8
0
  6
Continuous
 62
     7
370
    25
100
AcDbCircle
 10
296.4629665288
 20
164.5099719953
 30
0.0
 40
2.25
100
AcDbArc
 50
120.0
 51
180.0
  0
ARC
  5
1A3
330
1F
100
AcDbEntity
  8
0
  6
Continuous
 62
     7
370
    25
100
AcDbCircle
 10
296.4629665288
 20
164.5099719953
 30
0.0
 40
2.25
100
AcDbArc
 50
180.0
 51
240.0
  0
ARC
  5
1A4
330
1F
100
AcDbEntity
  8
0
  6
Continuous
 62
     7
370
    25
100
AcDbCircle
 10
296.4629665288
 20
164.5099719953
 30
0.0
 40
2.250000000000057
100
AcDbArc
 50
300.0
 51
0.0
  0
CIRCLE
  5
1A5
330
1F
100
AcDbEntity
  8
0
  6
Continuous
 62
     7
370
    25
100
AcDbCircle
 10
296.4629665288
 20
164.5099719953
 30
0.0
 40
3.849999999999966
  0
ARC
  5
1A6
330
1F
100
AcDbEntity
  8
0
  6
Continuous
 62
     7
370
    25
100
AcDbCircle
 10
298.5485307255
 20
163.3058709449
 30
0.0
 40
0.7875000000000087
100
AcDbArc
 50
103.3417582272
 51
196.6582417728
  0
ARC
  5
1A7
330
1F
100
AcDbEntity
  8
0
  6
Continuous
 62
     7
370
    25
100
AcDbCircle
 10
298.2629665288
 20
164.5099719953
 30
0.0
 40
0.4499999999999886
100
AcDbArc
 50
283.3417582272
 51
0.0
  0
ARC
  5
1A8
330
1F
100
AcDbEntity
  8
0
  6
Continuous
 62
     7
370
    25
100
AcDbCircle
 10
297.3629665288
 20
162.9511262685
 30
0.0
 40
0.4500000000000193
100
AcDbArc
 50
300.0
 51
16.6582417728
  0
ARC
  5
1A9
330
1F
100
AcDbEntity
  8
0
  6
Continuous
 62
     7
370
    25
100
AcDbCircle
 10
294.6629665288
 20
164.5099719953
 30
0.0
 40
0.4499999999999886
100
AcDbArc
 50
103.3417582272
 51
180.0
  0
ARC
  5
1AA
330
1F
100
AcDbEntity
  8
0
  6
Continuous
 62
     7
370
    25
100
AcDbCircle
 10
294.3774023321
 20
165.7140730457
 30
0.0
 40
0.7875000000000087
100
AcDbArc
 50
283.3417582272
 51
16.6582417728
  0
ARC
  5
1AB
330
1F
100
AcDbEntity
  8
0
  6
Continuous
 62
     7
370
    25
100
AcDbCircle
 10
295.5629665288
 20
166.0688177221
 30
0.0
 40
0.4500000000000193
100
AcDbArc
 50
120.0
 51
196.6582417728
  0
ARC
  5
1AC
330
1F
100
AcDbEntity
  8
0
  6
Continuous
 62
     7
370
    25
100
AcDbCircle
 10
294.6629665288
 20
164.5099719953
 30
0.0
 40
0.4499999999999886
100
AcDbArc
 50
180.0
 51
256.6582417728
  0
ARC
  5
1AD
330
1F
100
AcDbEntity
  8
0
  6
Continuous
 62
     7
370
    25
100
AcDbCircle
 10
295.5629665288
 20
162.9511262685
 30
0.0
 40
0.4500000000000193
100
AcDbArc
 50
163.3417582272
 51
240.0
  0
ARC
  5
1AE
330
1F
100
AcDbEntity
  8
0
  6
Continuous
 62
     7
370
    25
100
AcDbCircle
 10
294.3774023321
 20
163.3058709449
 30
0.0
 40
0.7875000000000087
100
AcDbArc
 50
343.3417582272
 51
76.6582417728
  0
LINE
  5
1AF
330
1F
100
AcDbEntity
  8
0
  6
Continuous
 62
     7
370
    25
100
AcDbLine
 10
-70.7807483441
 20
172.4799719953
 30
0.0
 11
-59.440824713
 21
172.4799719953
 31
0.0
  0
LINE
  5
1B0
330
1F
100
AcDbEntity
  8
0
  6
Continuous
 62
     7
370
    25
100
AcDbLine
 10
-59.440824713
 20
126.5399719953
 30
0.0
 11
-70.780824713
 21
126.5399719953
 31
0.0
  0
LINE
  5
1B1
330
1F
100
AcDbEntity
  8
0
  6
Continuous
 62
     7
370
    25
100
AcDbLine
 10
38.2087570286
 20
126.5399719953
 30
0.0
 11
28.9675231042
 21
126.5399719953
 31
0.0
  0
LINE
  5
1B2
330
1F
100
AcDbEntity
  8
0
  6
Continuous
 62
     7
370
    25
100
AcDbLine
 10
28.9675231042
 20
172.4799719953
 30
0.0
 11
38.2092811329
 21
172.4799719953
 31
0.0
  0
LINE
  5
1B3
330
1F
100
AcDbEntity
  8
0
  6
Continuous
 62
     7
370
    25
100
AcDbLine
 10
524.8959031053
 20
129.5099719953
 30
0.0
 11
528.9332019372
 21
129.5099719953
 31
0.0
  0
LINE
  5
1B4
330
1F
100
AcDbEntity
  8
0
  6
Continuous
 62
     7
370
    25
100
AcDbLine
 10
507.4332019372
 20
129.5099719953
 30
0.0
 11
524.8959031053
 21
129.5099719953
 31
0.0
  0
LINE
  5
1B5
330
1F
100
AcDbEntity
  8
0
  6
Continuous
 62
     7
370
    25
100
AcDbLine
 10
528.9332019372
 20
169.5099719953
 30
0.0
 11
507.4332019372
 21
169.5099719953
 31
0.0
  0
LINE
  5
1B6
330
1F
100
AcDbEntity
  8
0
  6
Continuous
 62
     7
370
    25
100
AcDbLine
 10
-41.9941326958
 20
52.0099719953
 30
0.0
 11
-72.7737810374
 21
52.0099719953
 31
0.0
  0
LINE
  5
1B7
330
1F
100
AcDbEntity
  8
0
  6
Continuous
 62
     7
370
    25
100
AcDbLine
 10
-40.7737810374
 20
52.0099719953
 30
0.0
 11
-41.9941326958
 21
52.0099719953
 31
0.0
  0
LINE
  5
1B8
330
1F
100
AcDbEntity
  8
0
  6
Continuous
 62
     7
370
    25
100
AcDbLine
 10
31.3658115525
 20
163.0099719953
 30
0.0
 11
32.9675231042
 21
163.0099719953
 31
0.0
  0
LINE
  5
1B9
330
1F
100
AcDbEntity
  8
0
  6
Continuous
 62
     7
370
    25
100
AcDbLine
 10
-9.0324768958
 20
163.0099719953
 30
0.0
 11
31.3658115525
 21
163.0099719953
 31
0.0
  0
LINE
  5
1BA
330
1F
100
AcDbEntity
  8
0
  6
Continuous
 62
     7
370
    25
100
AcDbLine
 10
26.7471714458
 20
247.0099719953
 30
0.0
 11
27.9675231042
 21
247.0099719953
 31
0.0
  0
LINE
  5
1BB
330
1F
100
AcDbEntity
  8
0
  6
Continuous
 62
     7
370
    25
100
AcDbLine
 10
-4.0324768958
 20
247.0099719953
 30
0.0
 11
26.7471714458
 21
247.0099719953
 31
0.0
  0
LINE
  5
1BC
330
1F
100
AcDbEntity
  8
0
  6
Continuous
 62
     7
370
    25
100
AcDbLine
 10
-72.7737810374
 20
247.0099719953
 30
0.0
 11
-40.7737810374
 21
247.0099719953
 31
0.0
  0
LINE
  5
1BD
330
1F
100
AcDbEntity
  8
0
  6
Continuous
 62
     7
370
    25
100
AcDbLine
 10
32.9675231042
 20
136.0099719953
 30
0.0
 11
-9.0324768958
 21
136.0099719953
 31
0.0
  0
LINE
  5
1BE
330
1F
100
AcDbEntity
  8
0
  6
Continuous
 62
     7
370
    25
100
AcDbLine
 10
27.9675231042
 20
52.0099719953
 30
0.0
 11
-4.0324768958
 21
52.0099719953
 31
0.0
  0
LINE
  5
1BF
330
1F
100
AcDbEntity
  8
0
  6
Continuous
 62
     7
370
    25
100
AcDbLine
 10
-2.0324768958
 20
34.0099719953
 30
0.0
 11
25.9675231042
 21
34.0099719953
 31
0.0
  0
LINE
  5
1C0
330
1F
100
AcDbEntity
  8
0
  6
Continuous
 62
     7
370
    25
100
AcDbLine
 10
-43.8415887385
 20
34.0099719953
 30
0.0
 11
-42.7737810374
 21
34.0099719953
 31
0.0
  0
LINE
  5
1C1
330
1F
100
AcDbEntity
  8
0
  6
Continuous
 62
     7
370
    25
100
AcDbLine
 10
-70.7737810374
 20
34.0099719953
 30
0.0
 11
-43.8415887385
 21
34.0099719953
 31
0.0
  0
LINE
  5
1C2
330
1F
100
AcDbEntity
  8
0
  6
Continuous
 62
     7
370
    25
100
AcDbLine
 10
-42.7737810374
 20
265.0099719953
 30
0.0
 11
-70.7737810374
 21
265.0099719953
 31
0.0
  0
LINE
  5
1C3
330
1F
100
AcDbEntity
  8
0
  6
Continuous
 62
     7
370
    25
100
AcDbLine
 10
24.8997154031
 20
265.0099719953
 30
0.0
 11
-2.0324768958
 21
265.0099719953
 31
0.0
  0
LINE
  5
1C4
330
1F
100
AcDbEntity
  8
0
  6
Continuous
 62
     7
370
    25
100
AcDbLine
 10
25.9675231042
 20
265.0099719953
 30
0.0
 11
24.8997154031
 21
265.0099719953
 31
0.0
  0
LINE
  5
1C5
330
1F
100
AcDbEntity
  8
0
  6
Continuous
 62
     7
370
    25
100
AcDbLine
 10
-5.0324768958
 20
127.0099719953
 30
0.0
 11
-69.2189273873
 21
127.0099719953
 31
0.0
  0
ARC
  5
1C6
330
1F
100
AcDbEntity
  8
0
  6
Continuous
 62
     7
370
    25
100
AcDbCircle
 10
-66.2965446849
 20
129.3037691603
 30
0.0
 40
3.71508089999375
100
AcDbArc
 50
169.0419146559
 51
218.1285987502
  0
LINE
  5
1C7
330
1F
100
AcDbEntity
  8
0
  6
Continuous
 62
     7
370
    25
100
AcDbLine
 10
-52.0716290642
 20
142.0099719952
 30
0.0
 11
-51.765198367
 21
142.0099719953
 31
0.0
  0
ARC
  5
1C8
330
1F
100
AcDbEntity
  8
0
  6
Continuous
 62
     7
370
    25
100
AcDbCircle
 10
-66.2965446849
 20
139.7161748303
 30
0.0
 40
3.715080899993749
100
AcDbArc
 50
141.8714012498
 51
190.9580853441
  0
LINE
  5
1C9
330
1F
100
AcDbEntity
  8
0
  6
Continuous
 62
     7
370
    25
100
AcDbLine
 10
-69.9438866827
 20
139.0099719953
 30
0.0
 11
-69.9438866827
 21
130.0099719953
 31
0.0
  0
LINE
  5
1CA
330
1F
100
AcDbEntity
  8
0
  6
Continuous
 62
     7
370
    25
100
AcDbLine
 10
-69.2189273873
 20
127.0099719953
 30
0.0
 11
-82.110824713
 21
127.0099719953
 31
0.0
  0
LINE
  5
1CB
330
1F
100
AcDbEntity
  8
0
  6
Continuous
 62
     7
370
    25
100
AcDbLine
 10
-82.110824713
 20
142.0099719953
 30
0.0
 11
-69.2189273873
 21
142.0099719953
 31
0.0
  0
LINE
  5
1CC
330
1F
100
AcDbEntity
  8
0
  6
Continuous
 62
     7
370
    25
100
AcDbLine
 10
-51.765198367
 20
157.0099719953
 30
0.0
 11
-52.0716290646
 21
157.0099719955
 31
0.0
  0
ARC
  5
1CD
330
1F
100
AcDbEntity
  8
0
  6
Continuous
 62
     7
370
    25
100
AcDbCircle
 10
-66.2965446849
 20
159.3037691603
 30
0.0
 40
3.715080899993698
100
AcDbArc
 50
169.0419146559
 51
218.1285987502
  0
LINE
  5
1CE
330
1F
100
AcDbEntity
  8
0
  6
Continuous
 62
     7
370
    25
100
AcDbLine
 10
-69.2189273873
 20
172.0099719953
 30
0.0
 11
-5.0324768958
 21
172.0099719953
 31
0.0
  0
ARC
  5
1CF
330
1F
100
AcDbEntity
  8
0
  6
Continuous
 62
     7
370
    25
100
AcDbCircle
 10
-66.2965446849
 20
169.7161748303
 30
0.0
 40
3.715080899993823
100
AcDbArc
 50
141.8714012498
 51
190.9580853441
  0
LINE
  5
1D0
330
1F
100
AcDbEntity
  8
0
  6
Continuous
 62
     7
370
    25
100
AcDbLine
 10
-69.9438866827
 20
169.0099719953
 30
0.0
 11
-69.9438866827
 21
160.0099719953
 31
0.0
  0
LINE
  5
1D1
330
1F
100
AcDbEntity
  8
0
  6
Continuous
 62
     7
370
    25
100
AcDbLine
 10
-82.110824713
 20
172.0099719953
 30
0.0
 11
-69.2189273873
 21
172.0099719953
 31
0.0
  0
LINE
  5
1D2
330
1F
100
AcDbEntity
  8
0
  6
Continuous
 62
     7
370
    25
100
AcDbLine
 10
-69.2189273873
 20
157.0099719953
 30
0.0
 11
-82.110824713
 21
157.0099719953
 31
0.0
  0
ARC
  5
1D3
330
1F
100
AcDbEntity
  8
0
  6
Continuous
 62
     7
370
    25
100
AcDbCircle
 10
146.4630024959
 20
324.5099102471
 30
0.0
 40
124.9999307039028
100
AcDbArc
 50
277.9281298636
 51
319.8727244278
  0
LWPOLYLINE
  5
1D4
330
1F
100
AcDbEntity
  8
0
  6
Continuous
 62
     7
370
    25
100
AcDbPolyline
 90
        7
 70
   128
 43
0.0
 10
242.0397845288
 20
243.9489928479
 10
242.1696125262
 20
243.8406242803
 10
242.5444642911
 20
243.5277441797
 10
243.1220952252
 20
243.0456439524
 10
243.8374065036
 20
242.4486927344
 10
244.2577471401
 20
242.0979352738
 10
244.3430735996
 20
242.0267365634
  0
ARC
  5
1D5
330
1F
100
AcDbEntity
  8
0
  6
Continuous
 62
     7
370
    25
100
AcDbCircle
 10
146.4630024959
 20
324.5099102471
 30
0.0
 40
127.9999307039029
100
AcDbArc
 50
277.928130342
 51
319.8792848399
  0
LINE
  5
1D6
330
1F
100
AcDbEntity
  8
0
  6
Continuous
 62
     7
370
    25
100
AcDbLine
 10
163.7043465288
 20
200.7047458479
 30
0.0
 11
164.1181400737
 21
197.7334204025
 31
0.0
  0
ARC
  5
1D7
330
1F
100
AcDbEntity
  8
0
  6
Continuous
 62
     7
370
    25
100
AcDbCircle
 10
290.9636582276
 20
203.5081763357
 30
0.0
 40
63.47444413198316
100
AcDbArc
 50
67.7246621443
 51
140.422626138
  0
LWPOLYLINE
  5
1D8
330
1F
100
AcDbEntity
  8
0
  6
Continuous
 62
     7
370
    25
100
AcDbPolyline
 90
        7
 70
   128
 43
0.0
 10
315.0241465288
 20
262.2457108479
 10
314.9555569927
 20
262.0911743467
 10
314.7575565717
 20
261.6450222405
 10
314.4524753758
 20
260.9574536698
 10
314.0746328432
 20
260.1056722573
 10
313.8251651956
 20
259.5431472158
 10
313.80703844
 20
259.502268645
  0
ARC
  5
1D9
330
1F
100
AcDbEntity
  8
0
  6
Continuous
 62
     7
370
    25
100
AcDbCircle
 10
290.9636582276
 20
203.5081763357
 30
0.0
 40
60.47444413198315
100
AcDbArc
 50
67.8064786741
 51
140.4360199895
  0
ARC
  5
1DA
330
1F
100
AcDbEntity
  8
0
  6
Continuous
 62
     7
370
    25
100
AcDbCircle
 10
146.4630024959
 20
-25.4899655513
 30
0.0
 40
127.9999307039032
100
AcDbArc
 50
40.1207151513
 51
82.0718701364
  0
LWPOLYLINE
  5
1DB
330
1F
100
AcDbEntity
  8
0
  6
Continuous
 62
     7
370
    25
100
AcDbPolyline
 90
        7
 70
   128
 43
0.0
 10
244.3430736123
 20
56.9932081173
 10
244.2577472096
 20
56.9220094554
 10
243.8374065134
 20
56.5712519497
 10
243.122095231
 20
55.9743007363
 10
242.5444642938
 20
55.4922005128
 10
242.1696125269
 20
55.1793204146
 10
242.0397845288
 20
55.0709518479
  0
ARC
  5
1DC
330
1F
100
AcDbEntity
  8
0
  6
Continuous
 62
     7
370
    25
100
AcDbCircle
 10
146.4630024959
 20
-25.4899655513
 30
0.0
 40
124.9999307039031
100
AcDbArc
 50
40.1272755722
 51
82.0718701364
  0
LINE
  5
1DD
330
1F
100
AcDbEntity
  8
0
  6
Continuous
 62
     7
370
    25
100
AcDbLine
 10
164.118139015
 20
101.2865244407
 30
0.0
 11
163.7043465288
 21
98.3151988479
 31
0.0
  0
ARC
  5
1DE
330
1F
100
AcDbEntity
  8
0
  6
Continuous
 62
     7
370
    25
100
AcDbCircle
 10
290.963658907
 20
95.5117678601
 30
0.0
 40
60.47444433711903
100
AcDbArc
 50
219.5639792539
 51
292.1935205693
  0
LWPOLYLINE
  5
1DF
330
1F
100
AcDbEntity
  8
0
  6
Continuous
 62
     7
370
    25
100
AcDbPolyline
 90
        7
 70
   128
 43
0.0
 10
315.0241465288
 20
36.7742328479
 10
314.9555569937
 20
36.9287693496
 10
314.7575565756
 20
37.3749214569
 10
314.4524753842
 20
38.0624900295
 10
314.0746328571
 20
38.9142714446
 10
313.8251652109
 20
39.4767964929
 10
313.8070384576
 20
39.5176750592
  0
ARC
  5
1E0
330
1F
100
AcDbEntity
  8
0
  6
Continuous
 62
     7
370
    25
100
AcDbCircle
 10
290.963658907
 20
95.5117678601
 30
0.0
 40
63.47444433711906
100
AcDbArc
 50
219.5773731234
 51
292.2753371171
  0
ARC
  5
1E1
330
1F
100
AcDbEntity
  8
0
  6
Continuous
 62
     7
370
    25
100
AcDbCircle
 10
261.0273784015
 20
149.5099718479
 30
0.0
 40
124.9999912642762
100
AcDbArc
 50
295.5929116477
 51
64.4070883523
  0
ARC
  5
1E2
330
1F
100
AcDbEntity
  8
0
  6
Continuous
 62
     7
370
    25
100
AcDbCircle
 10
261.0273784015
 20
149.5099718479
 30
0.0
 40
121.9999912642761
100
AcDbArc
 50
295.6339596125
 51
64.3660403967
  0
ARC
  5
1E3
330
1F
100
AcDbEntity
  8
0
  6
Continuous
 62
     7
370
    25
100
AcDbCircle
 10
166.4629707421
 20
180.8959053724
 30
0.0
 40
17.00000421330672
100
AcDbArc
 50
97.9281502772
 51
179.9999882865
  0
LINE
  5
1E4
330
1F
100
AcDbEntity
  8
0
  6
Continuous
 62
     7
370
    25
100
AcDbLine
 10
149.4629665288
 20
180.8959088479
 30
0.0
 11
146.4629665288
 21
180.8959088479
 31
0.0
  0
ARC
  5
1E5
330
1F
100
AcDbEntity
  8
0
  6
Continuous
 62
     7
370
    25
100
AcDbCircle
 10
166.4629707421
 20
180.8959053724
 30
0.0
 40
20.00000421330672
100
AcDbArc
 50
97.9281502772
 51
179.9999900436
  0
ARC
  5
1E6
330
1F
100
AcDbEntity
  8
0
  6
Continuous
 62
     7
370
    25
100
AcDbCircle
 10
166.4629707421
 20
118.1240393234
 30
0.0
 40
17.00000421330671
100
AcDbArc
 50
180.0000099564
 51
262.0718461204
  0
CIRCLE
  5
1E7
330
1F
100
AcDbEntity
  8
0
  6
Continuous
 62
     7
370
    25
100
AcDbCircle
 10
296.4629665288
 20
134.5099719953
 30
0.0
 40
4.699999999999989
  0
CIRCLE
  5
1E8
330
1F
100
AcDbEntity
  8
0
  6
Continuous
 62
     7
370
    25
100
AcDbCircle
 10
296.4629665288
 20
164.5099719953
 30
0.0
 40
4.699999999999989
  0
CIRCLE
  5
1E9
330
1F
100
AcDbEntity
  8
0
  6
Continuous
 62
     7
370
    25
100
AcDbCircle
 10
206.4629665288
 20
149.5099719953
 30
0.0
 40
4.699999999999989
  0
LINE
  5
1EA
330
1F
100
AcDbEntity
  8
0
  6
Continuous
 62
     7
370
    25
100
AcDbLine
 10
149.4629665288
 20
118.1240363692
 30
0.0
 11
146.4629665288
 21
118.1240358479
 31
0.0
  0
LINE
  5
1EB
330
1F
100
AcDbEntity
  8
0
  6
Continuous
 62
     7
370
    25
100
AcDbLine
 10
146.4629665288
 20
118.1240358479
 30
0.0
 11
146.4629665288
 21
142.0099719953
 31
0.0
  0
LINE
  5
1EC
330
1F
100
AcDbEntity
  8
0
  6
Continuous
 62
     7
370
    25
100
AcDbLine
 10
146.4629665288
 20
157.0099719953
 30
0.0
 11
146.4629665288
 21
180.8959088479
 31
0.0
  0
ARC
  5
1ED
330
1F
100
AcDbEntity
  8
0
  6
Continuous
 62
     7
370
    25
100
AcDbCircle
 10
166.4629707421
 20
118.1240393234
 30
0.0
 40
20.00000421330673
100
AcDbArc
 50
180.0000099564
 51
262.0718497228
  0
ARC
  5
1EE
330
1F
100
AcDbEntity
  8
0
  6
Continuous
 62
     7
370
    25
100
AcDbCircle
 10
402.6152130284
 20
159.7495802652
 30
0.0
 40
2.75849921415973
100
AcDbArc
 50
174.5834339168
 51
263.2907157714
  0
LINE
  5
1EF
330
1F
100
AcDbEntity
  8
0
  6
Continuous
 62
     7
370
    25
100
AcDbLine
 10
399.8690313044
 20
169.0099719953
 30
0.0
 11
399.8690313044
 21
160.0099719953
 31
0.0
  0
LINE
  5
1F0
330
1F
100
AcDbEntity
  8
0
  6
Continuous
 62
     7
370
    25
100
AcDbLine
 10
402.2929329605
 20
172.0099719953
 30
0.0
 11
512.7388815021
 21
172.0099719953
 31
0.0
  0
LINE
  5
1F1
330
1F
100
AcDbEntity
  8
0
  6
Continuous
 62
     7
370
    25
100
AcDbLine
 10
523.6275223723
 20
172.0099719953
 30
0.0
 11
534.158973082
 21
172.0099719953
 31
0.0
  0
ARC
  5
1F2
330
1F
100
AcDbEntity
  8
0
  6
Continuous
 62
     7
370
    25
100
AcDbCircle
 10
402.6152130284
 20
169.2703637255
 30
0.0
 40
2.758499214159741
100
AcDbArc
 50
96.7092842286
 51
185.4165660832
  0
LINE
  5
1F3
330
1F
100
AcDbEntity
  8
0
  6
Continuous
 62
     7
370
    25
100
AcDbLine
 10
399.8690313044
 20
169.0099719953
 30
0.0
 11
394.2014782625
 21
169.0099719953
 31
0.0
  0
ARC
  5
1F4
330
1F
100
AcDbEntity
  8
0
  6
Continuous
 62
     7
370
    25
100
AcDbCircle
 10
388.4045918044
 20
169.7459722116
 30
0.0
 40
5.843422706512539
100
AcDbArc
 50
352.7641708082
 51
22.7955584426
  0
LINE
  5
1F5
330
1F
100
AcDbEntity
  8
0
  6
Continuous
 62
     7
370
    25
100
AcDbLine
 10
393.7916033976
 20
172.0099719953
 30
0.0
 11
402.2929329605
 21
172.0099719953
 31
0.0
  0
LINE
  5
1F6
330
1F
100
AcDbEntity
  8
0
  6
Continuous
 62
     7
370
    25
100
AcDbLine
 10
394.2014782625
 20
160.0099719953
 30
0.0
 11
399.8690313044
 21
160.0099719953
 31
0.0
  0
ARC
  5
1F7
330
1F
100
AcDbEntity
  8
0
  6
Continuous
 62
     7
370
    25
100
AcDbCircle
 10
388.4045918044
 20
159.2739717791
 30
0.0
 40
5.843422706511187
100
AcDbArc
 50
337.2044415574
 51
7.2358291918
  0
LINE
  5
1F8
330
1F
100
AcDbEntity
  8
0
  6
Continuous
 62
     7
370
    25
100
AcDbLine
 10
394.2014782625
 20
160.0099719953
 30
0.0
 11
394.2014782625
 21
169.0099719953
 31
0.0
  0
LINE
  5
1F9
330
1F
100
AcDbEntity
  8
0
  6
Continuous
 62
     7
370
    25
100
AcDbLine
 10
386.00397795
 20
160.0099719953
 30
0.0
 11
394.2014782625
 21
160.0099719953
 31
0.0
  0
LINE
  5
1FA
330
1F
100
AcDbEntity
  8
0
  6
Continuous
 62
     7
370
    25
100
AcDbLine
 10
386.00397795
 20
160.0099719953
 30
0.0
 11
386.00397795
 21
169.0099719953
 31
0.0
  0
LINE
  5
1FB
330
1F
100
AcDbEntity
  8
0
  6
Continuous
 62
     7
370
    25
100
AcDbLine
 10
394.2014782625
 20
169.0099719953
 30
0.0
 11
386.00397795
 21
169.0099719953
 31
0.0
  0
LINE
  5
1FC
330
1F
100
AcDbEntity
  8
0
  6
Continuous
 62
     7
370
    25
100
AcDbLine
 10
386.00397795
 20
160.0099719953
 30
0.0
 11
386.0039781
 21
157.0099719953
 31
0.0
  0
LINE
  5
1FD
330
1F
100
AcDbEntity
  8
0
  6
Continuous
 62
     7
370
    25
100
AcDbLine
 10
386.00397795
 20
172.0099719953
 30
0.0
 11
386.00397795
 21
169.0099719953
 31
0.0
  0
LINE
  5
1FE
330
1F
100
AcDbEntity
  8
0
  6
Continuous
 62
     7
370
    25
100
AcDbLine
 10
386.00397795
 20
172.0099719953
 30
0.0
 11
393.7916033976
 21
172.0099719953
 31
0.0
  0
LINE
  5
1FF
330
1F
100
AcDbEntity
  8
0
  6
Continuous
 62
     7
370
    25
100
AcDbLine
 10
41.33925795
 20
172.0099719953
 30
0.0
 11
41.33925795
 21
169.0099719953
 31
0.0
  0
LINE
  5
200
330
1F
100
AcDbEntity
  8
0
  6
Continuous
 62
     7
370
    25
100
AcDbLine
 10
28.9675231042
 20
172.0099719953
 30
0.0
 11
41.33925795
 21
172.0099719953
 31
0.0
  0
LINE
  5
201
330
1F
100
AcDbEntity
  8
0
  6
Continuous
 62
     7
370
    25
100
AcDbLine
 10
41.33925795
 20
172.0099719953
 30
0.0
 11
146.4629665288
 21
172.0099719953
 31
0.0
  0
LINE
  5
202
330
1F
100
AcDbEntity
  8
0
  6
Continuous
 62
     7
370
    25
100
AcDbLine
 10
383.9856957674
 20
172.0099719953
 30
0.0
 11
386.00397795
 21
172.0099719953
 31
0.0
  0
LINE
  5
203
330
1F
100
AcDbEntity
  8
0
  6
Continuous
 62
     7
370
    25
100
AcDbLine
 10
41.33925795
 20
160.0099719953
 30
0.0
 11
41.33925795
 21
157.0099719953
 31
0.0
  0
LINE
  5
204
330
1F
100
AcDbEntity
  8
0
  6
Continuous
 62
     7
370
    25
100
AcDbLine
 10
41.33925795
 20
160.0099719953
 30
0.0
 11
41.33925795
 21
169.0099719953
 31
0.0
  0
LINE
  5
205
330
1F
100
AcDbEntity
  8
0
  6
Continuous
 62
     7
370
    25
100
AcDbLine
 10
399.8690313044
 20
139.0099719953
 30
0.0
 11
399.8690313044
 21
130.0099719953
 31
0.0
  0
LINE
  5
206
330
1F
100
AcDbEntity
  8
0
  6
Continuous
 62
     7
370
    25
100
AcDbLine
 10
534.158973082
 20
127.0099719953
 30
0.0
 11
523.6275223723
 21
127.0099719953
 31
0.0
  0
LINE
  5
207
330
1F
100
AcDbEntity
  8
0
  6
Continuous
 62
     7
370
    25
100
AcDbLine
 10
512.7388815021
 20
127.0099719953
 30
0.0
 11
402.2929329605
 21
127.0099719953
 31
0.0
  0
ARC
  5
208
330
1F
100
AcDbEntity
  8
0
  6
Continuous
 62
     7
370
    25
100
AcDbCircle
 10
402.6152130284
 20
129.7495802652
 30
0.0
 40
2.75849921415973
100
AcDbArc
 50
174.5834339168
 51
263.2907157714
  0
ARC
  5
209
330
1F
100
AcDbEntity
  8
0
  6
Continuous
 62
     7
370
    25
100
AcDbCircle
 10
402.6152130284
 20
139.2703637255
 30
0.0
 40
2.758499214159741
100
AcDbArc
 50
96.7092842286
 51
185.4165660832
  0
LINE
  5
20A
330
1F
100
AcDbEntity
  8
0
  6
Continuous
 62
     7
370
    25
100
AcDbLine
 10
399.8690313044
 20
139.0099719953
 30
0.0
 11
394.2014782625
 21
139.0099719953
 31
0.0
  0
ARC
  5
20B
330
1F
100
AcDbEntity
  8
0
  6
Continuous
 62
     7
370
    25
100
AcDbCircle
 10
388.4045918044
 20
139.7459722116
 30
0.0
 40
5.843422706512466
100
AcDbArc
 50
352.7641708082
 51
22.7955584426
  0
LINE
  5
20C
330
1F
100
AcDbEntity
  8
0
  6
Continuous
 62
     7
370
    25
100
AcDbLine
 10
394.2014782625
 20
130.0099719953
 30
0.0
 11
399.8690313044
 21
130.0099719953
 31
0.0
  0
ARC
  5
20D
330
1F
100
AcDbEntity
  8
0
  6
Continuous
 62
     7
370
    25
100
AcDbCircle
 10
388.4045918044
 20
129.2739717791
 30
0.0
 40
5.843422706511187
100
AcDbArc
 50
337.2044415574
 51
7.2358291918
  0
LINE
  5
20E
330
1F
100
AcDbEntity
  8
0
  6
Continuous
 62
     7
370
    25
100
AcDbLine
 10
402.2929329605
 20
127.0099719953
 30
0.0
 11
393.7916033976
 21
127.0099719953
 31
0.0
  0
LINE
  5
20F
330
1F
100
AcDbEntity
  8
0
  6
Continuous
 62
     7
370
    25
100
AcDbLine
 10
394.2014782625
 20
130.0099719953
 30
0.0
 11
394.2014782625
 21
139.0099719953
 31
0.0
  0
LINE
  5
210
330
1F
100
AcDbEntity
  8
0
  6
Continuous
 62
     7
370
    25
100
AcDbLine
 10
386.00397795
 20
130.0099719953
 30
0.0
 11
394.2014782625
 21
130.0099719953
 31
0.0
  0
LINE
  5
211
330
1F
100
AcDbEntity
  8
0
  6
Continuous
 62
     7
370
    25
100
AcDbLine
 10
386.00397795
 20
130.0099719953
 30
0.0
 11
386.0039781
 21
127.0099719953
 31
0.0
  0
LINE
  5
212
330
1F
100
AcDbEntity
  8
0
  6
Continuous
 62
     7
370
    25
100
AcDbLine
 10
393.7916033976
 20
127.0099719953
 30
0.0
 11
386.0039781
 21
127.0099719953
 31
0.0
  0
LINE
  5
213
330
1F
100
AcDbEntity
  8
0
  6
Continuous
 62
     7
370
    25
100
AcDbLine
 10
386.00397795
 20
130.0099719953
 30
0.0
 11
386.00397795
 21
139.0099719953
 31
0.0
  0
LINE
  5
214
330
1F
100
AcDbEntity
  8
0
  6
Continuous
 62
     7
370
    25
100
AcDbLine
 10
394.2014782625
 20
139.0099719953
 30
0.0
 11
386.00397795
 21
139.0099719953
 31
0.0
  0
LINE
  5
215
330
1F
100
AcDbEntity
  8
0
  6
Continuous
 62
     7
370
    25
100
AcDbLine
 10
386.00397795
 20
142.0099719953
 30
0.0
 11
386.00397795
 21
139.0099719953
 31
0.0
  0
LINE
  5
216
330
1F
100
AcDbEntity
  8
0
  6
Continuous
 62
     7
370
    25
100
AcDbLine
 10
41.33925795
 20
130.0099719953
 30
0.0
 11
41.33925795
 21
139.0099719953
 31
0.0
  0
LINE
  5
217
330
1F
100
AcDbEntity
  8
0
  6
Continuous
 62
     7
370
    25
100
AcDbLine
 10
41.33925795
 20
130.0099719953
 30
0.0
 11
41.33925795
 21
127.0099719953
 31
0.0
  0
LINE
  5
218
330
1F
100
AcDbEntity
  8
0
  6
Continuous
 62
     7
370
    25
100
AcDbLine
 10
386.0039781
 20
127.0099719953
 30
0.0
 11
383.9856958213
 21
127.0099719953
 31
0.0
  0
LINE
  5
219
330
1F
100
AcDbEntity
  8
0
  6
Continuous
 62
     7
370
    25
100
AcDbLine
 10
146.4629665288
 20
127.0099719953
 30
0.0
 11
41.33925795
 21
127.0099719953
 31
0.0
  0
LINE
  5
21A
330
1F
100
AcDbEntity
  8
0
  6
Continuous
 62
     7
370
    25
100
AcDbLine
 10
41.33925795
 20
127.0099719953
 30
0.0
 11
28.9675231042
 21
127.0099719953
 31
0.0
  0
LINE
  5
21B
330
1F
100
AcDbEntity
  8
0
  6
Continuous
 62
     7
370
    25
100
AcDbLine
 10
41.33925795
 20
142.0099719953
 30
0.0
 11
41.33925795
 21
139.0099719953
 31
0.0
  0
LINE
  5
21C
330
1F
100
AcDbEntity
  8
0
  6
Continuous
 62
     7
370
    25
100
AcDbLine
 10
499.0177012548
 20
154.0099719953
 30
0.0
 11
499.0177012548
 21
145.0099719953
 31
0.0
  0
LINE
  5
21D
330
1F
100
AcDbEntity
  8
0
  6
Continuous
 62
     7
370
    25
100
AcDbLine
 10
501.892526347
 20
157.0099719953
 30
0.0
 11
535.1832020075
 21
157.0099719953
 31
0.0
  0
ARC
  5
21E
330
1F
100
AcDbEntity
  8
0
  6
Continuous
 62
     7
370
    25
100
AcDbCircle
 10
501.9564763844
 20
154.0712537194
 30
0.0
 40
2.939414008355349
100
AcDbArc
 50
91.2466281867
 51
181.1946049612
  0
LINE
  5
21F
330
1F
100
AcDbEntity
  8
0
  6
Continuous
 62
     7
370
    25
100
AcDbLine
 10
535.1832020075
 20
142.0099719953
 30
0.0
 11
501.892526347
 21
142.0099719953
 31
0.0
  0
ARC
  5
220
330
1F
100
AcDbEntity
  8
0
  6
Continuous
 62
     7
370
    25
100
AcDbCircle
 10
501.9564763844
 20
144.9486902713
 30
0.0
 40
2.939414008355116
100
AcDbArc
 50
178.8053950388
 51
268.7533718133
  0
LINE
  5
221
330
1F
100
AcDbEntity
  8
0
  6
Continuous
 62
     7
370
    25
100
AcDbLine
 10
387.7868642155
 20
145.0099719953
 30
0.0
 11
490.7661666033
 21
145.0099719953
 31
0.0
  0
LINE
  5
222
330
1F
100
AcDbEntity
  8
0
  6
Continuous
 62
     7
370
    25
100
AcDbLine
 10
387.7868642155
 20
154.0099719953
 30
0.0
 11
387.7868642155
 21
145.0099719953
 31
0.0
  0
LINE
  5
223
330
1F
100
AcDbEntity
  8
0
  6
Continuous
 62
     7
370
    25
100
AcDbLine
 10
490.7661666033
 20
154.0099719953
 30
0.0
 11
387.7868642155
 21
154.0099719953
 31
0.0
  0
LINE
  5
224
330
1F
100
AcDbEntity
  8
0
  6
Continuous
 62
     7
370
    25
100
AcDbLine
 10
490.7661666033
 20
145.0099719953
 30
0.0
 11
490.7661666033
 21
154.0099719953
 31
0.0
  0
LWPOLYLINE
  5
225
330
1F
100
AcDbEntity
  8
0
  6
Continuous
 62
     7
370
    25
100
AcDbPolyline
 90
        9
 70
   128
 43
0.0
 10
490.7661666033
 20
145.0099719953
 10
490.7464996128
 20
144.4247010293
 10
490.6882544325
 20
143.8619216982
 10
490.593669392
 20
143.3432612963
 10
490.4663793415
 20
142.8886516518
 10
490.3112759662
 20
142.5155631584
 10
490.1343198018
 20
142.2383333978
 10
489.9423111745
 20
142.0676161541
 10
489.7426288682
 20
142.0099719953
  0
ARC
  5
226
330
1F
100
AcDbEntity
  8
0
  6
Continuous
 62
     7
370
    25
100
AcDbCircle
 10
390.5793861885
 20
144.79939274
 30
0.0
 40
2.800450426699654
100
AcDbArc
 50
175.6875859884
 51
264.9131629627
  0
LINE
  5
227
330
1F
100
AcDbEntity
  8
0
  6
Continuous
 62
     7
370
    25
100
AcDbLine
 10
489.7426288682
 20
142.0099719953
 30
0.0
 11
390.3310829436
 21
142.0099719953
 31
0.0
  0
LWPOLYLINE
  5
228
330
1F
100
AcDbEntity
  8
0
  6
Continuous
 62
     7
370
    25
100
AcDbPolyline
 90
        9
 70
   128
 43
0.0
 10
489.7426288682
 20
157.0099719953
 10
489.9423111745
 20
156.9523278365
 10
490.1343198018
 20
156.7816105929
 10
490.3112759662
 20
156.5043808322
 10
490.4663793415
 20
156.1312923389
 10
490.593669392
 20
155.6766826944
 10
490.6882544325
 20
155.1580222924
 10
490.7464996128
 20
154.5952429614
 10
490.7661666033
 20
154.0099719953
  0
ARC
  5
229
330
1F
100
AcDbEntity
  8
0
  6
Continuous
 62
     7
370
    25
100
AcDbCircle
 10
390.5793861885
 20
154.2205512506
 30
0.0
 40
2.800450426699802
100
AcDbArc
 50
95.0868370373
 51
184.3124140116
  0
LINE
  5
22A
330
1F
100
AcDbEntity
  8
0
  6
Continuous
 62
     7
370
    25
100
AcDbLine
 10
390.3310829436
 20
157.0099719953
 30
0.0
 11
489.7426288682
 21
157.0099719953
 31
0.0
  0
LINE
  5
22B
330
1F
100
AcDbEntity
  8
0
  6
Continuous
 62
     7
370
    25
100
AcDbLine
 10
490.7661666033
 20
145.0099719953
 30
0.0
 11
499.0177012548
 21
145.0099719953
 31
0.0
  0
LINE
  5
22C
330
1F
100
AcDbEntity
  8
0
  6
Continuous
 62
     7
370
    25
100
AcDbLine
 10
499.0177012548
 20
154.0099719953
 30
0.0
 11
490.7661666033
 21
154.0099719953
 31
0.0
  0
LINE
  5
22D
330
1F
100
AcDbEntity
  8
0
  6
Continuous
 62
     7
370
    25
100
AcDbLine
 10
501.892526347
 20
142.0099719953
 30
0.0
 11
489.7426288682
 21
142.0099719953
 31
0.0
  0
LINE
  5
22E
330
1F
100
AcDbEntity
  8
0
  6
Continuous
 62
     7
370
    25
100
AcDbLine
 10
489.7426288682
 20
157.0099719953
 30
0.0
 11
501.892526347
 21
157.0099719953
 31
0.0
  0
LINE
  5
22F
330
1F
100
AcDbEntity
  8
0
  6
Continuous
 62
     7
370
    25
100
AcDbLine
 10
535.1832020075
 20
157.0099719953
 30
0.0
 11
536.9879022279
 21
157.0099719953
 31
0.0
  0
LINE
  5
230
330
1F
100
AcDbEntity
  8
0
  6
Continuous
 62
     7
370
    25
100
AcDbLine
 10
536.9879022279
 20
142.0099719953
 30
0.0
 11
535.1832020075
 21
142.0099719953
 31
0.0
  0
LINE
  5
231
330
1F
100
AcDbEntity
  8
0
  6
Continuous
 62
     7
370
    25
100
AcDbLine
 10
385.8021667759
 20
157.0099719953
 30
0.0
 11
390.3310829436
 21
157.0099719953
 31
0.0
  0
LINE
  5
232
330
1F
100
AcDbEntity
  8
0
  6
Continuous
 62
     7
370
    25
100
AcDbLine
 10
390.3310829436
 20
142.0099719953
 30
0.0
 11
385.8021667936
 21
142.0099719953
 31
0.0
  0
LINE
  5
233
330
1F
100
AcDbEntity
  8
0
  6
Continuous
 62
     7
370
    25
100
AcDbLine
 10
539.7507821194
 20
145.0099719953
 30
0.0
 11
539.7507821194
 21
154.0099719953
 31
0.0
  0
LWPOLYLINE
  5
234
330
1F
100
AcDbEntity
  8
0
  6
Continuous
 62
     7
370
    25
100
AcDbPolyline
 90
        9
 70
   128
 43
0.0
 10
539.7507821194
 20
145.0099719953
 10
539.7452201996
 20
144.2182610241
 10
539.7516703067
 20
143.3455018794
 10
539.8527979255
 20
142.683844285
 10
540.1114844869
 20
142.2885302107
 10
540.5627815209
 20
142.0899668034
 10
541.2914063492
 20
142.0179587659
 10
542.3771907722
 20
142.0099720394
 10
542.43670495
 20
142.0099719953
  0
LINE
  5
235
330
1F
100
AcDbEntity
  8
0
  6
Continuous
 62
     7
370
    25
100
AcDbLine
 10
542.4366976977
 20
142.0099719953
 30
0.0
 11
536.9879022279
 21
142.0099719953
 31
0.0
  0
LWPOLYLINE
  5
236
330
1F
100
AcDbEntity
  8
0
  6
Continuous
 62
     7
370
    25
100
AcDbPolyline
 90
        8
 70
   128
 43
0.0
 10
542.4366904454
 20
157.0099719953
 10
541.4150031644
 20
157.0051164766
 10
540.4715377421
 20
156.9072377985
 10
540.0225380628
 20
156.6454264742
 10
539.7984437406
 20
156.1204362001
 10
539.7441867963
 20
155.4330493961
 10
539.7474108733
 20
154.5940476959
 10
539.7507821194
 20
154.0099719953
  0
LINE
  5
237
330
1F
100
AcDbEntity
  8
0
  6
Continuous
 62
     7
370
    25
100
AcDbLine
 10
536.9879022279
 20
157.0099719953
 30
0.0
 11
542.4366904454
 21
157.0099719953
 31
0.0
  0
LWPOLYLINE
  5
238
330
1F
100
AcDbEntity
  8
0
  6
Continuous
 62
     7
370
    25
100
AcDbPolyline
 90
        9
 70
   128
 43
0.0
 10
547.0422824005
 20
154.0099719953
 10
546.993144329
 20
154.7107151627
 10
546.7502799276
 20
155.5987321541
 10
546.2820854137
 20
156.2854385299
 10
545.6327530285
 20
156.7038901699
 10
544.8319098135
 20
156.9175047031
 10
543.8273486881
 20
156.999065315
 10
542.6154297337
 20
157.0099685518
 10
542.4366904454
 20
157.0099719953
  0
LINE
  5
239
330
1F
100
AcDbEntity
  8
0
  6
Continuous
 62
     7
370
    25
100
AcDbLine
 10
547.0422824005
 20
154.0099719953
 30
0.0
 11
547.0422824005
 21
145.0099719953
 31
0.0
  0
LWPOLYLINE
  5
23A
330
1F
100
AcDbEntity
  8
0
  6
Continuous
 62
     7
370
    25
100
AcDbPolyline
 90
        8
 70
   128
 43
0.0
 10
542.43670495
 20
142.0099719953
 10
543.6935949548
 20
142.017329544
 10
545.0143127564
 20
142.1343498538
 10
545.8462142846
 20
142.417741343
 10
546.4811736824
 20
142.9585952857
 10
546.842016553
 20
143.6592480549
 10
547.0178885997
 20
144.5122770042
 10
547.0422824005
 20
145.0099719953
  0
LINE
  5
23B
330
1F
100
AcDbEntity
  8
0
  6
Continuous
 62
     7
370
    25
100
AcDbLine
 10
547.0422824005
 20
145.0099719953
 30
0.0
 11
556.8167705835
 21
145.0099719953
 31
0.0
  0
LWPOLYLINE
  5
23C
330
1F
100
AcDbEntity
  8
0
  6
Continuous
 62
     7
370
    25
100
AcDbPolyline
 90
        9
 70
   128
 43
0.0
 10
556.8167705835
 20
145.0099719953
 10
556.7951593131
 20
144.2182610241
 10
556.7400331488
 20
143.3455018794
 10
556.7427988354
 20
142.683844285
 10
556.8892055586
 20
142.2885302107
 10
557.2255966838
 20
142.0899668034
 10
557.8384457676
 20
142.0179587659
 10
558.8244836013
 20
142.0099720394
 10
558.8802770445
 20
142.0099719953
  0
LINE
  5
23D
330
1F
100
AcDbEntity
  8
0
  6
Continuous
 62
     7
370
    25
100
AcDbLine
 10
558.8802591068
 20
142.0099719953
 30
0.0
 11
542.4366976977
 21
142.0099719953
 31
0.0
  0
LINE
  5
23E
330
1F
100
AcDbEntity
  8
0
  6
Continuous
 62
     7
370
    25
100
AcDbLine
 10
556.8167705835
 20
154.0099719953
 30
0.0
 11
547.0422824005
 21
154.0099719953
 31
0.0
  0
LWPOLYLINE
  5
23F
330
1F
100
AcDbEntity
  8
0
  6
Continuous
 62
     7
370
    25
100
AcDbPolyline
 90
        8
 70
   128
 43
0.0
 10
558.8802411691
 20
157.0099719953
 10
557.9471733609
 20
157.0051164766
 10
557.1536278639
 20
156.9072377985
 10
556.8317350781
 20
156.6454264742
 10
556.7281417377
 20
156.1204362001
 10
556.7553049246
 20
155.4330493961
 10
556.8047572843
 20
154.5940476959
 10
556.8167705835
 20
154.0099719953
  0
LINE
  5
240
330
1F
100
AcDbEntity
  8
0
  6
Continuous
 62
     7
370
    25
100
AcDbLine
 10
542.4366904454
 20
157.0099719953
 30
0.0
 11
558.8802411691
 21
157.0099719953
 31
0.0
  0
LINE
  5
241
330
1F
100
AcDbEntity
  8
0
  6
Continuous
 62
     7
370
    25
100
AcDbLine
 10
556.8167705835
 20
145.0099719953
 30
0.0
 11
556.8167705835
 21
154.0099719953
 31
0.0
  0
LWPOLYLINE
  5
242
330
1F
100
AcDbEntity
  8
0
  6
Continuous
 62
     7
370
    25
100
AcDbPolyline
 90
        9
 70
   128
 43
0.0
 10
563.6591742387
 20
154.0099719953
 10
563.600270722
 20
154.7107151627
 10
563.3150911267
 20
155.5987321541
 10
562.7853519768
 20
156.2854385299
 10
562.0791861427
 20
156.7038901699
 10
561.2394899001
 20
156.9175047031
 10
560.2237459686
 20
156.999065315
 10
559.0486555876
 20
157.0099685518
 10
558.8802411691
 20
157.0099719953
  0
LINE
  5
243
330
1F
100
AcDbEntity
  8
0
  6
Continuous
 62
     7
370
    25
100
AcDbLine
 10
563.6591742387
 20
154.0099719953
 30
0.0
 11
563.6591742387
 21
145.0099719953
 31
0.0
  0
LWPOLYLINE
  5
244
330
1F
100
AcDbEntity
  8
0
  6
Continuous
 62
     7
370
    25
100
AcDbPolyline
 90
        8
 70
   128
 43
0.0
 10
558.8802770445
 20
142.0099719953
 10
560.0913552548
 20
142.017329544
 10
561.4281945412
 20
142.1343498538
 10
562.3084125565
 20
142.417741343
 10
563.007986167
 20
142.9585952857
 10
563.421767859
 20
143.6592480549
 10
563.6298739232
 20
144.5122770042
 10
563.6591742387
 20
145.0099719953
  0
LINE
  5
245
330
1F
100
AcDbEntity
  8
0
  6
Continuous
 62
     7
370
    25
100
AcDbLine
 10
563.6591742387
 20
145.0099719953
 30
0.0
 11
572.7098111365
 21
145.0099719953
 31
0.0
  0
LWPOLYLINE
  5
246
330
1F
100
AcDbEntity
  8
0
  6
Continuous
 62
     7
370
    25
100
AcDbPolyline
 90
        9
 70
   128
 43
0.0
 10
572.7098111365
 20
145.0099719953
 10
572.6726195277
 20
144.2182610241
 10
572.5571134516
 20
143.3455018794
 10
572.4614571844
 20
142.683844285
 10
572.4924067203
 20
142.2885302107
 10
572.7065915067
 20
142.0899668034
 10
573.190364668
 20
142.0179587659
 10
574.0552567147
 20
142.0099720394
 10
574.1060339151
 20
142.0099719953
  0
LINE
  5
247
330
1F
100
AcDbEntity
  8
0
  6
Continuous
 62
     7
370
    25
100
AcDbLine
 10
574.106048015
 20
142.0099719953
 30
0.0
 11
558.8802591068
 21
142.0099719953
 31
0.0
  0
LINE
  5
248
330
1F
100
AcDbEntity
  8
0
  6
Continuous
 62
     7
370
    25
100
AcDbLine
 10
572.7098111365
 20
154.0099719953
 30
0.0
 11
563.6591742387
 21
154.0099719953
 31
0.0
  0
LWPOLYLINE
  5
249
330
1F
100
AcDbEntity
  8
0
  6
Continuous
 62
     7
370
    25
100
AcDbPolyline
 90
        8
 70
   128
 43
0.0
 10
574.106062115
 20
157.0099719953
 10
573.2818634106
 20
157.0051164766
 10
572.655459528
 20
156.9072377985
 10
572.4676594196
 20
156.6454264742
 10
572.4868152653
 20
156.1204362001
 10
572.5948090822
 20
155.4330493961
 10
572.6894164993
 20
154.5940476959
 10
572.7098111365
 20
154.0099719953
  0
LINE
  5
24A
330
1F
100
AcDbEntity
  8
0
  6
Continuous
 62
     7
370
    25
100
AcDbLine
 10
558.8802411691
 20
157.0099719953
 30
0.0
 11
574.106062115
 21
157.0099719953
 31
0.0
  0
LINE
  5
24B
330
1F
100
AcDbEntity
  8
0
  6
Continuous
 62
     7
370
    25
100
AcDbLine
 10
572.7098111365
 20
145.0099719953
 30
0.0
 11
572.7098111365
 21
154.0099719953
 31
0.0
  0
LWPOLYLINE
  5
24C
330
1F
100
AcDbEntity
  8
0
  6
Continuous
 62
     7
370
    25
100
AcDbPolyline
 90
        9
 70
   128
 43
0.0
 10
578.9546229018
 20
154.0099719953
 10
578.8872322762
 20
154.7107151627
 10
578.5659265138
 20
155.5987321541
 10
577.9861392368
 20
156.2854385299
 10
577.2384653113
 20
156.7038901699
 10
576.3781393032
 20
156.9175047031
 10
575.3732564512
 20
156.999065315
 10
574.2604966989
 20
157.0099685518
 10
574.106062115
 20
157.0099719953
  0
LINE
  5
24D
330
1F
100
AcDbEntity
  8
0
  6
Continuous
 62
     7
370
    25
100
AcDbLine
 10
578.9546229018
 20
154.0099719953
 30
0.0
 11
578.9546229018
 21
145.0099719953
 31
0.0
  0
LWPOLYLINE
  5
24E
330
1F
100
AcDbEntity
  8
0
  6
Continuous
 62
     7
370
    25
100
AcDbPolyline
 90
        8
 70
   128
 43
0.0
 10
574.1060339151
 20
142.0099719953
 10
575.2451019277
 20
142.017329544
 10
576.5690503353
 20
142.1343498538
 10
577.4784821637
 20
142.417741343
 10
578.2274876951
 20
142.9585952857
 10
578.6852282324
 20
143.6592480549
 10
578.9210519532
 20
144.5122770042
 10
578.9546229018
 20
145.0099719953
  0
LINE
  5
24F
330
1F
100
AcDbEntity
  8
0
  6
Continuous
 62
     7
370
    25
100
AcDbLine
 10
578.9546229018
 20
145.0099719953
 30
0.0
 11
587.0849897143
 21
145.0099719953
 31
0.0
  0
LWPOLYLINE
  5
250
330
1F
100
AcDbEntity
  8
0
  6
Continuous
 62
     7
370
    25
100
AcDbPolyline
 90
        9
 70
   128
 43
0.0
 10
587.0849897143
 20
145.0099719953
 10
587.0330249071
 20
144.2182610241
 10
586.859645656
 20
143.3455018794
 10
586.6676433872
 20
142.683844285
 10
586.5824640625
 20
142.2885302107
 10
586.6697942275
 20
142.0899668034
 10
587.0139925207
 20
142.0179587659
 10
587.7389687138
 20
142.0099720394
 10
587.7837339198
 20
142.0099719953
  0
LINE
  5
251
330
1F
100
AcDbEntity
  8
0
  6
Continuous
 62
     7
370
    25
100
AcDbLine
 10
587.7837266384
 20
142.0099719953
 30
0.0
 11
574.106048015
 21
142.0099719953
 31
0.0
  0
LINE
  5
252
330
1F
100
AcDbEntity
  8
0
  6
Continuous
 62
     7
370
    25
100
AcDbLine
 10
587.0849897143
 20
154.0099719953
 30
0.0
 11
578.9546229018
 21
154.0099719953
 31
0.0
  0
LWPOLYLINE
  5
253
330
1F
100
AcDbEntity
  8
0
  6
Continuous
 62
     7
370
    25
100
AcDbPolyline
 90
        8
 70
   128
 43
0.0
 10
587.7837193571
 20
157.0099719953
 10
587.0862766879
 20
157.0051164766
 10
586.6406087667
 20
156.9072377985
 10
586.5909770128
 20
156.6454264742
 10
586.7324663203
 20
156.1204362001
 10
586.9189470631
 20
155.4330493961
 10
587.0566563477
 20
154.5940476959
 10
587.0849897143
 20
154.0099719953
  0
LINE
  5
254
330
1F
100
AcDbEntity
  8
0
  6
Continuous
 62
     7
370
    25
100
AcDbLine
 10
574.106062115
 20
157.0099719953
 30
0.0
 11
587.7837193571
 21
157.0099719953
 31
0.0
  0
LINE
  5
255
330
1F
100
AcDbEntity
  8
0
  6
Continuous
 62
     7
370
    25
100
AcDbLine
 10
587.0849897143
 20
145.0099719953
 30
0.0
 11
587.0849897143
 21
154.0099719953
 31
0.0
  0
LWPOLYLINE
  5
256
330
1F
100
AcDbEntity
  8
0
  6
Continuous
 62
     7
370
    25
100
AcDbPolyline
 90
        9
 70
   128
 43
0.0
 10
592.5966833888
 20
154.0099719953
 10
592.5222681797
 20
154.7107151627
 10
592.1718092945
 20
155.5987321541
 10
591.5545565542
 20
156.2854385299
 10
590.781600712
 20
156.7038901699
 10
589.919315912
 20
156.9175047031
 10
588.9471023157
 20
156.999065315
 10
587.920822535
 20
157.0099685518
 10
587.7837193571
 20
157.0099719953
  0
LINE
  5
257
330
1F
100
AcDbEntity
  8
0
  6
Continuous
 62
     7
370
    25
100
AcDbLine
 10
592.5966833888
 20
154.0099719953
 30
0.0
 11
592.5966833888
 21
145.0099719953
 31
0.0
  0
LWPOLYLINE
  5
258
330
1F
100
AcDbEntity
  8
0
  6
Continuous
 62
     7
370
    25
100
AcDbPolyline
 90
        8
 70
   128
 43
0.0
 10
587.7837339198
 20
142.0099719953
 10
588.8259652185
 20
142.017329544
 10
590.1082901441
 20
142.1343498538
 10
591.0271991074
 20
142.417741343
 10
591.8093814863
 20
142.9585952857
 10
592.3011468887
 20
143.6592480549
 10
592.5595703708
 20
144.5122770042
 10
592.5966833888
 20
145.0099719953
  0
LINE
  5
259
330
1F
100
AcDbEntity
  8
0
  6
Continuous
 62
     7
370
    25
100
AcDbLine
 10
592.5966833888
 20
145.0099719953
 30
0.0
 11
599.6303332083
 21
145.0099719953
 31
0.0
  0
LWPOLYLINE
  5
25A
330
1F
100
AcDbEntity
  8
0
  6
Continuous
 62
     7
370
    25
100
AcDbPolyline
 90
        9
 70
   128
 43
0.0
 10
599.6303332083
 20
145.0099719953
 10
599.5647229538
 20
144.2182610241
 10
599.3372332402
 20
143.3455018794
 10
599.0530518429
 20
142.683844285
 10
598.853592237
 20
142.2885302107
 10
598.8121725232
 20
142.0899668034
 10
599.0093260855
 20
142.0179587659
 10
599.5786528412
 20
142.0099720394
 10
599.6163837622
 20
142.0099719953
  0
LINE
  5
25B
330
1F
100
AcDbEntity
  8
0
  6
Continuous
 62
     7
370
    25
100
AcDbLine
 10
599.616380651
 20
142.0099719953
 30
0.0
 11
587.7837266384
 21
142.0099719953
 31
0.0
  0
LINE
  5
25C
330
1F
100
AcDbEntity
  8
0
  6
Continuous
 62
     7
370
    25
100
AcDbLine
 10
599.6303332083
 20
154.0099719953
 30
0.0
 11
592.5966833888
 21
154.0099719953
 31
0.0
  0
LWPOLYLINE
  5
25D
330
1F
100
AcDbEntity
  8
0
  6
Continuous
 62
     7
370
    25
100
AcDbPolyline
 90
        8
 70
   128
 43
0.0
 10
599.6163775398
 20
157.0099719953
 10
599.0608269513
 20
157.0051164766
 10
598.8055669693
 20
156.9072377985
 10
598.8951806883
 20
156.6454264742
 10
599.1559328275
 20
156.1204362001
 10
599.4168534523
 20
155.4330493961
 10
599.594676009
 20
154.5940476959
 10
599.6303332083
 20
154.0099719953
  0
LINE
  5
25E
330
1F
100
AcDbEntity
  8
0
  6
Continuous
 62
     7
370
    25
100
AcDbLine
 10
587.7837193571
 20
157.0099719953
 30
0.0
 11
599.6163775398
 21
157.0099719953
 31
0.0
  0
LINE
  5
25F
330
1F
100
AcDbEntity
  8
0
  6
Continuous
 62
     7
370
    25
100
AcDbLine
 10
599.6303332083
 20
145.0099719953
 30
0.0
 11
599.6303332083
 21
154.0099719953
 31
0.0
  0
LWPOLYLINE
  5
260
330
1F
100
AcDbEntity
  8
0
  6
Continuous
 62
     7
370
    25
100
AcDbPolyline
 90
        9
 70
   128
 43
0.0
 10
604.2892928722
 20
154.0099719953
 10
604.2094680539
 20
154.7107151627
 10
603.8374617774
 20
155.5987321541
 10
603.1961393208
 20
156.2854385299
 10
602.41467641
 20
156.7038901699
 10
601.5691463017
 20
156.9175047031
 10
600.6507011423
 20
156.999065315
 10
599.7331738701
 20
157.0099685518
 10
599.6163775398
 20
157.0099719953
  0
LINE
  5
261
330
1F
100
AcDbEntity
  8
0
  6
Continuous
 62
     7
370
    25
100
AcDbLine
 10
604.2892928722
 20
154.0099719953
 30
0.0
 11
604.2892928722
 21
145.0099719953
 31
0.0
  0
LWPOLYLINE
  5
262
330
1F
100
AcDbEntity
  8
0
  6
Continuous
 62
     7
370
    25
100
AcDbPolyline
 90
        8
 70
   128
 43
0.0
 10
599.6163837622
 20
142.0099719953
 10
600.5392104139
 20
142.017329544
 10
601.7520825759
 20
142.1343498538
 10
602.6605263211
 20
142.417741343
 10
603.4589104632
 20
142.9585952857
 10
603.9740283359
 20
143.6592480549
 10
604.2494432192
 20
144.5122770042
 10
604.2892928722
 20
145.0099719953
  0
LINE
  5
263
330
1F
100
AcDbEntity
  8
0
  6
Continuous
 62
     7
370
    25
100
AcDbLine
 10
604.2892928722
 20
145.0099719953
 30
0.0
 11
610.0735799707
 21
145.0099719953
 31
0.0
  0
LWPOLYLINE
  5
264
330
1F
100
AcDbEntity
  8
0
  6
Continuous
 62
     7
370
    25
100
AcDbPolyline
 90
        9
 70
   128
 43
0.0
 10
610.0735799707
 20
145.0099719953
 10
609.9957481563
 20
144.2182610241
 10
609.7190850091
 20
143.3455018794
 10
609.3488918469
 20
142.683844285
 10
609.0394806736
 20
142.2885302107
 10
608.8702099802
 20
142.0899668034
 10
608.9160401442
 20
142.0179587659
 10
609.317361815
 20
142.0099720394
 10
609.3472612925
 20
142.0099719953
  0
LINE
  5
265
330
1F
100
AcDbEntity
  8
0
  6
Continuous
 62
     7
370
    25
100
AcDbLine
 10
609.347251576
 20
142.0099719953
 30
0.0
 11
599.616380651
 21
142.0099719953
 31
0.0
  0
LINE
  5
266
330
1F
100
AcDbEntity
  8
0
  6
Continuous
 62
     7
370
    25
100
AcDbLine
 10
610.0735799707
 20
154.0099719953
 30
0.0
 11
604.2892928722
 21
154.0099719953
 31
0.0
  0
LWPOLYLINE
  5
267
330
1F
100
AcDbEntity
  8
0
  6
Continuous
 62
     7
370
    25
100
AcDbPolyline
 90
        8
 70
   128
 43
0.0
 10
609.3472418597
 20
157.0099719953
 10
608.9456400261
 20
157.0051164766
 10
608.8863276883
 20
156.9072377985
 10
609.1132420648
 20
156.6454264742
 10
609.4875981386
 20
156.1204362001
 10
609.8172960918
 20
155.4330493961
 10
610.0313727786
 20
154.5940476959
 10
610.0735799707
 20
154.0099719953
  0
LINE
  5
268
330
1F
100
AcDbEntity
  8
0
  6
Continuous
 62
     7
370
    25
100
AcDbLine
 10
599.6163775398
 20
157.0099719953
 30
0.0
 11
609.3472418597
 21
157.0099719953
 31
0.0
  0
LINE
  5
269
330
1F
100
AcDbEntity
  8
0
  6
Continuous
 62
     7
370
    25
100
AcDbLine
 10
610.0735799707
 20
145.0099719953
 30
0.0
 11
610.0735799707
 21
154.0099719953
 31
0.0
  0
LWPOLYLINE
  5
26A
330
1F
100
AcDbEntity
  8
0
  6
Continuous
 62
     7
370
    25
100
AcDbPolyline
 90
        9
 70
   128
 43
0.0
 10
613.7786959146
 20
154.0099719953
 10
613.6951938618
 20
154.7107151627
 10
613.3097135514
 20
155.5987321541
 10
612.6582394916
 20
156.2854385299
 10
611.8852289825
 20
156.7038901699
 10
611.0748034358
 20
156.9175047031
 10
610.2300590007
 20
156.999065315
 10
609.4411966042
 20
157.0099685518
 10
609.3472418597
 20
157.0099719953
  0
LINE
  5
26B
330
1F
100
AcDbEntity
  8
0
  6
Continuous
 62
     7
370
    25
100
AcDbLine
 10
613.7786959146
 20
154.0099719953
 30
0.0
 11
613.7786959146
 21
145.0099719953
 31
0.0
  0
LWPOLYLINE
  5
26C
330
1F
100
AcDbEntity
  8
0
  6
Continuous
 62
     7
370
    25
100
AcDbPolyline
 90
        8
 70
   128
 43
0.0
 10
609.3472612925
 20
142.0099719953
 10
610.1306342359
 20
142.017329544
 10
611.2477316311
 20
142.1343498538
 10
612.1259949234
 20
142.417741343
 10
612.9232541304
 20
142.9585952857
 10
613.4505452784
 20
143.6592480549
 10
613.736974452
 20
144.5122770042
 10
613.7786959146
 20
145.0099719953
  0
LINE
  5
26D
330
1F
100
AcDbEntity
  8
0
  6
Continuous
 62
     7
370
    25
100
AcDbLine
 10
613.7786959146
 20
145.0099719953
 30
0.0
 11
618.1880884932
 21
145.0099719953
 31
0.0
  0
ARC
  5
26E
330
1F
100
AcDbEntity
  8
0
  6
Continuous
 62
     7
370
    25
100
AcDbCircle
 10
614.6774897782
 20
145.0073359423
 30
0.0
 40
3.51059970470074
100
AcDbArc
 50
301.8493316594
 51
0.0430224866
  0
LWPOLYLINE
  5
26F
330
1F
100
AcDbEntity
  8
0
  6
Continuous
 62
     7
370
    25
100
AcDbPolyline
 90
        3
 70
   128
 43
0.0
 10
616.5191371324
 20
142.0179587659
 10
616.7437441522
 20
142.0099720394
 10
616.76513108
 20
142.0099719953
  0
LINE
  5
270
330
1F
100
AcDbEntity
  8
0
  6
Continuous
 62
     7
370
    25
100
AcDbLine
 10
616.76513108
 20
142.0099719953
 30
0.0
 11
609.347251576
 21
142.0099719953
 31
0.0
  0
LINE
  5
271
330
1F
100
AcDbEntity
  8
0
  6
Continuous
 62
     7
370
    25
100
AcDbLine
 10
618.1880884932
 20
154.0099719953
 30
0.0
 11
613.7786959146
 21
154.0099719953
 31
0.0
  0
ARC
  5
272
330
1F
100
AcDbEntity
  8
0
  6
Continuous
 62
     7
370
    25
100
AcDbCircle
 10
614.6232508163
 20
153.9886795085
 30
0.0
 40
3.564901265513703
100
AcDbArc
 50
0.3422189827
 51
57.2314362664
  0
LINE
  5
273
330
1F
100
AcDbEntity
  8
0
  6
Continuous
 62
     7
370
    25
100
AcDbLine
 10
609.3472418597
 20
157.0099719953
 30
0.0
 11
616.76513108
 21
157.0099719953
 31
0.0
  0
LINE
  5
274
330
1F
100
AcDbEntity
  8
0
  6
Continuous
 62
     7
370
    25
100
AcDbLine
 10
618.1880884932
 20
145.0099719953
 30
0.0
 11
618.1880884932
 21
154.0099719953
 31
0.0
  0
LWPOLYLINE
  5
275
330
1F
100
AcDbEntity
  8
0
  6
Continuous
 62
     7
370
    25
100
AcDbPolyline
 90
        9
 70
   128
 43
0.0
 10
620.8589515219
 20
154.0099719953
 10
620.7735844136
 20
154.7107151627
 10
620.3829958429
 20
155.5987321541
 10
619.7355086052
 20
156.2854385299
 10
618.9877265322
 20
156.7038901699
 10
618.2299935705
 20
156.9175047031
 10
617.4772826788
 20
156.999065315
 10
616.8342052134
 20
157.0099685518
 10
616.76513108
 20
157.0099719953
  0
LINE
  5
276
330
1F
100
AcDbEntity
  8
0
  6
Continuous
 62
     7
370
    25
100
AcDbLine
 10
620.8589515219
 20
154.0099719953
 30
0.0
 11
620.8589515219
 21
145.0099719953
 31
0.0
  0
ARC
  5
277
330
1F
100
AcDbEntity
  8
0
  6
Continuous
 62
     7
370
    25
100
AcDbCircle
 10
617.532929407
 20
145.2554568017
 30
0.0
 40
3.335069099615826
100
AcDbArc
 50
256.6899982086
 51
355.7788055012
  0
LINE
  5
278
330
1F
100
AcDbEntity
  8
0
  6
Continuous
 62
     7
370
    25
100
AcDbLine
 10
620.8589515219
 20
145.0099719953
 30
0.0
 11
623.7977560279
 21
145.0099719953
 31
0.0
  0
LWPOLYLINE
  5
279
330
1F
100
AcDbEntity
  8
0
  6
Continuous
 62
     7
370
    25
100
AcDbPolyline
 90
        8
 70
   128
 43
0.0
 10
623.7977560279
 20
145.0099719953
 10
623.7007770372
 20
144.2182610241
 10
623.3447164936
 20
143.3455018794
 10
622.8282941176
 20
142.683844285
 10
622.3213649894
 20
142.2885302107
 10
621.9101079043
 20
142.0899668034
 10
621.6536130615
 20
142.0179587659
 10
621.6703073367
 20
142.0148592979
  0
LINE
  5
27A
330
1F
100
AcDbEntity
  8
0
  6
Continuous
 62
     7
370
    25
100
AcDbLine
 10
621.7090632277
 20
142.0099719953
 30
0.0
 11
616.76513108
 21
142.0099719953
 31
0.0
  0
LINE
  5
27B
330
1F
100
AcDbEntity
  8
0
  6
Continuous
 62
     7
370
    25
100
AcDbLine
 10
623.7977560279
 20
154.0099719953
 30
0.0
 11
620.8589515219
 21
154.0099719953
 31
0.0
  0
LWPOLYLINE
  5
27C
330
1F
100
AcDbEntity
  8
0
  6
Continuous
 62
     7
370
    25
100
AcDbPolyline
 90
        8
 70
   128
 43
0.0
 10
621.6582305987
 20
157.0065001339
 10
621.6379730682
 20
157.0051164766
 10
621.9701372132
 20
156.9072377985
 10
622.4540064222
 20
156.6454264742
 10
623.0289081656
 20
156.1204362001
 10
623.4733579188
 20
155.4330493961
 10
623.7453190881
 20
154.5940476959
 10
623.7977560279
 20
154.0099719953
  0
LINE
  5
27D
330
1F
100
AcDbEntity
  8
0
  6
Continuous
 62
     7
370
    25
100
AcDbLine
 10
616.76513108
 20
157.0099719953
 30
0.0
 11
621.7090606296
 21
157.0099719953
 31
0.0
  0
LINE
  5
27E
330
1F
100
AcDbEntity
  8
0
  6
Continuous
 62
     7
370
    25
100
AcDbLine
 10
623.7977560279
 20
145.0099719953
 30
0.0
 11
623.7977560279
 21
154.0099719953
 31
0.0
  0
ARC
  5
27F
330
1F
100
AcDbEntity
  8
0
  6
Continuous
 62
     7
370
    25
100
AcDbCircle
 10
622.0995494036
 20
153.7457578538
 30
0.0
 40
3.287487710182706
100
AcDbArc
 50
4.6098118759
 51
96.8217154194
  0
LINE
  5
280
330
1F
100
AcDbEntity
  8
0
  6
Continuous
 62
     7
370
    25
100
AcDbLine
 10
625.3764025178
 20
154.0099719953
 30
0.0
 11
625.3764025178
 21
145.0099719953
 31
0.0
  0
ARC
  5
281
330
1F
100
AcDbEntity
  8
0
  6
Continuous
 62
     7
370
    25
100
AcDbCircle
 10
622.198566111
 20
145.1531442786
 30
0.0
 40
3.181059969791029
100
AcDbArc
 50
261.1481765847
 51
357.4203756922
  0
LINE
  5
282
330
1F
100
AcDbEntity
  8
0
  6
Continuous
 62
     7
370
    25
100
AcDbLine
 10
625.3764025178
 20
145.0099719953
 30
0.0
 11
626.7808404058
 21
145.0099719953
 31
0.0
  0
ARC
  5
283
330
1F
100
AcDbEntity
  8
0
  6
Continuous
 62
     7
370
    25
100
AcDbCircle
 10
623.8855168848
 20
144.9013667027
 30
0.0
 40
2.897359729360237
100
AcDbArc
 50
274.0004964635
 51
2.1481913213
  0
LINE
  5
284
330
1F
100
AcDbEntity
  8
0
  6
Continuous
 62
     7
370
    25
100
AcDbLine
 10
624.0717363235
 20
142.0099719953
 30
0.0
 11
621.7090632277
 21
142.0099719953
 31
0.0
  0
LINE
  5
285
330
1F
100
AcDbEntity
  8
0
  6
Continuous
 62
     7
370
    25
100
AcDbLine
 10
626.7808404058
 20
154.0099719953
 30
0.0
 11
625.3764025178
 21
154.0099719953
 31
0.0
  0
ARC
  5
286
330
1F
100
AcDbEntity
  8
0
  6
Continuous
 62
     7
370
    25
100
AcDbCircle
 10
623.8324975213
 20
154.0714146677
 30
0.0
 40
2.948983039396474
100
AcDbArc
 50
358.8061441799
 51
84.9582996942
  0
LINE
  5
287
330
1F
100
AcDbEntity
  8
0
  6
Continuous
 62
     7
370
    25
100
AcDbLine
 10
621.7090606296
 20
157.0099719953
 30
0.0
 11
624.0717363235
 21
157.0099719953
 31
0.0
  0
LINE
  5
288
330
1F
100
AcDbEntity
  8
0
  6
Continuous
 62
     7
370
    25
100
AcDbLine
 10
626.7808404058
 20
145.0099719953
 30
0.0
 11
626.7808404058
 21
154.0099719953
 31
0.0
  0
ARC
  5
289
330
1F
100
AcDbEntity
  8
0
  6
Continuous
 62
     7
370
    25
100
AcDbCircle
 10
624.1816310429
 20
153.9601656328
 30
0.0
 40
3.051785657297177
100
AcDbArc
 50
0.9351315533
 51
92.0636656414
  0
LINE
  5
28A
330
1F
100
AcDbEntity
  8
0
  6
Continuous
 62
     7
370
    25
100
AcDbLine
 10
627.2330102433
 20
154.0099719953
 30
0.0
 11
627.2330102433
 21
145.0099719953
 31
0.0
  0
ARC
  5
28B
330
1F
100
AcDbEntity
  8
0
  6
Continuous
 62
     7
370
    25
100
AcDbCircle
 10
624.2049028308
 20
145.0352555258
 30
0.0
 40
3.028212964536269
100
AcDbArc
 50
267.4795893777
 51
359.5216134276
  0
LINE
  5
28C
330
1F
100
AcDbEntity
  8
0
  6
Continuous
 62
     7
370
    25
100
AcDbLine
 10
624.280661307
 20
142.0099719953
 30
0.0
 11
624.0717363235
 21
142.0099719953
 31
0.0
  0
LINE
  5
28D
330
1F
100
AcDbEntity
  8
0
  6
Continuous
 62
     7
370
    25
100
AcDbLine
 10
624.0717363235
 20
157.0099719953
 30
0.0
 11
624.280661307
 21
157.0099719953
 31
0.0
  0
LINE
  5
28E
330
1F
100
AcDbEntity
  8
0
  6
Continuous
 62
     7
370
    25
100
AcDbLine
 10
-29.721603007
 20
145.0099719953
 30
0.0
 11
-29.721603007
 21
154.0099719953
 31
0.0
  0
ARC
  5
28F
330
1F
100
AcDbEntity
  8
0
  6
Continuous
 62
     7
370
    25
100
AcDbCircle
 10
-26.8618191342
 20
154.1483983972
 30
0.0
 40
2.863132142914289
100
AcDbArc
 50
91.8905852983
 51
182.7712104662
  0
LINE
  5
290
330
1F
100
AcDbEntity
  8
0
  6
Continuous
 62
     7
370
    25
100
AcDbLine
 10
-26.9562765857
 20
157.0099719953
 30
0.0
 11
53.9675231042
 21
157.0099719953
 31
0.0
  0
LINE
  5
291
330
1F
100
AcDbEntity
  8
0
  6
Continuous
 62
     7
370
    25
100
AcDbLine
 10
53.9675231042
 20
142.0099719953
 30
0.0
 11
-26.9562765857
 21
142.0099719953
 31
0.0
  0
ARC
  5
292
330
1F
100
AcDbEntity
  8
0
  6
Continuous
 62
     7
370
    25
100
AcDbCircle
 10
-26.8618191342
 20
144.8715455935
 30
0.0
 40
2.86313214291439
100
AcDbArc
 50
177.2287895338
 51
268.1094147017
  0
LINE
  5
293
330
1F
100
AcDbEntity
  8
0
  6
Continuous
 62
     7
370
    25
100
AcDbLine
 10
-41.6968347274
 20
157.0099719953
 30
0.0
 11
-26.9562765857
 21
157.0099719953
 31
0.0
  0
LINE
  5
294
330
1F
100
AcDbEntity
  8
0
  6
Continuous
 62
     7
370
    25
100
AcDbLine
 10
-26.9562765857
 20
142.0099719953
 30
0.0
 11
-41.6968347274
 21
142.0099719953
 31
0.0
  0
ARC
  5
295
330
1F
100
AcDbEntity
  8
0
  6
Continuous
 62
     7
370
    25
100
AcDbCircle
 10
-60.1367490684
 20
144.2658969216
 30
0.0
 40
8.670182144562046
100
AcDbArc
 50
344.9184567072
 51
4.9231799982
  0
LINE
  5
296
330
1F
100
AcDbEntity
  8
0
  6
Continuous
 62
     7
370
    25
100
AcDbLine
 10
-41.6968347274
 20
142.0099719953
 30
0.0
 11
-51.765198367
 21
142.0099719953
 31
0.0
  0
ARC
  5
297
330
1F
100
AcDbEntity
  8
0
  6
Continuous
 62
     7
370
    25
100
AcDbCircle
 10
-60.1367490684
 20
154.754047069
 30
0.0
 40
8.67018214456214
100
AcDbArc
 50
355.0768200018
 51
15.0815432928
  0
LINE
  5
298
330
1F
100
AcDbEntity
  8
0
  6
Continuous
 62
     7
370
    25
100
AcDbLine
 10
-51.765198367
 20
157.0099719953
 30
0.0
 11
-41.6968347274
 21
157.0099719953
 31
0.0
  0
LINE
  5
299
330
1F
100
AcDbEntity
  8
0
  6
Continuous
 62
     7
370
    25
100
AcDbLine
 10
-51.4985541931
 20
145.0099719953
 30
0.0
 11
-51.4985541931
 21
154.0099719953
 31
0.0
  0
LWPOLYLINE
  5
29A
330
1F
100
AcDbEntity
  8
0
  6
Continuous
 62
     7
370
    25
100
AcDbPolyline
 90
        9
 70
   128
 43
0.0
 10
60.5495519033
 20
142.0099719953
 10
60.7753209194
 20
142.0676161541
 10
60.9924137589
 20
142.2383333978
 10
61.1924876656
 20
142.5155631584
 10
61.3678539115
 20
142.8886516518
 10
61.5117732701
 20
143.3432612963
 10
61.6187150012
 20
143.8619216982
 10
61.6845693941
 20
144.4247010293
 10
61.7068057013
 20
145.0099719953
  0
LINE
  5
29B
330
1F
100
AcDbEntity
  8
0
  6
Continuous
 62
     7
370
    25
100
AcDbLine
 10
60.5495519033
 20
142.0099719953
 30
0.0
 11
53.9675231042
 21
142.0099719953
 31
0.0
  0
LINE
  5
29C
330
1F
100
AcDbEntity
  8
0
  6
Continuous
 62
     7
370
    25
100
AcDbLine
 10
61.7068057013
 20
154.0099719953
 30
0.0
 11
61.7068057013
 21
145.0099719953
 31
0.0
  0
LWPOLYLINE
  5
29D
330
1F
100
AcDbEntity
  8
0
  6
Continuous
 62
     7
370
    25
100
AcDbPolyline
 90
        9
 70
   128
 43
0.0
 10
61.7068057013
 20
154.0099719953
 10
61.6845693941
 20
154.5952429614
 10
61.6187150012
 20
155.1580222924
 10
61.5117732701
 20
155.6766826944
 10
61.3678539115
 20
156.1312923389
 10
61.1924876656
 20
156.5043808322
 10
60.9924137589
 20
156.7816105929
 10
60.7753209194
 20
156.9523278365
 10
60.5495519033
 20
157.0099719953
  0
LINE
  5
29E
330
1F
100
AcDbEntity
  8
0
  6
Continuous
 62
     7
370
    25
100
AcDbLine
 10
53.9675231042
 20
157.0099719953
 30
0.0
 11
60.5495519033
 21
157.0099719953
 31
0.0
  0
LINE
  5
29F
330
1F
100
AcDbEntity
  8
0
  6
Continuous
 62
     7
370
    25
100
AcDbLine
 10
-69.9448308924
 20
145.0099719953
 30
0.0
 11
-51.4985541931
 21
145.0099719953
 31
0.0
  0
LINE
  5
2A0
330
1F
100
AcDbEntity
  8
0
  6
Continuous
 62
     7
370
    25
100
AcDbLine
 10
-69.9448308924
 20
154.0099719953
 30
0.0
 11
-69.9448308924
 21
145.0099719953
 31
0.0
  0
LINE
  5
2A1
330
1F
100
AcDbEntity
  8
0
  6
Continuous
 62
     7
370
    25
100
AcDbLine
 10
-51.4985541931
 20
154.0099719953
 30
0.0
 11
-69.9448308924
 21
154.0099719953
 31
0.0
  0
ARC
  5
2A2
330
1F
100
AcDbEntity
  8
0
  6
Continuous
 62
     7
370
    25
100
AcDbCircle
 10
-66.2979888907
 20
154.7161577158
 30
0.0
 40
3.714586767960584
100
AcDbArc
 50
141.8650830202
 51
190.9592921945
  0
LINE
  5
2A3
330
1F
100
AcDbEntity
  8
0
  6
Continuous
 62
     7
370
    25
100
AcDbLine
 10
-69.2197299655
 20
157.0099719953
 30
0.0
 11
-51.765198367
 21
157.0099719953
 31
0.0
  0
ARC
  5
2A4
330
1F
100
AcDbEntity
  8
0
  6
Continuous
 62
     7
370
    25
100
AcDbCircle
 10
-66.2979888907
 20
144.3037862748
 30
0.0
 40
3.714586767960209
100
AcDbArc
 50
169.0407078055
 51
218.1349169798
  0
LINE
  5
2A5
330
1F
100
AcDbEntity
  8
0
  6
Continuous
 62
     7
370
    25
100
AcDbLine
 10
-51.765198367
 20
142.0099719953
 30
0.0
 11
-69.2197299655
 21
142.0099719953
 31
0.0
  0
LINE
  5
2A6
330
1F
100
AcDbEntity
  8
0
  6
Continuous
 62
     7
370
    25
100
AcDbLine
 10
-82.110824713
 20
157.0099719953
 30
0.0
 11
-69.2197299655
 21
157.0099719953
 31
0.0
  0
LINE
  5
2A7
330
1F
100
AcDbEntity
  8
0
  6
Continuous
 62
     7
370
    25
100
AcDbLine
 10
-69.2197299655
 20
142.0099719953
 30
0.0
 11
-82.110824713
 21
142.0099719953
 31
0.0
  0
LINE
  5
2A8
330
1F
100
AcDbEntity
  8
0
  6
Continuous
 62
     7
370
    25
100
AcDbLine
 10
86.36035495
 20
154.0099719953
 30
0.0
 11
61.7068057013
 21
154.0099719953
 31
0.0
  0
LINE
  5
2A9
330
1F
100
AcDbEntity
  8
0
  6
Continuous
 62
     7
370
    25
100
AcDbLine
 10
86.36035495
 20
145.0099719953
 30
0.0
 11
86.36035495
 21
154.0099719953
 31
0.0
  0
LINE
  5
2AA
330
1F
100
AcDbEntity
  8
0
  6
Continuous
 62
     7
370
    25
100
AcDbLine
 10
61.7068057013
 20
145.0099719953
 30
0.0
 11
86.36035495
 21
145.0099719953
 31
0.0
  0
ARC
  5
2AB
330
1F
100
AcDbEntity
  8
0
  6
Continuous
 62
     7
370
    25
100
AcDbCircle
 10
109.6461695275
 20
144.0923484848
 30
0.0
 40
23.30388794696069
100
AcDbArc
 50
177.7433143146
 51
185.1266439516
  0
LINE
  5
2AC
330
1F
100
AcDbEntity
  8
0
  6
Continuous
 62
     7
370
    25
100
AcDbLine
 10
86.4355059954
 20
142.0099719953
 30
0.0
 11
60.5495519033
 21
142.0099719953
 31
0.0
  0
ARC
  5
2AD
330
1F
100
AcDbEntity
  8
0
  6
Continuous
 62
     7
370
    25
100
AcDbCircle
 10
109.6461695275
 20
154.9275955059
 30
0.0
 40
23.30388794689974
100
AcDbArc
 50
174.8733560484
 51
182.2566856854
  0
LINE
  5
2AE
330
1F
100
AcDbEntity
  8
0
  6
Continuous
 62
     7
370
    25
100
AcDbLine
 10
60.5495519033
 20
157.0099719953
 30
0.0
 11
86.4355059954
 21
157.0099719953
 31
0.0
  0
LINE
  5
2AF
330
1F
100
AcDbEntity
  8
0
  6
Continuous
 62
     7
370
    25
100
AcDbLine
 10
168.2254686525
 20
142.0099719953
 30
0.0
 11
86.4355059954
 21
142.0099719953
 31
0.0
  0
LINE
  5
2B0
330
1F
100
AcDbEntity
  8
0
  6
Continuous
 62
     7
370
    25
100
AcDbLine
 10
86.4355059954
 20
157.0099719953
 30
0.0
 11
168.2254686525
 21
157.0099719953
 31
0.0
  0
LWPOLYLINE
  5
2B1
330
1F
100
AcDbEntity
  8
0
  6
Continuous
 62
     7
370
    25
100
AcDbPolyline
 90
        3
 70
   128
 43
0.0
 10
-82.1226330246
 20
157.0075742154
 10
-82.3780027144
 20
157.0099706114
 10
-82.4552638169
 20
157.0099719953
  0
LINE
  5
2B2
330
1F
100
AcDbEntity
  8
0
  6
Continuous
 62
     7
370
    25
100
AcDbLine
 10
-82.4552638169
 20
157.0099719953
 30
0.0
 11
-82.110824713
 21
157.0099719953
 31
0.0
  0
LINE
  5
2B3
330
1F
100
AcDbEntity
  8
0
  6
Continuous
 62
     7
370
    25
100
AcDbLine
 10
-82.455263817
 20
142.0099719953
 30
0.0
 11
-82.1230412977
 21
142.0120495975
 31
0.0
  0
LINE
  5
2B4
330
1F
100
AcDbEntity
  8
0
  6
Continuous
 62
     7
370
    25
100
AcDbLine
 10
-82.110824713
 20
142.0099719953
 30
0.0
 11
-82.455263817
 21
142.0099719953
 31
0.0
  0
LWPOLYLINE
  5
2B5
330
1F
100
AcDbEntity
  8
0
  6
Continuous
 62
     7
370
    25
100
AcDbPolyline
 90
        8
 70
   128
 43
0.0
 10
-86.9208115765
 20
145.0099719953
 10
-86.8717901105
 20
144.2313970098
 10
-86.6567225778
 20
143.3565007122
 10
-86.2369048675
 20
142.6912833159
 10
-85.6385216982
 20
142.2926120591
 10
-84.8725566038
 20
142.0917803215
 10
-83.8758209183
 20
142.0183370688
 10
-82.6532972371
 20
142.0099719953
  0
LINE
  5
2B6
330
1F
100
AcDbEntity
  8
0
  6
Continuous
 62
     7
370
    25
100
AcDbLine
 10
-86.9208115765
 20
145.0099719953
 30
0.0
 11
-86.9208115765
 21
154.0099719953
 31
0.0
  0
LWPOLYLINE
  5
2B7
330
1F
100
AcDbEntity
  8
0
  6
Continuous
 62
     7
370
    25
100
AcDbPolyline
 90
        8
 70
   128
 43
0.0
 10
-82.6532972372
 20
157.0099719953
 10
-83.7095859357
 20
157.0050859077
 10
-85.0044705322
 20
156.906776012
 10
-85.8125934892
 20
156.6444385072
 10
-86.4123801673
 20
156.1189928417
 10
-86.7375437678
 20
155.4311949401
 10
-86.8939874026
 20
154.5918964745
 10
-86.9208115765
 20
154.0099719953
  0
LINE
  5
2B8
330
1F
100
AcDbEntity
  8
0
  6
Continuous
 62
     7
370
    25
100
AcDbLine
 10
-82.6532972371
 20
142.0099719953
 30
0.0
 11
-82.455263817
 21
142.0099719953
 31
0.0
  0
LINE
  5
2B9
330
1F
100
AcDbEntity
  8
0
  6
Continuous
 62
     7
370
    25
100
AcDbLine
 10
-82.6532972372
 20
157.0099719953
 30
0.0
 11
-82.455263817
 21
157.0099719953
 31
0.0
  0
LINE
  5
2BA
330
1F
100
AcDbEntity
  8
0
  6
Continuous
 62
     7
370
    25
100
AcDbLine
 10
-86.9208115765
 20
154.0099719953
 30
0.0
 11
-100.8978005732
 21
154.0099719953
 31
0.0
  0
LWPOLYLINE
  5
2BB
330
1F
100
AcDbEntity
  8
0
  6
Continuous
 62
     7
370
    25
100
AcDbPolyline
 90
        9
 70
   128
 43
0.0
 10
-100.8978005732
 20
154.0099719953
 10
-100.8898904736
 20
154.719689361
 10
-100.8781020364
 20
155.6061107206
 10
-100.9440032362
 20
156.2902723103
 10
-101.1607047217
 20
156.7064603264
 10
-101.5654384959
 20
156.9186946407
 10
-102.2386740156
 20
156.9993836439
 10
-103.2715396426
 20
157.0099706114
 10
-103.3446190545
 20
157.0099719953
  0
LINE
  5
2BC
330
1F
100
AcDbEntity
  8
0
  6
Continuous
 62
     7
370
    25
100
AcDbLine
 10
-103.3446190545
 20
157.0099719953
 30
0.0
 11
-82.6532972372
 21
157.0099719953
 31
0.0
  0
LINE
  5
2BD
330
1F
100
AcDbEntity
  8
0
  6
Continuous
 62
     7
370
    25
100
AcDbLine
 10
-100.8978005732
 20
145.0099719953
 30
0.0
 11
-86.9208115765
 21
145.0099719953
 31
0.0
  0
LWPOLYLINE
  5
2BE
330
1F
100
AcDbEntity
  8
0
  6
Continuous
 62
     7
370
    25
100
AcDbPolyline
 90
        8
 70
   128
 43
0.0
 10
-103.3446190545
 20
142.0099719953
 10
-102.354651861
 20
142.0166929903
 10
-101.4723088929
 20
142.1293314062
 10
-101.0812363627
 20
142.4079349559
 10
-100.9053442563
 20
142.9453536112
 10
-100.8778354866
 20
143.6430971145
 10
-100.8933973725
 20
144.4929718387
 10
-100.8978005732
 20
145.0099719953
  0
LINE
  5
2BF
330
1F
100
AcDbEntity
  8
0
  6
Continuous
 62
     7
370
    25
100
AcDbLine
 10
-82.6532972371
 20
142.0099719953
 30
0.0
 11
-103.3446190545
 21
142.0099719953
 31
0.0
  0
LINE
  5
2C0
330
1F
100
AcDbEntity
  8
0
  6
Continuous
 62
     7
370
    25
100
AcDbLine
 10
-100.8978005732
 20
154.0099719953
 30
0.0
 11
-100.8978005732
 21
145.0099719953
 31
0.0
  0
LWPOLYLINE
  5
2C1
330
1F
100
AcDbEntity
  8
0
  6
Continuous
 62
     7
370
    25
100
AcDbPolyline
 90
        8
 70
   128
 43
0.0
 10
-108.0980444577
 20
145.0099719953
 10
-108.0339828866
 20
144.2313970098
 10
-107.7626930132
 20
143.3565007122
 10
-107.2621313055
 20
142.6912833159
 10
-106.5865477408
 20
142.2926120591
 10
-105.7614075509
 20
142.0917803215
 10
-104.7341215069
 20
142.0183370688
 10
-103.5331559316
 20
142.0099719953
  0
LINE
  5
2C2
330
1F
100
AcDbEntity
  8
0
  6
Continuous
 62
     7
370
    25
100
AcDbLine
 10
-108.0980444577
 20
145.0099719953
 30
0.0
 11
-108.0980444577
 21
154.0099719953
 31
0.0
  0
LWPOLYLINE
  5
2C3
330
1F
100
AcDbEntity
  8
0
  6
Continuous
 62
     7
370
    25
100
AcDbPolyline
 90
        8
 70
   128
 43
0.0
 10
-103.5331559317
 20
157.0099719953
 10
-104.5671227713
 20
157.0050859077
 10
-105.9010149695
 20
156.906776012
 10
-106.7796723211
 20
156.6444385072
 10
-107.4678239609
 20
156.1189928417
 10
-107.8630531213
 20
155.4311949401
 10
-108.0628645846
 20
154.5918964745
 10
-108.0980444577
 20
154.0099719953
  0
LINE
  5
2C4
330
1F
100
AcDbEntity
  8
0
  6
Continuous
 62
     7
370
    25
100
AcDbLine
 10
-103.5331559316
 20
142.0099719953
 30
0.0
 11
-103.3446190545
 21
142.0099719953
 31
0.0
  0
LINE
  5
2C5
330
1F
100
AcDbEntity
  8
0
  6
Continuous
 62
     7
370
    25
100
AcDbLine
 10
-103.5331559317
 20
157.0099719953
 30
0.0
 11
-103.3446190545
 21
157.0099719953
 31
0.0
  0
LINE
  5
2C6
330
1F
100
AcDbEntity
  8
0
  6
Continuous
 62
     7
370
    25
100
AcDbLine
 10
-108.0980444577
 20
154.0099719953
 30
0.0
 11
-121.1965651748
 21
154.0099719953
 31
0.0
  0
LWPOLYLINE
  5
2C7
330
1F
100
AcDbEntity
  8
0
  6
Continuous
 62
     7
370
    25
100
AcDbPolyline
 90
        9
 70
   128
 43
0.0
 10
-121.1965651748
 20
154.0099719953
 10
-121.1741415658
 20
154.719689361
 10
-121.0968026439
 20
155.6061107206
 10
-121.0531099025
 20
156.2902723103
 10
-121.1411592158
 20
156.7064603264
 10
-121.4124574696
 20
156.9186946407
 10
-121.9486765175
 20
156.9993836439
 10
-122.8571645686
 20
157.0099706114
 10
-122.9240066759
 20
157.0099719953
  0
LINE
  5
2C8
330
1F
100
AcDbEntity
  8
0
  6
Continuous
 62
     7
370
    25
100
AcDbLine
 10
-122.9240066759
 20
157.0099719953
 30
0.0
 11
-103.5331559317
 21
157.0099719953
 31
0.0
  0
LINE
  5
2C9
330
1F
100
AcDbEntity
  8
0
  6
Continuous
 62
     7
370
    25
100
AcDbLine
 10
-121.1965651748
 20
145.0099719953
 30
0.0
 11
-108.0980444577
 21
145.0099719953
 31
0.0
  0
LWPOLYLINE
  5
2CA
330
1F
100
AcDbEntity
  8
0
  6
Continuous
 62
     7
370
    25
100
AcDbPolyline
 90
        8
 70
   128
 43
0.0
 10
-122.9240066759
 20
142.0099719953
 10
-122.0466507489
 20
142.0166929903
 10
-121.3447153637
 20
142.1293314062
 10
-121.0992320815
 20
142.4079349559
 10
-121.0575787995
 20
142.9453536112
 10
-121.1196649396
 20
143.6430971145
 10
-121.184529589
 20
144.4929718387
 10
-121.1965651748
 20
145.0099719953
  0
LINE
  5
2CB
330
1F
100
AcDbEntity
  8
0
  6
Continuous
 62
     7
370
    25
100
AcDbLine
 10
-103.5331559316
 20
142.0099719953
 30
0.0
 11
-122.9240066759
 21
142.0099719953
 31
0.0
  0
LINE
  5
2CC
330
1F
100
AcDbEntity
  8
0
  6
Continuous
 62
     7
370
    25
100
AcDbLine
 10
-121.1965651748
 20
154.0099719953
 30
0.0
 11
-121.1965651748
 21
145.0099719953
 31
0.0
  0
LWPOLYLINE
  5
2CD
330
1F
100
AcDbEntity
  8
0
  6
Continuous
 62
     7
370
    25
100
AcDbPolyline
 90
        8
 70
   128
 43
0.0
 10
-127.8316030168
 20
145.0099719953
 10
-127.7543032962
 20
144.2313970098
 10
-127.4344220581
 20
143.3565007122
 10
-126.8671964009
 20
142.6912833159
 10
-126.1334155903
 20
142.2926120591
 10
-125.2723102572
 20
142.0917803215
 10
-124.2433698657
 20
142.0183370688
 10
-123.0977437513
 20
142.0099719953
  0
LINE
  5
2CE
330
1F
100
AcDbEntity
  8
0
  6
Continuous
 62
     7
370
    25
100
AcDbLine
 10
-127.8316030168
 20
145.0099719953
 30
0.0
 11
-127.8316030168
 21
154.0099719953
 31
0.0
  0
LWPOLYLINE
  5
2CF
330
1F
100
AcDbEntity
  8
0
  6
Continuous
 62
     7
370
    25
100
AcDbPolyline
 90
        8
 70
   128
 43
0.0
 10
-123.0977437513
 20
157.0099719953
 10
-124.0803048002
 20
157.0050859077
 10
-125.4156842193
 20
156.906776012
 10
-126.340160656
 20
156.6444385072
 10
-127.097320587
 20
156.1189928417
 10
-127.5514981056
 20
155.4311949401
 10
-127.7890570014
 20
154.5918964745
 10
-127.8316030168
 20
154.0099719953
  0
LINE
  5
2D0
330
1F
100
AcDbEntity
  8
0
  6
Continuous
 62
     7
370
    25
100
AcDbLine
 10
-123.0977437513
 20
142.0099719953
 30
0.0
 11
-122.9240066759
 21
142.0099719953
 31
0.0
  0
LINE
  5
2D1
330
1F
100
AcDbEntity
  8
0
  6
Continuous
 62
     7
370
    25
100
AcDbLine
 10
-123.0977437513
 20
157.0099719953
 30
0.0
 11
-122.9240066759
 21
157.0099719953
 31
0.0
  0
LINE
  5
2D2
330
1F
100
AcDbEntity
  8
0
  6
Continuous
 62
     7
370
    25
100
AcDbLine
 10
-127.8316030168
 20
154.0099719953
 30
0.0
 11
-139.683213771
 21
154.0099719953
 31
0.0
  0
LWPOLYLINE
  5
2D3
330
1F
100
AcDbEntity
  8
0
  6
Continuous
 62
     7
370
    25
100
AcDbPolyline
 90
        9
 70
   128
 43
0.0
 10
-139.683213771
 20
154.0099719953
 10
-139.6469073948
 20
154.719689361
 10
-139.5061934158
 20
155.6061107206
 10
-139.3541357443
 20
156.2902723103
 10
-139.3110561907
 20
156.7064603264
 10
-139.4412877124
 20
156.9186946407
 10
-139.8254072532
 20
156.9993836439
 10
-140.5839633262
 20
157.0099706114
 10
-140.6426879611
 20
157.0099719953
  0
LINE
  5
2D4
330
1F
100
AcDbEntity
  8
0
  6
Continuous
 62
     7
370
    25
100
AcDbLine
 10
-140.6426879611
 20
157.0099719953
 30
0.0
 11
-123.0977437513
 21
157.0099719953
 31
0.0
  0
LINE
  5
2D5
330
1F
100
AcDbEntity
  8
0
  6
Continuous
 62
     7
370
    25
100
AcDbLine
 10
-139.683213771
 20
145.0099719953
 30
0.0
 11
-127.8316030168
 21
145.0099719953
 31
0.0
  0
LWPOLYLINE
  5
2D6
330
1F
100
AcDbEntity
  8
0
  6
Continuous
 62
     7
370
    25
100
AcDbPolyline
 90
        8
 70
   128
 43
0.0
 10
-140.6426879611
 20
142.0099719953
 10
-139.902622003
 20
142.0166929903
 10
-139.4008385869
 20
142.1293314062
 10
-139.3078496282
 20
142.4079349559
 10
-139.4016068149
 20
142.9453536112
 10
-139.551541475
 20
143.6430971145
 10
-139.6638843429
 20
144.4929718387
 10
-139.683213771
 20
145.0099719953
  0
LINE
  5
2D7
330
1F
100
AcDbEntity
  8
0
  6
Continuous
 62
     7
370
    25
100
AcDbLine
 10
-123.0977437513
 20
142.0099719953
 30
0.0
 11
-140.6426879611
 21
142.0099719953
 31
0.0
  0
LINE
  5
2D8
330
1F
100
AcDbEntity
  8
0
  6
Continuous
 62
     7
370
    25
100
AcDbLine
 10
-139.683213771
 20
154.0099719953
 30
0.0
 11
-139.683213771
 21
145.0099719953
 31
0.0
  0
LWPOLYLINE
  5
2D9
330
1F
100
AcDbEntity
  8
0
  6
Continuous
 62
     7
370
    25
100
AcDbPolyline
 90
        8
 70
   128
 43
0.0
 10
-145.5664119372
 20
145.0099719953
 10
-145.478048392
 20
144.2313970098
 10
-145.1185735672
 20
143.3565007122
 10
-144.5006391649
 20
142.6912833159
 10
-143.7293012586
 20
142.2926120591
 10
-142.8564523801
 20
142.0917803215
 10
-141.8548001864
 20
142.0183370688
 10
-140.7967382721
 20
142.0099719953
  0
LINE
  5
2DA
330
1F
100
AcDbEntity
  8
0
  6
Continuous
 62
     7
370
    25
100
AcDbLine
 10
-145.5664119372
 20
145.0099719953
 30
0.0
 11
-145.5664119372
 21
154.0099719953
 31
0.0
  0
LWPOLYLINE
  5
2DB
330
1F
100
AcDbEntity
  8
0
  6
Continuous
 62
     7
370
    25
100
AcDbPolyline
 90
        8
 70
   128
 43
0.0
 10
-140.7967382721
 20
157.0099719953
 10
-141.700255566
 20
157.0050859077
 10
-142.9995599917
 20
156.906776012
 10
-143.9438513821
 20
156.6444385072
 10
-144.7487218345
 20
156.1189928417
 10
-145.2490723809
 20
155.4311949401
 10
-145.5176965348
 20
154.5918964745
 10
-145.5664119372
 20
154.0099719953
  0
LINE
  5
2DC
330
1F
100
AcDbEntity
  8
0
  6
Continuous
 62
     7
370
    25
100
AcDbLine
 10
-145.5664119372
 20
154.0099719953
 30
0.0
 11
-155.8377447464
 21
154.0099719953
 31
0.0
  0
LWPOLYLINE
  5
2DD
330
1F
100
AcDbEntity
  8
0
  6
Continuous
 62
     7
370
    25
100
AcDbPolyline
 90
        9
 70
   128
 43
0.0
 10
-155.8377447464
 20
154.0099719953
 10
-155.7885768469
 20
154.719689361
 10
-155.5884458832
 20
155.6061107206
 10
-155.3323004352
 20
156.2902723103
 10
-155.1593037777
 20
156.7064603264
 10
-155.1448053506
 20
156.9186946407
 10
-155.3660206794
 20
156.9993836439
 10
-155.9533077332
 20
157.0099706114
 10
-156.0022630599
 20
157.0099719953
  0
LINE
  5
2DE
330
1F
100
AcDbEntity
  8
0
  6
Continuous
 62
     7
370
    25
100
AcDbLine
 10
-156.0022630599
 20
157.0099719953
 30
0.0
 11
-140.9601138662
 21
157.0099719953
 31
0.0
  0
LINE
  5
2DF
330
1F
100
AcDbEntity
  8
0
  6
Continuous
 62
     7
370
    25
100
AcDbLine
 10
-155.8377447464
 20
145.0099719953
 30
0.0
 11
-145.5664119372
 21
145.0099719953
 31
0.0
  0
LWPOLYLINE
  5
2E0
330
1F
100
AcDbEntity
  8
0
  6
Continuous
 62
     7
370
    25
100
AcDbPolyline
 90
        8
 70
   128
 43
0.0
 10
-156.0022630599
 20
142.0099719953
 10
-155.4203040128
 20
142.0166929903
 10
-155.1327869787
 20
142.1293314062
 10
-155.194907983
 20
142.4079349559
 10
-155.4214383896
 20
142.9453536112
 10
-155.6550041334
 20
143.6430971145
 10
-155.8116651838
 20
144.4929718387
 10
-155.8377447464
 20
145.0099719953
  0
LINE
  5
2E1
330
1F
100
AcDbEntity
  8
0
  6
Continuous
 62
     7
370
    25
100
AcDbLine
 10
-140.9634930038
 20
142.0099719953
 30
0.0
 11
-156.0022630599
 21
142.0099719953
 31
0.0
  0
LINE
  5
2E2
330
1F
100
AcDbEntity
  8
0
  6
Continuous
 62
     7
370
    25
100
AcDbLine
 10
-155.8377447464
 20
154.0099719953
 30
0.0
 11
-155.8377447464
 21
145.0099719953
 31
0.0
  0
LWPOLYLINE
  5
2E3
330
1F
100
AcDbEntity
  8
0
  6
Continuous
 62
     7
370
    25
100
AcDbPolyline
 90
        8
 70
   128
 43
0.0
 10
-160.8036177226
 20
145.0099719953
 10
-160.7066758864
 20
144.2313970098
 10
-160.3177189611
 20
143.3565007122
 10
-159.6664573788
 20
142.6912833159
 10
-158.8792589519
 20
142.2926120591
 10
-158.0192184537
 20
142.0917803215
 10
-157.0730294273
 20
142.0183370688
 10
-156.1322934031
 20
142.0099719953
  0
LINE
  5
2E4
330
1F
100
AcDbEntity
  8
0
  6
Continuous
 62
     7
370
    25
100
AcDbLine
 10
-160.8036177226
 20
145.0099719953
 30
0.0
 11
-160.8036177226
 21
154.0099719953
 31
0.0
  0
LWPOLYLINE
  5
2E5
330
1F
100
AcDbEntity
  8
0
  6
Continuous
 62
     7
370
    25
100
AcDbPolyline
 90
        8
 70
   128
 43
0.0
 10
-156.1322934031
 20
157.0099719953
 10
-156.9313523597
 20
157.0050859077
 10
-158.1580343131
 20
156.906776012
 10
-159.0955791608
 20
156.6444385072
 10
-159.9255203395
 20
156.1189928417
 10
-160.4579698055
 20
155.4311949401
 10
-160.7501032243
 20
154.5918964745
 10
-160.8036177226
 20
154.0099719953
  0
LINE
  5
2E6
330
1F
100
AcDbEntity
  8
0
  6
Continuous
 62
     7
370
    25
100
AcDbLine
 10
-160.8036177226
 20
154.0099719953
 30
0.0
 11
-169.2057554463
 21
154.0099719953
 31
0.0
  0
LWPOLYLINE
  5
2E7
330
1F
100
AcDbEntity
  8
0
  6
Continuous
 62
     7
370
    25
100
AcDbPolyline
 90
        9
 70
   128
 43
0.0
 10
-169.2057554463
 20
154.0099719953
 10
-169.1451090425
 20
154.719689361
 10
-168.8911904772
 20
155.6061107206
 10
-168.5381622388
 20
156.2902723103
 10
-168.2401146131
 20
156.7064603264
 10
-168.081294056
 20
156.9186946407
 10
-168.1333827186
 20
156.9993836439
 10
-168.5328812516
 20
157.0099706114
 10
-168.5706902305
 20
157.0099719953
  0
LINE
  5
2E8
330
1F
100
AcDbEntity
  8
0
  6
Continuous
 62
     7
370
    25
100
AcDbLine
 10
-168.5706902305
 20
157.0099719953
 30
0.0
 11
-156.2963023985
 21
157.0099719953
 31
0.0
  0
LINE
  5
2E9
330
1F
100
AcDbEntity
  8
0
  6
Continuous
 62
     7
370
    25
100
AcDbLine
 10
-169.2057554463
 20
145.0099719953
 30
0.0
 11
-160.8036177226
 21
145.0099719953
 31
0.0
  0
LWPOLYLINE
  5
2EA
330
1F
100
AcDbEntity
  8
0
  6
Continuous
 62
     7
370
    25
100
AcDbPolyline
 90
        8
 70
   128
 43
0.0
 10
-168.5706902306
 20
142.0099719953
 10
-168.163207727
 20
142.0166929903
 10
-168.0980444964
 20
142.1293314062
 10
-168.3135280933
 20
142.4079349559
 10
-168.6664597604
 20
142.9453536112
 10
-168.9770867347
 20
143.6430971145
 10
-169.1736593281
 20
144.4929718387
 10
-169.2057554463
 20
145.0099719953
  0
LINE
  5
2EB
330
1F
100
AcDbEntity
  8
0
  6
Continuous
 62
     7
370
    25
100
AcDbLine
 10
-156.3010636292
 20
142.0099719953
 30
0.0
 11
-168.5706902306
 21
142.0099719953
 31
0.0
  0
LINE
  5
2EC
330
1F
100
AcDbEntity
  8
0
  6
Continuous
 62
     7
370
    25
100
AcDbLine
 10
-169.2057554463
 20
154.0099719953
 30
0.0
 11
-169.2057554463
 21
145.0099719953
 31
0.0
  0
LWPOLYLINE
  5
2ED
330
1F
100
AcDbEntity
  8
0
  6
Continuous
 62
     7
370
    25
100
AcDbPolyline
 90
        8
 70
   128
 43
0.0
 10
-173.114620696
 20
145.0099719953
 10
-173.0118273967
 20
144.2313970098
 10
-172.604329144
 20
143.3565007122
 10
-171.9380593904
 20
142.6912833159
 10
-171.1571431504
 20
142.2926120591
 10
-170.3341026781
 20
142.0917803215
 10
-169.4699916929
 20
142.0183370688
 10
-168.6730430479
 20
142.0099719953
  0
LINE
  5
2EE
330
1F
100
AcDbEntity
  8
0
  6
Continuous
 62
     7
370
    25
100
AcDbLine
 10
-173.114620696
 20
145.0099719953
 30
0.0
 11
-173.114620696
 21
154.0099719953
 31
0.0
  0
LWPOLYLINE
  5
2EF
330
1F
100
AcDbEntity
  8
0
  6
Continuous
 62
     7
370
    25
100
AcDbPolyline
 90
        8
 70
   128
 43
0.0
 10
-168.6730430479
 20
157.0099719953
 10
-169.3451673409
 20
157.0050859077
 10
-170.464722104
 20
156.906776012
 10
-171.3691486828
 20
156.6444385072
 10
-172.200815591
 20
156.1189928417
 10
-172.7503869741
 20
155.4311949401
 10
-173.057812384
 20
154.5918964745
 10
-173.114620696
 20
154.0099719953
  0
LINE
  5
2F0
330
1F
100
AcDbEntity
  8
0
  6
Continuous
 62
     7
370
    25
100
AcDbLine
 10
-173.114620696
 20
154.0099719953
 30
0.0
 11
-179.4112238395
 21
154.0099719953
 31
0.0
  0
LWPOLYLINE
  5
2F1
330
1F
100
AcDbEntity
  8
0
  6
Continuous
 62
     7
370
    25
100
AcDbPolyline
 90
        9
 70
   128
 43
0.0
 10
-179.4112238395
 20
154.0099719953
 10
-179.3408048235
 20
154.719689361
 10
-179.0402410038
 20
155.6061107206
 10
-178.6002601282
 20
156.2902723103
 10
-178.1855451658
 20
156.7064603264
 10
-177.8868698621
 20
156.9186946407
 10
-177.7683666826
 20
156.9993836439
 10
-177.9688394022
 20
157.0099706114
 10
-177.9944385236
 20
157.0099719953
  0
LINE
  5
2F2
330
1F
100
AcDbEntity
  8
0
  6
Continuous
 62
     7
370
    25
100
AcDbLine
 10
-177.9944385236
 20
157.0099719953
 30
0.0
 11
-168.8379722485
 21
157.0099719953
 31
0.0
  0
LINE
  5
2F3
330
1F
100
AcDbEntity
  8
0
  6
Continuous
 62
     7
370
    25
100
AcDbLine
 10
-179.4112238395
 20
145.0099719953
 30
0.0
 11
-173.114620696
 21
145.0099719953
 31
0.0
  0
ARC
  5
2F4
330
1F
100
AcDbEntity
  8
0
  6
Continuous
 62
     7
370
    25
100
AcDbCircle
 10
-175.8551229457
 20
145.0127924547
 30
0.0
 40
3.556102012245991
100
AcDbArc
 50
180.0454431376
 51
236.9240949905
  0
LINE
  5
2F5
330
1F
100
AcDbEntity
  8
0
  6
Continuous
 62
     7
370
    25
100
AcDbLine
 10
-168.8448956525
 20
142.0099719953
 30
0.0
 11
-177.9944385236
 21
142.0099719953
 31
0.0
  0
LINE
  5
2F6
330
1F
100
AcDbEntity
  8
0
  6
Continuous
 62
     7
370
    25
100
AcDbLine
 10
-179.4112238395
 20
154.0099719953
 30
0.0
 11
-179.4112238395
 21
145.0099719953
 31
0.0
  0
LWPOLYLINE
  5
2F7
330
1F
100
AcDbEntity
  8
0
  6
Continuous
 62
     7
370
    25
100
AcDbPolyline
 90
        8
 70
   128
 43
0.0
 10
-182.1531308633
 20
145.0099719953
 10
-182.0473775219
 20
144.2313970098
 10
-181.6328002546
 20
143.3565007122
 10
-180.9702634956
 20
142.6912833159
 10
-180.2175954415
 20
142.2926120591
 10
-179.4547058854
 20
142.0917803215
 10
-178.6969790836
 20
142.0183370688
 10
-178.0662347844
 20
142.0099719953
  0
LINE
  5
2F8
330
1F
100
AcDbEntity
  8
0
  6
Continuous
 62
     7
370
    25
100
AcDbLine
 10
-182.1531308633
 20
145.0099719953
 30
0.0
 11
-182.1531308633
 21
154.0099719953
 31
0.0
  0
ARC
  5
2F9
330
1F
100
AcDbEntity
  8
0
  6
Continuous
 62
     7
370
    25
100
AcDbCircle
 10
-178.815648436
 20
153.7471106401
 30
0.0
 40
3.347817952726691
100
AcDbArc
 50
77.064655926
 51
175.4966594789
  0
LINE
  5
2FA
330
1F
100
AcDbEntity
  8
0
  6
Continuous
 62
     7
370
    25
100
AcDbLine
 10
-182.1531308633
 20
154.0099719953
 30
0.0
 11
-186.1670854522
 21
154.0099719953
 31
0.0
  0
LWPOLYLINE
  5
2FB
330
1F
100
AcDbEntity
  8
0
  6
Continuous
 62
     7
370
    25
100
AcDbPolyline
 90
        8
 70
   128
 43
0.0
 10
-186.1670854522
 20
154.0099719953
 10
-186.088874605
 20
154.719689361
 10
-185.750119939
 20
155.6061107206
 10
-185.2355624265
 20
156.2902723103
 10
-184.7158454353
 20
156.7064603264
 10
-184.285716672
 20
156.9186946407
 10
-183.9999549666
 20
156.9993836439
 10
-183.9978120229
 20
157.0047955688
  0
LINE
  5
2FC
330
1F
100
AcDbEntity
  8
0
  6
Continuous
 62
     7
370
    25
100
AcDbLine
 10
-184.0084320759
 20
157.0099719953
 30
0.0
 11
-178.2327164534
 21
157.0099719953
 31
0.0
  0
LINE
  5
2FD
330
1F
100
AcDbEntity
  8
0
  6
Continuous
 62
     7
370
    25
100
AcDbLine
 10
-186.1670854522
 20
145.0099719953
 30
0.0
 11
-182.1531308633
 21
145.0099719953
 31
0.0
  0
LWPOLYLINE
  5
2FE
330
1F
100
AcDbEntity
  8
0
  6
Continuous
 62
     7
370
    25
100
AcDbPolyline
 90
        8
 70
   128
 43
0.0
 10
-183.9911476334
 20
142.0139268109
 10
-183.9790581012
 20
142.0166929903
 10
-184.3577952726
 20
142.1293314062
 10
-184.8576770007
 20
142.4079349559
 10
-185.4303526446
 20
142.9453536112
 10
-185.8669678269
 20
143.6430971145
 10
-186.1258085111
 20
144.4929718387
 10
-186.1670854522
 20
145.0099719953
  0
LINE
  5
2FF
330
1F
100
AcDbEntity
  8
0
  6
Continuous
 62
     7
370
    25
100
AcDbLine
 10
-178.2438106894
 20
142.0099719953
 30
0.0
 11
-184.0084320759
 21
142.0099719953
 31
0.0
  0
LINE
  5
300
330
1F
100
AcDbEntity
  8
0
  6
Continuous
 62
     7
370
    25
100
AcDbLine
 10
-186.1670854522
 20
154.0099719953
 30
0.0
 11
-186.1670854522
 21
145.0099719953
 31
0.0
  0
ARC
  5
301
330
1F
100
AcDbEntity
  8
0
  6
Continuous
 62
     7
370
    25
100
AcDbCircle
 10
-184.3999800718
 20
145.2659091539
 30
0.0
 40
3.274944529022918
100
AcDbArc
 50
184.4822398491
 51
276.1759951819
  0
LINE
  5
302
330
1F
100
AcDbEntity
  8
0
  6
Continuous
 62
     7
370
    25
100
AcDbLine
 10
-187.6649085303
 20
145.0099719953
 30
0.0
 11
-187.6649085303
 21
154.0099719953
 31
0.0
  0
ARC
  5
303
330
1F
100
AcDbEntity
  8
0
  6
Continuous
 62
     7
370
    25
100
AcDbCircle
 10
-184.4941637522
 20
153.8675970062
 30
0.0
 40
3.173939678940229
100
AcDbArc
 50
81.912772938
 51
177.4289920311
  0
LINE
  5
304
330
1F
100
AcDbEntity
  8
0
  6
Continuous
 62
     7
370
    25
100
AcDbLine
 10
-187.6649085303
 20
154.0099719953
 30
0.0
 11
-189.2833080603
 21
154.0099719953
 31
0.0
  0
ARC
  5
305
330
1F
100
AcDbEntity
  8
0
  6
Continuous
 62
     7
370
    25
100
AcDbCircle
 10
-186.3475900657
 20
154.0750986252
 30
0.0
 40
2.936440297648733
100
AcDbArc
 50
91.8718490171
 51
181.2708540392
  0
LINE
  5
306
330
1F
100
AcDbEntity
  8
0
  6
Continuous
 62
     7
370
    25
100
AcDbLine
 10
-186.4435062958
 20
157.0099719953
 30
0.0
 11
-184.2173847766
 21
157.0099719953
 31
0.0
  0
LINE
  5
307
330
1F
100
AcDbEntity
  8
0
  6
Continuous
 62
     7
370
    25
100
AcDbLine
 10
-189.2833080603
 20
145.0099719953
 30
0.0
 11
-187.6649085303
 21
145.0099719953
 31
0.0
  0
ARC
  5
308
330
1F
100
AcDbEntity
  8
0
  6
Continuous
 62
     7
370
    25
100
AcDbCircle
 10
-186.319225569
 20
144.9716952147
 30
0.0
 40
2.964329625263465
100
AcDbArc
 50
179.2601501155
 51
267.5971468282
  0
LINE
  5
309
330
1F
100
AcDbEntity
  8
0
  6
Continuous
 62
     7
370
    25
100
AcDbLine
 10
-184.240933617
 20
142.0099719953
 30
0.0
 11
-186.4435062958
 21
142.0099719953
 31
0.0
  0
LINE
  5
30A
330
1F
100
AcDbEntity
  8
0
  6
Continuous
 62
     7
370
    25
100
AcDbLine
 10
-189.2833080603
 20
154.0099719953
 30
0.0
 11
-189.2833080603
 21
145.0099719953
 31
0.0
  0
ARC
  5
30B
330
1F
100
AcDbEntity
  8
0
  6
Continuous
 62
     7
370
    25
100
AcDbCircle
 10
-186.486681119
 20
145.0179818083
 30
0.0
 40
3.008245227234206
100
AcDbArc
 50
180.1525570514
 51
270.716803646
  0
LINE
  5
30C
330
1F
100
AcDbEntity
  8
0
  6
Continuous
 62
     7
370
    25
100
AcDbLine
 10
-189.4949156827
 20
145.0099719953
 30
0.0
 11
-189.4949156827
 21
154.0099719953
 31
0.0
  0
ARC
  5
30D
330
1F
100
AcDbEntity
  8
0
  6
Continuous
 62
     7
370
    25
100
AcDbCircle
 10
-186.4921998048
 20
154.007565246
 30
0.0
 40
3.002716842453083
100
AcDbArc
 50
89.1765632444
 51
179.9540760582
  0
LWPOLYLINE
  5
30E
330
1F
100
AcDbEntity
  8
0
  6
Continuous
 62
     7
370
    25
100
AcDbPolyline
 90
        3
 70
   128
 43
0.0
 10
72.9773570039
 20
157.0078826768
 10
72.9246455287
 20
157.0099706114
 10
72.9201577433
 20
157.0099719953
  0
LINE
  5
30F
330
1F
100
AcDbEntity
  8
0
  6
Continuous
 62
     7
370
    25
100
AcDbLine
 10
95.4712148053
 20
127.0099719953
 30
0.0
 11
95.4712148053
 21
124.0099719953
 31
0.0
  0
LINE
  5
310
330
1F
100
AcDbEntity
  8
0
  6
Continuous
 62
     7
370
    25
100
AcDbLine
 10
95.4712148053
 20
124.0099719953
 30
0.0
 11
146.4629665288
 21
124.0099719953
 31
0.0
  0
LINE
  5
311
330
1F
100
AcDbEntity
  8
0
  6
Continuous
 62
     7
370
    25
100
AcDbLine
 10
92.4712148053
 20
127.0099719953
 30
0.0
 11
92.4712148053
 21
124.0099719953
 31
0.0
  0
LINE
  5
312
330
1F
100
AcDbEntity
  8
0
  6
Continuous
 62
     7
370
    25
100
AcDbLine
 10
95.4712148053
 20
124.0099719953
 30
0.0
 11
92.4712148053
 21
124.0099719953
 31
0.0
  0
LINE
  5
313
330
1F
100
AcDbEntity
  8
0
  6
Continuous
 62
     7
370
    25
100
AcDbLine
 10
95.4712148053
 20
172.0099719953
 30
0.0
 11
95.4712148053
 21
175.0099719953
 31
0.0
  0
LINE
  5
314
330
1F
100
AcDbEntity
  8
0
  6
Continuous
 62
     7
370
    25
100
AcDbLine
 10
92.4712148053
 20
172.0099719953
 30
0.0
 11
92.4712148053
 21
175.0099719953
 31
0.0
  0
LINE
  5
315
330
1F
100
AcDbEntity
  8
0
  6
Continuous
 62
     7
370
    25
100
AcDbLine
 10
92.4712148053
 20
175.0099719953
 30
0.0
 11
95.4712148053
 21
175.0099719953
 31
0.0
  0
LINE
  5
316
330
1F
100
AcDbEntity
  8
0
  6
Continuous
 62
     7
370
    25
100
AcDbLine
 10
95.4712148053
 20
175.0099719953
 30
0.0
 11
146.4629665288
 21
175.0099719953
 31
0.0
  0
ARC
  5
317
330
1F
100
AcDbEntity
  8
0
  6
Continuous
 62
     7
370
    25
100
AcDbCircle
 10
178.9712148053
 20
56.8452537904
 30
0.0
 40
6.000000000000007
100
AcDbArc
 50
150.0
 51
330.0
  0
ARC
  5
318
330
1F
100
AcDbEntity
  8
0
  6
Continuous
 62
     7
370
    25
100
AcDbCircle
 10
195.9712148053
 20
86.2901175191
 30
0.0
 40
6.000000000000007
100
AcDbArc
 50
130.1100034768
 51
150.0
  0
ARC
  5
319
330
1F
100
AcDbEntity
  8
0
  6
Continuous
 62
     7
370
    25
100
AcDbCircle
 10
195.9712148053
 20
86.2901175191
 30
0.0
 40
5.999999999999982
100
AcDbArc
 50
330.0
 51
2.1121937108
  0
ARC
  5
31A
330
1F
100
AcDbEntity
  8
0
  6
Continuous
 62
     7
370
    25
100
AcDbCircle
 10
178.9712148053
 20
242.1746902003
 30
0.0
 40
6.0
100
AcDbArc
 50
30.0
 51
210.0
  0
ARC
  5
31B
330
1F
100
AcDbEntity
  8
0
  6
Continuous
 62
     7
370
    25
100
AcDbCircle
 10
195.9712148053
 20
212.7298264716
 30
0.0
 40
6.000000000000012
100
AcDbArc
 50
357.8878131526
 51
30.0
  0
ARC
  5
31C
330
1F
100
AcDbEntity
  8
0
  6
Continuous
 62
     7
370
    25
100
AcDbCircle
 10
195.9712148053
 20
212.7298264716
 30
0.0
 40
6.0
100
AcDbArc
 50
210.0
 51
229.8899893921
  0
ARC
  5
31D
330
1F
100
AcDbEntity
  8
0
  6
Continuous
 62
     7
370
    25
100
AcDbCircle
 10
232.0972405946
 20
149.160252784
 30
0.0
 40
80.3951519740507
100
AcDbArc
 50
93.2363500514
 51
138.8213668434
  0
LWPOLYLINE
  5
31E
330
1F
100
AcDbEntity
  8
0
  6
Continuous
 62
     7
370
    25
100
AcDbPolyline
 90
       37
 70
   128
 43
0.0
 10
166.9338756914
 20
97.7721663432
 10
169.3431717905
 20
94.414723834
 10
174.0471652428
 20
88.8610546586
 10
179.2497095709
 20
83.6279415375
 10
184.8406778155
 20
78.8109551356
 10
190.9019021229
 20
74.3247023549
 10
197.2394499858
 20
70.2341099957
 10
202.330779846
 20
67.2303144612
 10
204.0506490592
 20
66.2502114619
 10
205.7376858154
 20
65.2167800023
 10
207.2912103524
 20
64.0108818318
 10
207.7839367957
 20
63.4549502728
 10
207.9114439658
 20
63.1807392244
 10
207.9322365102
 20
63.0144426343
 10
207.8944382747
 20
62.849729698
 10
207.8137284152
 20
62.725509081
 10
207.6281982845
 20
62.5750077839
 10
207.076757203
 20
62.3681420684
 10
206.0485296895
 20
62.2362584466
 10
204.990737599
 20
62.2288346091
 10
202.9274001516
 20
62.3920251074
 10
200.8800304993
 20
62.7071793564
 10
196.7831939276
 20
63.6360081564
 10
191.0811000199
 20
65.4634958175
 10
185.5554269232
 20
67.7756976889
 10
180.0816137772
 20
70.5836223053
 10
174.8327859972
 20
73.7934215906
 10
169.7596863221
 20
77.4294457755
 10
164.9596518711
 20
81.4194381473
 10
160.3610492121
 20
85.8281858165
 10
156.0830131459
 20
90.5488208706
 10
151.5532647465
 20
96.3714866237
 10
147.503161464
 20
102.5374895473
 10
143.869471462
 20
109.1811325423
 10
140.7812371084
 20
116.0954224474
 10
138.2078758572
 20
123.3869675248
 10
138.0434389768
 20
124.0099719953
  0
ARC
  5
31F
330
1F
100
AcDbEntity
  8
0
  6
Continuous
 62
     7
370
    25
100
AcDbCircle
 10
232.368972836
 20
151.0007578869
 30
0.0
 40
98.43219930573001
100
AcDbArc
 50
81.9403098846
 51
165.8822027697
  0
LINE
  5
320
330
1F
100
AcDbEntity
  8
0
  6
Continuous
 62
     8
370
    25
100
AcDbLine
 10
527.8619803656
 20
141.0099719953
 30
0.0
 11
533.6832019372
 21
141.0099719953
 31
0.0
  0
LINE
  5
321
330
1F
100
AcDbEntity
  8
0
  6
Continuous
 62
     8
370
    25
100
AcDbLine
 10
502.6832019372
 20
141.0099719953
 30
0.0
 11
527.8619803656
 21
141.0099719953
 31
0.0
  0
LINE
  5
322
330
1F
100
AcDbEntity
  8
0
  6
Continuous
 62
     8
370
    25
100
AcDbLine
 10
533.6832019372
 20
158.0099719953
 30
0.0
 11
502.6832019372
 21
158.0099719953
 31
0.0
  0
LINE
  5
323
330
1F
100
AcDbEntity
  8
0
  6
Continuous
 62
     8
370
    25
100
AcDbLine
 10
528.9332019372
 20
170.0951220143
 30
0.0
 11
507.4332019372
 21
170.0951220143
 31
0.0
  0
LINE
  5
324
330
1F
100
AcDbEntity
  8
0
  6
Continuous
 62
     8
370
    25
100
AcDbLine
 10
528.5411182927
 20
170.6579459558
 30
0.0
 11
507.8252855817
 21
170.6579459558
 31
0.0
  0
LINE
  5
325
330
1F
100
AcDbEntity
  8
0
  6
Continuous
 62
     8
370
    25
100
AcDbLine
 10
524.8959031053
 20
128.9248219764
 30
0.0
 11
528.9332019372
 21
128.9248219764
 31
0.0
  0
LINE
  5
326
330
1F
100
AcDbEntity
  8
0
  6
Continuous
 62
     8
370
    25
100
AcDbLine
 10
507.4332019372
 20
128.9248219764
 30
0.0
 11
524.8959031053
 21
128.9248219764
 31
0.0
  0
LINE
  5
327
330
1F
100
AcDbEntity
  8
0
  6
Continuous
 62
     8
370
    25
100
AcDbLine
 10
524.6510714459
 20
128.3619980349
 30
0.0
 11
528.5411182927
 21
128.3619980349
 31
0.0
  0
LINE
  5
328
330
1F
100
AcDbEntity
  8
0
  6
Continuous
 62
     8
370
    25
100
AcDbLine
 10
507.8252855817
 20
128.3619980349
 30
0.0
 11
524.6510714459
 21
128.3619980349
 31
0.0
  0
LINE
  5
329
330
1F
100
AcDbEntity
  8
0
  6
Continuous
 62
     8
370
    25
100
AcDbLine
 10
-41.0704046745
 20
53.0099719953
 30
0.0
 11
-39.7737810374
 21
53.0099719953
 31
0.0
  0
LINE
  5
32A
330
1F
100
AcDbEntity
  8
0
  6
Continuous
 62
     8
370
    25
100
AcDbLine
 10
-73.7737810374
 20
53.0099719953
 30
0.0
 11
-41.0704046745
 21
53.0099719953
 31
0.0
  0
LINE
  5
32B
330
1F
100
AcDbEntity
  8
0
  6
Continuous
 62
     8
370
    25
100
AcDbLine
 10
34.1369956165
 20
160.0099719953
 30
0.0
 11
-12.0324768958
 21
160.0099719953
 31
0.0
  0
LINE
  5
32C
330
1F
100
AcDbEntity
  8
0
  6
Continuous
 62
     8
370
    25
100
AcDbLine
 10
35.9675231042
 20
160.0099719953
 30
0.0
 11
34.1369956165
 21
160.0099719953
 31
0.0
  0
LINE
  5
32D
330
1F
100
AcDbEntity
  8
0
  6
Continuous
 62
     8
370
    25
100
AcDbLine
 10
27.6708994671
 20
166.0099719953
 30
0.0
 11
28.9675231042
 21
166.0099719953
 31
0.0
  0
LINE
  5
32E
330
1F
100
AcDbEntity
  8
0
  6
Continuous
 62
     8
370
    25
100
AcDbLine
 10
-5.0324768958
 20
166.0099719953
 30
0.0
 11
27.6708994671
 21
166.0099719953
 31
0.0
  0
LINE
  5
32F
330
1F
100
AcDbEntity
  8
0
  6
Continuous
 62
     8
370
    25
100
AcDbLine
 10
27.6708994671
 20
246.0099719953
 30
0.0
 11
-5.0324768958
 21
246.0099719953
 31
0.0
  0
LINE
  5
330
330
1F
100
AcDbEntity
  8
0
  6
Continuous
 62
     8
370
    25
100
AcDbLine
 10
28.9675231042
 20
246.0099719953
 30
0.0
 11
27.6708994671
 21
246.0099719953
 31
0.0
  0
LINE
  5
331
330
1F
100
AcDbEntity
  8
0
  6
Continuous
 62
     8
370
    25
100
AcDbLine
 10
-39.7737810374
 20
246.0099719953
 30
0.0
 11
-73.7737810374
 21
246.0099719953
 31
0.0
  0
LINE
  5
332
330
1F
100
AcDbEntity
  8
0
  6
Continuous
 62
     8
370
    25
100
AcDbLine
 10
-12.0324768958
 20
139.0099719953
 30
0.0
 11
35.9675231042
 21
139.0099719953
 31
0.0
  0
LINE
  5
333
330
1F
100
AcDbEntity
  8
0
  6
Continuous
 62
     8
370
    25
100
AcDbLine
 10
28.9675231042
 20
133.0099719953
 30
0.0
 11
-5.0324768958
 21
133.0099719953
 31
0.0
  0
LINE
  5
334
330
1F
100
AcDbEntity
  8
0
  6
Continuous
 62
     8
370
    25
100
AcDbLine
 10
-5.0324768958
 20
53.0099719953
 30
0.0
 11
28.9675231042
 21
53.0099719953
 31
0.0
  0
LINE
  5
335
330
1F
100
AcDbEntity
  8
0
  6
Continuous
 62
     8
370
    25
100
AcDbLine
 10
35.0607236379
 20
35.8496731714
 30
0.0
 11
36.9675231042
 21
35.8496731714
 31
0.0
  0
LINE
  5
336
330
1F
100
AcDbEntity
  8
0
  6
Continuous
 62
     8
370
    25
100
AcDbLine
 10
-13.0324768958
 20
35.8496731714
 30
0.0
 11
35.0607236379
 21
35.8496731714
 31
0.0
  0
LINE
  5
337
330
1F
100
AcDbEntity
  8
0
  6
Continuous
 62
     8
370
    25
100
AcDbLine
 10
36.1336565596
 20
34.8635698933
 30
0.0
 11
-12.1986103512
 21
34.8635698933
 31
0.0
  0
LINE
  5
338
330
1F
100
AcDbEntity
  8
0
  6
Continuous
 62
     8
370
    25
100
AcDbLine
 10
-12.7798862145
 20
39.2941365118
 30
0.0
 11
36.7149324229
 21
39.2941365118
 31
0.0
  0
LINE
  5
339
330
1F
100
AcDbEntity
  8
0
  6
Continuous
 62
     8
370
    25
100
AcDbLine
 10
35.0607236379
 20
38.629772673
 30
0.0
 11
-13.0324768958
 21
38.629772673
 31
0.0
  0
LINE
  5
33A
330
1F
100
AcDbEntity
  8
0
  6
Continuous
 62
     8
370
    25
100
AcDbLine
 10
36.9675231042
 20
38.629772673
 30
0.0
 11
35.0607236379
 21
38.629772673
 31
0.0
  0
LINE
  5
33B
330
1F
100
AcDbEntity
  8
0
  6
Continuous
 62
     8
370
    25
100
AcDbLine
 10
27.9042245574
 20
47.7258074789
 30
0.0
 11
-5.2850675771
 21
47.7258074789
 31
0.0
  0
LINE
  5
33C
330
1F
100
AcDbEntity
  8
0
  6
Continuous
 62
     8
370
    25
100
AcDbLine
 10
29.2201137855
 20
47.7258074789
 30
0.0
 11
27.9042245574
 21
47.7258074789
 31
0.0
  0
LINE
  5
33D
330
1F
100
AcDbEntity
  8
0
  6
Continuous
 62
     8
370
    25
100
AcDbLine
 10
-5.0324768958
 20
48.3901713177
 30
0.0
 11
28.9675231042
 21
48.3901713177
 31
0.0
  0
LINE
  5
33E
330
1F
100
AcDbEntity
  8
0
  6
Continuous
 62
     8
370
    25
100
AcDbLine
 10
28.9675231042
 20
51.0099719953
 30
0.0
 11
-5.0324768958
 21
51.0099719953
 31
0.0
  0
LINE
  5
33F
330
1F
100
AcDbEntity
  8
0
  6
Continuous
 62
     8
370
    25
100
AcDbLine
 10
-81.7737810374
 20
35.8496731714
 30
0.0
 11
-31.7737810374
 21
35.8496731714
 31
0.0
  0
LINE
  5
340
330
1F
100
AcDbEntity
  8
0
  6
Continuous
 62
     8
370
    25
100
AcDbLine
 10
-34.450846397
 20
34.8635698933
 30
0.0
 11
-80.9399144928
 21
34.8635698933
 31
0.0
  0
LINE
  5
341
330
1F
100
AcDbEntity
  8
0
  6
Continuous
 62
     8
370
    25
100
AcDbLine
 10
-32.607647582
 20
34.8635698933
 30
0.0
 11
-34.450846397
 21
34.8635698933
 31
0.0
  0
LINE
  5
342
330
1F
100
AcDbEntity
  8
0
  6
Continuous
 62
     8
370
    25
100
AcDbLine
 10
-31.7737810374
 20
38.629772673
 30
0.0
 11
-81.7737810374
 21
38.629772673
 31
0.0
  0
LINE
  5
343
330
1F
100
AcDbEntity
  8
0
  6
Continuous
 62
     8
370
    25
100
AcDbLine
 10
-33.913905594
 20
39.2941365118
 30
0.0
 11
-32.0263717187
 21
39.2941365118
 31
0.0
  0
LINE
  5
344
330
1F
100
AcDbEntity
  8
0
  6
Continuous
 62
     8
370
    25
100
AcDbLine
 10
-81.5211903561
 20
39.2941365118
 30
0.0
 11
-33.913905594
 21
39.2941365118
 31
0.0
  0
LINE
  5
345
330
1F
100
AcDbEntity
  8
0
  6
Continuous
 62
     8
370
    25
100
AcDbLine
 10
-39.5211903561
 20
47.7258074789
 30
0.0
 11
-74.0263717187
 21
47.7258074789
 31
0.0
  0
LINE
  5
346
330
1F
100
AcDbEntity
  8
0
  6
Continuous
 62
     8
370
    25
100
AcDbLine
 10
-41.0704046745
 20
48.3901713177
 30
0.0
 11
-39.7737810374
 21
48.3901713177
 31
0.0
  0
LINE
  5
347
330
1F
100
AcDbEntity
  8
0
  6
Continuous
 62
     8
370
    25
100
AcDbLine
 10
-73.7737810374
 20
48.3901713177
 30
0.0
 11
-41.0704046745
 21
48.3901713177
 31
0.0
  0
LINE
  5
348
330
1F
100
AcDbEntity
  8
0
  6
Continuous
 62
     8
370
    25
100
AcDbLine
 10
-41.0704046745
 20
51.0099719953
 30
0.0
 11
-73.7737810374
 21
51.0099719953
 31
0.0
  0
LINE
  5
349
330
1F
100
AcDbEntity
  8
0
  6
Continuous
 62
     8
370
    25
100
AcDbLine
 10
-39.7737810374
 20
51.0099719953
 30
0.0
 11
-41.0704046745
 21
51.0099719953
 31
0.0
  0
LINE
  5
34A
330
1F
100
AcDbEntity
  8
0
  6
Continuous
 62
     8
370
    25
100
AcDbLine
 10
-33.6805805037
 20
263.1702708193
 30
0.0
 11
-81.7737810374
 21
263.1702708193
 31
0.0
  0
LINE
  5
34B
330
1F
100
AcDbEntity
  8
0
  6
Continuous
 62
     8
370
    25
100
AcDbLine
 10
-31.7737810374
 20
263.1702708193
 30
0.0
 11
-33.6805805037
 21
263.1702708193
 31
0.0
  0
LINE
  5
34C
330
1F
100
AcDbEntity
  8
0
  6
Continuous
 62
     8
370
    25
100
AcDbLine
 10
-80.9399144928
 20
264.1563740974
 30
0.0
 11
-32.607647582
 21
264.1563740974
 31
0.0
  0
LINE
  5
34D
330
1F
100
AcDbEntity
  8
0
  6
Continuous
 62
     8
370
    25
100
AcDbLine
 10
-32.0263717187
 20
259.7258074789
 30
0.0
 11
-81.5211903561
 21
259.7258074789
 31
0.0
  0
LINE
  5
34E
330
1F
100
AcDbEntity
  8
0
  6
Continuous
 62
     8
370
    25
100
AcDbLine
 10
-33.6805805037
 20
260.3901713177
 30
0.0
 11
-31.7737810374
 21
260.3901713177
 31
0.0
  0
LINE
  5
34F
330
1F
100
AcDbEntity
  8
0
  6
Continuous
 62
     8
370
    25
100
AcDbLine
 10
-81.7737810374
 20
260.3901713177
 30
0.0
 11
-33.6805805037
 21
260.3901713177
 31
0.0
  0
LINE
  5
350
330
1F
100
AcDbEntity
  8
0
  6
Continuous
 62
     8
370
    25
100
AcDbLine
 10
-40.8370795842
 20
251.2941365118
 30
0.0
 11
-39.5211903561
 21
251.2941365118
 31
0.0
  0
LINE
  5
351
330
1F
100
AcDbEntity
  8
0
  6
Continuous
 62
     8
370
    25
100
AcDbLine
 10
-74.0263717187
 20
251.2941365118
 30
0.0
 11
-40.8370795842
 21
251.2941365118
 31
0.0
  0
LINE
  5
352
330
1F
100
AcDbEntity
  8
0
  6
Continuous
 62
     8
370
    25
100
AcDbLine
 10
-39.7737810374
 20
250.629772673
 30
0.0
 11
-73.7737810374
 21
250.629772673
 31
0.0
  0
LINE
  5
353
330
1F
100
AcDbEntity
  8
0
  6
Continuous
 62
     8
370
    25
100
AcDbLine
 10
-73.7737810374
 20
248.0099719953
 30
0.0
 11
-39.7737810374
 21
248.0099719953
 31
0.0
  0
LINE
  5
354
330
1F
100
AcDbEntity
  8
0
  6
Continuous
 62
     8
370
    25
100
AcDbLine
 10
36.9675231042
 20
263.1702708193
 30
0.0
 11
-13.0324768958
 21
263.1702708193
 31
0.0
  0
LINE
  5
355
330
1F
100
AcDbEntity
  8
0
  6
Continuous
 62
     8
370
    25
100
AcDbLine
 10
34.2904577446
 20
264.1563740974
 30
0.0
 11
36.1336565596
 21
264.1563740974
 31
0.0
  0
LINE
  5
356
330
1F
100
AcDbEntity
  8
0
  6
Continuous
 62
     8
370
    25
100
AcDbLine
 10
-12.1986103512
 20
264.1563740974
 30
0.0
 11
34.2904577446
 21
264.1563740974
 31
0.0
  0
LINE
  5
357
330
1F
100
AcDbEntity
  8
0
  6
Continuous
 62
     8
370
    25
100
AcDbLine
 10
34.8273985476
 20
259.7258074789
 30
0.0
 11
-12.7798862145
 21
259.7258074789
 31
0.0
  0
LINE
  5
358
330
1F
100
AcDbEntity
  8
0
  6
Continuous
 62
     8
370
    25
100
AcDbLine
 10
36.7149324229
 20
259.7258074789
 30
0.0
 11
34.8273985476
 21
259.7258074789
 31
0.0
  0
LINE
  5
359
330
1F
100
AcDbEntity
  8
0
  6
Continuous
 62
     8
370
    25
100
AcDbLine
 10
-13.0324768958
 20
260.3901713177
 30
0.0
 11
36.9675231042
 21
260.3901713177
 31
0.0
  0
LINE
  5
35A
330
1F
100
AcDbEntity
  8
0
  6
Continuous
 62
     8
370
    25
100
AcDbLine
 10
-5.2850675771
 20
251.2941365118
 30
0.0
 11
29.2201137855
 21
251.2941365118
 31
0.0
  0
LINE
  5
35B
330
1F
100
AcDbEntity
  8
0
  6
Continuous
 62
     8
370
    25
100
AcDbLine
 10
27.6708994671
 20
250.629772673
 30
0.0
 11
-5.0324768958
 21
250.629772673
 31
0.0
  0
LINE
  5
35C
330
1F
100
AcDbEntity
  8
0
  6
Continuous
 62
     8
370
    25
100
AcDbLine
 10
28.9675231042
 20
250.629772673
 30
0.0
 11
27.6708994671
 21
250.629772673
 31
0.0
  0
LINE
  5
35D
330
1F
100
AcDbEntity
  8
0
  6
Continuous
 62
     8
370
    25
100
AcDbLine
 10
27.6708994671
 20
248.0099719953
 30
0.0
 11
28.9675231042
 21
248.0099719953
 31
0.0
  0
LINE
  5
35E
330
1F
100
AcDbEntity
  8
0
  6
Continuous
 62
     8
370
    25
100
AcDbLine
 10
-5.0324768958
 20
248.0099719953
 30
0.0
 11
27.6708994671
 21
248.0099719953
 31
0.0
  0
LINE
  5
35F
330
1F
100
AcDbEntity
  8
0
  6
Continuous
 62
     8
370
    25
100
AcDbLine
 10
-1.7824768958
 20
33.7621176003
 30
0.0
 11
25.7175231042
 21
33.7621176003
 31
0.0
  0
LINE
  5
360
330
1F
100
AcDbEntity
  8
0
  6
Continuous
 62
     8
370
    25
100
AcDbLine
 10
24.9872751703
 20
32.7991877883
 30
0.0
 11
-1.0522289619
 21
32.7991877883
 31
0.0
  0
LINE
  5
361
330
1F
100
AcDbEntity
  8
0
  6
Continuous
 62
     8
370
    25
100
AcDbLine
 10
-44.0725207439
 20
33.7621176003
 30
0.0
 11
-43.0237810374
 21
33.7621176003
 31
0.0
  0
LINE
  5
362
330
1F
100
AcDbEntity
  8
0
  6
Continuous
 62
     8
370
    25
100
AcDbLine
 10
-70.5237810374
 20
33.7621176003
 30
0.0
 11
-44.0725207439
 21
33.7621176003
 31
0.0
  0
LINE
  5
363
330
1F
100
AcDbEntity
  8
0
  6
Continuous
 62
     8
370
    25
100
AcDbLine
 10
-44.7470712229
 20
32.7991877883
 30
0.0
 11
-69.7935331035
 21
32.7991877883
 31
0.0
  0
LINE
  5
364
330
1F
100
AcDbEntity
  8
0
  6
Continuous
 62
     8
370
    25
100
AcDbLine
 10
-43.7540289713
 20
32.7991877883
 30
0.0
 11
-44.7470712229
 21
32.7991877883
 31
0.0
  0
LINE
  5
365
330
1F
100
AcDbEntity
  8
0
  6
Continuous
 62
     8
370
    25
100
AcDbLine
 10
-43.0237810374
 20
265.2578263903
 30
0.0
 11
-70.5237810374
 21
265.2578263903
 31
0.0
  0
LINE
  5
366
330
1F
100
AcDbEntity
  8
0
  6
Continuous
 62
     8
370
    25
100
AcDbLine
 10
-69.7935331035
 20
266.2207562023
 30
0.0
 11
-43.7540289713
 21
266.2207562023
 31
0.0
  0
LINE
  5
367
330
1F
100
AcDbEntity
  8
0
  6
Continuous
 62
     8
370
    25
100
AcDbLine
 10
24.6687833977
 20
265.2578263903
 30
0.0
 11
-1.7824768958
 21
265.2578263903
 31
0.0
  0
LINE
  5
368
330
1F
100
AcDbEntity
  8
0
  6
Continuous
 62
     8
370
    25
100
AcDbLine
 10
25.7175231042
 20
265.2578263903
 30
0.0
 11
24.6687833977
 21
265.2578263903
 31
0.0
  0
LINE
  5
369
330
1F
100
AcDbEntity
  8
0
  6
Continuous
 62
     8
370
    25
100
AcDbLine
 10
23.9942329187
 20
266.2207562023
 30
0.0
 11
24.9872751703
 21
266.2207562023
 31
0.0
  0
LINE
  5
36A
330
1F
100
AcDbEntity
  8
0
  6
Continuous
 62
     8
370
    25
100
AcDbLine
 10
-1.0522289619
 20
266.2207562023
 30
0.0
 11
23.9942329187
 21
266.2207562023
 31
0.0
  0
LINE
  5
36B
330
1F
100
AcDbEntity
  8
0
  6
Continuous
 62
     8
370
    25
100
AcDbLine
 10
-69.9438866827
 20
130.0099719953
 30
0.0
 11
-5.0324768958
 21
130.0099719953
 31
0.0
  0
LINE
  5
36C
330
1F
100
AcDbEntity
  8
0
  6
Continuous
 62
     8
370
    25
100
AcDbLine
 10
-12.0324768958
 20
139.0099719953
 30
0.0
 11
-69.9438866827
 21
139.0099719953
 31
0.0
  0
LINE
  5
36D
330
1F
100
AcDbEntity
  8
0
  6
Continuous
 62
     8
370
    25
100
AcDbLine
 10
-85.110824713
 20
130.0099719953
 30
0.0
 11
-69.9438866827
 21
130.0099719953
 31
0.0
  0
LINE
  5
36E
330
1F
100
AcDbEntity
  8
0
  6
Continuous
 62
     8
370
    25
100
AcDbLine
 10
-69.9438866827
 20
139.0099719953
 30
0.0
 11
-85.110824713
 21
139.0099719953
 31
0.0
  0
LINE
  5
36F
330
1F
100
AcDbEntity
  8
0
  6
Continuous
 62
     8
370
    25
100
AcDbLine
 10
-69.9438866827
 20
160.0099719953
 30
0.0
 11
-12.0324768958
 21
160.0099719953
 31
0.0
  0
LINE
  5
370
330
1F
100
AcDbEntity
  8
0
  6
Continuous
 62
     8
370
    25
100
AcDbLine
 10
-5.0324768958
 20
169.0099719953
 30
0.0
 11
-69.9438866827
 21
169.0099719953
 31
0.0
  0
LINE
  5
371
330
1F
100
AcDbEntity
  8
0
  6
Continuous
 62
     8
370
    25
100
AcDbLine
 10
-69.9438866827
 20
169.0099719953
 30
0.0
 11
-85.110824713
 21
169.0099719953
 31
0.0
  0
LINE
  5
372
330
1F
100
AcDbEntity
  8
0
  6
Continuous
 62
     8
370
    25
100
AcDbLine
 10
-85.110824713
 20
160.0099719953
 30
0.0
 11
-69.9438866827
 21
160.0099719953
 31
0.0
  0
LINE
  5
373
330
1F
100
AcDbEntity
  8
0
  6
Continuous
 62
     8
370
    25
100
AcDbLine
 10
149.4629665288
 20
180.8959088479
 30
0.0
 11
149.4629665288
 21
157.0099719953
 31
0.0
  0
LINE
  5
374
330
1F
100
AcDbEntity
  8
0
  6
Continuous
 62
     8
370
    25
100
AcDbLine
 10
149.4629665288
 20
142.0099719953
 30
0.0
 11
149.4629665288
 21
118.1240363692
 31
0.0
  0
LINE
  5
375
330
1F
100
AcDbEntity
  8
0
  6
Continuous
 62
     8
370
    25
100
AcDbLine
 10
399.8690313044
 20
160.0099719953
 30
0.0
 11
502.8063967084
 21
160.0099719953
 31
0.0
  0
LINE
  5
376
330
1F
100
AcDbEntity
  8
0
  6
Continuous
 62
     8
370
    25
100
AcDbLine
 10
533.560007166
 20
160.0099719953
 30
0.0
 11
537.158973082
 21
160.0099719953
 31
0.0
  0
LINE
  5
377
330
1F
100
AcDbEntity
  8
0
  6
Continuous
 62
     8
370
    25
100
AcDbLine
 10
537.158973082
 20
169.0099719953
 30
0.0
 11
529.4105153639
 21
169.0099719953
 31
0.0
  0
LINE
  5
378
330
1F
100
AcDbEntity
  8
0
  6
Continuous
 62
     8
370
    25
100
AcDbLine
 10
506.9558885105
 20
169.0099719953
 30
0.0
 11
399.8690313044
 21
169.0099719953
 31
0.0
  0
LINE
  5
379
330
1F
100
AcDbEntity
  8
0
  6
Continuous
 62
     8
370
    25
100
AcDbLine
 10
41.33925795
 20
169.0099719953
 30
0.0
 11
28.9675231042
 21
169.0099719953
 31
0.0
  0
LINE
  5
37A
330
1F
100
AcDbEntity
  8
0
  6
Continuous
 62
     8
370
    25
100
AcDbLine
 10
386.00397795
 20
169.0099719953
 30
0.0
 11
384.4970014281
 21
169.0099719953
 31
0.0
  0
LINE
  5
37B
330
1F
100
AcDbEntity
  8
0
  6
Continuous
 62
     8
370
    25
100
AcDbLine
 10
146.4629665288
 20
169.0099719953
 30
0.0
 11
41.33925795
 21
169.0099719953
 31
0.0
  0
LINE
  5
37C
330
1F
100
AcDbEntity
  8
0
  6
Continuous
 62
     8
370
    25
100
AcDbLine
 10
41.33925795
 20
160.0099719953
 30
0.0
 11
146.4629665288
 21
160.0099719953
 31
0.0
  0
LINE
  5
37D
330
1F
100
AcDbEntity
  8
0
  6
Continuous
 62
     8
370
    25
100
AcDbLine
 10
385.5855889417
 20
160.0099719953
 30
0.0
 11
386.00397795
 21
160.0099719953
 31
0.0
  0
LINE
  5
37E
330
1F
100
AcDbEntity
  8
0
  6
Continuous
 62
     8
370
    25
100
AcDbLine
 10
35.9675231042
 20
160.0099719953
 30
0.0
 11
41.33925795
 21
160.0099719953
 31
0.0
  0
LINE
  5
37F
330
1F
100
AcDbEntity
  8
0
  6
Continuous
 62
     8
370
    25
100
AcDbLine
 10
537.158973082
 20
139.0099719953
 30
0.0
 11
533.560007166
 21
139.0099719953
 31
0.0
  0
LINE
  5
380
330
1F
100
AcDbEntity
  8
0
  6
Continuous
 62
     8
370
    25
100
AcDbLine
 10
502.8063967084
 20
139.0099719953
 30
0.0
 11
399.8690313044
 21
139.0099719953
 31
0.0
  0
LINE
  5
381
330
1F
100
AcDbEntity
  8
0
  6
Continuous
 62
     8
370
    25
100
AcDbLine
 10
399.8690313044
 20
130.0099719953
 30
0.0
 11
506.9558885105
 21
130.0099719953
 31
0.0
  0
LINE
  5
382
330
1F
100
AcDbEntity
  8
0
  6
Continuous
 62
     8
370
    25
100
AcDbLine
 10
529.4105153639
 20
130.0099719953
 30
0.0
 11
537.158973082
 21
130.0099719953
 31
0.0
  0
LINE
  5
383
330
1F
100
AcDbEntity
  8
0
  6
Continuous
 62
     8
370
    25
100
AcDbLine
 10
28.9675231042
 20
130.0099719953
 30
0.0
 11
41.33925795
 21
130.0099719953
 31
0.0
  0
LINE
  5
384
330
1F
100
AcDbEntity
  8
0
  6
Continuous
 62
     8
370
    25
100
AcDbLine
 10
41.33925795
 20
139.0099719953
 30
0.0
 11
35.9675231042
 21
139.0099719953
 31
0.0
  0
LINE
  5
385
330
1F
100
AcDbEntity
  8
0
  6
Continuous
 62
     8
370
    25
100
AcDbLine
 10
41.33925795
 20
130.0099719953
 30
0.0
 11
146.4629665288
 21
130.0099719953
 31
0.0
  0
LINE
  5
386
330
1F
100
AcDbEntity
  8
0
  6
Continuous
 62
     8
370
    25
100
AcDbLine
 10
384.4970014747
 20
130.0099719953
 30
0.0
 11
386.00397795
 21
130.0099719953
 31
0.0
  0
LINE
  5
387
330
1F
100
AcDbEntity
  8
0
  6
Continuous
 62
     8
370
    25
100
AcDbLine
 10
386.00397795
 20
139.0099719953
 30
0.0
 11
385.5855889666
 21
139.0099719953
 31
0.0
  0
LINE
  5
388
330
1F
100
AcDbEntity
  8
0
  6
Continuous
 62
     8
370
    25
100
AcDbLine
 10
146.4629665288
 20
139.0099719953
 30
0.0
 11
41.33925795
 21
139.0099719953
 31
0.0
  0
LINE
  5
389
330
1F
100
AcDbEntity
  8
0
  6
Continuous
 62
     8
370
    25
100
AcDbLine
 10
499.0177012548
 20
145.0099719953
 30
0.0
 11
538.1832020075
 21
145.0099719953
 31
0.0
  0
LINE
  5
38A
330
1F
100
AcDbEntity
  8
0
  6
Continuous
 62
     8
370
    25
100
AcDbLine
 10
538.1832020075
 20
154.0099719953
 30
0.0
 11
499.0177012548
 21
154.0099719953
 31
0.0
  0
LWPOLYLINE
  5
38B
330
1F
100
AcDbEntity
  8
0
  6
Continuous
 62
     8
370
    25
100
AcDbPolyline
 90
        7
 70
   128
 43
0.0
 10
536.9879022279
 20
157.0099719953
 10
537.1527191215
 20
156.9523278365
 10
537.3112021943
 20
156.7816105929
 10
537.4572610308
 20
156.5043808322
 10
537.5852826716
 20
156.1312923389
 10
537.690347317
 20
155.6766826944
 10
537.6953399808
 20
155.6498386982
  0
LWPOLYLINE
  5
38C
330
1F
100
AcDbEntity
  8
0
  6
Continuous
 62
     8
370
    25
100
AcDbPolyline
 90
        7
 70
   128
 43
0.0
 10
537.6953399808
 20
143.3701052924
 10
537.690347317
 20
143.3432612963
 10
537.5852826716
 20
142.8886516518
 10
537.4572610308
 20
142.5155631584
 10
537.3112021943
 20
142.2383333978
 10
537.1527191215
 20
142.0676161541
 10
536.9879022279
 20
142.0099719953
  0
LINE
  5
38D
330
1F
100
AcDbEntity
  8
0
  6
Continuous
 62
     8
370
    25
100
AcDbLine
 10
387.7868642155
 20
154.0099719953
 30
0.0
 11
385.9463433938
 21
154.0099719953
 31
0.0
  0
LINE
  5
38E
330
1F
100
AcDbEntity
  8
0
  6
Continuous
 62
     8
370
    25
100
AcDbLine
 10
385.9463434044
 20
145.0099719953
 30
0.0
 11
387.7868642155
 21
145.0099719953
 31
0.0
  0
LINE
  5
38F
330
1F
100
AcDbEntity
  8
0
  6
Continuous
 62
     8
370
    25
100
AcDbLine
 10
539.7507821194
 20
154.0099719953
 30
0.0
 11
538.1832020075
 21
154.0099719953
 31
0.0
  0
LINE
  5
390
330
1F
100
AcDbEntity
  8
0
  6
Continuous
 62
     8
370
    25
100
AcDbLine
 10
538.1832020075
 20
145.0099719953
 30
0.0
 11
539.7507821194
 21
145.0099719953
 31
0.0
  0
LINE
  5
391
330
1F
100
AcDbEntity
  8
0
  6
Continuous
 62
     8
370
    25
100
AcDbLine
 10
627.2330102433
 20
145.0099719953
 30
0.0
 11
627.280661307
 21
145.0099719953
 31
0.0
  0
LINE
  5
392
330
1F
100
AcDbEntity
  8
0
  6
Continuous
 62
     8
370
    25
100
AcDbLine
 10
627.280661307
 20
154.0099719953
 30
0.0
 11
627.2330102433
 21
154.0099719953
 31
0.0
  0
LINE
  5
393
330
1F
100
AcDbEntity
  8
0
  6
Continuous
 62
     8
370
    25
100
AcDbLine
 10
56.9675231042
 20
154.0099719953
 30
0.0
 11
-29.721603007
 21
154.0099719953
 31
0.0
  0
LINE
  5
394
330
1F
100
AcDbEntity
  8
0
  6
Continuous
 62
     8
370
    25
100
AcDbLine
 10
-29.721603007
 20
145.0099719953
 30
0.0
 11
56.9675231042
 21
145.0099719953
 31
0.0
  0
LINE
  5
395
330
1F
100
AcDbEntity
  8
0
  6
Continuous
 62
     8
370
    25
100
AcDbLine
 10
-29.721603007
 20
154.0099719953
 30
0.0
 11
-44.6968347274
 21
154.0099719953
 31
0.0
  0
LINE
  5
396
330
1F
100
AcDbEntity
  8
0
  6
Continuous
 62
     8
370
    25
100
AcDbLine
 10
-44.6968347274
 20
145.0099719953
 30
0.0
 11
-29.721603007
 21
145.0099719953
 31
0.0
  0
LINE
  5
397
330
1F
100
AcDbEntity
  8
0
  6
Continuous
 62
     8
370
    25
100
AcDbLine
 10
-51.4985541931
 20
145.0099719953
 30
0.0
 11
-44.6968347274
 21
145.0099719953
 31
0.0
  0
LINE
  5
398
330
1F
100
AcDbEntity
  8
0
  6
Continuous
 62
     8
370
    25
100
AcDbLine
 10
-44.6968347274
 20
154.0099719953
 30
0.0
 11
-51.4985541931
 21
154.0099719953
 31
0.0
  0
LINE
  5
399
330
1F
100
AcDbEntity
  8
0
  6
Continuous
 62
     8
370
    25
100
AcDbLine
 10
56.9675231042
 20
145.0099719953
 30
0.0
 11
61.7068057013
 21
145.0099719953
 31
0.0
  0
LINE
  5
39A
330
1F
100
AcDbEntity
  8
0
  6
Continuous
 62
     8
370
    25
100
AcDbLine
 10
61.7068057013
 20
154.0099719953
 30
0.0
 11
56.9675231042
 21
154.0099719953
 31
0.0
  0
LINE
  5
39B
330
1F
100
AcDbEntity
  8
0
  6
Continuous
 62
     8
370
    25
100
AcDbLine
 10
-69.9448308924
 20
154.0099719953
 30
0.0
 11
-85.110824713
 21
154.0099719953
 31
0.0
  0
LINE
  5
39C
330
1F
100
AcDbEntity
  8
0
  6
Continuous
 62
     8
370
    25
100
AcDbLine
 10
-85.110824713
 20
145.0099719953
 30
0.0
 11
-69.9448308924
 21
145.0099719953
 31
0.0
  0
LINE
  5
39D
330
1F
100
AcDbEntity
  8
0
  6
Continuous
 62
     8
370
    25
100
AcDbLine
 10
86.36035495
 20
145.0099719953
 30
0.0
 11
171.2254686525
 21
145.0099719953
 31
0.0
  0
LINE
  5
39E
330
1F
100
AcDbEntity
  8
0
  6
Continuous
 62
     8
370
    25
100
AcDbLine
 10
171.2254686525
 20
154.0099719953
 30
0.0
 11
86.36035495
 21
154.0099719953
 31
0.0
  0
LINE
  5
39F
330
1F
100
AcDbEntity
  8
0
  6
Continuous
 62
     8
370
    25
100
AcDbLine
 10
-76.7737810374
 20
125.0099719953
 30
0.0
 11
-46.4582375313
 21
125.0099719953
 31
0.0
  0
LINE
  5
3A0
330
1F
100
AcDbEntity
  8
0
  6
Continuous
 62
     8
370
    25
100
AcDbLine
 10
92.4712148053
 20
122.0099719953
 30
0.0
 11
132.4712148053
 21
122.0099719953
 31
0.0
  0
LINE
  5
3A1
330
1F
100
AcDbEntity
  8
0
  6
Continuous
 62
     8
370
    25
100
AcDbLine
 10
-13.969491172
 20
125.0099719953
 30
0.0
 11
-6.4582375313
 21
125.0099719953
 31
0.0
  0
LINE
  5
3A2
330
1F
100
AcDbEntity
  8
0
  6
Continuous
 62
     8
370
    25
100
AcDbLine
 10
-46.4582375313
 20
125.0099719953
 30
0.0
 11
-13.969491172
 21
125.0099719953
 31
0.0
  0
LINE
  5
3A3
330
1F
100
AcDbEntity
  8
0
  6
Continuous
 62
     8
370
    25
100
AcDbLine
 10
126.7099096142
 20
177.0099719953
 30
0.0
 11
92.4712148053
 21
177.0099719953
 31
0.0
  0
LINE
  5
3A4
330
1F
100
AcDbEntity
  8
0
  6
Continuous
 62
     8
370
    25
100
AcDbLine
 10
132.4712148053
 20
177.0099719953
 30
0.0
 11
126.7099096142
 21
177.0099719953
 31
0.0
  0
LINE
  5
3A5
330
1F
100
AcDbEntity
  8
0
  6
Continuous
 62
     8
370
    25
100
AcDbLine
 10
-6.4582375313
 20
174.0099719953
 30
0.0
 11
-46.4582375313
 21
174.0099719953
 31
0.0
  0
LINE
  5
3A6
330
1F
100
AcDbEntity
  8
0
  6
Continuous
 62
     8
370
    25
100
AcDbLine
 10
-46.4582375313
 20
174.0099719953
 30
0.0
 11
-76.7737810374
 21
174.0099719953
 31
0.0
  0
LINE
  5
3A7
330
1F
100
AcDbEntity
  8
0
  6
Continuous
 62
     8
370
    25
100
AcDbLine
 10
-48.2189897813
 20
109.8795806769
 30
0.0
 11
-43.0737810374
 21
109.8795806769
 31
0.0
  0
LINE
  5
3A8
330
1F
100
AcDbEntity
  8
0
  6
Continuous
 62
     8
370
    25
100
AcDbLine
 10
-70.4737810374
 20
109.8795806769
 30
0.0
 11
-48.2189897813
 21
109.8795806769
 31
0.0
  0
LINE
  5
3A9
330
1F
100
AcDbEntity
  8
0
  6
Continuous
 62
     8
370
    25
100
AcDbLine
 10
-48.4272082798
 20
109.3420390593
 30
0.0
 11
-43.407230837
 21
109.3420390593
 31
0.0
  0
LINE
  5
3AA
330
1F
100
AcDbEntity
  8
0
  6
Continuous
 62
     8
370
    25
100
AcDbLine
 10
-70.1403312378
 20
109.3420390593
 30
0.0
 11
-48.4272082798
 21
109.3420390593
 31
0.0
  0
LINE
  5
3AB
330
1F
100
AcDbEntity
  8
0
  6
Continuous
 62
     8
370
    25
100
AcDbLine
 10
-12.7582375313
 20
189.1403633137
 30
0.0
 11
-40.1582375313
 21
189.1403633137
 31
0.0
  0
LINE
  5
3AC
330
1F
100
AcDbEntity
  8
0
  6
Continuous
 62
     8
370
    25
100
AcDbLine
 10
-13.0916873309
 20
189.6779049314
 30
0.0
 11
-39.8247877317
 21
189.6779049314
 31
0.0
  0
LINE
  5
3AD
330
1F
100
AcDbEntity
  8
0
  6
Continuous
 62
     8
370
    25
100
AcDbLine
 10
122.2247207494
 20
192.1403633137
 30
0.0
 11
98.7712148053
 21
192.1403633137
 31
0.0
  0
LINE
  5
3AE
330
1F
100
AcDbEntity
  8
0
  6
Continuous
 62
     8
370
    25
100
AcDbLine
 10
126.1712148053
 20
192.1403633137
 30
0.0
 11
122.2247207494
 21
192.1403633137
 31
0.0
  0
LINE
  5
3AF
330
1F
100
AcDbEntity
  8
0
  6
Continuous
 62
     8
370
    25
100
AcDbLine
 10
121.9873262529
 20
192.6779049314
 30
0.0
 11
99.1046646049
 21
192.6779049314
 31
0.0
  0
LINE
  5
3B0
330
1F
100
AcDbEntity
  8
0
  6
Continuous
 62
     8
370
    25
100
AcDbLine
 10
125.8377650057
 20
192.6779049314
 30
0.0
 11
121.9873262529
 21
192.6779049314
 31
0.0
  0
LINE
  5
3B1
330
1F
100
AcDbEntity
  8
0
  6
Continuous
 62
     8
370
    25
100
AcDbLine
 10
-43.0737810374
 20
189.1403633137
 30
0.0
 11
-70.4737810374
 21
189.1403633137
 31
0.0
  0
LINE
  5
3B2
330
1F
100
AcDbEntity
  8
0
  6
Continuous
 62
     8
370
    25
100
AcDbLine
 10
-43.407230837
 20
189.6779049314
 30
0.0
 11
-70.1403312378
 21
189.6779049314
 31
0.0
  0
LINE
  5
3B3
330
1F
100
AcDbEntity
  8
0
  6
Continuous
 62
     8
370
    25
100
AcDbLine
 10
-17.9034462752
 20
109.8795806769
 30
0.0
 11
-12.7582375313
 21
109.8795806769
 31
0.0
  0
LINE
  5
3B4
330
1F
100
AcDbEntity
  8
0
  6
Continuous
 62
     8
370
    25
100
AcDbLine
 10
-40.1582375313
 20
109.8795806769
 30
0.0
 11
-17.9034462752
 21
109.8795806769
 31
0.0
  0
LINE
  5
3B5
330
1F
100
AcDbEntity
  8
0
  6
Continuous
 62
     8
370
    25
100
AcDbLine
 10
-18.1116647737
 20
109.3420390593
 30
0.0
 11
-13.0916873309
 21
109.3420390593
 31
0.0
  0
LINE
  5
3B6
330
1F
100
AcDbEntity
  8
0
  6
Continuous
 62
     8
370
    25
100
AcDbLine
 10
-39.8247877317
 20
109.3420390593
 30
0.0
 11
-18.1116647737
 21
109.3420390593
 31
0.0
  0
LINE
  5
3B7
330
1F
100
AcDbEntity
  8
0
  6
Continuous
 62
     8
370
    25
100
AcDbLine
 10
98.7712148053
 20
106.8795806769
 30
0.0
 11
126.1712148053
 21
106.8795806769
 31
0.0
  0
LINE
  5
3B8
330
1F
100
AcDbEntity
  8
0
  6
Continuous
 62
     8
370
    25
100
AcDbLine
 10
99.1046646049
 20
106.3420390593
 30
0.0
 11
125.8377650057
 21
106.3420390593
 31
0.0
  0
ENDSEC
  0
SECTION
  2
OBJECTS
  0
DICTIONARY
  5
C
330
0
100
AcDbDictionary
281
     1
  3
ACAD_GROUP
350
D
  3
ACAD_LAYOUT
350
1A
  3
ACAD_MLINESTYLE
350
17
  3
ACAD_PLOTSETTINGS
350
19
  3
ACAD_PLOTSTYLENAME
350
E
  3
ACAD_SCALELIST
350
47
  3
DWGPROPS
350
3B9
  0
DICTIONARY
  5
D
102
{ACAD_REACTORS
330
C
102
}
330
C
100
AcDbDictionary
281
     1
  0
DICTIONARY
  5
1A
102
{ACAD_REACTORS
330
C
102
}
330
C
100
AcDbDictionary
281
     1
  3
Layout1
350
1E
  3
Layout2
350
26
  3
Model
350
22
  0
DICTIONARY
  5
17
102
{ACAD_REACTORS
330
C
102
}
330
C
100
AcDbDictionary
281
     1
  3
Standard
350
18
  0
DICTIONARY
  5
19
102
{ACAD_REACTORS
330
C
102
}
330
C
100
AcDbDictionary
281
     1
  0
ACDBDICTIONARYWDFLT
  5
E
102
{ACAD_REACTORS
330
C
102
}
330
C
100
AcDbDictionary
281
     1
  3
Normal
350
F
100
AcDbDictionaryWithDefault
340
F
  0
DICTIONARY
  5
47
102
{ACAD_REACTORS
330
C
102
}
330
C
100
AcDbDictionary
281
     1
  3
A0
350
48
  3
A1
350
49
  3
A2
350
4A
  3
A3
350
4B
  3
A4
350
4C
  3
A5
350
4D
  3
A6
350
4E
  3
A7
350
4F
  3
A8
350
50
  3
A9
350
51
  3
B0
350
52
  3
B1
350
53
  3
B2
350
54
  3
B3
350
55
  3
B4
350
56
  3
B5
350
57
  3
B6
350
58
  3
B7
350
59
  3
B8
350
5A
  3
B9
350
5B
  3
C0
350
5C
  3
C1
350
5D
  3
C2
350
5E
  3
C3
350
5F
  3
C4
350
60
  3
C5
350
61
  3
C6
350
62
  3
C7
350
63
  3
C8
350
64
  3
C9
350
65
  3
D0
350
66
  3
D1
350
67
  3
D2
350
68
  0
XRECORD
  5
3B9
102
{ACAD_REACTORS
330
C
102
}
330
C
100
AcDbXrecord
280
     1
  1
DWGPROPS COOKIE
  2

  3

  4

  6

  7

  8
Swing
  9

300
=
301
=
302
=
303
=
304
=
305
=
306
=
307
=
308
=
309
=
 40
0.0
 41
2459557.272302141
 42
2459557.272302662
  1

 90
        0
  0
LAYOUT
  5
1E
102
{ACAD_REACTORS
330
1A
102
}
330
1A
100
AcDbPlotSettings
  1

  2
none_device
  4

  6

 40
0.0
 41
0.0
 42
0.0
 43
0.0
 44
0.0
 45
0.0
 46
0.0
 47
0.0
 48
0.0
 49
0.0
140
0.0
141
0.0
142
1.0
143
1.0
 70
   688
 72
     1
 73
     0
 74
     5
  7

 75
    16
147
1.0
148
0.0
149
0.0
100
AcDbLayout
  1
Layout1
 70
     1
 71
     1
 10
0.0
 20
0.0
 11
420.0
 21
297.0
 12
0.0
 22
0.0
 32
0.0
 14
1.0000000000E+20
 24
1.0000000000E+20
 34
1.0000000000E+20
 15
-1.0000000000E+20
 25
-1.0000000000E+20
 35
-1.0000000000E+20
146
0.0
 13
0.0
 23
0.0
 33
0.0
 16
1.0
 26
0.0
 36
0.0
 17
0.0
 27
1.0
 37
0.0
 76
     0
330
1B
  0
LAYOUT
  5
26
102
{ACAD_REACTORS
330
1A
102
}
330
1A
100
AcDbPlotSettings
  1

  2
none_device
  4

  6

 40
0.0
 41
0.0
 42
0.0
 43
0.0
 44
0.0
 45
0.0
 46
0.0
 47
0.0
 48
0.0
 49
0.0
140
0.0
141
0.0
142
1.0
143
1.0
 70
   688
 72
     1
 73
     0
 74
     5
  7

 75
    16
147
1.0
148
0.0
149
0.0
100
AcDbLayout
  1
Layout2
 70
     1
 71
     2
 10
0.0
 20
0.0
 11
0.0
 21
0.0
 12
0.0
 22
0.0
 32
0.0
 14
0.0
 24
0.0
 34
0.0
 15
0.0
 25
0.0
 35
0.0
146
0.0
 13
0.0
 23
0.0
 33
0.0
 16
1.0
 26
0.0
 36
0.0
 17
0.0
 27
1.0
 37
0.0
 76
     0
330
23
  0
LAYOUT
  5
22
102
{ACAD_REACTORS
330
1A
102
}
330
1A
100
AcDbPlotSettings
  1

  2
none_device
  4
Letter_(8.50_x_11.00_Inches)
  6

 40
6.35
 41
6.35
 42
6.35000508
 43
6.35000508
 44
215.9
 45
279.4
 46
0.0
 47
0.0
 48
0.0
 49
0.0
140
0.0
141
0.0
142
1.0
143
1.0
 70
  1712
 72
     1
 73
     0
 74
     0
  7

 75
     0
147
1.0
148
0.0
149
0.0
100
AcDbLayout
  1
Model
 70
     1
 71
     0
 10
0.0
 20
0.0
 11
431.8
 21
279.4
 12
0.0
 22
0.0
 32
0.0
 14
0.0
 24
0.0
 34
0.0
 15
431.8
 25
279.4
 35
0.0
146
0.0
 13
0.0
 23
0.0
 33
0.0
 16
1.0
 26
0.0
 36
0.0
 17
0.0
 27
1.0
 37
0.0
 76
     0
330
1F
331
29
  0
MLINESTYLE
  5
18
102
{ACAD_REACTORS
330
17
102
}
330
17
100
AcDbMlineStyle
  2
Standard
 70
     0
  3

 62
   256
 51
90.0
 52
90.0
 71
     2
 49
0.5
 62
   256
  6
BYLAYER
 49
-0.5
 62
   256
  6
BYLAYER
  0
ACDBPLACEHOLDER
  5
F
102
{ACAD_REACTORS
330
E
102
}
330
E
  0
SCALE
  5
48
102
{ACAD_REACTORS
330
47
102
}
330
47
100
AcDbScale
 70
     0
300
1:1
140
1.0
141
1.0
290
     1
  0
SCALE
  5
49
102
{ACAD_REACTORS
330
47
102
}
330
47
100
AcDbScale
 70
     0
300
1:2
140
1.0
141
2.0
290
     0
  0
SCALE
  5
4A
102
{ACAD_REACTORS
330
47
102
}
330
47
100
AcDbScale
 70
     0
300
1:4
140
1.0
141
4.0
290
     0
  0
SCALE
  5
4B
102
{ACAD_REACTORS
330
47
102
}
330
47
100
AcDbScale
 70
     0
300
1:5
140
1.0
141
5.0
290
     0
  0
SCALE
  5
4C
102
{ACAD_REACTORS
330
47
102
}
330
47
100
AcDbScale
 70
     0
300
1:8
140
1.0
141
8.0
290
     0
  0
SCALE
  5
4D
102
{ACAD_REACTORS
330
47
102
}
330
47
100
AcDbScale
 70
     0
300
1:10
140
1.0
141
10.0
290
     0
  0
SCALE
  5
4E
102
{ACAD_REACTORS
330
47
102
}
330
47
100
AcDbScale
 70
     0
300
1:16
140
1.0
141
16.0
290
     0
  0
SCALE
  5
4F
102
{ACAD_REACTORS
330
47
102
}
330
47
100
AcDbScale
 70
     0
300
1:20
140
1.0
141
20.0
290
     0
  0
SCALE
  5
50
102
{ACAD_REACTORS
330
47
102
}
330
47
100
AcDbScale
 70
     0
300
1:30
140
1.0
141
30.0
290
     0
  0
SCALE
  5
51
102
{ACAD_REACTORS
330
47
102
}
330
47
100
AcDbScale
 70
     0
300
1:40
140
1.0
141
40.0
290
     0
  0
SCALE
  5
52
102
{ACAD_REACTORS
330
47
102
}
330
47
100
AcDbScale
 70
     0
300
1:50
140
1.0
141
50.0
290
     0
  0
SCALE
  5
53
102
{ACAD_REACTORS
330
47
102
}
330
47
100
AcDbScale
 70
     0
300
1:100
140
1.0
141
100.0
290
     0
  0
SCALE
  5
54
102
{ACAD_REACTORS
330
47
102
}
330
47
100
AcDbScale
 70
     0
300
2:1
140
2.0
141
1.0
290
     0
  0
SCALE
  5
55
102
{ACAD_REACTORS
330
47
102
}
330
47
100
AcDbScale
 70
     0
300
4:1
140
4.0
141
1.0
290
     0
  0
SCALE
  5
56
102
{ACAD_REACTORS
330
47
102
}
330
47
100
AcDbScale
 70
     0
300
8:1
140
8.0
141
1.0
290
     0
  0
SCALE
  5
57
102
{ACAD_REACTORS
330
47
102
}
330
47
100
AcDbScale
 70
     0
300
10:1
140
10.0
141
1.0
290
     0
  0
SCALE
  5
58
102
{ACAD_REACTORS
330
47
102
}
330
47
100
AcDbScale
 70
     0
300
100:1
140
100.0
141
1.0
290
     0
  0
SCALE
  5
59
102
{ACAD_REACTORS
330
47
102
}
330
47
100
AcDbScale
 70
     0
300
1/128" = 1'-0"
140
0.0078125
141
12.0
290
     0
  0
SCALE
  5
5A
102
{ACAD_REACTORS
330
47
102
}
330
47
100
AcDbScale
 70
     0
300
1/64" = 1'-0"
140
0.015625
141
12.0
290
     0
  0
SCALE
  5
5B
102
{ACAD_REACTORS
330
47
102
}
330
47
100
AcDbScale
 70
     0
300
1/32" = 1'-0"
140
0.03125
141
12.0
290
     0
  0
SCALE
  5
5C
102
{ACAD_REACTORS
330
47
102
}
330
47
100
AcDbScale
 70
     0
300
1/16" = 1'-0"
140
0.0625
141
12.0
290
     0
  0
SCALE
  5
5D
102
{ACAD_REACTORS
330
47
102
}
330
47
100
AcDbScale
 70
     0
300
3/32" = 1'-0"
140
0.09375
141
12.0
290
     0
  0
SCALE
  5
5E
102
{ACAD_REACTORS
330
47
102
}
330
47
100
AcDbScale
 70
     0
300
1/8" = 1'-0"
140
0.125
141
12.0
290
     0
  0
SCALE
  5
5F
102
{ACAD_REACTORS
330
47
102
}
330
47
100
AcDbScale
 70
     0
300
3/16" = 1'-0"
140
0.1875
141
12.0
290
     0
  0
SCALE
  5
60
102
{ACAD_REACTORS
330
47
102
}
330
47
100
AcDbScale
 70
     0
300
1/4" = 1'-0"
140
0.25
141
12.0
290
     0
  0
SCALE
  5
61
102
{ACAD_REACTORS
330
47
102
}
330
47
100
AcDbScale
 70
     0
300
3/8" = 1'-0"
140
0.375
141
12.0
290
     0
  0
SCALE
  5
62
102
{ACAD_REACTORS
330
47
102
}
330
47
100
AcDbScale
 70
     0
300
1/2" = 1'-0"
140
0.5
141
12.0
290
     0
  0
SCALE
  5
63
102
{ACAD_REACTORS
330
47
102
}
330
47
100
AcDbScale
 70
     0
300
3/4" = 1'-0"
140
0.75
141
12.0
290
     0
  0
SCALE
  5
64
102
{ACAD_REACTORS
330
47
102
}
330
47
100
AcDbScale
 70
     0
300
1" = 1'-0"
140
1.0
141
12.0
290
     0
  0
SCALE
  5
65
102
{ACAD_REACTORS
330
47
102
}
330
47
100
AcDbScale
 70
     0
300
1-1/2" = 1'-0"
140
1.5
141
12.0
290
     0
  0
SCALE
  5
66
102
{ACAD_REACTORS
330
47
102
}
330
47
100
AcDbScale
 70
     0
300
3" = 1'-0"
140
3.0
141
12.0
290
     0
  0
SCALE
  5
67
102
{ACAD_REACTORS
330
47
102
}
330
47
100
AcDbScale
 70
     0
300
6" = 1'-0"
140
6.0
141
12.0
290
     0
  0
SCALE
  5
68
102
{ACAD_REACTORS
330
47
102
}
330
47
100
AcDbScale
 70
     0
300
1'-0" = 1'-0"
140
12.0
141
12.0
290
     0
  0
ENDSEC
  0
EOF
