  0
SECTION
  2
HEADER
  9
$ACADVER
  1
AC1015
  9
$ACADMAINTVER
 70
     6
  9
$DWGCODEPAGE
  3
ANSI_1250
  9
$INSBASE
 10
0.0
 20
0.0
 30
0.0
  9
$EXTMIN
 10
0.0
 20
0.0
 30
0.0
  9
$EXTMAX
 10
431.8
 20
279.4
 30
0.0
  9
$LIMMIN
 10
0.0
 20
0.0
  9
$LIMMAX
 10
431.8
 20
279.4
  9
$ORTHOMODE
 70
     0
  9
$REGENMODE
 70
     1
  9
$FILLMODE
 70
     1
  9
$QTEXTMODE
 70
     0
  9
$MIRRTEXT
 70
     1
  9
$LTSCALE
 40
1.0
  9
$ATTMODE
 70
     1
  9
$TEXTSIZE
 40
3.8805555556
  9
$TRACEWID
 40
1.0
  9
$TEXTSTYLE
  7
Standard
  9
$CLAYER
  8
0
  9
$CELTYPE
  6
ByLayer
  9
$CECOLOR
 62
   256
  9
$CELTSCALE
 40
1.0
  9
$DISPSILH
 70
     0
  9
$DIMSCALE
 40
1.0
  9
$DIMASZ
 40
3.302
  9
$DIMEXO
 40
1.0
  9
$DIMDLI
 40
3.75
  9
$DIMRND
 40
0.0
  9
$DIMDLE
 40
0.0
  9
$DIMEXE
 40
1.0
  9
$DIMTP
 40
0.0
  9
$DIMTM
 40
0.0
  9
$DIMTXT
 40
3.8805555556
  9
$DIMCEN
 40
2.5
  9
$DIMTSZ
 40
0.0
  9
$DIMTOL
 70
     0
  9
$DIMLIM
 70
     0
  9
$DIMTIH
 70
     1
  9
$DIMTOH
 70
     1
  9
$DIMSE1
 70
     0
  9
$DIMSE2
 70
     0
  9
$DIMTAD
 70
     1
  9
$DIMZIN
 70
     0
  9
$DIMBLK
  1

  9
$DIMASO
 70
     1
  9
$DIMSHO
 70
     1
  9
$DIMPOST
  1

  9
$DIMAPOST
  1

  9
$DIMALT
 70
     0
  9
$DIMALTD
 70
     3
  9
$DIMALTF
 40
0.0393700787
  9
$DIMLFAC
 40
1.0
  9
$DIMTOFL
 70
     1
  9
$DIMTVP
 40
0.0
  9
$DIMTIX
 70
     0
  9
$DIMSOXD
 70
     0
  9
$DIMSAH
 70
     0
  9
$DIMBLK1
  1

  9
$DIMBLK2
  1

  9
$DIMSTYLE
  2
ISO-25
  9
$DIMCLRD
 70
     0
  9
$DIMCLRE
 70
     0
  9
$DIMCLRT
 70
     0
  9
$DIMTFAC
 40
1.0
  9
$DIMGAP
 40
1.524
  9
$DIMJUST
 70
     0
  9
$DIMSD1
 70
     0
  9
$DIMSD2
 70
     0
  9
$DIMTOLJ
 70
     0
  9
$DIMTZIN
 70
     0
  9
$DIMALTZ
 70
     0
  9
$DIMALTTZ
 70
     0
  9
$DIMUPT
 70
     0
  9
$DIMDEC
 70
     1
  9
$DIMTDEC
 70
     1
  9
$DIMALTU
 70
     2
  9
$DIMALTTD
 70
     3
  9
$DIMTXSTY
  7
Standard
  9
$DIMAUNIT
 70
     0
  9
$DIMADEC
 70
     1
  9
$DIMALTRND
 40
0.0
  9
$DIMAZIN
 70
     0
  9
$DIMDSEP
 70
    44
  9
$DIMATFIT
 70
     3
  9
$DIMFRAC
 70
     0
  9
$DIMLDRBLK
  1

  9
$DIMLUNIT
 70
     2
  9
$DIMLWD
 70
    -2
  9
$DIMLWE
 70
    -2
  9
$DIMTMOVE
 70
     0
  9
$LUNITS
 70
     2
  9
$LUPREC
 70
     1
  9
$SKETCHINC
 40
1.0
  9
$FILLETRAD
 40
10.0
  9
$AUNITS
 70
     0
  9
$AUPREC
 70
     1
  9
$MENU
  1
.
  9
$ELEVATION
 40
0.0
  9
$PELEVATION
 40
0.0
  9
$THICKNESS
 40
0.0
  9
$LIMCHECK
 70
     0
  9
$CHAMFERA
 40
0.0
  9
$CHAMFERB
 40
0.0
  9
$CHAMFERC
 40
0.0
  9
$CHAMFERD
 40
0.0
  9
$SKPOLY
 70
     0
  9
$TDCREATE
 40
2459557.319497569
  9
$TDUCREATE
 40
2459557.277830903
  9
$TDUPDATE
 40
2459557.319497801
  9
$TDUUPDATE
 40
2459557.277831134
  9
$TDINDWG
 40
0.0000000116
  9
$TDUSRTIMER
 40
0.0000000116
  9
$USRTIMER
 70
     1
  9
$ANGBASE
 50
0.0
  9
$ANGDIR
 70
     0
  9
$PDMODE
 70
     0
  9
$PDSIZE
 40
-1.0
  9
$PLINEWID
 40
0.0
  9
$SPLFRAME
 70
     0
  9
$SPLINETYPE
 70
     6
  9
$SPLINESEGS
 70
     8
  9
$HANDSEED
  5
35D
  9
$SURFTAB1
 70
     6
  9
$SURFTAB2
 70
     6
  9
$SURFTYPE
 70
     6
  9
$SURFU
 70
     6
  9
$SURFV
 70
     6
  9
$UCSBASE
  2

  9
$UCSNAME
  2

  9
$UCSORG
 10
0.0
 20
0.0
 30
0.0
  9
$UCSXDIR
 10
1.0
 20
0.0
 30
0.0
  9
$UCSYDIR
 10
0.0
 20
1.0
 30
0.0
  9
$UCSORTHOREF
  2

  9
$UCSORTHOVIEW
 70
     0
  9
$UCSORGTOP
 10
0.0
 20
0.0
 30
0.0
  9
$UCSORGBOTTOM
 10
0.0
 20
0.0
 30
0.0
  9
$UCSORGLEFT
 10
0.0
 20
0.0
 30
0.0
  9
$UCSORGRIGHT
 10
0.0
 20
0.0
 30
0.0
  9
$UCSORGFRONT
 10
0.0
 20
0.0
 30
0.0
  9
$UCSORGBACK
 10
0.0
 20
0.0
 30
0.0
  9
$PUCSBASE
  2

  9
$PUCSNAME
  2

  9
$PUCSORG
 10
0.0
 20
0.0
 30
0.0
  9
$PUCSXDIR
 10
1.0
 20
0.0
 30
0.0
  9
$PUCSYDIR
 10
0.0
 20
1.0
 30
0.0
  9
$PUCSORTHOREF
  2

  9
$PUCSORTHOVIEW
 70
     0
  9
$PUCSORGTOP
 10
0.0
 20
0.0
 30
0.0
  9
$PUCSORGBOTTOM
 10
0.0
 20
0.0
 30
0.0
  9
$PUCSORGLEFT
 10
0.0
 20
0.0
 30
0.0
  9
$PUCSORGRIGHT
 10
0.0
 20
0.0
 30
0.0
  9
$PUCSORGFRONT
 10
0.0
 20
0.0
 30
0.0
  9
$PUCSORGBACK
 10
0.0
 20
0.0
 30
0.0
  9
$USERI1
 70
     0
  9
$USERI2
 70
     0
  9
$USERI3
 70
     0
  9
$USERI4
 70
     0
  9
$USERI5
 70
     0
  9
$USERR1
 40
0.0
  9
$USERR2
 40
0.0
  9
$USERR3
 40
0.0
  9
$USERR4
 40
0.0
  9
$USERR5
 40
0.0
  9
$WORLDVIEW
 70
     1
  9
$SHADEDGE
 70
     3
  9
$SHADEDIF
 70
    70
  9
$TILEMODE
 70
     1
  9
$MAXACTVP
 70
    64
  9
$PINSBASE
 10
0.0
 20
0.0
 30
0.0
  9
$PLIMCHECK
 70
     0
  9
$PEXTMIN
 10
1.0000000000E+20
 20
1.0000000000E+20
 30
1.0000000000E+20
  9
$PEXTMAX
 10
-1.0000000000E+20
 20
-1.0000000000E+20
 30
-1.0000000000E+20
  9
$PLIMMIN
 10
0.0
 20
0.0
  9
$PLIMMAX
 10
420.0
 20
297.0
  9
$UNITMODE
 70
     0
  9
$VISRETAIN
 70
     1
  9
$PLINEGEN
 70
     0
  9
$PSLTSCALE
 70
     1
  9
$TREEDEPTH
 70
  3020
  9
$CMLSTYLE
  2
Standard
  9
$CMLJUST
 70
     0
  9
$CMLSCALE
 40
20.0
  9
$PROXYGRAPHICS
 70
     1
  9
$MEASUREMENT
 70
     1
  9
$CELWEIGHT
370
    -1
  9
$ENDCAPS
280
     0
  9
$JOINSTYLE
280
     0
  9
$LWDISPLAY
290
     1
  9
$INSUNITS
 70
     4
  9
$HYPERLINKBASE
  1

  9
$STYLESHEET
  1

  9
$XEDIT
290
     1
  9
$CEPSNTYPE
380
     0
  9
$PSTYLEMODE
290
     1
  9
$FINGERPRINTGUID
  2
{6561e475-3170-4d30-8e1b-3ace57b16f18}
  9
$VERSIONGUID
  2
{FAEB1C32-E019-11D5-929B-00C0DF256EC4}
  9
$EXTNAMES
290
     1
  9
$PSVPSCALE
 40
0.0
  9
$OLESTARTUP
290
     0
  0
ENDSEC
  0
SECTION
  2
CLASSES
  0
CLASS
  1
ACDBDICTIONARYWDFLT
  2
AcDbDictionaryWithDefault
  3
ObjectDBX Classes
 90
        0
280
     0
281
     0
  0
CLASS
  1
VISUALSTYLE
  2
AcDbVisualStyle
  3
ObjectDBX Classes
 90
     4095
280
     0
281
     0
  0
CLASS
  1
MATERIAL
  2
AcDbMaterial
  3
ObjectDBX Classes
 90
     1153
280
     0
281
     0
  0
CLASS
  1
SCALE
  2
AcDbScale
  3
ObjectDBX Classes
 90
     1153
280
     0
281
     0
  0
CLASS
  1
TABLESTYLE
  2
AcDbTableStyle
  3
ObjectDBX Classes
 90
     4095
280
     0
281
     0
  0
CLASS
  1
MLEADERSTYLE
  2
AcDbMLeaderStyle
  3
ACDB_MLEADERSTYLE_CLASS
 90
     4095
280
     0
281
     0
  0
CLASS
  1
SUN
  2
AcDbSun
  3
SCENEOE
 90
     1153
280
     0
281
     0
  0
CLASS
  1
ACDBPLACEHOLDER
  2
AcDbPlaceHolder
  3
ObjectDBX Classes
 90
        0
280
     0
281
     0
  0
CLASS
  1
LAYOUT
  2
AcDbLayout
  3
ObjectDBX Classes
 90
        0
280
     0
281
     0
  0
ENDSEC
  0
SECTION
  2
TABLES
  0
TABLE
  2
VPORT
  5
8
330
0
100
AcDbSymbolTable
 70
     1
  0
VPORT
  5
29
330
8
100
AcDbSymbolTableRecord
100
AcDbViewportTableRecord
  2
*Active
 70
     0
 10
0.0
 20
0.0
 11
1.0
 21
1.0
 12
215.9
 22
139.7
 13
0.0
 23
0.0
 14
10.0
 24
10.0
 15
10.0
 25
10.0
 16
0.0
 26
0.0
 36
1.0
 17
0.0
 27
0.0
 37
0.0
 40
279.4
 41
1.5454545455
 42
50.0
 43
0.0
 44
0.0
 50
0.0
 51
0.0
 71
     0
 72
  2000
 73
     1
 74
     3
 75
     0
 76
     0
 77
     0
 78
     0
281
     0
 65
     1
110
0.0
120
0.0
130
0.0
111
1.0
121
0.0
131
0.0
112
0.0
122
1.0
132
0.0
 79
     0
146
0.0
  0
ENDTAB
  0
TABLE
  2
LTYPE
  5
5
330
0
100
AcDbSymbolTable
 70
     6
  0
LTYPE
  5
14
330
5
100
AcDbSymbolTableRecord
100
AcDbLinetypeTableRecord
  2
ByBlock
 70
     0
  3

 72
    65
 73
     0
 40
0.0
  0
LTYPE
  5
15
330
5
100
AcDbSymbolTableRecord
100
AcDbLinetypeTableRecord
  2
ByLayer
 70
     0
  3

 72
    65
 73
     0
 40
0.0
  0
LTYPE
  5
16
330
5
100
AcDbSymbolTableRecord
100
AcDbLinetypeTableRecord
  2
Continuous
 70
     0
  3
Solid line
 72
    65
 73
     0
 40
0.0
  0
LTYPE
  5
6E
330
5
100
AcDbSymbolTableRecord
100
AcDbLinetypeTableRecord
  2
HIDDEN
 70
     0
  3
Hidden __ __ __ __ __ __ __ __ __ __ __ __ __ __
 72
    65
 73
     2
 40
1.905
 49
1.27
 74
     0
 49
-0.635
 74
     0
  0
LTYPE
  5
6F
330
5
100
AcDbSymbolTableRecord
100
AcDbLinetypeTableRecord
  2
PHANTOM
 70
     0
  3
Phantom ______  __  __  ______  __  __  ______
 72
    65
 73
     6
 40
12.7
 49
6.35
 74
     0
 49
-1.27
 74
     0
 49
1.27
 74
     0
 49
-1.27
 74
     0
 49
1.27
 74
     0
 49
-1.27
 74
     0
  0
LTYPE
  5
70
330
5
100
AcDbSymbolTableRecord
100
AcDbLinetypeTableRecord
  2
CENTER
 70
     0
  3
Center ____ _ ____ _ ____ _ ____ _ ____ _ ____
 72
    65
 73
     4
 40
10.16
 49
6.35
 74
     0
 49
-1.27
 74
     0
 49
1.27
 74
     0
 49
-1.27
 74
     0
  0
LTYPE
  5
71
330
5
100
AcDbSymbolTableRecord
100
AcDbLinetypeTableRecord
  2
CENTERX2
 70
     0
  3
Center (2x) ________  __  ________  __  _____
 72
    65
 73
     4
 40
20.32
 49
12.7
 74
     0
 49
-2.54
 74
     0
 49
2.54
 74
     0
 49
-2.54
 74
     0
  0
LTYPE
  5
72
330
5
100
AcDbSymbolTableRecord
100
AcDbLinetypeTableRecord
  2
DOT2
 70
     0
  3
Dot (.5x) ........................................
 72
    65
 73
     2
 40
0.635
 49
0.0
 74
     0
 49
-0.635
 74
     0
  0
ENDTAB
  0
TABLE
  2
LAYER
  5
2
330
0
100
AcDbSymbolTable
 70
     3
  0
LAYER
  5
10
330
2
100
AcDbSymbolTableRecord
100
AcDbLayerTableRecord
  2
0
 70
     0
 62
     7
  6
Continuous
370
    -3
390
F
  0
LAYER
  5
73
330
2
100
AcDbSymbolTableRecord
100
AcDbLayerTableRecord
  2
FRAME_&_TABLE
 70
     0
 62
     8
  6
Continuous
370
    50
390
F
  0
LAYER
  5
74
330
2
100
AcDbSymbolTableRecord
100
AcDbLayerTableRecord
  2
DIMENSIONS
 70
     0
 62
     7
  6
Continuous
370
    -3
390
F
  0
ENDTAB
  0
TABLE
  2
STYLE
  5
3
330
0
100
AcDbSymbolTable
 70
     1
  0
STYLE
  5
11
330
3
100
AcDbSymbolTableRecord
100
AcDbTextStyleTableRecord
  2
Standard
 70
     0
 40
0.0
 41
1.0
 50
0.0
 71
     0
 42
3.8805555556
  3
txt
  4

  0
ENDTAB
  0
TABLE
  2
VIEW
  5
6
330
0
100
AcDbSymbolTable
 70
     0
  0
ENDTAB
  0
TABLE
  2
UCS
  5
7
330
0
100
AcDbSymbolTable
 70
     0
  0
ENDTAB
  0
TABLE
  2
APPID
  5
9
330
0
100
AcDbSymbolTable
 70
     1
  0
APPID
  5
12
330
9
100
AcDbSymbolTableRecord
100
AcDbRegAppTableRecord
  2
ACAD
 70
     0
  0
ENDTAB
  0
TABLE
  2
DIMSTYLE
  5
A
330
0
100
AcDbSymbolTable
 70
     1
100
AcDbDimStyleTable
  0
DIMSTYLE
105
27
330
A
100
AcDbSymbolTableRecord
100
AcDbDimStyleTableRecord
  2
ISO-25
 70
     0
 41
2.5
 42
0.625
 43
3.75
 44
1.25
 73
     0
 74
     0
 77
     1
 78
     8
140
2.5
141
2.5
143
0.0393700787
147
0.625
171
     3
172
     1
178
     0
271
     2
272
     2
274
     3
278
    44
283
     0
284
     8
340
11
  0
ENDTAB
  0
TABLE
  2
BLOCK_RECORD
  5
1
330
0
100
AcDbSymbolTable
 70
     1
  0
BLOCK_RECORD
  5
1F
330
1
100
AcDbSymbolTableRecord
100
AcDbBlockTableRecord
  2
*Model_Space
340
22
  0
BLOCK_RECORD
  5
1B
330
1
100
AcDbSymbolTableRecord
100
AcDbBlockTableRecord
  2
*Paper_Space
340
1E
  0
BLOCK_RECORD
  5
23
330
1
100
AcDbSymbolTableRecord
100
AcDbBlockTableRecord
  2
*Paper_Space0
340
26
  0
ENDTAB
  0
ENDSEC
  0
SECTION
  2
BLOCKS
  0
BLOCK
  5
20
330
1F
100
AcDbEntity
  8
0
100
AcDbBlockBegin
  2
*Model_Space
 70
     0
 10
0.0
 20
0.0
 30
0.0
  3
*Model_Space
  1

  0
ENDBLK
  5
21
330
1F
100
AcDbEntity
  8
0
100
AcDbBlockEnd
  0
BLOCK
  5
1C
330
1B
100
AcDbEntity
 67
     1
  8
0
100
AcDbBlockBegin
  2
*Paper_Space
 70
     0
 10
0.0
 20
0.0
 30
0.0
  3
*Paper_Space
  1

  0
ENDBLK
  5
1D
330
1B
100
AcDbEntity
 67
     1
  8
0
100
AcDbBlockEnd
  0
BLOCK
  5
24
330
23
100
AcDbEntity
  8
0
100
AcDbBlockBegin
  2
*Paper_Space0
 70
     0
 10
0.0
 20
0.0
 30
0.0
  3
*Paper_Space0
  1

  0
ENDBLK
  5
25
330
23
100
AcDbEntity
  8
0
100
AcDbBlockEnd
  0
ENDSEC
  0
SECTION
  2
ENTITIES
  0
LINE
  5
75
330
1F
100
AcDbEntity
  8
0
  6
Continuous
 62
     7
370
    25
100
AcDbLine
 10
249.8937263326
 20
94.9433217198
 30
0.0
 11
246.4952922332
 21
89.0570611936
 31
0.0
  0
LINE
  5
76
330
1F
100
AcDbEntity
  8
0
  6
Continuous
 62
     7
370
    25
100
AcDbLine
 10
236.5238175612
 20
71.7859604352
 30
0.0
 11
232.8937263326
 21
65.4984579911
 31
0.0
  0
LINE
  5
77
330
1F
100
AcDbEntity
  8
0
  6
Continuous
 62
     7
370
    25
100
AcDbLine
 10
243.286031178
 20
59.4984579911
 30
0.0
 11
246.9387032645
 21
65.8250716284
 31
0.0
  0
LINE
  5
78
330
1F
100
AcDbEntity
  8
0
  6
Continuous
 62
     7
370
    25
100
AcDbLine
 10
256.8860608481
 20
83.0544003643
 30
0.0
 11
260.286031178
 21
88.9433217198
 31
0.0
  0
LINE
  5
79
330
1F
100
AcDbEntity
  8
0
  6
Continuous
 62
     7
370
    25
100
AcDbLine
 10
260.286031178
 20
221.3830306723
 30
0.0
 11
256.8841772717
 21
227.275214478
 31
0.0
  0
LINE
  5
7A
330
1F
100
AcDbEntity
  8
0
  6
Continuous
 62
     7
370
    25
100
AcDbLine
 10
246.9032277814
 20
244.5627261029
 30
0.0
 11
243.286031178
 21
250.827894401
 31
0.0
  0
LINE
  5
7B
330
1F
100
AcDbEntity
  8
0
  6
Continuous
 62
     7
370
    25
100
AcDbLine
 10
232.8937263326
 20
244.827894401
 30
0.0
 11
236.5347858794
 21
238.5213942724
 31
0.0
  0
LINE
  5
7C
330
1F
100
AcDbEntity
  8
0
  6
Continuous
 62
     7
370
    25
100
AcDbLine
 10
246.5113372687
 20
221.2415003818
 30
0.0
 11
249.8937263326
 21
215.3830306723
 31
0.0
  0
LINE
  5
7D
330
1F
100
AcDbEntity
  8
0
  6
Continuous
 62
     7
370
    25
100
AcDbLine
 10
299.4235915227
 20
254.7499274059
 30
0.0
 11
299.217064954
 21
254.7647600257
 31
0.0
  0
ARC
  5
7E
330
1F
100
AcDbEntity
  8
0
  6
Continuous
 62
     7
370
    25
100
AcDbCircle
 10
291.5108027124
 20
155.3050851868
 30
0.0
 40
99.77924780665879
100
AcDbArc
 50
90.2467980482
 51
165.277253332
  0
ARC
  5
7F
330
1F
100
AcDbEntity
  8
0
  6
Continuous
 62
     7
370
    25
100
AcDbCircle
 10
291.4802636112
 20
155.0260149475
 30
0.0
 40
99.76929469326825
100
AcDbArc
 50
194.7270677811
 51
279.984707181
  0
LINE
  5
80
330
1F
100
AcDbEntity
  8
0
  6
Continuous
 62
     7
370
    25
100
AcDbLine
 10
502.967815363
 20
178.133176196
 30
0.0
 11
502.967815363
 21
177.663176196
 31
0.0
  0
LINE
  5
81
330
1F
100
AcDbEntity
  8
0
  6
Continuous
 62
     7
370
    25
100
AcDbLine
 10
514.307815363
 20
177.663176196
 30
0.0
 11
514.307815363
 21
178.133176196
 31
0.0
  0
LINE
  5
82
330
1F
100
AcDbEntity
  8
0
  6
Continuous
 62
     7
370
    25
100
AcDbLine
 10
168.7280546365
 20
132.193176196
 30
0.0
 11
168.7280546365
 21
132.663176196
 31
0.0
  0
LINE
  5
83
330
1F
100
AcDbEntity
  8
0
  6
Continuous
 62
     7
370
    25
100
AcDbLine
 10
157.3880546365
 20
132.663176196
 30
0.0
 11
157.3880546365
 21
132.193176196
 31
0.0
  0
LINE
  5
84
330
1F
100
AcDbEntity
  8
0
  6
Continuous
 62
     7
370
    25
100
AcDbLine
 10
157.3880546365
 20
178.133176196
 30
0.0
 11
157.3880546365
 21
177.663176196
 31
0.0
  0
LINE
  5
85
330
1F
100
AcDbEntity
  8
0
  6
Continuous
 62
     7
370
    25
100
AcDbLine
 10
168.7280546365
 20
177.663176196
 30
0.0
 11
168.7280546365
 21
178.133176196
 31
0.0
  0
LINE
  5
86
330
1F
100
AcDbEntity
  8
0
  6
Continuous
 62
     7
370
    25
100
AcDbLine
 10
514.307815363
 20
132.193176196
 30
0.0
 11
514.307815363
 21
132.663176196
 31
0.0
  0
LINE
  5
87
330
1F
100
AcDbEntity
  8
0
  6
Continuous
 62
     7
370
    25
100
AcDbLine
 10
502.967815363
 20
132.663176196
 30
0.0
 11
502.967815363
 21
132.193176196
 31
0.0
  0
ARC
  5
88
330
1F
100
AcDbEntity
  8
0
  6
Continuous
 62
     7
370
    25
100
AcDbCircle
 10
154.72833878
 20
159.663176196
 30
0.0
 40
3.000000000000028
100
AcDbArc
 50
0.0
 51
90.0
  0
ARC
  5
89
330
1F
100
AcDbEntity
  8
0
  6
Continuous
 62
     7
370
    25
100
AcDbCircle
 10
154.72833878
 20
150.663176196
 30
0.0
 40
3.000000000000028
100
AcDbArc
 50
270.0
 51
0.0
  0
LINE
  5
8A
330
1F
100
AcDbEntity
  8
0
  6
Continuous
 62
     7
370
    25
100
AcDbLine
 10
157.72833878
 20
150.663176196
 30
0.0
 11
157.72833878
 21
159.663176196
 31
0.0
  0
ARC
  5
8B
330
1F
100
AcDbEntity
  8
0
  6
Continuous
 62
     7
370
    25
100
AcDbCircle
 10
-156.4231082497
 20
159.663176196
 30
0.0
 40
3.0
100
AcDbArc
 50
90.0
 51
180.0
  0
LINE
  5
8C
330
1F
100
AcDbEntity
  8
0
  6
Continuous
 62
     7
370
    25
100
AcDbLine
 10
-159.4231082497
 20
159.663176196
 30
0.0
 11
-159.4231082497
 21
150.663176196
 31
0.0
  0
ARC
  5
8D
330
1F
100
AcDbEntity
  8
0
  6
Continuous
 62
     7
370
    25
100
AcDbCircle
 10
-156.4231082497
 20
150.663176196
 30
0.0
 40
3.000000000000028
100
AcDbArc
 50
180.0
 51
270.0
  0
ARC
  5
8E
330
1F
100
AcDbEntity
  8
0
  6
Continuous
 62
     7
370
    25
100
AcDbCircle
 10
-162.4789537198
 20
150.663176196
 30
0.0
 40
3.000000000000028
100
AcDbArc
 50
180.0
 51
270.0
  0
LINE
  5
8F
330
1F
100
AcDbEntity
  8
0
  6
Continuous
 62
     7
370
    25
100
AcDbLine
 10
-165.4789537198
 20
159.663176196
 30
0.0
 11
-165.4789537198
 21
150.663176196
 31
0.0
  0
ARC
  5
90
330
1F
100
AcDbEntity
  8
0
  6
Continuous
 62
     7
370
    25
100
AcDbCircle
 10
-162.4789537198
 20
159.663176196
 30
0.0
 40
3.000000000000028
100
AcDbArc
 50
90.0
 51
180.0
  0
ARC
  5
91
330
1F
100
AcDbEntity
  8
0
  6
Continuous
 62
     7
370
    25
100
AcDbCircle
 10
229.9489606645
 20
150.663176196
 30
0.0
 40
3.000000000000028
100
AcDbArc
 50
270.0
 51
0.0
  0
LINE
  5
92
330
1F
100
AcDbEntity
  8
0
  6
Continuous
 62
     7
370
    25
100
AcDbLine
 10
232.9489606645
 20
150.663176196
 30
0.0
 11
232.9489606645
 21
159.663176196
 31
0.0
  0
ARC
  5
93
330
1F
100
AcDbEntity
  8
0
  6
Continuous
 62
     7
370
    25
100
AcDbCircle
 10
229.9489606645
 20
159.663176196
 30
0.0
 40
3.0
100
AcDbArc
 50
0.0
 51
90.0
  0
LINE
  5
94
330
1F
100
AcDbEntity
  8
0
  6
Continuous
 62
     7
370
    25
100
AcDbLine
 10
262.7860999647
 20
150.663176196
 30
0.0
 11
262.7860999647
 21
159.663176196
 31
0.0
  0
ARC
  5
95
330
1F
100
AcDbEntity
  8
0
  6
Continuous
 62
     7
370
    25
100
AcDbCircle
 10
259.7860999647
 20
150.663176196
 30
0.0
 40
3.000000000000028
100
AcDbArc
 50
270.0
 51
0.0
  0
ARC
  5
96
330
1F
100
AcDbEntity
  8
0
  6
Continuous
 62
     7
370
    25
100
AcDbCircle
 10
259.7860999647
 20
159.663176196
 30
0.0
 40
3.0
100
AcDbArc
 50
0.0
 51
90.0
  0
ARC
  5
97
330
1F
100
AcDbEntity
  8
0
  6
Continuous
 62
     7
370
    25
100
AcDbCircle
 10
138.8539990649
 20
135.663176196
 30
0.0
 40
3.0
100
AcDbArc
 50
180.0
 51
270.0
  0
ARC
  5
98
330
1F
100
AcDbEntity
  8
0
  6
Continuous
 62
     7
370
    25
100
AcDbCircle
 10
138.8539990649
 20
144.663176196
 30
0.0
 40
3.0
100
AcDbArc
 50
90.0
 51
180.0
  0
LINE
  5
99
330
1F
100
AcDbEntity
  8
0
  6
Continuous
 62
     7
370
    25
100
AcDbLine
 10
135.8539990649
 20
144.663176196
 30
0.0
 11
135.8539990649
 21
135.663176196
 31
0.0
  0
ARC
  5
9A
330
1F
100
AcDbEntity
  8
0
  6
Continuous
 62
     7
370
    25
100
AcDbCircle
 10
241.8788552904
 20
135.663176196
 30
0.0
 40
3.000000000000028
100
AcDbArc
 50
270.0
 51
0.0
  0
LINE
  5
9B
330
1F
100
AcDbEntity
  8
0
  6
Continuous
 62
     7
370
    25
100
AcDbLine
 10
244.8788552904
 20
135.663176196
 30
0.0
 11
244.8788552904
 21
144.663176196
 31
0.0
  0
ARC
  5
9C
330
1F
100
AcDbEntity
  8
0
  6
Continuous
 62
     7
370
    25
100
AcDbCircle
 10
241.8788552904
 20
144.663176196
 30
0.0
 40
3.000000000000028
100
AcDbArc
 50
0.0
 51
90.0
  0
ARC
  5
9D
330
1F
100
AcDbEntity
  8
0
  6
Continuous
 62
     7
370
    25
100
AcDbCircle
 10
520.3819588092
 20
144.663176196
 30
0.0
 40
3.0
100
AcDbArc
 50
0.0
 51
90.0
  0
LINE
  5
9E
330
1F
100
AcDbEntity
  8
0
  6
Continuous
 62
     7
370
    25
100
AcDbLine
 10
523.3819588092
 20
135.663176196
 30
0.0
 11
523.3819588092
 21
144.663176196
 31
0.0
  0
ARC
  5
9F
330
1F
100
AcDbEntity
  8
0
  6
Continuous
 62
     7
370
    25
100
AcDbCircle
 10
520.3819588092
 20
135.663176196
 30
0.0
 40
3.0
100
AcDbArc
 50
270.0
 51
0.0
  0
ARC
  5
A0
330
1F
100
AcDbEntity
  8
0
  6
Continuous
 62
     7
370
    25
100
AcDbCircle
 10
129.2255180116
 20
135.663176196
 30
0.0
 40
3.0
100
AcDbArc
 50
180.0
 51
270.0
  0
ARC
  5
A1
330
1F
100
AcDbEntity
  8
0
  6
Continuous
 62
     7
370
    25
100
AcDbCircle
 10
129.2255180116
 20
144.663176196
 30
0.0
 40
3.0
100
AcDbArc
 50
90.0
 51
180.0
  0
LINE
  5
A2
330
1F
100
AcDbEntity
  8
0
  6
Continuous
 62
     7
370
    25
100
AcDbLine
 10
126.2255180116
 20
144.663176196
 30
0.0
 11
126.2255180116
 21
135.663176196
 31
0.0
  0
ARC
  5
A3
330
1F
100
AcDbEntity
  8
0
  6
Continuous
 62
     7
370
    25
100
AcDbCircle
 10
138.8539990649
 20
165.663176196
 30
0.0
 40
3.0
100
AcDbArc
 50
180.0
 51
270.0
  0
ARC
  5
A4
330
1F
100
AcDbEntity
  8
0
  6
Continuous
 62
     7
370
    25
100
AcDbCircle
 10
138.8539990649
 20
174.663176196
 30
0.0
 40
3.0
100
AcDbArc
 50
90.0
 51
180.0
  0
LINE
  5
A5
330
1F
100
AcDbEntity
  8
0
  6
Continuous
 62
     7
370
    25
100
AcDbLine
 10
135.8539990649
 20
174.663176196
 30
0.0
 11
135.8539990649
 21
165.663176196
 31
0.0
  0
ARC
  5
A6
330
1F
100
AcDbEntity
  8
0
  6
Continuous
 62
     7
370
    25
100
AcDbCircle
 10
241.8788552904
 20
174.663176196
 30
0.0
 40
3.000000000000028
100
AcDbArc
 50
0.0
 51
90.0
  0
LINE
  5
A7
330
1F
100
AcDbEntity
  8
0
  6
Continuous
 62
     7
370
    25
100
AcDbLine
 10
244.8788552904
 20
165.663176196
 30
0.0
 11
244.8788552904
 21
174.663176196
 31
0.0
  0
ARC
  5
A8
330
1F
100
AcDbEntity
  8
0
  6
Continuous
 62
     7
370
    25
100
AcDbCircle
 10
241.8788552904
 20
165.663176196
 30
0.0
 40
3.000000000000028
100
AcDbArc
 50
270.0
 51
0.0
  0
ARC
  5
A9
330
1F
100
AcDbEntity
  8
0
  6
Continuous
 62
     7
370
    25
100
AcDbCircle
 10
520.3819588092
 20
165.663176196
 30
0.0
 40
3.0
100
AcDbArc
 50
270.0
 51
0.0
  0
ARC
  5
AA
330
1F
100
AcDbEntity
  8
0
  6
Continuous
 62
     7
370
    25
100
AcDbCircle
 10
520.3819588092
 20
174.663176196
 30
0.0
 40
3.0
100
AcDbArc
 50
0.0
 51
90.0
  0
LINE
  5
AB
330
1F
100
AcDbEntity
  8
0
  6
Continuous
 62
     7
370
    25
100
AcDbLine
 10
523.3819588092
 20
165.663176196
 30
0.0
 11
523.3819588092
 21
174.663176196
 31
0.0
  0
ARC
  5
AC
330
1F
100
AcDbEntity
  8
0
  6
Continuous
 62
     7
370
    25
100
AcDbCircle
 10
129.2255180116
 20
174.663176196
 30
0.0
 40
3.0
100
AcDbArc
 50
90.0
 51
180.0
  0
ARC
  5
AD
330
1F
100
AcDbEntity
  8
0
  6
Continuous
 62
     7
370
    25
100
AcDbCircle
 10
129.2255180116
 20
165.663176196
 30
0.0
 40
3.0
100
AcDbArc
 50
180.0
 51
270.0
  0
LINE
  5
AE
330
1F
100
AcDbEntity
  8
0
  6
Continuous
 62
     7
370
    25
100
AcDbLine
 10
126.2255180116
 20
174.663176196
 30
0.0
 11
126.2255180116
 21
165.663176196
 31
0.0
  0
LINE
  5
AF
330
1F
100
AcDbEntity
  8
0
  6
Continuous
 62
     7
370
    25
100
AcDbLine
 10
75.2673201334
 20
162.663176196
 30
0.0
 11
75.2673201334
 21
164.663176196
 31
0.0
  0
LINE
  5
B0
330
1F
100
AcDbEntity
  8
0
  6
Continuous
 62
     7
370
    25
100
AcDbLine
 10
35.2673201334
 20
164.663176196
 30
0.0
 11
35.2673201334
 21
162.663176196
 31
0.0
  0
ARC
  5
B1
330
1F
100
AcDbEntity
  8
0
  6
Continuous
 62
     7
370
    25
100
AcDbCircle
 10
55.3950124411
 20
164.663176196
 30
0.0
 40
19.87230769230771
100
AcDbArc
 50
0.0
 51
46.9233678463
  0
ARC
  5
B2
330
1F
100
AcDbEntity
  8
0
  6
Continuous
 62
     7
370
    25
100
AcDbCircle
 10
55.1396278257
 20
164.663176196
 30
0.0
 40
19.8723076923077
100
AcDbArc
 50
133.0766321537
 51
180.0
  0
ARC
  5
B3
330
1F
100
AcDbEntity
  8
0
  6
Continuous
 62
     7
370
    25
100
AcDbCircle
 10
55.1396278257
 20
145.663176196
 30
0.0
 40
19.8723076923077
100
AcDbArc
 50
180.0
 51
226.9233678463
  0
ARC
  5
B4
330
1F
100
AcDbEntity
  8
0
  6
Continuous
 62
     7
370
    25
100
AcDbCircle
 10
55.3950124411
 20
145.663176196
 30
0.0
 40
19.87230769230771
100
AcDbArc
 50
313.0766321537
 51
0.0
  0
LINE
  5
B5
330
1F
100
AcDbEntity
  8
0
  6
Continuous
 62
     7
370
    25
100
AcDbLine
 10
35.2673201334
 20
147.663176196
 30
0.0
 11
35.2673201334
 21
145.663176196
 31
0.0
  0
LINE
  5
B6
330
1F
100
AcDbEntity
  8
0
  6
Continuous
 62
     7
370
    25
100
AcDbLine
 10
75.2673201334
 20
145.663176196
 30
0.0
 11
75.2673201334
 21
147.663176196
 31
0.0
  0
LINE
  5
B7
330
1F
100
AcDbEntity
  8
0
  6
Continuous
 62
     7
370
    25
100
AcDbLine
 10
151.5898787553
 20
129.663176196
 30
0.0
 11
151.5898787553
 21
127.663176196
 31
0.0
  0
LINE
  5
B8
330
1F
100
AcDbEntity
  8
0
  6
Continuous
 62
     7
370
    25
100
AcDbLine
 10
191.5898787553
 20
127.663176196
 30
0.0
 11
191.5898787553
 21
129.663176196
 31
0.0
  0
ARC
  5
B9
330
1F
100
AcDbEntity
  8
0
  6
Continuous
 62
     7
370
    25
100
AcDbCircle
 10
171.4621864476
 20
127.663176196
 30
0.0
 40
19.87230769230769
100
AcDbArc
 50
180.0
 51
226.9233678463
  0
ARC
  5
BA
330
1F
100
AcDbEntity
  8
0
  6
Continuous
 62
     7
370
    25
100
AcDbCircle
 10
171.717571063
 20
127.663176196
 30
0.0
 40
19.87230769230769
100
AcDbArc
 50
313.0766321537
 51
0.0
  0
ARC
  5
BB
330
1F
100
AcDbEntity
  8
0
  6
Continuous
 62
     7
370
    25
100
AcDbCircle
 10
171.717571063
 20
182.663176196
 30
0.0
 40
19.87230769230769
100
AcDbArc
 50
0.0
 51
46.9233678463
  0
ARC
  5
BC
330
1F
100
AcDbEntity
  8
0
  6
Continuous
 62
     7
370
    25
100
AcDbCircle
 10
171.4621864476
 20
182.663176196
 30
0.0
 40
19.87230769230769
100
AcDbArc
 50
133.0766321537
 51
180.0
  0
LINE
  5
BD
330
1F
100
AcDbEntity
  8
0
  6
Continuous
 62
     7
370
    25
100
AcDbLine
 10
191.5898787553
 20
180.663176196
 30
0.0
 11
191.5898787553
 21
182.663176196
 31
0.0
  0
LINE
  5
BE
330
1F
100
AcDbEntity
  8
0
  6
Continuous
 62
     7
370
    25
100
AcDbLine
 10
151.5898787553
 20
182.663176196
 30
0.0
 11
151.5898787553
 21
180.663176196
 31
0.0
  0
ARC
  5
BF
330
1F
100
AcDbEntity
  8
0
  6
Continuous
 62
     7
370
    25
100
AcDbCircle
 10
158.4898787553
 20
112.5327848776
 30
0.0
 40
0.5999999999999943
100
AcDbArc
 50
180.0
 51
243.6246146768
  0
ARC
  5
C0
330
1F
100
AcDbEntity
  8
0
  6
Continuous
 62
     7
370
    25
100
AcDbCircle
 10
184.6898787553
 20
112.5327848776
 30
0.0
 40
0.600000000000006
100
AcDbArc
 50
296.3753853232
 51
0.0
  0
LINE
  5
C1
330
1F
100
AcDbEntity
  8
0
  6
Continuous
 62
     7
370
    25
100
AcDbLine
 10
157.8898787553
 20
113.1476301531
 30
0.0
 11
157.8898787553
 21
112.5327848776
 31
0.0
  0
LINE
  5
C2
330
1F
100
AcDbEntity
  8
0
  6
Continuous
 62
     7
370
    25
100
AcDbLine
 10
185.2898787553
 20
112.5327848776
 30
0.0
 11
185.2898787553
 21
113.1476301531
 31
0.0
  0
ARC
  5
C3
330
1F
100
AcDbEntity
  8
0
  6
Continuous
 62
     7
370
    25
100
AcDbCircle
 10
171.5898787553
 20
138.9510549839
 30
0.0
 40
30.0878787878788
100
AcDbArc
 50
243.6246146768
 51
296.3753853232
  0
LINE
  5
C4
330
1F
100
AcDbEntity
  8
0
  6
Continuous
 62
     7
370
    25
100
AcDbLine
 10
41.5673201334
 20
131.1476301531
 30
0.0
 11
41.5673201334
 21
130.5327848776
 31
0.0
  0
LINE
  5
C5
330
1F
100
AcDbEntity
  8
0
  6
Continuous
 62
     7
370
    25
100
AcDbLine
 10
68.9673201334
 20
130.5327848776
 30
0.0
 11
68.9673201334
 21
131.1476301531
 31
0.0
  0
ARC
  5
C6
330
1F
100
AcDbEntity
  8
0
  6
Continuous
 62
     7
370
    25
100
AcDbCircle
 10
42.1673201334
 20
130.5327848776
 30
0.0
 40
0.5999999999999872
100
AcDbArc
 50
180.0
 51
243.6246146768
  0
ARC
  5
C7
330
1F
100
AcDbEntity
  8
0
  6
Continuous
 62
     7
370
    25
100
AcDbCircle
 10
68.3673201334
 20
130.5327848776
 30
0.0
 40
0.5999999999999943
100
AcDbArc
 50
296.3753853232
 51
0.0
  0
ARC
  5
C8
330
1F
100
AcDbEntity
  8
0
  6
Continuous
 62
     7
370
    25
100
AcDbCircle
 10
55.2673201334
 20
156.9510549839
 30
0.0
 40
30.08787878787878
100
AcDbArc
 50
243.6246146768
 51
296.3753853232
  0
ARC
  5
C9
330
1F
100
AcDbEntity
  8
0
  6
Continuous
 62
     7
370
    25
100
AcDbCircle
 10
68.3673201334
 20
179.7935675144
 30
0.0
 40
0.6000000000000123
100
AcDbArc
 50
0.0
 51
63.6246146768
  0
ARC
  5
CA
330
1F
100
AcDbEntity
  8
0
  6
Continuous
 62
     7
370
    25
100
AcDbCircle
 10
42.1673201334
 20
179.7935675144
 30
0.0
 40
0.6000000000000123
100
AcDbArc
 50
116.3753853232
 51
180.0
  0
LINE
  5
CB
330
1F
100
AcDbEntity
  8
0
  6
Continuous
 62
     7
370
    25
100
AcDbLine
 10
68.9673201334
 20
179.1787222389
 30
0.0
 11
68.9673201334
 21
179.7935675144
 31
0.0
  0
LINE
  5
CC
330
1F
100
AcDbEntity
  8
0
  6
Continuous
 62
     7
370
    25
100
AcDbLine
 10
41.5673201334
 20
179.7935675144
 30
0.0
 11
41.5673201334
 21
179.1787222389
 31
0.0
  0
ARC
  5
CD
330
1F
100
AcDbEntity
  8
0
  6
Continuous
 62
     7
370
    25
100
AcDbCircle
 10
55.2673201334
 20
153.3752974082
 30
0.0
 40
30.08787878787881
100
AcDbArc
 50
63.6246146768
 51
116.3753853232
  0
ARC
  5
CE
330
1F
100
AcDbEntity
  8
0
  6
Continuous
 62
     7
370
    25
100
AcDbCircle
 10
184.6898787553
 20
197.7935675144
 30
0.0
 40
0.5999999999999934
100
AcDbArc
 50
0.0
 51
63.6246146768
  0
ARC
  5
CF
330
1F
100
AcDbEntity
  8
0
  6
Continuous
 62
     7
370
    25
100
AcDbCircle
 10
158.4898787553
 20
197.7935675144
 30
0.0
 40
0.6000000000000227
100
AcDbArc
 50
116.3753853232
 51
180.0
  0
LINE
  5
D0
330
1F
100
AcDbEntity
  8
0
  6
Continuous
 62
     7
370
    25
100
AcDbLine
 10
185.2898787553
 20
197.1787222389
 30
0.0
 11
185.2898787553
 21
197.7935675144
 31
0.0
  0
LINE
  5
D1
330
1F
100
AcDbEntity
  8
0
  6
Continuous
 62
     7
370
    25
100
AcDbLine
 10
157.8898787553
 20
197.7935675144
 30
0.0
 11
157.8898787553
 21
197.1787222389
 31
0.0
  0
ARC
  5
D2
330
1F
100
AcDbEntity
  8
0
  6
Continuous
 62
     7
370
    25
100
AcDbCircle
 10
171.5898787553
 20
171.3752974082
 30
0.0
 40
30.0878787878788
100
AcDbArc
 50
63.6246146768
 51
116.3753853232
  0
ARC
  5
D3
330
1F
100
AcDbEntity
  8
0
  6
Continuous
 62
     7
370
    25
100
AcDbCircle
 10
23.5164862216
 20
144.663176196
 30
0.0
 40
3.000000000000004
100
AcDbArc
 50
180.0
 51
270.0
  0
LINE
  5
D4
330
1F
100
AcDbEntity
  8
0
  6
Continuous
 62
     7
370
    25
100
AcDbLine
 10
20.5164862216
 20
147.663176196
 30
0.0
 11
20.5164862216
 21
144.663176196
 31
0.0
  0
ARC
  5
D5
330
1F
100
AcDbEntity
  8
0
  6
Continuous
 62
     7
370
    25
100
AcDbCircle
 10
24.5164862216
 20
138.663176196
 30
0.0
 40
3.000000000000004
100
AcDbArc
 50
0.0
 51
90.0
  0
LINE
  5
D6
330
1F
100
AcDbEntity
  8
0
  6
Continuous
 62
     7
370
    25
100
AcDbLine
 10
27.5164862216
 20
138.663176196
 30
0.0
 11
27.5164862216
 21
58.663176196
 31
0.0
  0
LINE
  5
D7
330
1F
100
AcDbEntity
  8
0
  6
Continuous
 62
     7
370
    25
100
AcDbLine
 10
61.5164862216
 20
58.663176196
 30
0.0
 11
61.5164862216
 21
127.5192970827
 31
0.0
  0
ARC
  5
D8
330
1F
100
AcDbEntity
  8
0
  6
Continuous
 62
     7
370
    25
100
AcDbCircle
 10
28.5164862216
 20
58.663176196
 30
0.0
 40
1.0
100
AcDbArc
 50
180.0
 51
270.0
  0
ARC
  5
D9
330
1F
100
AcDbEntity
  8
0
  6
Continuous
 62
     7
370
    25
100
AcDbCircle
 10
60.5164862216
 20
58.663176196
 30
0.0
 40
1.0
100
AcDbArc
 50
270.0
 51
0.0
  0
LINE
  5
DA
330
1F
100
AcDbEntity
  8
0
  6
Continuous
 62
     7
370
    25
100
AcDbLine
 10
20.5164862216
 20
165.663176196
 30
0.0
 11
20.5164862216
 21
162.663176196
 31
0.0
  0
ARC
  5
DB
330
1F
100
AcDbEntity
  8
0
  6
Continuous
 62
     7
370
    25
100
AcDbCircle
 10
23.5164862216
 20
165.663176196
 30
0.0
 40
3.000000000000004
100
AcDbArc
 50
90.0
 51
180.0
  0
ARC
  5
DC
330
1F
100
AcDbEntity
  8
0
  6
Continuous
 62
     7
370
    25
100
AcDbCircle
 10
24.5164862216
 20
171.663176196
 30
0.0
 40
3.000000000000004
100
AcDbArc
 50
270.0
 51
0.0
  0
LINE
  5
DD
330
1F
100
AcDbEntity
  8
0
  6
Continuous
 62
     7
370
    25
100
AcDbLine
 10
61.5164862216
 20
182.8070553094
 30
0.0
 11
61.5164862216
 21
251.663176196
 31
0.0
  0
LINE
  5
DE
330
1F
100
AcDbEntity
  8
0
  6
Continuous
 62
     7
370
    25
100
AcDbLine
 10
27.5164862216
 20
251.663176196
 30
0.0
 11
27.5164862216
 21
171.663176196
 31
0.0
  0
ARC
  5
DF
330
1F
100
AcDbEntity
  8
0
  6
Continuous
 62
     7
370
    25
100
AcDbCircle
 10
60.5164862216
 20
251.663176196
 30
0.0
 40
1.0
100
AcDbArc
 50
0.0
 51
90.0
  0
ARC
  5
E0
330
1F
100
AcDbEntity
  8
0
  6
Continuous
 62
     7
370
    25
100
AcDbCircle
 10
28.5164862216
 20
251.663176196
 30
0.0
 40
1.0
100
AcDbArc
 50
90.0
 51
180.0
  0
LINE
  5
E1
330
1F
100
AcDbEntity
  8
0
  6
Continuous
 62
     7
370
    25
100
AcDbLine
 10
120.167067274
 20
162.663176196
 30
0.0
 11
120.167067274
 21
165.663176196
 31
0.0
  0
ARC
  5
E2
330
1F
100
AcDbEntity
  8
0
  6
Continuous
 62
     7
370
    25
100
AcDbCircle
 10
117.167067274
 20
165.663176196
 30
0.0
 40
3.0
100
AcDbArc
 50
0.0
 51
90.0
  0
LINE
  5
E3
330
1F
100
AcDbEntity
  8
0
  6
Continuous
 62
     7
370
    25
100
AcDbLine
 10
75.167067274
 20
168.663176196
 30
0.0
 11
74.863740393
 21
168.6478022703
 31
0.0
  0
ARC
  5
E4
330
1F
100
AcDbEntity
  8
0
  6
Continuous
 62
     7
370
    25
100
AcDbCircle
 10
116.167067274
 20
171.663176196
 30
0.0
 40
3.000000000000014
100
AcDbArc
 50
180.0
 51
270.0
  0
ARC
  5
E5
330
1F
100
AcDbEntity
  8
0
  6
Continuous
 62
     7
370
    25
100
AcDbCircle
 10
76.167067274
 20
171.663176196
 30
0.0
 40
3.0
100
AcDbArc
 50
270.0
 51
0.0
  0
ARC
  5
E6
330
1F
100
AcDbEntity
  8
0
  6
Continuous
 62
     7
370
    25
100
AcDbCircle
 10
112.167067274
 20
251.663176196
 30
0.0
 40
1.0
100
AcDbArc
 50
0.0
 51
90.0
  0
ARC
  5
E7
330
1F
100
AcDbEntity
  8
0
  6
Continuous
 62
     7
370
    25
100
AcDbCircle
 10
80.167067274
 20
251.663176196
 30
0.0
 40
1.0
100
AcDbArc
 50
90.0
 51
180.0
  0
LINE
  5
E8
330
1F
100
AcDbEntity
  8
0
  6
Continuous
 62
     7
370
    25
100
AcDbLine
 10
113.167067274
 20
171.663176196
 30
0.0
 11
113.167067274
 21
251.663176196
 31
0.0
  0
LINE
  5
E9
330
1F
100
AcDbEntity
  8
0
  6
Continuous
 62
     7
370
    25
100
AcDbLine
 10
79.167067274
 20
251.663176196
 30
0.0
 11
79.167067274
 21
171.663176196
 31
0.0
  0
LINE
  5
EA
330
1F
100
AcDbEntity
  8
0
  6
Continuous
 62
     7
370
    25
100
AcDbLine
 10
74.863740393
 20
141.6785501218
 30
0.0
 11
75.167067274
 21
141.663176196
 31
0.0
  0
ARC
  5
EB
330
1F
100
AcDbEntity
  8
0
  6
Continuous
 62
     7
370
    25
100
AcDbCircle
 10
117.167067274
 20
144.663176196
 30
0.0
 40
3.0
100
AcDbArc
 50
270.0
 51
0.0
  0
LINE
  5
EC
330
1F
100
AcDbEntity
  8
0
  6
Continuous
 62
     7
370
    25
100
AcDbLine
 10
120.167067274
 20
144.663176196
 30
0.0
 11
120.167067274
 21
147.663176196
 31
0.0
  0
ARC
  5
ED
330
1F
100
AcDbEntity
  8
0
  6
Continuous
 62
     7
370
    25
100
AcDbCircle
 10
76.167067274
 20
138.663176196
 30
0.0
 40
3.0
100
AcDbArc
 50
0.0
 51
90.0
  0
ARC
  5
EE
330
1F
100
AcDbEntity
  8
0
  6
Continuous
 62
     7
370
    25
100
AcDbCircle
 10
116.167067274
 20
138.663176196
 30
0.0
 40
3.000000000000014
100
AcDbArc
 50
90.0
 51
180.0
  0
LINE
  5
EF
330
1F
100
AcDbEntity
  8
0
  6
Continuous
 62
     7
370
    25
100
AcDbLine
 10
79.167067274
 20
138.663176196
 30
0.0
 11
79.167067274
 21
58.663176196
 31
0.0
  0
LINE
  5
F0
330
1F
100
AcDbEntity
  8
0
  6
Continuous
 62
     7
370
    25
100
AcDbLine
 10
113.167067274
 20
58.663176196
 30
0.0
 11
113.167067274
 21
138.663176196
 31
0.0
  0
ARC
  5
F1
330
1F
100
AcDbEntity
  8
0
  6
Continuous
 62
     7
370
    25
100
AcDbCircle
 10
80.167067274
 20
58.663176196
 30
0.0
 40
1.0
100
AcDbArc
 50
180.0
 51
270.0
  0
ARC
  5
F2
330
1F
100
AcDbEntity
  8
0
  6
Continuous
 62
     7
370
    25
100
AcDbCircle
 10
112.167067274
 20
58.663176196
 30
0.0
 40
1.0
100
AcDbArc
 50
270.0
 51
0.0
  0
ARC
  5
F3
330
1F
100
AcDbEntity
  8
0
  6
Continuous
 62
     7
370
    25
100
AcDbCircle
 10
68.5164862216
 20
41.5028773721
 30
0.0
 40
1.0
100
AcDbArc
 50
279.5630855191
 51
0.0
  0
ARC
  5
F4
330
1F
100
AcDbEntity
  8
0
  6
Continuous
 62
     7
370
    25
100
AcDbCircle
 10
20.5164862216
 20
41.5028773721
 30
0.0
 40
1.0
100
AcDbArc
 50
180.0
 51
260.4369144809
  0
LINE
  5
F5
330
1F
100
AcDbEntity
  8
0
  6
Continuous
 62
     7
370
    25
100
AcDbLine
 10
19.5164862216
 20
44.2829768737
 30
0.0
 11
19.5164862216
 21
41.5028773721
 31
0.0
  0
LINE
  5
F6
330
1F
100
AcDbEntity
  8
0
  6
Continuous
 62
     7
370
    25
100
AcDbLine
 10
69.5164862216
 20
41.5028773721
 30
0.0
 11
69.5164862216
 21
44.2829768737
 31
0.0
  0
ARC
  5
F7
330
1F
100
AcDbEntity
  8
0
  6
Continuous
 62
     7
370
    25
100
AcDbCircle
 10
68.5164862216
 20
44.2829768737
 30
0.0
 40
1.000000000000005
100
AcDbArc
 50
0.0
 51
41.6335393366
  0
ARC
  5
F8
330
1F
100
AcDbEntity
  8
0
  6
Continuous
 62
     7
370
    25
100
AcDbCircle
 10
20.5164862216
 20
44.2829768737
 30
0.0
 40
1.000000000000005
100
AcDbArc
 50
138.3664606634
 51
180.0
  0
LINE
  5
F9
330
1F
100
AcDbEntity
  8
0
  6
Continuous
 62
     7
370
    25
100
AcDbLine
 10
69.2638955403
 20
44.9473407125
 30
0.0
 11
61.7690769029
 21
53.3790116796
 31
0.0
  0
LINE
  5
FA
330
1F
100
AcDbEntity
  8
0
  6
Continuous
 62
     7
370
    25
100
AcDbLine
 10
27.2638955403
 20
53.3790116796
 30
0.0
 11
19.7690769029
 21
44.9473407125
 31
0.0
  0
ARC
  5
FB
330
1F
100
AcDbEntity
  8
0
  6
Continuous
 62
     7
370
    25
100
AcDbCircle
 10
30.5551471194
 20
101.0884460714
 30
0.0
 40
61.4252820418894
100
AcDbArc
 50
260.4369144809
 51
269.963938197
  0
ARC
  5
FC
330
1F
100
AcDbEntity
  8
0
  6
Continuous
 62
     7
370
    25
100
AcDbCircle
 10
58.4778253239
 20
101.0884460714
 30
0.0
 40
61.42528204188941
100
AcDbArc
 50
270.036061803
 51
279.5630855191
  0
ARC
  5
FD
330
1F
100
AcDbEntity
  8
0
  6
Continuous
 62
     7
370
    25
100
AcDbCircle
 10
26.5164862216
 20
54.0433755184
 30
0.0
 40
1.000000000000005
100
AcDbArc
 50
318.3664606634
 51
0.0
  0
ARC
  5
FE
330
1F
100
AcDbEntity
  8
0
  6
Continuous
 62
     7
370
    25
100
AcDbCircle
 10
62.5164862216
 20
54.0433755184
 30
0.0
 40
1.000000000000005
100
AcDbArc
 50
180.0
 51
221.6335393366
  0
ARC
  5
FF
330
1F
100
AcDbEntity
  8
0
  6
Continuous
 62
     7
370
    25
100
AcDbCircle
 10
28.5164862216
 20
56.663176196
 30
0.0
 40
1.0
100
AcDbArc
 50
90.0
 51
180.0
  0
ARC
  5
100
330
1F
100
AcDbEntity
  8
0
  6
Continuous
 62
     7
370
    25
100
AcDbCircle
 10
60.5164862216
 20
56.663176196
 30
0.0
 40
1.0
100
AcDbArc
 50
0.0
 51
90.0
  0
LINE
  5
101
330
1F
100
AcDbEntity
  8
0
  6
Continuous
 62
     7
370
    25
100
AcDbLine
 10
27.5164862216
 20
56.663176196
 30
0.0
 11
27.5164862216
 21
54.0433755184
 31
0.0
  0
LINE
  5
102
330
1F
100
AcDbEntity
  8
0
  6
Continuous
 62
     7
370
    25
100
AcDbLine
 10
61.5164862216
 20
54.0433755184
 30
0.0
 11
61.5164862216
 21
56.663176196
 31
0.0
  0
ARC
  5
103
330
1F
100
AcDbEntity
  8
0
  6
Continuous
 62
     7
370
    25
100
AcDbCircle
 10
120.167067274
 20
44.2829768737
 30
0.0
 40
1.000000000000005
100
AcDbArc
 50
0.0
 51
41.6335393366
  0
ARC
  5
104
330
1F
100
AcDbEntity
  8
0
  6
Continuous
 62
     7
370
    25
100
AcDbCircle
 10
72.167067274
 20
44.2829768737
 30
0.0
 40
1.000000000000005
100
AcDbArc
 50
138.3664606634
 51
180.0
  0
ARC
  5
105
330
1F
100
AcDbEntity
  8
0
  6
Continuous
 62
     7
370
    25
100
AcDbCircle
 10
120.167067274
 20
41.5028773721
 30
0.0
 40
1.0
100
AcDbArc
 50
279.5630855191
 51
0.0
  0
ARC
  5
106
330
1F
100
AcDbEntity
  8
0
  6
Continuous
 62
     7
370
    25
100
AcDbCircle
 10
72.167067274
 20
41.5028773721
 30
0.0
 40
1.0
100
AcDbArc
 50
180.0
 51
260.4369144809
  0
LINE
  5
107
330
1F
100
AcDbEntity
  8
0
  6
Continuous
 62
     7
370
    25
100
AcDbLine
 10
71.167067274
 20
44.2829768737
 30
0.0
 11
71.167067274
 21
41.5028773721
 31
0.0
  0
LINE
  5
108
330
1F
100
AcDbEntity
  8
0
  6
Continuous
 62
     7
370
    25
100
AcDbLine
 10
121.167067274
 20
41.5028773721
 30
0.0
 11
121.167067274
 21
44.2829768737
 31
0.0
  0
LINE
  5
109
330
1F
100
AcDbEntity
  8
0
  6
Continuous
 62
     7
370
    25
100
AcDbLine
 10
120.9144765927
 20
44.9473407125
 30
0.0
 11
113.4196579553
 21
53.3790116796
 31
0.0
  0
LINE
  5
10A
330
1F
100
AcDbEntity
  8
0
  6
Continuous
 62
     7
370
    25
100
AcDbLine
 10
78.9144765927
 20
53.3790116796
 30
0.0
 11
71.4196579553
 21
44.9473407125
 31
0.0
  0
ARC
  5
10B
330
1F
100
AcDbEntity
  8
0
  6
Continuous
 62
     7
370
    25
100
AcDbCircle
 10
82.2057281718
 20
101.0884460714
 30
0.0
 40
61.4252820418894
100
AcDbArc
 50
260.4369144809
 51
269.963938197
  0
ARC
  5
10C
330
1F
100
AcDbEntity
  8
0
  6
Continuous
 62
     7
370
    25
100
AcDbCircle
 10
110.1284063763
 20
101.0884460714
 30
0.0
 40
61.4252820418894
100
AcDbArc
 50
270.036061803
 51
279.5630855191
  0
ARC
  5
10D
330
1F
100
AcDbEntity
  8
0
  6
Continuous
 62
     7
370
    25
100
AcDbCircle
 10
78.167067274
 20
54.0433755184
 30
0.0
 40
1.000000000000005
100
AcDbArc
 50
318.3664606634
 51
0.0
  0
ARC
  5
10E
330
1F
100
AcDbEntity
  8
0
  6
Continuous
 62
     7
370
    25
100
AcDbCircle
 10
114.167067274
 20
54.0433755184
 30
0.0
 40
1.000000000000005
100
AcDbArc
 50
180.0
 51
221.6335393366
  0
ARC
  5
10F
330
1F
100
AcDbEntity
  8
0
  6
Continuous
 62
     7
370
    25
100
AcDbCircle
 10
80.167067274
 20
56.663176196
 30
0.0
 40
1.0
100
AcDbArc
 50
90.0
 51
180.0
  0
ARC
  5
110
330
1F
100
AcDbEntity
  8
0
  6
Continuous
 62
     7
370
    25
100
AcDbCircle
 10
112.167067274
 20
56.663176196
 30
0.0
 40
1.0
100
AcDbArc
 50
0.0
 51
90.0
  0
LINE
  5
111
330
1F
100
AcDbEntity
  8
0
  6
Continuous
 62
     7
370
    25
100
AcDbLine
 10
79.167067274
 20
56.663176196
 30
0.0
 11
79.167067274
 21
54.0433755184
 31
0.0
  0
LINE
  5
112
330
1F
100
AcDbEntity
  8
0
  6
Continuous
 62
     7
370
    25
100
AcDbLine
 10
113.167067274
 20
54.0433755184
 30
0.0
 11
113.167067274
 21
56.663176196
 31
0.0
  0
LINE
  5
113
330
1F
100
AcDbEntity
  8
0
  6
Continuous
 62
     7
370
    25
100
AcDbLine
 10
121.167067274
 20
266.0433755184
 30
0.0
 11
121.167067274
 21
268.82347502
 31
0.0
  0
LINE
  5
114
330
1F
100
AcDbEntity
  8
0
  6
Continuous
 62
     7
370
    25
100
AcDbLine
 10
71.167067274
 20
268.82347502
 30
0.0
 11
71.167067274
 21
266.0433755184
 31
0.0
  0
ARC
  5
115
330
1F
100
AcDbEntity
  8
0
  6
Continuous
 62
     7
370
    25
100
AcDbCircle
 10
72.167067274
 20
266.0433755184
 30
0.0
 40
1.000000000000029
100
AcDbArc
 50
180.0
 51
221.6335393366
  0
ARC
  5
116
330
1F
100
AcDbEntity
  8
0
  6
Continuous
 62
     7
370
    25
100
AcDbCircle
 10
120.167067274
 20
266.0433755184
 30
0.0
 40
1.000000000000029
100
AcDbArc
 50
318.3664606634
 51
0.0
  0
ARC
  5
117
330
1F
100
AcDbEntity
  8
0
  6
Continuous
 62
     7
370
    25
100
AcDbCircle
 10
72.167067274
 20
268.82347502
 30
0.0
 40
1.000000000000027
100
AcDbArc
 50
99.5630855191
 51
180.0
  0
ARC
  5
118
330
1F
100
AcDbEntity
  8
0
  6
Continuous
 62
     7
370
    25
100
AcDbCircle
 10
120.167067274
 20
268.82347502
 30
0.0
 40
1.000000000000027
100
AcDbArc
 50
0.0
 51
80.4369144809
  0
LINE
  5
119
330
1F
100
AcDbEntity
  8
0
  6
Continuous
 62
     7
370
    25
100
AcDbLine
 10
71.4196579553
 20
265.3790116796
 30
0.0
 11
78.9144765927
 21
256.9473407125
 31
0.0
  0
LINE
  5
11A
330
1F
100
AcDbEntity
  8
0
  6
Continuous
 62
     7
370
    25
100
AcDbLine
 10
113.4196579553
 20
256.9473407125
 30
0.0
 11
120.9144765927
 21
265.3790116796
 31
0.0
  0
ARC
  5
11B
330
1F
100
AcDbEntity
  8
0
  6
Continuous
 62
     7
370
    25
100
AcDbCircle
 10
110.1284063763
 20
209.2379063207
 30
0.0
 40
61.42528204188942
100
AcDbArc
 50
80.4369144809
 51
89.963938197
  0
ARC
  5
11C
330
1F
100
AcDbEntity
  8
0
  6
Continuous
 62
     7
370
    25
100
AcDbCircle
 10
82.2057281718
 20
209.2379063207
 30
0.0
 40
61.42528204188942
100
AcDbArc
 50
90.036061803
 51
99.5630855191
  0
ARC
  5
11D
330
1F
100
AcDbEntity
  8
0
  6
Continuous
 62
     7
370
    25
100
AcDbCircle
 10
114.167067274
 20
256.2829768737
 30
0.0
 40
1.000000000000029
100
AcDbArc
 50
138.3664606634
 51
180.0
  0
ARC
  5
11E
330
1F
100
AcDbEntity
  8
0
  6
Continuous
 62
     7
370
    25
100
AcDbCircle
 10
78.167067274
 20
256.2829768737
 30
0.0
 40
1.000000000000029
100
AcDbArc
 50
0.0
 51
41.6335393366
  0
ARC
  5
11F
330
1F
100
AcDbEntity
  8
0
  6
Continuous
 62
     7
370
    25
100
AcDbCircle
 10
112.167067274
 20
253.663176196
 30
0.0
 40
1.0
100
AcDbArc
 50
270.0
 51
0.0
  0
ARC
  5
120
330
1F
100
AcDbEntity
  8
0
  6
Continuous
 62
     7
370
    25
100
AcDbCircle
 10
80.167067274
 20
253.663176196
 30
0.0
 40
1.0
100
AcDbArc
 50
180.0
 51
270.0
  0
LINE
  5
121
330
1F
100
AcDbEntity
  8
0
  6
Continuous
 62
     7
370
    25
100
AcDbLine
 10
113.167067274
 20
253.663176196
 30
0.0
 11
113.167067274
 21
256.2829768737
 31
0.0
  0
LINE
  5
122
330
1F
100
AcDbEntity
  8
0
  6
Continuous
 62
     7
370
    25
100
AcDbLine
 10
79.167067274
 20
256.2829768737
 30
0.0
 11
79.167067274
 21
253.663176196
 31
0.0
  0
LINE
  5
123
330
1F
100
AcDbEntity
  8
0
  6
Continuous
 62
     7
370
    25
100
AcDbLine
 10
69.5164862216
 20
266.0433755184
 30
0.0
 11
69.5164862216
 21
268.82347502
 31
0.0
  0
LINE
  5
124
330
1F
100
AcDbEntity
  8
0
  6
Continuous
 62
     7
370
    25
100
AcDbLine
 10
19.5164862216
 20
268.82347502
 30
0.0
 11
19.5164862216
 21
266.0433755184
 31
0.0
  0
ARC
  5
125
330
1F
100
AcDbEntity
  8
0
  6
Continuous
 62
     7
370
    25
100
AcDbCircle
 10
20.5164862216
 20
268.82347502
 30
0.0
 40
1.000000000000027
100
AcDbArc
 50
99.5630855191
 51
180.0
  0
ARC
  5
126
330
1F
100
AcDbEntity
  8
0
  6
Continuous
 62
     7
370
    25
100
AcDbCircle
 10
68.5164862216
 20
268.82347502
 30
0.0
 40
1.000000000000027
100
AcDbArc
 50
0.0
 51
80.4369144809
  0
ARC
  5
127
330
1F
100
AcDbEntity
  8
0
  6
Continuous
 62
     7
370
    25
100
AcDbCircle
 10
20.5164862216
 20
266.0433755184
 30
0.0
 40
1.000000000000029
100
AcDbArc
 50
180.0
 51
221.6335393366
  0
ARC
  5
128
330
1F
100
AcDbEntity
  8
0
  6
Continuous
 62
     7
370
    25
100
AcDbCircle
 10
68.5164862216
 20
266.0433755184
 30
0.0
 40
1.000000000000029
100
AcDbArc
 50
318.3664606634
 51
0.0
  0
LINE
  5
129
330
1F
100
AcDbEntity
  8
0
  6
Continuous
 62
     7
370
    25
100
AcDbLine
 10
19.7690769029
 20
265.3790116796
 30
0.0
 11
27.2638955403
 21
256.9473407125
 31
0.0
  0
LINE
  5
12A
330
1F
100
AcDbEntity
  8
0
  6
Continuous
 62
     7
370
    25
100
AcDbLine
 10
61.7690769029
 20
256.9473407125
 30
0.0
 11
69.2638955403
 21
265.3790116796
 31
0.0
  0
ARC
  5
12B
330
1F
100
AcDbEntity
  8
0
  6
Continuous
 62
     7
370
    25
100
AcDbCircle
 10
58.4778253239
 20
209.2379063207
 30
0.0
 40
61.42528204188939
100
AcDbArc
 50
80.4369144809
 51
89.963938197
  0
ARC
  5
12C
330
1F
100
AcDbEntity
  8
0
  6
Continuous
 62
     7
370
    25
100
AcDbCircle
 10
30.5551471194
 20
209.2379063207
 30
0.0
 40
61.42528204188938
100
AcDbArc
 50
90.036061803
 51
99.5630855191
  0
ARC
  5
12D
330
1F
100
AcDbEntity
  8
0
  6
Continuous
 62
     7
370
    25
100
AcDbCircle
 10
62.5164862216
 20
256.2829768737
 30
0.0
 40
1.000000000000029
100
AcDbArc
 50
138.3664606634
 51
180.0
  0
ARC
  5
12E
330
1F
100
AcDbEntity
  8
0
  6
Continuous
 62
     7
370
    25
100
AcDbCircle
 10
26.5164862216
 20
256.2829768737
 30
0.0
 40
1.000000000000029
100
AcDbArc
 50
0.0
 51
41.6335393366
  0
LINE
  5
12F
330
1F
100
AcDbEntity
  8
0
  6
Continuous
 62
     7
370
    25
100
AcDbLine
 10
61.5164862216
 20
253.663176196
 30
0.0
 11
61.5164862216
 21
256.2829768737
 31
0.0
  0
LINE
  5
130
330
1F
100
AcDbEntity
  8
0
  6
Continuous
 62
     7
370
    25
100
AcDbLine
 10
27.5164862216
 20
256.2829768737
 30
0.0
 11
27.5164862216
 21
253.663176196
 31
0.0
  0
ARC
  5
131
330
1F
100
AcDbEntity
  8
0
  6
Continuous
 62
     7
370
    25
100
AcDbCircle
 10
60.5164862216
 20
253.663176196
 30
0.0
 40
1.0
100
AcDbArc
 50
270.0
 51
0.0
  0
ARC
  5
132
330
1F
100
AcDbEntity
  8
0
  6
Continuous
 62
     7
370
    25
100
AcDbCircle
 10
28.5164862216
 20
253.663176196
 30
0.0
 40
1.0
100
AcDbArc
 50
180.0
 51
270.0
  0
LINE
  5
133
330
1F
100
AcDbEntity
  8
0
  6
Continuous
 62
     7
370
    25
100
AcDbLine
 10
58.2664862216
 20
270.663176196
 30
0.0
 11
58.2664862216
 21
270.911030591
 31
0.0
  0
LINE
  5
134
330
1F
100
AcDbEntity
  8
0
  6
Continuous
 62
     7
370
    25
100
AcDbLine
 10
30.7664862216
 20
270.911030591
 30
0.0
 11
30.7664862216
 21
270.663176196
 31
0.0
  0
ARC
  5
135
330
1F
100
AcDbEntity
  8
0
  6
Continuous
 62
     7
370
    25
100
AcDbCircle
 10
57.2664862216
 20
270.911030591
 30
0.0
 40
1.0
100
AcDbArc
 50
0.0
 51
74.3504861218
  0
ARC
  5
136
330
1F
100
AcDbEntity
  8
0
  6
Continuous
 62
     7
370
    25
100
AcDbCircle
 10
31.7664862216
 20
270.911030591
 30
0.0
 40
1.0
100
AcDbArc
 50
105.6495138782
 51
180.0
  0
ARC
  5
137
330
1F
100
AcDbEntity
  8
0
  6
Continuous
 62
     7
370
    25
100
AcDbCircle
 10
44.5164862216
 20
225.397551196
 30
0.0
 40
48.26562500000033
100
AcDbArc
 50
74.3504861218
 51
105.6495138782
  0
ARC
  5
138
330
1F
100
AcDbEntity
  8
0
  6
Continuous
 62
     7
370
    25
100
AcDbCircle
 10
83.417067274
 20
39.415321801
 30
0.0
 40
1.000000000000003
100
AcDbArc
 50
180.0
 51
254.3504861218
  0
ARC
  5
139
330
1F
100
AcDbEntity
  8
0
  6
Continuous
 62
     7
370
    25
100
AcDbCircle
 10
108.917067274
 20
39.415321801
 30
0.0
 40
1.000000000000003
100
AcDbArc
 50
285.6495138782
 51
0.0
  0
LINE
  5
13A
330
1F
100
AcDbEntity
  8
0
  6
Continuous
 62
     7
370
    25
100
AcDbLine
 10
82.417067274
 20
39.663176196
 30
0.0
 11
82.417067274
 21
39.415321801
 31
0.0
  0
LINE
  5
13B
330
1F
100
AcDbEntity
  8
0
  6
Continuous
 62
     7
370
    25
100
AcDbLine
 10
109.917067274
 20
39.415321801
 30
0.0
 11
109.917067274
 21
39.663176196
 31
0.0
  0
ARC
  5
13C
330
1F
100
AcDbEntity
  8
0
  6
Continuous
 62
     7
370
    25
100
AcDbCircle
 10
96.167067274
 20
84.928801196
 30
0.0
 40
48.26562500000037
100
AcDbArc
 50
254.3504861218
 51
285.6495138782
  0
ARC
  5
13D
330
1F
100
AcDbEntity
  8
0
  6
Continuous
 62
     7
370
    25
100
AcDbCircle
 10
108.917067274
 20
270.911030591
 30
0.0
 40
1.0
100
AcDbArc
 50
0.0
 51
74.3504861218
  0
ARC
  5
13E
330
1F
100
AcDbEntity
  8
0
  6
Continuous
 62
     7
370
    25
100
AcDbCircle
 10
83.417067274
 20
270.911030591
 30
0.0
 40
1.0
100
AcDbArc
 50
105.6495138782
 51
180.0
  0
LINE
  5
13F
330
1F
100
AcDbEntity
  8
0
  6
Continuous
 62
     7
370
    25
100
AcDbLine
 10
109.917067274
 20
270.663176196
 30
0.0
 11
109.917067274
 21
270.911030591
 31
0.0
  0
LINE
  5
140
330
1F
100
AcDbEntity
  8
0
  6
Continuous
 62
     7
370
    25
100
AcDbLine
 10
82.417067274
 20
270.911030591
 30
0.0
 11
82.417067274
 21
270.663176196
 31
0.0
  0
ARC
  5
141
330
1F
100
AcDbEntity
  8
0
  6
Continuous
 62
     7
370
    25
100
AcDbCircle
 10
96.167067274
 20
225.397551196
 30
0.0
 40
48.26562500000033
100
AcDbArc
 50
74.3504861218
 51
105.6495138782
  0
ARC
  5
142
330
1F
100
AcDbEntity
  8
0
  6
Continuous
 62
     7
370
    25
100
AcDbCircle
 10
31.7664862216
 20
39.415321801
 30
0.0
 40
1.000000000000001
100
AcDbArc
 50
180.0
 51
254.3504861218
  0
ARC
  5
143
330
1F
100
AcDbEntity
  8
0
  6
Continuous
 62
     7
370
    25
100
AcDbCircle
 10
57.2664862216
 20
39.415321801
 30
0.0
 40
1.000000000000003
100
AcDbArc
 50
285.6495138782
 51
0.0
  0
LINE
  5
144
330
1F
100
AcDbEntity
  8
0
  6
Continuous
 62
     7
370
    25
100
AcDbLine
 10
30.7664862216
 20
39.663176196
 30
0.0
 11
30.7664862216
 21
39.415321801
 31
0.0
  0
LINE
  5
145
330
1F
100
AcDbEntity
  8
0
  6
Continuous
 62
     7
370
    25
100
AcDbLine
 10
58.2664862216
 20
39.415321801
 30
0.0
 11
58.2664862216
 21
39.663176196
 31
0.0
  0
ARC
  5
146
330
1F
100
AcDbEntity
  8
0
  6
Continuous
 62
     7
370
    25
100
AcDbCircle
 10
44.5164862216
 20
84.928801196
 30
0.0
 40
48.26562500000037
100
AcDbArc
 50
254.3504861218
 51
285.6495138782
  0
ARC
  5
147
330
1F
100
AcDbEntity
  8
0
  6
Continuous
 62
     7
370
    25
100
AcDbCircle
 10
592.2837051784
 20
159.663176196
 30
0.0
 40
3.0
100
AcDbArc
 50
0.0
 51
90.0
  0
LINE
  5
148
330
1F
100
AcDbEntity
  8
0
  6
Continuous
 62
     7
370
    25
100
AcDbLine
 10
595.2837051784
 20
150.663176196
 30
0.0
 11
595.2837051784
 21
159.663176196
 31
0.0
  0
ARC
  5
149
330
1F
100
AcDbEntity
  8
0
  6
Continuous
 62
     7
370
    25
100
AcDbCircle
 10
592.2837051784
 20
150.663176196
 30
0.0
 40
3.000000000000028
100
AcDbArc
 50
270.0
 51
0.0
  0
LINE
  5
14A
330
1F
100
AcDbEntity
  8
0
  6
Continuous
 62
     7
370
    25
100
AcDbLine
 10
595.2837051784
 20
-1263.336823804
 30
0.0
 11
-165.4789537198
 21
-1263.336823804
 31
0.0
  0
ARC
  5
14B
330
1F
100
AcDbEntity
  8
0
  6
Continuous
 62
     7
370
    25
100
AcDbCircle
 10
-165.4789537198
 20
36.663176196
 30
0.0
 40
1300.0
100
AcDbArc
 50
180.0
 51
270.0
  0
LINE
  5
14C
330
1F
100
AcDbEntity
  8
0
  6
Continuous
 62
     7
370
    25
100
AcDbLine
 10
-1465.4789537198
 20
36.663176196
 30
0.0
 11
-1465.4789537198
 21
273.663176196
 31
0.0
  0
ARC
  5
14D
330
1F
100
AcDbEntity
  8
0
  6
Continuous
 62
     7
370
    25
100
AcDbCircle
 10
-165.4789537198
 20
273.663176196
 30
0.0
 40
1300.0
100
AcDbArc
 50
90.0
 51
180.0
  0
LINE
  5
14E
330
1F
100
AcDbEntity
  8
0
  6
Continuous
 62
     7
370
    25
100
AcDbLine
 10
-165.4789537198
 20
1573.663176196
 30
0.0
 11
595.2837051784
 21
1573.663176196
 31
0.0
  0
LINE
  5
14F
330
1F
100
AcDbEntity
  8
0
  6
Continuous
 62
     7
370
    25
100
AcDbLine
 10
1895.2837051784
 20
273.663176196
 30
0.0
 11
1895.2837051784
 21
36.663176196
 31
0.0
  0
ARC
  5
150
330
1F
100
AcDbEntity
  8
0
  6
Continuous
 62
     7
370
    25
100
AcDbCircle
 10
595.2837051784
 20
36.663176196
 30
0.0
 40
1300.0
100
AcDbArc
 50
270.0
 51
0.0
  0
ARC
  5
151
330
1F
100
AcDbEntity
  8
0
  6
Continuous
 62
     7
370
    25
100
AcDbCircle
 10
595.2837051784
 20
273.663176196
 30
0.0
 40
1300.0
100
AcDbArc
 50
0.0
 51
90.0
  0
ARC
  5
152
330
1F
100
AcDbEntity
  8
0
  6
Continuous
 62
     7
370
    25
100
AcDbCircle
 10
255.0898787553
 20
91.9433217198
 30
0.0
 40
5.999999999999964
100
AcDbArc
 50
330.0
 51
22.6478567894
  0
ARC
  5
153
330
1F
100
AcDbEntity
  8
0
  6
Continuous
 62
     7
370
    25
100
AcDbCircle
 10
255.0898787553
 20
91.9433217198
 30
0.0
 40
6.00000000000002
100
AcDbArc
 50
113.0242080651
 51
150.0
  0
ARC
  5
154
330
1F
100
AcDbEntity
  8
0
  6
Continuous
 62
     7
370
    25
100
AcDbCircle
 10
238.0898787553
 20
62.4984579911
 30
0.0
 40
6.0
100
AcDbArc
 50
150.0
 51
330.0
  0
ARC
  5
155
330
1F
100
AcDbEntity
  8
0
  6
Continuous
 62
     7
370
    25
100
AcDbCircle
 10
255.0898787553
 20
218.3830306723
 30
0.0
 40
6.000000000000028
100
AcDbArc
 50
210.0
 51
246.9757827104
  0
ARC
  5
156
330
1F
100
AcDbEntity
  8
0
  6
Continuous
 62
     7
370
    25
100
AcDbCircle
 10
255.0898787553
 20
218.3830306723
 30
0.0
 40
6.000000000000013
100
AcDbArc
 50
337.3521521825
 51
30.0
  0
ARC
  5
157
330
1F
100
AcDbEntity
  8
0
  6
Continuous
 62
     7
370
    25
100
AcDbCircle
 10
238.0898787553
 20
247.827894401
 30
0.0
 40
6.000000000000024
100
AcDbArc
 50
30.0
 51
210.0
  0
LINE
  5
158
330
1F
100
AcDbEntity
  8
0
  6
Continuous
 62
     7
370
    25
100
AcDbLine
 10
151.5898787553
 20
132.663176196
 30
0.0
 11
151.5898787553
 21
129.663176196
 31
0.0
  0
LINE
  5
159
330
1F
100
AcDbEntity
  8
0
  6
Continuous
 62
     7
370
    25
100
AcDbLine
 10
154.5898787553
 20
132.663176196
 30
0.0
 11
154.5898787553
 21
129.663176196
 31
0.0
  0
LINE
  5
15A
330
1F
100
AcDbEntity
  8
0
  6
Continuous
 62
     7
370
    25
100
AcDbLine
 10
154.5898787553
 20
129.663176196
 30
0.0
 11
151.5898787553
 21
129.663176196
 31
0.0
  0
LINE
  5
15B
330
1F
100
AcDbEntity
  8
0
  6
Continuous
 62
     7
370
    25
100
AcDbLine
 10
154.5898787553
 20
129.663176196
 30
0.0
 11
209.5552187699
 21
129.663176196
 31
0.0
  0
LINE
  5
15C
330
1F
100
AcDbEntity
  8
0
  6
Continuous
 62
     7
370
    25
100
AcDbLine
 10
154.5898787553
 20
177.663176196
 30
0.0
 11
154.5898787553
 21
180.663176196
 31
0.0
  0
LINE
  5
15D
330
1F
100
AcDbEntity
  8
0
  6
Continuous
 62
     7
370
    25
100
AcDbLine
 10
154.5898787553
 20
180.663176196
 30
0.0
 11
209.5552187699
 21
180.663176196
 31
0.0
  0
LINE
  5
15E
330
1F
100
AcDbEntity
  8
0
  6
Continuous
 62
     7
370
    25
100
AcDbLine
 10
151.5898787553
 20
177.663176196
 30
0.0
 11
151.5898787553
 21
180.663176196
 31
0.0
  0
LINE
  5
15F
330
1F
100
AcDbEntity
  8
0
  6
Continuous
 62
     7
370
    25
100
AcDbLine
 10
151.5898787553
 20
180.663176196
 30
0.0
 11
154.5898787553
 21
180.663176196
 31
0.0
  0
ARC
  5
160
330
1F
100
AcDbEntity
  8
0
  6
Continuous
 62
     7
370
    25
100
AcDbCircle
 10
291.1218078835
 20
154.9780094693
 30
0.0
 40
80.21019668370612
100
AcDbArc
 50
90.238636914
 51
139.6385878338
  0
LWPOLYLINE
  5
161
330
1F
100
AcDbEntity
  8
0
  6
Continuous
 62
     7
370
    25
100
AcDbPolyline
 90
       37
 70
   128
 43
0.0
 10
225.4360934287
 20
104.2844109582
 10
228.4618357405
 20
100.0679280347
 10
233.1658291928
 20
94.5142588593
 10
238.3683735208
 20
89.2811457382
 10
243.9593417654
 20
84.4641593363
 10
250.0205660728
 20
79.9779065556
 10
256.3581139357
 20
75.8873141964
 10
261.4494437959
 20
72.8835186619
 10
263.1693130092
 20
71.9034156626
 10
264.8563497653
 20
70.869984203
 10
266.4098743024
 20
69.6640860325
 10
266.9026007457
 20
69.1081544735
 10
267.0301079158
 20
68.8339434251
 10
267.0509004601
 20
68.667646835
 10
267.0131022247
 20
68.5029338987
 10
266.9323923652
 20
68.3787132817
 10
266.7468622344
 20
68.2282119846
 10
266.195421153
 20
68.0213462691
 10
265.1671936394
 20
67.8894626473
 10
264.109401549
 20
67.8820388098
 10
262.0460641016
 20
68.0452293081
 10
259.9986944493
 20
68.3603835571
 10
255.9018578775
 20
69.2892123571
 10
250.1997639699
 20
71.1167000182
 10
244.6740908732
 20
73.4289018896
 10
239.2002777272
 20
76.236826506
 10
233.9514499471
 20
79.4466257913
 10
228.8783502721
 20
83.0826499762
 10
224.0783158211
 20
87.072642348
 10
219.4797131621
 20
91.4813900172
 10
215.2016770958
 20
96.2020250713
 10
210.6719286964
 20
102.0246908244
 10
206.621825414
 20
108.190693748
 10
202.988135412
 20
114.834336743
 10
199.8999010584
 20
121.7486266481
 10
197.3265398072
 20
129.0401717255
 10
197.1621029267
 20
129.663176196
  0
ARC
  5
162
330
1F
100
AcDbEntity
  8
0
  6
Continuous
 62
     7
370
    25
100
AcDbCircle
 10
291.5339372274
 20
156.6163746303
 30
0.0
 40
98.48627270791967
100
AcDbArc
 50
79.9181283769
 51
165.8675663137
  0
LINE
  5
163
330
1F
100
AcDbEntity
  8
0
  6
Continuous
 62
     7
370
    25
100
AcDbLine
 10
502.9680453362
 20
178.133176196
 30
0.0
 11
514.307815363
 21
178.133176196
 31
0.0
  0
LINE
  5
164
330
1F
100
AcDbEntity
  8
0
  6
Continuous
 62
     7
370
    25
100
AcDbLine
 10
168.7278991428
 20
132.193176196
 30
0.0
 11
157.3880546365
 21
132.193176196
 31
0.0
  0
LINE
  5
165
330
1F
100
AcDbEntity
  8
0
  6
Continuous
 62
     7
370
    25
100
AcDbLine
 10
157.3880546365
 20
178.133176196
 30
0.0
 11
168.7280546365
 21
178.133176196
 31
0.0
  0
LINE
  5
166
330
1F
100
AcDbEntity
  8
0
  6
Continuous
 62
     7
370
    25
100
AcDbLine
 10
514.3072996842
 20
132.193176196
 30
0.0
 11
502.967815363
 21
132.193176196
 31
0.0
  0
ARC
  5
167
330
1F
100
AcDbEntity
  8
0
  6
Continuous
 62
     7
370
    25
100
AcDbCircle
 10
359.5552187699
 20
140.163176196
 30
0.0
 40
2.250000000000057
100
AcDbArc
 50
0.0
 51
60.0
  0
ARC
  5
168
330
1F
100
AcDbEntity
  8
0
  6
Continuous
 62
     7
370
    25
100
AcDbCircle
 10
359.5552187699
 20
140.163176196
 30
0.0
 40
2.250000000000012
100
AcDbArc
 50
60.0
 51
120.0
  0
ARC
  5
169
330
1F
100
AcDbEntity
  8
0
  6
Continuous
 62
     7
370
    25
100
AcDbCircle
 10
359.5552187699
 20
140.163176196
 30
0.0
 40
2.249999999999984
100
AcDbArc
 50
120.0
 51
180.0
  0
ARC
  5
16A
330
1F
100
AcDbEntity
  8
0
  6
Continuous
 62
     7
370
    25
100
AcDbCircle
 10
359.5552187699
 20
140.163176196
 30
0.0
 40
2.249999999999984
100
AcDbArc
 50
180.0
 51
240.0
  0
ARC
  5
16B
330
1F
100
AcDbEntity
  8
0
  6
Continuous
 62
     7
370
    25
100
AcDbCircle
 10
359.5552187699
 20
140.163176196
 30
0.0
 40
2.250000000000012
100
AcDbArc
 50
240.0
 51
300.0
  0
ARC
  5
16C
330
1F
100
AcDbEntity
  8
0
  6
Continuous
 62
     7
370
    25
100
AcDbCircle
 10
359.5552187699
 20
140.163176196
 30
0.0
 40
2.250000000000057
100
AcDbArc
 50
300.0
 51
0.0
  0
CIRCLE
  5
16D
330
1F
100
AcDbEntity
  8
0
  6
Continuous
 62
     7
370
    25
100
AcDbCircle
 10
359.5552187699
 20
140.163176196
 30
0.0
 40
3.850000000000023
  0
ARC
  5
16E
330
1F
100
AcDbEntity
  8
0
  6
Continuous
 62
     7
370
    25
100
AcDbCircle
 10
361.3552187699
 20
140.163176196
 30
0.0
 40
0.4499999999999886
100
AcDbArc
 50
0.0
 51
76.6582417728
  0
ARC
  5
16F
330
1F
100
AcDbEntity
  8
0
  6
Continuous
 62
     7
370
    25
100
AcDbCircle
 10
361.6407829667
 20
141.3672772464
 30
0.0
 40
0.7875000000000595
100
AcDbArc
 50
163.3417582272
 51
256.6582417728
  0
ARC
  5
170
330
1F
100
AcDbEntity
  8
0
  6
Continuous
 62
     7
370
    25
100
AcDbCircle
 10
360.4552187699
 20
141.7220219228
 30
0.0
 40
0.450000000000015
100
AcDbArc
 50
343.3417582272
 51
60.0
  0
ARC
  5
171
330
1F
100
AcDbEntity
  8
0
  6
Continuous
 62
     7
370
    25
100
AcDbCircle
 10
358.6552187699
 20
138.6043304692
 30
0.0
 40
0.4500000000000188
100
AcDbArc
 50
240.0
 51
316.6582417728
  0
ARC
  5
172
330
1F
100
AcDbEntity
  8
0
  6
Continuous
 62
     7
370
    25
100
AcDbCircle
 10
359.5552187699
 20
137.7549740953
 30
0.0
 40
0.7875000000000422
100
AcDbArc
 50
43.3417582272
 51
136.6582417728
  0
ARC
  5
173
330
1F
100
AcDbEntity
  8
0
  6
Continuous
 62
     7
370
    25
100
AcDbCircle
 10
360.4552187699
 20
138.6043304692
 30
0.0
 40
0.4499999999999904
100
AcDbArc
 50
223.3417582272
 51
300.0
  0
ARC
  5
174
330
1F
100
AcDbEntity
  8
0
  6
Continuous
 62
     7
370
    25
100
AcDbCircle
 10
361.3552187699
 20
140.163176196
 30
0.0
 40
0.4500000000000073
100
AcDbArc
 50
283.3417582272
 51
0.0
  0
ARC
  5
175
330
1F
100
AcDbEntity
  8
0
  6
Continuous
 62
     7
370
    25
100
AcDbCircle
 10
360.4552187699
 20
138.6043304692
 30
0.0
 40
0.4499999999999904
100
AcDbArc
 50
300.0
 51
16.6582417728
  0
ARC
  5
176
330
1F
100
AcDbEntity
  8
0
  6
Continuous
 62
     7
370
    25
100
AcDbCircle
 10
361.6407829667
 20
138.9590751456
 30
0.0
 40
0.7875000000000514
100
AcDbArc
 50
103.3417582272
 51
196.6582417728
  0
ARC
  5
177
330
1F
100
AcDbEntity
  8
0
  6
Continuous
 62
     7
370
    25
100
AcDbCircle
 10
358.6552187699
 20
141.7220219228
 30
0.0
 40
0.4500000000000434
100
AcDbArc
 50
43.3417582272
 51
120.0
  0
ARC
  5
178
330
1F
100
AcDbEntity
  8
0
  6
Continuous
 62
     7
370
    25
100
AcDbCircle
 10
359.5552187699
 20
142.5713782968
 30
0.0
 40
0.7875000000000225
100
AcDbArc
 50
223.3417582272
 51
316.6582417728
  0
ARC
  5
179
330
1F
100
AcDbEntity
  8
0
  6
Continuous
 62
     7
370
    25
100
AcDbCircle
 10
360.4552187699
 20
141.7220219228
 30
0.0
 40
0.450000000000015
100
AcDbArc
 50
60.0
 51
136.6582417728
  0
ARC
  5
17A
330
1F
100
AcDbEntity
  8
0
  6
Continuous
 62
     7
370
    25
100
AcDbCircle
 10
357.4696545732
 20
138.9590751456
 30
0.0
 40
0.7875000000000218
100
AcDbArc
 50
343.3417582272
 51
76.6582417728
  0
ARC
  5
17B
330
1F
100
AcDbEntity
  8
0
  6
Continuous
 62
     7
370
    25
100
AcDbCircle
 10
358.6552187699
 20
138.6043304692
 30
0.0
 40
0.4500000000000737
100
AcDbArc
 50
163.3417582272
 51
240.0
  0
ARC
  5
17C
330
1F
100
AcDbEntity
  8
0
  6
Continuous
 62
     7
370
    25
100
AcDbCircle
 10
357.7552187699
 20
140.163176196
 30
0.0
 40
0.4500000000000073
100
AcDbArc
 50
180.0
 51
256.6582417728
  0
ARC
  5
17D
330
1F
100
AcDbEntity
  8
0
  6
Continuous
 62
     7
370
    25
100
AcDbCircle
 10
357.4696545732
 20
141.3672772464
 30
0.0
 40
0.7875000000000087
100
AcDbArc
 50
283.3417582272
 51
16.6582417728
  0
ARC
  5
17E
330
1F
100
AcDbEntity
  8
0
  6
Continuous
 62
     7
370
    25
100
AcDbCircle
 10
358.6552187699
 20
141.7220219228
 30
0.0
 40
0.4500000000000737
100
AcDbArc
 50
120.0
 51
196.6582417728
  0
ARC
  5
17F
330
1F
100
AcDbEntity
  8
0
  6
Continuous
 62
     7
370
    25
100
AcDbCircle
 10
357.7552187699
 20
140.163176196
 30
0.0
 40
0.4499999999999886
100
AcDbArc
 50
103.3417582272
 51
180.0
  0
ARC
  5
180
330
1F
100
AcDbEntity
  8
0
  6
Continuous
 62
     7
370
    25
100
AcDbCircle
 10
359.5552187699
 20
170.163176196
 30
0.0
 40
2.249999999999984
100
AcDbArc
 50
180.0
 51
240.0
  0
ARC
  5
181
330
1F
100
AcDbEntity
  8
0
  6
Continuous
 62
     7
370
    25
100
AcDbCircle
 10
357.7552187699
 20
170.163176196
 30
0.0
 40
0.4500000000000073
100
AcDbArc
 50
180.0
 51
256.6582417728
  0
ARC
  5
182
330
1F
100
AcDbEntity
  8
0
  6
Continuous
 62
     7
370
    25
100
AcDbCircle
 10
357.4696545732
 20
168.9590751456
 30
0.0
 40
0.7875000000000218
100
AcDbArc
 50
343.3417582272
 51
76.6582417728
  0
ARC
  5
183
330
1F
100
AcDbEntity
  8
0
  6
Continuous
 62
     7
370
    25
100
AcDbCircle
 10
358.6552187699
 20
168.6043304692
 30
0.0
 40
0.45000000000009
100
AcDbArc
 50
163.3417582272
 51
240.0
  0
ARC
  5
184
330
1F
100
AcDbEntity
  8
0
  6
Continuous
 62
     7
370
    25
100
AcDbCircle
 10
359.5552187699
 20
170.163176196
 30
0.0
 40
2.250000000000057
100
AcDbArc
 50
0.0
 51
60.0
  0
ARC
  5
185
330
1F
100
AcDbEntity
  8
0
  6
Continuous
 62
     7
370
    25
100
AcDbCircle
 10
359.5552187699
 20
170.163176196
 30
0.0
 40
2.250000000000012
100
AcDbArc
 50
60.0
 51
120.0
  0
ARC
  5
186
330
1F
100
AcDbEntity
  8
0
  6
Continuous
 62
     7
370
    25
100
AcDbCircle
 10
359.5552187699
 20
170.163176196
 30
0.0
 40
2.249999999999984
100
AcDbArc
 50
120.0
 51
180.0
  0
ARC
  5
187
330
1F
100
AcDbEntity
  8
0
  6
Continuous
 62
     7
370
    25
100
AcDbCircle
 10
359.5552187699
 20
170.163176196
 30
0.0
 40
2.250000000000012
100
AcDbArc
 50
240.0
 51
300.0
  0
ARC
  5
188
330
1F
100
AcDbEntity
  8
0
  6
Continuous
 62
     7
370
    25
100
AcDbCircle
 10
359.5552187699
 20
170.163176196
 30
0.0
 40
2.250000000000057
100
AcDbArc
 50
300.0
 51
0.0
  0
CIRCLE
  5
189
330
1F
100
AcDbEntity
  8
0
  6
Continuous
 62
     7
370
    25
100
AcDbCircle
 10
359.5552187699
 20
170.163176196
 30
0.0
 40
3.850000000000023
  0
ARC
  5
18A
330
1F
100
AcDbEntity
  8
0
  6
Continuous
 62
     7
370
    25
100
AcDbCircle
 10
358.6552187699
 20
168.6043304692
 30
0.0
 40
0.4499999999999942
100
AcDbArc
 50
240.0
 51
316.6582417728
  0
ARC
  5
18B
330
1F
100
AcDbEntity
  8
0
  6
Continuous
 62
     7
370
    25
100
AcDbCircle
 10
359.5552187699
 20
167.7549740953
 30
0.0
 40
0.7875000000000225
100
AcDbArc
 50
43.3417582272
 51
136.6582417728
  0
ARC
  5
18C
330
1F
100
AcDbEntity
  8
0
  6
Continuous
 62
     7
370
    25
100
AcDbCircle
 10
360.4552187699
 20
168.6043304692
 30
0.0
 40
0.4499999999999862
100
AcDbArc
 50
223.3417582272
 51
300.0
  0
ARC
  5
18D
330
1F
100
AcDbEntity
  8
0
  6
Continuous
 62
     7
370
    25
100
AcDbCircle
 10
360.4552187699
 20
171.7220219228
 30
0.0
 40
0.4499999999999904
100
AcDbArc
 50
60.0
 51
136.6582417728
  0
ARC
  5
18E
330
1F
100
AcDbEntity
  8
0
  6
Continuous
 62
     7
370
    25
100
AcDbCircle
 10
358.6552187699
 20
171.7220219228
 30
0.0
 40
0.4500000000000188
100
AcDbArc
 50
43.3417582272
 51
120.0
  0
ARC
  5
18F
330
1F
100
AcDbEntity
  8
0
  6
Continuous
 62
     7
370
    25
100
AcDbCircle
 10
359.5552187699
 20
172.5713782968
 30
0.0
 40
0.7875000000000225
100
AcDbArc
 50
223.3417582272
 51
316.6582417728
  0
ARC
  5
190
330
1F
100
AcDbEntity
  8
0
  6
Continuous
 62
     7
370
    25
100
AcDbCircle
 10
358.6552187699
 20
171.7220219228
 30
0.0
 40
0.4500000000000818
100
AcDbArc
 50
120.0
 51
196.6582417728
  0
ARC
  5
191
330
1F
100
AcDbEntity
  8
0
  6
Continuous
 62
     7
370
    25
100
AcDbCircle
 10
357.4696545732
 20
171.3672772464
 30
0.0
 40
0.7874999999999811
100
AcDbArc
 50
283.3417582272
 51
16.6582417728
  0
ARC
  5
192
330
1F
100
AcDbEntity
  8
0
  6
Continuous
 62
     7
370
    25
100
AcDbCircle
 10
357.7552187699
 20
170.163176196
 30
0.0
 40
0.4500000000000073
100
AcDbArc
 50
103.3417582272
 51
180.0
  0
ARC
  5
193
330
1F
100
AcDbEntity
  8
0
  6
Continuous
 62
     7
370
    25
100
AcDbCircle
 10
361.3552187699
 20
170.163176196
 30
0.0
 40
0.4500000000000073
100
AcDbArc
 50
283.3417582272
 51
0.0
  0
ARC
  5
194
330
1F
100
AcDbEntity
  8
0
  6
Continuous
 62
     7
370
    25
100
AcDbCircle
 10
361.6407829667
 20
168.9590751456
 30
0.0
 40
0.7875000000000432
100
AcDbArc
 50
103.3417582272
 51
196.6582417728
  0
ARC
  5
195
330
1F
100
AcDbEntity
  8
0
  6
Continuous
 62
     7
370
    25
100
AcDbCircle
 10
360.4552187699
 20
168.6043304692
 30
0.0
 40
0.4499999999999811
100
AcDbArc
 50
300.0
 51
16.6582417728
  0
ARC
  5
196
330
1F
100
AcDbEntity
  8
0
  6
Continuous
 62
     7
370
    25
100
AcDbCircle
 10
361.3552187699
 20
170.163176196
 30
0.0
 40
0.4499999999999886
100
AcDbArc
 50
0.0
 51
76.6582417728
  0
ARC
  5
197
330
1F
100
AcDbEntity
  8
0
  6
Continuous
 62
     7
370
    25
100
AcDbCircle
 10
361.6407829667
 20
171.3672772464
 30
0.0
 40
0.7875000000000514
100
AcDbArc
 50
163.3417582272
 51
256.6582417728
  0
ARC
  5
198
330
1F
100
AcDbEntity
  8
0
  6
Continuous
 62
     7
370
    25
100
AcDbCircle
 10
360.4552187699
 20
171.7220219228
 30
0.0
 40
0.4499999999999904
100
AcDbArc
 50
343.3417582272
 51
60.0
  0
ARC
  5
199
330
1F
100
AcDbEntity
  8
0
  6
Continuous
 62
     7
370
    25
100
AcDbCircle
 10
269.5552187699
 20
155.163176196
 30
0.0
 40
2.250000000000012
100
AcDbArc
 50
300.0
 51
0.0
  0
ARC
  5
19A
330
1F
100
AcDbEntity
  8
0
  6
Continuous
 62
     7
370
    25
100
AcDbCircle
 10
270.4552187699
 20
153.6043304692
 30
0.0
 40
0.4499999999999811
100
AcDbArc
 50
300.0
 51
16.6582417728
  0
ARC
  5
19B
330
1F
100
AcDbEntity
  8
0
  6
Continuous
 62
     7
370
    25
100
AcDbCircle
 10
271.6407829667
 20
153.9590751456
 30
0.0
 40
0.7875000000000364
100
AcDbArc
 50
103.3417582272
 51
196.6582417728
  0
ARC
  5
19C
330
1F
100
AcDbEntity
  8
0
  6
Continuous
 62
     7
370
    25
100
AcDbCircle
 10
271.3552187699
 20
155.163176196
 30
0.0
 40
0.4499999999999886
100
AcDbArc
 50
283.3417582272
 51
0.0
  0
ARC
  5
19D
330
1F
100
AcDbEntity
  8
0
  6
Continuous
 62
     7
370
    25
100
AcDbCircle
 10
269.5552187699
 20
155.163176196
 30
0.0
 40
2.250000000000012
100
AcDbArc
 50
0.0
 51
60.0
  0
ARC
  5
19E
330
1F
100
AcDbEntity
  8
0
  6
Continuous
 62
     7
370
    25
100
AcDbCircle
 10
269.5552187699
 20
155.163176196
 30
0.0
 40
2.250000000000012
100
AcDbArc
 50
60.0
 51
120.0
  0
ARC
  5
19F
330
1F
100
AcDbEntity
  8
0
  6
Continuous
 62
     7
370
    25
100
AcDbCircle
 10
269.5552187699
 20
155.163176196
 30
0.0
 40
2.250000000000057
100
AcDbArc
 50
120.0
 51
180.0
  0
ARC
  5
1A0
330
1F
100
AcDbEntity
  8
0
  6
Continuous
 62
     7
370
    25
100
AcDbCircle
 10
269.5552187699
 20
155.163176196
 30
0.0
 40
2.250000000000057
100
AcDbArc
 50
180.0
 51
240.0
  0
ARC
  5
1A1
330
1F
100
AcDbEntity
  8
0
  6
Continuous
 62
     7
370
    25
100
AcDbCircle
 10
269.5552187699
 20
155.163176196
 30
0.0
 40
2.250000000000012
100
AcDbArc
 50
240.0
 51
300.0
  0
CIRCLE
  5
1A2
330
1F
100
AcDbEntity
  8
0
  6
Continuous
 62
     7
370
    25
100
AcDbCircle
 10
269.5552187699
 20
155.163176196
 30
0.0
 40
3.849999999999966
  0
ARC
  5
1A3
330
1F
100
AcDbEntity
  8
0
  6
Continuous
 62
     7
370
    25
100
AcDbCircle
 10
270.4552187699
 20
156.7220219228
 30
0.0
 40
0.4500000000000275
100
AcDbArc
 50
60.0
 51
136.6582417728
  0
ARC
  5
1A4
330
1F
100
AcDbEntity
  8
0
  6
Continuous
 62
     7
370
    25
100
AcDbCircle
 10
269.5552187699
 20
157.5713782968
 30
0.0
 40
0.7875000000000008
100
AcDbArc
 50
223.3417582272
 51
316.6582417728
  0
ARC
  5
1A5
330
1F
100
AcDbEntity
  8
0
  6
Continuous
 62
     7
370
    25
100
AcDbCircle
 10
268.6552187699
 20
156.7220219228
 30
0.0
 40
0.4500000000000275
100
AcDbArc
 50
43.3417582272
 51
120.0
  0
ARC
  5
1A6
330
1F
100
AcDbEntity
  8
0
  6
Continuous
 62
     7
370
    25
100
AcDbCircle
 10
267.7552187699
 20
155.163176196
 30
0.0
 40
0.4500000000000455
100
AcDbArc
 50
180.0
 51
256.6582417728
  0
ARC
  5
1A7
330
1F
100
AcDbEntity
  8
0
  6
Continuous
 62
     7
370
    25
100
AcDbCircle
 10
267.4696545732
 20
153.9590751456
 30
0.0
 40
0.7875000000000495
100
AcDbArc
 50
343.3417582272
 51
76.6582417728
  0
ARC
  5
1A8
330
1F
100
AcDbEntity
  8
0
  6
Continuous
 62
     7
370
    25
100
AcDbCircle
 10
268.6552187699
 20
153.6043304692
 30
0.0
 40
0.4499999999999904
100
AcDbArc
 50
163.3417582272
 51
240.0
  0
ARC
  5
1A9
330
1F
100
AcDbEntity
  8
0
  6
Continuous
 62
     7
370
    25
100
AcDbCircle
 10
269.5552187699
 20
152.7549740953
 30
0.0
 40
0.7874999999999812
100
AcDbArc
 50
43.3417582272
 51
136.6582417728
  0
ARC
  5
1AA
330
1F
100
AcDbEntity
  8
0
  6
Continuous
 62
     7
370
    25
100
AcDbCircle
 10
270.4552187699
 20
153.6043304692
 30
0.0
 40
0.4500000000000275
100
AcDbArc
 50
223.3417582272
 51
300.0
  0
ARC
  5
1AB
330
1F
100
AcDbEntity
  8
0
  6
Continuous
 62
     7
370
    25
100
AcDbCircle
 10
268.6552187699
 20
153.6043304692
 30
0.0
 40
0.4500000000000275
100
AcDbArc
 50
240.0
 51
316.6582417728
  0
ARC
  5
1AC
330
1F
100
AcDbEntity
  8
0
  6
Continuous
 62
     7
370
    25
100
AcDbCircle
 10
271.3552187699
 20
155.163176196
 30
0.0
 40
0.4500000000000073
100
AcDbArc
 50
0.0
 51
76.6582417728
  0
ARC
  5
1AD
330
1F
100
AcDbEntity
  8
0
  6
Continuous
 62
     7
370
    25
100
AcDbCircle
 10
270.4552187699
 20
156.7220219228
 30
0.0
 40
0.4499999999999904
100
AcDbArc
 50
343.3417582272
 51
60.0
  0
ARC
  5
1AE
330
1F
100
AcDbEntity
  8
0
  6
Continuous
 62
     7
370
    25
100
AcDbCircle
 10
271.6407829667
 20
156.3672772464
 30
0.0
 40
0.7875000000000051
100
AcDbArc
 50
163.3417582272
 51
256.6582417728
  0
ARC
  5
1AF
330
1F
100
AcDbEntity
  8
0
  6
Continuous
 62
     7
370
    25
100
AcDbCircle
 10
267.7552187699
 20
155.163176196
 30
0.0
 40
0.4500000000000455
100
AcDbArc
 50
103.3417582272
 51
180.0
  0
ARC
  5
1B0
330
1F
100
AcDbEntity
  8
0
  6
Continuous
 62
     7
370
    25
100
AcDbCircle
 10
268.6552187699
 20
156.7220219228
 30
0.0
 40
0.4499999999999904
100
AcDbArc
 50
120.0
 51
196.6582417728
  0
ARC
  5
1B1
330
1F
100
AcDbEntity
  8
0
  6
Continuous
 62
     7
370
    25
100
AcDbCircle
 10
267.4696545732
 20
156.3672772464
 30
0.0
 40
0.7875000000000595
100
AcDbArc
 50
283.3417582272
 51
16.6582417728
  0
LINE
  5
1B2
330
1F
100
AcDbEntity
  8
0
  6
Continuous
 62
     7
370
    25
100
AcDbLine
 10
42.6959799177
 20
162.663176196
 30
0.0
 11
82.9718291478
 21
162.663176196
 31
0.0
  0
ARC
  5
1B3
330
1F
100
AcDbEntity
  8
0
  6
Continuous
 62
     7
370
    25
100
AcDbCircle
 10
82.8571033698
 20
159.7694623755
 30
0.0
 40
2.895987168306243
100
AcDbArc
 50
357.8967042642
 51
87.7296089206
  0
LINE
  5
1B4
330
1F
100
AcDbEntity
  8
0
  6
Continuous
 62
     7
370
    25
100
AcDbLine
 10
85.7511394661
 20
159.663176196
 30
0.0
 11
40.889476406
 21
159.663176196
 31
0.0
  0
LWPOLYLINE
  5
1B5
330
1F
100
AcDbEntity
  8
0
  6
Continuous
 62
     7
370
    25
100
AcDbPolyline
 90
        9
 70
   128
 43
0.0
 10
42.6959799177
 20
162.663176196
 10
42.3435485659
 20
162.6055320372
 10
42.0046609533
 20
162.4348147936
 10
41.6923403408
 20
162.1575850329
 10
41.4185890344
 20
161.7844965396
 10
41.1939271432
 20
161.3298868951
 10
41.0269882978
 20
160.8112264931
 10
40.9241878644
 20
160.2484471621
 10
40.889476406
 20
159.663176196
  0
LINE
  5
1B6
330
1F
100
AcDbEntity
  8
0
  6
Continuous
 62
     7
370
    25
100
AcDbLine
 10
40.889476406
 20
150.663176196
 30
0.0
 11
85.7511394661
 21
150.663176196
 31
0.0
  0
LINE
  5
1B7
330
1F
100
AcDbEntity
  8
0
  6
Continuous
 62
     7
370
    25
100
AcDbLine
 10
40.889476406
 20
150.663176196
 30
0.0
 11
40.889476406
 21
159.663176196
 31
0.0
  0
LINE
  5
1B8
330
1F
100
AcDbEntity
  8
0
  6
Continuous
 62
     7
370
    25
100
AcDbLine
 10
85.7511394661
 20
150.663176196
 30
0.0
 11
85.7511394661
 21
159.663176196
 31
0.0
  0
ARC
  5
1B9
330
1F
100
AcDbEntity
  8
0
  6
Continuous
 62
     7
370
    25
100
AcDbCircle
 10
82.8571033698
 20
150.5568900165
 30
0.0
 40
2.89598716830558
100
AcDbArc
 50
272.2703910794
 51
2.1032957358
  0
LINE
  5
1BA
330
1F
100
AcDbEntity
  8
0
  6
Continuous
 62
     7
370
    25
100
AcDbLine
 10
82.9718291478
 20
147.663176196
 30
0.0
 11
42.6959799177
 21
147.663176196
 31
0.0
  0
LWPOLYLINE
  5
1BB
330
1F
100
AcDbEntity
  8
0
  6
Continuous
 62
     7
370
    25
100
AcDbPolyline
 90
        9
 70
   128
 43
0.0
 10
42.6959799177
 20
147.663176196
 10
42.3435485659
 20
147.7208203548
 10
42.0046609533
 20
147.8915375985
 10
41.6923403408
 20
148.1687673591
 10
41.4185890344
 20
148.5418558525
 10
41.1939271432
 20
148.996465497
 10
41.0269882978
 20
149.5151258989
 10
40.9241878644
 20
150.07790523
 10
40.889476406
 20
150.663176196
  0
LINE
  5
1BC
330
1F
100
AcDbEntity
  8
0
  6
Continuous
 62
     7
370
    25
100
AcDbLine
 10
39.1075870482
 20
150.663176196
 30
0.0
 11
40.889476406
 21
150.663176196
 31
0.0
  0
LINE
  5
1BD
330
1F
100
AcDbEntity
  8
0
  6
Continuous
 62
     7
370
    25
100
AcDbLine
 10
39.1075870482
 20
150.663176196
 30
0.0
 11
39.1075870482
 21
159.663176196
 31
0.0
  0
LINE
  5
1BE
330
1F
100
AcDbEntity
  8
0
  6
Continuous
 62
     7
370
    25
100
AcDbLine
 10
40.889476406
 20
159.663176196
 30
0.0
 11
39.1075870482
 21
159.663176196
 31
0.0
  0
ARC
  5
1BF
330
1F
100
AcDbEntity
  8
0
  6
Continuous
 62
     7
370
    25
100
AcDbCircle
 10
130.5368680269
 20
160.413125708
 30
0.0
 40
91.4323566608716
100
AcDbArc
 50
178.5898710583
 51
180.469958615
  0
LINE
  5
1C0
330
1F
100
AcDbEntity
  8
0
  6
Continuous
 62
     7
370
    25
100
AcDbLine
 10
39.1322012021
 20
162.663176196
 30
0.0
 11
42.6959799177
 21
162.663176196
 31
0.0
  0
ARC
  5
1C1
330
1F
100
AcDbEntity
  8
0
  6
Continuous
 62
     7
370
    25
100
AcDbCircle
 10
130.5368680269
 20
149.9132266841
 30
0.0
 40
91.4323566608676
100
AcDbArc
 50
179.530041385
 51
181.4101289417
  0
LINE
  5
1C2
330
1F
100
AcDbEntity
  8
0
  6
Continuous
 62
     7
370
    25
100
AcDbLine
 10
42.6959799177
 20
147.663176196
 30
0.0
 11
39.1322012021
 21
147.663176196
 31
0.0
  0
LINE
  5
1C3
330
1F
100
AcDbEntity
  8
0
  6
Continuous
 62
     7
370
    25
100
AcDbLine
 10
39.1075870482
 20
159.663176196
 30
0.0
 11
-130.6098256346
 21
159.663176196
 31
0.0
  0
LWPOLYLINE
  5
1C4
330
1F
100
AcDbEntity
  8
0
  6
Continuous
 62
     7
370
    25
100
AcDbPolyline
 90
        9
 70
   128
 43
0.0
 10
-128.6641172271
 20
162.663176196
 10
-129.0437061069
 20
162.6055320372
 10
-129.4087075989
 20
162.4348147936
 10
-129.7450949005
 20
162.1575850329
 10
-130.0399408363
 20
161.7844965396
 10
-130.2819146424
 20
161.3298868951
 10
-130.4617174011
 20
160.8112264931
 10
-130.5724393932
 20
160.2484471621
 10
-130.6098256346
 20
159.663176196
  0
LINE
  5
1C5
330
1F
100
AcDbEntity
  8
0
  6
Continuous
 62
     7
370
    25
100
AcDbLine
 10
-128.6641172271
 20
162.663176196
 30
0.0
 11
39.1322012021
 21
162.663176196
 31
0.0
  0
LWPOLYLINE
  5
1C6
330
1F
100
AcDbEntity
  8
0
  6
Continuous
 62
     7
370
    25
100
AcDbPolyline
 90
        9
 70
   128
 43
0.0
 10
-128.6641172271
 20
147.663176196
 10
-129.0437061069
 20
147.7208203548
 10
-129.4087075989
 20
147.8915375985
 10
-129.7450949005
 20
148.1687673591
 10
-130.0399408363
 20
148.5418558525
 10
-130.2819146424
 20
148.996465497
 10
-130.4617174011
 20
149.5151258989
 10
-130.5724393932
 20
150.07790523
 10
-130.6098256346
 20
150.663176196
  0
LINE
  5
1C7
330
1F
100
AcDbEntity
  8
0
  6
Continuous
 62
     7
370
    25
100
AcDbLine
 10
-130.6098256346
 20
150.663176196
 30
0.0
 11
39.1075870482
 21
150.663176196
 31
0.0
  0
LINE
  5
1C8
330
1F
100
AcDbEntity
  8
0
  6
Continuous
 62
     7
370
    25
100
AcDbLine
 10
39.1322012021
 20
147.663176196
 30
0.0
 11
-128.6641172271
 21
147.663176196
 31
0.0
  0
LINE
  5
1C9
330
1F
100
AcDbEntity
  8
0
  6
Continuous
 62
     7
370
    25
100
AcDbLine
 10
-130.6098256346
 20
150.663176196
 30
0.0
 11
-130.6098256346
 21
159.663176196
 31
0.0
  0
LINE
  5
1CA
330
1F
100
AcDbEntity
  8
0
  6
Continuous
 62
     7
370
    25
100
AcDbLine
 10
85.7511394661
 20
150.663176196
 30
0.0
 11
87.902117149
 21
150.663176196
 31
0.0
  0
LINE
  5
1CB
330
1F
100
AcDbEntity
  8
0
  6
Continuous
 62
     7
370
    25
100
AcDbLine
 10
87.902117149
 20
159.663176196
 30
0.0
 11
85.7511394661
 21
159.663176196
 31
0.0
  0
LINE
  5
1CC
330
1F
100
AcDbEntity
  8
0
  6
Continuous
 62
     7
370
    25
100
AcDbLine
 10
87.902117149
 20
150.663176196
 30
0.0
 11
87.902117149
 21
159.663176196
 31
0.0
  0
LWPOLYLINE
  5
1CD
330
1F
100
AcDbEntity
  8
0
  6
Continuous
 62
     7
370
    25
100
AcDbPolyline
 90
        7
 70
   128
 43
0.0
 10
87.2806682827
 20
162.663176196
 10
87.3229356235
 20
162.6562127458
 10
87.4169472697
 20
162.5900007946
 10
87.6098591565
 20
162.2070258944
 10
87.7657718503
 20
161.5372521682
 10
87.8670297987
 20
160.656191669
 10
87.902117149
 20
159.663176196
  0
LINE
  5
1CE
330
1F
100
AcDbEntity
  8
0
  6
Continuous
 62
     7
370
    25
100
AcDbLine
 10
82.9718291478
 20
162.663176196
 30
0.0
 11
87.2806682827
 21
162.663176196
 31
0.0
  0
LWPOLYLINE
  5
1CF
330
1F
100
AcDbEntity
  8
0
  6
Continuous
 62
     7
370
    25
100
AcDbPolyline
 90
        7
 70
   128
 43
0.0
 10
87.902117149
 20
150.663176196
 10
87.8670297987
 20
149.6701607231
 10
87.7657718503
 20
148.7891002239
 10
87.6098591565
 20
148.1193264977
 10
87.4169472697
 20
147.7363515975
 10
87.3229356235
 20
147.6701396463
 10
87.2806682827
 20
147.663176196
  0
LINE
  5
1D0
330
1F
100
AcDbEntity
  8
0
  6
Continuous
 62
     7
370
    25
100
AcDbLine
 10
87.2806682827
 20
147.663176196
 30
0.0
 11
82.9718291478
 21
147.663176196
 31
0.0
  0
LINE
  5
1D1
330
1F
100
AcDbEntity
  8
0
  6
Continuous
 62
     7
370
    25
100
AcDbLine
 10
87.902117149
 20
150.663176196
 30
0.0
 11
110.4866687464
 21
150.663176196
 31
0.0
  0
LWPOLYLINE
  5
1D2
330
1F
100
AcDbEntity
  8
0
  6
Continuous
 62
     7
370
    25
100
AcDbPolyline
 90
        9
 70
   128
 43
0.0
 10
110.4866687464
 20
150.663176196
 10
110.453077229
 20
150.07790523
 10
110.3535935799
 20
149.5151258989
 10
110.1920409
 20
148.996465497
 10
109.9746275682
 20
148.5418558525
 10
109.7097086569
 20
148.1687673591
 10
109.4074648513
 20
147.8915375985
 10
109.0795112113
 20
147.7208203548
 10
108.7384508114
 20
147.663176196
  0
LINE
  5
1D3
330
1F
100
AcDbEntity
  8
0
  6
Continuous
 62
     7
370
    25
100
AcDbLine
 10
108.7384508114
 20
147.663176196
 30
0.0
 11
87.2806682827
 21
147.663176196
 31
0.0
  0
LWPOLYLINE
  5
1D4
330
1F
100
AcDbEntity
  8
0
  6
Continuous
 62
     7
370
    25
100
AcDbPolyline
 90
        9
 70
   128
 43
0.0
 10
108.7384508114
 20
162.663176196
 10
109.0795112113
 20
162.6055320372
 10
109.4074648513
 20
162.4348147936
 10
109.7097086569
 20
162.1575850329
 10
109.9746275682
 20
161.7844965396
 10
110.1920409
 20
161.3298868951
 10
110.3535935799
 20
160.8112264931
 10
110.453077229
 20
160.2484471621
 10
110.4866687464
 20
159.663176196
  0
LINE
  5
1D5
330
1F
100
AcDbEntity
  8
0
  6
Continuous
 62
     7
370
    25
100
AcDbLine
 10
110.4866687464
 20
159.663176196
 30
0.0
 11
87.902117149
 21
159.663176196
 31
0.0
  0
LINE
  5
1D6
330
1F
100
AcDbEntity
  8
0
  6
Continuous
 62
     7
370
    25
100
AcDbLine
 10
87.2806682827
 20
162.663176196
 30
0.0
 11
108.7384508114
 21
162.663176196
 31
0.0
  0
LINE
  5
1D7
330
1F
100
AcDbEntity
  8
0
  6
Continuous
 62
     7
370
    25
100
AcDbLine
 10
110.4866687464
 20
150.663176196
 30
0.0
 11
110.4866687464
 21
159.663176196
 31
0.0
  0
LINE
  5
1D8
330
1F
100
AcDbEntity
  8
0
  6
Continuous
 62
     7
370
    25
100
AcDbLine
 10
110.4866687464
 20
150.663176196
 30
0.0
 11
150.6418535819
 21
150.663176196
 31
0.0
  0
LINE
  5
1D9
330
1F
100
AcDbEntity
  8
0
  6
Continuous
 62
     7
370
    25
100
AcDbLine
 10
150.6418535819
 20
159.663176196
 30
0.0
 11
110.4866687464
 21
159.663176196
 31
0.0
  0
LINE
  5
1DA
330
1F
100
AcDbEntity
  8
0
  6
Continuous
 62
     7
370
    25
100
AcDbLine
 10
150.6418535819
 20
150.663176196
 30
0.0
 11
150.6418535819
 21
159.663176196
 31
0.0
  0
ARC
  5
1DB
330
1F
100
AcDbEntity
  8
0
  6
Continuous
 62
     7
370
    25
100
AcDbCircle
 10
147.7921884343
 20
150.5118250035
 30
0.0
 40
2.853681593444569
100
AcDbArc
 50
273.4033212888
 51
3.0402324021
  0
LINE
  5
1DC
330
1F
100
AcDbEntity
  8
0
  6
Continuous
 62
     7
370
    25
100
AcDbLine
 10
147.96159507
 20
147.663176196
 30
0.0
 11
108.7384508114
 21
147.663176196
 31
0.0
  0
ARC
  5
1DD
330
1F
100
AcDbEntity
  8
0
  6
Continuous
 62
     7
370
    25
100
AcDbCircle
 10
147.7921884343
 20
159.8145273885
 30
0.0
 40
2.853681593444592
100
AcDbArc
 50
356.9597675979
 51
86.5966787112
  0
LINE
  5
1DE
330
1F
100
AcDbEntity
  8
0
  6
Continuous
 62
     7
370
    25
100
AcDbLine
 10
108.7384508114
 20
162.663176196
 30
0.0
 11
147.96159507
 21
162.663176196
 31
0.0
  0
LINE
  5
1DF
330
1F
100
AcDbEntity
  8
0
  6
Continuous
 62
     7
370
    25
100
AcDbLine
 10
-130.6098256346
 20
159.663176196
 30
0.0
 11
-132.4183373848
 21
159.663176196
 31
0.0
  0
ARC
  5
1E0
330
1F
100
AcDbEntity
  8
0
  6
Continuous
 62
     7
370
    25
100
AcDbCircle
 10
-115.9156234119
 20
160.4116076191
 30
0.0
 40
16.51967669378357
100
AcDbArc
 50
172.166422507
 51
182.5967000423
  0
LINE
  5
1E1
330
1F
100
AcDbEntity
  8
0
  6
Continuous
 62
     7
370
    25
100
AcDbLine
 10
-132.2811407276
 20
162.663176196
 30
0.0
 11
-128.6641172271
 21
162.663176196
 31
0.0
  0
LINE
  5
1E2
330
1F
100
AcDbEntity
  8
0
  6
Continuous
 62
     7
370
    25
100
AcDbLine
 10
-132.4183373848
 20
150.663176196
 30
0.0
 11
-130.6098256346
 21
150.663176196
 31
0.0
  0
LINE
  5
1E3
330
1F
100
AcDbEntity
  8
0
  6
Continuous
 62
     7
370
    25
100
AcDbLine
 10
-132.4183373848
 20
150.663176196
 30
0.0
 11
-132.4183373848
 21
159.663176196
 31
0.0
  0
ARC
  5
1E4
330
1F
100
AcDbEntity
  8
0
  6
Continuous
 62
     7
370
    25
100
AcDbCircle
 10
-115.9156234119
 20
149.9147447729
 30
0.0
 40
16.51967669378353
100
AcDbArc
 50
177.4032999577
 51
187.833577493
  0
LINE
  5
1E5
330
1F
100
AcDbEntity
  8
0
  6
Continuous
 62
     7
370
    25
100
AcDbLine
 10
-128.6641172271
 20
147.663176196
 30
0.0
 11
-132.2811407276
 21
147.663176196
 31
0.0
  0
LINE
  5
1E6
330
1F
100
AcDbEntity
  8
0
  6
Continuous
 62
     7
370
    25
100
AcDbLine
 10
-140.6099232599
 20
150.663176196
 30
0.0
 11
-132.4183373848
 21
150.663176196
 31
0.0
  0
LINE
  5
1E7
330
1F
100
AcDbEntity
  8
0
  6
Continuous
 62
     7
370
    25
100
AcDbLine
 10
-140.6099232599
 20
150.663176196
 30
0.0
 11
-140.6099232599
 21
159.663176196
 31
0.0
  0
LINE
  5
1E8
330
1F
100
AcDbEntity
  8
0
  6
Continuous
 62
     7
370
    25
100
AcDbLine
 10
-132.4183373848
 20
159.663176196
 30
0.0
 11
-140.6099232599
 21
159.663176196
 31
0.0
  0
ARC
  5
1E9
330
1F
100
AcDbEntity
  8
0
  6
Continuous
 62
     7
370
    25
100
AcDbCircle
 10
-133.9398038066
 20
160.4028981226
 30
0.0
 40
6.711011998923732
100
AcDbArc
 50
160.3178840436
 51
186.3282913941
  0
LINE
  5
1EA
330
1F
100
AcDbEntity
  8
0
  6
Continuous
 62
     7
370
    25
100
AcDbLine
 10
-140.2587297502
 20
162.663176196
 30
0.0
 11
-132.2811407276
 21
162.663176196
 31
0.0
  0
ARC
  5
1EB
330
1F
100
AcDbEntity
  8
0
  6
Continuous
 62
     7
370
    25
100
AcDbCircle
 10
-133.9398038066
 20
149.9234542695
 30
0.0
 40
6.711011998923625
100
AcDbArc
 50
173.6717086059
 51
199.6821159564
  0
LINE
  5
1EC
330
1F
100
AcDbEntity
  8
0
  6
Continuous
 62
     7
370
    25
100
AcDbLine
 10
-132.2811407276
 20
147.663176196
 30
0.0
 11
-140.2587297502
 21
147.663176196
 31
0.0
  0
LINE
  5
1ED
330
1F
100
AcDbEntity
  8
0
  6
Continuous
 62
     7
370
    25
100
AcDbLine
 10
-140.6099232599
 20
159.663176196
 30
0.0
 11
-157.999915593
 21
159.663176196
 31
0.0
  0
ARC
  5
1EE
330
1F
100
AcDbEntity
  8
0
  6
Continuous
 62
     7
370
    25
100
AcDbCircle
 10
-155.0199321771
 20
159.683194624
 30
0.0
 40
2.98005065332501
100
AcDbArc
 50
90.3901278875
 51
180.3848860966
  0
LINE
  5
1EF
330
1F
100
AcDbEntity
  8
0
  6
Continuous
 62
     7
370
    25
100
AcDbLine
 10
-155.0402232333
 20
162.663176196
 30
0.0
 11
-140.2587297502
 21
162.663176196
 31
0.0
  0
LINE
  5
1F0
330
1F
100
AcDbEntity
  8
0
  6
Continuous
 62
     7
370
    25
100
AcDbLine
 10
-157.999915593
 20
150.663176196
 30
0.0
 11
-140.6099232599
 21
150.663176196
 31
0.0
  0
LINE
  5
1F1
330
1F
100
AcDbEntity
  8
0
  6
Continuous
 62
     7
370
    25
100
AcDbLine
 10
-157.999915593
 20
150.663176196
 30
0.0
 11
-157.999915593
 21
159.663176196
 31
0.0
  0
ARC
  5
1F2
330
1F
100
AcDbEntity
  8
0
  6
Continuous
 62
     7
370
    25
100
AcDbCircle
 10
-155.0199321771
 20
150.643157768
 30
0.0
 40
2.98005065332501
100
AcDbArc
 50
179.6151139034
 51
269.6098721125
  0
LINE
  5
1F3
330
1F
100
AcDbEntity
  8
0
  6
Continuous
 62
     7
370
    25
100
AcDbLine
 10
-140.2587297502
 20
147.663176196
 30
0.0
 11
-155.0402232333
 21
147.663176196
 31
0.0
  0
LINE
  5
1F4
330
1F
100
AcDbEntity
  8
0
  6
Continuous
 62
     7
370
    25
100
AcDbLine
 10
147.96159507
 20
162.663176196
 30
0.0
 11
154.72833878
 21
162.663176196
 31
0.0
  0
LINE
  5
1F5
330
1F
100
AcDbEntity
  8
0
  6
Continuous
 62
     7
370
    25
100
AcDbLine
 10
154.72833878
 20
147.663176196
 30
0.0
 11
147.96159507
 21
147.663176196
 31
0.0
  0
LINE
  5
1F6
330
1F
100
AcDbEntity
  8
0
  6
Continuous
 62
     7
370
    25
100
AcDbLine
 10
-156.4231082497
 20
162.663176196
 30
0.0
 11
-155.0402232333
 21
162.663176196
 31
0.0
  0
LINE
  5
1F7
330
1F
100
AcDbEntity
  8
0
  6
Continuous
 62
     7
370
    25
100
AcDbLine
 10
-155.0402232333
 20
147.663176196
 30
0.0
 11
-156.4231082497
 21
147.663176196
 31
0.0
  0
ARC
  5
1F8
330
1F
100
AcDbEntity
  8
0
  6
Continuous
 62
     7
370
    25
100
AcDbCircle
 10
-156.5477177101
 20
159.7646432135
 30
0.0
 40
2.900586114980611
100
AcDbArc
 50
92.1559011661
 51
182.0047045597
  0
LINE
  5
1F9
330
1F
100
AcDbEntity
  8
0
  6
Continuous
 62
     7
370
    25
100
AcDbLine
 10
-156.6568339752
 20
162.663176196
 30
0.0
 11
-156.4231082497
 21
162.663176196
 31
0.0
  0
ARC
  5
1FA
330
1F
100
AcDbEntity
  8
0
  6
Continuous
 62
     7
370
    25
100
AcDbCircle
 10
-156.5477177101
 20
150.5617091786
 30
0.0
 40
2.900586114980611
100
AcDbArc
 50
177.9952954403
 51
267.8440988339
  0
LINE
  5
1FB
330
1F
100
AcDbEntity
  8
0
  6
Continuous
 62
     7
370
    25
100
AcDbLine
 10
-156.4231082497
 20
147.663176196
 30
0.0
 11
-156.6568339752
 21
147.663176196
 31
0.0
  0
LINE
  5
1FC
330
1F
100
AcDbEntity
  8
0
  6
Continuous
 62
     7
370
    25
100
AcDbLine
 10
-159.4465285447
 20
150.663176196
 30
0.0
 11
-159.4465285447
 21
159.663176196
 31
0.0
  0
LINE
  5
1FD
330
1F
100
AcDbEntity
  8
0
  6
Continuous
 62
     7
370
    25
100
AcDbLine
 10
-156.6568339752
 20
147.663176196
 30
0.0
 11
-162.4789537198
 21
147.663176196
 31
0.0
  0
LINE
  5
1FE
330
1F
100
AcDbEntity
  8
0
  6
Continuous
 62
     7
370
    25
100
AcDbLine
 10
-162.4789537198
 20
162.663176196
 30
0.0
 11
-156.6568339752
 21
162.663176196
 31
0.0
  0
ARC
  5
1FF
330
1F
100
AcDbEntity
  8
0
  6
Continuous
 62
     7
370
    25
100
AcDbCircle
 10
164.7333683243
 20
149.9438666558
 30
0.0
 40
4.224416549665213
100
AcDbArc
 50
170.1962326067
 51
212.6756709555
  0
LINE
  5
200
330
1F
100
AcDbEntity
  8
0
  6
Continuous
 62
     7
370
    25
100
AcDbLine
 10
161.1775074986
 20
147.663176196
 30
0.0
 11
154.72833878
 21
147.663176196
 31
0.0
  0
ARC
  5
201
330
1F
100
AcDbEntity
  8
0
  6
Continuous
 62
     7
370
    25
100
AcDbCircle
 10
164.7333683243
 20
160.3824857362
 30
0.0
 40
4.224416549698553
100
AcDbArc
 50
147.3243290447
 51
189.8037673931
  0
LINE
  5
202
330
1F
100
AcDbEntity
  8
0
  6
Continuous
 62
     7
370
    25
100
AcDbLine
 10
154.72833878
 20
162.663176196
 30
0.0
 11
161.1775074986
 21
162.663176196
 31
0.0
  0
LINE
  5
203
330
1F
100
AcDbEntity
  8
0
  6
Continuous
 62
     7
370
    25
100
AcDbLine
 10
160.5706421778
 20
150.663176196
 30
0.0
 11
160.5706421778
 21
159.663176196
 31
0.0
  0
LINE
  5
204
330
1F
100
AcDbEntity
  8
0
  6
Continuous
 62
     7
370
    25
100
AcDbLine
 10
160.5706421778
 20
150.663176196
 30
0.0
 11
165.8499249259
 21
150.663176196
 31
0.0
  0
LINE
  5
205
330
1F
100
AcDbEntity
  8
0
  6
Continuous
 62
     7
370
    25
100
AcDbLine
 10
165.8499249259
 20
159.663176196
 30
0.0
 11
160.5706421778
 21
159.663176196
 31
0.0
  0
LINE
  5
206
330
1F
100
AcDbEntity
  8
0
  6
Continuous
 62
     7
370
    25
100
AcDbLine
 10
165.8499249259
 20
150.663176196
 30
0.0
 11
165.8499249259
 21
159.663176196
 31
0.0
  0
ARC
  5
207
330
1F
100
AcDbEntity
  8
0
  6
Continuous
 62
     7
370
    25
100
AcDbCircle
 10
153.5507732137
 20
160.4103232773
 30
0.0
 40
12.32182460515722
100
AcDbArc
 50
356.5236763384
 51
10.5348969961
  0
LINE
  5
208
330
1F
100
AcDbEntity
  8
0
  6
Continuous
 62
     7
370
    25
100
AcDbLine
 10
161.1775074986
 20
162.663176196
 30
0.0
 11
165.6648978344
 21
162.663176196
 31
0.0
  0
ARC
  5
209
330
1F
100
AcDbEntity
  8
0
  6
Continuous
 62
     7
370
    25
100
AcDbCircle
 10
153.5507732137
 20
149.9160291147
 30
0.0
 40
12.32182460515338
100
AcDbArc
 50
349.4651030039
 51
3.4763236616
  0
LINE
  5
20A
330
1F
100
AcDbEntity
  8
0
  6
Continuous
 62
     7
370
    25
100
AcDbLine
 10
165.6648978344
 20
147.663176196
 30
0.0
 11
161.1775074986
 21
147.663176196
 31
0.0
  0
LINE
  5
20B
330
1F
100
AcDbEntity
  8
0
  6
Continuous
 62
     7
370
    25
100
AcDbLine
 10
165.8499249259
 20
150.663176196
 30
0.0
 11
180.1182693945
 21
150.663176196
 31
0.0
  0
ARC
  5
20C
330
1F
100
AcDbEntity
  8
0
  6
Continuous
 62
     7
370
    25
100
AcDbCircle
 10
167.8191176823
 20
149.9160291147
 30
0.0
 40
12.32182460515303
100
AcDbArc
 50
349.4651030039
 51
3.4763236616
  0
LINE
  5
20D
330
1F
100
AcDbEntity
  8
0
  6
Continuous
 62
     7
370
    25
100
AcDbLine
 10
179.933242303
 20
147.663176196
 30
0.0
 11
165.6648978344
 21
147.663176196
 31
0.0
  0
ARC
  5
20E
330
1F
100
AcDbEntity
  8
0
  6
Continuous
 62
     7
370
    25
100
AcDbCircle
 10
167.8191176823
 20
160.4103232773
 30
0.0
 40
12.32182460515309
100
AcDbArc
 50
356.5236763384
 51
10.5348969961
  0
LINE
  5
20F
330
1F
100
AcDbEntity
  8
0
  6
Continuous
 62
     7
370
    25
100
AcDbLine
 10
180.1182693945
 20
159.663176196
 30
0.0
 11
165.8499249259
 21
159.663176196
 31
0.0
  0
LINE
  5
210
330
1F
100
AcDbEntity
  8
0
  6
Continuous
 62
     7
370
    25
100
AcDbLine
 10
165.6648978344
 20
162.663176196
 30
0.0
 11
179.933242303
 21
162.663176196
 31
0.0
  0
LINE
  5
211
330
1F
100
AcDbEntity
  8
0
  6
Continuous
 62
     7
370
    25
100
AcDbLine
 10
180.1182693945
 20
150.663176196
 30
0.0
 11
180.1182693945
 21
159.663176196
 31
0.0
  0
LINE
  5
212
330
1F
100
AcDbEntity
  8
0
  6
Continuous
 62
     7
370
    25
100
AcDbLine
 10
180.1182693945
 20
150.663176196
 30
0.0
 11
198.8847554516
 21
150.663176196
 31
0.0
  0
LINE
  5
213
330
1F
100
AcDbEntity
  8
0
  6
Continuous
 62
     7
370
    25
100
AcDbLine
 10
198.8847554516
 20
159.663176196
 30
0.0
 11
180.1182693945
 21
159.663176196
 31
0.0
  0
LINE
  5
214
330
1F
100
AcDbEntity
  8
0
  6
Continuous
 62
     7
370
    25
100
AcDbLine
 10
198.8847554516
 20
150.663176196
 30
0.0
 11
198.8847554516
 21
159.663176196
 31
0.0
  0
ARC
  5
215
330
1F
100
AcDbEntity
  8
0
  6
Continuous
 62
     7
370
    25
100
AcDbCircle
 10
195.8847554516
 20
150.663176196
 30
0.0
 40
3.000000000000028
100
AcDbArc
 50
270.0
 51
0.0
  0
LINE
  5
216
330
1F
100
AcDbEntity
  8
0
  6
Continuous
 62
     7
370
    25
100
AcDbLine
 10
195.8847554516
 20
147.663176196
 30
0.0
 11
179.933242303
 21
147.663176196
 31
0.0
  0
ARC
  5
217
330
1F
100
AcDbEntity
  8
0
  6
Continuous
 62
     7
370
    25
100
AcDbCircle
 10
195.8847554516
 20
159.663176196
 30
0.0
 40
3.0
100
AcDbArc
 50
0.0
 51
90.0
  0
LINE
  5
218
330
1F
100
AcDbEntity
  8
0
  6
Continuous
 62
     7
370
    25
100
AcDbLine
 10
179.933242303
 20
162.663176196
 30
0.0
 11
195.8847554516
 21
162.663176196
 31
0.0
  0
LINE
  5
219
330
1F
100
AcDbEntity
  8
0
  6
Continuous
 62
     7
370
    25
100
AcDbLine
 10
198.8847554516
 20
150.663176196
 30
0.0
 11
205.8847554516
 21
150.663176196
 31
0.0
  0
LINE
  5
21A
330
1F
100
AcDbEntity
  8
0
  6
Continuous
 62
     7
370
    25
100
AcDbLine
 10
205.8847554516
 20
159.663176196
 30
0.0
 11
198.8847554516
 21
159.663176196
 31
0.0
  0
LINE
  5
21B
330
1F
100
AcDbEntity
  8
0
  6
Continuous
 62
     7
370
    25
100
AcDbLine
 10
205.8847554516
 20
150.663176196
 30
0.0
 11
205.8847554516
 21
159.663176196
 31
0.0
  0
LINE
  5
21C
330
1F
100
AcDbEntity
  8
0
  6
Continuous
 62
     7
370
    25
100
AcDbLine
 10
205.8847554516
 20
162.663176196
 30
0.0
 11
205.8847554516
 21
159.663176196
 31
0.0
  0
LINE
  5
21D
330
1F
100
AcDbEntity
  8
0
  6
Continuous
 62
     7
370
    25
100
AcDbLine
 10
195.8847554516
 20
162.663176196
 30
0.0
 11
205.8847554516
 21
162.663176196
 31
0.0
  0
LINE
  5
21E
330
1F
100
AcDbEntity
  8
0
  6
Continuous
 62
     7
370
    25
100
AcDbLine
 10
205.8847554516
 20
150.663176196
 30
0.0
 11
205.8847554516
 21
147.663176196
 31
0.0
  0
LINE
  5
21F
330
1F
100
AcDbEntity
  8
0
  6
Continuous
 62
     7
370
    25
100
AcDbLine
 10
205.8847554516
 20
147.663176196
 30
0.0
 11
195.8847554516
 21
147.663176196
 31
0.0
  0
LINE
  5
220
330
1F
100
AcDbEntity
  8
0
  6
Continuous
 62
     7
370
    25
100
AcDbLine
 10
205.8847554516
 20
150.663176196
 30
0.0
 11
212.9489606646
 21
150.663176196
 31
0.0
  0
LINE
  5
221
330
1F
100
AcDbEntity
  8
0
  6
Continuous
 62
     7
370
    25
100
AcDbLine
 10
212.9489606646
 20
150.663176196
 30
0.0
 11
212.9489606646
 21
147.663176196
 31
0.0
  0
LINE
  5
222
330
1F
100
AcDbEntity
  8
0
  6
Continuous
 62
     7
370
    25
100
AcDbLine
 10
212.9489606646
 20
147.663176196
 30
0.0
 11
205.8847554516
 21
147.663176196
 31
0.0
  0
LINE
  5
223
330
1F
100
AcDbEntity
  8
0
  6
Continuous
 62
     7
370
    25
100
AcDbLine
 10
229.9489606645
 20
147.663176196
 30
0.0
 11
212.9489606646
 21
147.663176196
 31
0.0
  0
LINE
  5
224
330
1F
100
AcDbEntity
  8
0
  6
Continuous
 62
     7
370
    25
100
AcDbLine
 10
212.9489606646
 20
150.663176196
 30
0.0
 11
212.9489606646
 21
159.663176196
 31
0.0
  0
LINE
  5
225
330
1F
100
AcDbEntity
  8
0
  6
Continuous
 62
     7
370
    25
100
AcDbLine
 10
212.9489606646
 20
159.663176196
 30
0.0
 11
205.8847554516
 21
159.663176196
 31
0.0
  0
LINE
  5
226
330
1F
100
AcDbEntity
  8
0
  6
Continuous
 62
     7
370
    25
100
AcDbLine
 10
212.9489606646
 20
162.663176196
 30
0.0
 11
212.9489606646
 21
159.663176196
 31
0.0
  0
LINE
  5
227
330
1F
100
AcDbEntity
  8
0
  6
Continuous
 62
     7
370
    25
100
AcDbLine
 10
212.9489606646
 20
162.663176196
 30
0.0
 11
229.9489606645
 21
162.663176196
 31
0.0
  0
LINE
  5
228
330
1F
100
AcDbEntity
  8
0
  6
Continuous
 62
     7
370
    25
100
AcDbLine
 10
205.8847554516
 20
162.663176196
 30
0.0
 11
212.9489606646
 21
162.663176196
 31
0.0
  0
ARC
  5
229
330
1F
100
AcDbEntity
  8
0
  6
Continuous
 62
     7
370
    25
100
AcDbCircle
 10
230.4026404545
 20
160.4023425295
 30
0.0
 40
6.55252655318138
100
AcDbArc
 50
353.5228875898
 51
20.1837708357
  0
LINE
  5
22A
330
1F
100
AcDbEntity
  8
0
  6
Continuous
 62
     7
370
    25
100
AcDbLine
 10
229.9489606645
 20
162.663176196
 30
0.0
 11
236.5527815392
 21
162.663176196
 31
0.0
  0
ARC
  5
22B
330
1F
100
AcDbEntity
  8
0
  6
Continuous
 62
     7
370
    25
100
AcDbCircle
 10
230.4026404549
 20
149.9240098625
 30
0.0
 40
6.552526552776069
100
AcDbArc
 50
339.8162291634
 51
6.4771124111
  0
LINE
  5
22C
330
1F
100
AcDbEntity
  8
0
  6
Continuous
 62
     7
370
    25
100
AcDbLine
 10
236.5527815392
 20
147.663176196
 30
0.0
 11
229.9489606645
 21
147.663176196
 31
0.0
  0
LINE
  5
22D
330
1F
100
AcDbEntity
  8
0
  6
Continuous
 62
     7
370
    25
100
AcDbLine
 10
236.9133422109
 20
150.663176196
 30
0.0
 11
236.9133422109
 21
159.663176196
 31
0.0
  0
LINE
  5
22E
330
1F
100
AcDbEntity
  8
0
  6
Continuous
 62
     7
370
    25
100
AcDbLine
 10
236.9133422109
 20
150.663176196
 30
0.0
 11
245.1898377759
 21
150.663176196
 31
0.0
  0
ARC
  5
22F
330
1F
100
AcDbEntity
  8
0
  6
Continuous
 62
     7
370
    25
100
AcDbCircle
 10
238.6791360194
 20
149.9240098625
 30
0.0
 40
6.552526553168319
100
AcDbArc
 50
339.8162291645
 51
6.4771124105
  0
LINE
  5
230
330
1F
100
AcDbEntity
  8
0
  6
Continuous
 62
     7
370
    25
100
AcDbLine
 10
244.8292771042
 20
147.663176196
 30
0.0
 11
236.5527815392
 21
147.663176196
 31
0.0
  0
ARC
  5
231
330
1F
100
AcDbEntity
  8
0
  6
Continuous
 62
     7
370
    25
100
AcDbCircle
 10
238.6791360192
 20
160.4023425295
 30
0.0
 40
6.552526553429592
100
AcDbArc
 50
353.52288759
 51
20.1837708349
  0
LINE
  5
232
330
1F
100
AcDbEntity
  8
0
  6
Continuous
 62
     7
370
    25
100
AcDbLine
 10
245.1898377759
 20
159.663176196
 30
0.0
 11
236.9133422109
 21
159.663176196
 31
0.0
  0
LINE
  5
233
330
1F
100
AcDbEntity
  8
0
  6
Continuous
 62
     7
370
    25
100
AcDbLine
 10
236.5527815392
 20
162.663176196
 30
0.0
 11
244.8292771042
 21
162.663176196
 31
0.0
  0
LINE
  5
234
330
1F
100
AcDbEntity
  8
0
  6
Continuous
 62
     7
370
    25
100
AcDbLine
 10
245.1898377759
 20
150.663176196
 30
0.0
 11
245.1898377759
 21
159.663176196
 31
0.0
  0
LINE
  5
235
330
1F
100
AcDbEntity
  8
0
  6
Continuous
 62
     7
370
    25
100
AcDbLine
 10
259.7860999647
 20
147.663176196
 30
0.0
 11
244.8292771042
 21
147.663176196
 31
0.0
  0
LINE
  5
236
330
1F
100
AcDbEntity
  8
0
  6
Continuous
 62
     7
370
    25
100
AcDbLine
 10
244.8292771042
 20
162.663176196
 30
0.0
 11
259.7860999647
 21
162.663176196
 31
0.0
  0
LINE
  5
237
330
1F
100
AcDbEntity
  8
0
  6
Continuous
 62
     7
370
    25
100
AcDbLine
 10
162.006303545
 20
144.663176196
 30
0.0
 11
147.0655843816
 21
144.663176196
 31
0.0
  0
ARC
  5
238
330
1F
100
AcDbEntity
  8
0
  6
Continuous
 62
     7
370
    25
100
AcDbCircle
 10
149.8000639867
 20
144.9365450359
 30
0.0
 40
2.748110120228838
100
AcDbArc
 50
97.1682057607
 51
185.7089517253
  0
ARC
  5
239
330
1F
100
AcDbEntity
  8
0
  6
Continuous
 62
     7
370
    25
100
AcDbCircle
 10
159.3620951008
 20
145.0489404776
 30
0.0
 40
2.672199913452372
100
AcDbArc
 50
351.6996608076
 51
78.0444035695
  0
LINE
  5
23A
330
1F
100
AcDbEntity
  8
0
  6
Continuous
 62
     7
370
    25
100
AcDbLine
 10
147.0655843816
 20
135.663176196
 30
0.0
 11
162.006303545
 21
135.663176196
 31
0.0
  0
LINE
  5
23B
330
1F
100
AcDbEntity
  8
0
  6
Continuous
 62
     7
370
    25
100
AcDbLine
 10
147.0655843816
 20
135.663176196
 30
0.0
 11
147.0655843816
 21
144.663176196
 31
0.0
  0
LINE
  5
23C
330
1F
100
AcDbEntity
  8
0
  6
Continuous
 62
     7
370
    25
100
AcDbLine
 10
162.006303545
 20
135.663176196
 30
0.0
 11
162.006303545
 21
144.663176196
 31
0.0
  0
LINE
  5
23D
330
1F
100
AcDbEntity
  8
0
  6
Continuous
 62
     7
370
    25
100
AcDbLine
 10
159.9156508668
 20
132.663176196
 30
0.0
 11
149.4571474525
 21
132.663176196
 31
0.0
  0
ARC
  5
23E
330
1F
100
AcDbEntity
  8
0
  6
Continuous
 62
     7
370
    25
100
AcDbCircle
 10
149.8000639867
 20
135.3898073562
 30
0.0
 40
2.748110120228849
100
AcDbArc
 50
174.2910482747
 51
262.8317942393
  0
ARC
  5
23F
330
1F
100
AcDbEntity
  8
0
  6
Continuous
 62
     7
370
    25
100
AcDbCircle
 10
159.3620951008
 20
135.2774119144
 30
0.0
 40
2.672199913456121
100
AcDbArc
 50
281.9555964301
 51
8.3003391923
  0
LINE
  5
240
330
1F
100
AcDbEntity
  8
0
  6
Continuous
 62
     7
370
    25
100
AcDbLine
 10
162.006303545
 20
135.663176196
 30
0.0
 11
244.1120255296
 21
135.663176196
 31
0.0
  0
LINE
  5
241
330
1F
100
AcDbEntity
  8
0
  6
Continuous
 62
     7
370
    25
100
AcDbLine
 10
244.1120255296
 20
144.663176196
 30
0.0
 11
162.006303545
 21
144.663176196
 31
0.0
  0
LINE
  5
242
330
1F
100
AcDbEntity
  8
0
  6
Continuous
 62
     7
370
    25
100
AcDbLine
 10
244.1120255296
 20
135.663176196
 30
0.0
 11
244.1120255296
 21
144.663176196
 31
0.0
  0
ARC
  5
243
330
1F
100
AcDbEntity
  8
0
  6
Continuous
 62
     7
370
    25
100
AcDbCircle
 10
241.2222735096
 20
135.552561941
 30
0.0
 40
2.89186829759389
100
AcDbArc
 50
272.3742621951
 51
2.1921041193
  0
LINE
  5
244
330
1F
100
AcDbEntity
  8
0
  6
Continuous
 62
     7
370
    25
100
AcDbLine
 10
241.3420744578
 20
132.663176196
 30
0.0
 11
159.9156508668
 21
132.663176196
 31
0.0
  0
ARC
  5
245
330
1F
100
AcDbEntity
  8
0
  6
Continuous
 62
     7
370
    25
100
AcDbCircle
 10
241.2222735096
 20
144.773790451
 30
0.0
 40
2.891868297593771
100
AcDbArc
 50
357.8078958807
 51
87.6257378049
  0
LINE
  5
246
330
1F
100
AcDbEntity
  8
0
  6
Continuous
 62
     7
370
    25
100
AcDbLine
 10
149.4571474525
 20
132.663176196
 30
0.0
 11
138.8539990649
 21
132.663176196
 31
0.0
  0
LINE
  5
247
330
1F
100
AcDbEntity
  8
0
  6
Continuous
 62
     7
370
    25
100
AcDbLine
 10
241.8788552904
 20
132.663176196
 30
0.0
 11
241.3420744578
 21
132.663176196
 31
0.0
  0
LWPOLYLINE
  5
248
330
1F
100
AcDbEntity
  8
0
  6
Continuous
 62
     7
370
    25
100
AcDbPolyline
 90
        9
 70
   128
 43
0.0
 10
502.9150482937
 20
147.663176196
 10
502.6298534282
 20
147.6055320372
 10
502.3556184414
 20
147.4348147936
 10
502.1028820301
 20
147.1575850329
 10
501.8813567128
 20
146.7844965396
 10
501.6995555833
 20
146.3298868951
 10
501.564465157
 20
145.8112264931
 10
501.4812768832
 20
145.2484471621
 10
501.4531876407
 20
144.663176196
  0
LINE
  5
249
330
1F
100
AcDbEntity
  8
0
  6
Continuous
 62
     7
370
    25
100
AcDbLine
 10
501.4531876407
 20
144.663176196
 30
0.0
 11
501.4531876407
 21
135.663176196
 31
0.0
  0
LWPOLYLINE
  5
24A
330
1F
100
AcDbEntity
  8
0
  6
Continuous
 62
     7
370
    25
100
AcDbPolyline
 90
        9
 70
   128
 43
0.0
 10
501.4531876407
 20
135.663176196
 10
501.4812768832
 20
135.07790523
 10
501.564465157
 20
134.5151258989
 10
501.6995555833
 20
133.996465497
 10
501.8813567128
 20
133.5418558525
 10
502.1028820301
 20
133.1687673591
 10
502.3556184414
 20
132.8915375985
 10
502.6298534282
 20
132.7208203548
 10
502.9150482937
 20
132.663176196
  0
LINE
  5
24B
330
1F
100
AcDbEntity
  8
0
  6
Continuous
 62
     7
370
    25
100
AcDbLine
 10
520.3819588092
 20
132.663176196
 30
0.0
 11
502.9150482937
 21
132.663176196
 31
0.0
  0
LINE
  5
24C
330
1F
100
AcDbEntity
  8
0
  6
Continuous
 62
     7
370
    25
100
AcDbLine
 10
501.1173109124
 20
144.663176196
 30
0.0
 11
501.4531876407
 21
144.663176196
 31
0.0
  0
LWPOLYLINE
  5
24D
330
1F
100
AcDbEntity
  8
0
  6
Continuous
 62
     7
370
    25
100
AcDbPolyline
 90
        9
 70
   128
 43
0.0
 10
502.9150482937
 20
147.663176196
 10
502.5643271291
 20
147.6055320372
 10
502.2270839822
 20
147.4348147936
 10
501.9162789179
 20
147.1575850329
 10
501.6438560006
 20
146.7844965396
 10
501.4202842903
 20
146.3298868951
 10
501.2541555223
 20
145.8112264931
 10
501.1518539321
 20
145.2484471621
 10
501.1173109124
 20
144.663176196
  0
LWPOLYLINE
  5
24E
330
1F
100
AcDbEntity
  8
0
  6
Continuous
 62
     7
370
    25
100
AcDbPolyline
 90
        9
 70
   128
 43
0.0
 10
501.1173109124
 20
135.663176196
 10
501.1518539321
 20
135.07790523
 10
501.2541555223
 20
134.5151258989
 10
501.4202842903
 20
133.996465497
 10
501.6438560006
 20
133.5418558525
 10
501.9162789179
 20
133.1687673591
 10
502.2270839822
 20
132.8915375985
 10
502.5643271291
 20
132.7208203548
 10
502.9150482937
 20
132.663176196
  0
LINE
  5
24F
330
1F
100
AcDbEntity
  8
0
  6
Continuous
 62
     7
370
    25
100
AcDbLine
 10
501.1173109124
 20
135.663176196
 30
0.0
 11
501.4531876407
 21
135.663176196
 31
0.0
  0
LINE
  5
250
330
1F
100
AcDbEntity
  8
0
  6
Continuous
 62
     7
370
    25
100
AcDbLine
 10
501.1173109124
 20
135.663176196
 30
0.0
 11
501.1173109124
 21
144.663176196
 31
0.0
  0
LINE
  5
251
330
1F
100
AcDbEntity
  8
0
  6
Continuous
 62
     7
370
    25
100
AcDbLine
 10
502.9150482937
 20
132.663176196
 30
0.0
 11
447.0779480624
 21
132.663176196
 31
0.0
  0
LINE
  5
252
330
1F
100
AcDbEntity
  8
0
  6
Continuous
 62
     7
370
    25
100
AcDbLine
 10
138.8539990649
 20
132.663176196
 30
0.0
 11
129.2255180116
 21
132.663176196
 31
0.0
  0
LINE
  5
253
330
1F
100
AcDbEntity
  8
0
  6
Continuous
 62
     7
370
    25
100
AcDbLine
 10
162.006303545
 20
174.663176196
 30
0.0
 11
147.0655843816
 21
174.663176196
 31
0.0
  0
ARC
  5
254
330
1F
100
AcDbEntity
  8
0
  6
Continuous
 62
     7
370
    25
100
AcDbCircle
 10
149.8000639867
 20
174.9365450359
 30
0.0
 40
2.748110120228842
100
AcDbArc
 50
97.1682057607
 51
185.7089517253
  0
LINE
  5
255
330
1F
100
AcDbEntity
  8
0
  6
Continuous
 62
     7
370
    25
100
AcDbLine
 10
149.4571474525
 20
177.663176196
 30
0.0
 11
159.9156508669
 21
177.663176196
 31
0.0
  0
ARC
  5
256
330
1F
100
AcDbEntity
  8
0
  6
Continuous
 62
     7
370
    25
100
AcDbCircle
 10
159.3620951008
 20
175.0489404776
 30
0.0
 40
2.672199913452327
100
AcDbArc
 50
351.6996608076
 51
78.0444035696
  0
LINE
  5
257
330
1F
100
AcDbEntity
  8
0
  6
Continuous
 62
     7
370
    25
100
AcDbLine
 10
147.0655843816
 20
165.663176196
 30
0.0
 11
162.006303545
 21
165.663176196
 31
0.0
  0
LINE
  5
258
330
1F
100
AcDbEntity
  8
0
  6
Continuous
 62
     7
370
    25
100
AcDbLine
 10
147.0655843816
 20
165.663176196
 30
0.0
 11
147.0655843816
 21
174.663176196
 31
0.0
  0
LINE
  5
259
330
1F
100
AcDbEntity
  8
0
  6
Continuous
 62
     7
370
    25
100
AcDbLine
 10
162.006303545
 20
165.663176196
 30
0.0
 11
162.006303545
 21
174.663176196
 31
0.0
  0
ARC
  5
25A
330
1F
100
AcDbEntity
  8
0
  6
Continuous
 62
     7
370
    25
100
AcDbCircle
 10
149.8000639867
 20
165.3898073562
 30
0.0
 40
2.748110120228838
100
AcDbArc
 50
174.2910482747
 51
262.8317942393
  0
ARC
  5
25B
330
1F
100
AcDbEntity
  8
0
  6
Continuous
 62
     7
370
    25
100
AcDbCircle
 10
159.3620951008
 20
165.2774119144
 30
0.0
 40
2.672199913456121
100
AcDbArc
 50
281.9555964301
 51
8.3003391923
  0
LINE
  5
25C
330
1F
100
AcDbEntity
  8
0
  6
Continuous
 62
     7
370
    25
100
AcDbLine
 10
162.006303545
 20
165.663176196
 30
0.0
 11
244.1120255296
 21
165.663176196
 31
0.0
  0
ARC
  5
25D
330
1F
100
AcDbEntity
  8
0
  6
Continuous
 62
     7
370
    25
100
AcDbCircle
 10
241.2222735096
 20
165.552561941
 30
0.0
 40
2.89186829759383
100
AcDbArc
 50
272.3742621951
 51
2.1921041193
  0
LINE
  5
25E
330
1F
100
AcDbEntity
  8
0
  6
Continuous
 62
     7
370
    25
100
AcDbLine
 10
244.1120255296
 20
174.663176196
 30
0.0
 11
162.006303545
 21
174.663176196
 31
0.0
  0
LINE
  5
25F
330
1F
100
AcDbEntity
  8
0
  6
Continuous
 62
     7
370
    25
100
AcDbLine
 10
244.1120255296
 20
165.663176196
 30
0.0
 11
244.1120255296
 21
174.663176196
 31
0.0
  0
ARC
  5
260
330
1F
100
AcDbEntity
  8
0
  6
Continuous
 62
     7
370
    25
100
AcDbCircle
 10
241.2222735096
 20
174.773790451
 30
0.0
 40
2.891868297593742
100
AcDbArc
 50
357.8078958807
 51
87.6257378049
  0
LINE
  5
261
330
1F
100
AcDbEntity
  8
0
  6
Continuous
 62
     7
370
    25
100
AcDbLine
 10
159.9156508669
 20
177.663176196
 30
0.0
 11
241.3420744578
 21
177.663176196
 31
0.0
  0
LINE
  5
262
330
1F
100
AcDbEntity
  8
0
  6
Continuous
 62
     7
370
    25
100
AcDbLine
 10
138.8539990649
 20
177.663176196
 30
0.0
 11
149.4571474525
 21
177.663176196
 31
0.0
  0
LINE
  5
263
330
1F
100
AcDbEntity
  8
0
  6
Continuous
 62
     7
370
    25
100
AcDbLine
 10
241.3420744578
 20
177.663176196
 30
0.0
 11
241.8788552904
 21
177.663176196
 31
0.0
  0
LWPOLYLINE
  5
264
330
1F
100
AcDbEntity
  8
0
  6
Continuous
 62
     7
370
    25
100
AcDbPolyline
 90
        9
 70
   128
 43
0.0
 10
501.4531876407
 20
165.663176196
 10
501.4812768832
 20
165.07790523
 10
501.564465157
 20
164.5151258989
 10
501.6995555833
 20
163.996465497
 10
501.8813567128
 20
163.5418558525
 10
502.1028820301
 20
163.1687673591
 10
502.3556184414
 20
162.8915375985
 10
502.6298534282
 20
162.7208203548
 10
502.9150482937
 20
162.663176196
  0
LWPOLYLINE
  5
265
330
1F
100
AcDbEntity
  8
0
  6
Continuous
 62
     7
370
    25
100
AcDbPolyline
 90
        9
 70
   128
 43
0.0
 10
502.9150482937
 20
177.663176196
 10
502.6298534282
 20
177.6055320372
 10
502.3556184414
 20
177.4348147936
 10
502.1028820301
 20
177.1575850329
 10
501.8813567128
 20
176.7844965396
 10
501.6995555833
 20
176.3298868951
 10
501.564465157
 20
175.8112264931
 10
501.4812768832
 20
175.2484471621
 10
501.4531876407
 20
174.663176196
  0
LINE
  5
266
330
1F
100
AcDbEntity
  8
0
  6
Continuous
 62
     7
370
    25
100
AcDbLine
 10
502.9150482937
 20
177.663176196
 30
0.0
 11
520.3819588092
 21
177.663176196
 31
0.0
  0
LINE
  5
267
330
1F
100
AcDbEntity
  8
0
  6
Continuous
 62
     7
370
    25
100
AcDbLine
 10
501.4531876407
 20
174.663176196
 30
0.0
 11
501.4531876407
 21
165.663176196
 31
0.0
  0
LINE
  5
268
330
1F
100
AcDbEntity
  8
0
  6
Continuous
 62
     7
370
    25
100
AcDbLine
 10
501.1173109124
 20
174.663176196
 30
0.0
 11
501.4531876407
 21
174.663176196
 31
0.0
  0
LWPOLYLINE
  5
269
330
1F
100
AcDbEntity
  8
0
  6
Continuous
 62
     7
370
    25
100
AcDbPolyline
 90
        9
 70
   128
 43
0.0
 10
502.9150482937
 20
177.663176196
 10
502.5643271291
 20
177.6055320372
 10
502.2270839822
 20
177.4348147936
 10
501.9162789179
 20
177.1575850329
 10
501.6438560006
 20
176.7844965396
 10
501.4202842903
 20
176.3298868951
 10
501.2541555223
 20
175.8112264931
 10
501.1518539321
 20
175.2484471621
 10
501.1173109124
 20
174.663176196
  0
LWPOLYLINE
  5
26A
330
1F
100
AcDbEntity
  8
0
  6
Continuous
 62
     7
370
    25
100
AcDbPolyline
 90
        9
 70
   128
 43
0.0
 10
501.1173109124
 20
165.663176196
 10
501.1518539321
 20
165.07790523
 10
501.2541555223
 20
164.5151258989
 10
501.4202842903
 20
163.996465497
 10
501.6438560006
 20
163.5418558525
 10
501.9162789179
 20
163.1687673591
 10
502.2270839822
 20
162.8915375985
 10
502.5643271291
 20
162.7208203548
 10
502.9150482937
 20
162.663176196
  0
LINE
  5
26B
330
1F
100
AcDbEntity
  8
0
  6
Continuous
 62
     7
370
    25
100
AcDbLine
 10
501.1173109124
 20
165.663176196
 30
0.0
 11
501.4531876407
 21
165.663176196
 31
0.0
  0
LINE
  5
26C
330
1F
100
AcDbEntity
  8
0
  6
Continuous
 62
     7
370
    25
100
AcDbLine
 10
501.1173109124
 20
165.663176196
 30
0.0
 11
501.1173109124
 21
174.663176196
 31
0.0
  0
LINE
  5
26D
330
1F
100
AcDbEntity
  8
0
  6
Continuous
 62
     7
370
    25
100
AcDbLine
 10
447.0779480085
 20
177.663176196
 30
0.0
 11
502.9150482937
 21
177.663176196
 31
0.0
  0
LINE
  5
26E
330
1F
100
AcDbEntity
  8
0
  6
Continuous
 62
     7
370
    25
100
AcDbLine
 10
129.2255180116
 20
177.663176196
 30
0.0
 11
138.8539990649
 21
177.663176196
 31
0.0
  0
ARC
  5
26F
330
1F
100
AcDbEntity
  8
0
  6
Continuous
 62
     7
370
    25
100
AcDbCircle
 10
209.555254737
 20
330.1631144478
 30
0.0
 40
124.9999307039029
100
AcDbArc
 50
277.9281298636
 51
319.8727244278
  0
LWPOLYLINE
  5
270
330
1F
100
AcDbEntity
  8
0
  6
Continuous
 62
     7
370
    25
100
AcDbPolyline
 90
        7
 70
   128
 43
0.0
 10
305.1320367699
 20
249.6021970486
 10
305.2618647673
 20
249.493828481
 10
305.6367165322
 20
249.1809483804
 10
306.2143474663
 20
248.6988481531
 10
306.9296587447
 20
248.1018969351
 10
307.3499993812
 20
247.7511394745
 10
307.4353258407
 20
247.6799407641
  0
ARC
  5
271
330
1F
100
AcDbEntity
  8
0
  6
Continuous
 62
     7
370
    25
100
AcDbCircle
 10
209.555254737
 20
330.1631144478
 30
0.0
 40
127.9999307039029
100
AcDbArc
 50
277.928130342
 51
319.8792848399
  0
LINE
  5
272
330
1F
100
AcDbEntity
  8
0
  6
Continuous
 62
     7
370
    25
100
AcDbLine
 10
226.7965987699
 20
206.3579500486
 30
0.0
 11
227.2103923148
 21
203.3866246032
 31
0.0
  0
ARC
  5
273
330
1F
100
AcDbEntity
  8
0
  6
Continuous
 62
     7
370
    25
100
AcDbCircle
 10
354.0559104687
 20
209.1613805364
 30
0.0
 40
63.47444413198316
100
AcDbArc
 50
67.7246621443
 51
140.422626138
  0
LWPOLYLINE
  5
274
330
1F
100
AcDbEntity
  8
0
  6
Continuous
 62
     7
370
    25
100
AcDbPolyline
 90
        7
 70
   128
 43
0.0
 10
378.1163987699
 20
267.8989150486
 10
378.0478092338
 20
267.7443785474
 10
377.8498088128
 20
267.2982264412
 10
377.5447276169
 20
266.6106578705
 10
377.1668850844
 20
265.758876458
 10
376.9174174368
 20
265.1963514165
 10
376.8992906811
 20
265.1554728457
  0
ARC
  5
275
330
1F
100
AcDbEntity
  8
0
  6
Continuous
 62
     7
370
    25
100
AcDbCircle
 10
354.0559104687
 20
209.1613805364
 30
0.0
 40
60.47444413198315
100
AcDbArc
 50
67.8064786741
 51
140.4360199895
  0
ARC
  5
276
330
1F
100
AcDbEntity
  8
0
  6
Continuous
 62
     7
370
    25
100
AcDbCircle
 10
354.0559111481
 20
101.1649720608
 30
0.0
 40
60.47444433711905
100
AcDbArc
 50
219.5639792539
 51
292.1935205693
  0
LWPOLYLINE
  5
277
330
1F
100
AcDbEntity
  8
0
  6
Continuous
 62
     7
370
    25
100
AcDbPolyline
 90
        7
 70
   128
 43
0.0
 10
378.1163987699
 20
42.4274370486
 10
378.0478092348
 20
42.5819735503
 10
377.8498088167
 20
43.0281256576
 10
377.5447276253
 20
43.7156942302
 10
377.1668850983
 20
44.5674756453
 10
376.917417452
 20
45.1300006936
 10
376.8992906987
 20
45.1708792599
  0
ARC
  5
278
330
1F
100
AcDbEntity
  8
0
  6
Continuous
 62
     7
370
    25
100
AcDbCircle
 10
354.0559111481
 20
101.1649720608
 30
0.0
 40
63.47444433711908
100
AcDbArc
 50
219.5773731234
 51
292.2753371171
  0
LWPOLYLINE
  5
279
330
1F
100
AcDbEntity
  8
0
  6
Continuous
 62
     7
370
    25
100
AcDbPolyline
 90
        7
 70
   128
 43
0.0
 10
307.4353258534
 20
62.646412318
 10
307.3499994507
 20
62.5752136561
 10
306.9296587545
 20
62.2244561504
 10
306.2143474722
 20
61.627504937
 10
305.6367165349
 20
61.1454047135
 10
305.261864768
 20
60.8325246153
 10
305.1320367699
 20
60.7241560486
  0
ARC
  5
27A
330
1F
100
AcDbEntity
  8
0
  6
Continuous
 62
     7
370
    25
100
AcDbCircle
 10
209.555254737
 20
-19.8367613506
 30
0.0
 40
127.9999307039032
100
AcDbArc
 50
40.1207151513
 51
82.0718701364
  0
ARC
  5
27B
330
1F
100
AcDbEntity
  8
0
  6
Continuous
 62
     7
370
    25
100
AcDbCircle
 10
209.555254737
 20
-19.8367613506
 30
0.0
 40
124.9999307039031
100
AcDbArc
 50
40.1272755722
 51
82.0718701364
  0
LINE
  5
27C
330
1F
100
AcDbEntity
  8
0
  6
Continuous
 62
     7
370
    25
100
AcDbLine
 10
227.2103912561
 20
106.9397286414
 30
0.0
 11
226.7965987699
 21
103.9684030486
 31
0.0
  0
ARC
  5
27D
330
1F
100
AcDbEntity
  8
0
  6
Continuous
 62
     7
370
    25
100
AcDbCircle
 10
324.1196306426
 20
155.1631760486
 30
0.0
 40
124.9999912642761
100
AcDbArc
 50
295.5929116477
 51
64.4070883523
  0
ARC
  5
27E
330
1F
100
AcDbEntity
  8
0
  6
Continuous
 62
     7
370
    25
100
AcDbCircle
 10
324.1196306426
 20
155.1631760486
 30
0.0
 40
121.9999912642761
100
AcDbArc
 50
295.6339596125
 51
64.3660403967
  0
LINE
  5
27F
330
1F
100
AcDbEntity
  8
0
  6
Continuous
 62
     7
370
    25
100
AcDbLine
 10
212.5552187699
 20
123.7772405699
 30
0.0
 11
209.5552187699
 21
123.7772400486
 31
0.0
  0
LINE
  5
280
330
1F
100
AcDbEntity
  8
0
  6
Continuous
 62
     7
370
    25
100
AcDbLine
 10
209.5552187699
 20
123.7772400486
 30
0.0
 11
209.5552187699
 21
132.663176196
 31
0.0
  0
LINE
  5
281
330
1F
100
AcDbEntity
  8
0
  6
Continuous
 62
     7
370
    25
100
AcDbLine
 10
209.5552187699
 20
177.663176196
 30
0.0
 11
209.5552187699
 21
186.5491130486
 31
0.0
  0
LINE
  5
282
330
1F
100
AcDbEntity
  8
0
  6
Continuous
 62
     7
370
    25
100
AcDbLine
 10
212.5552187699
 20
186.5491130486
 30
0.0
 11
209.5552187699
 21
186.5491130486
 31
0.0
  0
ARC
  5
283
330
1F
100
AcDbEntity
  8
0
  6
Continuous
 62
     7
370
    25
100
AcDbCircle
 10
229.5552229832
 20
186.5491095731
 30
0.0
 40
17.00000421330672
100
AcDbArc
 50
97.9281502772
 51
179.9999882865
  0
ARC
  5
284
330
1F
100
AcDbEntity
  8
0
  6
Continuous
 62
     7
370
    25
100
AcDbCircle
 10
229.5552229832
 20
186.5491095731
 30
0.0
 40
20.0000042133067
100
AcDbArc
 50
97.9281502772
 51
179.9999900436
  0
ARC
  5
285
330
1F
100
AcDbEntity
  8
0
  6
Continuous
 62
     7
370
    25
100
AcDbCircle
 10
229.5552229832
 20
123.7772435241
 30
0.0
 40
17.0000042133067
100
AcDbArc
 50
180.0000099564
 51
262.0718461204
  0
CIRCLE
  5
286
330
1F
100
AcDbEntity
  8
0
  6
Continuous
 62
     7
370
    25
100
AcDbCircle
 10
359.5552187699
 20
140.163176196
 30
0.0
 40
4.700000000000017
  0
CIRCLE
  5
287
330
1F
100
AcDbEntity
  8
0
  6
Continuous
 62
     7
370
    25
100
AcDbCircle
 10
359.5552187699
 20
170.163176196
 30
0.0
 40
4.69999999999996
  0
CIRCLE
  5
288
330
1F
100
AcDbEntity
  8
0
  6
Continuous
 62
     7
370
    25
100
AcDbCircle
 10
269.5552187699
 20
155.163176196
 30
0.0
 40
4.699999999999989
  0
ARC
  5
289
330
1F
100
AcDbEntity
  8
0
  6
Continuous
 62
     7
370
    25
100
AcDbCircle
 10
229.5552229832
 20
123.7772435241
 30
0.0
 40
20.00000421330673
100
AcDbArc
 50
180.0000099564
 51
262.0718497228
  0
LINE
  5
28A
330
1F
100
AcDbEntity
  8
0
  6
Continuous
 62
     7
370
    25
100
AcDbLine
 10
35.6740527502
 20
141.663176196
 30
0.0
 11
23.5164862216
 21
141.663176196
 31
0.0
  0
LINE
  5
28B
330
1F
100
AcDbEntity
  8
0
  6
Continuous
 62
     7
370
    25
100
AcDbLine
 10
60.5164862216
 20
57.663176196
 30
0.0
 11
28.5164862216
 21
57.663176196
 31
0.0
  0
LINE
  5
28C
330
1F
100
AcDbEntity
  8
0
  6
Continuous
 62
     7
370
    25
100
AcDbLine
 10
23.5164862216
 20
168.663176196
 30
0.0
 11
35.6740527502
 21
168.663176196
 31
0.0
  0
LINE
  5
28D
330
1F
100
AcDbEntity
  8
0
  6
Continuous
 62
     7
370
    25
100
AcDbLine
 10
59.2961345632
 20
252.663176196
 30
0.0
 11
60.5164862216
 21
252.663176196
 31
0.0
  0
LINE
  5
28E
330
1F
100
AcDbEntity
  8
0
  6
Continuous
 62
     7
370
    25
100
AcDbLine
 10
28.5164862216
 20
252.663176196
 30
0.0
 11
59.2961345632
 21
252.663176196
 31
0.0
  0
LINE
  5
28F
330
1F
100
AcDbEntity
  8
0
  6
Continuous
 62
     7
370
    25
100
AcDbLine
 10
115.5653557223
 20
168.663176196
 30
0.0
 11
117.167067274
 21
168.663176196
 31
0.0
  0
LINE
  5
290
330
1F
100
AcDbEntity
  8
0
  6
Continuous
 62
     7
370
    25
100
AcDbLine
 10
75.167067274
 20
168.663176196
 30
0.0
 11
115.5653557223
 21
168.663176196
 31
0.0
  0
LINE
  5
291
330
1F
100
AcDbEntity
  8
0
  6
Continuous
 62
     7
370
    25
100
AcDbLine
 10
110.9467156156
 20
252.663176196
 30
0.0
 11
112.167067274
 21
252.663176196
 31
0.0
  0
LINE
  5
292
330
1F
100
AcDbEntity
  8
0
  6
Continuous
 62
     7
370
    25
100
AcDbLine
 10
80.167067274
 20
252.663176196
 30
0.0
 11
110.9467156156
 21
252.663176196
 31
0.0
  0
LINE
  5
293
330
1F
100
AcDbEntity
  8
0
  6
Continuous
 62
     7
370
    25
100
AcDbLine
 10
117.167067274
 20
141.663176196
 30
0.0
 11
75.167067274
 21
141.663176196
 31
0.0
  0
LINE
  5
294
330
1F
100
AcDbEntity
  8
0
  6
Continuous
 62
     7
370
    25
100
AcDbLine
 10
112.167067274
 20
57.663176196
 30
0.0
 11
80.167067274
 21
57.663176196
 31
0.0
  0
LINE
  5
295
330
1F
100
AcDbEntity
  8
0
  6
Continuous
 62
     7
370
    25
100
AcDbLine
 10
30.5164862216
 20
39.663176196
 30
0.0
 11
58.5164862216
 21
39.663176196
 31
0.0
  0
LINE
  5
296
330
1F
100
AcDbEntity
  8
0
  6
Continuous
 62
     7
370
    25
100
AcDbLine
 10
82.167067274
 20
39.663176196
 30
0.0
 11
110.167067274
 21
39.663176196
 31
0.0
  0
LINE
  5
297
330
1F
100
AcDbEntity
  8
0
  6
Continuous
 62
     7
370
    25
100
AcDbLine
 10
109.0992595729
 20
270.663176196
 30
0.0
 11
82.167067274
 21
270.663176196
 31
0.0
  0
LINE
  5
298
330
1F
100
AcDbEntity
  8
0
  6
Continuous
 62
     7
370
    25
100
AcDbLine
 10
110.167067274
 20
270.663176196
 30
0.0
 11
109.0992595729
 21
270.663176196
 31
0.0
  0
LINE
  5
299
330
1F
100
AcDbEntity
  8
0
  6
Continuous
 62
     7
370
    25
100
AcDbLine
 10
57.4486785205
 20
270.663176196
 30
0.0
 11
30.5164862216
 21
270.663176196
 31
0.0
  0
LINE
  5
29A
330
1F
100
AcDbEntity
  8
0
  6
Continuous
 62
     7
370
    25
100
AcDbLine
 10
58.5164862216
 20
270.663176196
 30
0.0
 11
57.4486785205
 21
270.663176196
 31
0.0
  0
LINE
  5
29B
330
1F
100
AcDbEntity
  8
0
  6
Continuous
 62
     7
370
    25
100
AcDbLine
 10
567.7866341344
 20
162.663176196
 30
0.0
 11
592.2837051784
 21
162.663176196
 31
0.0
  0
LWPOLYLINE
  5
29C
330
1F
100
AcDbEntity
  8
0
  6
Continuous
 62
     7
370
    25
100
AcDbPolyline
 90
        9
 70
   128
 43
0.0
 10
567.7866341344
 20
162.663176196
 10
567.5285271925
 20
162.6055320372
 10
567.2803391556
 20
162.4348147936
 10
567.0516077508
 20
162.1575850329
 10
566.8511229977
 20
161.7844965396
 10
566.686589413
 20
161.3298868951
 10
566.56432993
 20
160.8112264931
 10
566.4890429121
 20
160.2484471621
 10
566.4636215972
 20
159.663176196
  0
LINE
  5
29D
330
1F
100
AcDbEntity
  8
0
  6
Continuous
 62
     7
370
    25
100
AcDbLine
 10
566.4636215972
 20
150.663176196
 30
0.0
 11
566.4636215972
 21
159.663176196
 31
0.0
  0
LINE
  5
29E
330
1F
100
AcDbEntity
  8
0
  6
Continuous
 62
     7
370
    25
100
AcDbLine
 10
592.2837051784
 20
147.663176196
 30
0.0
 11
567.7866341344
 21
147.663176196
 31
0.0
  0
LWPOLYLINE
  5
29F
330
1F
100
AcDbEntity
  8
0
  6
Continuous
 62
     7
370
    25
100
AcDbPolyline
 90
        9
 70
   128
 43
0.0
 10
566.4636215972
 20
150.663176196
 10
566.4890429121
 20
150.07790523
 10
566.56432993
 20
149.5151258989
 10
566.686589413
 20
148.996465497
 10
566.8511229977
 20
148.5418558525
 10
567.0516077508
 20
148.1687673591
 10
567.2803391556
 20
147.8915375985
 10
567.5285271925
 20
147.7208203548
 10
567.7866341344
 20
147.663176196
  0
LINE
  5
2A0
330
1F
100
AcDbEntity
  8
0
  6
Continuous
 62
     7
370
    25
100
AcDbLine
 10
533.2151778
 20
162.663176196
 30
0.0
 11
567.7866341344
 21
162.663176196
 31
0.0
  0
LINE
  5
2A1
330
1F
100
AcDbEntity
  8
0
  6
Continuous
 62
     7
370
    25
100
AcDbLine
 10
566.4636215972
 20
159.663176196
 30
0.0
 11
531.3761059284
 21
159.663176196
 31
0.0
  0
LWPOLYLINE
  5
2A2
330
1F
100
AcDbEntity
  8
0
  6
Continuous
 62
     7
370
    25
100
AcDbPolyline
 90
        7
 70
   128
 43
0.0
 10
533.2151778
 20
162.663176196
 10
533.1485050771
 20
162.6612038399
 10
532.8114660536
 20
162.5899934449
 10
532.2403420488
 20
162.2070097024
 10
531.7791114122
 20
161.5372363531
 10
531.4797806912
 20
160.6561833139
 10
531.3761059284
 20
159.663176196
  0
LINE
  5
2A3
330
1F
100
AcDbEntity
  8
0
  6
Continuous
 62
     7
370
    25
100
AcDbLine
 10
531.3761059284
 20
150.663176196
 30
0.0
 11
566.4636215972
 21
150.663176196
 31
0.0
  0
LINE
  5
2A4
330
1F
100
AcDbEntity
  8
0
  6
Continuous
 62
     7
370
    25
100
AcDbLine
 10
531.3761059284
 20
150.663176196
 30
0.0
 11
531.3761059284
 21
159.663176196
 31
0.0
  0
LINE
  5
2A5
330
1F
100
AcDbEntity
  8
0
  6
Continuous
 62
     7
370
    25
100
AcDbLine
 10
567.7866341344
 20
147.663176196
 30
0.0
 11
533.2151778
 21
147.663176196
 31
0.0
  0
LWPOLYLINE
  5
2A6
330
1F
100
AcDbEntity
  8
0
  6
Continuous
 62
     7
370
    25
100
AcDbPolyline
 90
        7
 70
   128
 43
0.0
 10
531.3761059284
 20
150.663176196
 10
531.4797806912
 20
149.6701690782
 10
531.7791114122
 20
148.789116039
 10
532.2403420488
 20
148.1193426897
 10
532.8114660536
 20
147.7363589472
 10
533.1485050771
 20
147.6651485521
 10
533.2151778
 20
147.663176196
  0
LINE
  5
2A7
330
1F
100
AcDbEntity
  8
0
  6
Continuous
 62
     7
370
    25
100
AcDbLine
 10
464.7399719184
 20
150.663176196
 30
0.0
 11
486.4217211186
 21
150.663176196
 31
0.0
  0
LINE
  5
2A8
330
1F
100
AcDbEntity
  8
0
  6
Continuous
 62
     7
370
    25
100
AcDbLine
 10
464.7399719184
 20
150.663176196
 30
0.0
 11
464.7399719184
 21
159.663176196
 31
0.0
  0
LINE
  5
2A9
330
1F
100
AcDbEntity
  8
0
  6
Continuous
 62
     7
370
    25
100
AcDbLine
 10
486.4217211186
 20
159.663176196
 30
0.0
 11
464.7399719184
 21
159.663176196
 31
0.0
  0
LINE
  5
2AA
330
1F
100
AcDbEntity
  8
0
  6
Continuous
 62
     7
370
    25
100
AcDbLine
 10
486.4217211186
 20
150.663176196
 30
0.0
 11
486.4217211186
 21
159.663176196
 31
0.0
  0
LWPOLYLINE
  5
2AB
330
1F
100
AcDbEntity
  8
0
  6
Continuous
 62
     7
370
    25
100
AcDbPolyline
 90
        9
 70
   128
 43
0.0
 10
486.4217211186
 20
150.663176196
 10
486.4015661519
 20
150.07790523
 10
486.3418757957
 20
149.5151258989
 10
486.244943917
 20
148.996465497
 10
486.1144955535
 20
148.5418558525
 10
485.9555437627
 20
148.1687673591
 10
485.7741969728
 20
147.8915375985
 10
485.5774242391
 20
147.7208203548
 10
485.3727874276
 20
147.663176196
  0
ARC
  5
2AC
330
1F
100
AcDbEntity
  8
0
  6
Continuous
 62
     7
370
    25
100
AcDbCircle
 10
467.4136506179
 20
150.317730972
 30
0.0
 40
2.695902481742174
100
AcDbArc
 50
172.6380422127
 51
259.952271529
  0
LINE
  5
2AD
330
1F
100
AcDbEntity
  8
0
  6
Continuous
 62
     7
370
    25
100
AcDbLine
 10
485.3727874276
 20
147.663176196
 30
0.0
 11
466.9433006074
 21
147.663176196
 31
0.0
  0
LWPOLYLINE
  5
2AE
330
1F
100
AcDbEntity
  8
0
  6
Continuous
 62
     7
370
    25
100
AcDbPolyline
 90
        9
 70
   128
 43
0.0
 10
485.3727874276
 20
162.663176196
 10
485.5774242391
 20
162.6055320372
 10
485.7741969728
 20
162.4348147936
 10
485.9555437627
 20
162.1575850329
 10
486.1144955535
 20
161.7844965396
 10
486.244943917
 20
161.3298868951
 10
486.3418757957
 20
160.8112264931
 10
486.4015661519
 20
160.2484471621
 10
486.4217211186
 20
159.663176196
  0
ARC
  5
2AF
330
1F
100
AcDbEntity
  8
0
  6
Continuous
 62
     7
370
    25
100
AcDbCircle
 10
467.4136506179
 20
160.0086214201
 30
0.0
 40
2.695902481742602
100
AcDbArc
 50
100.047728471
 51
187.3619577873
  0
LINE
  5
2B0
330
1F
100
AcDbEntity
  8
0
  6
Continuous
 62
     7
370
    25
100
AcDbLine
 10
466.9433006074
 20
162.663176196
 30
0.0
 11
485.3727874276
 21
162.663176196
 31
0.0
  0
LINE
  5
2B1
330
1F
100
AcDbEntity
  8
0
  6
Continuous
 62
     7
370
    25
100
AcDbLine
 10
486.4217211186
 20
150.663176196
 30
0.0
 11
506.7281515844
 21
150.663176196
 31
0.0
  0
LINE
  5
2B2
330
1F
100
AcDbEntity
  8
0
  6
Continuous
 62
     7
370
    25
100
AcDbLine
 10
506.7281515844
 20
159.663176196
 30
0.0
 11
486.4217211186
 21
159.663176196
 31
0.0
  0
LINE
  5
2B3
330
1F
100
AcDbEntity
  8
0
  6
Continuous
 62
     7
370
    25
100
AcDbLine
 10
506.7281515844
 20
150.663176196
 30
0.0
 11
506.7281515844
 21
159.663176196
 31
0.0
  0
LWPOLYLINE
  5
2B4
330
1F
100
AcDbEntity
  8
0
  6
Continuous
 62
     7
370
    25
100
AcDbPolyline
 90
        9
 70
   128
 43
0.0
 10
505.6792178934
 20
162.663176196
 10
505.8838547049
 20
162.6055320372
 10
506.0806274386
 20
162.4348147936
 10
506.2619742285
 20
162.1575850329
 10
506.4209260193
 20
161.7844965396
 10
506.5513743828
 20
161.3298868951
 10
506.6483062615
 20
160.8112264931
 10
506.7079966177
 20
160.2484471621
 10
506.7281515844
 20
159.663176196
  0
LINE
  5
2B5
330
1F
100
AcDbEntity
  8
0
  6
Continuous
 62
     7
370
    25
100
AcDbLine
 10
485.3727874276
 20
162.663176196
 30
0.0
 11
505.6792178934
 21
162.663176196
 31
0.0
  0
LWPOLYLINE
  5
2B6
330
1F
100
AcDbEntity
  8
0
  6
Continuous
 62
     7
370
    25
100
AcDbPolyline
 90
        9
 70
   128
 43
0.0
 10
506.7281515844
 20
150.663176196
 10
506.7079966177
 20
150.07790523
 10
506.6483062615
 20
149.5151258989
 10
506.5513743828
 20
148.996465497
 10
506.4209260193
 20
148.5418558525
 10
506.2619742285
 20
148.1687673591
 10
506.0806274386
 20
147.8915375985
 10
505.8838547049
 20
147.7208203548
 10
505.6792178934
 20
147.663176196
  0
LINE
  5
2B7
330
1F
100
AcDbEntity
  8
0
  6
Continuous
 62
     7
370
    25
100
AcDbLine
 10
505.6792178934
 20
147.663176196
 30
0.0
 11
485.3727874276
 21
147.663176196
 31
0.0
  0
LINE
  5
2B8
330
1F
100
AcDbEntity
  8
0
  6
Continuous
 62
     7
370
    25
100
AcDbLine
 10
531.0815419175
 20
150.663176196
 30
0.0
 11
531.3761059284
 21
150.663176196
 31
0.0
  0
LWPOLYLINE
  5
2B9
330
1F
100
AcDbEntity
  8
0
  6
Continuous
 62
     7
370
    25
100
AcDbPolyline
 90
        7
 70
   128
 43
0.0
 10
531.0815419175
 20
150.663176196
 10
531.1754490993
 20
149.6720816108
 10
531.446533152
 20
148.7927385767
 10
531.864870777
 20
148.1229597052
 10
532.3847115642
 20
147.73794335
 10
532.7403409287
 20
147.6633224764
 10
532.7569132156
 20
147.663176196
  0
LINE
  5
2BA
330
1F
100
AcDbEntity
  8
0
  6
Continuous
 62
     7
370
    25
100
AcDbLine
 10
533.2151778
 20
147.663176196
 30
0.0
 11
532.7569132156
 21
147.663176196
 31
0.0
  0
LINE
  5
2BB
330
1F
100
AcDbEntity
  8
0
  6
Continuous
 62
     7
370
    25
100
AcDbLine
 10
531.3761059284
 20
159.663176196
 30
0.0
 11
531.0815419175
 21
159.663176196
 31
0.0
  0
LWPOLYLINE
  5
2BC
330
1F
100
AcDbEntity
  8
0
  6
Continuous
 62
     7
370
    25
100
AcDbPolyline
 90
        7
 70
   128
 43
0.0
 10
532.7569132156
 20
162.663176196
 10
532.7403409287
 20
162.6630299156
 10
532.3847115642
 20
162.5884090421
 10
531.864870777
 20
162.2033926868
 10
531.446533152
 20
161.5336138154
 10
531.1754490993
 20
160.6542707812
 10
531.0815419175
 20
159.663176196
  0
LINE
  5
2BD
330
1F
100
AcDbEntity
  8
0
  6
Continuous
 62
     7
370
    25
100
AcDbLine
 10
532.7569132156
 20
162.663176196
 30
0.0
 11
533.2151778
 21
162.663176196
 31
0.0
  0
LINE
  5
2BE
330
1F
100
AcDbEntity
  8
0
  6
Continuous
 62
     7
370
    25
100
AcDbLine
 10
531.0815419175
 20
150.663176196
 30
0.0
 11
531.0815419175
 21
159.663176196
 31
0.0
  0
LINE
  5
2BF
330
1F
100
AcDbEntity
  8
0
  6
Continuous
 62
     7
370
    25
100
AcDbLine
 10
531.0815419175
 20
159.663176196
 30
0.0
 11
507.2146029038
 21
159.663176196
 31
0.0
  0
LWPOLYLINE
  5
2C0
330
1F
100
AcDbEntity
  8
0
  6
Continuous
 62
     7
370
    25
100
AcDbPolyline
 90
        7
 70
   128
 43
0.0
 10
506.3312081061
 20
162.663176196
 10
506.3528381762
 20
162.6622808962
 10
506.5255657075
 20
162.5899515742
 10
506.8001090943
 20
162.2069048457
 10
507.0214760978
 20
161.5371253919
 10
507.1649480429
 20
160.656124781
 10
507.2146029038
 20
159.663176196
  0
LINE
  5
2C1
330
1F
100
AcDbEntity
  8
0
  6
Continuous
 62
     7
370
    25
100
AcDbLine
 10
506.3312081061
 20
162.663176196
 30
0.0
 11
532.7569132156
 21
162.663176196
 31
0.0
  0
LINE
  5
2C2
330
1F
100
AcDbEntity
  8
0
  6
Continuous
 62
     7
370
    25
100
AcDbLine
 10
507.2146029038
 20
150.663176196
 30
0.0
 11
531.0815419175
 21
150.663176196
 31
0.0
  0
LWPOLYLINE
  5
2C3
330
1F
100
AcDbEntity
  8
0
  6
Continuous
 62
     7
370
    25
100
AcDbPolyline
 90
        7
 70
   128
 43
0.0
 10
507.2146029038
 20
150.663176196
 10
507.1649480429
 20
149.6702276111
 10
507.0214760978
 20
148.7892270001
 10
506.8001090943
 20
148.1194475464
 10
506.5255657075
 20
147.7364008179
 10
506.3528381762
 20
147.6640714958
 10
506.3312081061
 20
147.663176196
  0
LINE
  5
2C4
330
1F
100
AcDbEntity
  8
0
  6
Continuous
 62
     7
370
    25
100
AcDbLine
 10
532.7569132156
 20
147.663176196
 30
0.0
 11
506.3312081061
 21
147.663176196
 31
0.0
  0
LINE
  5
2C5
330
1F
100
AcDbEntity
  8
0
  6
Continuous
 62
     7
370
    25
100
AcDbLine
 10
464.7399719184
 20
159.663176196
 30
0.0
 11
451.0154087986
 21
159.663176196
 31
0.0
  0
ARC
  5
2C6
330
1F
100
AcDbEntity
  8
0
  6
Continuous
 62
     7
370
    25
100
AcDbCircle
 10
453.6890874981
 20
160.0086214201
 30
0.0
 40
2.695902481740417
100
AcDbArc
 50
100.0477284709
 51
187.3619577873
  0
LINE
  5
2C7
330
1F
100
AcDbEntity
  8
0
  6
Continuous
 62
     7
370
    25
100
AcDbLine
 10
453.2187374876
 20
162.663176196
 30
0.0
 11
466.9433006074
 21
162.663176196
 31
0.0
  0
LINE
  5
2C8
330
1F
100
AcDbEntity
  8
0
  6
Continuous
 62
     7
370
    25
100
AcDbLine
 10
451.0154087986
 20
150.663176196
 30
0.0
 11
464.7399719184
 21
150.663176196
 31
0.0
  0
LINE
  5
2C9
330
1F
100
AcDbEntity
  8
0
  6
Continuous
 62
     7
370
    25
100
AcDbLine
 10
451.0154087986
 20
150.663176196
 30
0.0
 11
451.0154087986
 21
159.663176196
 31
0.0
  0
ARC
  5
2CA
330
1F
100
AcDbEntity
  8
0
  6
Continuous
 62
     7
370
    25
100
AcDbCircle
 10
453.6890874981
 20
150.317730972
 30
0.0
 40
2.695902481738933
100
AcDbArc
 50
172.6380422127
 51
259.952271529
  0
LINE
  5
2CB
330
1F
100
AcDbEntity
  8
0
  6
Continuous
 62
     7
370
    25
100
AcDbLine
 10
466.9433006074
 20
147.663176196
 30
0.0
 11
453.2187374876
 21
147.663176196
 31
0.0
  0
LINE
  5
2CC
330
1F
100
AcDbEntity
  8
0
  6
Continuous
 62
     7
370
    25
100
AcDbLine
 10
507.2146029038
 20
150.663176196
 30
0.0
 11
507.2146029038
 21
159.663176196
 31
0.0
  0
LINE
  5
2CD
330
1F
100
AcDbEntity
  8
0
  6
Continuous
 62
     7
370
    25
100
AcDbLine
 10
506.7281515844
 20
150.663176196
 30
0.0
 11
507.2146029038
 21
150.663176196
 31
0.0
  0
LINE
  5
2CE
330
1F
100
AcDbEntity
  8
0
  6
Continuous
 62
     7
370
    25
100
AcDbLine
 10
506.3312081061
 20
147.663176196
 30
0.0
 11
505.6792178934
 21
147.663176196
 31
0.0
  0
LINE
  5
2CF
330
1F
100
AcDbEntity
  8
0
  6
Continuous
 62
     7
370
    25
100
AcDbLine
 10
507.2146029038
 20
159.663176196
 30
0.0
 11
506.7281515844
 21
159.663176196
 31
0.0
  0
LINE
  5
2D0
330
1F
100
AcDbEntity
  8
0
  6
Continuous
 62
     7
370
    25
100
AcDbLine
 10
505.6792178934
 20
162.663176196
 30
0.0
 11
506.3312081061
 21
162.663176196
 31
0.0
  0
LINE
  5
2D1
330
1F
100
AcDbEntity
  8
0
  6
Continuous
 62
     7
370
    25
100
AcDbLine
 10
449.1565090729
 20
150.663176196
 30
0.0
 11
451.0154087986
 21
150.663176196
 31
0.0
  0
LINE
  5
2D2
330
1F
100
AcDbEntity
  8
0
  6
Continuous
 62
     7
370
    25
100
AcDbLine
 10
449.1565090729
 20
150.663176196
 30
0.0
 11
449.1565090729
 21
159.663176196
 31
0.0
  0
LINE
  5
2D3
330
1F
100
AcDbEntity
  8
0
  6
Continuous
 62
     7
370
    25
100
AcDbLine
 10
451.0154087986
 20
159.663176196
 30
0.0
 11
449.1565090729
 21
159.663176196
 31
0.0
  0
ARC
  5
2D4
330
1F
100
AcDbEntity
  8
0
  6
Continuous
 62
     7
370
    25
100
AcDbCircle
 10
452.1565090729
 20
159.663176196
 30
0.0
 40
3.0
100
AcDbArc
 50
89.9999999999
 51
180.0
  0
LINE
  5
2D5
330
1F
100
AcDbEntity
  8
0
  6
Continuous
 62
     7
370
    25
100
AcDbLine
 10
452.1565090729
 20
162.663176196
 30
0.0
 11
453.2187374876
 21
162.663176196
 31
0.0
  0
ARC
  5
2D6
330
1F
100
AcDbEntity
  8
0
  6
Continuous
 62
     7
370
    25
100
AcDbCircle
 10
452.1565090729
 20
150.663176196
 30
0.0
 40
3.000000000000028
100
AcDbArc
 50
179.9999999999
 51
270.0000000001
  0
LINE
  5
2D7
330
1F
100
AcDbEntity
  8
0
  6
Continuous
 62
     7
370
    25
100
AcDbLine
 10
453.2187374876
 20
147.663176196
 30
0.0
 11
452.1565090729
 21
147.663176196
 31
0.0
  0
LINE
  5
2D8
330
1F
100
AcDbEntity
  8
0
  6
Continuous
 62
     7
370
    25
100
AcDbLine
 10
448.894419017
 20
162.663176196
 30
0.0
 11
452.1565090729
 21
162.663176196
 31
0.0
  0
LINE
  5
2D9
330
1F
100
AcDbEntity
  8
0
  6
Continuous
 62
     7
370
    25
100
AcDbLine
 10
452.1565090729
 20
147.663176196
 30
0.0
 11
448.8944190347
 21
147.663176196
 31
0.0
  0
LINE
  5
2DA
330
1F
100
AcDbEntity
  8
0
  6
Continuous
 62
     8
370
    25
100
AcDbLine
 10
157.72833878
 20
159.663176196
 30
0.0
 11
150.6418535819
 21
159.663176196
 31
0.0
  0
LINE
  5
2DB
330
1F
100
AcDbEntity
  8
0
  6
Continuous
 62
     8
370
    25
100
AcDbLine
 10
150.6418535819
 20
150.663176196
 30
0.0
 11
157.72833878
 21
150.663176196
 31
0.0
  0
LINE
  5
2DC
330
1F
100
AcDbEntity
  8
0
  6
Continuous
 62
     8
370
    25
100
AcDbLine
 10
-157.999915593
 20
159.663176196
 30
0.0
 11
-159.4231082497
 21
159.663176196
 31
0.0
  0
LINE
  5
2DD
330
1F
100
AcDbEntity
  8
0
  6
Continuous
 62
     8
370
    25
100
AcDbLine
 10
-159.4231082497
 20
150.663176196
 30
0.0
 11
-157.999915593
 21
150.663176196
 31
0.0
  0
LINE
  5
2DE
330
1F
100
AcDbEntity
  8
0
  6
Continuous
 62
     8
370
    25
100
AcDbLine
 10
-159.4231082497
 20
159.663176196
 30
0.0
 11
-159.4465285447
 21
159.663176196
 31
0.0
  0
LINE
  5
2DF
330
1F
100
AcDbEntity
  8
0
  6
Continuous
 62
     8
370
    25
100
AcDbLine
 10
-159.4465285447
 20
150.663176196
 30
0.0
 11
-159.4231082497
 21
150.663176196
 31
0.0
  0
LINE
  5
2E0
330
1F
100
AcDbEntity
  8
0
  6
Continuous
 62
     8
370
    25
100
AcDbLine
 10
-165.4789537198
 20
150.663176196
 30
0.0
 11
-159.4465285447
 21
150.663176196
 31
0.0
  0
LINE
  5
2E1
330
1F
100
AcDbEntity
  8
0
  6
Continuous
 62
     8
370
    25
100
AcDbLine
 10
-159.4465285447
 20
159.663176196
 30
0.0
 11
-165.4789537198
 21
159.663176196
 31
0.0
  0
LINE
  5
2E2
330
1F
100
AcDbEntity
  8
0
  6
Continuous
 62
     8
370
    25
100
AcDbLine
 10
157.72833878
 20
150.663176196
 30
0.0
 11
160.5706421778
 21
150.663176196
 31
0.0
  0
LINE
  5
2E3
330
1F
100
AcDbEntity
  8
0
  6
Continuous
 62
     8
370
    25
100
AcDbLine
 10
160.5706421778
 20
159.663176196
 30
0.0
 11
157.72833878
 21
159.663176196
 31
0.0
  0
LINE
  5
2E4
330
1F
100
AcDbEntity
  8
0
  6
Continuous
 62
     8
370
    25
100
AcDbLine
 10
212.9489606646
 20
150.663176196
 30
0.0
 11
232.9489606645
 21
150.663176196
 31
0.0
  0
LINE
  5
2E5
330
1F
100
AcDbEntity
  8
0
  6
Continuous
 62
     8
370
    25
100
AcDbLine
 10
232.9489606645
 20
159.663176196
 30
0.0
 11
212.9489606646
 21
159.663176196
 31
0.0
  0
LINE
  5
2E6
330
1F
100
AcDbEntity
  8
0
  6
Continuous
 62
     8
370
    25
100
AcDbLine
 10
236.9133422109
 20
159.663176196
 30
0.0
 11
232.9489606645
 21
159.663176196
 31
0.0
  0
LINE
  5
2E7
330
1F
100
AcDbEntity
  8
0
  6
Continuous
 62
     8
370
    25
100
AcDbLine
 10
232.9489606645
 20
150.663176196
 30
0.0
 11
236.9133422109
 21
150.663176196
 31
0.0
  0
LINE
  5
2E8
330
1F
100
AcDbEntity
  8
0
  6
Continuous
 62
     8
370
    25
100
AcDbLine
 10
245.1898377759
 20
150.663176196
 30
0.0
 11
262.7860999647
 21
150.663176196
 31
0.0
  0
LINE
  5
2E9
330
1F
100
AcDbEntity
  8
0
  6
Continuous
 62
     8
370
    25
100
AcDbLine
 10
262.7860999647
 20
159.663176196
 30
0.0
 11
245.1898377759
 21
159.663176196
 31
0.0
  0
LINE
  5
2EA
330
1F
100
AcDbEntity
  8
0
  6
Continuous
 62
     8
370
    25
100
AcDbLine
 10
135.8539990649
 20
135.663176196
 30
0.0
 11
147.0655843816
 21
135.663176196
 31
0.0
  0
LINE
  5
2EB
330
1F
100
AcDbEntity
  8
0
  6
Continuous
 62
     8
370
    25
100
AcDbLine
 10
147.0655843816
 20
144.663176196
 30
0.0
 11
135.8539990649
 21
144.663176196
 31
0.0
  0
LINE
  5
2EC
330
1F
100
AcDbEntity
  8
0
  6
Continuous
 62
     8
370
    25
100
AcDbLine
 10
244.1120255296
 20
135.663176196
 30
0.0
 11
244.8788552904
 21
135.663176196
 31
0.0
  0
LINE
  5
2ED
330
1F
100
AcDbEntity
  8
0
  6
Continuous
 62
     8
370
    25
100
AcDbLine
 10
244.8788552904
 20
144.663176196
 30
0.0
 11
244.1120255296
 21
144.663176196
 31
0.0
  0
LINE
  5
2EE
330
1F
100
AcDbEntity
  8
0
  6
Continuous
 62
     8
370
    25
100
AcDbLine
 10
523.3819588092
 20
144.663176196
 30
0.0
 11
501.4531876407
 21
144.663176196
 31
0.0
  0
LINE
  5
2EF
330
1F
100
AcDbEntity
  8
0
  6
Continuous
 62
     8
370
    25
100
AcDbLine
 10
501.4531876407
 20
135.663176196
 30
0.0
 11
523.3819588092
 21
135.663176196
 31
0.0
  0
LINE
  5
2F0
330
1F
100
AcDbEntity
  8
0
  6
Continuous
 62
     8
370
    25
100
AcDbLine
 10
447.5892537158
 20
135.663176196
 30
0.0
 11
501.1173109124
 21
135.663176196
 31
0.0
  0
LINE
  5
2F1
330
1F
100
AcDbEntity
  8
0
  6
Continuous
 62
     8
370
    25
100
AcDbLine
 10
501.1173109124
 20
144.663176196
 30
0.0
 11
448.6778412077
 21
144.663176196
 31
0.0
  0
LINE
  5
2F2
330
1F
100
AcDbEntity
  8
0
  6
Continuous
 62
     8
370
    25
100
AcDbLine
 10
126.2255180116
 20
135.663176196
 30
0.0
 11
135.8539990649
 21
135.663176196
 31
0.0
  0
LINE
  5
2F3
330
1F
100
AcDbEntity
  8
0
  6
Continuous
 62
     8
370
    25
100
AcDbLine
 10
135.8539990649
 20
144.663176196
 30
0.0
 11
126.2255180116
 21
144.663176196
 31
0.0
  0
LINE
  5
2F4
330
1F
100
AcDbEntity
  8
0
  6
Continuous
 62
     8
370
    25
100
AcDbLine
 10
135.8539990649
 20
165.663176196
 30
0.0
 11
147.0655843816
 21
165.663176196
 31
0.0
  0
LINE
  5
2F5
330
1F
100
AcDbEntity
  8
0
  6
Continuous
 62
     8
370
    25
100
AcDbLine
 10
147.0655843816
 20
174.663176196
 30
0.0
 11
135.8539990649
 21
174.663176196
 31
0.0
  0
LINE
  5
2F6
330
1F
100
AcDbEntity
  8
0
  6
Continuous
 62
     8
370
    25
100
AcDbLine
 10
244.8788552904
 20
174.663176196
 30
0.0
 11
244.1120255296
 21
174.663176196
 31
0.0
  0
LINE
  5
2F7
330
1F
100
AcDbEntity
  8
0
  6
Continuous
 62
     8
370
    25
100
AcDbLine
 10
244.1120255296
 20
165.663176196
 30
0.0
 11
244.8788552904
 21
165.663176196
 31
0.0
  0
LINE
  5
2F8
330
1F
100
AcDbEntity
  8
0
  6
Continuous
 62
     8
370
    25
100
AcDbLine
 10
501.4531876407
 20
165.663176196
 30
0.0
 11
523.3819588092
 21
165.663176196
 31
0.0
  0
LINE
  5
2F9
330
1F
100
AcDbEntity
  8
0
  6
Continuous
 62
     8
370
    25
100
AcDbLine
 10
523.3819588092
 20
174.663176196
 30
0.0
 11
501.4531876407
 21
174.663176196
 31
0.0
  0
LINE
  5
2FA
330
1F
100
AcDbEntity
  8
0
  6
Continuous
 62
     8
370
    25
100
AcDbLine
 10
448.6778411828
 20
165.663176196
 30
0.0
 11
501.1173109124
 21
165.663176196
 31
0.0
  0
LINE
  5
2FB
330
1F
100
AcDbEntity
  8
0
  6
Continuous
 62
     8
370
    25
100
AcDbLine
 10
501.1173109124
 20
174.663176196
 30
0.0
 11
447.5892536692
 21
174.663176196
 31
0.0
  0
LINE
  5
2FC
330
1F
100
AcDbEntity
  8
0
  6
Continuous
 62
     8
370
    25
100
AcDbLine
 10
135.8539990649
 20
174.663176196
 30
0.0
 11
126.2255180116
 21
174.663176196
 31
0.0
  0
LINE
  5
2FD
330
1F
100
AcDbEntity
  8
0
  6
Continuous
 62
     8
370
    25
100
AcDbLine
 10
126.2255180116
 20
165.663176196
 30
0.0
 11
135.8539990649
 21
165.663176196
 31
0.0
  0
LINE
  5
2FE
330
1F
100
AcDbEntity
  8
0
  6
Continuous
 62
     8
370
    25
100
AcDbLine
 10
212.5552187699
 20
186.5491130486
 30
0.0
 11
212.5552187699
 21
177.663176196
 31
0.0
  0
LINE
  5
2FF
330
1F
100
AcDbEntity
  8
0
  6
Continuous
 62
     8
370
    25
100
AcDbLine
 10
212.5552187699
 20
132.663176196
 30
0.0
 11
212.5552187699
 21
123.7772405699
 31
0.0
  0
LINE
  5
300
330
1F
100
AcDbEntity
  8
0
  6
Continuous
 62
     8
370
    25
100
AcDbLine
 10
75.2673201334
 20
164.663176196
 30
0.0
 11
35.2673201334
 21
164.663176196
 31
0.0
  0
LINE
  5
301
330
1F
100
AcDbEntity
  8
0
  6
Continuous
 62
     8
370
    25
100
AcDbLine
 10
55.2673201334
 20
145.663176196
 30
0.0
 11
75.2673201334
 21
145.663176196
 31
0.0
  0
LINE
  5
302
330
1F
100
AcDbEntity
  8
0
  6
Continuous
 62
     8
370
    25
100
AcDbLine
 10
35.2673201334
 20
145.663176196
 30
0.0
 11
55.2673201334
 21
145.663176196
 31
0.0
  0
LINE
  5
303
330
1F
100
AcDbEntity
  8
0
  6
Continuous
 62
     8
370
    25
100
AcDbLine
 10
151.5898787553
 20
127.663176196
 30
0.0
 11
191.5898787553
 21
127.663176196
 31
0.0
  0
LINE
  5
304
330
1F
100
AcDbEntity
  8
0
  6
Continuous
 62
     8
370
    25
100
AcDbLine
 10
185.8285735642
 20
182.663176196
 30
0.0
 11
151.5898787553
 21
182.663176196
 31
0.0
  0
LINE
  5
305
330
1F
100
AcDbEntity
  8
0
  6
Continuous
 62
     8
370
    25
100
AcDbLine
 10
191.5898787553
 20
182.663176196
 30
0.0
 11
185.8285735642
 21
182.663176196
 31
0.0
  0
LINE
  5
306
330
1F
100
AcDbEntity
  8
0
  6
Continuous
 62
     8
370
    25
100
AcDbLine
 10
157.8898787553
 20
112.5327848776
 30
0.0
 11
185.2898787553
 21
112.5327848776
 31
0.0
  0
LINE
  5
307
330
1F
100
AcDbEntity
  8
0
  6
Continuous
 62
     8
370
    25
100
AcDbLine
 10
158.2233285549
 20
111.99524326
 30
0.0
 11
184.9564289557
 21
111.99524326
 31
0.0
  0
LINE
  5
308
330
1F
100
AcDbEntity
  8
0
  6
Continuous
 62
     8
370
    25
100
AcDbLine
 10
55.2673201334
 20
130.5327848776
 30
0.0
 11
68.9673201334
 21
130.5327848776
 31
0.0
  0
LINE
  5
309
330
1F
100
AcDbEntity
  8
0
  6
Continuous
 62
     8
370
    25
100
AcDbLine
 10
41.5673201334
 20
130.5327848776
 30
0.0
 11
55.2673201334
 21
130.5327848776
 31
0.0
  0
LINE
  5
30A
330
1F
100
AcDbEntity
  8
0
  6
Continuous
 62
     8
370
    25
100
AcDbLine
 10
55.2673201334
 20
129.99524326
 30
0.0
 11
68.6338703338
 21
129.99524326
 31
0.0
  0
LINE
  5
30B
330
1F
100
AcDbEntity
  8
0
  6
Continuous
 62
     8
370
    25
100
AcDbLine
 10
41.900769933
 20
129.99524326
 30
0.0
 11
55.2673201334
 21
129.99524326
 31
0.0
  0
LINE
  5
30C
330
1F
100
AcDbEntity
  8
0
  6
Continuous
 62
     8
370
    25
100
AcDbLine
 10
68.9673201334
 20
179.7935675144
 30
0.0
 11
41.5673201334
 21
179.7935675144
 31
0.0
  0
LINE
  5
30D
330
1F
100
AcDbEntity
  8
0
  6
Continuous
 62
     8
370
    25
100
AcDbLine
 10
68.6338703338
 20
180.3311091321
 30
0.0
 11
41.900769933
 21
180.3311091321
 31
0.0
  0
LINE
  5
30E
330
1F
100
AcDbEntity
  8
0
  6
Continuous
 62
     8
370
    25
100
AcDbLine
 10
181.3433846994
 20
197.7935675144
 30
0.0
 11
157.8898787553
 21
197.7935675144
 31
0.0
  0
LINE
  5
30F
330
1F
100
AcDbEntity
  8
0
  6
Continuous
 62
     8
370
    25
100
AcDbLine
 10
185.2898787553
 20
197.7935675144
 30
0.0
 11
181.3433846994
 21
197.7935675144
 31
0.0
  0
LINE
  5
310
330
1F
100
AcDbEntity
  8
0
  6
Continuous
 62
     8
370
    25
100
AcDbLine
 10
181.1059902029
 20
198.3311091321
 30
0.0
 11
158.2233285549
 21
198.3311091321
 31
0.0
  0
LINE
  5
311
330
1F
100
AcDbEntity
  8
0
  6
Continuous
 62
     8
370
    25
100
AcDbLine
 10
184.9564289557
 20
198.3311091321
 30
0.0
 11
181.1059902029
 21
198.3311091321
 31
0.0
  0
LINE
  5
312
330
1F
100
AcDbEntity
  8
0
  6
Continuous
 62
     8
370
    25
100
AcDbLine
 10
20.5164862216
 20
144.663176196
 30
0.0
 11
35.2924967227
 21
144.663176196
 31
0.0
  0
LINE
  5
313
330
1F
100
AcDbEntity
  8
0
  6
Continuous
 62
     8
370
    25
100
AcDbLine
 10
36.5410092475
 20
138.663176196
 30
0.0
 11
27.5164862216
 21
138.663176196
 31
0.0
  0
LINE
  5
314
330
1F
100
AcDbEntity
  8
0
  6
Continuous
 62
     8
370
    25
100
AcDbLine
 10
27.5164862216
 20
58.663176196
 30
0.0
 11
61.5164862216
 21
58.663176196
 31
0.0
  0
LINE
  5
315
330
1F
100
AcDbEntity
  8
0
  6
Continuous
 62
     8
370
    25
100
AcDbLine
 10
35.2924967227
 20
165.663176196
 30
0.0
 11
20.5164862216
 21
165.663176196
 31
0.0
  0
LINE
  5
316
330
1F
100
AcDbEntity
  8
0
  6
Continuous
 62
     8
370
    25
100
AcDbLine
 10
27.5164862216
 20
171.663176196
 30
0.0
 11
36.5410092475
 21
171.663176196
 31
0.0
  0
LINE
  5
317
330
1F
100
AcDbEntity
  8
0
  6
Continuous
 62
     8
370
    25
100
AcDbLine
 10
60.2198625845
 20
251.663176196
 30
0.0
 11
27.5164862216
 21
251.663176196
 31
0.0
  0
LINE
  5
318
330
1F
100
AcDbEntity
  8
0
  6
Continuous
 62
     8
370
    25
100
AcDbLine
 10
61.5164862216
 20
251.663176196
 30
0.0
 11
60.2198625845
 21
251.663176196
 31
0.0
  0
LINE
  5
319
330
1F
100
AcDbEntity
  8
0
  6
Continuous
 62
     8
370
    25
100
AcDbLine
 10
118.3365397864
 20
165.663176196
 30
0.0
 11
75.242143544
 21
165.663176196
 31
0.0
  0
LINE
  5
31A
330
1F
100
AcDbEntity
  8
0
  6
Continuous
 62
     8
370
    25
100
AcDbLine
 10
120.167067274
 20
165.663176196
 30
0.0
 11
118.3365397864
 21
165.663176196
 31
0.0
  0
LINE
  5
31B
330
1F
100
AcDbEntity
  8
0
  6
Continuous
 62
     8
370
    25
100
AcDbLine
 10
111.8704436369
 20
171.663176196
 30
0.0
 11
113.167067274
 21
171.663176196
 31
0.0
  0
LINE
  5
31C
330
1F
100
AcDbEntity
  8
0
  6
Continuous
 62
     8
370
    25
100
AcDbLine
 10
79.167067274
 20
171.663176196
 30
0.0
 11
111.8704436369
 21
171.663176196
 31
0.0
  0
LINE
  5
31D
330
1F
100
AcDbEntity
  8
0
  6
Continuous
 62
     8
370
    25
100
AcDbLine
 10
111.8704436369
 20
251.663176196
 30
0.0
 11
79.167067274
 21
251.663176196
 31
0.0
  0
LINE
  5
31E
330
1F
100
AcDbEntity
  8
0
  6
Continuous
 62
     8
370
    25
100
AcDbLine
 10
113.167067274
 20
251.663176196
 30
0.0
 11
111.8704436369
 21
251.663176196
 31
0.0
  0
LINE
  5
31F
330
1F
100
AcDbEntity
  8
0
  6
Continuous
 62
     8
370
    25
100
AcDbLine
 10
75.242143544
 20
144.663176196
 30
0.0
 11
120.167067274
 21
144.663176196
 31
0.0
  0
LINE
  5
320
330
1F
100
AcDbEntity
  8
0
  6
Continuous
 62
     8
370
    25
100
AcDbLine
 10
113.167067274
 20
138.663176196
 30
0.0
 11
79.167067274
 21
138.663176196
 31
0.0
  0
LINE
  5
321
330
1F
100
AcDbEntity
  8
0
  6
Continuous
 62
     8
370
    25
100
AcDbLine
 10
79.167067274
 20
58.663176196
 30
0.0
 11
113.167067274
 21
58.663176196
 31
0.0
  0
LINE
  5
322
330
1F
100
AcDbEntity
  8
0
  6
Continuous
 62
     8
370
    25
100
AcDbLine
 10
67.6096867553
 20
41.5028773721
 30
0.0
 11
69.5164862216
 21
41.5028773721
 31
0.0
  0
LINE
  5
323
330
1F
100
AcDbEntity
  8
0
  6
Continuous
 62
     8
370
    25
100
AcDbLine
 10
19.5164862216
 20
41.5028773721
 30
0.0
 11
67.6096867553
 21
41.5028773721
 31
0.0
  0
LINE
  5
324
330
1F
100
AcDbEntity
  8
0
  6
Continuous
 62
     8
370
    25
100
AcDbLine
 10
68.682619677
 20
40.516774094
 30
0.0
 11
20.3503527662
 21
40.516774094
 31
0.0
  0
LINE
  5
325
330
1F
100
AcDbEntity
  8
0
  6
Continuous
 62
     8
370
    25
100
AcDbLine
 10
67.6096867553
 20
44.2829768737
 30
0.0
 11
19.5164862216
 21
44.2829768737
 31
0.0
  0
LINE
  5
326
330
1F
100
AcDbEntity
  8
0
  6
Continuous
 62
     8
370
    25
100
AcDbLine
 10
69.5164862216
 20
44.2829768737
 30
0.0
 11
67.6096867553
 21
44.2829768737
 31
0.0
  0
LINE
  5
327
330
1F
100
AcDbEntity
  8
0
  6
Continuous
 62
     8
370
    25
100
AcDbLine
 10
19.7690769029
 20
44.9473407125
 30
0.0
 11
69.2638955403
 21
44.9473407125
 31
0.0
  0
LINE
  5
328
330
1F
100
AcDbEntity
  8
0
  6
Continuous
 62
     8
370
    25
100
AcDbLine
 10
60.4531876748
 20
53.3790116796
 30
0.0
 11
27.2638955403
 21
53.3790116796
 31
0.0
  0
LINE
  5
329
330
1F
100
AcDbEntity
  8
0
  6
Continuous
 62
     8
370
    25
100
AcDbLine
 10
61.7690769029
 20
53.3790116796
 30
0.0
 11
60.4531876748
 21
53.3790116796
 31
0.0
  0
LINE
  5
32A
330
1F
100
AcDbEntity
  8
0
  6
Continuous
 62
     8
370
    25
100
AcDbLine
 10
27.5164862216
 20
54.0433755184
 30
0.0
 11
61.5164862216
 21
54.0433755184
 31
0.0
  0
LINE
  5
32B
330
1F
100
AcDbEntity
  8
0
  6
Continuous
 62
     8
370
    25
100
AcDbLine
 10
61.5164862216
 20
56.663176196
 30
0.0
 11
27.5164862216
 21
56.663176196
 31
0.0
  0
LINE
  5
32C
330
1F
100
AcDbEntity
  8
0
  6
Continuous
 62
     8
370
    25
100
AcDbLine
 10
71.4196579553
 20
44.9473407125
 30
0.0
 11
120.9144765927
 21
44.9473407125
 31
0.0
  0
LINE
  5
32D
330
1F
100
AcDbEntity
  8
0
  6
Continuous
 62
     8
370
    25
100
AcDbLine
 10
119.2602678077
 20
44.2829768737
 30
0.0
 11
71.167067274
 21
44.2829768737
 31
0.0
  0
LINE
  5
32E
330
1F
100
AcDbEntity
  8
0
  6
Continuous
 62
     8
370
    25
100
AcDbLine
 10
121.167067274
 20
44.2829768737
 30
0.0
 11
119.2602678077
 21
44.2829768737
 31
0.0
  0
LINE
  5
32F
330
1F
100
AcDbEntity
  8
0
  6
Continuous
 62
     8
370
    25
100
AcDbLine
 10
119.2602678077
 20
41.5028773721
 30
0.0
 11
121.167067274
 21
41.5028773721
 31
0.0
  0
LINE
  5
330
330
1F
100
AcDbEntity
  8
0
  6
Continuous
 62
     8
370
    25
100
AcDbLine
 10
71.167067274
 20
41.5028773721
 30
0.0
 11
119.2602678077
 21
41.5028773721
 31
0.0
  0
LINE
  5
331
330
1F
100
AcDbEntity
  8
0
  6
Continuous
 62
     8
370
    25
100
AcDbLine
 10
120.3332007294
 20
40.516774094
 30
0.0
 11
72.0009338186
 21
40.516774094
 31
0.0
  0
LINE
  5
332
330
1F
100
AcDbEntity
  8
0
  6
Continuous
 62
     8
370
    25
100
AcDbLine
 10
112.1037687272
 20
53.3790116796
 30
0.0
 11
78.9144765927
 21
53.3790116796
 31
0.0
  0
LINE
  5
333
330
1F
100
AcDbEntity
  8
0
  6
Continuous
 62
     8
370
    25
100
AcDbLine
 10
113.4196579553
 20
53.3790116796
 30
0.0
 11
112.1037687272
 21
53.3790116796
 31
0.0
  0
LINE
  5
334
330
1F
100
AcDbEntity
  8
0
  6
Continuous
 62
     8
370
    25
100
AcDbLine
 10
79.167067274
 20
54.0433755184
 30
0.0
 11
113.167067274
 21
54.0433755184
 31
0.0
  0
LINE
  5
335
330
1F
100
AcDbEntity
  8
0
  6
Continuous
 62
     8
370
    25
100
AcDbLine
 10
113.167067274
 20
56.663176196
 30
0.0
 11
79.167067274
 21
56.663176196
 31
0.0
  0
LINE
  5
336
330
1F
100
AcDbEntity
  8
0
  6
Continuous
 62
     8
370
    25
100
AcDbLine
 10
121.167067274
 20
268.82347502
 30
0.0
 11
71.167067274
 21
268.82347502
 31
0.0
  0
LINE
  5
337
330
1F
100
AcDbEntity
  8
0
  6
Continuous
 62
     8
370
    25
100
AcDbLine
 10
71.167067274
 20
266.0433755184
 30
0.0
 11
121.167067274
 21
266.0433755184
 31
0.0
  0
LINE
  5
338
330
1F
100
AcDbEntity
  8
0
  6
Continuous
 62
     8
370
    25
100
AcDbLine
 10
119.0269427174
 20
265.3790116796
 30
0.0
 11
71.4196579553
 21
265.3790116796
 31
0.0
  0
LINE
  5
339
330
1F
100
AcDbEntity
  8
0
  6
Continuous
 62
     8
370
    25
100
AcDbLine
 10
120.9144765927
 20
265.3790116796
 30
0.0
 11
119.0269427174
 21
265.3790116796
 31
0.0
  0
LINE
  5
33A
330
1F
100
AcDbEntity
  8
0
  6
Continuous
 62
     8
370
    25
100
AcDbLine
 10
118.4900019144
 20
269.8095782981
 30
0.0
 11
120.3332007294
 21
269.8095782981
 31
0.0
  0
LINE
  5
33B
330
1F
100
AcDbEntity
  8
0
  6
Continuous
 62
     8
370
    25
100
AcDbLine
 10
72.0009338186
 20
269.8095782981
 30
0.0
 11
118.4900019144
 21
269.8095782981
 31
0.0
  0
LINE
  5
33C
330
1F
100
AcDbEntity
  8
0
  6
Continuous
 62
     8
370
    25
100
AcDbLine
 10
78.9144765927
 20
256.9473407125
 30
0.0
 11
113.4196579553
 21
256.9473407125
 31
0.0
  0
LINE
  5
33D
330
1F
100
AcDbEntity
  8
0
  6
Continuous
 62
     8
370
    25
100
AcDbLine
 10
111.8704436369
 20
256.2829768737
 30
0.0
 11
79.167067274
 21
256.2829768737
 31
0.0
  0
LINE
  5
33E
330
1F
100
AcDbEntity
  8
0
  6
Continuous
 62
     8
370
    25
100
AcDbLine
 10
113.167067274
 20
256.2829768737
 30
0.0
 11
111.8704436369
 21
256.2829768737
 31
0.0
  0
LINE
  5
33F
330
1F
100
AcDbEntity
  8
0
  6
Continuous
 62
     8
370
    25
100
AcDbLine
 10
111.8704436369
 20
253.663176196
 30
0.0
 11
113.167067274
 21
253.663176196
 31
0.0
  0
LINE
  5
340
330
1F
100
AcDbEntity
  8
0
  6
Continuous
 62
     8
370
    25
100
AcDbLine
 10
79.167067274
 20
253.663176196
 30
0.0
 11
111.8704436369
 21
253.663176196
 31
0.0
  0
LINE
  5
341
330
1F
100
AcDbEntity
  8
0
  6
Continuous
 62
     8
370
    25
100
AcDbLine
 10
69.5164862216
 20
268.82347502
 30
0.0
 11
19.5164862216
 21
268.82347502
 31
0.0
  0
LINE
  5
342
330
1F
100
AcDbEntity
  8
0
  6
Continuous
 62
     8
370
    25
100
AcDbLine
 10
19.5164862216
 20
266.0433755184
 30
0.0
 11
69.5164862216
 21
266.0433755184
 31
0.0
  0
LINE
  5
343
330
1F
100
AcDbEntity
  8
0
  6
Continuous
 62
     8
370
    25
100
AcDbLine
 10
66.839420862
 20
269.8095782981
 30
0.0
 11
68.682619677
 21
269.8095782981
 31
0.0
  0
LINE
  5
344
330
1F
100
AcDbEntity
  8
0
  6
Continuous
 62
     8
370
    25
100
AcDbLine
 10
20.3503527662
 20
269.8095782981
 30
0.0
 11
66.839420862
 21
269.8095782981
 31
0.0
  0
LINE
  5
345
330
1F
100
AcDbEntity
  8
0
  6
Continuous
 62
     8
370
    25
100
AcDbLine
 10
67.376361665
 20
265.3790116796
 30
0.0
 11
19.7690769029
 21
265.3790116796
 31
0.0
  0
LINE
  5
346
330
1F
100
AcDbEntity
  8
0
  6
Continuous
 62
     8
370
    25
100
AcDbLine
 10
69.2638955403
 20
265.3790116796
 30
0.0
 11
67.376361665
 21
265.3790116796
 31
0.0
  0
LINE
  5
347
330
1F
100
AcDbEntity
  8
0
  6
Continuous
 62
     8
370
    25
100
AcDbLine
 10
27.2638955403
 20
256.9473407125
 30
0.0
 11
61.7690769029
 21
256.9473407125
 31
0.0
  0
LINE
  5
348
330
1F
100
AcDbEntity
  8
0
  6
Continuous
 62
     8
370
    25
100
AcDbLine
 10
60.2198625845
 20
256.2829768737
 30
0.0
 11
27.5164862216
 21
256.2829768737
 31
0.0
  0
LINE
  5
349
330
1F
100
AcDbEntity
  8
0
  6
Continuous
 62
     8
370
    25
100
AcDbLine
 10
61.5164862216
 20
256.2829768737
 30
0.0
 11
60.2198625845
 21
256.2829768737
 31
0.0
  0
LINE
  5
34A
330
1F
100
AcDbEntity
  8
0
  6
Continuous
 62
     8
370
    25
100
AcDbLine
 10
60.2198625845
 20
253.663176196
 30
0.0
 11
61.5164862216
 21
253.663176196
 31
0.0
  0
LINE
  5
34B
330
1F
100
AcDbEntity
  8
0
  6
Continuous
 62
     8
370
    25
100
AcDbLine
 10
27.5164862216
 20
253.663176196
 30
0.0
 11
60.2198625845
 21
253.663176196
 31
0.0
  0
LINE
  5
34C
330
1F
100
AcDbEntity
  8
0
  6
Continuous
 62
     8
370
    25
100
AcDbLine
 10
57.2177465151
 20
270.911030591
 30
0.0
 11
30.7664862216
 21
270.911030591
 31
0.0
  0
LINE
  5
34D
330
1F
100
AcDbEntity
  8
0
  6
Continuous
 62
     8
370
    25
100
AcDbLine
 10
58.2664862216
 20
270.911030591
 30
0.0
 11
57.2177465151
 21
270.911030591
 31
0.0
  0
LINE
  5
34E
330
1F
100
AcDbEntity
  8
0
  6
Continuous
 62
     8
370
    25
100
AcDbLine
 10
56.5431960361
 20
271.873960403
 30
0.0
 11
57.5362382877
 21
271.873960403
 31
0.0
  0
LINE
  5
34F
330
1F
100
AcDbEntity
  8
0
  6
Continuous
 62
     8
370
    25
100
AcDbLine
 10
31.4967341555
 20
271.873960403
 30
0.0
 11
56.5431960361
 21
271.873960403
 31
0.0
  0
LINE
  5
350
330
1F
100
AcDbEntity
  8
0
  6
Continuous
 62
     8
370
    25
100
AcDbLine
 10
82.417067274
 20
39.415321801
 30
0.0
 11
109.917067274
 21
39.415321801
 31
0.0
  0
LINE
  5
351
330
1F
100
AcDbEntity
  8
0
  6
Continuous
 62
     8
370
    25
100
AcDbLine
 10
109.1868193401
 20
38.452391989
 30
0.0
 11
83.1473152079
 21
38.452391989
 31
0.0
  0
LINE
  5
352
330
1F
100
AcDbEntity
  8
0
  6
Continuous
 62
     8
370
    25
100
AcDbLine
 10
108.8683275675
 20
270.911030591
 30
0.0
 11
82.417067274
 21
270.911030591
 31
0.0
  0
LINE
  5
353
330
1F
100
AcDbEntity
  8
0
  6
Continuous
 62
     8
370
    25
100
AcDbLine
 10
109.917067274
 20
270.911030591
 30
0.0
 11
108.8683275675
 21
270.911030591
 31
0.0
  0
LINE
  5
354
330
1F
100
AcDbEntity
  8
0
  6
Continuous
 62
     8
370
    25
100
AcDbLine
 10
108.1937770885
 20
271.873960403
 30
0.0
 11
109.1868193401
 21
271.873960403
 31
0.0
  0
LINE
  5
355
330
1F
100
AcDbEntity
  8
0
  6
Continuous
 62
     8
370
    25
100
AcDbLine
 10
83.1473152079
 20
271.873960403
 30
0.0
 11
108.1937770885
 21
271.873960403
 31
0.0
  0
LINE
  5
356
330
1F
100
AcDbEntity
  8
0
  6
Continuous
 62
     8
370
    25
100
AcDbLine
 10
30.7664862216
 20
39.415321801
 30
0.0
 11
58.2664862216
 21
39.415321801
 31
0.0
  0
LINE
  5
357
330
1F
100
AcDbEntity
  8
0
  6
Continuous
 62
     8
370
    25
100
AcDbLine
 10
57.5362382877
 20
38.452391989
 30
0.0
 11
31.4967341555
 21
38.452391989
 31
0.0
  0
LINE
  5
358
330
1F
100
AcDbEntity
  8
0
  6
Continuous
 62
     8
370
    25
100
AcDbLine
 10
595.2837051784
 20
159.663176196
 30
0.0
 11
566.4636215972
 21
159.663176196
 31
0.0
  0
LINE
  5
359
330
1F
100
AcDbEntity
  8
0
  6
Continuous
 62
     8
370
    25
100
AcDbLine
 10
566.4636215972
 20
150.663176196
 30
0.0
 11
595.2837051784
 21
150.663176196
 31
0.0
  0
LINE
  5
35A
330
1F
100
AcDbEntity
  8
0
  6
Continuous
 62
     8
370
    25
100
AcDbLine
 10
449.1565090729
 20
159.663176196
 30
0.0
 11
449.0385956349
 21
159.663176196
 31
0.0
  0
LINE
  5
35B
330
1F
100
AcDbEntity
  8
0
  6
Continuous
 62
     8
370
    25
100
AcDbLine
 10
449.0385956455
 20
150.663176196
 30
0.0
 11
449.1565090729
 21
150.663176196
 31
0.0
  0
ENDSEC
  0
SECTION
  2
OBJECTS
  0
DICTIONARY
  5
C
330
0
100
AcDbDictionary
281
     1
  3
ACAD_GROUP
350
D
  3
ACAD_LAYOUT
350
1A
  3
ACAD_MLINESTYLE
350
17
  3
ACAD_PLOTSETTINGS
350
19
  3
ACAD_PLOTSTYLENAME
350
E
  3
ACAD_SCALELIST
350
47
  3
DWGPROPS
350
35C
  0
DICTIONARY
  5
D
102
{ACAD_REACTORS
330
C
102
}
330
C
100
AcDbDictionary
281
     1
  0
DICTIONARY
  5
1A
102
{ACAD_REACTORS
330
C
102
}
330
C
100
AcDbDictionary
281
     1
  3
Layout1
350
1E
  3
Layout2
350
26
  3
Model
350
22
  0
DICTIONARY
  5
17
102
{ACAD_REACTORS
330
C
102
}
330
C
100
AcDbDictionary
281
     1
  3
Standard
350
18
  0
DICTIONARY
  5
19
102
{ACAD_REACTORS
330
C
102
}
330
C
100
AcDbDictionary
281
     1
  0
ACDBDICTIONARYWDFLT
  5
E
102
{ACAD_REACTORS
330
C
102
}
330
C
100
AcDbDictionary
281
     1
  3
Normal
350
F
100
AcDbDictionaryWithDefault
340
F
  0
DICTIONARY
  5
47
102
{ACAD_REACTORS
330
C
102
}
330
C
100
AcDbDictionary
281
     1
  3
A0
350
48
  3
A1
350
49
  3
A2
350
4A
  3
A3
350
4B
  3
A4
350
4C
  3
A5
350
4D
  3
A6
350
4E
  3
A7
350
4F
  3
A8
350
50
  3
A9
350
51
  3
B0
350
52
  3
B1
350
53
  3
B2
350
54
  3
B3
350
55
  3
B4
350
56
  3
B5
350
57
  3
B6
350
58
  3
B7
350
59
  3
B8
350
5A
  3
B9
350
5B
  3
C0
350
5C
  3
C1
350
5D
  3
C2
350
5E
  3
C3
350
5F
  3
C4
350
60
  3
C5
350
61
  3
C6
350
62
  3
C7
350
63
  3
C8
350
64
  3
C9
350
65
  3
D0
350
66
  3
D1
350
67
  3
D2
350
68
  0
XRECORD
  5
35C
102
{ACAD_REACTORS
330
C
102
}
330
C
100
AcDbXrecord
280
     1
  1
DWGPROPS COOKIE
  2

  3

  4

  6

  7

  8
Swing
  9

300
=
301
=
302
=
303
=
304
=
305
=
306
=
307
=
308
=
309
=
 40
0.0
 41
2459557.277830903
 42
2459557.277831134
  1

 90
        0
  0
LAYOUT
  5
1E
102
{ACAD_REACTORS
330
1A
102
}
330
1A
100
AcDbPlotSettings
  1

  2
none_device
  4

  6

 40
0.0
 41
0.0
 42
0.0
 43
0.0
 44
0.0
 45
0.0
 46
0.0
 47
0.0
 48
0.0
 49
0.0
140
0.0
141
0.0
142
1.0
143
1.0
 70
   688
 72
     1
 73
     0
 74
     5
  7

 75
    16
147
1.0
148
0.0
149
0.0
100
AcDbLayout
  1
Layout1
 70
     1
 71
     1
 10
0.0
 20
0.0
 11
420.0
 21
297.0
 12
0.0
 22
0.0
 32
0.0
 14
1.0000000000E+20
 24
1.0000000000E+20
 34
1.0000000000E+20
 15
-1.0000000000E+20
 25
-1.0000000000E+20
 35
-1.0000000000E+20
146
0.0
 13
0.0
 23
0.0
 33
0.0
 16
1.0
 26
0.0
 36
0.0
 17
0.0
 27
1.0
 37
0.0
 76
     0
330
1B
  0
LAYOUT
  5
26
102
{ACAD_REACTORS
330
1A
102
}
330
1A
100
AcDbPlotSettings
  1

  2
none_device
  4

  6

 40
0.0
 41
0.0
 42
0.0
 43
0.0
 44
0.0
 45
0.0
 46
0.0
 47
0.0
 48
0.0
 49
0.0
140
0.0
141
0.0
142
1.0
143
1.0
 70
   688
 72
     1
 73
     0
 74
     5
  7

 75
    16
147
1.0
148
0.0
149
0.0
100
AcDbLayout
  1
Layout2
 70
     1
 71
     2
 10
0.0
 20
0.0
 11
0.0
 21
0.0
 12
0.0
 22
0.0
 32
0.0
 14
0.0
 24
0.0
 34
0.0
 15
0.0
 25
0.0
 35
0.0
146
0.0
 13
0.0
 23
0.0
 33
0.0
 16
1.0
 26
0.0
 36
0.0
 17
0.0
 27
1.0
 37
0.0
 76
     0
330
23
  0
LAYOUT
  5
22
102
{ACAD_REACTORS
330
1A
102
}
330
1A
100
AcDbPlotSettings
  1

  2
none_device
  4
Letter_(8.50_x_11.00_Inches)
  6

 40
6.35
 41
6.35
 42
6.35000508
 43
6.35000508
 44
215.9
 45
279.4
 46
0.0
 47
0.0
 48
0.0
 49
0.0
140
0.0
141
0.0
142
1.0
143
1.0
 70
  1712
 72
     1
 73
     0
 74
     0
  7

 75
     0
147
1.0
148
0.0
149
0.0
100
AcDbLayout
  1
Model
 70
     1
 71
     0
 10
0.0
 20
0.0
 11
431.8
 21
279.4
 12
0.0
 22
0.0
 32
0.0
 14
0.0
 24
0.0
 34
0.0
 15
431.8
 25
279.4
 35
0.0
146
0.0
 13
0.0
 23
0.0
 33
0.0
 16
1.0
 26
0.0
 36
0.0
 17
0.0
 27
1.0
 37
0.0
 76
     0
330
1F
331
29
  0
MLINESTYLE
  5
18
102
{ACAD_REACTORS
330
17
102
}
330
17
100
AcDbMlineStyle
  2
Standard
 70
     0
  3

 62
   256
 51
90.0
 52
90.0
 71
     2
 49
0.5
 62
   256
  6
BYLAYER
 49
-0.5
 62
   256
  6
BYLAYER
  0
ACDBPLACEHOLDER
  5
F
102
{ACAD_REACTORS
330
E
102
}
330
E
  0
SCALE
  5
48
102
{ACAD_REACTORS
330
47
102
}
330
47
100
AcDbScale
 70
     0
300
1:1
140
1.0
141
1.0
290
     1
  0
SCALE
  5
49
102
{ACAD_REACTORS
330
47
102
}
330
47
100
AcDbScale
 70
     0
300
1:2
140
1.0
141
2.0
290
     0
  0
SCALE
  5
4A
102
{ACAD_REACTORS
330
47
102
}
330
47
100
AcDbScale
 70
     0
300
1:4
140
1.0
141
4.0
290
     0
  0
SCALE
  5
4B
102
{ACAD_REACTORS
330
47
102
}
330
47
100
AcDbScale
 70
     0
300
1:5
140
1.0
141
5.0
290
     0
  0
SCALE
  5
4C
102
{ACAD_REACTORS
330
47
102
}
330
47
100
AcDbScale
 70
     0
300
1:8
140
1.0
141
8.0
290
     0
  0
SCALE
  5
4D
102
{ACAD_REACTORS
330
47
102
}
330
47
100
AcDbScale
 70
     0
300
1:10
140
1.0
141
10.0
290
     0
  0
SCALE
  5
4E
102
{ACAD_REACTORS
330
47
102
}
330
47
100
AcDbScale
 70
     0
300
1:16
140
1.0
141
16.0
290
     0
  0
SCALE
  5
4F
102
{ACAD_REACTORS
330
47
102
}
330
47
100
AcDbScale
 70
     0
300
1:20
140
1.0
141
20.0
290
     0
  0
SCALE
  5
50
102
{ACAD_REACTORS
330
47
102
}
330
47
100
AcDbScale
 70
     0
300
1:30
140
1.0
141
30.0
290
     0
  0
SCALE
  5
51
102
{ACAD_REACTORS
330
47
102
}
330
47
100
AcDbScale
 70
     0
300
1:40
140
1.0
141
40.0
290
     0
  0
SCALE
  5
52
102
{ACAD_REACTORS
330
47
102
}
330
47
100
AcDbScale
 70
     0
300
1:50
140
1.0
141
50.0
290
     0
  0
SCALE
  5
53
102
{ACAD_REACTORS
330
47
102
}
330
47
100
AcDbScale
 70
     0
300
1:100
140
1.0
141
100.0
290
     0
  0
SCALE
  5
54
102
{ACAD_REACTORS
330
47
102
}
330
47
100
AcDbScale
 70
     0
300
2:1
140
2.0
141
1.0
290
     0
  0
SCALE
  5
55
102
{ACAD_REACTORS
330
47
102
}
330
47
100
AcDbScale
 70
     0
300
4:1
140
4.0
141
1.0
290
     0
  0
SCALE
  5
56
102
{ACAD_REACTORS
330
47
102
}
330
47
100
AcDbScale
 70
     0
300
8:1
140
8.0
141
1.0
290
     0
  0
SCALE
  5
57
102
{ACAD_REACTORS
330
47
102
}
330
47
100
AcDbScale
 70
     0
300
10:1
140
10.0
141
1.0
290
     0
  0
SCALE
  5
58
102
{ACAD_REACTORS
330
47
102
}
330
47
100
AcDbScale
 70
     0
300
100:1
140
100.0
141
1.0
290
     0
  0
SCALE
  5
59
102
{ACAD_REACTORS
330
47
102
}
330
47
100
AcDbScale
 70
     0
300
1/128" = 1'-0"
140
0.0078125
141
12.0
290
     0
  0
SCALE
  5
5A
102
{ACAD_REACTORS
330
47
102
}
330
47
100
AcDbScale
 70
     0
300
1/64" = 1'-0"
140
0.015625
141
12.0
290
     0
  0
SCALE
  5
5B
102
{ACAD_REACTORS
330
47
102
}
330
47
100
AcDbScale
 70
     0
300
1/32" = 1'-0"
140
0.03125
141
12.0
290
     0
  0
SCALE
  5
5C
102
{ACAD_REACTORS
330
47
102
}
330
47
100
AcDbScale
 70
     0
300
1/16" = 1'-0"
140
0.0625
141
12.0
290
     0
  0
SCALE
  5
5D
102
{ACAD_REACTORS
330
47
102
}
330
47
100
AcDbScale
 70
     0
300
3/32" = 1'-0"
140
0.09375
141
12.0
290
     0
  0
SCALE
  5
5E
102
{ACAD_REACTORS
330
47
102
}
330
47
100
AcDbScale
 70
     0
300
1/8" = 1'-0"
140
0.125
141
12.0
290
     0
  0
SCALE
  5
5F
102
{ACAD_REACTORS
330
47
102
}
330
47
100
AcDbScale
 70
     0
300
3/16" = 1'-0"
140
0.1875
141
12.0
290
     0
  0
SCALE
  5
60
102
{ACAD_REACTORS
330
47
102
}
330
47
100
AcDbScale
 70
     0
300
1/4" = 1'-0"
140
0.25
141
12.0
290
     0
  0
SCALE
  5
61
102
{ACAD_REACTORS
330
47
102
}
330
47
100
AcDbScale
 70
     0
300
3/8" = 1'-0"
140
0.375
141
12.0
290
     0
  0
SCALE
  5
62
102
{ACAD_REACTORS
330
47
102
}
330
47
100
AcDbScale
 70
     0
300
1/2" = 1'-0"
140
0.5
141
12.0
290
     0
  0
SCALE
  5
63
102
{ACAD_REACTORS
330
47
102
}
330
47
100
AcDbScale
 70
     0
300
3/4" = 1'-0"
140
0.75
141
12.0
290
     0
  0
SCALE
  5
64
102
{ACAD_REACTORS
330
47
102
}
330
47
100
AcDbScale
 70
     0
300
1" = 1'-0"
140
1.0
141
12.0
290
     0
  0
SCALE
  5
65
102
{ACAD_REACTORS
330
47
102
}
330
47
100
AcDbScale
 70
     0
300
1-1/2" = 1'-0"
140
1.5
141
12.0
290
     0
  0
SCALE
  5
66
102
{ACAD_REACTORS
330
47
102
}
330
47
100
AcDbScale
 70
     0
300
3" = 1'-0"
140
3.0
141
12.0
290
     0
  0
SCALE
  5
67
102
{ACAD_REACTORS
330
47
102
}
330
47
100
AcDbScale
 70
     0
300
6" = 1'-0"
140
6.0
141
12.0
290
     0
  0
SCALE
  5
68
102
{ACAD_REACTORS
330
47
102
}
330
47
100
AcDbScale
 70
     0
300
1'-0" = 1'-0"
140
12.0
141
12.0
290
     0
  0
ENDSEC
  0
EOF
