  0
SECTION
  2
HEADER
  9
$ACADVER
  1
AC1015
  9
$ACADMAINTVER
 70
     6
  9
$DWGCODEPAGE
  3
ANSI_1250
  9
$INSBASE
 10
0.0
 20
0.0
 30
0.0
  9
$EXTMIN
 10
0.0
 20
0.0
 30
0.0
  9
$EXTMAX
 10
431.8
 20
279.4
 30
0.0
  9
$LIMMIN
 10
0.0
 20
0.0
  9
$LIMMAX
 10
431.8
 20
279.4
  9
$ORTHOMODE
 70
     0
  9
$REGENMODE
 70
     1
  9
$FILLMODE
 70
     1
  9
$QTEXTMODE
 70
     0
  9
$MIRRTEXT
 70
     1
  9
$LTSCALE
 40
1.0
  9
$ATTMODE
 70
     1
  9
$TEXTSIZE
 40
3.8805555556
  9
$TRACEWID
 40
1.0
  9
$TEXTSTYLE
  7
Standard
  9
$CLAYER
  8
0
  9
$CELTYPE
  6
ByLayer
  9
$CECOLOR
 62
   256
  9
$CELTSCALE
 40
1.0
  9
$DISPSILH
 70
     0
  9
$DIMSCALE
 40
1.0
  9
$DIMASZ
 40
3.302
  9
$DIMEXO
 40
1.0
  9
$DIMDLI
 40
3.75
  9
$DIMRND
 40
0.0
  9
$DIMDLE
 40
0.0
  9
$DIMEXE
 40
1.0
  9
$DIMTP
 40
0.0
  9
$DIMTM
 40
0.0
  9
$DIMTXT
 40
3.8805555556
  9
$DIMCEN
 40
2.5
  9
$DIMTSZ
 40
0.0
  9
$DIMTOL
 70
     0
  9
$DIMLIM
 70
     0
  9
$DIMTIH
 70
     1
  9
$DIMTOH
 70
     1
  9
$DIMSE1
 70
     0
  9
$DIMSE2
 70
     0
  9
$DIMTAD
 70
     1
  9
$DIMZIN
 70
     0
  9
$DIMBLK
  1

  9
$DIMASO
 70
     1
  9
$DIMSHO
 70
     1
  9
$DIMPOST
  1

  9
$DIMAPOST
  1

  9
$DIMALT
 70
     0
  9
$DIMALTD
 70
     3
  9
$DIMALTF
 40
0.0393700787
  9
$DIMLFAC
 40
1.0
  9
$DIMTOFL
 70
     1
  9
$DIMTVP
 40
0.0
  9
$DIMTIX
 70
     0
  9
$DIMSOXD
 70
     0
  9
$DIMSAH
 70
     0
  9
$DIMBLK1
  1

  9
$DIMBLK2
  1

  9
$DIMSTYLE
  2
ISO-25
  9
$DIMCLRD
 70
     0
  9
$DIMCLRE
 70
     0
  9
$DIMCLRT
 70
     0
  9
$DIMTFAC
 40
1.0
  9
$DIMGAP
 40
1.524
  9
$DIMJUST
 70
     0
  9
$DIMSD1
 70
     0
  9
$DIMSD2
 70
     0
  9
$DIMTOLJ
 70
     0
  9
$DIMTZIN
 70
     0
  9
$DIMALTZ
 70
     0
  9
$DIMALTTZ
 70
     0
  9
$DIMUPT
 70
     0
  9
$DIMDEC
 70
     1
  9
$DIMTDEC
 70
     1
  9
$DIMALTU
 70
     2
  9
$DIMALTTD
 70
     3
  9
$DIMTXSTY
  7
Standard
  9
$DIMAUNIT
 70
     0
  9
$DIMADEC
 70
     1
  9
$DIMALTRND
 40
0.0
  9
$DIMAZIN
 70
     0
  9
$DIMDSEP
 70
    44
  9
$DIMATFIT
 70
     3
  9
$DIMFRAC
 70
     0
  9
$DIMLDRBLK
  1

  9
$DIMLUNIT
 70
     2
  9
$DIMLWD
 70
    -2
  9
$DIMLWE
 70
    -2
  9
$DIMTMOVE
 70
     0
  9
$LUNITS
 70
     2
  9
$LUPREC
 70
     1
  9
$SKETCHINC
 40
1.0
  9
$FILLETRAD
 40
10.0
  9
$AUNITS
 70
     0
  9
$AUPREC
 70
     1
  9
$MENU
  1
.
  9
$ELEVATION
 40
0.0
  9
$PELEVATION
 40
0.0
  9
$THICKNESS
 40
0.0
  9
$LIMCHECK
 70
     0
  9
$CHAMFERA
 40
0.0
  9
$CHAMFERB
 40
0.0
  9
$CHAMFERC
 40
0.0
  9
$CHAMFERD
 40
0.0
  9
$SKPOLY
 70
     0
  9
$TDCREATE
 40
2459537.337027454
  9
$TDUCREATE
 40
2459537.295360787
  9
$TDUPDATE
 40
2459537.337027743
  9
$TDUUPDATE
 40
2459537.295361076
  9
$TDINDWG
 40
0.0000000116
  9
$TDUSRTIMER
 40
0.0000000116
  9
$USRTIMER
 70
     1
  9
$ANGBASE
 50
0.0
  9
$ANGDIR
 70
     0
  9
$PDMODE
 70
     0
  9
$PDSIZE
 40
-1.0
  9
$PLINEWID
 40
0.0
  9
$SPLFRAME
 70
     0
  9
$SPLINETYPE
 70
     6
  9
$SPLINESEGS
 70
     8
  9
$HANDSEED
  5
4A1
  9
$SURFTAB1
 70
     6
  9
$SURFTAB2
 70
     6
  9
$SURFTYPE
 70
     6
  9
$SURFU
 70
     6
  9
$SURFV
 70
     6
  9
$UCSBASE
  2

  9
$UCSNAME
  2

  9
$UCSORG
 10
0.0
 20
0.0
 30
0.0
  9
$UCSXDIR
 10
1.0
 20
0.0
 30
0.0
  9
$UCSYDIR
 10
0.0
 20
1.0
 30
0.0
  9
$UCSORTHOREF
  2

  9
$UCSORTHOVIEW
 70
     0
  9
$UCSORGTOP
 10
0.0
 20
0.0
 30
0.0
  9
$UCSORGBOTTOM
 10
0.0
 20
0.0
 30
0.0
  9
$UCSORGLEFT
 10
0.0
 20
0.0
 30
0.0
  9
$UCSORGRIGHT
 10
0.0
 20
0.0
 30
0.0
  9
$UCSORGFRONT
 10
0.0
 20
0.0
 30
0.0
  9
$UCSORGBACK
 10
0.0
 20
0.0
 30
0.0
  9
$PUCSBASE
  2

  9
$PUCSNAME
  2

  9
$PUCSORG
 10
0.0
 20
0.0
 30
0.0
  9
$PUCSXDIR
 10
1.0
 20
0.0
 30
0.0
  9
$PUCSYDIR
 10
0.0
 20
1.0
 30
0.0
  9
$PUCSORTHOREF
  2

  9
$PUCSORTHOVIEW
 70
     0
  9
$PUCSORGTOP
 10
0.0
 20
0.0
 30
0.0
  9
$PUCSORGBOTTOM
 10
0.0
 20
0.0
 30
0.0
  9
$PUCSORGLEFT
 10
0.0
 20
0.0
 30
0.0
  9
$PUCSORGRIGHT
 10
0.0
 20
0.0
 30
0.0
  9
$PUCSORGFRONT
 10
0.0
 20
0.0
 30
0.0
  9
$PUCSORGBACK
 10
0.0
 20
0.0
 30
0.0
  9
$USERI1
 70
     0
  9
$USERI2
 70
     0
  9
$USERI3
 70
     0
  9
$USERI4
 70
     0
  9
$USERI5
 70
     0
  9
$USERR1
 40
0.0
  9
$USERR2
 40
0.0
  9
$USERR3
 40
0.0
  9
$USERR4
 40
0.0
  9
$USERR5
 40
0.0
  9
$WORLDVIEW
 70
     1
  9
$SHADEDGE
 70
     3
  9
$SHADEDIF
 70
    70
  9
$TILEMODE
 70
     1
  9
$MAXACTVP
 70
    64
  9
$PINSBASE
 10
0.0
 20
0.0
 30
0.0
  9
$PLIMCHECK
 70
     0
  9
$PEXTMIN
 10
1.0000000000E+20
 20
1.0000000000E+20
 30
1.0000000000E+20
  9
$PEXTMAX
 10
-1.0000000000E+20
 20
-1.0000000000E+20
 30
-1.0000000000E+20
  9
$PLIMMIN
 10
0.0
 20
0.0
  9
$PLIMMAX
 10
420.0
 20
297.0
  9
$UNITMODE
 70
     0
  9
$VISRETAIN
 70
     1
  9
$PLINEGEN
 70
     0
  9
$PSLTSCALE
 70
     1
  9
$TREEDEPTH
 70
  3020
  9
$CMLSTYLE
  2
Standard
  9
$CMLJUST
 70
     0
  9
$CMLSCALE
 40
20.0
  9
$PROXYGRAPHICS
 70
     1
  9
$MEASUREMENT
 70
     1
  9
$CELWEIGHT
370
    -1
  9
$ENDCAPS
280
     0
  9
$JOINSTYLE
280
     0
  9
$LWDISPLAY
290
     1
  9
$INSUNITS
 70
     4
  9
$HYPERLINKBASE
  1

  9
$STYLESHEET
  1

  9
$XEDIT
290
     1
  9
$CEPSNTYPE
380
     0
  9
$PSTYLEMODE
290
     1
  9
$FINGERPRINTGUID
  2
{82359e26-2947-43ef-b215-62002ff3ea23}
  9
$VERSIONGUID
  2
{FAEB1C32-E019-11D5-929B-00C0DF256EC4}
  9
$EXTNAMES
290
     1
  9
$PSVPSCALE
 40
0.0
  9
$OLESTARTUP
290
     0
  0
ENDSEC
  0
SECTION
  2
CLASSES
  0
CLASS
  1
ACDBDICTIONARYWDFLT
  2
AcDbDictionaryWithDefault
  3
ObjectDBX Classes
 90
        0
280
     0
281
     0
  0
CLASS
  1
VISUALSTYLE
  2
AcDbVisualStyle
  3
ObjectDBX Classes
 90
     4095
280
     0
281
     0
  0
CLASS
  1
MATERIAL
  2
AcDbMaterial
  3
ObjectDBX Classes
 90
     1153
280
     0
281
     0
  0
CLASS
  1
SCALE
  2
AcDbScale
  3
ObjectDBX Classes
 90
     1153
280
     0
281
     0
  0
CLASS
  1
TABLESTYLE
  2
AcDbTableStyle
  3
ObjectDBX Classes
 90
     4095
280
     0
281
     0
  0
CLASS
  1
MLEADERSTYLE
  2
AcDbMLeaderStyle
  3
ACDB_MLEADERSTYLE_CLASS
 90
     4095
280
     0
281
     0
  0
CLASS
  1
SUN
  2
AcDbSun
  3
SCENEOE
 90
     1153
280
     0
281
     0
  0
CLASS
  1
ACDBPLACEHOLDER
  2
AcDbPlaceHolder
  3
ObjectDBX Classes
 90
        0
280
     0
281
     0
  0
CLASS
  1
LAYOUT
  2
AcDbLayout
  3
ObjectDBX Classes
 90
        0
280
     0
281
     0
  0
ENDSEC
  0
SECTION
  2
TABLES
  0
TABLE
  2
VPORT
  5
8
330
0
100
AcDbSymbolTable
 70
     1
  0
VPORT
  5
29
330
8
100
AcDbSymbolTableRecord
100
AcDbViewportTableRecord
  2
*Active
 70
     0
 10
0.0
 20
0.0
 11
1.0
 21
1.0
 12
215.9
 22
139.7
 13
0.0
 23
0.0
 14
10.0
 24
10.0
 15
10.0
 25
10.0
 16
0.0
 26
0.0
 36
1.0
 17
0.0
 27
0.0
 37
0.0
 40
279.4
 41
1.5454545455
 42
50.0
 43
0.0
 44
0.0
 50
0.0
 51
0.0
 71
     0
 72
  2000
 73
     1
 74
     3
 75
     0
 76
     0
 77
     0
 78
     0
281
     0
 65
     1
110
0.0
120
0.0
130
0.0
111
1.0
121
0.0
131
0.0
112
0.0
122
1.0
132
0.0
 79
     0
146
0.0
  0
ENDTAB
  0
TABLE
  2
LTYPE
  5
5
330
0
100
AcDbSymbolTable
 70
     6
  0
LTYPE
  5
14
330
5
100
AcDbSymbolTableRecord
100
AcDbLinetypeTableRecord
  2
ByBlock
 70
     0
  3

 72
    65
 73
     0
 40
0.0
  0
LTYPE
  5
15
330
5
100
AcDbSymbolTableRecord
100
AcDbLinetypeTableRecord
  2
ByLayer
 70
     0
  3

 72
    65
 73
     0
 40
0.0
  0
LTYPE
  5
16
330
5
100
AcDbSymbolTableRecord
100
AcDbLinetypeTableRecord
  2
Continuous
 70
     0
  3
Solid line
 72
    65
 73
     0
 40
0.0
  0
LTYPE
  5
6E
330
5
100
AcDbSymbolTableRecord
100
AcDbLinetypeTableRecord
  2
HIDDEN
 70
     0
  3
Hidden __ __ __ __ __ __ __ __ __ __ __ __ __ __
 72
    65
 73
     2
 40
1.905
 49
1.27
 74
     0
 49
-0.635
 74
     0
  0
LTYPE
  5
6F
330
5
100
AcDbSymbolTableRecord
100
AcDbLinetypeTableRecord
  2
PHANTOM
 70
     0
  3
Phantom ______  __  __  ______  __  __  ______
 72
    65
 73
     6
 40
12.7
 49
6.35
 74
     0
 49
-1.27
 74
     0
 49
1.27
 74
     0
 49
-1.27
 74
     0
 49
1.27
 74
     0
 49
-1.27
 74
     0
  0
LTYPE
  5
70
330
5
100
AcDbSymbolTableRecord
100
AcDbLinetypeTableRecord
  2
CENTER
 70
     0
  3
Center ____ _ ____ _ ____ _ ____ _ ____ _ ____
 72
    65
 73
     4
 40
10.16
 49
6.35
 74
     0
 49
-1.27
 74
     0
 49
1.27
 74
     0
 49
-1.27
 74
     0
  0
LTYPE
  5
71
330
5
100
AcDbSymbolTableRecord
100
AcDbLinetypeTableRecord
  2
CENTERX2
 70
     0
  3
Center (2x) ________  __  ________  __  _____
 72
    65
 73
     4
 40
20.32
 49
12.7
 74
     0
 49
-2.54
 74
     0
 49
2.54
 74
     0
 49
-2.54
 74
     0
  0
LTYPE
  5
72
330
5
100
AcDbSymbolTableRecord
100
AcDbLinetypeTableRecord
  2
DOT2
 70
     0
  3
Dot (.5x) ........................................
 72
    65
 73
     2
 40
0.635
 49
0.0
 74
     0
 49
-0.635
 74
     0
  0
ENDTAB
  0
TABLE
  2
LAYER
  5
2
330
0
100
AcDbSymbolTable
 70
     3
  0
LAYER
  5
10
330
2
100
AcDbSymbolTableRecord
100
AcDbLayerTableRecord
  2
0
 70
     0
 62
     7
  6
Continuous
370
    -3
390
F
  0
LAYER
  5
73
330
2
100
AcDbSymbolTableRecord
100
AcDbLayerTableRecord
  2
FRAME_&_TABLE
 70
     0
 62
     8
  6
Continuous
370
    50
390
F
  0
LAYER
  5
74
330
2
100
AcDbSymbolTableRecord
100
AcDbLayerTableRecord
  2
DIMENSIONS
 70
     0
 62
     7
  6
Continuous
370
    -3
390
F
  0
ENDTAB
  0
TABLE
  2
STYLE
  5
3
330
0
100
AcDbSymbolTable
 70
     1
  0
STYLE
  5
11
330
3
100
AcDbSymbolTableRecord
100
AcDbTextStyleTableRecord
  2
Standard
 70
     0
 40
0.0
 41
1.0
 50
0.0
 71
     0
 42
3.8805555556
  3
txt
  4

  0
ENDTAB
  0
TABLE
  2
VIEW
  5
6
330
0
100
AcDbSymbolTable
 70
     0
  0
ENDTAB
  0
TABLE
  2
UCS
  5
7
330
0
100
AcDbSymbolTable
 70
     0
  0
ENDTAB
  0
TABLE
  2
APPID
  5
9
330
0
100
AcDbSymbolTable
 70
     1
  0
APPID
  5
12
330
9
100
AcDbSymbolTableRecord
100
AcDbRegAppTableRecord
  2
ACAD
 70
     0
  0
ENDTAB
  0
TABLE
  2
DIMSTYLE
  5
A
330
0
100
AcDbSymbolTable
 70
     1
100
AcDbDimStyleTable
  0
DIMSTYLE
105
27
330
A
100
AcDbSymbolTableRecord
100
AcDbDimStyleTableRecord
  2
ISO-25
 70
     0
 41
2.5
 42
0.625
 43
3.75
 44
1.25
 73
     0
 74
     0
 77
     1
 78
     8
140
2.5
141
2.5
143
0.0393700787
147
0.625
171
     3
172
     1
178
     0
271
     2
272
     2
274
     3
278
    44
283
     0
284
     8
340
11
  0
ENDTAB
  0
TABLE
  2
BLOCK_RECORD
  5
1
330
0
100
AcDbSymbolTable
 70
     1
  0
BLOCK_RECORD
  5
1F
330
1
100
AcDbSymbolTableRecord
100
AcDbBlockTableRecord
  2
*Model_Space
340
22
  0
BLOCK_RECORD
  5
1B
330
1
100
AcDbSymbolTableRecord
100
AcDbBlockTableRecord
  2
*Paper_Space
340
1E
  0
BLOCK_RECORD
  5
23
330
1
100
AcDbSymbolTableRecord
100
AcDbBlockTableRecord
  2
*Paper_Space0
340
26
  0
ENDTAB
  0
ENDSEC
  0
SECTION
  2
BLOCKS
  0
BLOCK
  5
20
330
1F
100
AcDbEntity
  8
0
100
AcDbBlockBegin
  2
*Model_Space
 70
     0
 10
0.0
 20
0.0
 30
0.0
  3
*Model_Space
  1

  0
ENDBLK
  5
21
330
1F
100
AcDbEntity
  8
0
100
AcDbBlockEnd
  0
BLOCK
  5
1C
330
1B
100
AcDbEntity
 67
     1
  8
0
100
AcDbBlockBegin
  2
*Paper_Space
 70
     0
 10
0.0
 20
0.0
 30
0.0
  3
*Paper_Space
  1

  0
ENDBLK
  5
1D
330
1B
100
AcDbEntity
 67
     1
  8
0
100
AcDbBlockEnd
  0
BLOCK
  5
24
330
23
100
AcDbEntity
  8
0
100
AcDbBlockBegin
  2
*Paper_Space0
 70
     0
 10
0.0
 20
0.0
 30
0.0
  3
*Paper_Space0
  1

  0
ENDBLK
  5
25
330
23
100
AcDbEntity
  8
0
100
AcDbBlockEnd
  0
ENDSEC
  0
SECTION
  2
ENTITIES
  0
LINE
  5
75
330
1F
100
AcDbEntity
  8
0
  6
Continuous
 62
     7
370
    25
100
AcDbLine
 10
264.9818011679
 20
215.0974744456
 30
0.0
 11
262.1910527218
 21
219.9311925455
 31
0.0
  0
LINE
  5
76
330
1F
100
AcDbEntity
  8
0
  6
Continuous
 62
     7
370
    25
100
AcDbLine
 10
252.2244410808
 20
237.1938702869
 30
0.0
 11
248.6012241194
 21
243.469466151
 31
0.0
  0
LINE
  5
77
330
1F
100
AcDbEntity
  8
0
  6
Continuous
 62
     7
370
    25
100
AcDbLine
 10
238.208919274
 20
237.469466151
 30
0.0
 11
241.8327668787
 21
231.1927779808
 31
0.0
  0
LINE
  5
78
330
1F
100
AcDbEntity
  8
0
  6
Continuous
 62
     7
370
    25
100
AcDbLine
 10
251.7921380777
 20
213.9426410526
 30
0.0
 11
254.3530562912
 21
209.5070005928
 31
0.0
  0
LINE
  5
79
330
1F
100
AcDbEntity
  8
0
  6
Continuous
 62
     7
370
    25
100
AcDbLine
 10
254.353056612
 20
86.1024958549
 30
0.0
 11
251.7952248042
 21
81.6722012065
 31
0.0
  0
LINE
  5
7A
330
1F
100
AcDbEntity
  8
0
  6
Continuous
 62
     7
370
    25
100
AcDbLine
 10
241.8367226464
 20
64.4235695019
 30
0.0
 11
238.208919274
 21
58.1400297411
 31
0.0
  0
LINE
  5
7B
330
1F
100
AcDbEntity
  8
0
  6
Continuous
 62
     7
370
    25
100
AcDbLine
 10
248.6012241194
 20
52.1400297411
 30
0.0
 11
252.2307450473
 21
58.4265443953
 31
0.0
  0
LINE
  5
7C
330
1F
100
AcDbEntity
  8
0
  6
Continuous
 62
     7
370
    25
100
AcDbLine
 10
262.1867015093
 20
75.6707668255
 30
0.0
 11
264.9818014717
 21
80.5120219726
 31
0.0
  0
ARC
  5
7D
330
1F
100
AcDbEntity
  8
0
  6
Continuous
 62
     7
370
    25
100
AcDbCircle
 10
296.7496354345
 20
147.471024596
 30
0.0
 40
79.71400830115734
100
AcDbArc
 50
224.2749737541
 51
258.5355151433
  0
ARC
  5
7E
330
1F
100
AcDbEntity
  8
0
  6
Continuous
 62
     7
370
    25
100
AcDbCircle
 10
296.8032978337
 20
147.9711367214
 30
0.0
 40
79.88382053400977
100
AcDbArc
 50
101.4834257706
 51
135.6991332603
  0
ARC
  5
7F
330
1F
100
AcDbEntity
  8
0
  6
Continuous
 62
     7
370
    25
100
AcDbCircle
 10
296.8569589692
 20
147.9028230421
 30
0.0
 40
99.82551694181159
100
AcDbArc
 50
87.2225526378
 51
152.3134657766
  0
LWPOLYLINE
  5
80
330
1F
100
AcDbEntity
  8
0
  6
Continuous
 62
     7
370
    25
100
AcDbPolyline
 90
        3
 70
   128
 43
0.0
 10
201.5456618168
 20
177.6206180388
 10
200.819613655
 20
175.2600991992
 10
200.3018756853
 20
173.304747946
  0
LWPOLYLINE
  5
81
330
1F
100
AcDbEntity
  8
0
  6
Continuous
 62
     7
370
    25
100
AcDbPolyline
 90
        3
 70
   128
 43
0.0
 10
200.2992500061
 20
122.304747946
 10
201.0291925245
 20
119.6296082051
 10
201.5456618168
 20
117.9929041101
  0
ARC
  5
82
330
1F
100
AcDbEntity
  8
0
  6
Continuous
 62
     7
370
    25
100
AcDbCircle
 10
296.854888914
 20
147.7397400979
 30
0.0
 40
99.85138879218749
100
AcDbArc
 50
207.6845855373
 51
273.0019585307
  0
LINE
  5
83
330
1F
100
AcDbEntity
  8
0
  6
Continuous
 62
     7
370
    25
100
AcDbLine
 10
-210.4319992596
 20
124.834747946
 30
0.0
 11
-210.4319992596
 21
125.304747946
 31
0.0
  0
LINE
  5
84
330
1F
100
AcDbEntity
  8
0
  6
Continuous
 62
     7
370
    25
100
AcDbLine
 10
-221.7719992596
 20
125.304747946
 30
0.0
 11
-221.7719992596
 21
124.834747946
 31
0.0
  0
LINE
  5
85
330
1F
100
AcDbEntity
  8
0
  6
Continuous
 62
     7
370
    25
100
AcDbLine
 10
-143.8689118493
 20
124.834747946
 30
0.0
 11
-143.8689118493
 21
125.304747946
 31
0.0
  0
LINE
  5
86
330
1F
100
AcDbEntity
  8
0
  6
Continuous
 62
     7
370
    25
100
AcDbLine
 10
-155.2089118493
 20
125.304747946
 30
0.0
 11
-155.2089118493
 21
124.834747946
 31
0.0
  0
LINE
  5
87
330
1F
100
AcDbEntity
  8
0
  6
Continuous
 62
     7
370
    25
100
AcDbLine
 10
-221.7719992596
 20
170.774747946
 30
0.0
 11
-221.7719992596
 21
170.304747946
 31
0.0
  0
LINE
  5
88
330
1F
100
AcDbEntity
  8
0
  6
Continuous
 62
     7
370
    25
100
AcDbLine
 10
-210.4319992596
 20
170.304747946
 30
0.0
 11
-210.4319992596
 21
170.774747946
 31
0.0
  0
LINE
  5
89
330
1F
100
AcDbEntity
  8
0
  6
Continuous
 62
     7
370
    25
100
AcDbLine
 10
-158.2711820573
 20
124.834747946
 30
0.0
 11
-158.2711820573
 21
125.304747946
 31
0.0
  0
LINE
  5
8A
330
1F
100
AcDbEntity
  8
0
  6
Continuous
 62
     7
370
    25
100
AcDbLine
 10
-169.6111820573
 20
125.304747946
 30
0.0
 11
-169.6111820573
 21
124.834747946
 31
0.0
  0
LINE
  5
8B
330
1F
100
AcDbEntity
  8
0
  6
Continuous
 62
     7
370
    25
100
AcDbLine
 10
-155.2089118493
 20
170.774747946
 30
0.0
 11
-155.2089118493
 21
170.304747946
 31
0.0
  0
LINE
  5
8C
330
1F
100
AcDbEntity
  8
0
  6
Continuous
 62
     7
370
    25
100
AcDbLine
 10
-143.8689118493
 20
170.304747946
 30
0.0
 11
-143.8689118493
 21
170.774747946
 31
0.0
  0
LINE
  5
8D
330
1F
100
AcDbEntity
  8
0
  6
Continuous
 62
     7
370
    25
100
AcDbLine
 10
-169.6111820573
 20
170.774747946
 30
0.0
 11
-169.6111820573
 21
170.304747946
 31
0.0
  0
LINE
  5
8E
330
1F
100
AcDbEntity
  8
0
  6
Continuous
 62
     7
370
    25
100
AcDbLine
 10
-158.2711820573
 20
170.304747946
 30
0.0
 11
-158.2711820573
 21
170.774747946
 31
0.0
  0
LINE
  5
8F
330
1F
100
AcDbEntity
  8
0
  6
Continuous
 62
     7
370
    25
100
AcDbLine
 10
-234.5939801958
 20
167.304747946
 30
0.0
 11
-234.5939801958
 21
158.304747946
 31
0.0
  0
ARC
  5
90
330
1F
100
AcDbEntity
  8
0
  6
Continuous
 62
     7
370
    25
100
AcDbCircle
 10
-231.5939801958
 20
167.304747946
 30
0.0
 40
3.0
100
AcDbArc
 50
90.0
 51
180.0
  0
ARC
  5
91
330
1F
100
AcDbEntity
  8
0
  6
Continuous
 62
     7
370
    25
100
AcDbCircle
 10
-231.5939801958
 20
158.304747946
 30
0.0
 40
3.0
100
AcDbArc
 50
180.0
 51
270.0
  0
ARC
  5
92
330
1F
100
AcDbEntity
  8
0
  6
Continuous
 62
     7
370
    25
100
AcDbCircle
 10
-231.5939801958
 20
128.304747946
 30
0.0
 40
3.000000000000014
100
AcDbArc
 50
180.0
 51
270.0
  0
ARC
  5
93
330
1F
100
AcDbEntity
  8
0
  6
Continuous
 62
     7
370
    25
100
AcDbCircle
 10
-231.5939801958
 20
137.304747946
 30
0.0
 40
3.0
100
AcDbArc
 50
90.0
 51
180.0
  0
LINE
  5
94
330
1F
100
AcDbEntity
  8
0
  6
Continuous
 62
     7
370
    25
100
AcDbLine
 10
-234.5939801958
 20
137.304747946
 30
0.0
 11
-234.5939801958
 21
128.304747946
 31
0.0
  0
ARC
  5
95
330
1F
100
AcDbEntity
  8
0
  6
Continuous
 62
     7
370
    25
100
AcDbCircle
 10
-134.0119611545
 20
137.304747946
 30
0.0
 40
3.000000000000028
100
AcDbArc
 50
90.0
 51
180.0
  0
ARC
  5
96
330
1F
100
AcDbEntity
  8
0
  6
Continuous
 62
     7
370
    25
100
AcDbCircle
 10
-134.0119611545
 20
128.304747946
 30
0.0
 40
3.000000000000028
100
AcDbArc
 50
180.0
 51
270.0
  0
LINE
  5
97
330
1F
100
AcDbEntity
  8
0
  6
Continuous
 62
     7
370
    25
100
AcDbLine
 10
-137.0119611545
 20
137.304747946
 30
0.0
 11
-137.0119611545
 21
128.304747946
 31
0.0
  0
ARC
  5
98
330
1F
100
AcDbEntity
  8
0
  6
Continuous
 62
     7
370
    25
100
AcDbCircle
 10
66.1994013823
 20
128.304747946
 30
0.0
 40
3.000000000000028
100
AcDbArc
 50
270.0
 51
0.0
  0
ARC
  5
99
330
1F
100
AcDbEntity
  8
0
  6
Continuous
 62
     7
370
    25
100
AcDbCircle
 10
66.1994013823
 20
137.304747946
 30
0.0
 40
3.000000000000028
100
AcDbArc
 50
0.0
 51
90.0
  0
LINE
  5
9A
330
1F
100
AcDbEntity
  8
0
  6
Continuous
 62
     7
370
    25
100
AcDbLine
 10
69.1994013823
 20
128.304747946
 30
0.0
 11
69.1994013823
 21
137.304747946
 31
0.0
  0
ARC
  5
9B
330
1F
100
AcDbEntity
  8
0
  6
Continuous
 62
     7
370
    25
100
AcDbCircle
 10
-164.8949350793
 20
128.304747946
 30
0.0
 40
3.0
100
AcDbArc
 50
180.0
 51
270.0
  0
ARC
  5
9C
330
1F
100
AcDbEntity
  8
0
  6
Continuous
 62
     7
370
    25
100
AcDbCircle
 10
-164.8949350793
 20
137.304747946
 30
0.0
 40
3.0
100
AcDbArc
 50
90.0
 51
180.0
  0
LINE
  5
9D
330
1F
100
AcDbEntity
  8
0
  6
Continuous
 62
     7
370
    25
100
AcDbLine
 10
-167.8949350793
 20
137.304747946
 30
0.0
 11
-167.8949350793
 21
128.304747946
 31
0.0
  0
ARC
  5
9E
330
1F
100
AcDbEntity
  8
0
  6
Continuous
 62
     7
370
    25
100
AcDbCircle
 10
79.3495841076
 20
137.304747946
 30
0.0
 40
3.0
100
AcDbArc
 50
0.0
 51
90.0
  0
LINE
  5
9F
330
1F
100
AcDbEntity
  8
0
  6
Continuous
 62
     7
370
    25
100
AcDbLine
 10
82.3495841076
 20
128.304747946
 30
0.0
 11
82.3495841076
 21
137.304747946
 31
0.0
  0
ARC
  5
A0
330
1F
100
AcDbEntity
  8
0
  6
Continuous
 62
     7
370
    25
100
AcDbCircle
 10
79.3495841076
 20
128.304747946
 30
0.0
 40
3.0
100
AcDbArc
 50
270.0
 51
0.0
  0
ARC
  5
A1
330
1F
100
AcDbEntity
  8
0
  6
Continuous
 62
     7
370
    25
100
AcDbCircle
 10
80.0902509054
 20
137.304747946
 30
0.0
 40
3.0
100
AcDbArc
 50
0.0
 51
90.0
  0
ARC
  5
A2
330
1F
100
AcDbEntity
  8
0
  6
Continuous
 62
     7
370
    25
100
AcDbCircle
 10
80.0902509054
 20
128.304747946
 30
0.0
 40
2.999999999999986
100
AcDbArc
 50
270.0
 51
0.0
  0
LINE
  5
A3
330
1F
100
AcDbEntity
  8
0
  6
Continuous
 62
     7
370
    25
100
AcDbLine
 10
83.0902509054
 20
128.304747946
 30
0.0
 11
83.0902509054
 21
137.304747946
 31
0.0
  0
ARC
  5
A4
330
1F
100
AcDbEntity
  8
0
  6
Continuous
 62
     7
370
    25
100
AcDbCircle
 10
-134.0119611545
 20
158.304747946
 30
0.0
 40
3.000000000000028
100
AcDbArc
 50
180.0
 51
270.0
  0
ARC
  5
A5
330
1F
100
AcDbEntity
  8
0
  6
Continuous
 62
     7
370
    25
100
AcDbCircle
 10
-134.0119611545
 20
167.304747946
 30
0.0
 40
3.000000000000028
100
AcDbArc
 50
90.0
 51
180.0
  0
LINE
  5
A6
330
1F
100
AcDbEntity
  8
0
  6
Continuous
 62
     7
370
    25
100
AcDbLine
 10
-137.0119611545
 20
167.304747946
 30
0.0
 11
-137.0119611545
 21
158.304747946
 31
0.0
  0
ARC
  5
A7
330
1F
100
AcDbEntity
  8
0
  6
Continuous
 62
     7
370
    25
100
AcDbCircle
 10
66.1994013823
 20
158.304747946
 30
0.0
 40
3.000000000000028
100
AcDbArc
 50
270.0
 51
0.0
  0
LINE
  5
A8
330
1F
100
AcDbEntity
  8
0
  6
Continuous
 62
     7
370
    25
100
AcDbLine
 10
69.1994013823
 20
158.304747946
 30
0.0
 11
69.1994013823
 21
167.304747946
 31
0.0
  0
ARC
  5
A9
330
1F
100
AcDbEntity
  8
0
  6
Continuous
 62
     7
370
    25
100
AcDbCircle
 10
66.1994013823
 20
167.304747946
 30
0.0
 40
3.000000000000028
100
AcDbArc
 50
0.0
 51
90.0
  0
ARC
  5
AA
330
1F
100
AcDbEntity
  8
0
  6
Continuous
 62
     7
370
    25
100
AcDbCircle
 10
-164.8949350793
 20
158.304747946
 30
0.0
 40
3.000000000000028
100
AcDbArc
 50
180.0
 51
270.0
  0
ARC
  5
AB
330
1F
100
AcDbEntity
  8
0
  6
Continuous
 62
     7
370
    25
100
AcDbCircle
 10
-164.8949350793
 20
167.304747946
 30
0.0
 40
3.0
100
AcDbArc
 50
90.0
 51
180.0
  0
LINE
  5
AC
330
1F
100
AcDbEntity
  8
0
  6
Continuous
 62
     7
370
    25
100
AcDbLine
 10
-167.8949350793
 20
167.304747946
 30
0.0
 11
-167.8949350793
 21
158.304747946
 31
0.0
  0
ARC
  5
AD
330
1F
100
AcDbEntity
  8
0
  6
Continuous
 62
     7
370
    25
100
AcDbCircle
 10
79.3495841076
 20
167.304747946
 30
0.0
 40
3.0
100
AcDbArc
 50
0.0
 51
90.0
  0
LINE
  5
AE
330
1F
100
AcDbEntity
  8
0
  6
Continuous
 62
     7
370
    25
100
AcDbLine
 10
82.3495841076
 20
158.304747946
 30
0.0
 11
82.3495841076
 21
167.304747946
 31
0.0
  0
ARC
  5
AF
330
1F
100
AcDbEntity
  8
0
  6
Continuous
 62
     7
370
    25
100
AcDbCircle
 10
79.3495841076
 20
158.304747946
 30
0.0
 40
3.000000000000028
100
AcDbArc
 50
270.0
 51
0.0
  0
LINE
  5
B0
330
1F
100
AcDbEntity
  8
0
  6
Continuous
 62
     7
370
    25
100
AcDbLine
 10
83.0902509054
 20
158.304747946
 30
0.0
 11
83.0902509054
 21
167.304747946
 31
0.0
  0
ARC
  5
B1
330
1F
100
AcDbEntity
  8
0
  6
Continuous
 62
     7
370
    25
100
AcDbCircle
 10
80.0902509054
 20
158.304747946
 30
0.0
 40
3.000000000000028
100
AcDbArc
 50
270.0
 51
0.0
  0
ARC
  5
B2
330
1F
100
AcDbEntity
  8
0
  6
Continuous
 62
     7
370
    25
100
AcDbCircle
 10
80.0902509054
 20
167.304747946
 30
0.0
 40
2.999999999999986
100
AcDbArc
 50
0.0
 51
90.0
  0
ARC
  5
B3
330
1F
100
AcDbEntity
  8
0
  6
Continuous
 62
     7
370
    25
100
AcDbCircle
 10
-148.4128925779
 20
154.695372946
 30
0.0
 40
29.89062499999996
100
AcDbArc
 50
267.4327563406
 51
272.5672436594
  0
LWPOLYLINE
  5
B4
330
1F
100
AcDbEntity
  8
0
  6
Continuous
 62
     7
370
    25
100
AcDbPolyline
 90
        3
 70
   128
 43
0.0
 10
-143.8689118493
 20
125.1521554159
 10
-143.1517987829
 20
125.2713970935
 10
-142.9685721428
 20
125.304747946
  0
LWPOLYLINE
  5
B5
330
1F
100
AcDbEntity
  8
0
  6
Continuous
 62
     7
370
    25
100
AcDbPolyline
 90
        3
 70
   128
 43
0.0
 10
-142.9685721428
 20
170.304747946
 10
-143.1517987829
 20
170.3380987986
 10
-143.8689118493
 20
170.4573404761
  0
ARC
  5
B6
330
1F
100
AcDbEntity
  8
0
  6
Continuous
 62
     7
370
    25
100
AcDbCircle
 10
-148.4128925779
 20
140.914122946
 30
0.0
 40
29.89062499999994
100
AcDbArc
 50
87.4327563406
 51
92.5672436594
  0
LINE
  5
B7
330
1F
100
AcDbEntity
  8
0
  6
Continuous
 62
     7
370
    25
100
AcDbLine
 10
-13.8918854535
 20
125.304747946
 30
0.0
 11
-13.8918854535
 21
51.304747946
 31
0.0
  0
ARC
  5
B8
330
1F
100
AcDbEntity
  8
0
  6
Continuous
 62
     7
370
    25
100
AcDbCircle
 10
-12.8918854535
 20
51.304747946
 30
0.0
 40
1.000000000000007
100
AcDbArc
 50
180.0
 51
270.0
  0
LINE
  5
B9
330
1F
100
AcDbEntity
  8
0
  6
Continuous
 62
     7
370
    25
100
AcDbLine
 10
-7.7113634535
 20
125.304747946
 30
0.0
 11
-7.7113634535
 21
122.304747946
 31
0.0
  0
LINE
  5
BA
330
1F
100
AcDbEntity
  8
0
  6
Continuous
 62
     7
370
    25
100
AcDbLine
 10
40.2886365465
 20
122.304747946
 30
0.0
 11
40.2886365465
 21
125.304747946
 31
0.0
  0
ARC
  5
BB
330
1F
100
AcDbEntity
  8
0
  6
Continuous
 62
     7
370
    25
100
AcDbCircle
 10
-4.7113634535
 20
122.304747946
 30
0.0
 40
3.0
100
AcDbArc
 50
180.0
 51
270.0
  0
ARC
  5
BC
330
1F
100
AcDbEntity
  8
0
  6
Continuous
 62
     7
370
    25
100
AcDbCircle
 10
37.2886365465
 20
122.304747946
 30
0.0
 40
3.000000000000007
100
AcDbArc
 50
270.0
 51
0.0
  0
ARC
  5
BD
330
1F
100
AcDbEntity
  8
0
  6
Continuous
 62
     7
370
    25
100
AcDbCircle
 10
-3.7113634535
 20
116.304747946
 30
0.0
 40
3.000000000000003
100
AcDbArc
 50
0.0
 51
90.0
  0
ARC
  5
BE
330
1F
100
AcDbEntity
  8
0
  6
Continuous
 62
     7
370
    25
100
AcDbCircle
 10
36.2886365465
 20
116.304747946
 30
0.0
 40
3.0
100
AcDbArc
 50
90.0
 51
180.0
  0
LINE
  5
BF
330
1F
100
AcDbEntity
  8
0
  6
Continuous
 62
     7
370
    25
100
AcDbLine
 10
-0.7113634535
 20
116.304747946
 30
0.0
 11
-0.7113634535
 21
36.304747946
 31
0.0
  0
LINE
  5
C0
330
1F
100
AcDbEntity
  8
0
  6
Continuous
 62
     7
370
    25
100
AcDbLine
 10
33.2886365465
 20
36.304747946
 30
0.0
 11
33.2886365465
 21
116.304747946
 31
0.0
  0
ARC
  5
C1
330
1F
100
AcDbEntity
  8
0
  6
Continuous
 62
     7
370
    25
100
AcDbCircle
 10
0.2886365465
 20
36.304747946
 30
0.0
 40
1.000000000000001
100
AcDbArc
 50
180.0
 51
270.0
  0
ARC
  5
C2
330
1F
100
AcDbEntity
  8
0
  6
Continuous
 62
     7
370
    25
100
AcDbCircle
 10
32.2886365465
 20
36.304747946
 30
0.0
 40
1.0
100
AcDbArc
 50
270.0
 51
0.0
  0
ARC
  5
C3
330
1F
100
AcDbEntity
  8
0
  6
Continuous
 62
     7
370
    25
100
AcDbCircle
 10
37.2886365465
 20
173.304747946
 30
0.0
 40
3.000000000000007
100
AcDbArc
 50
0.0
 51
90.0
  0
ARC
  5
C4
330
1F
100
AcDbEntity
  8
0
  6
Continuous
 62
     7
370
    25
100
AcDbCircle
 10
-4.7113634535
 20
173.304747946
 30
0.0
 40
3.0
100
AcDbArc
 50
90.0
 51
180.0
  0
LINE
  5
C5
330
1F
100
AcDbEntity
  8
0
  6
Continuous
 62
     7
370
    25
100
AcDbLine
 10
40.2886365465
 20
170.304747946
 30
0.0
 11
40.2886365465
 21
173.304747946
 31
0.0
  0
LINE
  5
C6
330
1F
100
AcDbEntity
  8
0
  6
Continuous
 62
     7
370
    25
100
AcDbLine
 10
-7.7113634535
 20
173.304747946
 30
0.0
 11
-7.7113634535
 21
170.304747946
 31
0.0
  0
ARC
  5
C7
330
1F
100
AcDbEntity
  8
0
  6
Continuous
 62
     7
370
    25
100
AcDbCircle
 10
36.2886365465
 20
179.304747946
 30
0.0
 40
3.0
100
AcDbArc
 50
180.0
 51
270.0
  0
ARC
  5
C8
330
1F
100
AcDbEntity
  8
0
  6
Continuous
 62
     7
370
    25
100
AcDbCircle
 10
-3.7113634535
 20
179.304747946
 30
0.0
 40
3.000000000000003
100
AcDbArc
 50
270.0
 51
0.0
  0
LINE
  5
C9
330
1F
100
AcDbEntity
  8
0
  6
Continuous
 62
     7
370
    25
100
AcDbLine
 10
33.2886365465
 20
179.304747946
 30
0.0
 11
33.2886365465
 21
259.304747946
 31
0.0
  0
LINE
  5
CA
330
1F
100
AcDbEntity
  8
0
  6
Continuous
 62
     7
370
    25
100
AcDbLine
 10
-0.7113634535
 20
259.304747946
 30
0.0
 11
-0.7113634535
 21
179.304747946
 31
0.0
  0
ARC
  5
CB
330
1F
100
AcDbEntity
  8
0
  6
Continuous
 62
     7
370
    25
100
AcDbCircle
 10
32.2886365465
 20
259.304747946
 30
0.0
 40
1.0
100
AcDbArc
 50
0.0
 51
90.0
  0
ARC
  5
CC
330
1F
100
AcDbEntity
  8
0
  6
Continuous
 62
     7
370
    25
100
AcDbCircle
 10
0.2886365465
 20
259.304747946
 30
0.0
 40
1.000000000000001
100
AcDbArc
 50
90.0
 51
180.0
  0
LINE
  5
CD
330
1F
100
AcDbEntity
  8
0
  6
Continuous
 62
     7
370
    25
100
AcDbLine
 10
-13.8918854535
 20
244.304747946
 30
0.0
 11
-13.8918854535
 21
170.304747946
 31
0.0
  0
ARC
  5
CE
330
1F
100
AcDbEntity
  8
0
  6
Continuous
 62
     7
370
    25
100
AcDbCircle
 10
-12.8918854535
 20
244.304747946
 30
0.0
 40
1.000000000000002
100
AcDbArc
 50
90.0
 51
180.0
  0
ARC
  5
CF
330
1F
100
AcDbEntity
  8
0
  6
Continuous
 62
     7
370
    25
100
AcDbCircle
 10
-20.8918854535
 20
258.6849472684
 30
0.0
 40
1.00000000000001
100
AcDbArc
 50
180.0
 51
221.6335393366
  0
LINE
  5
D0
330
1F
100
AcDbEntity
  8
0
  6
Continuous
 62
     7
370
    25
100
AcDbLine
 10
-21.8918854535
 20
261.46504677
 30
0.0
 11
-21.8918854535
 21
258.6849472684
 31
0.0
  0
ARC
  5
D1
330
1F
100
AcDbEntity
  8
0
  6
Continuous
 62
     7
370
    25
100
AcDbCircle
 10
-20.8918854535
 20
261.46504677
 30
0.0
 40
1.0
100
AcDbArc
 50
99.5630855191
 51
180.0
  0
LINE
  5
D2
330
1F
100
AcDbEntity
  8
0
  6
Continuous
 62
     7
370
    25
100
AcDbLine
 10
-21.6392947722
 20
258.0205834295
 30
0.0
 11
-14.1444761348
 21
249.5889124625
 31
0.0
  0
ARC
  5
D3
330
1F
100
AcDbEntity
  8
0
  6
Continuous
 62
     7
370
    25
100
AcDbCircle
 10
-10.8532245557
 20
201.8794780707
 30
0.0
 40
61.42528204188938
100
AcDbArc
 50
90.036061803
 51
99.5630855191
  0
ARC
  5
D4
330
1F
100
AcDbEntity
  8
0
  6
Continuous
 62
     7
370
    25
100
AcDbCircle
 10
-14.8918854535
 20
248.9245486237
 30
0.0
 40
1.000000000000002
100
AcDbArc
 50
0.0
 51
41.6335393366
  0
ARC
  5
D5
330
1F
100
AcDbEntity
  8
0
  6
Continuous
 62
     7
370
    25
100
AcDbCircle
 10
-12.8918854535
 20
246.304747946
 30
0.0
 40
1.000000000000002
100
AcDbArc
 50
180.0
 51
270.0
  0
LINE
  5
D6
330
1F
100
AcDbEntity
  8
0
  6
Continuous
 62
     7
370
    25
100
AcDbLine
 10
-13.8918854535
 20
248.9245486237
 30
0.0
 11
-13.8918854535
 21
246.304747946
 31
0.0
  0
ARC
  5
D7
330
1F
100
AcDbEntity
  8
0
  6
Continuous
 62
     7
370
    25
100
AcDbCircle
 10
-7.7113634535
 20
276.46504677
 30
0.0
 40
1.000000000000001
100
AcDbArc
 50
99.5630855191
 51
180.0
  0
ARC
  5
D8
330
1F
100
AcDbEntity
  8
0
  6
Continuous
 62
     7
370
    25
100
AcDbCircle
 10
40.2886365465
 20
276.46504677
 30
0.0
 40
1.0
100
AcDbArc
 50
0.0
 51
80.4369144809
  0
LINE
  5
D9
330
1F
100
AcDbEntity
  8
0
  6
Continuous
 62
     7
370
    25
100
AcDbLine
 10
41.2886365465
 20
273.6849472684
 30
0.0
 11
41.2886365465
 21
276.46504677
 31
0.0
  0
LINE
  5
DA
330
1F
100
AcDbEntity
  8
0
  6
Continuous
 62
     7
370
    25
100
AcDbLine
 10
-8.7113634535
 20
276.46504677
 30
0.0
 11
-8.7113634535
 21
273.6849472684
 31
0.0
  0
ARC
  5
DB
330
1F
100
AcDbEntity
  8
0
  6
Continuous
 62
     7
370
    25
100
AcDbCircle
 10
-7.7113634535
 20
273.6849472684
 30
0.0
 40
1.000000000000031
100
AcDbArc
 50
180.0
 51
221.6335393366
  0
ARC
  5
DC
330
1F
100
AcDbEntity
  8
0
  6
Continuous
 62
     7
370
    25
100
AcDbCircle
 10
40.2886365465
 20
273.6849472684
 30
0.0
 40
1.000000000000029
100
AcDbArc
 50
318.3664606634
 51
0.0
  0
LINE
  5
DD
330
1F
100
AcDbEntity
  8
0
  6
Continuous
 62
     7
370
    25
100
AcDbLine
 10
-8.4587727722
 20
273.0205834295
 30
0.0
 11
-0.9639541348
 21
264.5889124625
 31
0.0
  0
LINE
  5
DE
330
1F
100
AcDbEntity
  8
0
  6
Continuous
 62
     7
370
    25
100
AcDbLine
 10
33.5412272278
 20
264.5889124625
 30
0.0
 11
41.0360458652
 21
273.0205834295
 31
0.0
  0
ARC
  5
DF
330
1F
100
AcDbEntity
  8
0
  6
Continuous
 62
     7
370
    25
100
AcDbCircle
 10
30.2499756487
 20
216.8794780707
 30
0.0
 40
61.42528204188944
100
AcDbArc
 50
80.4369144809
 51
89.963938197
  0
ARC
  5
E0
330
1F
100
AcDbEntity
  8
0
  6
Continuous
 62
     7
370
    25
100
AcDbCircle
 10
2.3272974443
 20
216.8794780707
 30
0.0
 40
61.42528204188944
100
AcDbArc
 50
90.036061803
 51
99.5630855191
  0
ARC
  5
E1
330
1F
100
AcDbEntity
  8
0
  6
Continuous
 62
     7
370
    25
100
AcDbCircle
 10
34.2886365465
 20
263.9245486237
 30
0.0
 40
1.000000000000029
100
AcDbArc
 50
138.3664606634
 51
180.0
  0
ARC
  5
E2
330
1F
100
AcDbEntity
  8
0
  6
Continuous
 62
     7
370
    25
100
AcDbCircle
 10
-1.7113634535
 20
263.9245486237
 30
0.0
 40
1.00000000000003
100
AcDbArc
 50
0.0
 51
41.6335393366
  0
ARC
  5
E3
330
1F
100
AcDbEntity
  8
0
  6
Continuous
 62
     7
370
    25
100
AcDbCircle
 10
32.2886365465
 20
261.304747946
 30
0.0
 40
1.0
100
AcDbArc
 50
270.0
 51
0.0
  0
ARC
  5
E4
330
1F
100
AcDbEntity
  8
0
  6
Continuous
 62
     7
370
    25
100
AcDbCircle
 10
0.2886365465
 20
261.304747946
 30
0.0
 40
1.000000000000001
100
AcDbArc
 50
180.0
 51
270.0
  0
LINE
  5
E5
330
1F
100
AcDbEntity
  8
0
  6
Continuous
 62
     7
370
    25
100
AcDbLine
 10
33.2886365465
 20
261.304747946
 30
0.0
 11
33.2886365465
 21
263.9245486237
 31
0.0
  0
LINE
  5
E6
330
1F
100
AcDbEntity
  8
0
  6
Continuous
 62
     7
370
    25
100
AcDbLine
 10
-0.7113634535
 20
263.9245486237
 30
0.0
 11
-0.7113634535
 21
261.304747946
 31
0.0
  0
ARC
  5
E7
330
1F
100
AcDbEntity
  8
0
  6
Continuous
 62
     7
370
    25
100
AcDbCircle
 10
-20.8918854535
 20
36.9245486237
 30
0.0
 40
1.0
100
AcDbArc
 50
138.3664606634
 51
180.0
  0
ARC
  5
E8
330
1F
100
AcDbEntity
  8
0
  6
Continuous
 62
     7
370
    25
100
AcDbCircle
 10
-20.8918854535
 20
34.1444491221
 30
0.0
 40
1.00000000000002
100
AcDbArc
 50
180.0
 51
260.4369144809
  0
LINE
  5
E9
330
1F
100
AcDbEntity
  8
0
  6
Continuous
 62
     7
370
    25
100
AcDbLine
 10
-21.8918854535
 20
36.9245486237
 30
0.0
 11
-21.8918854535
 21
34.1444491221
 31
0.0
  0
LINE
  5
EA
330
1F
100
AcDbEntity
  8
0
  6
Continuous
 62
     7
370
    25
100
AcDbLine
 10
-14.1444761348
 20
46.0205834295
 30
0.0
 11
-21.6392947722
 21
37.5889124625
 31
0.0
  0
ARC
  5
EB
330
1F
100
AcDbEntity
  8
0
  6
Continuous
 62
     7
370
    25
100
AcDbCircle
 10
-10.8532245557
 20
93.7300178214
 30
0.0
 40
61.42528204188937
100
AcDbArc
 50
260.4369144809
 51
269.963938197
  0
ARC
  5
EC
330
1F
100
AcDbEntity
  8
0
  6
Continuous
 62
     7
370
    25
100
AcDbCircle
 10
-14.8918854535
 20
46.6849472684
 30
0.0
 40
1.000000000000003
100
AcDbArc
 50
318.3664606634
 51
0.0
  0
ARC
  5
ED
330
1F
100
AcDbEntity
  8
0
  6
Continuous
 62
     7
370
    25
100
AcDbCircle
 10
-12.8918854535
 20
49.304747946
 30
0.0
 40
1.000000000000002
100
AcDbArc
 50
90.0
 51
180.0
  0
LINE
  5
EE
330
1F
100
AcDbEntity
  8
0
  6
Continuous
 62
     7
370
    25
100
AcDbLine
 10
-13.8918854535
 20
49.304747946
 30
0.0
 11
-13.8918854535
 21
46.6849472684
 31
0.0
  0
LINE
  5
EF
330
1F
100
AcDbEntity
  8
0
  6
Continuous
 62
     7
370
    25
100
AcDbLine
 10
-8.7113634535
 20
21.9245486237
 30
0.0
 11
-8.7113634535
 21
19.1444491221
 31
0.0
  0
LINE
  5
F0
330
1F
100
AcDbEntity
  8
0
  6
Continuous
 62
     7
370
    25
100
AcDbLine
 10
41.2886365465
 20
19.1444491221
 30
0.0
 11
41.2886365465
 21
21.9245486237
 31
0.0
  0
ARC
  5
F1
330
1F
100
AcDbEntity
  8
0
  6
Continuous
 62
     7
370
    25
100
AcDbCircle
 10
40.2886365465
 20
19.1444491221
 30
0.0
 40
1.0
100
AcDbArc
 50
279.5630855191
 51
0.0
  0
ARC
  5
F2
330
1F
100
AcDbEntity
  8
0
  6
Continuous
 62
     7
370
    25
100
AcDbCircle
 10
-7.7113634535
 20
19.1444491221
 30
0.0
 40
1.000000000000001
100
AcDbArc
 50
180.0
 51
260.4369144809
  0
ARC
  5
F3
330
1F
100
AcDbEntity
  8
0
  6
Continuous
 62
     7
370
    25
100
AcDbCircle
 10
40.2886365465
 20
21.9245486237
 30
0.0
 40
1.000000000000007
100
AcDbArc
 50
0.0
 51
41.6335393366
  0
ARC
  5
F4
330
1F
100
AcDbEntity
  8
0
  6
Continuous
 62
     7
370
    25
100
AcDbCircle
 10
-7.7113634535
 20
21.9245486237
 30
0.0
 40
1.000000000000009
100
AcDbArc
 50
138.3664606634
 51
180.0
  0
LINE
  5
F5
330
1F
100
AcDbEntity
  8
0
  6
Continuous
 62
     7
370
    25
100
AcDbLine
 10
41.0360458652
 20
22.5889124625
 30
0.0
 11
33.5412272278
 21
31.0205834295
 31
0.0
  0
LINE
  5
F6
330
1F
100
AcDbEntity
  8
0
  6
Continuous
 62
     7
370
    25
100
AcDbLine
 10
-0.9639541348
 20
31.0205834295
 30
0.0
 11
-8.4587727722
 21
22.5889124625
 31
0.0
  0
ARC
  5
F7
330
1F
100
AcDbEntity
  8
0
  6
Continuous
 62
     7
370
    25
100
AcDbCircle
 10
2.3272974443
 20
78.7300178214
 30
0.0
 40
61.42528204188937
100
AcDbArc
 50
260.4369144809
 51
269.963938197
  0
ARC
  5
F8
330
1F
100
AcDbEntity
  8
0
  6
Continuous
 62
     7
370
    25
100
AcDbCircle
 10
30.2499756487
 20
78.7300178214
 30
0.0
 40
61.42528204188937
100
AcDbArc
 50
270.036061803
 51
279.5630855191
  0
ARC
  5
F9
330
1F
100
AcDbEntity
  8
0
  6
Continuous
 62
     7
370
    25
100
AcDbCircle
 10
-1.7113634535
 20
31.6849472684
 30
0.0
 40
1.000000000000001
100
AcDbArc
 50
318.3664606634
 51
0.0
  0
ARC
  5
FA
330
1F
100
AcDbEntity
  8
0
  6
Continuous
 62
     7
370
    25
100
AcDbCircle
 10
34.2886365465
 20
31.6849472684
 30
0.0
 40
1.0
100
AcDbArc
 50
180.0
 51
221.6335393366
  0
LINE
  5
FB
330
1F
100
AcDbEntity
  8
0
  6
Continuous
 62
     7
370
    25
100
AcDbLine
 10
-0.7113634535
 20
34.304747946
 30
0.0
 11
-0.7113634535
 21
31.6849472684
 31
0.0
  0
LINE
  5
FC
330
1F
100
AcDbEntity
  8
0
  6
Continuous
 62
     7
370
    25
100
AcDbLine
 10
33.2886365465
 20
31.6849472684
 30
0.0
 11
33.2886365465
 21
34.304747946
 31
0.0
  0
ARC
  5
FD
330
1F
100
AcDbEntity
  8
0
  6
Continuous
 62
     7
370
    25
100
AcDbCircle
 10
0.2886365465
 20
34.304747946
 30
0.0
 40
1.000000000000007
100
AcDbArc
 50
90.0
 51
180.0
  0
ARC
  5
FE
330
1F
100
AcDbEntity
  8
0
  6
Continuous
 62
     7
370
    25
100
AcDbCircle
 10
32.2886365465
 20
34.304747946
 30
0.0
 40
1.000000000000007
100
AcDbArc
 50
0.0
 51
90.0
  0
ARC
  5
FF
330
1F
100
AcDbEntity
  8
0
  6
Continuous
 62
     7
370
    25
100
AcDbCircle
 10
29.0386365465
 20
278.552602341
 30
0.0
 40
1.000000000000022
100
AcDbArc
 50
0.0
 51
74.3504861218
  0
ARC
  5
100
330
1F
100
AcDbEntity
  8
0
  6
Continuous
 62
     7
370
    25
100
AcDbCircle
 10
3.5386365465
 20
278.552602341
 30
0.0
 40
1.00000000000003
100
AcDbArc
 50
105.6495138782
 51
180.0
  0
LINE
  5
101
330
1F
100
AcDbEntity
  8
0
  6
Continuous
 62
     7
370
    25
100
AcDbLine
 10
30.0386365465
 20
278.304747946
 30
0.0
 11
30.0386365465
 21
278.552602341
 31
0.0
  0
LINE
  5
102
330
1F
100
AcDbEntity
  8
0
  6
Continuous
 62
     7
370
    25
100
AcDbLine
 10
2.5386365465
 20
278.552602341
 30
0.0
 11
2.5386365465
 21
278.304747946
 31
0.0
  0
ARC
  5
103
330
1F
100
AcDbEntity
  8
0
  6
Continuous
 62
     7
370
    25
100
AcDbCircle
 10
16.2886365465
 20
233.039122946
 30
0.0
 40
48.26562500000038
100
AcDbArc
 50
74.3504861218
 51
105.6495138782
  0
ARC
  5
104
330
1F
100
AcDbEntity
  8
0
  6
Continuous
 62
     7
370
    25
100
AcDbCircle
 10
3.5386365465
 20
17.056893551
 30
0.0
 40
1.000000000000009
100
AcDbArc
 50
180.0
 51
254.3504861218
  0
ARC
  5
105
330
1F
100
AcDbEntity
  8
0
  6
Continuous
 62
     7
370
    25
100
AcDbCircle
 10
29.0386365465
 20
17.056893551
 30
0.0
 40
1.000000000000001
100
AcDbArc
 50
285.6495138782
 51
0.0
  0
LINE
  5
106
330
1F
100
AcDbEntity
  8
0
  6
Continuous
 62
     7
370
    25
100
AcDbLine
 10
2.5386365465
 20
17.304747946
 30
0.0
 11
2.5386365465
 21
17.056893551
 31
0.0
  0
LINE
  5
107
330
1F
100
AcDbEntity
  8
0
  6
Continuous
 62
     7
370
    25
100
AcDbLine
 10
30.0386365465
 20
17.056893551
 30
0.0
 11
30.0386365465
 21
17.304747946
 31
0.0
  0
ARC
  5
108
330
1F
100
AcDbEntity
  8
0
  6
Continuous
 62
     7
370
    25
100
AcDbCircle
 10
16.2886365465
 20
62.570372946
 30
0.0
 40
48.26562500000033
100
AcDbArc
 50
254.3504861218
 51
285.6495138782
  0
LINE
  5
109
330
1F
100
AcDbEntity
  8
0
  6
Continuous
 62
     7
370
    25
100
AcDbLine
 10
-10.6418854535
 20
32.304747946
 30
0.0
 11
-10.6418854535
 21
32.056893551
 31
0.0
  0
ARC
  5
10A
330
1F
100
AcDbEntity
  8
0
  6
Continuous
 62
     7
370
    25
100
AcDbCircle
 10
-9.6418854535
 20
32.056893551
 30
0.0
 40
1.000000000000006
100
AcDbArc
 50
180.0
 51
254.3504861218
  0
ARC
  5
10B
330
1F
100
AcDbEntity
  8
0
  6
Continuous
 62
     7
370
    25
100
AcDbCircle
 10
3.1081145465
 20
77.570372946
 30
0.0
 40
48.26562500000038
100
AcDbArc
 50
254.3504861218
 51
263.6545858862
  0
ARC
  5
10C
330
1F
100
AcDbEntity
  8
0
  6
Continuous
 62
     7
370
    25
100
AcDbCircle
 10
-9.6418854535
 20
263.552602341
 30
0.0
 40
1.00000000000003
100
AcDbArc
 50
105.6495138782
 51
180.0
  0
LINE
  5
10D
330
1F
100
AcDbEntity
  8
0
  6
Continuous
 62
     7
370
    25
100
AcDbLine
 10
-10.6418854535
 20
263.552602341
 30
0.0
 11
-10.6418854535
 21
263.304747946
 31
0.0
  0
ARC
  5
10E
330
1F
100
AcDbEntity
  8
0
  6
Continuous
 62
     7
370
    25
100
AcDbCircle
 10
3.1081145465
 20
218.039122946
 30
0.0
 40
48.26562500000042
100
AcDbArc
 50
96.3454141138
 51
105.6495138782
  0
ARC
  5
10F
330
1F
100
AcDbEntity
  8
0
  6
Continuous
 62
     7
370
    25
100
AcDbCircle
 10
-114.2770943529
 20
157.304747946
 30
0.0
 40
19.87230769230768
100
AcDbArc
 50
40.8572498878
 51
46.9233678463
  0
ARC
  5
110
330
1F
100
AcDbEntity
  8
0
  6
Continuous
 62
     7
370
    25
100
AcDbCircle
 10
-114.5324789683
 20
157.304747946
 30
0.0
 40
19.87230769230769
100
AcDbArc
 50
133.0766321537
 51
139.1427501122
  0
ARC
  5
111
330
1F
100
AcDbEntity
  8
0
  6
Continuous
 62
     7
370
    25
100
AcDbCircle
 10
177.0327640044
 20
175.304747946
 30
0.0
 40
19.87230769230771
100
AcDbArc
 50
0.0
 51
46.9233678463
  0
ARC
  5
112
330
1F
100
AcDbEntity
  8
0
  6
Continuous
 62
     7
370
    25
100
AcDbCircle
 10
176.777379389
 20
175.304747946
 30
0.0
 40
19.87230769230771
100
AcDbArc
 50
133.0766321537
 51
180.0
  0
LINE
  5
113
330
1F
100
AcDbEntity
  8
0
  6
Continuous
 62
     7
370
    25
100
AcDbLine
 10
196.9050716967
 20
173.304747946
 30
0.0
 11
196.9050716967
 21
175.304747946
 31
0.0
  0
LINE
  5
114
330
1F
100
AcDbEntity
  8
0
  6
Continuous
 62
     7
370
    25
100
AcDbLine
 10
156.9050716967
 20
175.304747946
 30
0.0
 11
156.9050716967
 21
173.304747946
 31
0.0
  0
ARC
  5
115
330
1F
100
AcDbEntity
  8
0
  6
Continuous
 62
     7
370
    25
100
AcDbCircle
 10
176.777379389
 20
120.304747946
 30
0.0
 40
19.87230769230771
100
AcDbArc
 50
180.0
 51
226.9233678463
  0
ARC
  5
116
330
1F
100
AcDbEntity
  8
0
  6
Continuous
 62
     7
370
    25
100
AcDbCircle
 10
177.0327640044
 20
120.304747946
 30
0.0
 40
19.87230769230771
100
AcDbArc
 50
313.0766321537
 51
0.0
  0
LINE
  5
117
330
1F
100
AcDbEntity
  8
0
  6
Continuous
 62
     7
370
    25
100
AcDbLine
 10
156.9050716967
 20
122.304747946
 30
0.0
 11
156.9050716967
 21
120.304747946
 31
0.0
  0
LINE
  5
118
330
1F
100
AcDbEntity
  8
0
  6
Continuous
 62
     7
370
    25
100
AcDbLine
 10
196.9050716967
 20
120.304747946
 30
0.0
 11
196.9050716967
 21
122.304747946
 31
0.0
  0
ARC
  5
119
330
1F
100
AcDbEntity
  8
0
  6
Continuous
 62
     7
370
    25
100
AcDbCircle
 10
-114.5324789683
 20
138.304747946
 30
0.0
 40
19.87230769230771
100
AcDbArc
 50
220.8572498878
 51
226.9233678463
  0
ARC
  5
11A
330
1F
100
AcDbEntity
  8
0
  6
Continuous
 62
     7
370
    25
100
AcDbCircle
 10
-114.2770943529
 20
138.304747946
 30
0.0
 40
19.87230769230771
100
AcDbArc
 50
313.0766321537
 51
319.1427501122
  0
LINE
  5
11B
330
1F
100
AcDbEntity
  8
0
  6
Continuous
 62
     7
370
    25
100
AcDbLine
 10
-100.7047866606
 20
171.8202939889
 30
0.0
 11
-100.7047866606
 21
172.4351392644
 31
0.0
  0
LINE
  5
11C
330
1F
100
AcDbEntity
  8
0
  6
Continuous
 62
     7
370
    25
100
AcDbLine
 10
-128.1047866606
 20
172.4351392644
 30
0.0
 11
-128.1047866606
 21
171.8202939889
 31
0.0
  0
ARC
  5
11D
330
1F
100
AcDbEntity
  8
0
  6
Continuous
 62
     7
370
    25
100
AcDbCircle
 10
-101.3047866606
 20
172.4351392644
 30
0.0
 40
0.5999999999999943
100
AcDbArc
 50
0.0
 51
63.6246146768
  0
ARC
  5
11E
330
1F
100
AcDbEntity
  8
0
  6
Continuous
 62
     7
370
    25
100
AcDbCircle
 10
-127.5047866606
 20
172.4351392644
 30
0.0
 40
0.6000000000000654
100
AcDbArc
 50
116.3753853232
 51
180.0
  0
ARC
  5
11F
330
1F
100
AcDbEntity
  8
0
  6
Continuous
 62
     7
370
    25
100
AcDbCircle
 10
-114.4047866606
 20
146.0168691581
 30
0.0
 40
30.08787878787883
100
AcDbArc
 50
63.6246146768
 51
116.3753853232
  0
ARC
  5
120
330
1F
100
AcDbEntity
  8
0
  6
Continuous
 62
     7
370
    25
100
AcDbCircle
 10
-127.5047866606
 20
123.1743566276
 30
0.0
 40
0.6000000000000654
100
AcDbArc
 50
180.0
 51
243.6246146768
  0
ARC
  5
121
330
1F
100
AcDbEntity
  8
0
  6
Continuous
 62
     7
370
    25
100
AcDbCircle
 10
-101.3047866606
 20
123.1743566276
 30
0.0
 40
0.5999999999999807
100
AcDbArc
 50
296.3753853232
 51
0.0
  0
LINE
  5
122
330
1F
100
AcDbEntity
  8
0
  6
Continuous
 62
     7
370
    25
100
AcDbLine
 10
-128.1047866606
 20
123.7892019031
 30
0.0
 11
-128.1047866606
 21
123.1743566276
 31
0.0
  0
LINE
  5
123
330
1F
100
AcDbEntity
  8
0
  6
Continuous
 62
     7
370
    25
100
AcDbLine
 10
-100.7047866606
 20
123.1743566276
 30
0.0
 11
-100.7047866606
 21
123.7892019031
 31
0.0
  0
ARC
  5
124
330
1F
100
AcDbEntity
  8
0
  6
Continuous
 62
     7
370
    25
100
AcDbCircle
 10
-114.4047866606
 20
149.5926267339
 30
0.0
 40
30.0878787878788
100
AcDbArc
 50
243.6246146768
 51
296.3753853232
  0
ARC
  5
125
330
1F
100
AcDbEntity
  8
0
  6
Continuous
 62
     7
370
    25
100
AcDbCircle
 10
163.8050716967
 20
105.1743566276
 30
0.0
 40
0.6000000000000227
100
AcDbArc
 50
180.0
 51
243.6246146768
  0
ARC
  5
126
330
1F
100
AcDbEntity
  8
0
  6
Continuous
 62
     7
370
    25
100
AcDbCircle
 10
190.0050716967
 20
105.1743566276
 30
0.0
 40
0.5999999999999933
100
AcDbArc
 50
296.3753853232
 51
0.0
  0
LINE
  5
127
330
1F
100
AcDbEntity
  8
0
  6
Continuous
 62
     7
370
    25
100
AcDbLine
 10
163.2050716967
 20
105.7892019031
 30
0.0
 11
163.2050716967
 21
105.1743566276
 31
0.0
  0
LINE
  5
128
330
1F
100
AcDbEntity
  8
0
  6
Continuous
 62
     7
370
    25
100
AcDbLine
 10
190.6050716967
 20
105.1743566276
 30
0.0
 11
190.6050716967
 21
105.7892019031
 31
0.0
  0
ARC
  5
129
330
1F
100
AcDbEntity
  8
0
  6
Continuous
 62
     7
370
    25
100
AcDbCircle
 10
176.9050716967
 20
131.5926267339
 30
0.0
 40
30.08787878787878
100
AcDbArc
 50
243.6246146768
 51
296.3753853232
  0
ARC
  5
12A
330
1F
100
AcDbEntity
  8
0
  6
Continuous
 62
     7
370
    25
100
AcDbCircle
 10
190.0050716967
 20
190.4351392644
 30
0.0
 40
0.5999999999999805
100
AcDbArc
 50
0.0
 51
63.6246146768
  0
ARC
  5
12B
330
1F
100
AcDbEntity
  8
0
  6
Continuous
 62
     7
370
    25
100
AcDbCircle
 10
163.8050716967
 20
190.4351392644
 30
0.0
 40
0.6000000000000227
100
AcDbArc
 50
116.3753853232
 51
180.0
  0
LINE
  5
12C
330
1F
100
AcDbEntity
  8
0
  6
Continuous
 62
     7
370
    25
100
AcDbLine
 10
190.6050716967
 20
189.8202939889
 30
0.0
 11
190.6050716967
 21
190.4351392644
 31
0.0
  0
LINE
  5
12D
330
1F
100
AcDbEntity
  8
0
  6
Continuous
 62
     7
370
    25
100
AcDbLine
 10
163.2050716967
 20
190.4351392644
 30
0.0
 11
163.2050716967
 21
189.8202939889
 31
0.0
  0
ARC
  5
12E
330
1F
100
AcDbEntity
  8
0
  6
Continuous
 62
     7
370
    25
100
AcDbCircle
 10
176.9050716967
 20
164.0168691581
 30
0.0
 40
30.08787878787877
100
AcDbArc
 50
63.6246146768
 51
116.3753853232
  0
ARC
  5
12F
330
1F
100
AcDbEntity
  8
0
  6
Continuous
 62
     7
370
    25
100
AcDbCircle
 10
121.5071411884
 20
167.304747946
 30
0.0
 40
3.000000000000028
100
AcDbArc
 50
90.0
 51
180.0
  0
ARC
  5
130
330
1F
100
AcDbEntity
  8
0
  6
Continuous
 62
     7
370
    25
100
AcDbCircle
 10
121.5071411884
 20
158.304747946
 30
0.0
 40
3.000000000000028
100
AcDbArc
 50
180.0
 51
270.0
  0
LINE
  5
131
330
1F
100
AcDbEntity
  8
0
  6
Continuous
 62
     7
370
    25
100
AcDbLine
 10
118.5071411884
 20
167.304747946
 30
0.0
 11
118.5071411884
 21
158.304747946
 31
0.0
  0
LINE
  5
132
330
1F
100
AcDbEntity
  8
0
  6
Continuous
 62
     7
370
    25
100
AcDbLine
 10
495.7235912189
 20
158.304747946
 30
0.0
 11
495.7235912189
 21
167.304747946
 31
0.0
  0
ARC
  5
133
330
1F
100
AcDbEntity
  8
0
  6
Continuous
 62
     7
370
    25
100
AcDbCircle
 10
492.7235912189
 20
167.304747946
 30
0.0
 40
2.999999999999972
100
AcDbArc
 50
0.0
 51
90.0
  0
ARC
  5
134
330
1F
100
AcDbEntity
  8
0
  6
Continuous
 62
     7
370
    25
100
AcDbCircle
 10
492.7235912189
 20
158.304747946
 30
0.0
 40
3.000000000000028
100
AcDbArc
 50
270.0
 51
0.0
  0
ARC
  5
135
330
1F
100
AcDbEntity
  8
0
  6
Continuous
 62
     7
370
    25
100
AcDbCircle
 10
96.9736048461
 20
158.304747946
 30
0.0
 40
3.000000000000028
100
AcDbArc
 50
180.0
 51
270.0
  0
LINE
  5
136
330
1F
100
AcDbEntity
  8
0
  6
Continuous
 62
     7
370
    25
100
AcDbLine
 10
93.9736048461
 20
167.304747946
 30
0.0
 11
93.9736048461
 21
158.304747946
 31
0.0
  0
ARC
  5
137
330
1F
100
AcDbEntity
  8
0
  6
Continuous
 62
     7
370
    25
100
AcDbCircle
 10
96.9736048461
 20
167.304747946
 30
0.0
 40
3.000000000000028
100
AcDbArc
 50
90.0
 51
180.0
  0
ARC
  5
138
330
1F
100
AcDbEntity
  8
0
  6
Continuous
 62
     7
370
    25
100
AcDbCircle
 10
83.1749598104
 20
167.304747946
 30
0.0
 40
3.000000000000002
100
AcDbArc
 50
90.0
 51
120.9385291612
  0
ARC
  5
139
330
1F
100
AcDbEntity
  8
0
  6
Continuous
 62
     7
370
    25
100
AcDbCircle
 10
83.1749598104
 20
158.304747946
 30
0.0
 40
3.000000000000002
100
AcDbArc
 50
239.0614708388
 51
270.0
  0
LWPOLYLINE
  5
13A
330
1F
100
AcDbEntity
  8
0
  6
Continuous
 62
     7
370
    25
100
AcDbPolyline
 90
        3
 70
   128
 43
0.0
 10
81.6860639882
 20
170.304747946
 10
81.2591194734
 20
170.2742122717
 10
80.8881574468
 20
170.1966928195
  0
LWPOLYLINE
  5
13B
330
1F
100
AcDbEntity
  8
0
  6
Continuous
 62
     7
370
    25
100
AcDbPolyline
 90
        3
 70
   128
 43
0.0
 10
80.8881574468
 20
155.4128030726
 10
81.2591194734
 20
155.3352836204
 10
81.6860639882
 20
155.304747946
  0
LINE
  5
13C
330
1F
100
AcDbEntity
  8
0
  6
Continuous
 62
     7
370
    25
100
AcDbLine
 10
118.5071411884
 20
137.304747946
 30
0.0
 11
118.5071411884
 21
128.304747946
 31
0.0
  0
ARC
  5
13D
330
1F
100
AcDbEntity
  8
0
  6
Continuous
 62
     7
370
    25
100
AcDbCircle
 10
121.5071411884
 20
128.304747946
 30
0.0
 40
3.000000000000028
100
AcDbArc
 50
180.0
 51
270.0
  0
ARC
  5
13E
330
1F
100
AcDbEntity
  8
0
  6
Continuous
 62
     7
370
    25
100
AcDbCircle
 10
121.5071411884
 20
137.304747946
 30
0.0
 40
3.000000000000028
100
AcDbArc
 50
90.0
 51
180.0
  0
ARC
  5
13F
330
1F
100
AcDbEntity
  8
0
  6
Continuous
 62
     7
370
    25
100
AcDbCircle
 10
492.7235912189
 20
137.304747946
 30
0.0
 40
3.0
100
AcDbArc
 50
0.0
 51
90.0
  0
LINE
  5
140
330
1F
100
AcDbEntity
  8
0
  6
Continuous
 62
     7
370
    25
100
AcDbLine
 10
495.7235912189
 20
128.304747946
 30
0.0
 11
495.7235912189
 21
137.304747946
 31
0.0
  0
ARC
  5
141
330
1F
100
AcDbEntity
  8
0
  6
Continuous
 62
     7
370
    25
100
AcDbCircle
 10
492.7235912189
 20
128.304747946
 30
0.0
 40
2.999999999999986
100
AcDbArc
 50
270.0
 51
0.0
  0
ARC
  5
142
330
1F
100
AcDbEntity
  8
0
  6
Continuous
 62
     7
370
    25
100
AcDbCircle
 10
96.9736048461
 20
128.304747946
 30
0.0
 40
3.000000000000028
100
AcDbArc
 50
180.0
 51
270.0
  0
LINE
  5
143
330
1F
100
AcDbEntity
  8
0
  6
Continuous
 62
     7
370
    25
100
AcDbLine
 10
93.9736048461
 20
137.304747946
 30
0.0
 11
93.9736048461
 21
128.304747946
 31
0.0
  0
ARC
  5
144
330
1F
100
AcDbEntity
  8
0
  6
Continuous
 62
     7
370
    25
100
AcDbCircle
 10
96.9736048461
 20
137.304747946
 30
0.0
 40
3.000000000000028
100
AcDbArc
 50
90.0
 51
180.0
  0
ARC
  5
145
330
1F
100
AcDbEntity
  8
0
  6
Continuous
 62
     7
370
    25
100
AcDbCircle
 10
83.1749598104
 20
128.304747946
 30
0.0
 40
3.000000000000014
100
AcDbArc
 50
239.0614708388
 51
270.0
  0
ARC
  5
146
330
1F
100
AcDbEntity
  8
0
  6
Continuous
 62
     7
370
    25
100
AcDbCircle
 10
83.1749598104
 20
137.304747946
 30
0.0
 40
3.0
100
AcDbArc
 50
90.0
 51
120.9385291612
  0
LWPOLYLINE
  5
147
330
1F
100
AcDbEntity
  8
0
  6
Continuous
 62
     7
370
    25
100
AcDbPolyline
 90
        3
 70
   128
 43
0.0
 10
80.8881574468
 20
125.4128030726
 10
81.2591194734
 20
125.3352836204
 10
81.6860639882
 20
125.304747946
  0
LWPOLYLINE
  5
148
330
1F
100
AcDbEntity
  8
0
  6
Continuous
 62
     7
370
    25
100
AcDbPolyline
 90
        3
 70
   128
 43
0.0
 10
81.6860639882
 20
140.304747946
 10
81.2591194734
 20
140.2742122717
 10
80.8881574468
 20
140.1966928195
  0
ARC
  5
149
330
1F
100
AcDbEntity
  8
0
  6
Continuous
 62
     7
370
    25
100
AcDbCircle
 10
638.1196071447
 20
152.304747946
 30
0.0
 40
3.000000000000114
100
AcDbArc
 50
0.0
 51
90.0
  0
ARC
  5
14A
330
1F
100
AcDbEntity
  8
0
  6
Continuous
 62
     7
370
    25
100
AcDbCircle
 10
638.1196071447
 20
143.304747946
 30
0.0
 40
3.000000000000114
100
AcDbArc
 50
270.0
 51
0.0
  0
LINE
  5
14B
330
1F
100
AcDbEntity
  8
0
  6
Continuous
 62
     7
370
    25
100
AcDbLine
 10
641.1196071447
 20
143.304747946
 30
0.0
 11
641.1196071447
 21
152.304747946
 31
0.0
  0
LINE
  5
14C
330
1F
100
AcDbEntity
  8
0
  6
Continuous
 62
     7
370
    25
100
AcDbLine
 10
-136.9983929288
 20
152.314747946
 30
0.0
 11
-136.9983929288
 21
143.294747946
 31
0.0
  0
ARC
  5
14D
330
1F
100
AcDbEntity
  8
0
  6
Continuous
 62
     7
370
    25
100
AcDbCircle
 10
-134.0083929288
 20
143.294747946
 30
0.0
 40
2.989999999999981
100
AcDbArc
 50
180.0
 51
270.0
  0
ARC
  5
14E
330
1F
100
AcDbEntity
  8
0
  6
Continuous
 62
     7
370
    25
100
AcDbCircle
 10
-134.0083929288
 20
152.314747946
 30
0.0
 40
2.989999999999981
100
AcDbArc
 50
90.0
 51
180.0
  0
LINE
  5
14F
330
1F
100
AcDbEntity
  8
0
  6
Continuous
 62
     7
370
    25
100
AcDbLine
 10
98.666248376
 20
143.294747946
 30
0.0
 11
98.666248376
 21
152.314747946
 31
0.0
  0
ARC
  5
150
330
1F
100
AcDbEntity
  8
0
  6
Continuous
 62
     7
370
    25
100
AcDbCircle
 10
95.676248376
 20
143.294747946
 30
0.0
 40
2.990000000000009
100
AcDbArc
 50
270.0
 51
0.0
  0
ARC
  5
151
330
1F
100
AcDbEntity
  8
0
  6
Continuous
 62
     7
370
    25
100
AcDbCircle
 10
95.676248376
 20
152.314747946
 30
0.0
 40
2.990000000000009
100
AcDbArc
 50
0.0
 51
90.0
  0
LINE
  5
152
330
1F
100
AcDbEntity
  8
0
  6
Continuous
 62
     7
370
    25
100
AcDbLine
 10
119.6533357265
 20
143.294747946
 30
0.0
 11
119.6533357265
 21
152.314747946
 31
0.0
  0
ARC
  5
153
330
1F
100
AcDbEntity
  8
0
  6
Continuous
 62
     7
370
    25
100
AcDbCircle
 10
116.6633357265
 20
143.294747946
 30
0.0
 40
2.990000000000009
100
AcDbArc
 50
270.0
 51
0.0
  0
ARC
  5
154
330
1F
100
AcDbEntity
  8
0
  6
Continuous
 62
     7
370
    25
100
AcDbCircle
 10
116.6633357265
 20
152.314747946
 30
0.0
 40
2.990000000000009
100
AcDbArc
 50
0.0
 51
90.0
  0
ARC
  5
155
330
1F
100
AcDbEntity
  8
0
  6
Continuous
 62
     7
370
    25
100
AcDbCircle
 10
-187.8054082512
 20
143.294747946
 30
0.0
 40
2.990000000000009
100
AcDbArc
 50
180.0
 51
270.0
  0
ARC
  5
156
330
1F
100
AcDbEntity
  8
0
  6
Continuous
 62
     7
370
    25
100
AcDbCircle
 10
-187.8054082512
 20
152.314747946
 30
0.0
 40
2.990000000000009
100
AcDbArc
 50
90.0
 51
180.0
  0
LINE
  5
157
330
1F
100
AcDbEntity
  8
0
  6
Continuous
 62
     7
370
    25
100
AcDbLine
 10
-190.7954082512
 20
152.314747946
 30
0.0
 11
-190.7954082512
 21
143.294747946
 31
0.0
  0
ARC
  5
158
330
1F
100
AcDbEntity
  8
0
  6
Continuous
 62
     7
370
    25
100
AcDbCircle
 10
136.4312302818
 20
143.294747946
 30
0.0
 40
2.989999999999981
100
AcDbArc
 50
270.0
 51
0.0
  0
ARC
  5
159
330
1F
100
AcDbEntity
  8
0
  6
Continuous
 62
     7
370
    25
100
AcDbCircle
 10
136.4312302818
 20
152.314747946
 30
0.0
 40
2.989999999999981
100
AcDbArc
 50
0.0
 51
90.0
  0
LINE
  5
15A
330
1F
100
AcDbEntity
  8
0
  6
Continuous
 62
     7
370
    25
100
AcDbLine
 10
139.4212302818
 20
143.294747946
 30
0.0
 11
139.4212302818
 21
152.314747946
 31
0.0
  0
ARC
  5
15B
330
1F
100
AcDbEntity
  8
0
  6
Continuous
 62
     7
370
    25
100
AcDbCircle
 10
148.7511612407
 20
152.314747946
 30
0.0
 40
2.989999999999981
100
AcDbArc
 50
0.0
 51
90.0
  0
ARC
  5
15C
330
1F
100
AcDbEntity
  8
0
  6
Continuous
 62
     7
370
    25
100
AcDbCircle
 10
148.7511612407
 20
143.294747946
 30
0.0
 40
2.989999999999981
100
AcDbArc
 50
270.0
 51
0.0
  0
LINE
  5
15D
330
1F
100
AcDbEntity
  8
0
  6
Continuous
 62
     7
370
    25
100
AcDbLine
 10
151.7411612407
 20
143.294747946
 30
0.0
 11
151.7411612407
 21
152.314747946
 31
0.0
  0
ARC
  5
15E
330
1F
100
AcDbEntity
  8
0
  6
Continuous
 62
     7
370
    25
100
AcDbCircle
 10
-212.9488442275
 20
152.314747946
 30
0.0
 40
2.990000000000066
100
AcDbArc
 50
90.0
 51
180.0
  0
ARC
  5
15F
330
1F
100
AcDbEntity
  8
0
  6
Continuous
 62
     7
370
    25
100
AcDbCircle
 10
-212.9488442275
 20
143.294747946
 30
0.0
 40
2.990000000000066
100
AcDbArc
 50
180.0
 51
270.0
  0
LINE
  5
160
330
1F
100
AcDbEntity
  8
0
  6
Continuous
 62
     7
370
    25
100
AcDbLine
 10
-215.9388442275
 20
152.314747946
 30
0.0
 11
-215.9388442275
 21
143.294747946
 31
0.0
  0
ARC
  5
161
330
1F
100
AcDbEntity
  8
0
  6
Continuous
 62
     7
370
    25
100
AcDbCircle
 10
161.4838242127
 20
143.294747946
 30
0.0
 40
2.989999999999981
100
AcDbArc
 50
270.0
 51
0.0
  0
LINE
  5
162
330
1F
100
AcDbEntity
  8
0
  6
Continuous
 62
     7
370
    25
100
AcDbLine
 10
164.4738242127
 20
143.294747946
 30
0.0
 11
164.4738242127
 21
152.314747946
 31
0.0
  0
ARC
  5
163
330
1F
100
AcDbEntity
  8
0
  6
Continuous
 62
     7
370
    25
100
AcDbCircle
 10
161.4838242127
 20
152.314747946
 30
0.0
 40
2.989999999999981
100
AcDbArc
 50
0.0
 51
90.0
  0
ARC
  5
164
330
1F
100
AcDbEntity
  8
0
  6
Continuous
 62
     7
370
    25
100
AcDbCircle
 10
176.0399795046
 20
143.294747946
 30
0.0
 40
2.990000000000009
100
AcDbArc
 50
270.0
 51
0.0
  0
ARC
  5
165
330
1F
100
AcDbEntity
  8
0
  6
Continuous
 62
     7
370
    25
100
AcDbCircle
 10
176.0399795046
 20
152.314747946
 30
0.0
 40
2.990000000000009
100
AcDbArc
 50
0.0
 51
90.0
  0
LINE
  5
166
330
1F
100
AcDbEntity
  8
0
  6
Continuous
 62
     7
370
    25
100
AcDbLine
 10
179.0299795046
 20
143.294747946
 30
0.0
 11
179.0299795046
 21
152.314747946
 31
0.0
  0
ARC
  5
167
330
1F
100
AcDbEntity
  8
0
  6
Continuous
 62
     7
370
    25
100
AcDbCircle
 10
185.9098387128
 20
152.314747946
 30
0.0
 40
2.990000000000009
100
AcDbArc
 50
0.0
 51
90.0
  0
ARC
  5
168
330
1F
100
AcDbEntity
  8
0
  6
Continuous
 62
     7
370
    25
100
AcDbCircle
 10
185.9098387128
 20
143.294747946
 30
0.0
 40
2.990000000000009
100
AcDbArc
 50
270.0
 51
0.0
  0
LINE
  5
169
330
1F
100
AcDbEntity
  8
0
  6
Continuous
 62
     7
370
    25
100
AcDbLine
 10
188.8998387128
 20
143.294747946
 30
0.0
 11
188.8998387128
 21
152.314747946
 31
0.0
  0
ARC
  5
16A
330
1F
100
AcDbEntity
  8
0
  6
Continuous
 62
     7
370
    25
100
AcDbCircle
 10
194.0852442879
 20
152.314747946
 30
0.0
 40
2.990000000000009
100
AcDbArc
 50
0.0
 51
90.0
  0
ARC
  5
16B
330
1F
100
AcDbEntity
  8
0
  6
Continuous
 62
     7
370
    25
100
AcDbCircle
 10
194.0852442879
 20
143.294747946
 30
0.0
 40
2.990000000000009
100
AcDbArc
 50
270.0
 51
0.0
  0
LINE
  5
16C
330
1F
100
AcDbEntity
  8
0
  6
Continuous
 62
     7
370
    25
100
AcDbLine
 10
197.0752442879
 20
143.294747946
 30
0.0
 11
197.0752442879
 21
152.314747946
 31
0.0
  0
ARC
  5
16D
330
1F
100
AcDbEntity
  8
0
  6
Continuous
 62
     7
370
    25
100
AcDbCircle
 10
-231.6039806446
 20
152.314747946
 30
0.0
 40
2.989999999999981
100
AcDbArc
 50
90.0
 51
180.0
  0
LINE
  5
16E
330
1F
100
AcDbEntity
  8
0
  6
Continuous
 62
     7
370
    25
100
AcDbLine
 10
-234.5939806446
 20
152.314747946
 30
0.0
 11
-234.5939806446
 21
143.294747946
 31
0.0
  0
ARC
  5
16F
330
1F
100
AcDbEntity
  8
0
  6
Continuous
 62
     7
370
    25
100
AcDbCircle
 10
-231.6039806446
 20
143.294747946
 30
0.0
 40
2.989999999999981
100
AcDbArc
 50
180.0
 51
270.0
  0
LINE
  5
170
330
1F
100
AcDbEntity
  8
0
  6
Continuous
 62
     7
370
    25
100
AcDbLine
 10
641.1196071447
 20
-1285.695252054
 30
0.0
 11
-234.5939806446
 21
-1285.695252054
 31
0.0
  0
ARC
  5
171
330
1F
100
AcDbEntity
  8
0
  6
Continuous
 62
     7
370
    25
100
AcDbCircle
 10
-234.5939806446
 20
14.304747946
 30
0.0
 40
1300.0
100
AcDbArc
 50
180.0
 51
270.0
  0
LINE
  5
172
330
1F
100
AcDbEntity
  8
0
  6
Continuous
 62
     7
370
    25
100
AcDbLine
 10
-1534.5939806446
 20
14.304747946
 30
0.0
 11
-1534.5939806446
 21
281.304747946
 31
0.0
  0
ARC
  5
173
330
1F
100
AcDbEntity
  8
0
  6
Continuous
 62
     7
370
    25
100
AcDbCircle
 10
-234.5939806446
 20
281.304747946
 30
0.0
 40
1300.0
100
AcDbArc
 50
90.0
 51
180.0
  0
LINE
  5
174
330
1F
100
AcDbEntity
  8
0
  6
Continuous
 62
     7
370
    25
100
AcDbLine
 10
-234.5939806446
 20
1581.304747946
 30
0.0
 11
641.1196071447
 21
1581.304747946
 31
0.0
  0
ARC
  5
175
330
1F
100
AcDbEntity
  8
0
  6
Continuous
 62
     7
370
    25
100
AcDbCircle
 10
641.1196071447
 20
281.304747946
 30
0.0
 40
1300.0
100
AcDbArc
 50
0.0
 51
90.0
  0
LINE
  5
176
330
1F
100
AcDbEntity
  8
0
  6
Continuous
 62
     7
370
    25
100
AcDbLine
 10
1941.1196071447
 20
281.304747946
 30
0.0
 11
1941.1196071447
 21
14.304747946
 31
0.0
  0
ARC
  5
177
330
1F
100
AcDbEntity
  8
0
  6
Continuous
 62
     7
370
    25
100
AcDbCircle
 10
641.1196071447
 20
14.304747946
 30
0.0
 40
1300.0
100
AcDbArc
 50
270.0
 51
0.0
  0
LINE
  5
178
330
1F
100
AcDbEntity
  8
0
  6
Continuous
 62
     7
370
    25
100
AcDbLine
 10
271.4504197595
 20
268.5177470458
 30
0.0
 11
322.3597236339
 21
268.5177470458
 31
0.0
  0
LINE
  5
179
330
1F
100
AcDbEntity
  8
0
  6
Continuous
 62
     7
370
    25
100
AcDbLine
 10
200.9903534918
 20
195.6755828214
 30
0.0
 11
200.124328088
 21
196.1755828214
 31
0.0
  0
ARC
  5
17A
330
1F
100
AcDbEntity
  8
0
  6
Continuous
 62
     7
370
    25
100
AcDbCircle
 10
204.2403534918
 20
201.304747946
 30
0.0
 40
6.500000000000016
100
AcDbArc
 50
240.0
 51
60.0
  0
LINE
  5
17B
330
1F
100
AcDbEntity
  8
0
  6
Continuous
 62
     7
370
    25
100
AcDbLine
 10
207.4903534918
 20
206.9339130706
 30
0.0
 11
206.624328088
 21
207.4339130706
 31
0.0
  0
ARC
  5
17C
330
1F
100
AcDbEntity
  8
0
  6
Continuous
 62
     7
370
    25
100
AcDbCircle
 10
203.374328088
 20
201.804747946
 30
0.0
 40
6.500000000000028
100
AcDbArc
 50
60.0
 51
240.0
  0
LINE
  5
17D
330
1F
100
AcDbEntity
  8
0
  6
Continuous
 62
     7
370
    25
100
AcDbLine
 10
303.4050716967
 20
40.804747946
 30
0.0
 11
303.4050716967
 21
39.804747946
 31
0.0
  0
ARC
  5
17E
330
1F
100
AcDbEntity
  8
0
  6
Continuous
 62
     7
370
    25
100
AcDbCircle
 10
296.9050716967
 20
40.804747946
 30
0.0
 40
6.5
100
AcDbArc
 50
0.0
 51
180.0
  0
LINE
  5
17F
330
1F
100
AcDbEntity
  8
0
  6
Continuous
 62
     7
370
    25
100
AcDbLine
 10
290.4050716967
 20
40.804747946
 30
0.0
 11
290.4050716967
 21
39.804747946
 31
0.0
  0
ARC
  5
180
330
1F
100
AcDbEntity
  8
0
  6
Continuous
 62
     7
370
    25
100
AcDbCircle
 10
296.9050716967
 20
39.804747946
 30
0.0
 40
6.5
100
AcDbArc
 50
180.0
 51
0.0
  0
ARC
  5
181
330
1F
100
AcDbEntity
  8
0
  6
Continuous
 62
     7
370
    25
100
AcDbCircle
 10
296.9050716967
 20
147.804747946
 30
0.0
 40
122.5
100
AcDbArc
 50
71.9578475964
 51
75.5743894942
  0
ARC
  5
182
330
1F
100
AcDbEntity
  8
0
  6
Continuous
 62
     7
370
    25
100
AcDbCircle
 10
296.9050716967
 20
147.804747946
 30
0.0
 40
122.5
100
AcDbArc
 50
224.4256105058
 51
288.0421525191
  0
ARC
  5
183
330
1F
100
AcDbEntity
  8
0
  6
Continuous
 62
     7
370
    25
100
AcDbCircle
 10
296.9050716967
 20
147.804747946
 30
0.0
 40
122.5
100
AcDbArc
 50
104.4256105058
 51
158.1308853941
  0
ARC
  5
184
330
1F
100
AcDbEntity
  8
0
  6
Continuous
 62
     7
370
    25
100
AcDbCircle
 10
261.4050716967
 20
285.8119941326
 30
0.0
 40
20.00000000000006
100
AcDbArc
 50
284.4256105058
 51
300.1501239057
  0
ARC
  5
185
330
1F
100
AcDbEntity
  8
0
  6
Continuous
 62
     7
370
    25
100
AcDbCircle
 10
332.4050716967
 20
285.8119941326
 30
0.0
 40
20.00000000000007
100
AcDbArc
 50
239.8498760943
 51
255.5743894942
  0
ARC
  5
186
330
1F
100
AcDbEntity
  8
0
  6
Continuous
 62
     7
370
    25
100
AcDbCircle
 10
195.1372905928
 20
48.0572230184
 30
0.0
 40
19.99999999999996
100
AcDbArc
 50
44.4256105058
 51
60.1501239057
  0
ARC
  5
187
330
1F
100
AcDbEntity
  8
0
  6
Continuous
 62
     7
370
    25
100
AcDbCircle
 10
243.4050716967
 20
240.469466151
 30
0.0
 40
6.00000000000001
100
AcDbArc
 50
30.0
 51
210.0
  0
ARC
  5
188
330
1F
100
AcDbEntity
  8
0
  6
Continuous
 62
     7
370
    25
100
AcDbCircle
 10
243.4050716967
 20
55.1400297411
 30
0.0
 40
6.000000000000008
100
AcDbArc
 50
150.0
 51
330.0
  0
LINE
  5
189
330
1F
100
AcDbEntity
  8
0
  6
Continuous
 62
     7
370
    25
100
AcDbLine
 10
159.9050716967
 20
122.304747946
 30
0.0
 11
156.9050716967
 21
122.304747946
 31
0.0
  0
LINE
  5
18A
330
1F
100
AcDbEntity
  8
0
  6
Continuous
 62
     7
370
    25
100
AcDbLine
 10
156.9050716967
 20
125.304747946
 30
0.0
 11
156.9050716967
 21
122.304747946
 31
0.0
  0
LINE
  5
18B
330
1F
100
AcDbEntity
  8
0
  6
Continuous
 62
     7
370
    25
100
AcDbLine
 10
159.9050716967
 20
125.304747946
 30
0.0
 11
159.9050716967
 21
122.304747946
 31
0.0
  0
LINE
  5
18C
330
1F
100
AcDbEntity
  8
0
  6
Continuous
 62
     7
370
    25
100
AcDbLine
 10
159.9050716967
 20
122.304747946
 30
0.0
 11
201.5456618168
 21
122.304747946
 31
0.0
  0
LINE
  5
18D
330
1F
100
AcDbEntity
  8
0
  6
Continuous
 62
     7
370
    25
100
AcDbLine
 10
156.9050716967
 20
173.304747946
 30
0.0
 11
159.9050716967
 21
173.304747946
 31
0.0
  0
LINE
  5
18E
330
1F
100
AcDbEntity
  8
0
  6
Continuous
 62
     7
370
    25
100
AcDbLine
 10
159.9050716967
 20
170.304747946
 30
0.0
 11
159.9050716967
 21
173.304747946
 31
0.0
  0
LINE
  5
18F
330
1F
100
AcDbEntity
  8
0
  6
Continuous
 62
     7
370
    25
100
AcDbLine
 10
156.9050716967
 20
170.304747946
 30
0.0
 11
156.9050716967
 21
173.304747946
 31
0.0
  0
LINE
  5
190
330
1F
100
AcDbEntity
  8
0
  6
Continuous
 62
     7
370
    25
100
AcDbLine
 10
159.9050716967
 20
173.304747946
 30
0.0
 11
201.5456618168
 21
173.304747946
 31
0.0
  0
ARC
  5
191
330
1F
100
AcDbEntity
  8
0
  6
Continuous
 62
     7
370
    25
100
AcDbCircle
 10
296.7535012449
 20
146.9365115373
 30
0.0
 40
80.93800923735559
100
AcDbArc
 50
101.2377776177
 51
135.6563931833
  0
LWPOLYLINE
  5
192
330
1F
100
AcDbEntity
  8
0
  6
Continuous
 62
     7
370
    25
100
AcDbPolyline
 90
       53
 70
   128
 43
0.0
 10
232.9686608807
 20
93.7890787543
 10
233.7770286819
 20
92.7094997846
 10
236.0746587417
 20
89.8846971114
 10
238.4810221342
 20
87.1558306093
 10
241.0295636443
 20
84.4888274497
 10
243.6835664623
 20
81.9227174882
 10
246.4346752594
 20
79.4606392065
 10
249.2745347069
 20
77.1057310863
 10
252.2646198188
 20
74.8096144165
 10
255.3357590143
 20
72.6194783055
 10
258.4759790986
 20
70.5282573
 10
261.6733068772
 20
68.5288859464
 10
264.212340837
 20
67.0158454046
 10
266.7646367374
 20
65.5250904119
 10
268.0536838869
 20
64.7903588677
 10
269.3384208709
 20
64.042383881
 10
270.5763734148
 20
63.2309040025
 10
271.7250672438
 20
62.3056577825
 10
271.9871818808
 20
62.0448787651
 10
272.2177936871
 20
61.7497262235
 10
272.3453008572
 20
61.4755151751
 10
272.3660934016
 20
61.309218585
 10
272.3282951661
 20
61.1445056487
 10
272.2475853066
 20
61.0202850316
 10
272.0620551759
 20
60.8697837346
 10
271.7979047546
 20
60.747191772
 10
271.5106140944
 20
60.6629180191
 10
270.9998286785
 20
60.5738522868
 10
270.4823865809
 20
60.5310343973
 10
269.4245944904
 20
60.5236105598
 10
268.0477181453
 20
60.6120339014
 10
266.6765701402
 20
60.7784530759
 10
265.3138873908
 20
61.0019553071
 10
263.2558006214
 20
61.4232700972
 10
261.217050819
 20
61.9307841071
 10
258.3462660088
 20
62.778114897
 10
255.5149569113
 20
63.7582717682
 10
252.7277530166
 20
64.8596071919
 10
249.9892838146
 20
66.0704736396
 10
247.2264899363
 20
67.4215657093
 10
244.5154706686
 20
68.878398256
 10
241.8606977424
 20
70.4356994698
 10
239.2666428886
 20
72.0881975413
 10
235.8557775024
 20
74.4709919282
 10
232.5616495051
 20
77.0167813227
 10
229.3935087625
 20
79.7142140979
 10
226.2935681171
 20
82.6168487119
 10
223.3318626002
 20
85.6637289764
 10
220.5168700373
 20
88.8435968213
 10
218.1945074271
 20
91.7083278105
 10
215.9871216379
 20
94.6662625744
 10
213.8996471278
 20
97.7100316309
 10
213.681190815
 20
98.057561285
  0
LINE
  5
193
330
1F
100
AcDbEntity
  8
0
  6
Continuous
 62
     7
370
    25
100
AcDbLine
 10
201.3182530631
 20
173.304747946
 30
0.0
 11
201.5456618168
 21
174.1597030457
 31
0.0
  0
ARC
  5
194
330
1F
100
AcDbEntity
  8
0
  6
Continuous
 62
     7
370
    25
100
AcDbCircle
 10
296.9240912262
 20
149.0274805094
 30
0.0
 40
98.70704875774605
100
AcDbArc
 50
86.9971224109
 51
152.0293364925
  0
LINE
  5
195
330
1F
100
AcDbEntity
  8
0
  6
Continuous
 62
     7
370
    25
100
AcDbLine
 10
-210.4319992596
 20
124.834747946
 30
0.0
 11
-221.7719992596
 21
124.834747946
 31
0.0
  0
LINE
  5
196
330
1F
100
AcDbEntity
  8
0
  6
Continuous
 62
     7
370
    25
100
AcDbLine
 10
-143.8689118493
 20
124.834747946
 30
0.0
 11
-155.2089118493
 21
124.834747946
 31
0.0
  0
LINE
  5
197
330
1F
100
AcDbEntity
  8
0
  6
Continuous
 62
     7
370
    25
100
AcDbLine
 10
-221.7719992596
 20
170.774747946
 30
0.0
 11
-210.4319992596
 21
170.774747946
 31
0.0
  0
LINE
  5
198
330
1F
100
AcDbEntity
  8
0
  6
Continuous
 62
     7
370
    25
100
AcDbLine
 10
-158.2711820573
 20
124.834747946
 30
0.0
 11
-169.6111820573
 21
124.834747946
 31
0.0
  0
LINE
  5
199
330
1F
100
AcDbEntity
  8
0
  6
Continuous
 62
     7
370
    25
100
AcDbLine
 10
-155.2089118493
 20
170.774747946
 30
0.0
 11
-143.8689118493
 21
170.774747946
 31
0.0
  0
LINE
  5
19A
330
1F
100
AcDbEntity
  8
0
  6
Continuous
 62
     7
370
    25
100
AcDbLine
 10
-169.6111740486
 20
170.774747946
 30
0.0
 11
-158.2711820573
 21
170.774747946
 31
0.0
  0
ARC
  5
19B
330
1F
100
AcDbEntity
  8
0
  6
Continuous
 62
     7
370
    25
100
AcDbCircle
 10
351.5456618168
 20
132.804747946
 30
0.0
 40
2.249999999999988
100
AcDbArc
 50
60.0
 51
120.0
  0
ARC
  5
19C
330
1F
100
AcDbEntity
  8
0
  6
Continuous
 62
     7
370
    25
100
AcDbCircle
 10
352.4456618168
 20
134.3635936728
 30
0.0
 40
0.4499999999999862
100
AcDbArc
 50
60.0
 51
136.6582417728
  0
ARC
  5
19D
330
1F
100
AcDbEntity
  8
0
  6
Continuous
 62
     7
370
    25
100
AcDbCircle
 10
350.6456618168
 20
134.3635936728
 30
0.0
 40
0.4500000000000275
100
AcDbArc
 50
43.3417582272
 51
120.0
  0
ARC
  5
19E
330
1F
100
AcDbEntity
  8
0
  6
Continuous
 62
     7
370
    25
100
AcDbCircle
 10
351.5456618168
 20
135.2129500468
 30
0.0
 40
0.7874999999999812
100
AcDbArc
 50
223.3417582272
 51
316.6582417728
  0
ARC
  5
19F
330
1F
100
AcDbEntity
  8
0
  6
Continuous
 62
     7
370
    25
100
AcDbCircle
 10
351.5456618168
 20
132.804747946
 30
0.0
 40
2.25
100
AcDbArc
 50
300.0
 51
0.0
  0
ARC
  5
1A0
330
1F
100
AcDbEntity
  8
0
  6
Continuous
 62
     7
370
    25
100
AcDbCircle
 10
352.4456618168
 20
131.2459022192
 30
0.0
 40
0.4500000000000193
100
AcDbArc
 50
300.0
 51
16.6582417728
  0
ARC
  5
1A1
330
1F
100
AcDbEntity
  8
0
  6
Continuous
 62
     7
370
    25
100
AcDbCircle
 10
353.3456618168
 20
132.804747946
 30
0.0
 40
0.4500000000000073
100
AcDbArc
 50
283.3417582272
 51
0.0
  0
ARC
  5
1A2
330
1F
100
AcDbEntity
  8
0
  6
Continuous
 62
     7
370
    25
100
AcDbCircle
 10
353.6312260135
 20
131.6006468956
 30
0.0
 40
0.7875000000000051
100
AcDbArc
 50
103.3417582272
 51
196.6582417728
  0
ARC
  5
1A3
330
1F
100
AcDbEntity
  8
0
  6
Continuous
 62
     7
370
    25
100
AcDbCircle
 10
351.5456618168
 20
132.804747946
 30
0.0
 40
2.25
100
AcDbArc
 50
0.0
 51
60.0
  0
ARC
  5
1A4
330
1F
100
AcDbEntity
  8
0
  6
Continuous
 62
     7
370
    25
100
AcDbCircle
 10
353.3456618168
 20
132.804747946
 30
0.0
 40
0.4499999999999886
100
AcDbArc
 50
0.0
 51
76.6582417728
  0
ARC
  5
1A5
330
1F
100
AcDbEntity
  8
0
  6
Continuous
 62
     7
370
    25
100
AcDbCircle
 10
352.4456618168
 20
134.3635936728
 30
0.0
 40
0.4500000000000274
100
AcDbArc
 50
343.3417582272
 51
60.0
  0
ARC
  5
1A6
330
1F
100
AcDbEntity
  8
0
  6
Continuous
 62
     7
370
    25
100
AcDbCircle
 10
353.6312260135
 20
134.0088489964
 30
0.0
 40
0.7875000000000087
100
AcDbArc
 50
163.3417582272
 51
256.6582417728
  0
ARC
  5
1A7
330
1F
100
AcDbEntity
  8
0
  6
Continuous
 62
     7
370
    25
100
AcDbCircle
 10
351.5456618168
 20
132.804747946
 30
0.0
 40
2.250000000000057
100
AcDbArc
 50
120.0
 51
180.0
  0
ARC
  5
1A8
330
1F
100
AcDbEntity
  8
0
  6
Continuous
 62
     7
370
    25
100
AcDbCircle
 10
351.5456618168
 20
132.804747946
 30
0.0
 40
2.250000000000057
100
AcDbArc
 50
180.0
 51
240.0
  0
ARC
  5
1A9
330
1F
100
AcDbEntity
  8
0
  6
Continuous
 62
     7
370
    25
100
AcDbCircle
 10
351.5456618168
 20
132.804747946
 30
0.0
 40
2.250000000000012
100
AcDbArc
 50
240.0
 51
300.0
  0
CIRCLE
  5
1AA
330
1F
100
AcDbEntity
  8
0
  6
Continuous
 62
     7
370
    25
100
AcDbCircle
 10
351.5456618168
 20
132.804747946
 30
0.0
 40
3.849999999999966
  0
ARC
  5
1AB
330
1F
100
AcDbEntity
  8
0
  6
Continuous
 62
     7
370
    25
100
AcDbCircle
 10
350.6456618168
 20
134.3635936728
 30
0.0
 40
0.4499999999999729
100
AcDbArc
 50
120.0
 51
196.6582417728
  0
ARC
  5
1AC
330
1F
100
AcDbEntity
  8
0
  6
Continuous
 62
     7
370
    25
100
AcDbCircle
 10
349.4600976201
 20
134.0088489964
 30
0.0
 40
0.7875000000000595
100
AcDbArc
 50
283.3417582272
 51
16.6582417728
  0
ARC
  5
1AD
330
1F
100
AcDbEntity
  8
0
  6
Continuous
 62
     7
370
    25
100
AcDbCircle
 10
349.7456618168
 20
132.804747946
 30
0.0
 40
0.4500000000000455
100
AcDbArc
 50
103.3417582272
 51
180.0
  0
ARC
  5
1AE
330
1F
100
AcDbEntity
  8
0
  6
Continuous
 62
     7
370
    25
100
AcDbCircle
 10
351.5456618168
 20
130.3965458452
 30
0.0
 40
0.7874999999999812
100
AcDbArc
 50
43.3417582272
 51
136.6582417728
  0
ARC
  5
1AF
330
1F
100
AcDbEntity
  8
0
  6
Continuous
 62
     7
370
    25
100
AcDbCircle
 10
350.6456618168
 20
131.2459022192
 30
0.0
 40
0.4500000000000275
100
AcDbArc
 50
240.0
 51
316.6582417728
  0
ARC
  5
1B0
330
1F
100
AcDbEntity
  8
0
  6
Continuous
 62
     7
370
    25
100
AcDbCircle
 10
352.4456618168
 20
131.2459022192
 30
0.0
 40
0.4500000000000188
100
AcDbArc
 50
223.3417582272
 51
300.0
  0
ARC
  5
1B1
330
1F
100
AcDbEntity
  8
0
  6
Continuous
 62
     7
370
    25
100
AcDbCircle
 10
349.7456618168
 20
132.804747946
 30
0.0
 40
0.4500000000000455
100
AcDbArc
 50
180.0
 51
256.6582417728
  0
ARC
  5
1B2
330
1F
100
AcDbEntity
  8
0
  6
Continuous
 62
     7
370
    25
100
AcDbCircle
 10
349.4600976201
 20
131.6006468956
 30
0.0
 40
0.7875000000000595
100
AcDbArc
 50
343.3417582272
 51
76.6582417728
  0
ARC
  5
1B3
330
1F
100
AcDbEntity
  8
0
  6
Continuous
 62
     7
370
    25
100
AcDbCircle
 10
350.6456618168
 20
131.2459022192
 30
0.0
 40
0.4499999999999904
100
AcDbArc
 50
163.3417582272
 51
240.0
  0
ARC
  5
1B4
330
1F
100
AcDbEntity
  8
0
  6
Continuous
 62
     7
370
    25
100
AcDbCircle
 10
261.5456618168
 20
147.804747946
 30
0.0
 40
2.250000000000041
100
AcDbArc
 50
0.0
 51
60.0
  0
ARC
  5
1B5
330
1F
100
AcDbEntity
  8
0
  6
Continuous
 62
     7
370
    25
100
AcDbCircle
 10
261.5456618168
 20
147.804747946
 30
0.0
 40
2.250000000000041
100
AcDbArc
 50
60.0
 51
120.0
  0
ARC
  5
1B6
330
1F
100
AcDbEntity
  8
0
  6
Continuous
 62
     7
370
    25
100
AcDbCircle
 10
261.5456618168
 20
147.804747946
 30
0.0
 40
2.250000000000012
100
AcDbArc
 50
120.0
 51
180.0
  0
ARC
  5
1B7
330
1F
100
AcDbEntity
  8
0
  6
Continuous
 62
     7
370
    25
100
AcDbCircle
 10
261.5456618168
 20
147.804747946
 30
0.0
 40
2.250000000000012
100
AcDbArc
 50
180.0
 51
240.0
  0
ARC
  5
1B8
330
1F
100
AcDbEntity
  8
0
  6
Continuous
 62
     7
370
    25
100
AcDbCircle
 10
261.5456618168
 20
147.804747946
 30
0.0
 40
2.250000000000041
100
AcDbArc
 50
240.0
 51
300.0
  0
ARC
  5
1B9
330
1F
100
AcDbEntity
  8
0
  6
Continuous
 62
     7
370
    25
100
AcDbCircle
 10
261.5456618168
 20
147.804747946
 30
0.0
 40
2.250000000000041
100
AcDbArc
 50
300.0
 51
0.0
  0
CIRCLE
  5
1BA
330
1F
100
AcDbEntity
  8
0
  6
Continuous
 62
     7
370
    25
100
AcDbCircle
 10
261.5456618168
 20
147.804747946
 30
0.0
 40
3.850000000000023
  0
ARC
  5
1BB
330
1F
100
AcDbEntity
  8
0
  6
Continuous
 62
     7
370
    25
100
AcDbCircle
 10
260.6456618168
 20
149.3635936728
 30
0.0
 40
0.4500000000000274
100
AcDbArc
 50
120.0
 51
196.6582417728
  0
ARC
  5
1BC
330
1F
100
AcDbEntity
  8
0
  6
Continuous
 62
     7
370
    25
100
AcDbCircle
 10
259.7456618168
 20
147.804747946
 30
0.0
 40
0.4500000000000073
100
AcDbArc
 50
103.3417582272
 51
180.0
  0
ARC
  5
1BD
330
1F
100
AcDbEntity
  8
0
  6
Continuous
 62
     7
370
    25
100
AcDbCircle
 10
259.4600976201
 20
149.0088489964
 30
0.0
 40
0.7874999999999956
100
AcDbArc
 50
283.3417582272
 51
16.6582417728
  0
ARC
  5
1BE
330
1F
100
AcDbEntity
  8
0
  6
Continuous
 62
     7
370
    25
100
AcDbCircle
 10
263.6312260135
 20
149.0088489964
 30
0.0
 40
0.7874999999999956
100
AcDbArc
 50
163.3417582272
 51
256.6582417728
  0
ARC
  5
1BF
330
1F
100
AcDbEntity
  8
0
  6
Continuous
 62
     7
370
    25
100
AcDbCircle
 10
263.3456618168
 20
147.804747946
 30
0.0
 40
0.4500000000000073
100
AcDbArc
 50
0.0
 51
76.6582417728
  0
ARC
  5
1C0
330
1F
100
AcDbEntity
  8
0
  6
Continuous
 62
     7
370
    25
100
AcDbCircle
 10
262.4456618168
 20
149.3635936728
 30
0.0
 40
0.4500000000000355
100
AcDbArc
 50
343.3417582272
 51
60.0
  0
ARC
  5
1C1
330
1F
100
AcDbEntity
  8
0
  6
Continuous
 62
     7
370
    25
100
AcDbCircle
 10
262.4456618168
 20
146.2459022192
 30
0.0
 40
0.4500000000000434
100
AcDbArc
 50
300.0
 51
16.6582417728
  0
ARC
  5
1C2
330
1F
100
AcDbEntity
  8
0
  6
Continuous
 62
     7
370
    25
100
AcDbCircle
 10
263.6312260135
 20
146.6006468956
 30
0.0
 40
0.7874999999999956
100
AcDbArc
 50
103.3417582272
 51
196.6582417728
  0
ARC
  5
1C3
330
1F
100
AcDbEntity
  8
0
  6
Continuous
 62
     7
370
    25
100
AcDbCircle
 10
263.3456618168
 20
147.804747946
 30
0.0
 40
0.4499999999999796
100
AcDbArc
 50
283.3417582272
 51
0.0
  0
ARC
  5
1C4
330
1F
100
AcDbEntity
  8
0
  6
Continuous
 62
     7
370
    25
100
AcDbCircle
 10
260.6456618168
 20
146.2459022192
 30
0.0
 40
0.4500000000000434
100
AcDbArc
 50
240.0
 51
316.6582417728
  0
ARC
  5
1C5
330
1F
100
AcDbEntity
  8
0
  6
Continuous
 62
     7
370
    25
100
AcDbCircle
 10
262.4456618168
 20
146.2459022192
 30
0.0
 40
0.4500000000000434
100
AcDbArc
 50
223.3417582272
 51
300.0
  0
ARC
  5
1C6
330
1F
100
AcDbEntity
  8
0
  6
Continuous
 62
     7
370
    25
100
AcDbCircle
 10
261.5456618168
 20
145.3965458452
 30
0.0
 40
0.7875000000000225
100
AcDbArc
 50
43.3417582272
 51
136.6582417728
  0
ARC
  5
1C7
330
1F
100
AcDbEntity
  8
0
  6
Continuous
 62
     7
370
    25
100
AcDbCircle
 10
260.6456618168
 20
149.3635936728
 30
0.0
 40
0.4499999999999942
100
AcDbArc
 50
43.3417582272
 51
120.0
  0
ARC
  5
1C8
330
1F
100
AcDbEntity
  8
0
  6
Continuous
 62
     7
370
    25
100
AcDbCircle
 10
261.5456618168
 20
150.2129500468
 30
0.0
 40
0.7875000000000225
100
AcDbArc
 50
223.3417582272
 51
316.6582417728
  0
ARC
  5
1C9
330
1F
100
AcDbEntity
  8
0
  6
Continuous
 62
     7
370
    25
100
AcDbCircle
 10
262.4456618168
 20
149.3635936728
 30
0.0
 40
0.4499999999999942
100
AcDbArc
 50
60.0
 51
136.6582417728
  0
ARC
  5
1CA
330
1F
100
AcDbEntity
  8
0
  6
Continuous
 62
     7
370
    25
100
AcDbCircle
 10
259.7456618168
 20
147.804747946
 30
0.0
 40
0.4499999999999796
100
AcDbArc
 50
180.0
 51
256.6582417728
  0
ARC
  5
1CB
330
1F
100
AcDbEntity
  8
0
  6
Continuous
 62
     7
370
    25
100
AcDbCircle
 10
259.4600976201
 20
146.6006468956
 30
0.0
 40
0.7874999999999956
100
AcDbArc
 50
343.3417582272
 51
76.6582417728
  0
ARC
  5
1CC
330
1F
100
AcDbEntity
  8
0
  6
Continuous
 62
     7
370
    25
100
AcDbCircle
 10
260.6456618168
 20
146.2459022192
 30
0.0
 40
0.4500000000000434
100
AcDbArc
 50
163.3417582272
 51
240.0
  0
ARC
  5
1CD
330
1F
100
AcDbEntity
  8
0
  6
Continuous
 62
     7
370
    25
100
AcDbCircle
 10
351.5456618168
 20
162.804747946
 30
0.0
 40
2.250000000000012
100
AcDbArc
 50
60.0
 51
120.0
  0
ARC
  5
1CE
330
1F
100
AcDbEntity
  8
0
  6
Continuous
 62
     7
370
    25
100
AcDbCircle
 10
352.4456618168
 20
164.3635936728
 30
0.0
 40
0.4500000000000188
100
AcDbArc
 50
60.0
 51
136.6582417728
  0
ARC
  5
1CF
330
1F
100
AcDbEntity
  8
0
  6
Continuous
 62
     7
370
    25
100
AcDbCircle
 10
351.5456618168
 20
165.2129500468
 30
0.0
 40
0.7874999999999618
100
AcDbArc
 50
223.3417582272
 51
316.6582417728
  0
ARC
  5
1D0
330
1F
100
AcDbEntity
  8
0
  6
Continuous
 62
     7
370
    25
100
AcDbCircle
 10
350.6456618168
 20
164.3635936728
 30
0.0
 40
0.450000000000047
100
AcDbArc
 50
43.3417582272
 51
120.0
  0
ARC
  5
1D1
330
1F
100
AcDbEntity
  8
0
  6
Continuous
 62
     7
370
    25
100
AcDbCircle
 10
351.5456618168
 20
162.804747946
 30
0.0
 40
2.250000000000057
100
AcDbArc
 50
120.0
 51
180.0
  0
ARC
  5
1D2
330
1F
100
AcDbEntity
  8
0
  6
Continuous
 62
     7
370
    25
100
AcDbCircle
 10
350.6456618168
 20
164.3635936728
 30
0.0
 40
0.4499999999999904
100
AcDbArc
 50
120.0
 51
196.6582417728
  0
ARC
  5
1D3
330
1F
100
AcDbEntity
  8
0
  6
Continuous
 62
     7
370
    25
100
AcDbCircle
 10
349.4600976201
 20
164.0088489964
 30
0.0
 40
0.7875000000000432
100
AcDbArc
 50
283.3417582272
 51
16.6582417728
  0
ARC
  5
1D4
330
1F
100
AcDbEntity
  8
0
  6
Continuous
 62
     7
370
    25
100
AcDbCircle
 10
349.7456618168
 20
162.804747946
 30
0.0
 40
0.4500000000000455
100
AcDbArc
 50
103.3417582272
 51
180.0
  0
ARC
  5
1D5
330
1F
100
AcDbEntity
  8
0
  6
Continuous
 62
     7
370
    25
100
AcDbCircle
 10
351.5456618168
 20
162.804747946
 30
0.0
 40
2.250000000000012
100
AcDbArc
 50
0.0
 51
60.0
  0
ARC
  5
1D6
330
1F
100
AcDbEntity
  8
0
  6
Continuous
 62
     7
370
    25
100
AcDbCircle
 10
351.5456618168
 20
162.804747946
 30
0.0
 40
2.250000000000057
100
AcDbArc
 50
180.0
 51
240.0
  0
ARC
  5
1D7
330
1F
100
AcDbEntity
  8
0
  6
Continuous
 62
     7
370
    25
100
AcDbCircle
 10
351.5456618168
 20
162.804747946
 30
0.0
 40
2.250000000000012
100
AcDbArc
 50
240.0
 51
300.0
  0
ARC
  5
1D8
330
1F
100
AcDbEntity
  8
0
  6
Continuous
 62
     7
370
    25
100
AcDbCircle
 10
351.5456618168
 20
162.804747946
 30
0.0
 40
2.250000000000012
100
AcDbArc
 50
300.0
 51
0.0
  0
CIRCLE
  5
1D9
330
1F
100
AcDbEntity
  8
0
  6
Continuous
 62
     7
370
    25
100
AcDbCircle
 10
351.5456618168
 20
162.804747946
 30
0.0
 40
3.849999999999966
  0
ARC
  5
1DA
330
1F
100
AcDbEntity
  8
0
  6
Continuous
 62
     7
370
    25
100
AcDbCircle
 10
351.5456618168
 20
160.3965458452
 30
0.0
 40
0.7875000000000008
100
AcDbArc
 50
43.3417582272
 51
136.6582417728
  0
ARC
  5
1DB
330
1F
100
AcDbEntity
  8
0
  6
Continuous
 62
     7
370
    25
100
AcDbCircle
 10
352.4456618168
 20
161.2459022192
 30
0.0
 40
0.4500000000000188
100
AcDbArc
 50
223.3417582272
 51
300.0
  0
ARC
  5
1DC
330
1F
100
AcDbEntity
  8
0
  6
Continuous
 62
     7
370
    25
100
AcDbCircle
 10
350.6456618168
 20
161.2459022192
 30
0.0
 40
0.4500000000000275
100
AcDbArc
 50
240.0
 51
316.6582417728
  0
ARC
  5
1DD
330
1F
100
AcDbEntity
  8
0
  6
Continuous
 62
     7
370
    25
100
AcDbCircle
 10
350.6456618168
 20
161.2459022192
 30
0.0
 40
0.4499999999999904
100
AcDbArc
 50
163.3417582272
 51
240.0
  0
ARC
  5
1DE
330
1F
100
AcDbEntity
  8
0
  6
Continuous
 62
     7
370
    25
100
AcDbCircle
 10
349.4600976201
 20
161.6006468956
 30
0.0
 40
0.7875000000000514
100
AcDbArc
 50
343.3417582272
 51
76.6582417728
  0
ARC
  5
1DF
330
1F
100
AcDbEntity
  8
0
  6
Continuous
 62
     7
370
    25
100
AcDbCircle
 10
349.7456618168
 20
162.804747946
 30
0.0
 40
0.4500000000000455
100
AcDbArc
 50
180.0
 51
256.6582417728
  0
ARC
  5
1E0
330
1F
100
AcDbEntity
  8
0
  6
Continuous
 62
     7
370
    25
100
AcDbCircle
 10
353.6312260135
 20
164.0088489964
 30
0.0
 40
0.7875000000000364
100
AcDbArc
 50
163.3417582272
 51
256.6582417728
  0
ARC
  5
1E1
330
1F
100
AcDbEntity
  8
0
  6
Continuous
 62
     7
370
    25
100
AcDbCircle
 10
353.3456618168
 20
162.804747946
 30
0.0
 40
0.4499999999999886
100
AcDbArc
 50
0.0
 51
76.6582417728
  0
ARC
  5
1E2
330
1F
100
AcDbEntity
  8
0
  6
Continuous
 62
     7
370
    25
100
AcDbCircle
 10
352.4456618168
 20
164.3635936728
 30
0.0
 40
0.4500000000000274
100
AcDbArc
 50
343.3417582272
 51
60.0
  0
ARC
  5
1E3
330
1F
100
AcDbEntity
  8
0
  6
Continuous
 62
     7
370
    25
100
AcDbCircle
 10
352.4456618168
 20
161.2459022192
 30
0.0
 40
0.4500000000000274
100
AcDbArc
 50
300.0
 51
16.6582417728
  0
ARC
  5
1E4
330
1F
100
AcDbEntity
  8
0
  6
Continuous
 62
     7
370
    25
100
AcDbCircle
 10
353.6312260135
 20
161.6006468956
 30
0.0
 40
0.787499999999997
100
AcDbArc
 50
103.3417582272
 51
196.6582417728
  0
ARC
  5
1E5
330
1F
100
AcDbEntity
  8
0
  6
Continuous
 62
     7
370
    25
100
AcDbCircle
 10
353.3456618168
 20
162.804747946
 30
0.0
 40
0.4500000000000073
100
AcDbArc
 50
283.3417582272
 51
0.0
  0
ARC
  5
1E6
330
1F
100
AcDbEntity
  8
0
  6
Continuous
 62
     7
370
    25
100
AcDbCircle
 10
346.0463535156
 20
201.8029522864
 30
0.0
 40
63.47444413198318
100
AcDbArc
 50
67.7246621443
 51
140.422626138
  0
LWPOLYLINE
  5
1E7
330
1F
100
AcDbEntity
  8
0
  6
Continuous
 62
     7
370
    25
100
AcDbPolyline
 90
       11
 70
   128
 43
0.0
 10
370.1068418168
 20
260.5404867986
 10
370.0900615354
 20
260.5026805109
 10
370.0382522807
 20
260.3859502973
 10
369.9557704594
 20
260.2001030693
 10
369.8402518597
 20
259.9397981912
 10
369.7013733831
 20
259.626824686
 10
369.5351706638
 20
259.2522296205
 10
369.3555209142
 20
258.8472720224
 10
369.1573281312
 20
258.400448208
 10
368.9078604836
 20
257.8379231664
 10
368.889733728
 20
257.7970445957
  0
ARC
  5
1E8
330
1F
100
AcDbEntity
  8
0
  6
Continuous
 62
     7
370
    25
100
AcDbCircle
 10
346.0463535156
 20
201.8029522864
 30
0.0
 40
60.47444413198314
100
AcDbArc
 50
67.8064786741
 51
140.4360199895
  0
LWPOLYLINE
  5
1E9
330
1F
100
AcDbEntity
  8
0
  6
Continuous
 62
     7
370
    25
100
AcDbPolyline
 90
       11
 70
   128
 43
0.0
 10
297.1224798168
 20
242.2437687986
 10
297.154240916
 20
242.2172573343
 10
297.2523078142
 20
242.135400231
 10
297.4084484487
 20
242.0050710929
 10
297.6271595791
 20
241.8225201304
 10
297.8900834215
 20
241.6030743157
 10
298.2047905132
 20
241.3404199031
 10
298.5448669202
 20
241.0566065333
 10
298.9201017916
 20
240.743468685
 10
299.3404424281
 20
240.3927112244
 10
299.4257688876
 20
240.3215125141
  0
ARC
  5
1EA
330
1F
100
AcDbEntity
  8
0
  6
Continuous
 62
     7
370
    25
100
AcDbCircle
 10
201.5456977839
 20
322.8046861978
 30
0.0
 40
124.9999307039029
100
AcDbArc
 50
277.9281298636
 51
319.8727244278
  0
ARC
  5
1EB
330
1F
100
AcDbEntity
  8
0
  6
Continuous
 62
     7
370
    25
100
AcDbCircle
 10
201.5456977839
 20
322.8046861978
 30
0.0
 40
127.9999307039029
100
AcDbArc
 50
277.928130342
 51
319.8792848399
  0
LINE
  5
1EC
330
1F
100
AcDbEntity
  8
0
  6
Continuous
 62
     7
370
    25
100
AcDbLine
 10
218.7870418168
 20
198.9995217986
 30
0.0
 11
219.2008353616
 21
196.0281963532
 31
0.0
  0
ARC
  5
1ED
330
1F
100
AcDbEntity
  8
0
  6
Continuous
 62
     7
370
    25
100
AcDbCircle
 10
201.5456977839
 20
-27.1951896006
 30
0.0
 40
127.9999307039032
100
AcDbArc
 50
40.1207151513
 51
82.0718701364
  0
LWPOLYLINE
  5
1EE
330
1F
100
AcDbEntity
  8
0
  6
Continuous
 62
     7
370
    25
100
AcDbPolyline
 90
       11
 70
   128
 43
0.0
 10
299.4257689003
 20
55.287984068
 10
299.3404424976
 20
55.2167854061
 10
298.9201018014
 20
54.8660279004
 10
298.5551635475
 20
54.5614829453
 10
298.204790519
 20
54.269076687
 10
297.8983981773
 20
54.0133619274
 10
297.6271595818
 20
53.7869764635
 10
297.4138443448
 20
53.6089293504
 10
297.2523078149
 20
53.4740963653
 10
297.1561097838
 20
53.3937992304
 10
297.1224798168
 20
53.3657277986
  0
ARC
  5
1EF
330
1F
100
AcDbEntity
  8
0
  6
Continuous
 62
     7
370
    25
100
AcDbCircle
 10
201.5456977839
 20
-27.1951896006
 30
0.0
 40
124.9999307039029
100
AcDbArc
 50
40.1272755722
 51
82.0718701364
  0
LINE
  5
1F0
330
1F
100
AcDbEntity
  8
0
  6
Continuous
 62
     7
370
    25
100
AcDbLine
 10
219.200834303
 20
99.5813003914
 30
0.0
 11
218.7870418168
 21
96.6099747986
 31
0.0
  0
ARC
  5
1F1
330
1F
100
AcDbEntity
  8
0
  6
Continuous
 62
     7
370
    25
100
AcDbCircle
 10
346.046354195
 20
93.8065438108
 30
0.0
 40
60.47444433711899
100
AcDbArc
 50
219.5639792539
 51
292.1935205693
  0
LWPOLYLINE
  5
1F2
330
1F
100
AcDbEntity
  8
0
  6
Continuous
 62
     7
370
    25
100
AcDbPolyline
 90
       11
 70
   128
 43
0.0
 10
370.1068418168
 20
35.0690087986
 10
370.0900615357
 20
35.1068150864
 10
370.0382522817
 20
35.2235453003
 10
369.9557704616
 20
35.4093925288
 10
369.8402518636
 20
35.6696974076
 10
369.701373389
 20
35.9826709136
 10
369.5351706722
 20
36.3572659802
 10
369.3555209252
 20
36.7622235795
 10
369.1573281451
 20
37.2090473953
 10
368.9078604989
 20
37.7715724436
 10
368.8897337456
 20
37.8124510099
  0
ARC
  5
1F3
330
1F
100
AcDbEntity
  8
0
  6
Continuous
 62
     7
370
    25
100
AcDbCircle
 10
346.046354195
 20
93.8065438108
 30
0.0
 40
63.47444433711901
100
AcDbArc
 50
219.5773731234
 51
292.2753371171
  0
ARC
  5
1F4
330
1F
100
AcDbEntity
  8
0
  6
Continuous
 62
     7
370
    25
100
AcDbCircle
 10
316.1100736895
 20
147.8047477986
 30
0.0
 40
124.9999912642761
100
AcDbArc
 50
295.5929116477
 51
64.4070883523
  0
ARC
  5
1F5
330
1F
100
AcDbEntity
  8
0
  6
Continuous
 62
     7
370
    25
100
AcDbCircle
 10
316.1100736895
 20
147.8047477986
 30
0.0
 40
121.9999912642761
100
AcDbArc
 50
295.6339596125
 51
64.3660403967
  0
ARC
  5
1F6
330
1F
100
AcDbEntity
  8
0
  6
Continuous
 62
     7
370
    25
100
AcDbCircle
 10
221.5456660301
 20
179.1906813231
 30
0.0
 40
17.0000042133067
100
AcDbArc
 50
97.9281502772
 51
179.9999882865
  0
LINE
  5
1F7
330
1F
100
AcDbEntity
  8
0
  6
Continuous
 62
     7
370
    25
100
AcDbLine
 10
204.5456618168
 20
179.1906847986
 30
0.0
 11
201.5456618168
 21
179.1906847986
 31
0.0
  0
ARC
  5
1F8
330
1F
100
AcDbEntity
  8
0
  6
Continuous
 62
     7
370
    25
100
AcDbCircle
 10
221.5456660301
 20
179.1906813231
 30
0.0
 40
20.0000042133067
100
AcDbArc
 50
97.9281502772
 51
179.9999900436
  0
CIRCLE
  5
1F9
330
1F
100
AcDbEntity
  8
0
  6
Continuous
 62
     7
370
    25
100
AcDbCircle
 10
351.5456618168
 20
132.804747946
 30
0.0
 40
4.700000000000017
  0
LINE
  5
1FA
330
1F
100
AcDbEntity
  8
0
  6
Continuous
 62
     7
370
    25
100
AcDbLine
 10
204.5456618168
 20
179.1906847986
 30
0.0
 11
204.5456618168
 21
116.4188123199
 31
0.0
  0
LINE
  5
1FB
330
1F
100
AcDbEntity
  8
0
  6
Continuous
 62
     7
370
    25
100
AcDbLine
 10
204.5456618168
 20
116.4188123199
 30
0.0
 11
201.5456618168
 21
116.4188117986
 31
0.0
  0
LINE
  5
1FC
330
1F
100
AcDbEntity
  8
0
  6
Continuous
 62
     7
370
    25
100
AcDbLine
 10
201.5456618168
 20
116.4188117986
 30
0.0
 11
201.5456618168
 21
143.294747946
 31
0.0
  0
LINE
  5
1FD
330
1F
100
AcDbEntity
  8
0
  6
Continuous
 62
     7
370
    25
100
AcDbLine
 10
201.5456618168
 20
152.314747946
 30
0.0
 11
201.5456618168
 21
179.1906847986
 31
0.0
  0
CIRCLE
  5
1FE
330
1F
100
AcDbEntity
  8
0
  6
Continuous
 62
     7
370
    25
100
AcDbCircle
 10
261.5456618168
 20
147.804747946
 30
0.0
 40
4.699999999999989
  0
ARC
  5
1FF
330
1F
100
AcDbEntity
  8
0
  6
Continuous
 62
     7
370
    25
100
AcDbCircle
 10
221.5456660301
 20
116.418815274
 30
0.0
 40
17.0000042133067
100
AcDbArc
 50
180.0000099564
 51
262.0718461204
  0
CIRCLE
  5
200
330
1F
100
AcDbEntity
  8
0
  6
Continuous
 62
     7
370
    25
100
AcDbCircle
 10
351.5456618168
 20
162.804747946
 30
0.0
 40
4.699999999999989
  0
ARC
  5
201
330
1F
100
AcDbEntity
  8
0
  6
Continuous
 62
     7
370
    25
100
AcDbCircle
 10
221.5456660301
 20
116.418815274
 30
0.0
 40
20.00000421330672
100
AcDbArc
 50
180.0000099564
 51
262.0718497228
  0
ARC
  5
202
330
1F
100
AcDbEntity
  8
0
  6
Continuous
 62
     7
370
    25
100
AcDbCircle
 10
-224.1464723413
 20
158.3068991891
 30
0.0
 40
3.002152439010925
100
AcDbArc
 50
180.0410562628
 51
270.0511417333
  0
LINE
  5
203
330
1F
100
AcDbEntity
  8
0
  6
Continuous
 62
     7
370
    25
100
AcDbLine
 10
-227.1486240095
 20
158.304747946
 30
0.0
 11
-219.0594544575
 21
158.304747946
 31
0.0
  0
LWPOLYLINE
  5
204
330
1F
100
AcDbEntity
  8
0
  6
Continuous
 62
     7
370
    25
100
AcDbPolyline
 90
       11
 70
   128
 43
0.0
 10
-219.6903994673
 20
155.304747946
 10
-219.6734216346
 20
155.3058470634
 10
-219.5524849046
 20
155.3779410149
 10
-219.4527053166
 20
155.5273063601
 10
-219.3567384967
 20
155.7609324083
 10
-219.2726994423
 20
156.0592008268
 10
-219.1982195096
 20
156.4307034682
 10
-219.139594867
 20
156.8442499039
 10
-219.0951729457
 20
157.3117491274
 10
-219.0687081455
 20
157.7939543123
 10
-219.0594544575
 20
158.304747946
  0
LINE
  5
205
330
1F
100
AcDbEntity
  8
0
  6
Continuous
 62
     7
370
    25
100
AcDbLine
 10
-224.1437926455
 20
170.304747946
 30
0.0
 11
-219.6903994673
 21
170.304747946
 31
0.0
  0
LWPOLYLINE
  5
206
330
1F
100
AcDbEntity
  8
0
  6
Continuous
 62
     7
370
    25
100
AcDbPolyline
 90
       11
 70
   128
 43
0.0
 10
-219.6903994673
 20
170.304747946
 10
-219.6734216346
 20
170.3036488286
 10
-219.5524849046
 20
170.2315548771
 10
-219.4527053166
 20
170.0821895319
 10
-219.3567384967
 20
169.8485634838
 10
-219.2726994423
 20
169.5502950653
 10
-219.1982195096
 20
169.1787924238
 10
-219.139594867
 20
168.7652459881
 10
-219.0951729457
 20
168.2977467646
 10
-219.0687081455
 20
167.8155415797
 10
-219.0594544575
 20
167.304747946
  0
LINE
  5
207
330
1F
100
AcDbEntity
  8
0
  6
Continuous
 62
     7
370
    25
100
AcDbLine
 10
-219.0594544575
 20
167.304747946
 30
0.0
 11
-227.1486240095
 21
167.304747946
 31
0.0
  0
ARC
  5
208
330
1F
100
AcDbEntity
  8
0
  6
Continuous
 62
     7
370
    25
100
AcDbCircle
 10
-224.1464723413
 20
167.3025967029
 30
0.0
 40
3.002152439011009
100
AcDbArc
 50
89.9488582667
 51
179.9589437372
  0
LINE
  5
209
330
1F
100
AcDbEntity
  8
0
  6
Continuous
 62
     7
370
    25
100
AcDbLine
 10
-219.6903994673
 20
170.304747946
 30
0.0
 11
-164.8949350793
 21
170.304747946
 31
0.0
  0
LINE
  5
20A
330
1F
100
AcDbEntity
  8
0
  6
Continuous
 62
     7
370
    25
100
AcDbLine
 10
-227.1486240095
 20
158.304747946
 30
0.0
 11
-227.1486240095
 21
167.304747946
 31
0.0
  0
LINE
  5
20B
330
1F
100
AcDbEntity
  8
0
  6
Continuous
 62
     7
370
    25
100
AcDbLine
 10
-219.0594544575
 20
158.304747946
 30
0.0
 11
-219.0594544575
 21
167.304747946
 31
0.0
  0
LWPOLYLINE
  5
20C
330
1F
100
AcDbEntity
  8
0
  6
Continuous
 62
     7
370
    25
100
AcDbPolyline
 90
       12
 70
   128
 43
0.0
 10
-225.5592548805
 20
155.304747946
 10
-225.8346409884
 20
155.3352836204
 10
-226.1044210293
 20
155.4262690252
 10
-226.3631030595
 20
155.57585196
 10
-226.6054210589
 20
155.7809873475
 10
-226.8264421318
 20
156.037499223
 10
-227.0216669265
 20
156.3401657442
 10
-227.1871212292
 20
156.6828254937
 10
-227.3194368675
 20
157.058502907
 10
-227.4159202764
 20
157.4595502755
 10
-227.4746073321
 20
157.8778034312
 10
-227.4943033352
 20
158.304747946
  0
LWPOLYLINE
  5
20D
330
1F
100
AcDbEntity
  8
0
  6
Continuous
 62
     7
370
    25
100
AcDbPolyline
 90
       12
 70
   128
 43
0.0
 10
-227.4943033352
 20
167.304747946
 10
-227.4746073321
 20
167.7316924608
 10
-227.4159202764
 20
168.1499456165
 10
-227.3194368675
 20
168.550992985
 10
-227.1871212292
 20
168.9266703984
 10
-227.0216669265
 20
169.2693301479
 10
-226.8264421318
 20
169.5719966691
 10
-226.6054210589
 20
169.8285085445
 10
-226.3631030595
 20
170.0336439321
 10
-226.1044210293
 20
170.1832268669
 10
-225.8346409884
 20
170.2742122717
 10
-225.5592548805
 20
170.304747946
  0
LINE
  5
20E
330
1F
100
AcDbEntity
  8
0
  6
Continuous
 62
     7
370
    25
100
AcDbLine
 10
-225.5592548805
 20
170.304747946
 30
0.0
 11
-224.1437926455
 21
170.304747946
 31
0.0
  0
LINE
  5
20F
330
1F
100
AcDbEntity
  8
0
  6
Continuous
 62
     7
370
    25
100
AcDbLine
 10
-227.4943033352
 20
158.304747946
 30
0.0
 11
-227.4943033352
 21
167.304747946
 31
0.0
  0
LINE
  5
210
330
1F
100
AcDbEntity
  8
0
  6
Continuous
 62
     7
370
    25
100
AcDbLine
 10
-231.5939801958
 20
170.304747946
 30
0.0
 11
-225.5592548805
 21
170.304747946
 31
0.0
  0
LINE
  5
211
330
1F
100
AcDbEntity
  8
0
  6
Continuous
 62
     7
370
    25
100
AcDbLine
 10
-219.6903994673
 20
125.304747946
 30
0.0
 11
-224.1437926455
 21
125.304747946
 31
0.0
  0
ARC
  5
212
330
1F
100
AcDbEntity
  8
0
  6
Continuous
 62
     7
370
    25
100
AcDbCircle
 10
-224.1464723413
 20
128.3068991891
 30
0.0
 40
3.002152439010811
100
AcDbArc
 50
180.0410562628
 51
270.0511417334
  0
LINE
  5
213
330
1F
100
AcDbEntity
  8
0
  6
Continuous
 62
     7
370
    25
100
AcDbLine
 10
-227.1486240095
 20
128.304747946
 30
0.0
 11
-219.0594544575
 21
128.304747946
 31
0.0
  0
LWPOLYLINE
  5
214
330
1F
100
AcDbEntity
  8
0
  6
Continuous
 62
     7
370
    25
100
AcDbPolyline
 90
       11
 70
   128
 43
0.0
 10
-219.6903994673
 20
125.304747946
 10
-219.6734216346
 20
125.3058470634
 10
-219.5524849046
 20
125.3779410149
 10
-219.4527053166
 20
125.5273063601
 10
-219.3567384967
 20
125.7609324083
 10
-219.2726994423
 20
126.0592008268
 10
-219.1982195096
 20
126.4307034682
 10
-219.139594867
 20
126.8442499039
 10
-219.0951729457
 20
127.3117491274
 10
-219.0687081455
 20
127.7939543123
 10
-219.0594544575
 20
128.304747946
  0
LWPOLYLINE
  5
215
330
1F
100
AcDbEntity
  8
0
  6
Continuous
 62
     7
370
    25
100
AcDbPolyline
 90
       11
 70
   128
 43
0.0
 10
-219.6903994673
 20
140.304747946
 10
-219.6734216346
 20
140.3036488286
 10
-219.5524849046
 20
140.2315548771
 10
-219.4527053166
 20
140.0821895319
 10
-219.3567384967
 20
139.8485634838
 10
-219.2726994423
 20
139.5502950653
 10
-219.1982195096
 20
139.1787924238
 10
-219.139594867
 20
138.7652459881
 10
-219.0951729457
 20
138.2977467646
 10
-219.0687081455
 20
137.8155415797
 10
-219.0594544575
 20
137.304747946
  0
LINE
  5
216
330
1F
100
AcDbEntity
  8
0
  6
Continuous
 62
     7
370
    25
100
AcDbLine
 10
-219.0594544575
 20
137.304747946
 30
0.0
 11
-227.1486240095
 21
137.304747946
 31
0.0
  0
ARC
  5
217
330
1F
100
AcDbEntity
  8
0
  6
Continuous
 62
     7
370
    25
100
AcDbCircle
 10
-224.1464723413
 20
137.3025967029
 30
0.0
 40
3.002152439010839
100
AcDbArc
 50
89.9488582667
 51
179.9589437372
  0
LINE
  5
218
330
1F
100
AcDbEntity
  8
0
  6
Continuous
 62
     7
370
    25
100
AcDbLine
 10
-164.8949350793
 20
125.304747946
 30
0.0
 11
-219.6903994673
 21
125.304747946
 31
0.0
  0
LINE
  5
219
330
1F
100
AcDbEntity
  8
0
  6
Continuous
 62
     7
370
    25
100
AcDbLine
 10
-227.1486240095
 20
128.304747946
 30
0.0
 11
-227.1486240095
 21
137.304747946
 31
0.0
  0
LINE
  5
21A
330
1F
100
AcDbEntity
  8
0
  6
Continuous
 62
     7
370
    25
100
AcDbLine
 10
-219.0594544575
 20
128.304747946
 30
0.0
 11
-219.0594544575
 21
137.304747946
 31
0.0
  0
LWPOLYLINE
  5
21B
330
1F
100
AcDbEntity
  8
0
  6
Continuous
 62
     7
370
    25
100
AcDbPolyline
 90
       12
 70
   128
 43
0.0
 10
-225.5592548805
 20
125.304747946
 10
-225.8346409884
 20
125.3352836204
 10
-226.1044210293
 20
125.4262690252
 10
-226.3631030595
 20
125.57585196
 10
-226.6054210589
 20
125.7809873475
 10
-226.8264421318
 20
126.037499223
 10
-227.0216669265
 20
126.3401657442
 10
-227.1871212292
 20
126.6828254937
 10
-227.3194368675
 20
127.058502907
 10
-227.4159202764
 20
127.4595502755
 10
-227.4746073321
 20
127.8778034312
 10
-227.4943033352
 20
128.304747946
  0
LINE
  5
21C
330
1F
100
AcDbEntity
  8
0
  6
Continuous
 62
     7
370
    25
100
AcDbLine
 10
-224.1437926455
 20
125.304747946
 30
0.0
 11
-225.5592548805
 21
125.304747946
 31
0.0
  0
LWPOLYLINE
  5
21D
330
1F
100
AcDbEntity
  8
0
  6
Continuous
 62
     7
370
    25
100
AcDbPolyline
 90
       12
 70
   128
 43
0.0
 10
-227.4943033352
 20
137.304747946
 10
-227.4746073321
 20
137.7316924608
 10
-227.4159202764
 20
138.1499456165
 10
-227.3194368675
 20
138.550992985
 10
-227.1871212292
 20
138.9266703984
 10
-227.0216669265
 20
139.2693301479
 10
-226.8264421318
 20
139.5719966691
 10
-226.6054210589
 20
139.8285085445
 10
-226.3631030595
 20
140.0336439321
 10
-226.1044210293
 20
140.1832268669
 10
-225.8346409884
 20
140.2742122717
 10
-225.5592548805
 20
140.304747946
  0
LINE
  5
21E
330
1F
100
AcDbEntity
  8
0
  6
Continuous
 62
     7
370
    25
100
AcDbLine
 10
-227.4943033352
 20
128.304747946
 30
0.0
 11
-227.4943033352
 21
137.304747946
 31
0.0
  0
LINE
  5
21F
330
1F
100
AcDbEntity
  8
0
  6
Continuous
 62
     7
370
    25
100
AcDbLine
 10
-225.5592548805
 20
125.304747946
 30
0.0
 11
-231.5939801958
 21
125.304747946
 31
0.0
  0
LINE
  5
220
330
1F
100
AcDbEntity
  8
0
  6
Continuous
 62
     7
370
    25
100
AcDbLine
 10
-59.8929980081
 20
125.304747946
 30
0.0
 11
-98.2233680208
 21
125.304747946
 31
0.0
  0
ARC
  5
221
330
1F
100
AcDbEntity
  8
0
  6
Continuous
 62
     7
370
    25
100
AcDbCircle
 10
-98.1245494681
 20
128.1890868753
 30
0.0
 40
2.886031213475951
100
AcDbArc
 50
177.7031896372
 51
268.0377922132
  0
LINE
  5
222
330
1F
100
AcDbEntity
  8
0
  6
Continuous
 62
     7
370
    25
100
AcDbLine
 10
-101.0082621241
 20
128.304747946
 30
0.0
 11
-57.5751825558
 21
128.304747946
 31
0.0
  0
ARC
  5
223
330
1F
100
AcDbEntity
  8
0
  6
Continuous
 62
     7
370
    25
100
AcDbCircle
 10
-60.3213840884
 20
128.0310993167
 30
0.0
 40
2.759801882423416
100
AcDbArc
 50
278.9297581741
 51
5.690523591
  0
LINE
  5
224
330
1F
100
AcDbEntity
  8
0
  6
Continuous
 62
     7
370
    25
100
AcDbLine
 10
-57.5751825558
 20
137.304747946
 30
0.0
 11
-101.0082621241
 21
137.304747946
 31
0.0
  0
ARC
  5
225
330
1F
100
AcDbEntity
  8
0
  6
Continuous
 62
     7
370
    25
100
AcDbCircle
 10
-98.124303315
 20
137.4201805133
 30
0.0
 40
2.886268021151462
100
AcDbArc
 50
91.9669360319
 51
182.2920821177
  0
LINE
  5
226
330
1F
100
AcDbEntity
  8
0
  6
Continuous
 62
     7
370
    25
100
AcDbLine
 10
-98.2233680208
 20
140.304747946
 30
0.0
 11
-59.892997079
 21
140.304747946
 31
0.0
  0
ARC
  5
227
330
1F
100
AcDbEntity
  8
0
  6
Continuous
 62
     7
370
    25
100
AcDbCircle
 10
-60.2471871379
 20
137.6357216312
 30
0.0
 40
2.692424941813521
100
AcDbArc
 50
352.938899524
 51
82.4407964854
  0
LINE
  5
228
330
1F
100
AcDbEntity
  8
0
  6
Continuous
 62
     7
370
    25
100
AcDbLine
 10
-101.0082621241
 20
128.304747946
 30
0.0
 11
-101.0082621241
 21
137.304747946
 31
0.0
  0
LINE
  5
229
330
1F
100
AcDbEntity
  8
0
  6
Continuous
 62
     7
370
    25
100
AcDbLine
 10
-57.5751825558
 20
128.304747946
 30
0.0
 11
-57.5751825558
 21
137.304747946
 31
0.0
  0
LINE
  5
22A
330
1F
100
AcDbEntity
  8
0
  6
Continuous
 62
     7
370
    25
100
AcDbLine
 10
-24.5758560024
 20
137.304747946
 30
0.0
 11
-51.9105188763
 21
137.304747946
 31
0.0
  0
LWPOLYLINE
  5
22B
330
1F
100
AcDbEntity
  8
0
  6
Continuous
 62
     7
370
    25
100
AcDbPolyline
 90
       12
 70
   128
 43
0.0
 10
-51.9105188763
 20
137.304747946
 10
-51.8908673057
 20
137.7316924608
 10
-51.832312643
 20
138.1499456165
 10
-51.7360468925
 20
138.550992985
 10
-51.6040297472
 20
138.9266703984
 10
-51.4389486954
 20
139.2693301479
 10
-51.2441643113
 20
139.5719966691
 10
-51.0236418432
 20
139.8285085445
 10
-50.7818704927
 20
140.0336439321
 10
-50.5237720273
 20
140.1832268669
 10
-50.2546005874
 20
140.2742122717
 10
-49.9798357273
 20
140.304747946
  0
ARC
  5
22C
330
1F
100
AcDbEntity
  8
0
  6
Continuous
 62
     7
370
    25
100
AcDbCircle
 10
-27.422451707
 20
137.4575128844
 30
0.0
 40
2.850691886466091
100
AcDbArc
 50
356.9281208561
 51
87.1780775703
  0
LINE
  5
22D
330
1F
100
AcDbEntity
  8
0
  6
Continuous
 62
     7
370
    25
100
AcDbLine
 10
-49.9798357273
 20
140.304747946
 30
0.0
 11
-44.8283855933
 21
140.304747946
 31
0.0
  0
LINE
  5
22E
330
1F
100
AcDbEntity
  8
0
  6
Continuous
 62
     7
370
    25
100
AcDbLine
 10
-38.4402779031
 20
140.304747946
 30
0.0
 11
-34.8008990613
 21
140.304747946
 31
0.0
  0
LWPOLYLINE
  5
22F
330
1F
100
AcDbEntity
  8
0
  6
Continuous
 62
     7
370
    25
100
AcDbPolyline
 90
       12
 70
   128
 43
0.0
 10
-49.9798361622
 20
125.304747946
 10
-50.2546009604
 20
125.3352836204
 10
-50.5237723397
 20
125.4262690252
 10
-50.781870747
 20
125.57585196
 10
-51.023642043
 20
125.7809873475
 10
-51.2441644614
 20
126.037499223
 10
-51.4389488016
 20
126.3401657442
 10
-51.6040298162
 20
126.6828254937
 10
-51.7360469318
 20
127.058502907
 10
-51.8323126607
 20
127.4595502755
 10
-51.8908673101
 20
127.8778034312
 10
-51.9105188763
 20
128.304747946
  0
LINE
  5
230
330
1F
100
AcDbEntity
  8
0
  6
Continuous
 62
     7
370
    25
100
AcDbLine
 10
-51.9105188763
 20
128.304747946
 30
0.0
 11
-24.5758560024
 21
128.304747946
 31
0.0
  0
ARC
  5
231
330
1F
100
AcDbEntity
  8
0
  6
Continuous
 62
     7
370
    25
100
AcDbCircle
 10
-27.4221008446
 20
128.1516665006
 30
0.0
 40
2.850358509185178
100
AcDbArc
 50
272.8151914324
 51
3.0786101411
  0
LINE
  5
232
330
1F
100
AcDbEntity
  8
0
  6
Continuous
 62
     7
370
    25
100
AcDbLine
 10
-27.2821066493
 20
125.304747946
 30
0.0
 11
-49.9798361622
 21
125.304747946
 31
0.0
  0
LINE
  5
233
330
1F
100
AcDbEntity
  8
0
  6
Continuous
 62
     7
370
    25
100
AcDbLine
 10
-51.9105188763
 20
128.304747946
 30
0.0
 11
-51.9105188763
 21
137.304747946
 31
0.0
  0
LINE
  5
234
330
1F
100
AcDbEntity
  8
0
  6
Continuous
 62
     7
370
    25
100
AcDbLine
 10
-24.5758560024
 20
128.304747946
 30
0.0
 11
-24.5758560024
 21
137.304747946
 31
0.0
  0
LINE
  5
235
330
1F
100
AcDbEntity
  8
0
  6
Continuous
 62
     7
370
    25
100
AcDbLine
 10
-51.9105188763
 20
137.304747946
 30
0.0
 11
-57.5751825558
 21
137.304747946
 31
0.0
  0
LINE
  5
236
330
1F
100
AcDbEntity
  8
0
  6
Continuous
 62
     7
370
    25
100
AcDbLine
 10
-59.892997079
 20
140.304747946
 30
0.0
 11
-49.9798357273
 21
140.304747946
 31
0.0
  0
LINE
  5
237
330
1F
100
AcDbEntity
  8
0
  6
Continuous
 62
     7
370
    25
100
AcDbLine
 10
-57.5751825558
 20
128.304747946
 30
0.0
 11
-51.9105188763
 21
128.304747946
 31
0.0
  0
LINE
  5
238
330
1F
100
AcDbEntity
  8
0
  6
Continuous
 62
     7
370
    25
100
AcDbLine
 10
-49.9798361622
 20
125.304747946
 30
0.0
 11
-59.8929980081
 21
125.304747946
 31
0.0
  0
LWPOLYLINE
  5
239
330
1F
100
AcDbEntity
  8
0
  6
Continuous
 62
     7
370
    25
100
AcDbPolyline
 90
       12
 70
   128
 43
0.0
 10
-19.6487026109
 20
125.304747946
 10
-19.8128789143
 20
125.3352836204
 10
-19.9737130616
 20
125.4262690252
 10
-20.1279309334
 20
125.57585196
 10
-20.2723930986
 20
125.7809873475
 10
-20.404158724
 20
126.037499223
 10
-20.5205454415
 20
126.3401657442
 10
-20.6191839531
 20
126.6828254937
 10
-20.6980662633
 20
127.058502907
 10
-20.7555865556
 20
127.4595502755
 10
-20.7905738827
 20
127.8778034312
 10
-20.8023160037
 20
128.304747946
  0
LINE
  5
23A
330
1F
100
AcDbEntity
  8
0
  6
Continuous
 62
     7
370
    25
100
AcDbLine
 10
-20.8023160037
 20
128.304747946
 30
0.0
 11
15.5202879786
 21
128.304747946
 31
0.0
  0
ARC
  5
23B
330
1F
100
AcDbEntity
  8
0
  6
Continuous
 62
     7
370
    25
100
AcDbCircle
 10
12.5790299724
 20
128.2456482903
 30
0.0
 40
2.941851700582728
100
AcDbArc
 50
271.4571710765
 51
1.1511078709
  0
LINE
  5
23C
330
1F
100
AcDbEntity
  8
0
  6
Continuous
 62
     7
370
    25
100
AcDbLine
 10
12.6538403535
 20
125.304747946
 30
0.0
 11
-19.6487026109
 21
125.304747946
 31
0.0
  0
LINE
  5
23D
330
1F
100
AcDbEntity
  8
0
  6
Continuous
 62
     7
370
    25
100
AcDbLine
 10
-20.8023160037
 20
128.304747946
 30
0.0
 11
-20.8023160037
 21
137.304747946
 31
0.0
  0
LINE
  5
23E
330
1F
100
AcDbEntity
  8
0
  6
Continuous
 62
     7
370
    25
100
AcDbLine
 10
15.5202879786
 20
137.304747946
 30
0.0
 11
-20.8023160037
 21
137.304747946
 31
0.0
  0
LINE
  5
23F
330
1F
100
AcDbEntity
  8
0
  6
Continuous
 62
     7
370
    25
100
AcDbLine
 10
15.5202879786
 20
128.304747946
 30
0.0
 11
15.5202879786
 21
137.304747946
 31
0.0
  0
LWPOLYLINE
  5
240
330
1F
100
AcDbEntity
  8
0
  6
Continuous
 62
     7
370
    25
100
AcDbPolyline
 90
       12
 70
   128
 43
0.0
 10
-20.8023160037
 20
137.304747946
 10
-20.7905738348
 20
137.7316924608
 10
-20.7555863648
 20
138.1499456165
 10
-20.6980658378
 20
138.550992985
 10
-20.6191832056
 20
138.9266703984
 10
-20.5205442914
 20
139.2693301479
 10
-20.4041570989
 20
139.5719966691
 10
-20.2723909357
 20
139.8285085445
 10
-20.1279281809
 20
140.0336439321
 10
-19.9737096796
 20
140.1832268669
 10
-19.8128748758
 20
140.2742122717
 10
-19.6486979023
 20
140.304747946
  0
ARC
  5
241
330
1F
100
AcDbEntity
  8
0
  6
Continuous
 62
     7
370
    25
100
AcDbCircle
 10
12.5919874687
 20
137.3762282757
 30
0.0
 40
2.929172803659677
100
AcDbArc
 50
358.6016776496
 51
88.7900313178
  0
LINE
  5
242
330
1F
100
AcDbEntity
  8
0
  6
Continuous
 62
     7
370
    25
100
AcDbLine
 10
-20.8023160037
 20
137.304747946
 30
0.0
 11
-24.5758560024
 21
137.304747946
 31
0.0
  0
LINE
  5
243
330
1F
100
AcDbEntity
  8
0
  6
Continuous
 62
     7
370
    25
100
AcDbLine
 10
-24.5758560024
 20
128.304747946
 30
0.0
 11
-20.8023160037
 21
128.304747946
 31
0.0
  0
LINE
  5
244
330
1F
100
AcDbEntity
  8
0
  6
Continuous
 62
     7
370
    25
100
AcDbLine
 10
-19.6487026109
 20
125.304747946
 30
0.0
 11
-27.2821066493
 21
125.304747946
 31
0.0
  0
LWPOLYLINE
  5
245
330
1F
100
AcDbEntity
  8
0
  6
Continuous
 62
     7
370
    25
100
AcDbPolyline
 90
       11
 70
   128
 43
0.0
 10
-108.7654608099
 20
137.304747946
 10
-108.789071884
 20
137.8010907284
 10
-108.8620034809
 20
138.2974335107
 10
-108.9782108141
 20
138.7521032782
 10
-109.1411601219
 20
139.1781989318
 10
-109.3373639276
 20
139.5400528752
 10
-109.5725768622
 20
139.8479867211
 10
-109.8272978509
 20
140.0762605918
 10
-110.1088599266
 20
140.2313108701
 10
-110.4625902954
 20
140.3043784729
 10
-110.4898067638
 20
140.304747946
  0
LINE
  5
246
330
1F
100
AcDbEntity
  8
0
  6
Continuous
 62
     7
370
    25
100
AcDbLine
 10
-134.0119611545
 20
140.304747946
 30
0.0
 11
-110.4898067638
 21
140.304747946
 31
0.0
  0
LWPOLYLINE
  5
247
330
1F
100
AcDbEntity
  8
0
  6
Continuous
 62
     7
370
    25
100
AcDbPolyline
 90
       11
 70
   128
 43
0.0
 10
-108.7654608099
 20
128.304747946
 10
-108.789071884
 20
127.8084051637
 10
-108.8620034809
 20
127.3120623813
 10
-108.9782108141
 20
126.8573926138
 10
-109.1411601219
 20
126.4312969602
 10
-109.3373639276
 20
126.0694430169
 10
-109.5725768622
 20
125.7615091709
 10
-109.8272978509
 20
125.5332353002
 10
-110.1088599266
 20
125.3781850219
 10
-110.4625902954
 20
125.3051174192
 10
-110.4898067638
 20
125.304747946
  0
LINE
  5
248
330
1F
100
AcDbEntity
  8
0
  6
Continuous
 62
     7
370
    25
100
AcDbLine
 10
-110.4898067638
 20
125.304747946
 30
0.0
 11
-134.0119611545
 21
125.304747946
 31
0.0
  0
LINE
  5
249
330
1F
100
AcDbEntity
  8
0
  6
Continuous
 62
     7
370
    25
100
AcDbLine
 10
-108.7654608099
 20
128.304747946
 30
0.0
 11
-108.7654608099
 21
137.304747946
 31
0.0
  0
LINE
  5
24A
330
1F
100
AcDbEntity
  8
0
  6
Continuous
 62
     7
370
    25
100
AcDbLine
 10
-101.0082621241
 20
137.304747946
 30
0.0
 11
-108.7654608099
 21
137.304747946
 31
0.0
  0
LINE
  5
24B
330
1F
100
AcDbEntity
  8
0
  6
Continuous
 62
     7
370
    25
100
AcDbLine
 10
-110.4898067638
 20
140.304747946
 30
0.0
 11
-98.2233680208
 21
140.304747946
 31
0.0
  0
LINE
  5
24C
330
1F
100
AcDbEntity
  8
0
  6
Continuous
 62
     7
370
    25
100
AcDbLine
 10
-108.7654608099
 20
128.304747946
 30
0.0
 11
-101.0082621241
 21
128.304747946
 31
0.0
  0
LINE
  5
24D
330
1F
100
AcDbEntity
  8
0
  6
Continuous
 62
     7
370
    25
100
AcDbLine
 10
-98.2233680208
 20
125.304747946
 30
0.0
 11
-110.4898067638
 21
125.304747946
 31
0.0
  0
LINE
  5
24E
330
1F
100
AcDbEntity
  8
0
  6
Continuous
 62
     7
370
    25
100
AcDbLine
 10
20.1728460354
 20
137.304747946
 30
0.0
 11
15.5202879786
 21
137.304747946
 31
0.0
  0
LWPOLYLINE
  5
24F
330
1F
100
AcDbEntity
  8
0
  6
Continuous
 62
     7
370
    25
100
AcDbPolyline
 90
       12
 70
   128
 43
0.0
 10
20.1728460354
 20
137.304747946
 10
20.1791869885
 20
137.7316924608
 10
20.1980807641
 20
138.1499456165
 10
20.2291427396
 20
138.550992985
 10
20.2717405826
 20
138.9266703984
 10
20.3250071239
 20
139.2693301479
 10
20.3878580104
 20
139.5719966691
 10
20.4590137792
 20
139.8285085445
 10
20.5370259041
 20
140.0336439321
 10
20.6203062832
 20
140.1832268669
 10
20.7071595682
 20
140.2742122717
 10
20.7958176765
 20
140.304747946
  0
LINE
  5
250
330
1F
100
AcDbEntity
  8
0
  6
Continuous
 62
     7
370
    25
100
AcDbLine
 10
15.5202879786
 20
128.304747946
 30
0.0
 11
20.1728460354
 21
128.304747946
 31
0.0
  0
ARC
  5
251
330
1F
100
AcDbEntity
  8
0
  6
Continuous
 62
     7
370
    25
100
AcDbCircle
 10
24.5794734943
 20
127.6551306416
 30
0.0
 40
4.454252822121822
100
AcDbArc
 50
171.6139572861
 51
211.8482685237
  0
LINE
  5
252
330
1F
100
AcDbEntity
  8
0
  6
Continuous
 62
     7
370
    25
100
AcDbLine
 10
20.7958152925
 20
125.304747946
 30
0.0
 11
12.6538403535
 21
125.304747946
 31
0.0
  0
LINE
  5
253
330
1F
100
AcDbEntity
  8
0
  6
Continuous
 62
     7
370
    25
100
AcDbLine
 10
20.1728460354
 20
128.304747946
 30
0.0
 11
20.1728460354
 21
137.304747946
 31
0.0
  0
LINE
  5
254
330
1F
100
AcDbEntity
  8
0
  6
Continuous
 62
     7
370
    25
100
AcDbLine
 10
20.1728460354
 20
128.304747946
 30
0.0
 11
45.5748552668
 21
128.304747946
 31
0.0
  0
LINE
  5
255
330
1F
100
AcDbEntity
  8
0
  6
Continuous
 62
     7
370
    25
100
AcDbLine
 10
45.5748552668
 20
137.304747946
 30
0.0
 11
20.1728460354
 21
137.304747946
 31
0.0
  0
LINE
  5
256
330
1F
100
AcDbEntity
  8
0
  6
Continuous
 62
     7
370
    25
100
AcDbLine
 10
45.5748552668
 20
128.304747946
 30
0.0
 11
45.5748552668
 21
137.304747946
 31
0.0
  0
ARC
  5
257
330
1F
100
AcDbEntity
  8
0
  6
Continuous
 62
     7
370
    25
100
AcDbCircle
 10
42.5941321431
 20
128.2854394457
 30
0.0
 40
2.980785661240262
100
AcDbArc
 50
270.4554179325
 51
0.3711448716
  0
LINE
  5
258
330
1F
100
AcDbEntity
  8
0
  6
Continuous
 62
     7
370
    25
100
AcDbLine
 10
42.6178247948
 20
125.304747946
 30
0.0
 11
20.7958152925
 21
125.304747946
 31
0.0
  0
ARC
  5
259
330
1F
100
AcDbEntity
  8
0
  6
Continuous
 62
     7
370
    25
100
AcDbCircle
 10
42.5982358349
 20
137.3281013616
 30
0.0
 40
2.976711041488554
100
AcDbArc
 50
359.5504884898
 51
89.6229444737
  0
LWPOLYLINE
  5
25A
330
1F
100
AcDbEntity
  8
0
  6
Continuous
 62
     7
370
    25
100
AcDbPolyline
 90
       11
 70
   128
 43
0.0
 10
-140.4738517727
 20
128.304747946
 10
-140.4899001751
 20
127.8084700083
 10
-140.5395155161
 20
127.3121920706
 10
-140.6186994997
 20
126.8575839811
 10
-140.7299753562
 20
126.4315432623
 10
-140.8643149188
 20
126.0696762011
 10
-141.0257877748
 20
125.7617175783
 10
-141.2011329297
 20
125.5333749284
 10
-141.3954335075
 20
125.3782582883
 10
-141.6408355518
 20
125.3050954387
 10
-141.6591193391
 20
125.304747946
  0
LINE
  5
25B
330
1F
100
AcDbEntity
  8
0
  6
Continuous
 62
     7
370
    25
100
AcDbLine
 10
-134.0119611545
 20
125.304747946
 30
0.0
 11
-141.6591193391
 21
125.304747946
 31
0.0
  0
LWPOLYLINE
  5
25C
330
1F
100
AcDbEntity
  8
0
  6
Continuous
 62
     7
370
    25
100
AcDbPolyline
 90
       11
 70
   128
 43
0.0
 10
-140.4738517727
 20
137.304747946
 10
-140.4899001751
 20
137.8010258837
 10
-140.5395155161
 20
138.2973038215
 10
-140.6186994997
 20
138.7519119109
 10
-140.7299753562
 20
139.1779526297
 10
-140.8643149188
 20
139.5398196909
 10
-141.0257877748
 20
139.8477783137
 10
-141.2011329297
 20
140.0761209636
 10
-141.3954335075
 20
140.2312376038
 10
-141.6408355518
 20
140.3044004534
 10
-141.6591193391
 20
140.304747946
  0
LINE
  5
25D
330
1F
100
AcDbEntity
  8
0
  6
Continuous
 62
     7
370
    25
100
AcDbLine
 10
-140.435526586
 20
140.304747946
 30
0.0
 11
-134.0083929288
 21
140.304747946
 31
0.0
  0
LINE
  5
25E
330
1F
100
AcDbEntity
  8
0
  6
Continuous
 62
     7
370
    25
100
AcDbLine
 10
-140.4738517727
 20
128.304747946
 30
0.0
 11
-140.4738517727
 21
137.304747946
 31
0.0
  0
LINE
  5
25F
330
1F
100
AcDbEntity
  8
0
  6
Continuous
 62
     7
370
    25
100
AcDbLine
 10
-167.8940067692
 20
128.304747946
 30
0.0
 11
-140.4738517727
 21
128.304747946
 31
0.0
  0
ARC
  5
260
330
1F
100
AcDbEntity
  8
0
  6
Continuous
 62
     7
370
    25
100
AcDbCircle
 10
-164.8945154991
 20
128.3042392446
 30
0.0
 40
2.999491313260571
100
AcDbArc
 50
179.9902828716
 51
269.9943392878
  0
LINE
  5
261
330
1F
100
AcDbEntity
  8
0
  6
Continuous
 62
     7
370
    25
100
AcDbLine
 10
-141.6591193391
 20
125.304747946
 30
0.0
 11
-164.8948118431
 21
125.304747946
 31
0.0
  0
LINE
  5
262
330
1F
100
AcDbEntity
  8
0
  6
Continuous
 62
     7
370
    25
100
AcDbLine
 10
-140.4738517727
 20
137.304747946
 30
0.0
 11
-167.8940067692
 21
137.304747946
 31
0.0
  0
ARC
  5
263
330
1F
100
AcDbEntity
  8
0
  6
Continuous
 62
     7
370
    25
100
AcDbCircle
 10
-164.8945164649
 20
137.305257613
 30
0.0
 40
2.999490347599504
100
AcDbArc
 50
90.005642265
 51
180.0097355756
  0
LINE
  5
264
330
1F
100
AcDbEntity
  8
0
  6
Continuous
 62
     7
370
    25
100
AcDbLine
 10
-167.8940067692
 20
128.304747946
 30
0.0
 11
-167.8940067692
 21
137.304747946
 31
0.0
  0
LINE
  5
265
330
1F
100
AcDbEntity
  8
0
  6
Continuous
 62
     7
370
    25
100
AcDbLine
 10
45.5748552668
 20
128.304747946
 30
0.0
 11
48.4947374312
 21
128.304747946
 31
0.0
  0
ARC
  5
266
330
1F
100
AcDbEntity
  8
0
  6
Continuous
 62
     7
370
    25
100
AcDbCircle
 10
-17.8379429411
 20
127.6259601264
 30
0.0
 40
66.33615332733774
100
AcDbArc
 50
357.9947161551
 51
0.5862919995
  0
LINE
  5
267
330
1F
100
AcDbEntity
  8
0
  6
Continuous
 62
     7
370
    25
100
AcDbLine
 10
48.4575864126
 20
125.304747946
 30
0.0
 11
42.6178247948
 21
125.304747946
 31
0.0
  0
LINE
  5
268
330
1F
100
AcDbEntity
  8
0
  6
Continuous
 62
     7
370
    25
100
AcDbLine
 10
48.4947374312
 20
137.304747946
 30
0.0
 11
45.5748552668
 21
137.304747946
 31
0.0
  0
ARC
  5
269
330
1F
100
AcDbEntity
  8
0
  6
Continuous
 62
     7
370
    25
100
AcDbCircle
 10
-6.3631968511
 20
138.1257301286
 30
0.0
 40
54.86407718589814
100
AcDbArc
 50
359.1425979951
 51
2.2761955927
  0
LINE
  5
26A
330
1F
100
AcDbEntity
  8
0
  6
Continuous
 62
     7
370
    25
100
AcDbLine
 10
48.4947374312
 20
128.304747946
 30
0.0
 11
48.4947374312
 21
137.304747946
 31
0.0
  0
LINE
  5
26B
330
1F
100
AcDbEntity
  8
0
  6
Continuous
 62
     7
370
    25
100
AcDbLine
 10
66.1994013823
 20
125.304747946
 30
0.0
 11
48.4575864126
 21
125.304747946
 31
0.0
  0
LWPOLYLINE
  5
26C
330
1F
100
AcDbEntity
  8
0
  6
Continuous
 62
     7
370
    25
100
AcDbPolyline
 90
       12
 70
   128
 43
0.0
 10
69.4047767932
 20
125.304747946
 10
69.5897616445
 20
125.3352836204
 10
69.7709807377
 20
125.4262690252
 10
69.9447449746
 20
125.57585196
 10
70.1075170165
 20
125.7809873475
 10
70.2559832939
 20
126.037499223
 10
70.3871214617
 20
126.3401657442
 10
70.4982619249
 20
126.6828254937
 10
70.5871421841
 20
127.058502907
 10
70.6519528937
 20
127.4595502755
 10
70.6913746944
 20
127.8778034312
 10
70.7046050721
 20
128.304747946
  0
LINE
  5
26D
330
1F
100
AcDbEntity
  8
0
  6
Continuous
 62
     7
370
    25
100
AcDbLine
 10
69.4047767932
 20
125.304747946
 30
0.0
 11
66.1994013823
 21
125.304747946
 31
0.0
  0
LWPOLYLINE
  5
26E
330
1F
100
AcDbEntity
  8
0
  6
Continuous
 62
     7
370
    25
100
AcDbPolyline
 90
       12
 70
   128
 43
0.0
 10
70.7046050721
 20
137.304747946
 10
70.6913746842
 20
137.7316924608
 10
70.6519528532
 20
138.1499456165
 10
70.5871420938
 20
138.550992985
 10
70.4982617662
 20
138.9266703984
 10
70.3871212175
 20
139.2693301479
 10
70.2559829488
 20
139.5719966691
 10
70.1075165571
 20
139.8285085445
 10
69.94474439
 20
140.0336439321
 10
69.7709800194
 20
140.1832268669
 10
69.5897607869
 20
140.2742122717
 10
69.4047757933
 20
140.304747946
  0
LINE
  5
26F
330
1F
100
AcDbEntity
  8
0
  6
Continuous
 62
     7
370
    25
100
AcDbLine
 10
70.7046050721
 20
128.304747946
 30
0.0
 11
70.7046050721
 21
137.304747946
 31
0.0
  0
LINE
  5
270
330
1F
100
AcDbEntity
  8
0
  6
Continuous
 62
     7
370
    25
100
AcDbLine
 10
79.3495841076
 20
125.304747946
 30
0.0
 11
69.4047767932
 21
125.304747946
 31
0.0
  0
LINE
  5
271
330
1F
100
AcDbEntity
  8
0
  6
Continuous
 62
     7
370
    25
100
AcDbLine
 10
80.0902509054
 20
125.304747946
 30
0.0
 11
79.3495841076
 21
125.304747946
 31
0.0
  0
LINE
  5
272
330
1F
100
AcDbEntity
  8
0
  6
Continuous
 62
     7
370
    25
100
AcDbLine
 10
-57.5751825558
 20
167.304747946
 30
0.0
 11
-101.0082621241
 21
167.304747946
 31
0.0
  0
ARC
  5
273
330
1F
100
AcDbEntity
  8
0
  6
Continuous
 62
     7
370
    25
100
AcDbCircle
 10
-98.124303315
 20
167.4201805133
 30
0.0
 40
2.886268021151469
100
AcDbArc
 50
91.9669360319
 51
182.2920821177
  0
LINE
  5
274
330
1F
100
AcDbEntity
  8
0
  6
Continuous
 62
     7
370
    25
100
AcDbLine
 10
-98.2233680208
 20
170.304747946
 30
0.0
 11
-59.892997079
 21
170.304747946
 31
0.0
  0
ARC
  5
275
330
1F
100
AcDbEntity
  8
0
  6
Continuous
 62
     7
370
    25
100
AcDbCircle
 10
-60.2471871379
 20
167.6357216312
 30
0.0
 40
2.692424941813511
100
AcDbArc
 50
352.938899524
 51
82.4407964854
  0
LINE
  5
276
330
1F
100
AcDbEntity
  8
0
  6
Continuous
 62
     7
370
    25
100
AcDbLine
 10
-101.0082621241
 20
158.304747946
 30
0.0
 11
-57.5751825558
 21
158.304747946
 31
0.0
  0
LINE
  5
277
330
1F
100
AcDbEntity
  8
0
  6
Continuous
 62
     7
370
    25
100
AcDbLine
 10
-101.0082621241
 20
158.304747946
 30
0.0
 11
-101.0082621241
 21
167.304747946
 31
0.0
  0
LINE
  5
278
330
1F
100
AcDbEntity
  8
0
  6
Continuous
 62
     7
370
    25
100
AcDbLine
 10
-57.5751825558
 20
158.304747946
 30
0.0
 11
-57.5751825558
 21
167.304747946
 31
0.0
  0
LINE
  5
279
330
1F
100
AcDbEntity
  8
0
  6
Continuous
 62
     7
370
    25
100
AcDbLine
 10
-59.8929980081
 20
155.304747946
 30
0.0
 11
-98.2233680208
 21
155.304747946
 31
0.0
  0
ARC
  5
27A
330
1F
100
AcDbEntity
  8
0
  6
Continuous
 62
     7
370
    25
100
AcDbCircle
 10
-98.1245494681
 20
158.1890868753
 30
0.0
 40
2.886031213476016
100
AcDbArc
 50
177.7031896372
 51
268.0377922132
  0
ARC
  5
27B
330
1F
100
AcDbEntity
  8
0
  6
Continuous
 62
     7
370
    25
100
AcDbCircle
 10
-60.3213840884
 20
158.0310993167
 30
0.0
 40
2.759801882423421
100
AcDbArc
 50
278.9297581741
 51
5.690523591
  0
LWPOLYLINE
  5
27C
330
1F
100
AcDbEntity
  8
0
  6
Continuous
 62
     7
370
    25
100
AcDbPolyline
 90
       12
 70
   128
 43
0.0
 10
-49.9798361622
 20
155.304747946
 10
-50.2546009604
 20
155.3352836204
 10
-50.5237723397
 20
155.4262690252
 10
-50.781870747
 20
155.57585196
 10
-51.023642043
 20
155.7809873475
 10
-51.2441644614
 20
156.037499223
 10
-51.4389488016
 20
156.3401657442
 10
-51.6040298162
 20
156.6828254937
 10
-51.7360469318
 20
157.058502907
 10
-51.8323126607
 20
157.4595502755
 10
-51.8908673101
 20
157.8778034312
 10
-51.9105188763
 20
158.304747946
  0
LINE
  5
27D
330
1F
100
AcDbEntity
  8
0
  6
Continuous
 62
     7
370
    25
100
AcDbLine
 10
-51.9105188763
 20
158.304747946
 30
0.0
 11
-24.5758560024
 21
158.304747946
 31
0.0
  0
ARC
  5
27E
330
1F
100
AcDbEntity
  8
0
  6
Continuous
 62
     7
370
    25
100
AcDbCircle
 10
-27.4221008446
 20
158.1516665006
 30
0.0
 40
2.850358509185221
100
AcDbArc
 50
272.8151914324
 51
3.0786101411
  0
LINE
  5
27F
330
1F
100
AcDbEntity
  8
0
  6
Continuous
 62
     7
370
    25
100
AcDbLine
 10
-34.8008990613
 20
155.304747946
 30
0.0
 11
-38.4402779031
 21
155.304747946
 31
0.0
  0
LINE
  5
280
330
1F
100
AcDbEntity
  8
0
  6
Continuous
 62
     7
370
    25
100
AcDbLine
 10
-44.8283855933
 20
155.304747946
 30
0.0
 11
-49.9798361622
 21
155.304747946
 31
0.0
  0
LINE
  5
281
330
1F
100
AcDbEntity
  8
0
  6
Continuous
 62
     7
370
    25
100
AcDbLine
 10
-24.5758560024
 20
167.304747946
 30
0.0
 11
-51.9105188763
 21
167.304747946
 31
0.0
  0
LWPOLYLINE
  5
282
330
1F
100
AcDbEntity
  8
0
  6
Continuous
 62
     7
370
    25
100
AcDbPolyline
 90
       12
 70
   128
 43
0.0
 10
-51.9105188763
 20
167.304747946
 10
-51.8908673057
 20
167.7316924608
 10
-51.832312643
 20
168.1499456165
 10
-51.7360468925
 20
168.550992985
 10
-51.6040297472
 20
168.9266703984
 10
-51.4389486954
 20
169.2693301479
 10
-51.2441643113
 20
169.5719966691
 10
-51.0236418432
 20
169.8285085445
 10
-50.7818704927
 20
170.0336439321
 10
-50.5237720273
 20
170.1832268669
 10
-50.2546005874
 20
170.2742122717
 10
-49.9798357273
 20
170.304747946
  0
ARC
  5
283
330
1F
100
AcDbEntity
  8
0
  6
Continuous
 62
     7
370
    25
100
AcDbCircle
 10
-27.422451707
 20
167.4575128844
 30
0.0
 40
2.850691886466089
100
AcDbArc
 50
356.9281208561
 51
87.1780775703
  0
LINE
  5
284
330
1F
100
AcDbEntity
  8
0
  6
Continuous
 62
     7
370
    25
100
AcDbLine
 10
-49.9798357273
 20
170.304747946
 30
0.0
 11
-27.2821066493
 21
170.304747946
 31
0.0
  0
LINE
  5
285
330
1F
100
AcDbEntity
  8
0
  6
Continuous
 62
     7
370
    25
100
AcDbLine
 10
-51.9105188763
 20
158.304747946
 30
0.0
 11
-51.9105188763
 21
167.304747946
 31
0.0
  0
LINE
  5
286
330
1F
100
AcDbEntity
  8
0
  6
Continuous
 62
     7
370
    25
100
AcDbLine
 10
-24.5758560024
 20
158.304747946
 30
0.0
 11
-24.5758560024
 21
167.304747946
 31
0.0
  0
LINE
  5
287
330
1F
100
AcDbEntity
  8
0
  6
Continuous
 62
     7
370
    25
100
AcDbLine
 10
-51.9105188763
 20
167.304747946
 30
0.0
 11
-57.5751825558
 21
167.304747946
 31
0.0
  0
LINE
  5
288
330
1F
100
AcDbEntity
  8
0
  6
Continuous
 62
     7
370
    25
100
AcDbLine
 10
-59.892997079
 20
170.304747946
 30
0.0
 11
-49.9798357273
 21
170.304747946
 31
0.0
  0
LINE
  5
289
330
1F
100
AcDbEntity
  8
0
  6
Continuous
 62
     7
370
    25
100
AcDbLine
 10
-57.5751825558
 20
158.304747946
 30
0.0
 11
-51.9105188763
 21
158.304747946
 31
0.0
  0
LINE
  5
28A
330
1F
100
AcDbEntity
  8
0
  6
Continuous
 62
     7
370
    25
100
AcDbLine
 10
-49.9798361622
 20
155.304747946
 30
0.0
 11
-59.8929980081
 21
155.304747946
 31
0.0
  0
LINE
  5
28B
330
1F
100
AcDbEntity
  8
0
  6
Continuous
 62
     7
370
    25
100
AcDbLine
 10
-20.8023160037
 20
158.304747946
 30
0.0
 11
15.5202879786
 21
158.304747946
 31
0.0
  0
LINE
  5
28C
330
1F
100
AcDbEntity
  8
0
  6
Continuous
 62
     7
370
    25
100
AcDbLine
 10
-20.8023160037
 20
158.304747946
 30
0.0
 11
-20.8023160037
 21
167.304747946
 31
0.0
  0
LINE
  5
28D
330
1F
100
AcDbEntity
  8
0
  6
Continuous
 62
     7
370
    25
100
AcDbLine
 10
15.5202879786
 20
167.304747946
 30
0.0
 11
-20.8023160037
 21
167.304747946
 31
0.0
  0
LINE
  5
28E
330
1F
100
AcDbEntity
  8
0
  6
Continuous
 62
     7
370
    25
100
AcDbLine
 10
15.5202879786
 20
158.304747946
 30
0.0
 11
15.5202879786
 21
167.304747946
 31
0.0
  0
LWPOLYLINE
  5
28F
330
1F
100
AcDbEntity
  8
0
  6
Continuous
 62
     7
370
    25
100
AcDbPolyline
 90
       12
 70
   128
 43
0.0
 10
-19.6487026109
 20
155.304747946
 10
-19.8128789143
 20
155.3352836204
 10
-19.9737130616
 20
155.4262690252
 10
-20.1279309334
 20
155.57585196
 10
-20.2723930986
 20
155.7809873475
 10
-20.404158724
 20
156.037499223
 10
-20.5205454415
 20
156.3401657442
 10
-20.6191839531
 20
156.6828254937
 10
-20.6980662633
 20
157.058502907
 10
-20.7555865556
 20
157.4595502755
 10
-20.7905738827
 20
157.8778034312
 10
-20.8023160037
 20
158.304747946
  0
ARC
  5
290
330
1F
100
AcDbEntity
  8
0
  6
Continuous
 62
     7
370
    25
100
AcDbCircle
 10
12.5790299724
 20
158.2456482903
 30
0.0
 40
2.941851700582733
100
AcDbArc
 50
271.4571710765
 51
1.1511078709
  0
LWPOLYLINE
  5
291
330
1F
100
AcDbEntity
  8
0
  6
Continuous
 62
     7
370
    25
100
AcDbPolyline
 90
       12
 70
   128
 43
0.0
 10
-20.8023160037
 20
167.304747946
 10
-20.7905738348
 20
167.7316924608
 10
-20.7555863648
 20
168.1499456165
 10
-20.6980658378
 20
168.550992985
 10
-20.6191832056
 20
168.9266703984
 10
-20.5205442914
 20
169.2693301479
 10
-20.4041570989
 20
169.5719966691
 10
-20.2723909357
 20
169.8285085445
 10
-20.1279281809
 20
170.0336439321
 10
-19.9737096796
 20
170.1832268669
 10
-19.8128748758
 20
170.2742122717
 10
-19.6486979023
 20
170.304747946
  0
ARC
  5
292
330
1F
100
AcDbEntity
  8
0
  6
Continuous
 62
     7
370
    25
100
AcDbCircle
 10
12.5919874687
 20
167.3762282757
 30
0.0
 40
2.929172803659677
100
AcDbArc
 50
358.6016776496
 51
88.7900313178
  0
LINE
  5
293
330
1F
100
AcDbEntity
  8
0
  6
Continuous
 62
     7
370
    25
100
AcDbLine
 10
-19.6486979023
 20
170.304747946
 30
0.0
 11
12.6538409588
 21
170.304747946
 31
0.0
  0
LINE
  5
294
330
1F
100
AcDbEntity
  8
0
  6
Continuous
 62
     7
370
    25
100
AcDbLine
 10
-20.8023160037
 20
167.304747946
 30
0.0
 11
-24.5758560024
 21
167.304747946
 31
0.0
  0
LINE
  5
295
330
1F
100
AcDbEntity
  8
0
  6
Continuous
 62
     7
370
    25
100
AcDbLine
 10
-27.2821066493
 20
170.304747946
 30
0.0
 11
-19.6486979023
 21
170.304747946
 31
0.0
  0
LINE
  5
296
330
1F
100
AcDbEntity
  8
0
  6
Continuous
 62
     7
370
    25
100
AcDbLine
 10
-24.5758560024
 20
158.304747946
 30
0.0
 11
-20.8023160037
 21
158.304747946
 31
0.0
  0
LWPOLYLINE
  5
297
330
1F
100
AcDbEntity
  8
0
  6
Continuous
 62
     7
370
    25
100
AcDbPolyline
 90
       11
 70
   128
 43
0.0
 10
-108.7654608099
 20
158.304747946
 10
-108.789071884
 20
157.8084051637
 10
-108.8620034809
 20
157.3120623813
 10
-108.9782108141
 20
156.8573926138
 10
-109.1411601219
 20
156.4312969602
 10
-109.3373639276
 20
156.0694430169
 10
-109.5725768622
 20
155.7615091709
 10
-109.8272978509
 20
155.5332353002
 10
-110.1088599266
 20
155.3781850219
 10
-110.4625902954
 20
155.3051174192
 10
-110.4898067638
 20
155.304747946
  0
LINE
  5
298
330
1F
100
AcDbEntity
  8
0
  6
Continuous
 62
     7
370
    25
100
AcDbLine
 10
-110.4898067638
 20
155.304747946
 30
0.0
 11
-134.0119611545
 21
155.304747946
 31
0.0
  0
LWPOLYLINE
  5
299
330
1F
100
AcDbEntity
  8
0
  6
Continuous
 62
     7
370
    25
100
AcDbPolyline
 90
       11
 70
   128
 43
0.0
 10
-108.7654608099
 20
167.304747946
 10
-108.789071884
 20
167.8010907284
 10
-108.8620034809
 20
168.2974335107
 10
-108.9782108141
 20
168.7521032782
 10
-109.1411601219
 20
169.1781989318
 10
-109.3373639276
 20
169.5400528752
 10
-109.5725768622
 20
169.8479867211
 10
-109.8272978509
 20
170.0762605918
 10
-110.1088599266
 20
170.2313108701
 10
-110.4625902954
 20
170.3043784729
 10
-110.4898067638
 20
170.304747946
  0
LINE
  5
29A
330
1F
100
AcDbEntity
  8
0
  6
Continuous
 62
     7
370
    25
100
AcDbLine
 10
-134.0119611545
 20
170.304747946
 30
0.0
 11
-110.4898067638
 21
170.304747946
 31
0.0
  0
LINE
  5
29B
330
1F
100
AcDbEntity
  8
0
  6
Continuous
 62
     7
370
    25
100
AcDbLine
 10
-108.7654608099
 20
158.304747946
 30
0.0
 11
-108.7654608099
 21
167.304747946
 31
0.0
  0
LINE
  5
29C
330
1F
100
AcDbEntity
  8
0
  6
Continuous
 62
     7
370
    25
100
AcDbLine
 10
-108.7654608099
 20
158.304747946
 30
0.0
 11
-101.0082621241
 21
158.304747946
 31
0.0
  0
LINE
  5
29D
330
1F
100
AcDbEntity
  8
0
  6
Continuous
 62
     7
370
    25
100
AcDbLine
 10
-98.2233680208
 20
155.304747946
 30
0.0
 11
-110.4898067638
 21
155.304747946
 31
0.0
  0
LINE
  5
29E
330
1F
100
AcDbEntity
  8
0
  6
Continuous
 62
     7
370
    25
100
AcDbLine
 10
-101.0082621241
 20
167.304747946
 30
0.0
 11
-108.7654608099
 21
167.304747946
 31
0.0
  0
LINE
  5
29F
330
1F
100
AcDbEntity
  8
0
  6
Continuous
 62
     7
370
    25
100
AcDbLine
 10
-110.4898067638
 20
170.304747946
 30
0.0
 11
-98.2233680208
 21
170.304747946
 31
0.0
  0
LINE
  5
2A0
330
1F
100
AcDbEntity
  8
0
  6
Continuous
 62
     7
370
    25
100
AcDbLine
 10
20.1728460354
 20
167.304747946
 30
0.0
 11
15.5202879786
 21
167.304747946
 31
0.0
  0
LWPOLYLINE
  5
2A1
330
1F
100
AcDbEntity
  8
0
  6
Continuous
 62
     7
370
    25
100
AcDbPolyline
 90
       12
 70
   128
 43
0.0
 10
20.1728460354
 20
167.304747946
 10
20.1791869885
 20
167.7316924608
 10
20.1980807641
 20
168.1499456165
 10
20.2291427396
 20
168.550992985
 10
20.2717405826
 20
168.9266703984
 10
20.3250071239
 20
169.2693301479
 10
20.3878580104
 20
169.5719966691
 10
20.4590137792
 20
169.8285085445
 10
20.5370259041
 20
170.0336439321
 10
20.6203062832
 20
170.1832268669
 10
20.7071595682
 20
170.2742122717
 10
20.7958176765
 20
170.304747946
  0
LINE
  5
2A2
330
1F
100
AcDbEntity
  8
0
  6
Continuous
 62
     7
370
    25
100
AcDbLine
 10
12.6538409588
 20
170.304747946
 30
0.0
 11
20.7958176765
 21
170.304747946
 31
0.0
  0
LINE
  5
2A3
330
1F
100
AcDbEntity
  8
0
  6
Continuous
 62
     7
370
    25
100
AcDbLine
 10
15.5202879786
 20
158.304747946
 30
0.0
 11
20.1728460354
 21
158.304747946
 31
0.0
  0
ARC
  5
2A4
330
1F
100
AcDbEntity
  8
0
  6
Continuous
 62
     7
370
    25
100
AcDbCircle
 10
24.5794734943
 20
157.6551306416
 30
0.0
 40
4.454252822121853
100
AcDbArc
 50
171.6139572861
 51
211.8482685237
  0
LINE
  5
2A5
330
1F
100
AcDbEntity
  8
0
  6
Continuous
 62
     7
370
    25
100
AcDbLine
 10
20.1728460354
 20
158.304747946
 30
0.0
 11
20.1728460354
 21
167.304747946
 31
0.0
  0
LINE
  5
2A6
330
1F
100
AcDbEntity
  8
0
  6
Continuous
 62
     7
370
    25
100
AcDbLine
 10
20.1728460354
 20
158.304747946
 30
0.0
 11
45.5748552668
 21
158.304747946
 31
0.0
  0
ARC
  5
2A7
330
1F
100
AcDbEntity
  8
0
  6
Continuous
 62
     7
370
    25
100
AcDbCircle
 10
42.5941321431
 20
158.2854394457
 30
0.0
 40
2.980785661240247
100
AcDbArc
 50
270.4554179325
 51
0.3711448716
  0
LINE
  5
2A8
330
1F
100
AcDbEntity
  8
0
  6
Continuous
 62
     7
370
    25
100
AcDbLine
 10
45.5748552668
 20
167.304747946
 30
0.0
 11
20.1728460354
 21
167.304747946
 31
0.0
  0
ARC
  5
2A9
330
1F
100
AcDbEntity
  8
0
  6
Continuous
 62
     7
370
    25
100
AcDbCircle
 10
42.5982358349
 20
167.3281013616
 30
0.0
 40
2.976711041488552
100
AcDbArc
 50
359.5504884898
 51
89.6229444737
  0
LINE
  5
2AA
330
1F
100
AcDbEntity
  8
0
  6
Continuous
 62
     7
370
    25
100
AcDbLine
 10
20.7958176765
 20
170.304747946
 30
0.0
 11
42.6178250133
 21
170.304747946
 31
0.0
  0
LINE
  5
2AB
330
1F
100
AcDbEntity
  8
0
  6
Continuous
 62
     7
370
    25
100
AcDbLine
 10
45.5748552668
 20
158.304747946
 30
0.0
 11
45.5748552668
 21
167.304747946
 31
0.0
  0
LWPOLYLINE
  5
2AC
330
1F
100
AcDbEntity
  8
0
  6
Continuous
 62
     7
370
    25
100
AcDbPolyline
 90
       11
 70
   128
 43
0.0
 10
-140.4738517727
 20
167.304747946
 10
-140.4899001751
 20
167.8010258837
 10
-140.5395155161
 20
168.2973038215
 10
-140.6186994997
 20
168.7519119109
 10
-140.7299753562
 20
169.1779526297
 10
-140.8643149188
 20
169.5398196909
 10
-141.0257877748
 20
169.8477783137
 10
-141.2011329297
 20
170.0761209636
 10
-141.3954335075
 20
170.2312376038
 10
-141.6408355518
 20
170.3044004534
 10
-141.6591193391
 20
170.304747946
  0
LINE
  5
2AD
330
1F
100
AcDbEntity
  8
0
  6
Continuous
 62
     7
370
    25
100
AcDbLine
 10
-141.6591193391
 20
170.304747946
 30
0.0
 11
-134.0119611545
 21
170.304747946
 31
0.0
  0
LWPOLYLINE
  5
2AE
330
1F
100
AcDbEntity
  8
0
  6
Continuous
 62
     7
370
    25
100
AcDbPolyline
 90
       11
 70
   128
 43
0.0
 10
-140.4738517727
 20
158.304747946
 10
-140.4899001751
 20
157.8084700083
 10
-140.5395155161
 20
157.3121920706
 10
-140.6186994997
 20
156.8575839811
 10
-140.7299753562
 20
156.4315432623
 10
-140.8643149188
 20
156.0696762011
 10
-141.0257877748
 20
155.7617175783
 10
-141.2011329297
 20
155.5333749284
 10
-141.3954335075
 20
155.3782582883
 10
-141.6408355518
 20
155.3050954387
 10
-141.6591193391
 20
155.304747946
  0
LINE
  5
2AF
330
1F
100
AcDbEntity
  8
0
  6
Continuous
 62
     7
370
    25
100
AcDbLine
 10
-134.0083929288
 20
155.304747946
 30
0.0
 11
-140.435526586
 21
155.304747946
 31
0.0
  0
LINE
  5
2B0
330
1F
100
AcDbEntity
  8
0
  6
Continuous
 62
     7
370
    25
100
AcDbLine
 10
-140.4738517727
 20
158.304747946
 30
0.0
 11
-140.4738517727
 21
167.304747946
 31
0.0
  0
LINE
  5
2B1
330
1F
100
AcDbEntity
  8
0
  6
Continuous
 62
     7
370
    25
100
AcDbLine
 10
-167.8940067692
 20
158.304747946
 30
0.0
 11
-140.4738517727
 21
158.304747946
 31
0.0
  0
ARC
  5
2B2
330
1F
100
AcDbEntity
  8
0
  6
Continuous
 62
     7
370
    25
100
AcDbCircle
 10
-164.8945154991
 20
158.3042392446
 30
0.0
 40
2.999491313260696
100
AcDbArc
 50
179.9902828716
 51
269.9943392878
  0
LINE
  5
2B3
330
1F
100
AcDbEntity
  8
0
  6
Continuous
 62
     7
370
    25
100
AcDbLine
 10
-140.4738517727
 20
167.304747946
 30
0.0
 11
-167.8940067692
 21
167.304747946
 31
0.0
  0
ARC
  5
2B4
330
1F
100
AcDbEntity
  8
0
  6
Continuous
 62
     7
370
    25
100
AcDbCircle
 10
-164.8945164649
 20
167.305257613
 30
0.0
 40
2.999490347599445
100
AcDbArc
 50
90.005642265
 51
180.0097355756
  0
LINE
  5
2B5
330
1F
100
AcDbEntity
  8
0
  6
Continuous
 62
     7
370
    25
100
AcDbLine
 10
-164.8948118431
 20
170.304747946
 30
0.0
 11
-141.6591193391
 21
170.304747946
 31
0.0
  0
LINE
  5
2B6
330
1F
100
AcDbEntity
  8
0
  6
Continuous
 62
     7
370
    25
100
AcDbLine
 10
-167.8940067692
 20
158.304747946
 30
0.0
 11
-167.8940067692
 21
167.304747946
 31
0.0
  0
LINE
  5
2B7
330
1F
100
AcDbEntity
  8
0
  6
Continuous
 62
     7
370
    25
100
AcDbLine
 10
45.5748552668
 20
158.304747946
 30
0.0
 11
48.4947374312
 21
158.304747946
 31
0.0
  0
ARC
  5
2B8
330
1F
100
AcDbEntity
  8
0
  6
Continuous
 62
     7
370
    25
100
AcDbCircle
 10
-17.8379429411
 20
157.6259601264
 30
0.0
 40
66.33615332733838
100
AcDbArc
 50
357.9947161551
 51
0.5862919995
  0
LINE
  5
2B9
330
1F
100
AcDbEntity
  8
0
  6
Continuous
 62
     7
370
    25
100
AcDbLine
 10
48.4947374312
 20
167.304747946
 30
0.0
 11
45.5748552668
 21
167.304747946
 31
0.0
  0
LINE
  5
2BA
330
1F
100
AcDbEntity
  8
0
  6
Continuous
 62
     7
370
    25
100
AcDbLine
 10
48.4947374312
 20
158.304747946
 30
0.0
 11
48.4947374312
 21
167.304747946
 31
0.0
  0
ARC
  5
2BB
330
1F
100
AcDbEntity
  8
0
  6
Continuous
 62
     7
370
    25
100
AcDbCircle
 10
-6.3631968511
 20
168.1257301286
 30
0.0
 40
54.86407718589796
100
AcDbArc
 50
359.1425979951
 51
2.2761955927
  0
LINE
  5
2BC
330
1F
100
AcDbEntity
  8
0
  6
Continuous
 62
     7
370
    25
100
AcDbLine
 10
42.6178250133
 20
170.304747946
 30
0.0
 11
48.4575916038
 21
170.304747946
 31
0.0
  0
LINE
  5
2BD
330
1F
100
AcDbEntity
  8
0
  6
Continuous
 62
     7
370
    25
100
AcDbLine
 10
48.4575916038
 20
170.304747946
 30
0.0
 11
66.1994013823
 21
170.304747946
 31
0.0
  0
LWPOLYLINE
  5
2BE
330
1F
100
AcDbEntity
  8
0
  6
Continuous
 62
     7
370
    25
100
AcDbPolyline
 90
       12
 70
   128
 43
0.0
 10
69.4047767932
 20
155.304747946
 10
69.5897616445
 20
155.3352836204
 10
69.7709807377
 20
155.4262690252
 10
69.9447449746
 20
155.57585196
 10
70.1075170165
 20
155.7809873475
 10
70.2559832939
 20
156.037499223
 10
70.3871214617
 20
156.3401657442
 10
70.4982619249
 20
156.6828254937
 10
70.5871421841
 20
157.058502907
 10
70.6519528937
 20
157.4595502755
 10
70.6913746944
 20
157.8778034312
 10
70.7046050721
 20
158.304747946
  0
LWPOLYLINE
  5
2BF
330
1F
100
AcDbEntity
  8
0
  6
Continuous
 62
     7
370
    25
100
AcDbPolyline
 90
       12
 70
   128
 43
0.0
 10
70.7046050721
 20
167.304747946
 10
70.6913746842
 20
167.7316924608
 10
70.6519528532
 20
168.1499456165
 10
70.5871420938
 20
168.550992985
 10
70.4982617662
 20
168.9266703984
 10
70.3871212175
 20
169.2693301479
 10
70.2559829488
 20
169.5719966691
 10
70.1075165571
 20
169.8285085445
 10
69.94474439
 20
170.0336439321
 10
69.7709800194
 20
170.1832268669
 10
69.5897607869
 20
170.2742122717
 10
69.4047757933
 20
170.304747946
  0
LINE
  5
2C0
330
1F
100
AcDbEntity
  8
0
  6
Continuous
 62
     7
370
    25
100
AcDbLine
 10
66.1994013823
 20
170.304747946
 30
0.0
 11
69.4047757933
 21
170.304747946
 31
0.0
  0
LINE
  5
2C1
330
1F
100
AcDbEntity
  8
0
  6
Continuous
 62
     7
370
    25
100
AcDbLine
 10
70.7046050721
 20
158.304747946
 30
0.0
 11
70.7046050721
 21
167.304747946
 31
0.0
  0
LINE
  5
2C2
330
1F
100
AcDbEntity
  8
0
  6
Continuous
 62
     7
370
    25
100
AcDbLine
 10
69.4047757933
 20
170.304747946
 30
0.0
 11
79.3495841076
 21
170.304747946
 31
0.0
  0
LINE
  5
2C3
330
1F
100
AcDbEntity
  8
0
  6
Continuous
 62
     7
370
    25
100
AcDbLine
 10
79.3495841076
 20
170.304747946
 30
0.0
 11
80.0902509054
 21
170.304747946
 31
0.0
  0
LINE
  5
2C4
330
1F
100
AcDbEntity
  8
0
  6
Continuous
 62
     7
370
    25
100
AcDbLine
 10
-0.7113634535
 20
50.304747946
 30
0.0
 11
-12.8918854535
 21
50.304747946
 31
0.0
  0
LINE
  5
2C5
330
1F
100
AcDbEntity
  8
0
  6
Continuous
 62
     7
370
    25
100
AcDbLine
 10
37.2886365465
 20
119.304747946
 30
0.0
 11
-4.7113634535
 21
119.304747946
 31
0.0
  0
LINE
  5
2C6
330
1F
100
AcDbEntity
  8
0
  6
Continuous
 62
     7
370
    25
100
AcDbLine
 10
32.2886365465
 20
35.304747946
 30
0.0
 11
0.2886365465
 21
35.304747946
 31
0.0
  0
LINE
  5
2C7
330
1F
100
AcDbEntity
  8
0
  6
Continuous
 62
     7
370
    25
100
AcDbLine
 10
36.1099604941
 20
176.304747946
 30
0.0
 11
37.2886365465
 21
176.304747946
 31
0.0
  0
LINE
  5
2C8
330
1F
100
AcDbEntity
  8
0
  6
Continuous
 62
     7
370
    25
100
AcDbLine
 10
-4.7113634535
 20
176.304747946
 30
0.0
 11
36.1099604941
 21
176.304747946
 31
0.0
  0
LINE
  5
2C9
330
1F
100
AcDbEntity
  8
0
  6
Continuous
 62
     7
370
    25
100
AcDbLine
 10
31.3905976495
 20
260.304747946
 30
0.0
 11
32.2886365465
 21
260.304747946
 31
0.0
  0
LINE
  5
2CA
330
1F
100
AcDbEntity
  8
0
  6
Continuous
 62
     7
370
    25
100
AcDbLine
 10
0.2886365465
 20
260.304747946
 30
0.0
 11
31.3905976495
 21
260.304747946
 31
0.0
  0
LINE
  5
2CB
330
1F
100
AcDbEntity
  8
0
  6
Continuous
 62
     7
370
    25
100
AcDbLine
 10
-12.8918854535
 20
245.304747946
 30
0.0
 11
-0.7113634535
 21
245.304747946
 31
0.0
  0
LINE
  5
2CC
330
1F
100
AcDbEntity
  8
0
  6
Continuous
 62
     7
370
    25
100
AcDbLine
 10
-0.7113634535
 20
263.304747946
 30
0.0
 11
-10.8918854535
 21
263.304747946
 31
0.0
  0
LINE
  5
2CD
330
1F
100
AcDbEntity
  8
0
  6
Continuous
 62
     7
370
    25
100
AcDbLine
 10
29.5028525116
 20
278.304747946
 30
0.0
 11
2.2886365465
 21
278.304747946
 31
0.0
  0
LINE
  5
2CE
330
1F
100
AcDbEntity
  8
0
  6
Continuous
 62
     7
370
    25
100
AcDbLine
 10
30.2886365465
 20
278.304747946
 30
0.0
 11
29.5028525116
 21
278.304747946
 31
0.0
  0
LINE
  5
2CF
330
1F
100
AcDbEntity
  8
0
  6
Continuous
 62
     7
370
    25
100
AcDbLine
 10
-10.8918854535
 20
32.304747946
 30
0.0
 11
-0.7113634535
 21
32.304747946
 31
0.0
  0
LINE
  5
2D0
330
1F
100
AcDbEntity
  8
0
  6
Continuous
 62
     7
370
    25
100
AcDbLine
 10
2.2886365465
 20
17.304747946
 30
0.0
 11
30.2886365465
 21
17.304747946
 31
0.0
  0
LINE
  5
2D1
330
1F
100
AcDbEntity
  8
0
  6
Continuous
 62
     7
370
    25
100
AcDbLine
 10
121.5071411884
 20
170.304747946
 30
0.0
 11
150.332172896
 21
170.304747946
 31
0.0
  0
ARC
  5
2D2
330
1F
100
AcDbEntity
  8
0
  6
Continuous
 62
     7
370
    25
100
AcDbCircle
 10
150.2803651118
 20
167.3462525925
 30
0.0
 40
2.95894893554089
100
AcDbArc
 50
359.1962960111
 51
88.9967657001
  0
ARC
  5
2D3
330
1F
100
AcDbEntity
  8
0
  6
Continuous
 62
     7
370
    25
100
AcDbCircle
 10
150.2893382339
 20
158.2545487927
 30
0.0
 40
2.950111835751642
100
AcDbArc
 50
270.831945273
 51
0.9749930158
  0
LINE
  5
2D4
330
1F
100
AcDbEntity
  8
0
  6
Continuous
 62
     7
370
    25
100
AcDbLine
 10
153.2390229439
 20
158.304747946
 30
0.0
 11
153.2390229439
 21
167.304747946
 31
0.0
  0
LWPOLYLINE
  5
2D5
330
1F
100
AcDbEntity
  8
0
  6
Continuous
 62
     7
370
    25
100
AcDbPolyline
 90
       12
 70
   128
 43
0.0
 10
156.1411824729
 20
170.304747946
 10
156.1415162381
 20
170.2742122717
 10
156.1418432088
 20
170.1832268669
 10
156.1421567289
 20
170.0336439321
 10
156.1424504159
 20
169.8285085445
 10
156.1427182912
 20
169.5719966691
 10
156.1429549017
 20
169.2693301479
 10
156.1431554307
 20
168.9266703984
 10
156.1433157959
 20
168.550992985
 10
156.1434327329
 20
168.1499456165
 10
156.143503861
 20
167.7316924608
 10
156.1435277323
 20
167.304747946
  0
LINE
  5
2D6
330
1F
100
AcDbEntity
  8
0
  6
Continuous
 62
     7
370
    25
100
AcDbLine
 10
156.1435277323
 20
167.304747946
 30
0.0
 11
153.2390229439
 21
167.304747946
 31
0.0
  0
LINE
  5
2D7
330
1F
100
AcDbEntity
  8
0
  6
Continuous
 62
     7
370
    25
100
AcDbLine
 10
150.332172896
 20
170.304747946
 30
0.0
 11
156.1411824729
 21
170.304747946
 31
0.0
  0
LINE
  5
2D8
330
1F
100
AcDbEntity
  8
0
  6
Continuous
 62
     7
370
    25
100
AcDbLine
 10
153.2390229439
 20
158.304747946
 30
0.0
 11
156.1435277323
 21
158.304747946
 31
0.0
  0
LWPOLYLINE
  5
2D9
330
1F
100
AcDbEntity
  8
0
  6
Continuous
 62
     7
370
    25
100
AcDbPolyline
 90
       12
 70
   128
 43
0.0
 10
156.1435277323
 20
158.304747946
 10
156.143503861
 20
157.8778034312
 10
156.1434327329
 20
157.4595502755
 10
156.1433157959
 20
157.058502907
 10
156.1431554307
 20
156.6828254937
 10
156.1429549017
 20
156.3401657442
 10
156.1427182912
 20
156.037499223
 10
156.1424504159
 20
155.7809873475
 10
156.1421567289
 20
155.57585196
 10
156.1418432088
 20
155.4262690252
 10
156.1415162381
 20
155.3352836204
 10
156.1411824729
 20
155.304747946
  0
LINE
  5
2DA
330
1F
100
AcDbEntity
  8
0
  6
Continuous
 62
     7
370
    25
100
AcDbLine
 10
156.1435277323
 20
158.304747946
 30
0.0
 11
156.1435277323
 21
167.304747946
 31
0.0
  0
LINE
  5
2DB
330
1F
100
AcDbEntity
  8
0
  6
Continuous
 62
     7
370
    25
100
AcDbLine
 10
156.1411824729
 20
170.304747946
 30
0.0
 11
201.5456618168
 21
170.304747946
 31
0.0
  0
LINE
  5
2DC
330
1F
100
AcDbEntity
  8
0
  6
Continuous
 62
     7
370
    25
100
AcDbLine
 10
439.0683910553
 20
170.304747946
 30
0.0
 11
492.7235912189
 21
170.304747946
 31
0.0
  0
LWPOLYLINE
  5
2DD
330
1F
100
AcDbEntity
  8
0
  6
Continuous
 62
     7
370
    25
100
AcDbPolyline
 90
       12
 70
   128
 43
0.0
 10
113.2152927667
 20
170.304747946
 10
113.3784855668
 20
170.2742122717
 10
113.538356232
 20
170.1832268669
 10
113.6916502568
 20
170.0336439321
 10
113.8352470167
 20
169.8285085445
 10
113.9662232959
 20
169.5719966691
 10
114.0819127951
 20
169.2693301479
 10
114.1799604096
 20
168.9266703984
 10
114.2583701728
 20
168.550992985
 10
114.3155458879
 20
168.1499456165
 10
114.3503236224
 20
167.7316924608
 10
114.3619954018
 20
167.304747946
  0
LINE
  5
2DE
330
1F
100
AcDbEntity
  8
0
  6
Continuous
 62
     7
370
    25
100
AcDbLine
 10
113.2152927667
 20
170.304747946
 30
0.0
 11
121.5071411884
 21
170.304747946
 31
0.0
  0
LWPOLYLINE
  5
2DF
330
1F
100
AcDbEntity
  8
0
  6
Continuous
 62
     7
370
    25
100
AcDbPolyline
 90
       12
 70
   128
 43
0.0
 10
114.3619954018
 20
158.304747946
 10
114.3503236224
 20
157.8778034312
 10
114.3155458879
 20
157.4595502755
 10
114.2583701728
 20
157.058502907
 10
114.1799604096
 20
156.6828254937
 10
114.0819127951
 20
156.3401657442
 10
113.9662232959
 20
156.037499223
 10
113.8352470167
 20
155.7809873475
 10
113.6916502568
 20
155.57585196
 10
113.538356232
 20
155.4262690252
 10
113.3784855668
 20
155.3352836204
 10
113.2152927667
 20
155.304747946
  0
LINE
  5
2E0
330
1F
100
AcDbEntity
  8
0
  6
Continuous
 62
     7
370
    25
100
AcDbLine
 10
114.3619954018
 20
158.304747946
 30
0.0
 11
114.3619954018
 21
167.304747946
 31
0.0
  0
LINE
  5
2E1
330
1F
100
AcDbEntity
  8
0
  6
Continuous
 62
     7
370
    25
100
AcDbLine
 10
96.9736048461
 20
170.304747946
 30
0.0
 11
113.2152927667
 21
170.304747946
 31
0.0
  0
ARC
  5
2E2
330
1F
100
AcDbEntity
  8
0
  6
Continuous
 62
     7
370
    25
100
AcDbCircle
 10
99.8765957339
 20
157.4928788583
 30
0.0
 40
6.695742950419378
100
AcDbArc
 50
173.0356624831
 51
199.0743201566
  0
ARC
  5
2E3
330
1F
100
AcDbEntity
  8
0
  6
Continuous
 62
     7
370
    25
100
AcDbCircle
 10
99.8765957339
 20
168.1166170338
 30
0.0
 40
6.69574295042048
100
AcDbArc
 50
160.9256798434
 51
186.9643375169
  0
LINE
  5
2E4
330
1F
100
AcDbEntity
  8
0
  6
Continuous
 62
     7
370
    25
100
AcDbLine
 10
93.5484793657
 20
170.304747946
 30
0.0
 11
96.9736048461
 21
170.304747946
 31
0.0
  0
LINE
  5
2E5
330
1F
100
AcDbEntity
  8
0
  6
Continuous
 62
     7
370
    25
100
AcDbLine
 10
93.2302552188
 20
158.304747946
 30
0.0
 11
93.2302552188
 21
167.304747946
 31
0.0
  0
LINE
  5
2E6
330
1F
100
AcDbEntity
  8
0
  6
Continuous
 62
     7
370
    25
100
AcDbLine
 10
83.1749598104
 20
170.304747946
 30
0.0
 11
93.5484793657
 21
170.304747946
 31
0.0
  0
LINE
  5
2E7
330
1F
100
AcDbEntity
  8
0
  6
Continuous
 62
     7
370
    25
100
AcDbLine
 10
81.6860639882
 20
170.304747946
 30
0.0
 11
83.1749598104
 21
170.304747946
 31
0.0
  0
LINE
  5
2E8
330
1F
100
AcDbEntity
  8
0
  6
Continuous
 62
     7
370
    25
100
AcDbLine
 10
153.2390229439
 20
128.304747946
 30
0.0
 11
153.2390229439
 21
137.304747946
 31
0.0
  0
ARC
  5
2E9
330
1F
100
AcDbEntity
  8
0
  6
Continuous
 62
     7
370
    25
100
AcDbCircle
 10
150.2893382339
 20
128.2545487927
 30
0.0
 40
2.950111835751675
100
AcDbArc
 50
270.831945273
 51
0.9749930158
  0
LINE
  5
2EA
330
1F
100
AcDbEntity
  8
0
  6
Continuous
 62
     7
370
    25
100
AcDbLine
 10
150.332172896
 20
125.304747946
 30
0.0
 11
121.5071411884
 21
125.304747946
 31
0.0
  0
ARC
  5
2EB
330
1F
100
AcDbEntity
  8
0
  6
Continuous
 62
     7
370
    25
100
AcDbCircle
 10
150.2803651118
 20
137.3462525925
 30
0.0
 40
2.958948935540917
100
AcDbArc
 50
359.1962960111
 51
88.9967657001
  0
LWPOLYLINE
  5
2EC
330
1F
100
AcDbEntity
  8
0
  6
Continuous
 62
     7
370
    25
100
AcDbPolyline
 90
       12
 70
   128
 43
0.0
 10
156.1411824729
 20
140.304747946
 10
156.1415162381
 20
140.2742122717
 10
156.1418432088
 20
140.1832268669
 10
156.1421567289
 20
140.0336439321
 10
156.1424504159
 20
139.8285085445
 10
156.1427182912
 20
139.5719966691
 10
156.1429549017
 20
139.2693301479
 10
156.1431554307
 20
138.9266703984
 10
156.1433157959
 20
138.550992985
 10
156.1434327329
 20
138.1499456165
 10
156.143503861
 20
137.7316924608
 10
156.1435277323
 20
137.304747946
  0
LINE
  5
2ED
330
1F
100
AcDbEntity
  8
0
  6
Continuous
 62
     7
370
    25
100
AcDbLine
 10
156.1435277323
 20
137.304747946
 30
0.0
 11
153.2390229439
 21
137.304747946
 31
0.0
  0
LINE
  5
2EE
330
1F
100
AcDbEntity
  8
0
  6
Continuous
 62
     7
370
    25
100
AcDbLine
 10
153.2390229439
 20
128.304747946
 30
0.0
 11
156.1435277323
 21
128.304747946
 31
0.0
  0
LWPOLYLINE
  5
2EF
330
1F
100
AcDbEntity
  8
0
  6
Continuous
 62
     7
370
    25
100
AcDbPolyline
 90
       12
 70
   128
 43
0.0
 10
156.1435277323
 20
128.304747946
 10
156.143503861
 20
127.8778034312
 10
156.1434327329
 20
127.4595502755
 10
156.1433157959
 20
127.058502907
 10
156.1431554307
 20
126.6828254937
 10
156.1429549017
 20
126.3401657442
 10
156.1427182912
 20
126.037499223
 10
156.1424504159
 20
125.7809873475
 10
156.1421567289
 20
125.57585196
 10
156.1418432088
 20
125.4262690252
 10
156.1415162381
 20
125.3352836204
 10
156.1411824729
 20
125.304747946
  0
LINE
  5
2F0
330
1F
100
AcDbEntity
  8
0
  6
Continuous
 62
     7
370
    25
100
AcDbLine
 10
156.1411824729
 20
125.304747946
 30
0.0
 11
150.332172896
 21
125.304747946
 31
0.0
  0
LINE
  5
2F1
330
1F
100
AcDbEntity
  8
0
  6
Continuous
 62
     7
370
    25
100
AcDbLine
 10
156.1435277323
 20
128.304747946
 30
0.0
 11
156.1435277323
 21
137.304747946
 31
0.0
  0
LINE
  5
2F2
330
1F
100
AcDbEntity
  8
0
  6
Continuous
 62
     7
370
    25
100
AcDbLine
 10
201.5456618168
 20
125.304747946
 30
0.0
 11
156.1411824729
 21
125.304747946
 31
0.0
  0
LINE
  5
2F3
330
1F
100
AcDbEntity
  8
0
  6
Continuous
 62
     7
370
    25
100
AcDbLine
 10
492.7235912189
 20
125.304747946
 30
0.0
 11
439.0683911093
 21
125.304747946
 31
0.0
  0
LWPOLYLINE
  5
2F4
330
1F
100
AcDbEntity
  8
0
  6
Continuous
 62
     7
370
    25
100
AcDbPolyline
 90
       12
 70
   128
 43
0.0
 10
113.2152927667
 20
140.304747946
 10
113.3784855668
 20
140.2742122717
 10
113.538356232
 20
140.1832268669
 10
113.6916502568
 20
140.0336439321
 10
113.8352470167
 20
139.8285085445
 10
113.9662232959
 20
139.5719966691
 10
114.0819127951
 20
139.2693301479
 10
114.1799604096
 20
138.9266703984
 10
114.2583701728
 20
138.550992985
 10
114.3155458879
 20
138.1499456165
 10
114.3503236224
 20
137.7316924608
 10
114.3619954018
 20
137.304747946
  0
LWPOLYLINE
  5
2F5
330
1F
100
AcDbEntity
  8
0
  6
Continuous
 62
     7
370
    25
100
AcDbPolyline
 90
       12
 70
   128
 43
0.0
 10
114.3619954018
 20
128.304747946
 10
114.3503236224
 20
127.8778034312
 10
114.3155458879
 20
127.4595502755
 10
114.2583701728
 20
127.058502907
 10
114.1799604096
 20
126.6828254937
 10
114.0819127951
 20
126.3401657442
 10
113.9662232959
 20
126.037499223
 10
113.8352470167
 20
125.7809873475
 10
113.6916502568
 20
125.57585196
 10
113.538356232
 20
125.4262690252
 10
113.3784855668
 20
125.3352836204
 10
113.2152927667
 20
125.304747946
  0
LINE
  5
2F6
330
1F
100
AcDbEntity
  8
0
  6
Continuous
 62
     7
370
    25
100
AcDbLine
 10
121.5071411884
 20
125.304747946
 30
0.0
 11
113.2152927667
 21
125.304747946
 31
0.0
  0
LINE
  5
2F7
330
1F
100
AcDbEntity
  8
0
  6
Continuous
 62
     7
370
    25
100
AcDbLine
 10
114.3619954018
 20
128.304747946
 30
0.0
 11
114.3619954018
 21
137.304747946
 31
0.0
  0
LINE
  5
2F8
330
1F
100
AcDbEntity
  8
0
  6
Continuous
 62
     7
370
    25
100
AcDbLine
 10
113.2152927667
 20
125.304747946
 30
0.0
 11
96.9736048461
 21
125.304747946
 31
0.0
  0
ARC
  5
2F9
330
1F
100
AcDbEntity
  8
0
  6
Continuous
 62
     7
370
    25
100
AcDbCircle
 10
99.8765957339
 20
127.4928788583
 30
0.0
 40
6.695742950419543
100
AcDbArc
 50
173.0356624831
 51
199.0743201566
  0
LINE
  5
2FA
330
1F
100
AcDbEntity
  8
0
  6
Continuous
 62
     7
370
    25
100
AcDbLine
 10
96.9736048461
 20
125.304747946
 30
0.0
 11
93.5484793657
 21
125.304747946
 31
0.0
  0
ARC
  5
2FB
330
1F
100
AcDbEntity
  8
0
  6
Continuous
 62
     7
370
    25
100
AcDbCircle
 10
99.8765957339
 20
138.1166170338
 30
0.0
 40
6.695742950420771
100
AcDbArc
 50
160.9256798434
 51
186.9643375169
  0
LINE
  5
2FC
330
1F
100
AcDbEntity
  8
0
  6
Continuous
 62
     7
370
    25
100
AcDbLine
 10
93.2302552188
 20
128.304747946
 30
0.0
 11
93.2302552188
 21
137.304747946
 31
0.0
  0
LINE
  5
2FD
330
1F
100
AcDbEntity
  8
0
  6
Continuous
 62
     7
370
    25
100
AcDbLine
 10
93.5484793657
 20
125.304747946
 30
0.0
 11
83.1749598104
 21
125.304747946
 31
0.0
  0
LINE
  5
2FE
330
1F
100
AcDbEntity
  8
0
  6
Continuous
 62
     7
370
    25
100
AcDbLine
 10
83.1749598104
 20
125.304747946
 30
0.0
 11
81.6860639882
 21
125.304747946
 31
0.0
  0
LINE
  5
2FF
330
1F
100
AcDbEntity
  8
0
  6
Continuous
 62
     7
370
    25
100
AcDbLine
 10
521.2752236329
 20
155.304747946
 30
0.0
 11
550.6942589744
 21
155.304747946
 31
0.0
  0
LWPOLYLINE
  5
300
330
1F
100
AcDbEntity
  8
0
  6
Continuous
 62
     7
370
    25
100
AcDbPolyline
 90
       12
 70
   128
 43
0.0
 10
550.6942589744
 20
155.304747946
 10
550.9596730041
 20
155.2742122717
 10
551.2196839695
 20
155.1832268669
 10
551.4689987973
 20
155.0336439321
 10
551.7025421564
 20
154.8285085445
 10
551.9155597776
 20
154.5719966691
 10
552.1037152363
 20
154.2693301479
 10
552.2631782301
 20
153.9266703984
 10
552.3907025523
 20
153.550992985
 10
552.4836921753
 20
153.1499456165
 10
552.5402540987
 20
152.7316924608
 10
552.5592368847
 20
152.304747946
  0
LINE
  5
301
330
1F
100
AcDbEntity
  8
0
  6
Continuous
 62
     7
370
    25
100
AcDbLine
 10
552.5592368847
 20
152.304747946
 30
0.0
 11
520.0243130811
 21
152.304747946
 31
0.0
  0
LWPOLYLINE
  5
302
330
1F
100
AcDbEntity
  8
0
  6
Continuous
 62
     7
370
    25
100
AcDbPolyline
 90
       11
 70
   128
 43
0.0
 10
521.2752236329
 20
155.304747946
 10
521.2615435216
 20
155.3045697098
 10
520.9981688431
 20
155.2306236906
 10
520.7999052471
 20
155.0806734993
 10
520.6097680907
 20
154.8465314681
 10
520.4438488105
 20
154.5482026519
 10
520.2970735925
 20
154.1768072501
 10
520.1817592619
 20
153.7636769257
 10
520.0944636043
 20
153.2966981282
 10
520.0424835874
 20
152.8150080926
 10
520.0243130811
 20
152.304747946
  0
LINE
  5
303
330
1F
100
AcDbEntity
  8
0
  6
Continuous
 62
     7
370
    25
100
AcDbLine
 10
520.0243130811
 20
143.304747946
 30
0.0
 11
552.5592368847
 21
143.304747946
 31
0.0
  0
LINE
  5
304
330
1F
100
AcDbEntity
  8
0
  6
Continuous
 62
     7
370
    25
100
AcDbLine
 10
520.0243130811
 20
143.304747946
 30
0.0
 11
520.0243130811
 21
152.304747946
 31
0.0
  0
LINE
  5
305
330
1F
100
AcDbEntity
  8
0
  6
Continuous
 62
     7
370
    25
100
AcDbLine
 10
552.5592368847
 20
143.304747946
 30
0.0
 11
552.5592368847
 21
152.304747946
 31
0.0
  0
LWPOLYLINE
  5
306
330
1F
100
AcDbEntity
  8
0
  6
Continuous
 62
     7
370
    25
100
AcDbPolyline
 90
       12
 70
   128
 43
0.0
 10
552.5592368847
 20
143.304747946
 10
552.5402540989
 20
142.8778034312
 10
552.4836921761
 20
142.4595502755
 10
552.3907025541
 20
142.058502907
 10
552.2631782333
 20
141.6828254937
 10
552.1037152413
 20
141.3401657442
 10
551.9155597846
 20
141.037499223
 10
551.7025421657
 20
140.7809873475
 10
551.4689988091
 20
140.57585196
 10
551.2196839841
 20
140.4262690252
 10
550.9596730215
 20
140.3352836204
 10
550.6942589947
 20
140.304747946
  0
LINE
  5
307
330
1F
100
AcDbEntity
  8
0
  6
Continuous
 62
     7
370
    25
100
AcDbLine
 10
550.6942589947
 20
140.304747946
 30
0.0
 11
521.2752236329
 21
140.304747946
 31
0.0
  0
LWPOLYLINE
  5
308
330
1F
100
AcDbEntity
  8
0
  6
Continuous
 62
     7
370
    25
100
AcDbPolyline
 90
       11
 70
   128
 43
0.0
 10
520.0243130811
 20
143.304747946
 10
520.0414733962
 20
142.8087728549
 10
520.0944636043
 20
142.3127977638
 10
520.178846717
 20
141.8584711092
 10
520.2970735925
 20
141.4326886419
 10
520.4393605959
 20
141.070906217
 10
520.6097680907
 20
140.7629644239
 10
520.7943303929
 20
140.5343353672
 10
520.9981688431
 20
140.3788722014
 10
521.2615435216
 20
140.3049261822
 10
521.2752236329
 20
140.304747946
  0
LINE
  5
309
330
1F
100
AcDbEntity
  8
0
  6
Continuous
 62
     7
370
    25
100
AcDbLine
 10
442.3322363316
 20
143.304747946
 30
0.0
 11
520.0243130811
 21
143.304747946
 31
0.0
  0
LWPOLYLINE
  5
30A
330
1F
100
AcDbEntity
  8
0
  6
Continuous
 62
     7
370
    25
100
AcDbPolyline
 90
       12
 70
   128
 43
0.0
 10
442.3322363316
 20
143.304747946
 10
442.3434166074
 20
142.8778034312
 10
442.3767298366
 20
142.4595502755
 10
442.431497858
 20
142.058502907
 10
442.5066057525
 20
141.6828254937
 10
442.60052454
 20
141.3401657442
 10
442.7113423049
 20
141.037499223
 10
442.8368031169
 20
140.7809873475
 10
442.9743529559
 20
140.57585196
 10
443.1211917037
 20
140.4262690252
 10
443.2743301469
 20
140.3352836204
 10
443.4306508284
 20
140.304747946
  0
LINE
  5
30B
330
1F
100
AcDbEntity
  8
0
  6
Continuous
 62
     7
370
    25
100
AcDbLine
 10
521.2752236329
 20
140.304747946
 30
0.0
 11
443.4306508284
 21
140.304747946
 31
0.0
  0
LINE
  5
30C
330
1F
100
AcDbEntity
  8
0
  6
Continuous
 62
     7
370
    25
100
AcDbLine
 10
520.0243130811
 20
152.304747946
 30
0.0
 11
442.3322363316
 21
152.304747946
 31
0.0
  0
LWPOLYLINE
  5
30D
330
1F
100
AcDbEntity
  8
0
  6
Continuous
 62
     7
370
    25
100
AcDbPolyline
 90
       12
 70
   128
 43
0.0
 10
443.4306508284
 20
155.304747946
 10
443.2743301469
 20
155.2742122717
 10
443.1211917037
 20
155.1832268669
 10
442.9743529559
 20
155.0336439321
 10
442.836803117
 20
154.8285085445
 10
442.7113423049
 20
154.5719966691
 10
442.60052454
 20
154.2693301479
 10
442.5066057525
 20
153.9266703984
 10
442.431497858
 20
153.550992985
 10
442.3767298366
 20
153.1499456165
 10
442.3434166074
 20
152.7316924608
 10
442.3322363316
 20
152.304747946
  0
LINE
  5
30E
330
1F
100
AcDbEntity
  8
0
  6
Continuous
 62
     7
370
    25
100
AcDbLine
 10
443.4306508284
 20
155.304747946
 30
0.0
 11
521.2752236329
 21
155.304747946
 31
0.0
  0
LINE
  5
30F
330
1F
100
AcDbEntity
  8
0
  6
Continuous
 62
     7
370
    25
100
AcDbLine
 10
442.3322363316
 20
143.304747946
 30
0.0
 11
442.3322363316
 21
152.304747946
 31
0.0
  0
LINE
  5
310
330
1F
100
AcDbEntity
  8
0
  6
Continuous
 62
     7
370
    25
100
AcDbLine
 10
552.5592368847
 20
143.304747946
 30
0.0
 11
618.4191648847
 21
143.304747946
 31
0.0
  0
LWPOLYLINE
  5
311
330
1F
100
AcDbEntity
  8
0
  6
Continuous
 62
     7
370
    25
100
AcDbPolyline
 90
       12
 70
   128
 43
0.0
 10
618.4191648847
 20
143.304747946
 10
618.4001820987
 20
142.8778034312
 10
618.3436201753
 20
142.4595502755
 10
618.2506305523
 20
142.058502907
 10
618.1231062301
 20
141.6828254937
 10
617.9636432363
 20
141.3401657442
 10
617.7754877776
 20
141.037499223
 10
617.5624701564
 20
140.7809873475
 10
617.3289267973
 20
140.57585196
 10
617.0796119696
 20
140.4262690252
 10
616.8196010041
 20
140.3352836204
 10
616.5541869744
 20
140.304747946
  0
LINE
  5
312
330
1F
100
AcDbEntity
  8
0
  6
Continuous
 62
     7
370
    25
100
AcDbLine
 10
616.5541869744
 20
140.304747946
 30
0.0
 11
550.6942589947
 21
140.304747946
 31
0.0
  0
LINE
  5
313
330
1F
100
AcDbEntity
  8
0
  6
Continuous
 62
     7
370
    25
100
AcDbLine
 10
618.4191648847
 20
152.304747946
 30
0.0
 11
552.5592368847
 21
152.304747946
 31
0.0
  0
LINE
  5
314
330
1F
100
AcDbEntity
  8
0
  6
Continuous
 62
     7
370
    25
100
AcDbLine
 10
618.4191648847
 20
143.304747946
 30
0.0
 11
618.4191648847
 21
152.304747946
 31
0.0
  0
LWPOLYLINE
  5
315
330
1F
100
AcDbEntity
  8
0
  6
Continuous
 62
     7
370
    25
100
AcDbPolyline
 90
       12
 70
   128
 43
0.0
 10
616.5541869947
 20
155.304747946
 10
616.8196010215
 20
155.2742122717
 10
617.0796119841
 20
155.1832268669
 10
617.3289268092
 20
155.0336439321
 10
617.5624701657
 20
154.8285085445
 10
617.7754877846
 20
154.5719966691
 10
617.9636432413
 20
154.2693301479
 10
618.1231062334
 20
153.9266703984
 10
618.2506305541
 20
153.550992985
 10
618.3436201761
 20
153.1499456165
 10
618.4001820989
 20
152.7316924608
 10
618.4191648847
 20
152.304747946
  0
LINE
  5
316
330
1F
100
AcDbEntity
  8
0
  6
Continuous
 62
     7
370
    25
100
AcDbLine
 10
550.6942589744
 20
155.304747946
 30
0.0
 11
616.5541869947
 21
155.304747946
 31
0.0
  0
LINE
  5
317
330
1F
100
AcDbEntity
  8
0
  6
Continuous
 62
     7
370
    25
100
AcDbLine
 10
440.8848620638
 20
155.304747946
 30
0.0
 11
443.4306508284
 21
155.304747946
 31
0.0
  0
LINE
  5
318
330
1F
100
AcDbEntity
  8
0
  6
Continuous
 62
     7
370
    25
100
AcDbLine
 10
443.4306508284
 20
140.304747946
 30
0.0
 11
440.8848620816
 21
140.304747946
 31
0.0
  0
LINE
  5
319
330
1F
100
AcDbEntity
  8
0
  6
Continuous
 62
     7
370
    25
100
AcDbLine
 10
616.5541869947
 20
155.304747946
 30
0.0
 11
638.1196071447
 21
155.304747946
 31
0.0
  0
LINE
  5
31A
330
1F
100
AcDbEntity
  8
0
  6
Continuous
 62
     7
370
    25
100
AcDbLine
 10
638.1196071447
 20
140.304747946
 30
0.0
 11
616.5541869744
 21
140.304747946
 31
0.0
  0
LINE
  5
31B
330
1F
100
AcDbEntity
  8
0
  6
Continuous
 62
     7
370
    25
100
AcDbLine
 10
18.6504825118
 20
152.314747946
 30
0.0
 11
-3.2358052729
 21
152.314747946
 31
0.0
  0
ARC
  5
31C
330
1F
100
AcDbEntity
  8
0
  6
Continuous
 62
     7
370
    25
100
AcDbCircle
 10
-0.5774883017
 20
152.6497552697
 30
0.0
 40
2.679343021374551
100
AcDbArc
 50
97.7304627612
 51
187.1826836423
  0
LINE
  5
31D
330
1F
100
AcDbEntity
  8
0
  6
Continuous
 62
     7
370
    25
100
AcDbLine
 10
-0.9378948979
 20
155.304747946
 30
0.0
 11
16.6940769528
 21
155.304747946
 31
0.0
  0
LWPOLYLINE
  5
31E
330
1F
100
AcDbEntity
  8
0
  6
Continuous
 62
     7
370
    25
100
AcDbPolyline
 90
       12
 70
   128
 43
0.0
 10
18.6504825118
 20
152.314747946
 10
18.6305691241
 20
152.7402693125
 10
18.5712343402
 20
153.157128291
 10
18.4736860452
 20
153.5568388349
 10
18.339910041
 20
153.9312639902
 10
18.1726296213
 20
154.2727815405
 10
17.9752501331
 20
154.5744391733
 10
17.7517896535
 20
154.8300960092
 10
17.5067971935
 20
155.0345476121
 10
17.2452600932
 20
155.1836319371
 10
16.9725024935
 20
155.2743140572
 10
16.6940769528
 20
155.304747946
  0
LINE
  5
31F
330
1F
100
AcDbEntity
  8
0
  6
Continuous
 62
     7
370
    25
100
AcDbLine
 10
-3.2358052729
 20
143.294747946
 30
0.0
 11
18.6504825118
 21
143.294747946
 31
0.0
  0
LINE
  5
320
330
1F
100
AcDbEntity
  8
0
  6
Continuous
 62
     7
370
    25
100
AcDbLine
 10
-3.2358052729
 20
143.294747946
 30
0.0
 11
-3.2358052729
 21
152.314747946
 31
0.0
  0
LINE
  5
321
330
1F
100
AcDbEntity
  8
0
  6
Continuous
 62
     7
370
    25
100
AcDbLine
 10
18.6504825118
 20
143.294747946
 30
0.0
 11
18.6504825118
 21
152.314747946
 31
0.0
  0
LINE
  5
322
330
1F
100
AcDbEntity
  8
0
  6
Continuous
 62
     7
370
    25
100
AcDbLine
 10
16.694076465
 20
140.304747946
 30
0.0
 11
-0.9378934922
 21
140.304747946
 31
0.0
  0
ARC
  5
323
330
1F
100
AcDbEntity
  8
0
  6
Continuous
 62
     7
370
    25
100
AcDbCircle
 10
-0.5019889732
 20
143.0177644695
 30
0.0
 40
2.747812112665639
100
AcDbArc
 50
174.2146759581
 51
260.8722115086
  0
LWPOLYLINE
  5
324
330
1F
100
AcDbEntity
  8
0
  6
Continuous
 62
     7
370
    25
100
AcDbPolyline
 90
       12
 70
   128
 43
0.0
 10
16.694076465
 20
140.304747946
 10
16.9725020751
 20
140.3351818348
 10
17.2452597428
 20
140.4258639549
 10
17.5067969084
 20
140.5749482799
 10
17.7517894294
 20
140.7793998829
 10
17.9752499647
 20
141.0350567187
 10
18.1726295021
 20
141.3367143515
 10
18.3399099635
 20
141.6782319018
 10
18.4736860011
 20
142.0526570571
 10
18.5712343205
 20
142.4523676011
 10
18.6305691192
 20
142.8692265796
 10
18.6504825118
 20
143.294747946
  0
LINE
  5
325
330
1F
100
AcDbEntity
  8
0
  6
Continuous
 62
     7
370
    25
100
AcDbLine
 10
37.7818852332
 20
140.304747946
 30
0.0
 11
23.5613055251
 21
140.304747946
 31
0.0
  0
LWPOLYLINE
  5
326
330
1F
100
AcDbEntity
  8
0
  6
Continuous
 62
     7
370
    25
100
AcDbPolyline
 90
       12
 70
   128
 43
0.0
 10
23.5613055251
 20
140.304747946
 10
23.3518927467
 20
140.3351818348
 10
23.1467430086
 20
140.4258639549
 10
22.9500325678
 20
140.5749482799
 10
22.7657658817
 20
140.7793998829
 10
22.5976940885
 20
141.0350567187
 10
22.4492386454
 20
141.3367143515
 10
22.323421677
 20
141.6782319018
 10
22.222804454
 20
142.0526570571
 10
22.1494352529
 20
142.4523676011
 10
22.104807659
 20
142.8692265796
 10
22.0898301615
 20
143.294747946
  0
LINE
  5
327
330
1F
100
AcDbEntity
  8
0
  6
Continuous
 62
     7
370
    25
100
AcDbLine
 10
22.0898301615
 20
143.294747946
 30
0.0
 11
40.4062129154
 21
143.294747946
 31
0.0
  0
ARC
  5
328
330
1F
100
AcDbEntity
  8
0
  6
Continuous
 62
     7
370
    25
100
AcDbCircle
 10
37.5677683836
 20
143.1393668984
 30
0.0
 40
2.842694255499623
100
AcDbArc
 50
274.3197124173
 51
3.1333363682
  0
LINE
  5
329
330
1F
100
AcDbEntity
  8
0
  6
Continuous
 62
     7
370
    25
100
AcDbLine
 10
22.0898301615
 20
143.294747946
 30
0.0
 11
22.0898301615
 21
152.314747946
 31
0.0
  0
LINE
  5
32A
330
1F
100
AcDbEntity
  8
0
  6
Continuous
 62
     7
370
    25
100
AcDbLine
 10
40.4062129154
 20
152.314747946
 30
0.0
 11
22.0898301615
 21
152.314747946
 31
0.0
  0
LINE
  5
32B
330
1F
100
AcDbEntity
  8
0
  6
Continuous
 62
     7
370
    25
100
AcDbLine
 10
40.4062129154
 20
143.294747946
 30
0.0
 11
40.4062129154
 21
152.314747946
 31
0.0
  0
LWPOLYLINE
  5
32C
330
1F
100
AcDbEntity
  8
0
  6
Continuous
 62
     7
370
    25
100
AcDbPolyline
 90
       12
 70
   128
 43
0.0
 10
22.0898301615
 20
152.314747946
 10
22.1048076727
 20
152.7402693125
 10
22.1494353074
 20
153.157128291
 10
22.2228045756
 20
153.5568388349
 10
22.3234218906
 20
153.9312639902
 10
22.4492389741
 20
154.2727815405
 10
22.597694553
 20
154.5744391733
 10
22.7657664998
 20
154.8300960092
 10
22.9500333545
 20
155.0345476121
 10
23.1467439752
 20
155.1836319371
 10
23.3518939009
 20
155.2743140572
 10
23.5613068708
 20
155.304747946
  0
LINE
  5
32D
330
1F
100
AcDbEntity
  8
0
  6
Continuous
 62
     7
370
    25
100
AcDbLine
 10
23.5613068708
 20
155.304747946
 30
0.0
 11
37.7818853472
 21
155.304747946
 31
0.0
  0
ARC
  5
32E
330
1F
100
AcDbEntity
  8
0
  6
Continuous
 62
     7
370
    25
100
AcDbCircle
 10
37.604853534
 20
152.502678695
 30
0.0
 40
2.807656024190607
100
AcDbArc
 50
356.1620314915
 51
86.3849172546
  0
ARC
  5
32F
330
1F
100
AcDbEntity
  8
0
  6
Continuous
 62
     7
370
    25
100
AcDbCircle
 10
-27.7235355256
 20
143.1192291426
 30
0.0
 40
2.825270763582024
100
AcDbArc
 50
176.4382292732
 51
264.9910359954
  0
LINE
  5
330
330
1F
100
AcDbEntity
  8
0
  6
Continuous
 62
     7
370
    25
100
AcDbLine
 10
-30.5433490012
 20
143.294747946
 30
0.0
 11
-7.111428962
 21
143.294747946
 31
0.0
  0
LWPOLYLINE
  5
331
330
1F
100
AcDbEntity
  8
0
  6
Continuous
 62
     7
370
    25
100
AcDbPolyline
 90
       12
 70
   128
 43
0.0
 10
-8.6762218141
 20
140.304747946
 10
-8.4535285724
 20
140.3351818348
 10
-8.2353687229
 20
140.4258639549
 10
-8.0261833711
 20
140.5749482799
 10
-7.8302309273
 20
140.7793998829
 10
-7.6515004185
 20
141.0350567187
 10
-7.4936302821
 20
141.3367143515
 10
-7.3598342991
 20
141.6782319018
 10
-7.2528361697
 20
142.0526570571
 10
-7.1748140673
 20
142.4523676011
 10
-7.1273562969
 20
142.8692265796
 10
-7.111428962
 20
143.294747946
  0
LINE
  5
332
330
1F
100
AcDbEntity
  8
0
  6
Continuous
 62
     7
370
    25
100
AcDbLine
 10
-8.6762218141
 20
140.304747946
 30
0.0
 11
-27.97021443
 21
140.304747946
 31
0.0
  0
LINE
  5
333
330
1F
100
AcDbEntity
  8
0
  6
Continuous
 62
     7
370
    25
100
AcDbLine
 10
-30.5433490012
 20
143.294747946
 30
0.0
 11
-30.5433490012
 21
152.314747946
 31
0.0
  0
LINE
  5
334
330
1F
100
AcDbEntity
  8
0
  6
Continuous
 62
     7
370
    25
100
AcDbLine
 10
-7.111428962
 20
152.314747946
 30
0.0
 11
-30.5433490012
 21
152.314747946
 31
0.0
  0
LINE
  5
335
330
1F
100
AcDbEntity
  8
0
  6
Continuous
 62
     7
370
    25
100
AcDbLine
 10
-7.111428962
 20
143.294747946
 30
0.0
 11
-7.111428962
 21
152.314747946
 31
0.0
  0
ARC
  5
336
330
1F
100
AcDbEntity
  8
0
  6
Continuous
 62
     7
370
    25
100
AcDbCircle
 10
-27.7662608971
 20
152.5270354306
 30
0.0
 40
2.785190175601892
100
AcDbArc
 50
94.1994293501
 51
184.3713297987
  0
LWPOLYLINE
  5
337
330
1F
100
AcDbEntity
  8
0
  6
Continuous
 62
     7
370
    25
100
AcDbPolyline
 90
       12
 70
   128
 43
0.0
 10
-7.111428962
 20
152.314747946
 10
-7.1273563116
 20
152.7402693125
 10
-7.1748141258
 20
153.157128291
 10
-7.2528363001
 20
153.5568388349
 10
-7.3598345282
 20
153.9312639902
 10
-7.4936306346
 20
154.2727815405
 10
-7.6515009165
 20
154.5744391733
 10
-7.8302315903
 20
154.8300960092
 10
-8.0261842147
 20
155.0345476121
 10
-8.2353697595
 20
155.1836319371
 10
-8.4535298101
 20
155.2743140572
 10
-8.6762232572
 20
155.304747946
  0
LINE
  5
338
330
1F
100
AcDbEntity
  8
0
  6
Continuous
 62
     7
370
    25
100
AcDbLine
 10
-27.970215539
 20
155.304747946
 30
0.0
 11
-8.6762232572
 21
155.304747946
 31
0.0
  0
LINE
  5
339
330
1F
100
AcDbEntity
  8
0
  6
Continuous
 62
     7
370
    25
100
AcDbLine
 10
18.6504825118
 20
143.294747946
 30
0.0
 11
22.0898301615
 21
143.294747946
 31
0.0
  0
LINE
  5
33A
330
1F
100
AcDbEntity
  8
0
  6
Continuous
 62
     7
370
    25
100
AcDbLine
 10
23.5613055251
 20
140.304747946
 30
0.0
 11
16.694076465
 21
140.304747946
 31
0.0
  0
LINE
  5
33B
330
1F
100
AcDbEntity
  8
0
  6
Continuous
 62
     7
370
    25
100
AcDbLine
 10
22.0898301615
 20
152.314747946
 30
0.0
 11
18.6504825118
 21
152.314747946
 31
0.0
  0
LINE
  5
33C
330
1F
100
AcDbEntity
  8
0
  6
Continuous
 62
     7
370
    25
100
AcDbLine
 10
16.6940769528
 20
155.304747946
 30
0.0
 11
23.5613068708
 21
155.304747946
 31
0.0
  0
LINE
  5
33D
330
1F
100
AcDbEntity
  8
0
  6
Continuous
 62
     7
370
    25
100
AcDbLine
 10
-3.2358052729
 20
152.314747946
 30
0.0
 11
-7.111428962
 21
152.314747946
 31
0.0
  0
LINE
  5
33E
330
1F
100
AcDbEntity
  8
0
  6
Continuous
 62
     7
370
    25
100
AcDbLine
 10
-8.6762232572
 20
155.304747946
 30
0.0
 11
-0.9378948979
 21
155.304747946
 31
0.0
  0
LINE
  5
33F
330
1F
100
AcDbEntity
  8
0
  6
Continuous
 62
     7
370
    25
100
AcDbLine
 10
-7.111428962
 20
143.294747946
 30
0.0
 11
-3.2358052729
 21
143.294747946
 31
0.0
  0
LINE
  5
340
330
1F
100
AcDbEntity
  8
0
  6
Continuous
 62
     7
370
    25
100
AcDbLine
 10
-0.9378934922
 20
140.304747946
 30
0.0
 11
-8.6762218141
 21
140.304747946
 31
0.0
  0
LINE
  5
341
330
1F
100
AcDbEntity
  8
0
  6
Continuous
 62
     7
370
    25
100
AcDbLine
 10
-56.9323034124
 20
152.314747946
 30
0.0
 11
-100.9662269853
 21
152.314747946
 31
0.0
  0
ARC
  5
342
330
1F
100
AcDbEntity
  8
0
  6
Continuous
 62
     7
370
    25
100
AcDbCircle
 10
-98.0925697076
 20
152.4304804253
 30
0.0
 40
2.875986814402665
100
AcDbArc
 50
91.9812572084
 51
182.3062600703
  0
ARC
  5
343
330
1F
100
AcDbEntity
  8
0
  6
Continuous
 62
     7
370
    25
100
AcDbCircle
 10
-59.6244003722
 20
152.6155480079
 30
0.0
 40
2.708849703897784
100
AcDbArc
 50
353.624529665
 51
83.0946333676
  0
LINE
  5
344
330
1F
100
AcDbEntity
  8
0
  6
Continuous
 62
     7
370
    25
100
AcDbLine
 10
-100.9662269853
 20
143.294747946
 30
0.0
 11
-56.9323034124
 21
143.294747946
 31
0.0
  0
LINE
  5
345
330
1F
100
AcDbEntity
  8
0
  6
Continuous
 62
     7
370
    25
100
AcDbLine
 10
-100.9662269853
 20
143.294747946
 30
0.0
 11
-100.9662269853
 21
152.314747946
 31
0.0
  0
LINE
  5
346
330
1F
100
AcDbEntity
  8
0
  6
Continuous
 62
     7
370
    25
100
AcDbLine
 10
-56.9323034124
 20
143.294747946
 30
0.0
 11
-56.9323034124
 21
152.314747946
 31
0.0
  0
ARC
  5
347
330
1F
100
AcDbEntity
  8
0
  6
Continuous
 62
     7
370
    25
100
AcDbCircle
 10
-98.0928166807
 20
143.1787863163
 30
0.0
 40
2.875749272440884
100
AcDbArc
 50
177.6889800762
 51
268.0235026451
  0
ARC
  5
348
330
1F
100
AcDbEntity
  8
0
  6
Continuous
 62
     7
370
    25
100
AcDbCircle
 10
-59.623598107
 20
142.9933129376
 30
0.0
 40
2.708123002662114
100
AcDbArc
 50
276.8901313412
 51
6.3907056263
  0
LINE
  5
349
330
1F
100
AcDbEntity
  8
0
  6
Continuous
 62
     7
370
    25
100
AcDbLine
 10
40.4062129154
 20
143.294747946
 30
0.0
 11
43.4997731753
 21
143.294747946
 31
0.0
  0
ARC
  5
34A
330
1F
100
AcDbEntity
  8
0
  6
Continuous
 62
     7
370
    25
100
AcDbCircle
 10
49.1649921821
 20
142.6340589127
 30
0.0
 40
5.703614327227477
100
AcDbArc
 50
173.3481011863
 51
204.1038682602
  0
LINE
  5
34B
330
1F
100
AcDbEntity
  8
0
  6
Continuous
 62
     7
370
    25
100
AcDbLine
 10
43.9586953394
 20
140.304747946
 30
0.0
 11
37.7818852332
 21
140.304747946
 31
0.0
  0
LINE
  5
34C
330
1F
100
AcDbEntity
  8
0
  6
Continuous
 62
     7
370
    25
100
AcDbLine
 10
43.4997731753
 20
152.314747946
 30
0.0
 11
40.4062129154
 21
152.314747946
 31
0.0
  0
LINE
  5
34D
330
1F
100
AcDbEntity
  8
0
  6
Continuous
 62
     7
370
    25
100
AcDbLine
 10
43.4997731753
 20
143.294747946
 30
0.0
 11
43.4997731753
 21
152.314747946
 31
0.0
  0
ARC
  5
34E
330
1F
100
AcDbEntity
  8
0
  6
Continuous
 62
     7
370
    25
100
AcDbCircle
 10
48.2632541822
 20
153.1138398669
 30
0.0
 40
4.830041325048296
100
AcDbArc
 50
153.0250903536
 51
189.5229147966
  0
LINE
  5
34F
330
1F
100
AcDbEntity
  8
0
  6
Continuous
 62
     7
370
    25
100
AcDbLine
 10
37.7818853472
 20
155.304747946
 30
0.0
 11
43.9586960178
 21
155.304747946
 31
0.0
  0
LINE
  5
350
330
1F
100
AcDbEntity
  8
0
  6
Continuous
 62
     7
370
    25
100
AcDbLine
 10
60.1489162984
 20
152.314747946
 30
0.0
 11
43.4997731753
 21
152.314747946
 31
0.0
  0
ARC
  5
351
330
1F
100
AcDbEntity
  8
0
  6
Continuous
 62
     7
370
    25
100
AcDbCircle
 10
57.1844196356
 20
152.3402190641
 30
0.0
 40
2.964606085441646
100
AcDbArc
 50
359.5077236301
 51
89.5865017441
  0
LINE
  5
352
330
1F
100
AcDbEntity
  8
0
  6
Continuous
 62
     7
370
    25
100
AcDbLine
 10
43.9586960178
 20
155.304747946
 30
0.0
 11
57.2058147333
 21
155.304747946
 31
0.0
  0
LINE
  5
353
330
1F
100
AcDbEntity
  8
0
  6
Continuous
 62
     7
370
    25
100
AcDbLine
 10
43.4997731753
 20
143.294747946
 30
0.0
 11
60.1489162984
 21
143.294747946
 31
0.0
  0
LINE
  5
354
330
1F
100
AcDbEntity
  8
0
  6
Continuous
 62
     7
370
    25
100
AcDbLine
 10
60.1489162984
 20
143.294747946
 30
0.0
 11
60.1489162984
 21
152.314747946
 31
0.0
  0
ARC
  5
355
330
1F
100
AcDbEntity
  8
0
  6
Continuous
 62
     7
370
    25
100
AcDbCircle
 10
57.1799377408
 20
143.2736884236
 30
0.0
 40
2.969053246269852
100
AcDbArc
 50
270.4993721029
 51
0.4064029073
  0
LINE
  5
356
330
1F
100
AcDbEntity
  8
0
  6
Continuous
 62
     7
370
    25
100
AcDbLine
 10
57.2058147531
 20
140.304747946
 30
0.0
 11
43.9586953394
 21
140.304747946
 31
0.0
  0
LINE
  5
357
330
1F
100
AcDbEntity
  8
0
  6
Continuous
 62
     7
370
    25
100
AcDbLine
 10
-34.2560398847
 20
152.314747946
 30
0.0
 11
-52.7055009345
 21
152.314747946
 31
0.0
  0
LWPOLYLINE
  5
358
330
1F
100
AcDbEntity
  8
0
  6
Continuous
 62
     7
370
    25
100
AcDbPolyline
 90
       11
 70
   128
 43
0.0
 10
-52.7055009345
 20
152.314747946
 10
-52.6784673314
 20
152.8088007985
 10
-52.594905335
 20
153.3028536511
 10
-52.4615983623
 20
153.7554083988
 10
-52.2743651526
 20
154.1795440188
 10
-52.0482101061
 20
154.5402104281
 10
-51.7764954625
 20
154.8472621079
 10
-51.4810974309
 20
155.0754281138
 10
-51.1538315755
 20
155.2306422971
 10
-50.7296567109
 20
155.3045629122
 10
-50.7071470099
 20
155.304747946
  0
LWPOLYLINE
  5
359
330
1F
100
AcDbEntity
  8
0
  6
Continuous
 62
     7
370
    25
100
AcDbPolyline
 90
       12
 70
   128
 43
0.0
 10
-34.2560398847
 20
152.314747946
 10
-34.2675129747
 20
152.7402693125
 10
-34.3016986855
 20
153.157128291
 10
-34.3579010946
 20
153.5568388349
 10
-34.4349760832
 20
153.9312639902
 10
-34.5313546267
 20
154.2727815405
 10
-34.6450747358
 20
154.5744391733
 10
-34.7738213971
 20
154.8300960092
 10
-34.9149736999
 20
155.0345476121
 10
-35.0656581903
 20
155.1836319371
 10
-35.2228073667
 20
155.2743140572
 10
-35.3832221249
 20
155.304747946
  0
LINE
  5
35A
330
1F
100
AcDbEntity
  8
0
  6
Continuous
 62
     7
370
    25
100
AcDbLine
 10
-44.8283855933
 20
155.304747946
 30
0.0
 11
-38.4402779031
 21
155.304747946
 31
0.0
  0
LINE
  5
35B
330
1F
100
AcDbEntity
  8
0
  6
Continuous
 62
     7
370
    25
100
AcDbLine
 10
-52.7055009345
 20
143.294747946
 30
0.0
 11
-34.2560398847
 21
143.294747946
 31
0.0
  0
LINE
  5
35C
330
1F
100
AcDbEntity
  8
0
  6
Continuous
 62
     7
370
    25
100
AcDbLine
 10
-52.7055009345
 20
143.294747946
 30
0.0
 11
-52.7055009345
 21
152.314747946
 31
0.0
  0
LINE
  5
35D
330
1F
100
AcDbEntity
  8
0
  6
Continuous
 62
     7
370
    25
100
AcDbLine
 10
-34.2560398847
 20
143.294747946
 30
0.0
 11
-34.2560398847
 21
152.314747946
 31
0.0
  0
LWPOLYLINE
  5
35E
330
1F
100
AcDbEntity
  8
0
  6
Continuous
 62
     7
370
    25
100
AcDbPolyline
 90
       11
 70
   128
 43
0.0
 10
-50.7071470099
 20
140.304747946
 10
-50.7296567109
 20
140.3049329799
 10
-51.1538315755
 20
140.3788535949
 10
-51.4721554607
 20
140.528561853
 10
-51.7764954625
 20
140.7622337841
 10
-52.0410730694
 20
141.0597118557
 10
-52.2743651526
 20
141.4299518733
 10
-52.4569981165
 20
141.8415009646
 10
-52.594905335
 20
142.306642241
 10
-52.6768747176
 20
142.7864585168
 10
-52.7055009345
 20
143.294747946
  0
LWPOLYLINE
  5
35F
330
1F
100
AcDbEntity
  8
0
  6
Continuous
 62
     7
370
    25
100
AcDbPolyline
 90
       12
 70
   128
 43
0.0
 10
-35.3832204075
 20
140.304747946
 10
-35.2228058937
 20
140.3351818348
 10
-35.0656569568
 20
140.4258639549
 10
-34.9149726959
 20
140.5749482799
 10
-34.7738206082
 20
140.7793998829
 10
-34.645074143
 20
141.0350567187
 10
-34.5313542072
 20
141.3367143515
 10
-34.4349758106
 20
141.6782319018
 10
-34.3579009394
 20
142.0526570571
 10
-34.3016986159
 20
142.4523676011
 10
-34.2675129572
 20
142.8692265796
 10
-34.2560398847
 20
143.294747946
  0
LINE
  5
360
330
1F
100
AcDbEntity
  8
0
  6
Continuous
 62
     7
370
    25
100
AcDbLine
 10
-38.4402779031
 20
140.304747946
 30
0.0
 11
-44.8283855933
 21
140.304747946
 31
0.0
  0
LINE
  5
361
330
1F
100
AcDbEntity
  8
0
  6
Continuous
 62
     7
370
    25
100
AcDbLine
 10
-34.2560398847
 20
143.294747946
 30
0.0
 11
-30.5433490012
 21
143.294747946
 31
0.0
  0
LINE
  5
362
330
1F
100
AcDbEntity
  8
0
  6
Continuous
 62
     7
370
    25
100
AcDbLine
 10
-27.97021443
 20
140.304747946
 30
0.0
 11
-34.8008990613
 21
140.304747946
 31
0.0
  0
LINE
  5
363
330
1F
100
AcDbEntity
  8
0
  6
Continuous
 62
     7
370
    25
100
AcDbLine
 10
-30.5433490012
 20
152.314747946
 30
0.0
 11
-34.2560398847
 21
152.314747946
 31
0.0
  0
LINE
  5
364
330
1F
100
AcDbEntity
  8
0
  6
Continuous
 62
     7
370
    25
100
AcDbLine
 10
-34.8008990613
 20
155.304747946
 30
0.0
 11
-27.970215539
 21
155.304747946
 31
0.0
  0
LINE
  5
365
330
1F
100
AcDbEntity
  8
0
  6
Continuous
 62
     7
370
    25
100
AcDbLine
 10
-56.9323034124
 20
143.294747946
 30
0.0
 11
-52.7055009345
 21
143.294747946
 31
0.0
  0
LINE
  5
366
330
1F
100
AcDbEntity
  8
0
  6
Continuous
 62
     7
370
    25
100
AcDbLine
 10
-52.7055009345
 20
152.314747946
 30
0.0
 11
-56.9323034124
 21
152.314747946
 31
0.0
  0
LINE
  5
367
330
1F
100
AcDbEntity
  8
0
  6
Continuous
 62
     7
370
    25
100
AcDbLine
 10
60.1489162984
 20
143.294747946
 30
0.0
 11
63.4811960025
 21
143.294747946
 31
0.0
  0
ARC
  5
368
330
1F
100
AcDbEntity
  8
0
  6
Continuous
 62
     7
370
    25
100
AcDbCircle
 10
70.2279295191
 20
142.6289371896
 30
0.0
 40
6.779507143450161
100
AcDbArc
 50
174.3639357882
 51
200.049124447
  0
LINE
  5
369
330
1F
100
AcDbEntity
  8
0
  6
Continuous
 62
     7
370
    25
100
AcDbLine
 10
63.8592670639
 20
140.304747946
 30
0.0
 11
57.2058147531
 21
140.304747946
 31
0.0
  0
LINE
  5
36A
330
1F
100
AcDbEntity
  8
0
  6
Continuous
 62
     7
370
    25
100
AcDbLine
 10
63.4811960025
 20
152.314747946
 30
0.0
 11
60.1489162984
 21
152.314747946
 31
0.0
  0
LINE
  5
36B
330
1F
100
AcDbEntity
  8
0
  6
Continuous
 62
     7
370
    25
100
AcDbLine
 10
63.4811960025
 20
143.294747946
 30
0.0
 11
63.4811960025
 21
152.314747946
 31
0.0
  0
ARC
  5
36C
330
1F
100
AcDbEntity
  8
0
  6
Continuous
 62
     7
370
    25
100
AcDbCircle
 10
69.124854867
 20
153.120034453
 30
0.0
 40
5.700822022989168
100
AcDbArc
 50
157.4662359796
 51
188.1206456828
  0
LINE
  5
36D
330
1F
100
AcDbEntity
  8
0
  6
Continuous
 62
     7
370
    25
100
AcDbLine
 10
57.2058147333
 20
155.304747946
 30
0.0
 11
63.8592686042
 21
155.304747946
 31
0.0
  0
LINE
  5
36E
330
1F
100
AcDbEntity
  8
0
  6
Continuous
 62
     7
370
    25
100
AcDbLine
 10
-108.7251076415
 20
143.294747946
 30
0.0
 11
-108.7251076415
 21
152.314747946
 31
0.0
  0
LWPOLYLINE
  5
36F
330
1F
100
AcDbEntity
  8
0
  6
Continuous
 62
     7
370
    25
100
AcDbPolyline
 90
       11
 70
   128
 43
0.0
 10
-110.4496685359
 20
140.304747946
 10
-110.4229071568
 20
140.3051037643
 10
-110.0685694952
 20
140.3779606351
 10
-109.794670984
 20
140.5270120789
 10
-109.5322020403
 20
140.7600341833
 10
-109.3031831874
 20
141.0573429509
 10
-109.1007760207
 20
141.4275903639
 10
-108.9418519886
 20
141.8396254829
 10
-108.8216395955
 20
142.3053969697
 10
-108.7501054308
 20
142.7858283801
 10
-108.7251076415
 20
143.294747946
  0
LWPOLYLINE
  5
370
330
1F
100
AcDbEntity
  8
0
  6
Continuous
 62
     7
370
    25
100
AcDbPolyline
 90
       11
 70
   128
 43
0.0
 10
-108.7251076415
 20
152.314747946
 10
-108.7487159018
 20
152.8094234342
 10
-108.8216395955
 20
153.3040989223
 10
-108.9378365979
 20
153.7572410917
 10
-109.1007760207
 20
154.1819055281
 10
-109.2969792479
 20
154.5425524702
 10
-109.5322020403
 20
154.8494617087
 10
-109.7869556864
 20
155.0769877102
 10
-110.0685694952
 20
155.231535257
 10
-110.4229071568
 20
155.3043921277
 10
-110.4496685359
 20
155.304747946
  0
LINE
  5
371
330
1F
100
AcDbEntity
  8
0
  6
Continuous
 62
     7
370
    25
100
AcDbLine
 10
-100.9662269853
 20
152.314747946
 30
0.0
 11
-108.7251076415
 21
152.314747946
 31
0.0
  0
LINE
  5
372
330
1F
100
AcDbEntity
  8
0
  6
Continuous
 62
     7
370
    25
100
AcDbLine
 10
-108.7251076415
 20
143.294747946
 30
0.0
 11
-100.9662269853
 21
143.294747946
 31
0.0
  0
LINE
  5
373
330
1F
100
AcDbEntity
  8
0
  6
Continuous
 62
     7
370
    25
100
AcDbLine
 10
80.439815836
 20
152.314747946
 30
0.0
 11
63.4811960025
 21
152.314747946
 31
0.0
  0
ARC
  5
374
330
1F
100
AcDbEntity
  8
0
  6
Continuous
 62
     7
370
    25
100
AcDbCircle
 10
77.4782511552
 20
152.3431435389
 30
0.0
 40
2.961700806646393
100
AcDbArc
 50
359.4506627564
 51
89.5377193034
  0
LINE
  5
375
330
1F
100
AcDbEntity
  8
0
  6
Continuous
 62
     7
370
    25
100
AcDbLine
 10
63.8592686042
 20
155.304747946
 30
0.0
 11
77.5021468465
 21
155.304747946
 31
0.0
  0
LINE
  5
376
330
1F
100
AcDbEntity
  8
0
  6
Continuous
 62
     7
370
    25
100
AcDbLine
 10
63.4811960025
 20
143.294747946
 30
0.0
 11
80.439815836
 21
143.294747946
 31
0.0
  0
ARC
  5
377
330
1F
100
AcDbEntity
  8
0
  6
Continuous
 62
     7
370
    25
100
AcDbCircle
 10
77.4732451187
 20
143.2712707805
 30
0.0
 40
2.966663613869362
100
AcDbArc
 50
270.5581806291
 51
0.4534240197
  0
LINE
  5
378
330
1F
100
AcDbEntity
  8
0
  6
Continuous
 62
     7
370
    25
100
AcDbLine
 10
77.5021461649
 20
140.304747946
 30
0.0
 11
63.8592670639
 21
140.304747946
 31
0.0
  0
LINE
  5
379
330
1F
100
AcDbEntity
  8
0
  6
Continuous
 62
     7
370
    25
100
AcDbLine
 10
80.439815836
 20
143.294747946
 30
0.0
 11
80.439815836
 21
152.314747946
 31
0.0
  0
LINE
  5
37A
330
1F
100
AcDbEntity
  8
0
  6
Continuous
 62
     7
370
    25
100
AcDbLine
 10
80.439815836
 20
143.294747946
 30
0.0
 11
83.6680864825
 21
143.294747946
 31
0.0
  0
LINE
  5
37B
330
1F
100
AcDbEntity
  8
0
  6
Continuous
 62
     7
370
    25
100
AcDbLine
 10
83.6680864825
 20
152.314747946
 30
0.0
 11
80.439815836
 21
152.314747946
 31
0.0
  0
LINE
  5
37C
330
1F
100
AcDbEntity
  8
0
  6
Continuous
 62
     7
370
    25
100
AcDbLine
 10
83.6680864825
 20
143.294747946
 30
0.0
 11
83.6680864825
 21
152.314747946
 31
0.0
  0
ARC
  5
37D
330
1F
100
AcDbEntity
  8
0
  6
Continuous
 62
     7
370
    25
100
AcDbCircle
 10
91.11410235
 20
153.125950381
 30
0.0
 40
7.490073543601934
100
AcDbArc
 50
163.0886729396
 51
186.2175386589
  0
LINE
  5
37E
330
1F
100
AcDbEntity
  8
0
  6
Continuous
 62
     7
370
    25
100
AcDbLine
 10
77.5021468465
 20
155.304747946
 30
0.0
 11
83.9479288341
 21
155.304747946
 31
0.0
  0
ARC
  5
37F
330
1F
100
AcDbEntity
  8
0
  6
Continuous
 62
     7
370
    25
100
AcDbCircle
 10
92.6153655998
 20
142.6240458878
 30
0.0
 40
8.972382339882541
100
AcDbArc
 50
175.7130364396
 51
194.9806603002
  0
LINE
  5
380
330
1F
100
AcDbEntity
  8
0
  6
Continuous
 62
     7
370
    25
100
AcDbLine
 10
83.9479264215
 20
140.304747946
 30
0.0
 11
77.5021461649
 21
140.304747946
 31
0.0
  0
LINE
  5
381
330
1F
100
AcDbEntity
  8
0
  6
Continuous
 62
     7
370
    25
100
AcDbLine
 10
95.676248376
 20
140.304747946
 30
0.0
 11
83.9479264215
 21
140.304747946
 31
0.0
  0
LINE
  5
382
330
1F
100
AcDbEntity
  8
0
  6
Continuous
 62
     7
370
    25
100
AcDbLine
 10
83.9479288341
 20
155.304747946
 30
0.0
 11
95.676248376
 21
155.304747946
 31
0.0
  0
LWPOLYLINE
  5
383
330
1F
100
AcDbEntity
  8
0
  6
Continuous
 62
     7
370
    25
100
AcDbPolyline
 90
       11
 70
   128
 43
0.0
 10
-141.642728585
 20
140.304747946
 10
-141.6244356328
 20
140.3050952623
 10
-141.3792804301
 20
140.378013455
 10
-141.1904633948
 20
140.5271153475
 10
-141.0099564539
 20
140.7601947411
 10
-140.8528676346
 20
141.0575278602
 10
-140.7143886915
 20
141.4277875342
 10
-140.6059371822
 20
141.8397830582
 10
-140.5240781545
 20
142.3055007267
 10
-140.4754445467
 20
142.7858805197
 10
-140.4584639983
 20
143.294747946
  0
LINE
  5
384
330
1F
100
AcDbEntity
  8
0
  6
Continuous
 62
     7
370
    25
100
AcDbLine
 10
-140.435526586
 20
140.304747946
 30
0.0
 11
-141.642728585
 21
140.304747946
 31
0.0
  0
LWPOLYLINE
  5
385
330
1F
100
AcDbEntity
  8
0
  6
Continuous
 62
     7
370
    25
100
AcDbPolyline
 90
       11
 70
   128
 43
0.0
 10
-140.4584639983
 20
152.314747946
 10
-140.4745003821
 20
152.8093715557
 10
-140.5240781545
 20
153.3039951653
 10
-140.6032009852
 20
153.7570878343
 10
-140.7143886915
 20
154.1817083578
 10
-140.8486188302
 20
154.5423691149
 10
-141.0099564539
 20
154.8493011509
 10
-141.1851509245
 20
155.076882746
 10
-141.3792804301
 20
155.231482437
 10
-141.6244356328
 20
155.3044006297
 10
-141.642728585
 20
155.304747946
  0
LINE
  5
386
330
1F
100
AcDbEntity
  8
0
  6
Continuous
 62
     7
370
    25
100
AcDbLine
 10
-141.642728585
 20
155.304747946
 30
0.0
 11
-140.435526586
 21
155.304747946
 31
0.0
  0
LINE
  5
387
330
1F
100
AcDbEntity
  8
0
  6
Continuous
 62
     7
370
    25
100
AcDbLine
 10
-140.4584639983
 20
143.294747946
 30
0.0
 11
-140.4584639983
 21
152.314747946
 31
0.0
  0
LINE
  5
388
330
1F
100
AcDbEntity
  8
0
  6
Continuous
 62
     7
370
    25
100
AcDbLine
 10
-167.6647454149
 20
143.294747946
 30
0.0
 11
-140.4584639983
 21
143.294747946
 31
0.0
  0
LINE
  5
389
330
1F
100
AcDbEntity
  8
0
  6
Continuous
 62
     7
370
    25
100
AcDbLine
 10
-167.6647454149
 20
143.294747946
 30
0.0
 11
-167.6647454149
 21
152.314747946
 31
0.0
  0
LINE
  5
38A
330
1F
100
AcDbEntity
  8
0
  6
Continuous
 62
     7
370
    25
100
AcDbLine
 10
-140.4584639983
 20
152.314747946
 30
0.0
 11
-167.6647454149
 21
152.314747946
 31
0.0
  0
ARC
  5
38B
330
1F
100
AcDbEntity
  8
0
  6
Continuous
 62
     7
370
    25
100
AcDbCircle
 10
-164.6958705786
 20
143.2735843054
 30
0.0
 40
2.968950267913171
100
AcDbArc
 50
179.5915736377
 51
269.4981016741
  0
LINE
  5
38C
330
1F
100
AcDbEntity
  8
0
  6
Continuous
 62
     7
370
    25
100
AcDbLine
 10
-141.642728585
 20
140.304747946
 30
0.0
 11
-164.7218775921
 21
140.304747946
 31
0.0
  0
ARC
  5
38D
330
1F
100
AcDbEntity
  8
0
  6
Continuous
 62
     7
370
    25
100
AcDbCircle
 10
-164.7003748789
 20
152.3403448828
 30
0.0
 40
2.96448104699204
100
AcDbArc
 50
90.415591336
 51
180.494728976
  0
LINE
  5
38E
330
1F
100
AcDbEntity
  8
0
  6
Continuous
 62
     7
370
    25
100
AcDbLine
 10
-164.7218773673
 20
155.304747946
 30
0.0
 11
-141.642728585
 21
155.304747946
 31
0.0
  0
ARC
  5
38F
330
1F
100
AcDbEntity
  8
0
  6
Continuous
 62
     7
370
    25
100
AcDbCircle
 10
83.330837539
 20
142.6195089824
 30
0.0
 40
18.16687431549512
100
AcDbArc
 50
352.6796681324
 51
2.1300998571
  0
LINE
  5
390
330
1F
100
AcDbEntity
  8
0
  6
Continuous
 62
     7
370
    25
100
AcDbLine
 10
101.3496389347
 20
140.304747946
 30
0.0
 11
95.676248376
 21
140.304747946
 31
0.0
  0
ARC
  5
391
330
1F
100
AcDbEntity
  8
0
  6
Continuous
 62
     7
370
    25
100
AcDbCircle
 10
86.4514876089
 20
153.1314378612
 30
0.0
 40
15.05583764421393
100
AcDbArc
 50
356.8905175363
 51
8.2996406438
  0
LINE
  5
392
330
1F
100
AcDbEntity
  8
0
  6
Continuous
 62
     7
370
    25
100
AcDbLine
 10
95.676248376
 20
155.304747946
 30
0.0
 11
101.3496408651
 21
155.304747946
 31
0.0
  0
LINE
  5
393
330
1F
100
AcDbEntity
  8
0
  6
Continuous
 62
     7
370
    25
100
AcDbLine
 10
101.4851586427
 20
143.294747946
 30
0.0
 11
101.4851586427
 21
152.314747946
 31
0.0
  0
LINE
  5
394
330
1F
100
AcDbEntity
  8
0
  6
Continuous
 62
     7
370
    25
100
AcDbLine
 10
116.6633357265
 20
140.304747946
 30
0.0
 11
101.3496389347
 21
140.304747946
 31
0.0
  0
LINE
  5
395
330
1F
100
AcDbEntity
  8
0
  6
Continuous
 62
     7
370
    25
100
AcDbLine
 10
101.3496408651
 20
155.304747946
 30
0.0
 11
116.6633357265
 21
155.304747946
 31
0.0
  0
LWPOLYLINE
  5
396
330
1F
100
AcDbEntity
  8
0
  6
Continuous
 62
     7
370
    25
100
AcDbPolyline
 90
       12
 70
   128
 43
0.0
 10
-167.8877534831
 20
140.304747946
 10
-168.1138420765
 20
140.3351818348
 10
-168.3353281582
 20
140.4258639549
 10
-168.5477029102
 20
140.5749482799
 10
-168.746642995
 20
140.7793998829
 10
-168.9280985662
 20
141.0350567187
 10
-169.0883757116
 20
141.3367143515
 10
-169.2242116507
 20
141.6782319018
 10
-169.3328411556
 20
142.0526570571
 10
-169.4120528427
 20
142.4523676011
 10
-169.4602341906
 20
142.8692265796
 10
-169.4764043659
 20
143.294747946
  0
LINE
  5
397
330
1F
100
AcDbEntity
  8
0
  6
Continuous
 62
     7
370
    25
100
AcDbLine
 10
-169.4764043659
 20
143.294747946
 30
0.0
 11
-167.6647454149
 21
143.294747946
 31
0.0
  0
LINE
  5
398
330
1F
100
AcDbEntity
  8
0
  6
Continuous
 62
     7
370
    25
100
AcDbLine
 10
-164.7218775921
 20
140.304747946
 30
0.0
 11
-167.8877534831
 21
140.304747946
 31
0.0
  0
LINE
  5
399
330
1F
100
AcDbEntity
  8
0
  6
Continuous
 62
     7
370
    25
100
AcDbLine
 10
-169.4764043659
 20
143.294747946
 30
0.0
 11
-169.4764043659
 21
152.314747946
 31
0.0
  0
LINE
  5
39A
330
1F
100
AcDbEntity
  8
0
  6
Continuous
 62
     7
370
    25
100
AcDbLine
 10
-167.6647454149
 20
152.314747946
 30
0.0
 11
-169.4764043659
 21
152.314747946
 31
0.0
  0
LWPOLYLINE
  5
39B
330
1F
100
AcDbEntity
  8
0
  6
Continuous
 62
     7
370
    25
100
AcDbPolyline
 90
       12
 70
   128
 43
0.0
 10
-169.4764043659
 20
152.314747946
 10
-169.4602341612
 20
152.7402693125
 10
-169.4120527258
 20
153.157128291
 10
-169.3328408947
 20
153.5568388349
 10
-169.2242111925
 20
153.9312639902
 10
-169.0883750066
 20
154.2727815405
 10
-168.9280975701
 20
154.5744391733
 10
-168.7466416692
 20
154.8300960092
 10
-168.547701223
 20
155.0345476121
 10
-168.3353260852
 20
155.1836319371
 10
-168.1138396011
 20
155.2743140572
 10
-167.8877505969
 20
155.304747946
  0
LINE
  5
39C
330
1F
100
AcDbEntity
  8
0
  6
Continuous
 62
     7
370
    25
100
AcDbLine
 10
-167.8877505969
 20
155.304747946
 30
0.0
 11
-164.7218773673
 21
155.304747946
 31
0.0
  0
LINE
  5
39D
330
1F
100
AcDbEntity
  8
0
  6
Continuous
 62
     7
370
    25
100
AcDbLine
 10
-167.8877534831
 20
140.304747946
 30
0.0
 11
-187.8054082512
 21
140.304747946
 31
0.0
  0
LINE
  5
39E
330
1F
100
AcDbEntity
  8
0
  6
Continuous
 62
     7
370
    25
100
AcDbLine
 10
-187.8054082512
 20
155.304747946
 30
0.0
 11
-167.8877505969
 21
155.304747946
 31
0.0
  0
LWPOLYLINE
  5
39F
330
1F
100
AcDbEntity
  8
0
  6
Continuous
 62
     7
370
    25
100
AcDbPolyline
 90
       12
 70
   128
 43
0.0
 10
121.9653397478
 20
152.314747946
 10
121.9588234447
 20
152.7402693125
 10
121.9394071886
 20
153.157128291
 10
121.9074862386
 20
153.5568388349
 10
121.8637104129
 20
153.9312639902
 10
121.8089708614
 20
154.2727815405
 10
121.7443819233
 20
154.5744391733
 10
121.6712584431
 20
154.8300960092
 10
121.5910890042
 20
155.0345476121
 10
121.5055056249
 20
155.1836319371
 10
121.4162505363
 20
155.2743140572
 10
121.3251407144
 20
155.304747946
  0
LINE
  5
3A0
330
1F
100
AcDbEntity
  8
0
  6
Continuous
 62
     7
370
    25
100
AcDbLine
 10
116.6633357265
 20
155.304747946
 30
0.0
 11
121.3251407144
 21
155.304747946
 31
0.0
  0
ARC
  5
3A1
330
1F
100
AcDbEntity
  8
0
  6
Continuous
 62
     7
370
    25
100
AcDbCircle
 10
117.6782120043
 20
142.6491384684
 30
0.0
 40
4.335467205130797
100
AcDbArc
 50
327.2655008315
 51
8.5639659741
  0
LINE
  5
3A2
330
1F
100
AcDbEntity
  8
0
  6
Continuous
 62
     7
370
    25
100
AcDbLine
 10
121.3251434494
 20
140.304747946
 30
0.0
 11
116.6633357265
 21
140.304747946
 31
0.0
  0
LINE
  5
3A3
330
1F
100
AcDbEntity
  8
0
  6
Continuous
 62
     7
370
    25
100
AcDbLine
 10
121.9653397478
 20
143.294747946
 30
0.0
 11
121.9653397478
 21
152.314747946
 31
0.0
  0
LINE
  5
3A4
330
1F
100
AcDbEntity
  8
0
  6
Continuous
 62
     7
370
    25
100
AcDbLine
 10
136.4312302818
 20
140.304747946
 30
0.0
 11
121.3251434494
 21
140.304747946
 31
0.0
  0
LINE
  5
3A5
330
1F
100
AcDbEntity
  8
0
  6
Continuous
 62
     7
370
    25
100
AcDbLine
 10
121.3251407144
 20
155.304747946
 30
0.0
 11
136.4312302818
 21
155.304747946
 31
0.0
  0
LWPOLYLINE
  5
3A6
330
1F
100
AcDbEntity
  8
0
  6
Continuous
 62
     7
370
    25
100
AcDbPolyline
 90
       12
 70
   128
 43
0.0
 10
140.7115998307
 20
152.314747946
 10
140.7042834681
 20
152.7402693125
 10
140.6824833203
 20
153.157128291
 10
140.6466431755
 20
153.5568388349
 10
140.5974926357
 20
153.9312639902
 10
140.5360322641
 20
154.2727815405
 10
140.4635132166
 20
154.5744391733
 10
140.3814117719
 20
154.8300960092
 10
140.2913992788
 20
155.0345476121
 10
140.1953081319
 20
155.1836319371
 10
140.0950944699
 20
155.2743140572
 10
139.9927983539
 20
155.304747946
  0
LINE
  5
3A7
330
1F
100
AcDbEntity
  8
0
  6
Continuous
 62
     7
370
    25
100
AcDbLine
 10
136.4312302818
 20
155.304747946
 30
0.0
 11
139.9927983539
 21
155.304747946
 31
0.0
  0
LWPOLYLINE
  5
3A8
330
1F
100
AcDbEntity
  8
0
  6
Continuous
 62
     7
370
    25
100
AcDbPolyline
 90
       12
 70
   128
 43
0.0
 10
139.9928023595
 20
140.304747946
 10
140.0950979054
 20
140.3351818348
 10
140.1953110089
 20
140.4258639549
 10
140.2914016204
 20
140.5749482799
 10
140.3814136119
 20
140.7793998829
 10
140.4635145991
 20
141.0350567187
 10
140.5360332424
 20
141.3367143515
 10
140.5974932716
 20
141.6782319018
 10
140.6466435375
 20
142.0526570571
 10
140.6824834826
 20
142.4523676011
 10
140.7042835089
 20
142.8692265796
 10
140.7115998307
 20
143.294747946
  0
LINE
  5
3A9
330
1F
100
AcDbEntity
  8
0
  6
Continuous
 62
     7
370
    25
100
AcDbLine
 10
139.9928023595
 20
140.304747946
 30
0.0
 11
136.4312302818
 21
140.304747946
 31
0.0
  0
LINE
  5
3AA
330
1F
100
AcDbEntity
  8
0
  6
Continuous
 62
     7
370
    25
100
AcDbLine
 10
140.7115998307
 20
143.294747946
 30
0.0
 11
140.7115998307
 21
152.314747946
 31
0.0
  0
LINE
  5
3AB
330
1F
100
AcDbEntity
  8
0
  6
Continuous
 62
     7
370
    25
100
AcDbLine
 10
139.9927983539
 20
155.304747946
 30
0.0
 11
148.7511612407
 21
155.304747946
 31
0.0
  0
LINE
  5
3AC
330
1F
100
AcDbEntity
  8
0
  6
Continuous
 62
     7
370
    25
100
AcDbLine
 10
148.7511612407
 20
140.304747946
 30
0.0
 11
139.9928023595
 21
140.304747946
 31
0.0
  0
LWPOLYLINE
  5
3AD
330
1F
100
AcDbEntity
  8
0
  6
Continuous
 62
     7
370
    25
100
AcDbPolyline
 90
       11
 70
   128
 43
0.0
 10
-193.001868818
 20
152.314747946
 10
-193.0129481414
 20
152.8070585712
 10
-193.0469049273
 20
153.2993691963
 10
-193.1002071515
 20
153.7502798786
 10
-193.1734216109
 20
154.1729330509
 10
-193.2598463307
 20
154.5336289156
 10
-193.360773096
 20
154.8410538924
 10
-193.4678192883
 20
155.0710144244
 10
-193.5830156645
 20
155.2280984076
 10
-193.7320721476
 20
155.3046425935
 10
-193.7377563468
 20
155.304747946
  0
LINE
  5
3AE
330
1F
100
AcDbEntity
  8
0
  6
Continuous
 62
     7
370
    25
100
AcDbLine
 10
-193.7377563468
 20
155.304747946
 30
0.0
 11
-187.8054082512
 21
155.304747946
 31
0.0
  0
LWPOLYLINE
  5
3AF
330
1F
100
AcDbEntity
  8
0
  6
Continuous
 62
     7
370
    25
100
AcDbPolyline
 90
       11
 70
   128
 43
0.0
 10
-193.7377563468
 20
140.304747946
 10
-193.7320721476
 20
140.3048532986
 10
-193.5830156645
 20
140.3813974844
 10
-193.4709972373
 20
140.5329498077
 10
-193.360773096
 20
140.7684419996
 10
-193.2625133585
 20
141.0663703004
 10
-193.1734216109
 20
141.4365628412
 10
-193.1020178372
 20
141.8467475213
 10
-193.0469049273
 20
142.3101266957
 10
-193.0136007493
 20
142.7882218743
 10
-193.001868818
 20
143.294747946
  0
LINE
  5
3B0
330
1F
100
AcDbEntity
  8
0
  6
Continuous
 62
     7
370
    25
100
AcDbLine
 10
-187.8054082512
 20
140.304747946
 30
0.0
 11
-193.7377563468
 21
140.304747946
 31
0.0
  0
LINE
  5
3B1
330
1F
100
AcDbEntity
  8
0
  6
Continuous
 62
     7
370
    25
100
AcDbLine
 10
-193.001868818
 20
143.294747946
 30
0.0
 11
-193.001868818
 21
152.314747946
 31
0.0
  0
LINE
  5
3B2
330
1F
100
AcDbEntity
  8
0
  6
Continuous
 62
     7
370
    25
100
AcDbLine
 10
-212.9488442275
 20
155.304747946
 30
0.0
 11
-193.7377563468
 21
155.304747946
 31
0.0
  0
LINE
  5
3B3
330
1F
100
AcDbEntity
  8
0
  6
Continuous
 62
     7
370
    25
100
AcDbLine
 10
-193.7377563468
 20
140.304747946
 30
0.0
 11
-212.9488442275
 21
140.304747946
 31
0.0
  0
LWPOLYLINE
  5
3B4
330
1F
100
AcDbEntity
  8
0
  6
Continuous
 62
     7
370
    25
100
AcDbPolyline
 90
       12
 70
   128
 43
0.0
 10
153.641501759
 20
152.314747946
 10
153.632555382
 20
152.7402693125
 10
153.6058983736
 20
153.157128291
 10
153.5620733934
 20
153.5568388349
 10
153.5019725918
 20
153.9312639902
 10
153.4268194478
 20
154.2727815405
 10
153.3381438626
 20
154.5744391733
 10
153.2377510154
 20
154.8300960092
 10
153.1276846151
 20
155.0345476121
 10
153.0101852962
 20
155.1836319371
 10
152.887645006
 20
155.2743140572
 10
152.7625583114
 20
155.304747946
  0
LINE
  5
3B5
330
1F
100
AcDbEntity
  8
0
  6
Continuous
 62
     7
370
    25
100
AcDbLine
 10
148.7511612407
 20
155.304747946
 30
0.0
 11
152.7625583114
 21
155.304747946
 31
0.0
  0
LWPOLYLINE
  5
3B6
330
1F
100
AcDbEntity
  8
0
  6
Continuous
 62
     7
370
    25
100
AcDbPolyline
 90
       12
 70
   128
 43
0.0
 10
152.7625627841
 20
140.304747946
 10
152.8876488422
 20
140.3351818348
 10
153.0101885088
 20
140.4258639549
 10
153.1276872298
 20
140.5749482799
 10
153.23775307
 20
140.7793998829
 10
153.3381454063
 20
141.0350567187
 10
153.4268205402
 20
141.3367143515
 10
153.5019733019
 20
141.6782319018
 10
153.5620737976
 20
142.0526570571
 10
153.6058985547
 20
142.4523676011
 10
153.6325554275
 20
142.8692265796
 10
153.641501759
 20
143.294747946
  0
LINE
  5
3B7
330
1F
100
AcDbEntity
  8
0
  6
Continuous
 62
     7
370
    25
100
AcDbLine
 10
152.7625627841
 20
140.304747946
 30
0.0
 11
148.7511612407
 21
140.304747946
 31
0.0
  0
LINE
  5
3B8
330
1F
100
AcDbEntity
  8
0
  6
Continuous
 62
     7
370
    25
100
AcDbLine
 10
153.641501759
 20
143.294747946
 30
0.0
 11
153.641501759
 21
152.314747946
 31
0.0
  0
LINE
  5
3B9
330
1F
100
AcDbEntity
  8
0
  6
Continuous
 62
     7
370
    25
100
AcDbLine
 10
161.4838242127
 20
140.304747946
 30
0.0
 11
152.7625627841
 21
140.304747946
 31
0.0
  0
LINE
  5
3BA
330
1F
100
AcDbEntity
  8
0
  6
Continuous
 62
     7
370
    25
100
AcDbLine
 10
152.7625583114
 20
155.304747946
 30
0.0
 11
161.4838242127
 21
155.304747946
 31
0.0
  0
ARC
  5
3BB
330
1F
100
AcDbEntity
  8
0
  6
Continuous
 62
     7
370
    25
100
AcDbCircle
 10
157.2555134925
 20
142.6278274986
 30
0.0
 40
8.77461381989501
100
AcDbArc
 50
344.647898027
 51
4.3590081925
  0
LINE
  5
3BC
330
1F
100
AcDbEntity
  8
0
  6
Continuous
 62
     7
370
    25
100
AcDbLine
 10
165.7170233507
 20
140.304747946
 30
0.0
 11
161.4838242127
 21
140.304747946
 31
0.0
  0
ARC
  5
3BD
330
1F
100
AcDbEntity
  8
0
  6
Continuous
 62
     7
370
    25
100
AcDbCircle
 10
157.2383226841
 20
152.9800141525
 30
0.0
 40
8.791629667108518
100
AcDbArc
 50
355.6602566623
 51
15.3328371183
  0
LINE
  5
3BE
330
1F
100
AcDbEntity
  8
0
  6
Continuous
 62
     7
370
    25
100
AcDbLine
 10
161.4838242127
 20
155.304747946
 30
0.0
 11
165.7170233507
 21
155.304747946
 31
0.0
  0
LINE
  5
3BF
330
1F
100
AcDbEntity
  8
0
  6
Continuous
 62
     7
370
    25
100
AcDbLine
 10
166.0047457334
 20
143.294747946
 30
0.0
 11
166.0047457334
 21
152.314747946
 31
0.0
  0
LINE
  5
3C0
330
1F
100
AcDbEntity
  8
0
  6
Continuous
 62
     7
370
    25
100
AcDbLine
 10
176.0399795046
 20
140.304747946
 30
0.0
 11
165.7170233507
 21
140.304747946
 31
0.0
  0
LINE
  5
3C1
330
1F
100
AcDbEntity
  8
0
  6
Continuous
 62
     7
370
    25
100
AcDbLine
 10
165.7170233507
 20
155.304747946
 30
0.0
 11
176.0399795046
 21
155.304747946
 31
0.0
  0
LINE
  5
3C2
330
1F
100
AcDbEntity
  8
0
  6
Continuous
 62
     7
370
    25
100
AcDbLine
 10
177.4711663022
 20
140.304747946
 30
0.0
 11
176.0399795046
 21
140.304747946
 31
0.0
  0
LINE
  5
3C3
330
1F
100
AcDbEntity
  8
0
  6
Continuous
 62
     7
370
    25
100
AcDbLine
 10
176.0399795046
 20
155.304747946
 30
0.0
 11
177.4711663022
 21
155.304747946
 31
0.0
  0
LINE
  5
3C4
330
1F
100
AcDbEntity
  8
0
  6
Continuous
 62
     7
370
    25
100
AcDbLine
 10
177.4711663022
 20
155.304747946
 30
0.0
 11
185.9098387128
 21
155.304747946
 31
0.0
  0
LINE
  5
3C5
330
1F
100
AcDbEntity
  8
0
  6
Continuous
 62
     7
370
    25
100
AcDbLine
 10
185.9098387128
 20
140.304747946
 30
0.0
 11
177.4711663022
 21
140.304747946
 31
0.0
  0
LINE
  5
3C6
330
1F
100
AcDbEntity
  8
0
  6
Continuous
 62
     7
370
    25
100
AcDbLine
 10
185.9098387128
 20
155.304747946
 30
0.0
 11
194.0852442879
 21
155.304747946
 31
0.0
  0
LINE
  5
3C7
330
1F
100
AcDbEntity
  8
0
  6
Continuous
 62
     7
370
    25
100
AcDbLine
 10
194.0852442879
 20
140.304747946
 30
0.0
 11
185.9098387128
 21
140.304747946
 31
0.0
  0
LINE
  5
3C8
330
1F
100
AcDbEntity
  8
0
  6
Continuous
 62
     7
370
    25
100
AcDbLine
 10
201.5456618168
 20
143.294747946
 30
0.0
 11
201.5456618168
 21
152.314747946
 31
0.0
  0
ARC
  5
3C9
330
1F
100
AcDbEntity
  8
0
  6
Continuous
 62
     7
370
    25
100
AcDbCircle
 10
198.5556618168
 20
143.294747946
 30
0.0
 40
2.989999999999924
100
AcDbArc
 50
270.0
 51
0.0
  0
LINE
  5
3CA
330
1F
100
AcDbEntity
  8
0
  6
Continuous
 62
     7
370
    25
100
AcDbLine
 10
198.5556618168
 20
140.304747946
 30
0.0
 11
194.0852442879
 21
140.304747946
 31
0.0
  0
ARC
  5
3CB
330
1F
100
AcDbEntity
  8
0
  6
Continuous
 62
     7
370
    25
100
AcDbCircle
 10
198.5556618168
 20
152.314747946
 30
0.0
 40
2.989999999999952
100
AcDbArc
 50
0.0
 51
90.0
  0
LINE
  5
3CC
330
1F
100
AcDbEntity
  8
0
  6
Continuous
 62
     7
370
    25
100
AcDbLine
 10
194.0852442879
 20
155.304747946
 30
0.0
 11
198.5556618168
 21
155.304747946
 31
0.0
  0
ARC
  5
3CD
330
1F
100
AcDbEntity
  8
0
  6
Continuous
 62
     7
370
    25
100
AcDbCircle
 10
-223.41902466
 20
153.1181833375
 30
0.0
 40
4.432150173266487
100
AcDbArc
 50
349.5560008311
 51
29.5604610823
  0
LINE
  5
3CE
330
1F
100
AcDbEntity
  8
0
  6
Continuous
 62
     7
370
    25
100
AcDbLine
 10
-219.5637827258
 20
155.304747946
 30
0.0
 11
-212.9488442275
 21
155.304747946
 31
0.0
  0
ARC
  5
3CF
330
1F
100
AcDbEntity
  8
0
  6
Continuous
 62
     7
370
    25
100
AcDbCircle
 10
-223.4093506054
 20
142.489683564
 30
0.0
 40
4.422932960331442
100
AcDbArc
 50
330.3960688441
 51
10.4874692424
  0
LINE
  5
3D0
330
1F
100
AcDbEntity
  8
0
  6
Continuous
 62
     7
370
    25
100
AcDbLine
 10
-212.9488442275
 20
140.304747946
 30
0.0
 11
-219.5637827258
 21
140.304747946
 31
0.0
  0
LINE
  5
3D1
330
1F
100
AcDbEntity
  8
0
  6
Continuous
 62
     7
370
    25
100
AcDbLine
 10
-219.0603038924
 20
143.294747946
 30
0.0
 11
-219.0603038924
 21
152.314747946
 31
0.0
  0
ARC
  5
3D2
330
1F
100
AcDbEntity
  8
0
  6
Continuous
 62
     7
370
    25
100
AcDbCircle
 10
-224.156296733
 20
143.2968857765
 30
0.0
 40
2.992139015585839
100
AcDbArc
 50
180.0409368265
 51
270.0509942195
  0
LINE
  5
3D3
330
1F
100
AcDbEntity
  8
0
  6
Continuous
 62
     7
370
    25
100
AcDbLine
 10
-227.1484349849
 20
143.294747946
 30
0.0
 11
-219.0603038924
 21
143.294747946
 31
0.0
  0
LINE
  5
3D4
330
1F
100
AcDbEntity
  8
0
  6
Continuous
 62
     7
370
    25
100
AcDbLine
 10
-219.5637827258
 20
140.304747946
 30
0.0
 11
-224.1536336787
 21
140.304747946
 31
0.0
  0
LINE
  5
3D5
330
1F
100
AcDbEntity
  8
0
  6
Continuous
 62
     7
370
    25
100
AcDbLine
 10
-219.0603038924
 20
152.314747946
 30
0.0
 11
-227.1484349849
 21
152.314747946
 31
0.0
  0
ARC
  5
3D6
330
1F
100
AcDbEntity
  8
0
  6
Continuous
 62
     7
370
    25
100
AcDbCircle
 10
-224.1563017642
 20
152.3126151548
 30
0.0
 40
2.992133980804997
100
AcDbArc
 50
89.9489093534
 51
179.9591596006
  0
LINE
  5
3D7
330
1F
100
AcDbEntity
  8
0
  6
Continuous
 62
     7
370
    25
100
AcDbLine
 10
-224.1536336787
 20
155.304747946
 30
0.0
 11
-219.5637827258
 21
155.304747946
 31
0.0
  0
LINE
  5
3D8
330
1F
100
AcDbEntity
  8
0
  6
Continuous
 62
     7
370
    25
100
AcDbLine
 10
-227.1484349849
 20
143.294747946
 30
0.0
 11
-227.1484349849
 21
152.314747946
 31
0.0
  0
LWPOLYLINE
  5
3D9
330
1F
100
AcDbEntity
  8
0
  6
Continuous
 62
     7
370
    25
100
AcDbPolyline
 90
       12
 70
   128
 43
0.0
 10
-225.5649277317
 20
140.304747946
 10
-225.8393764335
 20
140.3351818348
 10
-226.1082381511
 20
140.4258639549
 10
-226.3660396354
 20
140.5749482799
 10
-226.6075327916
 20
140.7793998829
 10
-226.8278015154
 20
141.0350567187
 10
-227.0223617707
 20
141.3367143515
 10
-227.1872528719
 20
141.6782319018
 10
-227.3191181117
 20
142.0526570571
 10
-227.415273094
 20
142.4523676011
 10
-227.4737603806
 20
142.8692265796
 10
-227.4933893392
 20
143.294747946
  0
LINE
  5
3DA
330
1F
100
AcDbEntity
  8
0
  6
Continuous
 62
     7
370
    25
100
AcDbLine
 10
-224.1536336787
 20
140.304747946
 30
0.0
 11
-225.5649277317
 21
140.304747946
 31
0.0
  0
LWPOLYLINE
  5
3DB
330
1F
100
AcDbEntity
  8
0
  6
Continuous
 62
     7
370
    25
100
AcDbPolyline
 90
       12
 70
   128
 43
0.0
 10
-227.4933893392
 20
152.314747946
 10
-227.4737603806
 20
152.7402693125
 10
-227.415273094
 20
153.157128291
 10
-227.3191181117
 20
153.5568388349
 10
-227.1872528719
 20
153.9312639902
 10
-227.0223617707
 20
154.2727815405
 10
-226.8278015154
 20
154.5744391733
 10
-226.6075327916
 20
154.8300960092
 10
-226.3660396354
 20
155.0345476121
 10
-226.1082381511
 20
155.1836319371
 10
-225.8393764335
 20
155.2743140572
 10
-225.5649277317
 20
155.304747946
  0
LINE
  5
3DC
330
1F
100
AcDbEntity
  8
0
  6
Continuous
 62
     7
370
    25
100
AcDbLine
 10
-225.5649277317
 20
155.304747946
 30
0.0
 11
-224.1530539193
 21
155.304747946
 31
0.0
  0
LINE
  5
3DD
330
1F
100
AcDbEntity
  8
0
  6
Continuous
 62
     7
370
    25
100
AcDbLine
 10
-227.4933893392
 20
143.294747946
 30
0.0
 11
-227.4933893392
 21
152.314747946
 31
0.0
  0
LINE
  5
3DE
330
1F
100
AcDbEntity
  8
0
  6
Continuous
 62
     7
370
    25
100
AcDbLine
 10
201.5456618168
 20
140.304747946
 30
0.0
 11
198.5556618168
 21
140.304747946
 31
0.0
  0
LINE
  5
3DF
330
1F
100
AcDbEntity
  8
0
  6
Continuous
 62
     7
370
    25
100
AcDbLine
 10
198.5556618168
 20
155.304747946
 30
0.0
 11
201.5456618168
 21
155.304747946
 31
0.0
  0
LINE
  5
3E0
330
1F
100
AcDbEntity
  8
0
  6
Continuous
 62
     7
370
    25
100
AcDbLine
 10
-231.6039806446
 20
155.304747946
 30
0.0
 11
-225.5649277317
 21
155.304747946
 31
0.0
  0
LINE
  5
3E1
330
1F
100
AcDbEntity
  8
0
  6
Continuous
 62
     7
370
    25
100
AcDbLine
 10
-225.5649277317
 20
140.304747946
 30
0.0
 11
-231.6039806446
 21
140.304747946
 31
0.0
  0
LINE
  5
3E2
330
1F
100
AcDbEntity
  8
0
  6
Continuous
 62
     8
370
    25
100
AcDbLine
 10
205.0918738779
 20
65.403873174
 30
0.0
 11
183.7883388455
 21
102.3026782308
 31
0.0
  0
LINE
  5
3E3
330
1F
100
AcDbEntity
  8
0
  6
Continuous
 62
     8
370
    25
100
AcDbLine
 10
-219.0594544575
 20
158.304747946
 30
0.0
 11
-167.8949350793
 21
158.304747946
 31
0.0
  0
LINE
  5
3E4
330
1F
100
AcDbEntity
  8
0
  6
Continuous
 62
     8
370
    25
100
AcDbLine
 10
-167.8949350793
 20
167.304747946
 30
0.0
 11
-219.0594544575
 21
167.304747946
 31
0.0
  0
LINE
  5
3E5
330
1F
100
AcDbEntity
  8
0
  6
Continuous
 62
     8
370
    25
100
AcDbLine
 10
-227.4943033352
 20
158.304747946
 30
0.0
 11
-227.1486240095
 21
158.304747946
 31
0.0
  0
LINE
  5
3E6
330
1F
100
AcDbEntity
  8
0
  6
Continuous
 62
     8
370
    25
100
AcDbLine
 10
-227.1486240095
 20
167.304747946
 30
0.0
 11
-227.4943033352
 21
167.304747946
 31
0.0
  0
LINE
  5
3E7
330
1F
100
AcDbEntity
  8
0
  6
Continuous
 62
     8
370
    25
100
AcDbLine
 10
-234.5939801958
 20
158.304747946
 30
0.0
 11
-227.4943033352
 21
158.304747946
 31
0.0
  0
LINE
  5
3E8
330
1F
100
AcDbEntity
  8
0
  6
Continuous
 62
     8
370
    25
100
AcDbLine
 10
-227.4943033352
 20
167.304747946
 30
0.0
 11
-234.5939801958
 21
167.304747946
 31
0.0
  0
LINE
  5
3E9
330
1F
100
AcDbEntity
  8
0
  6
Continuous
 62
     8
370
    25
100
AcDbLine
 10
-219.0594544575
 20
128.304747946
 30
0.0
 11
-167.8949350793
 21
128.304747946
 31
0.0
  0
LINE
  5
3EA
330
1F
100
AcDbEntity
  8
0
  6
Continuous
 62
     8
370
    25
100
AcDbLine
 10
-167.8949350793
 20
137.304747946
 30
0.0
 11
-219.0594544575
 21
137.304747946
 31
0.0
  0
LINE
  5
3EB
330
1F
100
AcDbEntity
  8
0
  6
Continuous
 62
     8
370
    25
100
AcDbLine
 10
-227.4943033352
 20
128.304747946
 30
0.0
 11
-227.1486240095
 21
128.304747946
 31
0.0
  0
LINE
  5
3EC
330
1F
100
AcDbEntity
  8
0
  6
Continuous
 62
     8
370
    25
100
AcDbLine
 10
-227.1486240095
 20
137.304747946
 30
0.0
 11
-227.4943033352
 21
137.304747946
 31
0.0
  0
LINE
  5
3ED
330
1F
100
AcDbEntity
  8
0
  6
Continuous
 62
     8
370
    25
100
AcDbLine
 10
-234.5939801958
 20
128.304747946
 30
0.0
 11
-227.4943033352
 21
128.304747946
 31
0.0
  0
LINE
  5
3EE
330
1F
100
AcDbEntity
  8
0
  6
Continuous
 62
     8
370
    25
100
AcDbLine
 10
-227.4943033352
 20
137.304747946
 30
0.0
 11
-234.5939801958
 21
137.304747946
 31
0.0
  0
LINE
  5
3EF
330
1F
100
AcDbEntity
  8
0
  6
Continuous
 62
     8
370
    25
100
AcDbLine
 10
-108.7654608099
 20
137.304747946
 30
0.0
 11
-137.0119611545
 21
137.304747946
 31
0.0
  0
LINE
  5
3F0
330
1F
100
AcDbEntity
  8
0
  6
Continuous
 62
     8
370
    25
100
AcDbLine
 10
-137.0119611545
 20
128.304747946
 30
0.0
 11
-108.7654608099
 21
128.304747946
 31
0.0
  0
LINE
  5
3F1
330
1F
100
AcDbEntity
  8
0
  6
Continuous
 62
     8
370
    25
100
AcDbLine
 10
-140.4738517727
 20
128.304747946
 30
0.0
 11
-137.0119611545
 21
128.304747946
 31
0.0
  0
LINE
  5
3F2
330
1F
100
AcDbEntity
  8
0
  6
Continuous
 62
     8
370
    25
100
AcDbLine
 10
-137.0119611545
 20
137.304747946
 30
0.0
 11
-140.4738517727
 21
137.304747946
 31
0.0
  0
LINE
  5
3F3
330
1F
100
AcDbEntity
  8
0
  6
Continuous
 62
     8
370
    25
100
AcDbLine
 10
48.4947374312
 20
128.304747946
 30
0.0
 11
69.1994013823
 21
128.304747946
 31
0.0
  0
LINE
  5
3F4
330
1F
100
AcDbEntity
  8
0
  6
Continuous
 62
     8
370
    25
100
AcDbLine
 10
69.1994013823
 20
137.304747946
 30
0.0
 11
48.4947374312
 21
137.304747946
 31
0.0
  0
LINE
  5
3F5
330
1F
100
AcDbEntity
  8
0
  6
Continuous
 62
     8
370
    25
100
AcDbLine
 10
-167.8949350793
 20
128.304747946
 30
0.0
 11
-167.8940067692
 21
128.304747946
 31
0.0
  0
LINE
  5
3F6
330
1F
100
AcDbEntity
  8
0
  6
Continuous
 62
     8
370
    25
100
AcDbLine
 10
-167.8940067692
 20
137.304747946
 30
0.0
 11
-167.8949350793
 21
137.304747946
 31
0.0
  0
LINE
  5
3F7
330
1F
100
AcDbEntity
  8
0
  6
Continuous
 62
     8
370
    25
100
AcDbLine
 10
69.1994013823
 20
128.304747946
 30
0.0
 11
70.7046050721
 21
128.304747946
 31
0.0
  0
LINE
  5
3F8
330
1F
100
AcDbEntity
  8
0
  6
Continuous
 62
     8
370
    25
100
AcDbLine
 10
70.7046050721
 20
137.304747946
 30
0.0
 11
69.1994013823
 21
137.304747946
 31
0.0
  0
LINE
  5
3F9
330
1F
100
AcDbEntity
  8
0
  6
Continuous
 62
     8
370
    25
100
AcDbLine
 10
82.3495841076
 20
137.304747946
 30
0.0
 11
70.7046050721
 21
137.304747946
 31
0.0
  0
LINE
  5
3FA
330
1F
100
AcDbEntity
  8
0
  6
Continuous
 62
     8
370
    25
100
AcDbLine
 10
70.7046050721
 20
128.304747946
 30
0.0
 11
82.3495841076
 21
128.304747946
 31
0.0
  0
LINE
  5
3FB
330
1F
100
AcDbEntity
  8
0
  6
Continuous
 62
     8
370
    25
100
AcDbLine
 10
83.0902509054
 20
137.304747946
 30
0.0
 11
82.3495841076
 21
137.304747946
 31
0.0
  0
LINE
  5
3FC
330
1F
100
AcDbEntity
  8
0
  6
Continuous
 62
     8
370
    25
100
AcDbLine
 10
82.3495841076
 20
128.304747946
 30
0.0
 11
83.0902509054
 21
128.304747946
 31
0.0
  0
LINE
  5
3FD
330
1F
100
AcDbEntity
  8
0
  6
Continuous
 62
     8
370
    25
100
AcDbLine
 10
-137.0119611545
 20
158.304747946
 30
0.0
 11
-108.7654608099
 21
158.304747946
 31
0.0
  0
LINE
  5
3FE
330
1F
100
AcDbEntity
  8
0
  6
Continuous
 62
     8
370
    25
100
AcDbLine
 10
-108.7654608099
 20
167.304747946
 30
0.0
 11
-137.0119611545
 21
167.304747946
 31
0.0
  0
LINE
  5
3FF
330
1F
100
AcDbEntity
  8
0
  6
Continuous
 62
     8
370
    25
100
AcDbLine
 10
-137.0119611545
 20
167.304747946
 30
0.0
 11
-140.4738517727
 21
167.304747946
 31
0.0
  0
LINE
  5
400
330
1F
100
AcDbEntity
  8
0
  6
Continuous
 62
     8
370
    25
100
AcDbLine
 10
-140.4738517727
 20
158.304747946
 30
0.0
 11
-137.0119611545
 21
158.304747946
 31
0.0
  0
LINE
  5
401
330
1F
100
AcDbEntity
  8
0
  6
Continuous
 62
     8
370
    25
100
AcDbLine
 10
48.4947374312
 20
158.304747946
 30
0.0
 11
69.1994013823
 21
158.304747946
 31
0.0
  0
LINE
  5
402
330
1F
100
AcDbEntity
  8
0
  6
Continuous
 62
     8
370
    25
100
AcDbLine
 10
69.1994013823
 20
167.304747946
 30
0.0
 11
48.4947374312
 21
167.304747946
 31
0.0
  0
LINE
  5
403
330
1F
100
AcDbEntity
  8
0
  6
Continuous
 62
     8
370
    25
100
AcDbLine
 10
-167.8949350793
 20
158.304747946
 30
0.0
 11
-167.8940067692
 21
158.304747946
 31
0.0
  0
LINE
  5
404
330
1F
100
AcDbEntity
  8
0
  6
Continuous
 62
     8
370
    25
100
AcDbLine
 10
-167.8940067692
 20
167.304747946
 30
0.0
 11
-167.8949350793
 21
167.304747946
 31
0.0
  0
LINE
  5
405
330
1F
100
AcDbEntity
  8
0
  6
Continuous
 62
     8
370
    25
100
AcDbLine
 10
69.1994013823
 20
158.304747946
 30
0.0
 11
70.7046050721
 21
158.304747946
 31
0.0
  0
LINE
  5
406
330
1F
100
AcDbEntity
  8
0
  6
Continuous
 62
     8
370
    25
100
AcDbLine
 10
70.7046050721
 20
167.304747946
 30
0.0
 11
69.1994013823
 21
167.304747946
 31
0.0
  0
LINE
  5
407
330
1F
100
AcDbEntity
  8
0
  6
Continuous
 62
     8
370
    25
100
AcDbLine
 10
82.3495841076
 20
167.304747946
 30
0.0
 11
70.7046050721
 21
167.304747946
 31
0.0
  0
LINE
  5
408
330
1F
100
AcDbEntity
  8
0
  6
Continuous
 62
     8
370
    25
100
AcDbLine
 10
70.7046050721
 20
158.304747946
 30
0.0
 11
82.3495841076
 21
158.304747946
 31
0.0
  0
LINE
  5
409
330
1F
100
AcDbEntity
  8
0
  6
Continuous
 62
     8
370
    25
100
AcDbLine
 10
82.3495841076
 20
158.304747946
 30
0.0
 11
83.0902509054
 21
158.304747946
 31
0.0
  0
LINE
  5
40A
330
1F
100
AcDbEntity
  8
0
  6
Continuous
 62
     8
370
    25
100
AcDbLine
 10
83.0902509054
 20
167.304747946
 30
0.0
 11
82.3495841076
 21
167.304747946
 31
0.0
  0
LINE
  5
40B
330
1F
100
AcDbEntity
  8
0
  6
Continuous
 62
     8
370
    25
100
AcDbLine
 10
-13.8918854535
 20
51.304747946
 30
0.0
 11
-0.7113634535
 21
51.304747946
 31
0.0
  0
LINE
  5
40C
330
1F
100
AcDbEntity
  8
0
  6
Continuous
 62
     8
370
    25
100
AcDbLine
 10
-7.7113634535
 20
122.304747946
 30
0.0
 11
40.2886365465
 21
122.304747946
 31
0.0
  0
LINE
  5
40D
330
1F
100
AcDbEntity
  8
0
  6
Continuous
 62
     8
370
    25
100
AcDbLine
 10
33.2886365465
 20
116.304747946
 30
0.0
 11
-0.7113634535
 21
116.304747946
 31
0.0
  0
LINE
  5
40E
330
1F
100
AcDbEntity
  8
0
  6
Continuous
 62
     8
370
    25
100
AcDbLine
 10
-0.7113634535
 20
36.304747946
 30
0.0
 11
33.2886365465
 21
36.304747946
 31
0.0
  0
LINE
  5
40F
330
1F
100
AcDbEntity
  8
0
  6
Continuous
 62
     8
370
    25
100
AcDbLine
 10
38.9415782009
 20
173.304747946
 30
0.0
 11
-7.7113634535
 21
173.304747946
 31
0.0
  0
LINE
  5
410
330
1F
100
AcDbEntity
  8
0
  6
Continuous
 62
     8
370
    25
100
AcDbLine
 10
40.2886365465
 20
173.304747946
 30
0.0
 11
38.9415782009
 21
173.304747946
 31
0.0
  0
LINE
  5
411
330
1F
100
AcDbEntity
  8
0
  6
Continuous
 62
     8
370
    25
100
AcDbLine
 10
32.3344702184
 20
179.304747946
 30
0.0
 11
33.2886365465
 21
179.304747946
 31
0.0
  0
LINE
  5
412
330
1F
100
AcDbEntity
  8
0
  6
Continuous
 62
     8
370
    25
100
AcDbLine
 10
-0.7113634535
 20
179.304747946
 30
0.0
 11
32.3344702184
 21
179.304747946
 31
0.0
  0
LINE
  5
413
330
1F
100
AcDbEntity
  8
0
  6
Continuous
 62
     8
370
    25
100
AcDbLine
 10
32.3344702184
 20
259.304747946
 30
0.0
 11
-0.7113634535
 21
259.304747946
 31
0.0
  0
LINE
  5
414
330
1F
100
AcDbEntity
  8
0
  6
Continuous
 62
     8
370
    25
100
AcDbLine
 10
33.2886365465
 20
259.304747946
 30
0.0
 11
32.3344702184
 21
259.304747946
 31
0.0
  0
LINE
  5
415
330
1F
100
AcDbEntity
  8
0
  6
Continuous
 62
     8
370
    25
100
AcDbLine
 10
-0.7113634535
 20
244.304747946
 30
0.0
 11
-13.8918854535
 21
244.304747946
 31
0.0
  0
LINE
  5
416
330
1F
100
AcDbEntity
  8
0
  6
Continuous
 62
     8
370
    25
100
AcDbLine
 10
-0.7113634535
 20
258.0205834295
 30
0.0
 11
-21.6392947722
 21
258.0205834295
 31
0.0
  0
LINE
  5
417
330
1F
100
AcDbEntity
  8
0
  6
Continuous
 62
     8
370
    25
100
AcDbLine
 10
-21.8918854535
 20
258.6849472684
 30
0.0
 11
-0.7113634535
 21
258.6849472684
 31
0.0
  0
LINE
  5
418
330
1F
100
AcDbEntity
  8
0
  6
Continuous
 62
     8
370
    25
100
AcDbLine
 10
-0.7113634535
 20
261.46504677
 30
0.0
 11
-21.8918854535
 21
261.46504677
 31
0.0
  0
LINE
  5
419
330
1F
100
AcDbEntity
  8
0
  6
Continuous
 62
     8
370
    25
100
AcDbLine
 10
-21.0580189089
 20
262.451150048
 30
0.0
 11
-0.7113634535
 21
262.451150048
 31
0.0
  0
LINE
  5
41A
330
1F
100
AcDbEntity
  8
0
  6
Continuous
 62
     8
370
    25
100
AcDbLine
 10
-14.1444761348
 20
249.5889124625
 30
0.0
 11
-0.7113634535
 21
249.5889124625
 31
0.0
  0
LINE
  5
41B
330
1F
100
AcDbEntity
  8
0
  6
Continuous
 62
     8
370
    25
100
AcDbLine
 10
-0.7113634535
 20
248.9245486237
 30
0.0
 11
-13.8918854535
 21
248.9245486237
 31
0.0
  0
LINE
  5
41C
330
1F
100
AcDbEntity
  8
0
  6
Continuous
 62
     8
370
    25
100
AcDbLine
 10
-13.8918854535
 20
246.304747946
 30
0.0
 11
-0.7113634535
 21
246.304747946
 31
0.0
  0
LINE
  5
41D
330
1F
100
AcDbEntity
  8
0
  6
Continuous
 62
     8
370
    25
100
AcDbLine
 10
41.2886365465
 20
276.46504677
 30
0.0
 11
-8.7113634535
 21
276.46504677
 31
0.0
  0
LINE
  5
41E
330
1F
100
AcDbEntity
  8
0
  6
Continuous
 62
     8
370
    25
100
AcDbLine
 10
39.0983870122
 20
277.451150048
 30
0.0
 11
40.4547700019
 21
277.451150048
 31
0.0
  0
LINE
  5
41F
330
1F
100
AcDbEntity
  8
0
  6
Continuous
 62
     8
370
    25
100
AcDbLine
 10
-7.8774969089
 20
277.451150048
 30
0.0
 11
39.0983870122
 21
277.451150048
 31
0.0
  0
LINE
  5
420
330
1F
100
AcDbEntity
  8
0
  6
Continuous
 62
     8
370
    25
100
AcDbLine
 10
-8.7113634535
 20
273.6849472684
 30
0.0
 11
41.2886365465
 21
273.6849472684
 31
0.0
  0
LINE
  5
421
330
1F
100
AcDbEntity
  8
0
  6
Continuous
 62
     8
370
    25
100
AcDbLine
 10
39.6470373546
 20
273.0205834295
 30
0.0
 11
-8.4587727722
 21
273.0205834295
 31
0.0
  0
LINE
  5
422
330
1F
100
AcDbEntity
  8
0
  6
Continuous
 62
     8
370
    25
100
AcDbLine
 10
41.0360458652
 20
273.0205834295
 30
0.0
 11
39.6470373546
 21
273.0205834295
 31
0.0
  0
LINE
  5
423
330
1F
100
AcDbEntity
  8
0
  6
Continuous
 62
     8
370
    25
100
AcDbLine
 10
-0.9639541348
 20
264.5889124625
 30
0.0
 11
33.5412272278
 21
264.5889124625
 31
0.0
  0
LINE
  5
424
330
1F
100
AcDbEntity
  8
0
  6
Continuous
 62
     8
370
    25
100
AcDbLine
 10
32.3344702184
 20
263.9245486237
 30
0.0
 11
-0.7113634535
 21
263.9245486237
 31
0.0
  0
LINE
  5
425
330
1F
100
AcDbEntity
  8
0
  6
Continuous
 62
     8
370
    25
100
AcDbLine
 10
33.2886365465
 20
263.9245486237
 30
0.0
 11
32.3344702184
 21
263.9245486237
 31
0.0
  0
LINE
  5
426
330
1F
100
AcDbEntity
  8
0
  6
Continuous
 62
     8
370
    25
100
AcDbLine
 10
32.3344702184
 20
261.304747946
 30
0.0
 11
33.2886365465
 21
261.304747946
 31
0.0
  0
LINE
  5
427
330
1F
100
AcDbEntity
  8
0
  6
Continuous
 62
     8
370
    25
100
AcDbLine
 10
-0.7113634535
 20
261.304747946
 30
0.0
 11
32.3344702184
 21
261.304747946
 31
0.0
  0
LINE
  5
428
330
1F
100
AcDbEntity
  8
0
  6
Continuous
 62
     8
370
    25
100
AcDbLine
 10
-21.6392947722
 20
37.5889124625
 30
0.0
 11
-0.7113634535
 21
37.5889124625
 31
0.0
  0
LINE
  5
429
330
1F
100
AcDbEntity
  8
0
  6
Continuous
 62
     8
370
    25
100
AcDbLine
 10
-0.7113634535
 20
36.9245486237
 30
0.0
 11
-21.8918854535
 21
36.9245486237
 31
0.0
  0
LINE
  5
42A
330
1F
100
AcDbEntity
  8
0
  6
Continuous
 62
     8
370
    25
100
AcDbLine
 10
-21.8918854535
 20
34.1444491221
 30
0.0
 11
-0.7113634535
 21
34.1444491221
 31
0.0
  0
LINE
  5
42B
330
1F
100
AcDbEntity
  8
0
  6
Continuous
 62
     8
370
    25
100
AcDbLine
 10
-0.7113634535
 20
33.158345844
 30
0.0
 11
-21.0580189089
 21
33.158345844
 31
0.0
  0
LINE
  5
42C
330
1F
100
AcDbEntity
  8
0
  6
Continuous
 62
     8
370
    25
100
AcDbLine
 10
-0.7113634535
 20
46.0205834295
 30
0.0
 11
-14.1444761348
 21
46.0205834295
 31
0.0
  0
LINE
  5
42D
330
1F
100
AcDbEntity
  8
0
  6
Continuous
 62
     8
370
    25
100
AcDbLine
 10
-13.8918854535
 20
46.6849472684
 30
0.0
 11
-0.7113634535
 21
46.6849472684
 31
0.0
  0
LINE
  5
42E
330
1F
100
AcDbEntity
  8
0
  6
Continuous
 62
     8
370
    25
100
AcDbLine
 10
-0.7113634535
 20
49.304747946
 30
0.0
 11
-13.8918854535
 21
49.304747946
 31
0.0
  0
LINE
  5
42F
330
1F
100
AcDbEntity
  8
0
  6
Continuous
 62
     8
370
    25
100
AcDbLine
 10
39.8854507699
 20
19.1444491221
 30
0.0
 11
41.2886365465
 21
19.1444491221
 31
0.0
  0
LINE
  5
430
330
1F
100
AcDbEntity
  8
0
  6
Continuous
 62
     8
370
    25
100
AcDbLine
 10
-8.7113634535
 20
19.1444491221
 30
0.0
 11
39.8854507699
 21
19.1444491221
 31
0.0
  0
LINE
  5
431
330
1F
100
AcDbEntity
  8
0
  6
Continuous
 62
     8
370
    25
100
AcDbLine
 10
39.8854507699
 20
21.9245486237
 30
0.0
 11
-8.7113634535
 21
21.9245486237
 31
0.0
  0
LINE
  5
432
330
1F
100
AcDbEntity
  8
0
  6
Continuous
 62
     8
370
    25
100
AcDbLine
 10
41.2886365465
 20
21.9245486237
 30
0.0
 11
39.8854507699
 21
21.9245486237
 31
0.0
  0
LINE
  5
433
330
1F
100
AcDbEntity
  8
0
  6
Continuous
 62
     8
370
    25
100
AcDbLine
 10
40.4547700019
 20
18.158345844
 30
0.0
 11
-7.8774969089
 21
18.158345844
 31
0.0
  0
LINE
  5
434
330
1F
100
AcDbEntity
  8
0
  6
Continuous
 62
     8
370
    25
100
AcDbLine
 10
-8.4587727722
 20
22.5889124625
 30
0.0
 11
41.0360458652
 21
22.5889124625
 31
0.0
  0
LINE
  5
435
330
1F
100
AcDbEntity
  8
0
  6
Continuous
 62
     8
370
    25
100
AcDbLine
 10
32.5728836337
 20
31.0205834295
 30
0.0
 11
-0.9639541348
 21
31.0205834295
 31
0.0
  0
LINE
  5
436
330
1F
100
AcDbEntity
  8
0
  6
Continuous
 62
     8
370
    25
100
AcDbLine
 10
33.5412272278
 20
31.0205834295
 30
0.0
 11
32.5728836337
 21
31.0205834295
 31
0.0
  0
LINE
  5
437
330
1F
100
AcDbEntity
  8
0
  6
Continuous
 62
     8
370
    25
100
AcDbLine
 10
-0.7113634535
 20
31.6849472684
 30
0.0
 11
33.2886365465
 21
31.6849472684
 31
0.0
  0
LINE
  5
438
330
1F
100
AcDbEntity
  8
0
  6
Continuous
 62
     8
370
    25
100
AcDbLine
 10
33.2886365465
 20
34.304747946
 30
0.0
 11
-0.7113634535
 21
34.304747946
 31
0.0
  0
LINE
  5
439
330
1F
100
AcDbEntity
  8
0
  6
Continuous
 62
     8
370
    25
100
AcDbLine
 10
29.2668843694
 20
278.552602341
 30
0.0
 11
2.5386365465
 21
278.552602341
 31
0.0
  0
LINE
  5
43A
330
1F
100
AcDbEntity
  8
0
  6
Continuous
 62
     8
370
    25
100
AcDbLine
 10
30.0386365465
 20
278.552602341
 30
0.0
 11
29.2668843694
 21
278.552602341
 31
0.0
  0
LINE
  5
43B
330
1F
100
AcDbEntity
  8
0
  6
Continuous
 62
     8
370
    25
100
AcDbLine
 10
28.577623376
 20
279.515532153
 30
0.0
 11
29.3083886126
 21
279.515532153
 31
0.0
  0
LINE
  5
43C
330
1F
100
AcDbEntity
  8
0
  6
Continuous
 62
     8
370
    25
100
AcDbLine
 10
3.2688844804
 20
279.515532153
 30
0.0
 11
28.577623376
 21
279.515532153
 31
0.0
  0
LINE
  5
43D
330
1F
100
AcDbEntity
  8
0
  6
Continuous
 62
     8
370
    25
100
AcDbLine
 10
2.5386365465
 20
17.056893551
 30
0.0
 11
30.0386365465
 21
17.056893551
 31
0.0
  0
LINE
  5
43E
330
1F
100
AcDbEntity
  8
0
  6
Continuous
 62
     8
370
    25
100
AcDbLine
 10
29.3083886126
 20
16.093963739
 30
0.0
 11
3.2688844804
 21
16.093963739
 31
0.0
  0
LINE
  5
43F
330
1F
100
AcDbEntity
  8
0
  6
Continuous
 62
     8
370
    25
100
AcDbLine
 10
-10.6418854535
 20
32.056893551
 30
0.0
 11
-0.7113634535
 21
32.056893551
 31
0.0
  0
LINE
  5
440
330
1F
100
AcDbEntity
  8
0
  6
Continuous
 62
     8
370
    25
100
AcDbLine
 10
-0.9046798302
 20
31.093963739
 30
0.0
 11
-9.9116375196
 21
31.093963739
 31
0.0
  0
LINE
  5
441
330
1F
100
AcDbEntity
  8
0
  6
Continuous
 62
     8
370
    25
100
AcDbLine
 10
-0.7113634535
 20
263.552602341
 30
0.0
 11
-10.6418854535
 21
263.552602341
 31
0.0
  0
LINE
  5
442
330
1F
100
AcDbEntity
  8
0
  6
Continuous
 62
     8
370
    25
100
AcDbLine
 10
-9.9116375196
 20
264.515532153
 30
0.0
 11
-0.9046798302
 21
264.515532153
 31
0.0
  0
LINE
  5
443
330
1F
100
AcDbEntity
  8
0
  6
Continuous
 62
     8
370
    25
100
AcDbLine
 10
191.1437665056
 20
175.304747946
 30
0.0
 11
156.9050716967
 21
175.304747946
 31
0.0
  0
LINE
  5
444
330
1F
100
AcDbEntity
  8
0
  6
Continuous
 62
     8
370
    25
100
AcDbLine
 10
196.9050716967
 20
175.304747946
 30
0.0
 11
191.1437665056
 21
175.304747946
 31
0.0
  0
LINE
  5
445
330
1F
100
AcDbEntity
  8
0
  6
Continuous
 62
     8
370
    25
100
AcDbLine
 10
156.9050716967
 20
120.304747946
 30
0.0
 11
196.9050716967
 21
120.304747946
 31
0.0
  0
LINE
  5
446
330
1F
100
AcDbEntity
  8
0
  6
Continuous
 62
     8
370
    25
100
AcDbLine
 10
-100.7047866606
 20
172.4351392644
 30
0.0
 11
-128.1047866606
 21
172.4351392644
 31
0.0
  0
LINE
  5
447
330
1F
100
AcDbEntity
  8
0
  6
Continuous
 62
     8
370
    25
100
AcDbLine
 10
-101.0382364602
 20
172.972680882
 30
0.0
 11
-127.771336861
 21
172.972680882
 31
0.0
  0
LINE
  5
448
330
1F
100
AcDbEntity
  8
0
  6
Continuous
 62
     8
370
    25
100
AcDbLine
 10
-110.5039260239
 20
123.1743566276
 30
0.0
 11
-100.7047866606
 21
123.1743566276
 31
0.0
  0
LINE
  5
449
330
1F
100
AcDbEntity
  8
0
  6
Continuous
 62
     8
370
    25
100
AcDbLine
 10
-128.1047866606
 20
123.1743566276
 30
0.0
 11
-110.5039260239
 21
123.1743566276
 31
0.0
  0
LINE
  5
44A
330
1F
100
AcDbEntity
  8
0
  6
Continuous
 62
     8
370
    25
100
AcDbLine
 10
-110.5988706368
 20
122.63681501
 30
0.0
 11
-101.0382364602
 21
122.63681501
 31
0.0
  0
LINE
  5
44B
330
1F
100
AcDbEntity
  8
0
  6
Continuous
 62
     8
370
    25
100
AcDbLine
 10
-127.771336861
 20
122.63681501
 30
0.0
 11
-110.5988706368
 21
122.63681501
 31
0.0
  0
LINE
  5
44C
330
1F
100
AcDbEntity
  8
0
  6
Continuous
 62
     8
370
    25
100
AcDbLine
 10
163.2050716967
 20
105.1743566276
 30
0.0
 11
190.6050716967
 21
105.1743566276
 31
0.0
  0
LINE
  5
44D
330
1F
100
AcDbEntity
  8
0
  6
Continuous
 62
     8
370
    25
100
AcDbLine
 10
163.5385214963
 20
104.63681501
 30
0.0
 11
190.2716218971
 21
104.63681501
 31
0.0
  0
LINE
  5
44E
330
1F
100
AcDbEntity
  8
0
  6
Continuous
 62
     8
370
    25
100
AcDbLine
 10
186.6585776408
 20
190.4351392644
 30
0.0
 11
163.2050716967
 21
190.4351392644
 31
0.0
  0
LINE
  5
44F
330
1F
100
AcDbEntity
  8
0
  6
Continuous
 62
     8
370
    25
100
AcDbLine
 10
190.6050716967
 20
190.4351392644
 30
0.0
 11
186.6585776408
 21
190.4351392644
 31
0.0
  0
LINE
  5
450
330
1F
100
AcDbEntity
  8
0
  6
Continuous
 62
     8
370
    25
100
AcDbLine
 10
186.4211831443
 20
190.972680882
 30
0.0
 11
163.5385214963
 21
190.972680882
 31
0.0
  0
LINE
  5
451
330
1F
100
AcDbEntity
  8
0
  6
Continuous
 62
     8
370
    25
100
AcDbLine
 10
190.2716218971
 20
190.972680882
 30
0.0
 11
186.4211831443
 21
190.972680882
 31
0.0
  0
LINE
  5
452
330
1F
100
AcDbEntity
  8
0
  6
Continuous
 62
     8
370
    25
100
AcDbLine
 10
153.2390229439
 20
167.304747946
 30
0.0
 11
118.5071411884
 21
167.304747946
 31
0.0
  0
LINE
  5
453
330
1F
100
AcDbEntity
  8
0
  6
Continuous
 62
     8
370
    25
100
AcDbLine
 10
118.5071411884
 20
158.304747946
 30
0.0
 11
153.2390229439
 21
158.304747946
 31
0.0
  0
LINE
  5
454
330
1F
100
AcDbEntity
  8
0
  6
Continuous
 62
     8
370
    25
100
AcDbLine
 10
156.1435277323
 20
158.304747946
 30
0.0
 11
201.5456618168
 21
158.304747946
 31
0.0
  0
LINE
  5
455
330
1F
100
AcDbEntity
  8
0
  6
Continuous
 62
     8
370
    25
100
AcDbLine
 10
201.5456618168
 20
167.304747946
 30
0.0
 11
156.1435277323
 21
167.304747946
 31
0.0
  0
LINE
  5
456
330
1F
100
AcDbEntity
  8
0
  6
Continuous
 62
     8
370
    25
100
AcDbLine
 10
495.7235912189
 20
167.304747946
 30
0.0
 11
439.5796967161
 21
167.304747946
 31
0.0
  0
LINE
  5
457
330
1F
100
AcDbEntity
  8
0
  6
Continuous
 62
     8
370
    25
100
AcDbLine
 10
440.6682842297
 20
158.304747946
 30
0.0
 11
495.7235912189
 21
158.304747946
 31
0.0
  0
LINE
  5
458
330
1F
100
AcDbEntity
  8
0
  6
Continuous
 62
     8
370
    25
100
AcDbLine
 10
118.5071411884
 20
167.304747946
 30
0.0
 11
114.3619954018
 21
167.304747946
 31
0.0
  0
LINE
  5
459
330
1F
100
AcDbEntity
  8
0
  6
Continuous
 62
     8
370
    25
100
AcDbLine
 10
114.3619954018
 20
158.304747946
 30
0.0
 11
118.5071411884
 21
158.304747946
 31
0.0
  0
LINE
  5
45A
330
1F
100
AcDbEntity
  8
0
  6
Continuous
 62
     8
370
    25
100
AcDbLine
 10
93.9736048461
 20
158.304747946
 30
0.0
 11
114.3619954018
 21
158.304747946
 31
0.0
  0
LINE
  5
45B
330
1F
100
AcDbEntity
  8
0
  6
Continuous
 62
     8
370
    25
100
AcDbLine
 10
114.3619954018
 20
167.304747946
 30
0.0
 11
93.9736048461
 21
167.304747946
 31
0.0
  0
LINE
  5
45C
330
1F
100
AcDbEntity
  8
0
  6
Continuous
 62
     8
370
    25
100
AcDbLine
 10
93.2302552188
 20
158.304747946
 30
0.0
 11
93.9736048461
 21
158.304747946
 31
0.0
  0
LINE
  5
45D
330
1F
100
AcDbEntity
  8
0
  6
Continuous
 62
     8
370
    25
100
AcDbLine
 10
93.9736048461
 20
167.304747946
 30
0.0
 11
93.2302552188
 21
167.304747946
 31
0.0
  0
LINE
  5
45E
330
1F
100
AcDbEntity
  8
0
  6
Continuous
 62
     8
370
    25
100
AcDbLine
 10
93.2302552188
 20
167.304747946
 30
0.0
 11
83.0902509054
 21
167.304747946
 31
0.0
  0
LINE
  5
45F
330
1F
100
AcDbEntity
  8
0
  6
Continuous
 62
     8
370
    25
100
AcDbLine
 10
83.0902509054
 20
158.304747946
 30
0.0
 11
93.2302552188
 21
158.304747946
 31
0.0
  0
LINE
  5
460
330
1F
100
AcDbEntity
  8
0
  6
Continuous
 62
     8
370
    25
100
AcDbLine
 10
118.5071411884
 20
128.304747946
 30
0.0
 11
153.2390229439
 21
128.304747946
 31
0.0
  0
LINE
  5
461
330
1F
100
AcDbEntity
  8
0
  6
Continuous
 62
     8
370
    25
100
AcDbLine
 10
153.2390229439
 20
137.304747946
 30
0.0
 11
118.5071411884
 21
137.304747946
 31
0.0
  0
LINE
  5
462
330
1F
100
AcDbEntity
  8
0
  6
Continuous
 62
     8
370
    25
100
AcDbLine
 10
156.1435277323
 20
128.304747946
 30
0.0
 11
201.5456618168
 21
128.304747946
 31
0.0
  0
LINE
  5
463
330
1F
100
AcDbEntity
  8
0
  6
Continuous
 62
     8
370
    25
100
AcDbLine
 10
201.5456618168
 20
137.304747946
 30
0.0
 11
156.1435277323
 21
137.304747946
 31
0.0
  0
LINE
  5
464
330
1F
100
AcDbEntity
  8
0
  6
Continuous
 62
     8
370
    25
100
AcDbLine
 10
495.7235912189
 20
137.304747946
 30
0.0
 11
440.6682842546
 21
137.304747946
 31
0.0
  0
LINE
  5
465
330
1F
100
AcDbEntity
  8
0
  6
Continuous
 62
     8
370
    25
100
AcDbLine
 10
439.5796967626
 20
128.304747946
 30
0.0
 11
495.7235912189
 21
128.304747946
 31
0.0
  0
LINE
  5
466
330
1F
100
AcDbEntity
  8
0
  6
Continuous
 62
     8
370
    25
100
AcDbLine
 10
118.5071411884
 20
137.304747946
 30
0.0
 11
114.3619954018
 21
137.304747946
 31
0.0
  0
LINE
  5
467
330
1F
100
AcDbEntity
  8
0
  6
Continuous
 62
     8
370
    25
100
AcDbLine
 10
114.3619954018
 20
128.304747946
 30
0.0
 11
118.5071411884
 21
128.304747946
 31
0.0
  0
LINE
  5
468
330
1F
100
AcDbEntity
  8
0
  6
Continuous
 62
     8
370
    25
100
AcDbLine
 10
93.9736048461
 20
128.304747946
 30
0.0
 11
114.3619954018
 21
128.304747946
 31
0.0
  0
LINE
  5
469
330
1F
100
AcDbEntity
  8
0
  6
Continuous
 62
     8
370
    25
100
AcDbLine
 10
114.3619954018
 20
137.304747946
 30
0.0
 11
93.9736048461
 21
137.304747946
 31
0.0
  0
LINE
  5
46A
330
1F
100
AcDbEntity
  8
0
  6
Continuous
 62
     8
370
    25
100
AcDbLine
 10
93.2302552188
 20
128.304747946
 30
0.0
 11
93.9736048461
 21
128.304747946
 31
0.0
  0
LINE
  5
46B
330
1F
100
AcDbEntity
  8
0
  6
Continuous
 62
     8
370
    25
100
AcDbLine
 10
93.9736048461
 20
137.304747946
 30
0.0
 11
93.2302552188
 21
137.304747946
 31
0.0
  0
LINE
  5
46C
330
1F
100
AcDbEntity
  8
0
  6
Continuous
 62
     8
370
    25
100
AcDbLine
 10
83.0902509054
 20
128.304747946
 30
0.0
 11
93.2302552188
 21
128.304747946
 31
0.0
  0
LINE
  5
46D
330
1F
100
AcDbEntity
  8
0
  6
Continuous
 62
     8
370
    25
100
AcDbLine
 10
93.2302552188
 20
137.304747946
 30
0.0
 11
83.0902509054
 21
137.304747946
 31
0.0
  0
LINE
  5
46E
330
1F
100
AcDbEntity
  8
0
  6
Continuous
 62
     8
370
    25
100
AcDbLine
 10
442.3322363316
 20
152.304747946
 30
0.0
 11
441.0290386818
 21
152.304747946
 31
0.0
  0
LINE
  5
46F
330
1F
100
AcDbEntity
  8
0
  6
Continuous
 62
     8
370
    25
100
AcDbLine
 10
441.0290386924
 20
143.304747946
 30
0.0
 11
442.3322363316
 21
143.304747946
 31
0.0
  0
LINE
  5
470
330
1F
100
AcDbEntity
  8
0
  6
Continuous
 62
     8
370
    25
100
AcDbLine
 10
641.1196071447
 20
152.304747946
 30
0.0
 11
618.4191648847
 21
152.304747946
 31
0.0
  0
LINE
  5
471
330
1F
100
AcDbEntity
  8
0
  6
Continuous
 62
     8
370
    25
100
AcDbLine
 10
618.4191648847
 20
143.304747946
 30
0.0
 11
641.1196071447
 21
143.304747946
 31
0.0
  0
LINE
  5
472
330
1F
100
AcDbEntity
  8
0
  6
Continuous
 62
     8
370
    25
100
AcDbLine
 10
-136.9983929288
 20
143.294747946
 30
0.0
 11
-108.7251076415
 21
143.294747946
 31
0.0
  0
LINE
  5
473
330
1F
100
AcDbEntity
  8
0
  6
Continuous
 62
     8
370
    25
100
AcDbLine
 10
-108.7251076415
 20
152.314747946
 30
0.0
 11
-136.9983929288
 21
152.314747946
 31
0.0
  0
LINE
  5
474
330
1F
100
AcDbEntity
  8
0
  6
Continuous
 62
     8
370
    25
100
AcDbLine
 10
83.6680864825
 20
143.294747946
 30
0.0
 11
98.666248376
 21
143.294747946
 31
0.0
  0
LINE
  5
475
330
1F
100
AcDbEntity
  8
0
  6
Continuous
 62
     8
370
    25
100
AcDbLine
 10
98.666248376
 20
152.314747946
 30
0.0
 11
83.6680864825
 21
152.314747946
 31
0.0
  0
LINE
  5
476
330
1F
100
AcDbEntity
  8
0
  6
Continuous
 62
     8
370
    25
100
AcDbLine
 10
-140.4584639983
 20
143.294747946
 30
0.0
 11
-136.9983929288
 21
143.294747946
 31
0.0
  0
LINE
  5
477
330
1F
100
AcDbEntity
  8
0
  6
Continuous
 62
     8
370
    25
100
AcDbLine
 10
-136.9983929288
 20
152.314747946
 30
0.0
 11
-140.4584639983
 21
152.314747946
 31
0.0
  0
LINE
  5
478
330
1F
100
AcDbEntity
  8
0
  6
Continuous
 62
     8
370
    25
100
AcDbLine
 10
98.666248376
 20
143.294747946
 30
0.0
 11
101.4851586427
 21
143.294747946
 31
0.0
  0
LINE
  5
479
330
1F
100
AcDbEntity
  8
0
  6
Continuous
 62
     8
370
    25
100
AcDbLine
 10
101.4851586427
 20
152.314747946
 30
0.0
 11
98.666248376
 21
152.314747946
 31
0.0
  0
LINE
  5
47A
330
1F
100
AcDbEntity
  8
0
  6
Continuous
 62
     8
370
    25
100
AcDbLine
 10
101.4851586427
 20
143.294747946
 30
0.0
 11
119.6533357265
 21
143.294747946
 31
0.0
  0
LINE
  5
47B
330
1F
100
AcDbEntity
  8
0
  6
Continuous
 62
     8
370
    25
100
AcDbLine
 10
119.6533357265
 20
152.314747946
 30
0.0
 11
101.4851586427
 21
152.314747946
 31
0.0
  0
LINE
  5
47C
330
1F
100
AcDbEntity
  8
0
  6
Continuous
 62
     8
370
    25
100
AcDbLine
 10
-190.7954082512
 20
143.294747946
 30
0.0
 11
-169.4764043659
 21
143.294747946
 31
0.0
  0
LINE
  5
47D
330
1F
100
AcDbEntity
  8
0
  6
Continuous
 62
     8
370
    25
100
AcDbLine
 10
-169.4764043659
 20
152.314747946
 30
0.0
 11
-190.7954082512
 21
152.314747946
 31
0.0
  0
LINE
  5
47E
330
1F
100
AcDbEntity
  8
0
  6
Continuous
 62
     8
370
    25
100
AcDbLine
 10
121.9653397478
 20
152.314747946
 30
0.0
 11
119.6533357265
 21
152.314747946
 31
0.0
  0
LINE
  5
47F
330
1F
100
AcDbEntity
  8
0
  6
Continuous
 62
     8
370
    25
100
AcDbLine
 10
119.6533357265
 20
143.294747946
 30
0.0
 11
121.9653397478
 21
143.294747946
 31
0.0
  0
LINE
  5
480
330
1F
100
AcDbEntity
  8
0
  6
Continuous
 62
     8
370
    25
100
AcDbLine
 10
121.9653397478
 20
143.294747946
 30
0.0
 11
139.4212302818
 21
143.294747946
 31
0.0
  0
LINE
  5
481
330
1F
100
AcDbEntity
  8
0
  6
Continuous
 62
     8
370
    25
100
AcDbLine
 10
139.4212302818
 20
152.314747946
 30
0.0
 11
121.9653397478
 21
152.314747946
 31
0.0
  0
LINE
  5
482
330
1F
100
AcDbEntity
  8
0
  6
Continuous
 62
     8
370
    25
100
AcDbLine
 10
140.7115998307
 20
152.314747946
 30
0.0
 11
139.4212302818
 21
152.314747946
 31
0.0
  0
LINE
  5
483
330
1F
100
AcDbEntity
  8
0
  6
Continuous
 62
     8
370
    25
100
AcDbLine
 10
139.4212302818
 20
143.294747946
 30
0.0
 11
140.7115998307
 21
143.294747946
 31
0.0
  0
LINE
  5
484
330
1F
100
AcDbEntity
  8
0
  6
Continuous
 62
     8
370
    25
100
AcDbLine
 10
151.7411612407
 20
152.314747946
 30
0.0
 11
140.7115998307
 21
152.314747946
 31
0.0
  0
LINE
  5
485
330
1F
100
AcDbEntity
  8
0
  6
Continuous
 62
     8
370
    25
100
AcDbLine
 10
140.7115998307
 20
143.294747946
 30
0.0
 11
151.7411612407
 21
143.294747946
 31
0.0
  0
LINE
  5
486
330
1F
100
AcDbEntity
  8
0
  6
Continuous
 62
     8
370
    25
100
AcDbLine
 10
-190.7954082512
 20
152.314747946
 30
0.0
 11
-193.001868818
 21
152.314747946
 31
0.0
  0
LINE
  5
487
330
1F
100
AcDbEntity
  8
0
  6
Continuous
 62
     8
370
    25
100
AcDbLine
 10
-193.001868818
 20
143.294747946
 30
0.0
 11
-190.7954082512
 21
143.294747946
 31
0.0
  0
LINE
  5
488
330
1F
100
AcDbEntity
  8
0
  6
Continuous
 62
     8
370
    25
100
AcDbLine
 10
-193.001868818
 20
152.314747946
 30
0.0
 11
-215.9388442275
 21
152.314747946
 31
0.0
  0
LINE
  5
489
330
1F
100
AcDbEntity
  8
0
  6
Continuous
 62
     8
370
    25
100
AcDbLine
 10
-215.9388442275
 20
143.294747946
 30
0.0
 11
-193.001868818
 21
143.294747946
 31
0.0
  0
LINE
  5
48A
330
1F
100
AcDbEntity
  8
0
  6
Continuous
 62
     8
370
    25
100
AcDbLine
 10
153.641501759
 20
152.314747946
 30
0.0
 11
151.7411612407
 21
152.314747946
 31
0.0
  0
LINE
  5
48B
330
1F
100
AcDbEntity
  8
0
  6
Continuous
 62
     8
370
    25
100
AcDbLine
 10
151.7411612407
 20
143.294747946
 30
0.0
 11
153.641501759
 21
143.294747946
 31
0.0
  0
LINE
  5
48C
330
1F
100
AcDbEntity
  8
0
  6
Continuous
 62
     8
370
    25
100
AcDbLine
 10
153.641501759
 20
143.294747946
 30
0.0
 11
164.4738242127
 21
143.294747946
 31
0.0
  0
LINE
  5
48D
330
1F
100
AcDbEntity
  8
0
  6
Continuous
 62
     8
370
    25
100
AcDbLine
 10
164.4738242127
 20
152.314747946
 30
0.0
 11
153.641501759
 21
152.314747946
 31
0.0
  0
LINE
  5
48E
330
1F
100
AcDbEntity
  8
0
  6
Continuous
 62
     8
370
    25
100
AcDbLine
 10
164.4738242127
 20
143.294747946
 30
0.0
 11
166.0047457334
 21
143.294747946
 31
0.0
  0
LINE
  5
48F
330
1F
100
AcDbEntity
  8
0
  6
Continuous
 62
     8
370
    25
100
AcDbLine
 10
166.0047457334
 20
152.314747946
 30
0.0
 11
164.4738242127
 21
152.314747946
 31
0.0
  0
LINE
  5
490
330
1F
100
AcDbEntity
  8
0
  6
Continuous
 62
     8
370
    25
100
AcDbLine
 10
166.0047457334
 20
143.294747946
 30
0.0
 11
179.0299795046
 21
143.294747946
 31
0.0
  0
LINE
  5
491
330
1F
100
AcDbEntity
  8
0
  6
Continuous
 62
     8
370
    25
100
AcDbLine
 10
179.0299795046
 20
152.314747946
 30
0.0
 11
166.0047457334
 21
152.314747946
 31
0.0
  0
LWPOLYLINE
  5
492
330
1F
100
AcDbEntity
  8
0
  6
Continuous
 62
     8
370
    25
100
AcDbPolyline
 90
        7
 70
   128
 43
0.0
 10
177.4711663022
 20
140.304747946
 10
177.5938342126
 20
140.3351818348
 10
177.7140049581
 20
140.4258639549
 10
177.8292322089
 20
140.5749482799
 10
177.9371702704
 20
140.7793998829
 10
178.0356218349
 20
141.0350567187
 10
178.0508548955
 20
141.0819487771
  0
LWPOLYLINE
  5
493
330
1F
100
AcDbEntity
  8
0
  6
Continuous
 62
     8
370
    25
100
AcDbPolyline
 90
        7
 70
   128
 43
0.0
 10
178.0508551913
 20
154.5275468461
 10
178.0356220445
 20
154.5744391733
 10
177.9371704653
 20
154.8300960092
 10
177.8292323748
 20
155.0345476121
 10
177.7140050812
 20
155.1836319371
 10
177.59383428
 20
155.2743140572
 10
177.4711663022
 20
155.304747946
  0
LINE
  5
494
330
1F
100
AcDbEntity
  8
0
  6
Continuous
 62
     8
370
    25
100
AcDbLine
 10
188.8998387128
 20
152.314747946
 30
0.0
 11
179.0299795046
 21
152.314747946
 31
0.0
  0
LINE
  5
495
330
1F
100
AcDbEntity
  8
0
  6
Continuous
 62
     8
370
    25
100
AcDbLine
 10
179.0299795046
 20
143.294747946
 30
0.0
 11
188.8998387128
 21
143.294747946
 31
0.0
  0
LINE
  5
496
330
1F
100
AcDbEntity
  8
0
  6
Continuous
 62
     8
370
    25
100
AcDbLine
 10
197.0752442879
 20
152.314747946
 30
0.0
 11
188.8998387128
 21
152.314747946
 31
0.0
  0
LINE
  5
497
330
1F
100
AcDbEntity
  8
0
  6
Continuous
 62
     8
370
    25
100
AcDbLine
 10
188.8998387128
 20
143.294747946
 30
0.0
 11
197.0752442879
 21
143.294747946
 31
0.0
  0
LINE
  5
498
330
1F
100
AcDbEntity
  8
0
  6
Continuous
 62
     8
370
    25
100
AcDbLine
 10
197.0752442879
 20
143.294747946
 30
0.0
 11
201.5456618168
 21
143.294747946
 31
0.0
  0
LINE
  5
499
330
1F
100
AcDbEntity
  8
0
  6
Continuous
 62
     8
370
    25
100
AcDbLine
 10
201.5456618168
 20
152.314747946
 30
0.0
 11
197.0752442879
 21
152.314747946
 31
0.0
  0
LINE
  5
49A
330
1F
100
AcDbEntity
  8
0
  6
Continuous
 62
     8
370
    25
100
AcDbLine
 10
-215.9388442275
 20
152.314747946
 30
0.0
 11
-219.0603038924
 21
152.314747946
 31
0.0
  0
LINE
  5
49B
330
1F
100
AcDbEntity
  8
0
  6
Continuous
 62
     8
370
    25
100
AcDbLine
 10
-219.0603038924
 20
143.294747946
 30
0.0
 11
-215.9388442275
 21
143.294747946
 31
0.0
  0
LINE
  5
49C
330
1F
100
AcDbEntity
  8
0
  6
Continuous
 62
     8
370
    25
100
AcDbLine
 10
-227.4933893392
 20
143.294747946
 30
0.0
 11
-227.1484349849
 21
143.294747946
 31
0.0
  0
LINE
  5
49D
330
1F
100
AcDbEntity
  8
0
  6
Continuous
 62
     8
370
    25
100
AcDbLine
 10
-227.1484349849
 20
152.314747946
 30
0.0
 11
-227.4933893392
 21
152.314747946
 31
0.0
  0
LINE
  5
49E
330
1F
100
AcDbEntity
  8
0
  6
Continuous
 62
     8
370
    25
100
AcDbLine
 10
-227.4933893392
 20
152.314747946
 30
0.0
 11
-234.5939806446
 21
152.314747946
 31
0.0
  0
LINE
  5
49F
330
1F
100
AcDbEntity
  8
0
  6
Continuous
 62
     8
370
    25
100
AcDbLine
 10
-234.5939806446
 20
143.294747946
 30
0.0
 11
-227.4933893392
 21
143.294747946
 31
0.0
  0
ENDSEC
  0
SECTION
  2
OBJECTS
  0
DICTIONARY
  5
C
330
0
100
AcDbDictionary
281
     1
  3
ACAD_GROUP
350
D
  3
ACAD_LAYOUT
350
1A
  3
ACAD_MLINESTYLE
350
17
  3
ACAD_PLOTSETTINGS
350
19
  3
ACAD_PLOTSTYLENAME
350
E
  3
ACAD_SCALELIST
350
47
  3
DWGPROPS
350
4A0
  0
DICTIONARY
  5
D
102
{ACAD_REACTORS
330
C
102
}
330
C
100
AcDbDictionary
281
     1
  0
DICTIONARY
  5
1A
102
{ACAD_REACTORS
330
C
102
}
330
C
100
AcDbDictionary
281
     1
  3
Layout1
350
1E
  3
Layout2
350
26
  3
Model
350
22
  0
DICTIONARY
  5
17
102
{ACAD_REACTORS
330
C
102
}
330
C
100
AcDbDictionary
281
     1
  3
Standard
350
18
  0
DICTIONARY
  5
19
102
{ACAD_REACTORS
330
C
102
}
330
C
100
AcDbDictionary
281
     1
  0
ACDBDICTIONARYWDFLT
  5
E
102
{ACAD_REACTORS
330
C
102
}
330
C
100
AcDbDictionary
281
     1
  3
Normal
350
F
100
AcDbDictionaryWithDefault
340
F
  0
DICTIONARY
  5
47
102
{ACAD_REACTORS
330
C
102
}
330
C
100
AcDbDictionary
281
     1
  3
A0
350
48
  3
A1
350
49
  3
A2
350
4A
  3
A3
350
4B
  3
A4
350
4C
  3
A5
350
4D
  3
A6
350
4E
  3
A7
350
4F
  3
A8
350
50
  3
A9
350
51
  3
B0
350
52
  3
B1
350
53
  3
B2
350
54
  3
B3
350
55
  3
B4
350
56
  3
B5
350
57
  3
B6
350
58
  3
B7
350
59
  3
B8
350
5A
  3
B9
350
5B
  3
C0
350
5C
  3
C1
350
5D
  3
C2
350
5E
  3
C3
350
5F
  3
C4
350
60
  3
C5
350
61
  3
C6
350
62
  3
C7
350
63
  3
C8
350
64
  3
C9
350
65
  3
D0
350
66
  3
D1
350
67
  3
D2
350
68
  0
XRECORD
  5
4A0
102
{ACAD_REACTORS
330
C
102
}
330
C
100
AcDbXrecord
280
     1
  1
DWGPROPS COOKIE
  2

  3

  4

  6

  7

  8
Swing
  9

300
=
301
=
302
=
303
=
304
=
305
=
306
=
307
=
308
=
309
=
 40
0.0
 41
2459537.295360787
 42
2459537.295361076
  1

 90
        0
  0
LAYOUT
  5
1E
102
{ACAD_REACTORS
330
1A
102
}
330
1A
100
AcDbPlotSettings
  1

  2
none_device
  4

  6

 40
0.0
 41
0.0
 42
0.0
 43
0.0
 44
0.0
 45
0.0
 46
0.0
 47
0.0
 48
0.0
 49
0.0
140
0.0
141
0.0
142
1.0
143
1.0
 70
   688
 72
     1
 73
     0
 74
     5
  7

 75
    16
147
1.0
148
0.0
149
0.0
100
AcDbLayout
  1
Layout1
 70
     1
 71
     1
 10
0.0
 20
0.0
 11
420.0
 21
297.0
 12
0.0
 22
0.0
 32
0.0
 14
1.0000000000E+20
 24
1.0000000000E+20
 34
1.0000000000E+20
 15
-1.0000000000E+20
 25
-1.0000000000E+20
 35
-1.0000000000E+20
146
0.0
 13
0.0
 23
0.0
 33
0.0
 16
1.0
 26
0.0
 36
0.0
 17
0.0
 27
1.0
 37
0.0
 76
     0
330
1B
  0
LAYOUT
  5
26
102
{ACAD_REACTORS
330
1A
102
}
330
1A
100
AcDbPlotSettings
  1

  2
none_device
  4

  6

 40
0.0
 41
0.0
 42
0.0
 43
0.0
 44
0.0
 45
0.0
 46
0.0
 47
0.0
 48
0.0
 49
0.0
140
0.0
141
0.0
142
1.0
143
1.0
 70
   688
 72
     1
 73
     0
 74
     5
  7

 75
    16
147
1.0
148
0.0
149
0.0
100
AcDbLayout
  1
Layout2
 70
     1
 71
     2
 10
0.0
 20
0.0
 11
0.0
 21
0.0
 12
0.0
 22
0.0
 32
0.0
 14
0.0
 24
0.0
 34
0.0
 15
0.0
 25
0.0
 35
0.0
146
0.0
 13
0.0
 23
0.0
 33
0.0
 16
1.0
 26
0.0
 36
0.0
 17
0.0
 27
1.0
 37
0.0
 76
     0
330
23
  0
LAYOUT
  5
22
102
{ACAD_REACTORS
330
1A
102
}
330
1A
100
AcDbPlotSettings
  1

  2
none_device
  4
Letter_(8.50_x_11.00_Inches)
  6

 40
6.35
 41
6.35
 42
6.35000508
 43
6.35000508
 44
215.9
 45
279.4
 46
0.0
 47
0.0
 48
0.0
 49
0.0
140
0.0
141
0.0
142
1.0
143
1.0
 70
  1712
 72
     1
 73
     0
 74
     0
  7

 75
     0
147
1.0
148
0.0
149
0.0
100
AcDbLayout
  1
Model
 70
     1
 71
     0
 10
0.0
 20
0.0
 11
431.8
 21
279.4
 12
0.0
 22
0.0
 32
0.0
 14
0.0
 24
0.0
 34
0.0
 15
431.8
 25
279.4
 35
0.0
146
0.0
 13
0.0
 23
0.0
 33
0.0
 16
1.0
 26
0.0
 36
0.0
 17
0.0
 27
1.0
 37
0.0
 76
     0
330
1F
331
29
  0
MLINESTYLE
  5
18
102
{ACAD_REACTORS
330
17
102
}
330
17
100
AcDbMlineStyle
  2
Standard
 70
     0
  3

 62
   256
 51
90.0
 52
90.0
 71
     2
 49
0.5
 62
   256
  6
BYLAYER
 49
-0.5
 62
   256
  6
BYLAYER
  0
ACDBPLACEHOLDER
  5
F
102
{ACAD_REACTORS
330
E
102
}
330
E
  0
SCALE
  5
48
102
{ACAD_REACTORS
330
47
102
}
330
47
100
AcDbScale
 70
     0
300
1:1
140
1.0
141
1.0
290
     1
  0
SCALE
  5
49
102
{ACAD_REACTORS
330
47
102
}
330
47
100
AcDbScale
 70
     0
300
1:2
140
1.0
141
2.0
290
     0
  0
SCALE
  5
4A
102
{ACAD_REACTORS
330
47
102
}
330
47
100
AcDbScale
 70
     0
300
1:4
140
1.0
141
4.0
290
     0
  0
SCALE
  5
4B
102
{ACAD_REACTORS
330
47
102
}
330
47
100
AcDbScale
 70
     0
300
1:5
140
1.0
141
5.0
290
     0
  0
SCALE
  5
4C
102
{ACAD_REACTORS
330
47
102
}
330
47
100
AcDbScale
 70
     0
300
1:8
140
1.0
141
8.0
290
     0
  0
SCALE
  5
4D
102
{ACAD_REACTORS
330
47
102
}
330
47
100
AcDbScale
 70
     0
300
1:10
140
1.0
141
10.0
290
     0
  0
SCALE
  5
4E
102
{ACAD_REACTORS
330
47
102
}
330
47
100
AcDbScale
 70
     0
300
1:16
140
1.0
141
16.0
290
     0
  0
SCALE
  5
4F
102
{ACAD_REACTORS
330
47
102
}
330
47
100
AcDbScale
 70
     0
300
1:20
140
1.0
141
20.0
290
     0
  0
SCALE
  5
50
102
{ACAD_REACTORS
330
47
102
}
330
47
100
AcDbScale
 70
     0
300
1:30
140
1.0
141
30.0
290
     0
  0
SCALE
  5
51
102
{ACAD_REACTORS
330
47
102
}
330
47
100
AcDbScale
 70
     0
300
1:40
140
1.0
141
40.0
290
     0
  0
SCALE
  5
52
102
{ACAD_REACTORS
330
47
102
}
330
47
100
AcDbScale
 70
     0
300
1:50
140
1.0
141
50.0
290
     0
  0
SCALE
  5
53
102
{ACAD_REACTORS
330
47
102
}
330
47
100
AcDbScale
 70
     0
300
1:100
140
1.0
141
100.0
290
     0
  0
SCALE
  5
54
102
{ACAD_REACTORS
330
47
102
}
330
47
100
AcDbScale
 70
     0
300
2:1
140
2.0
141
1.0
290
     0
  0
SCALE
  5
55
102
{ACAD_REACTORS
330
47
102
}
330
47
100
AcDbScale
 70
     0
300
4:1
140
4.0
141
1.0
290
     0
  0
SCALE
  5
56
102
{ACAD_REACTORS
330
47
102
}
330
47
100
AcDbScale
 70
     0
300
8:1
140
8.0
141
1.0
290
     0
  0
SCALE
  5
57
102
{ACAD_REACTORS
330
47
102
}
330
47
100
AcDbScale
 70
     0
300
10:1
140
10.0
141
1.0
290
     0
  0
SCALE
  5
58
102
{ACAD_REACTORS
330
47
102
}
330
47
100
AcDbScale
 70
     0
300
100:1
140
100.0
141
1.0
290
     0
  0
SCALE
  5
59
102
{ACAD_REACTORS
330
47
102
}
330
47
100
AcDbScale
 70
     0
300
1/128" = 1'-0"
140
0.0078125
141
12.0
290
     0
  0
SCALE
  5
5A
102
{ACAD_REACTORS
330
47
102
}
330
47
100
AcDbScale
 70
     0
300
1/64" = 1'-0"
140
0.015625
141
12.0
290
     0
  0
SCALE
  5
5B
102
{ACAD_REACTORS
330
47
102
}
330
47
100
AcDbScale
 70
     0
300
1/32" = 1'-0"
140
0.03125
141
12.0
290
     0
  0
SCALE
  5
5C
102
{ACAD_REACTORS
330
47
102
}
330
47
100
AcDbScale
 70
     0
300
1/16" = 1'-0"
140
0.0625
141
12.0
290
     0
  0
SCALE
  5
5D
102
{ACAD_REACTORS
330
47
102
}
330
47
100
AcDbScale
 70
     0
300
3/32" = 1'-0"
140
0.09375
141
12.0
290
     0
  0
SCALE
  5
5E
102
{ACAD_REACTORS
330
47
102
}
330
47
100
AcDbScale
 70
     0
300
1/8" = 1'-0"
140
0.125
141
12.0
290
     0
  0
SCALE
  5
5F
102
{ACAD_REACTORS
330
47
102
}
330
47
100
AcDbScale
 70
     0
300
3/16" = 1'-0"
140
0.1875
141
12.0
290
     0
  0
SCALE
  5
60
102
{ACAD_REACTORS
330
47
102
}
330
47
100
AcDbScale
 70
     0
300
1/4" = 1'-0"
140
0.25
141
12.0
290
     0
  0
SCALE
  5
61
102
{ACAD_REACTORS
330
47
102
}
330
47
100
AcDbScale
 70
     0
300
3/8" = 1'-0"
140
0.375
141
12.0
290
     0
  0
SCALE
  5
62
102
{ACAD_REACTORS
330
47
102
}
330
47
100
AcDbScale
 70
     0
300
1/2" = 1'-0"
140
0.5
141
12.0
290
     0
  0
SCALE
  5
63
102
{ACAD_REACTORS
330
47
102
}
330
47
100
AcDbScale
 70
     0
300
3/4" = 1'-0"
140
0.75
141
12.0
290
     0
  0
SCALE
  5
64
102
{ACAD_REACTORS
330
47
102
}
330
47
100
AcDbScale
 70
     0
300
1" = 1'-0"
140
1.0
141
12.0
290
     0
  0
SCALE
  5
65
102
{ACAD_REACTORS
330
47
102
}
330
47
100
AcDbScale
 70
     0
300
1-1/2" = 1'-0"
140
1.5
141
12.0
290
     0
  0
SCALE
  5
66
102
{ACAD_REACTORS
330
47
102
}
330
47
100
AcDbScale
 70
     0
300
3" = 1'-0"
140
3.0
141
12.0
290
     0
  0
SCALE
  5
67
102
{ACAD_REACTORS
330
47
102
}
330
47
100
AcDbScale
 70
     0
300
6" = 1'-0"
140
6.0
141
12.0
290
     0
  0
SCALE
  5
68
102
{ACAD_REACTORS
330
47
102
}
330
47
100
AcDbScale
 70
     0
300
1'-0" = 1'-0"
140
12.0
141
12.0
290
     0
  0
ENDSEC
  0
EOF
