  0
SECTION
  2
HEADER
  9
$ACADVER
  1
AC1015
  9
$ACADMAINTVER
 70
     6
  9
$DWGCODEPAGE
  3
ANSI_1250
  9
$INSBASE
 10
0.0
 20
0.0
 30
0.0
  9
$EXTMIN
 10
0.0
 20
0.0
 30
0.0
  9
$EXTMAX
 10
431.8
 20
279.4
 30
0.0
  9
$LIMMIN
 10
0.0
 20
0.0
  9
$LIMMAX
 10
431.8
 20
279.4
  9
$ORTHOMODE
 70
     0
  9
$REGENMODE
 70
     1
  9
$FILLMODE
 70
     1
  9
$QTEXTMODE
 70
     0
  9
$MIRRTEXT
 70
     1
  9
$LTSCALE
 40
1.0
  9
$ATTMODE
 70
     1
  9
$TEXTSIZE
 40
3.8805555556
  9
$TRACEWID
 40
1.0
  9
$TEXTSTYLE
  7
Standard
  9
$CLAYER
  8
0
  9
$CELTYPE
  6
ByLayer
  9
$CECOLOR
 62
   256
  9
$CELTSCALE
 40
1.0
  9
$DISPSILH
 70
     0
  9
$DIMSCALE
 40
1.0
  9
$DIMASZ
 40
3.302
  9
$DIMEXO
 40
1.0
  9
$DIMDLI
 40
3.75
  9
$DIMRND
 40
0.0
  9
$DIMDLE
 40
0.0
  9
$DIMEXE
 40
1.0
  9
$DIMTP
 40
0.0
  9
$DIMTM
 40
0.0
  9
$DIMTXT
 40
3.8805555556
  9
$DIMCEN
 40
2.5
  9
$DIMTSZ
 40
0.0
  9
$DIMTOL
 70
     0
  9
$DIMLIM
 70
     0
  9
$DIMTIH
 70
     1
  9
$DIMTOH
 70
     1
  9
$DIMSE1
 70
     0
  9
$DIMSE2
 70
     0
  9
$DIMTAD
 70
     1
  9
$DIMZIN
 70
     0
  9
$DIMBLK
  1

  9
$DIMASO
 70
     1
  9
$DIMSHO
 70
     1
  9
$DIMPOST
  1

  9
$DIMAPOST
  1

  9
$DIMALT
 70
     0
  9
$DIMALTD
 70
     3
  9
$DIMALTF
 40
0.0393700787
  9
$DIMLFAC
 40
1.0
  9
$DIMTOFL
 70
     1
  9
$DIMTVP
 40
0.0
  9
$DIMTIX
 70
     0
  9
$DIMSOXD
 70
     0
  9
$DIMSAH
 70
     0
  9
$DIMBLK1
  1

  9
$DIMBLK2
  1

  9
$DIMSTYLE
  2
ISO-25
  9
$DIMCLRD
 70
     0
  9
$DIMCLRE
 70
     0
  9
$DIMCLRT
 70
     0
  9
$DIMTFAC
 40
1.0
  9
$DIMGAP
 40
1.524
  9
$DIMJUST
 70
     0
  9
$DIMSD1
 70
     0
  9
$DIMSD2
 70
     0
  9
$DIMTOLJ
 70
     0
  9
$DIMTZIN
 70
     0
  9
$DIMALTZ
 70
     0
  9
$DIMALTTZ
 70
     0
  9
$DIMUPT
 70
     0
  9
$DIMDEC
 70
     1
  9
$DIMTDEC
 70
     1
  9
$DIMALTU
 70
     2
  9
$DIMALTTD
 70
     3
  9
$DIMTXSTY
  7
Standard
  9
$DIMAUNIT
 70
     0
  9
$DIMADEC
 70
     1
  9
$DIMALTRND
 40
0.0
  9
$DIMAZIN
 70
     0
  9
$DIMDSEP
 70
    44
  9
$DIMATFIT
 70
     3
  9
$DIMFRAC
 70
     0
  9
$DIMLDRBLK
  1

  9
$DIMLUNIT
 70
     2
  9
$DIMLWD
 70
    -2
  9
$DIMLWE
 70
    -2
  9
$DIMTMOVE
 70
     0
  9
$LUNITS
 70
     2
  9
$LUPREC
 70
     1
  9
$SKETCHINC
 40
1.0
  9
$FILLETRAD
 40
10.0
  9
$AUNITS
 70
     0
  9
$AUPREC
 70
     1
  9
$MENU
  1
.
  9
$ELEVATION
 40
0.0
  9
$PELEVATION
 40
0.0
  9
$THICKNESS
 40
0.0
  9
$LIMCHECK
 70
     0
  9
$CHAMFERA
 40
0.0
  9
$CHAMFERB
 40
0.0
  9
$CHAMFERC
 40
0.0
  9
$CHAMFERD
 40
0.0
  9
$SKPOLY
 70
     0
  9
$TDCREATE
 40
2459537.341154815
  9
$TDUCREATE
 40
2459537.299488148
  9
$TDUPDATE
 40
2459537.341155046
  9
$TDUUPDATE
 40
2459537.29948838
  9
$TDINDWG
 40
0.0000000116
  9
$TDUSRTIMER
 40
0.0000000116
  9
$USRTIMER
 70
     1
  9
$ANGBASE
 50
0.0
  9
$ANGDIR
 70
     0
  9
$PDMODE
 70
     0
  9
$PDSIZE
 40
-1.0
  9
$PLINEWID
 40
0.0
  9
$SPLFRAME
 70
     0
  9
$SPLINETYPE
 70
     6
  9
$SPLINESEGS
 70
     8
  9
$HANDSEED
  5
2B0
  9
$SURFTAB1
 70
     6
  9
$SURFTAB2
 70
     6
  9
$SURFTYPE
 70
     6
  9
$SURFU
 70
     6
  9
$SURFV
 70
     6
  9
$UCSBASE
  2

  9
$UCSNAME
  2

  9
$UCSORG
 10
0.0
 20
0.0
 30
0.0
  9
$UCSXDIR
 10
1.0
 20
0.0
 30
0.0
  9
$UCSYDIR
 10
0.0
 20
1.0
 30
0.0
  9
$UCSORTHOREF
  2

  9
$UCSORTHOVIEW
 70
     0
  9
$UCSORGTOP
 10
0.0
 20
0.0
 30
0.0
  9
$UCSORGBOTTOM
 10
0.0
 20
0.0
 30
0.0
  9
$UCSORGLEFT
 10
0.0
 20
0.0
 30
0.0
  9
$UCSORGRIGHT
 10
0.0
 20
0.0
 30
0.0
  9
$UCSORGFRONT
 10
0.0
 20
0.0
 30
0.0
  9
$UCSORGBACK
 10
0.0
 20
0.0
 30
0.0
  9
$PUCSBASE
  2

  9
$PUCSNAME
  2

  9
$PUCSORG
 10
0.0
 20
0.0
 30
0.0
  9
$PUCSXDIR
 10
1.0
 20
0.0
 30
0.0
  9
$PUCSYDIR
 10
0.0
 20
1.0
 30
0.0
  9
$PUCSORTHOREF
  2

  9
$PUCSORTHOVIEW
 70
     0
  9
$PUCSORGTOP
 10
0.0
 20
0.0
 30
0.0
  9
$PUCSORGBOTTOM
 10
0.0
 20
0.0
 30
0.0
  9
$PUCSORGLEFT
 10
0.0
 20
0.0
 30
0.0
  9
$PUCSORGRIGHT
 10
0.0
 20
0.0
 30
0.0
  9
$PUCSORGFRONT
 10
0.0
 20
0.0
 30
0.0
  9
$PUCSORGBACK
 10
0.0
 20
0.0
 30
0.0
  9
$USERI1
 70
     0
  9
$USERI2
 70
     0
  9
$USERI3
 70
     0
  9
$USERI4
 70
     0
  9
$USERI5
 70
     0
  9
$USERR1
 40
0.0
  9
$USERR2
 40
0.0
  9
$USERR3
 40
0.0
  9
$USERR4
 40
0.0
  9
$USERR5
 40
0.0
  9
$WORLDVIEW
 70
     1
  9
$SHADEDGE
 70
     3
  9
$SHADEDIF
 70
    70
  9
$TILEMODE
 70
     1
  9
$MAXACTVP
 70
    64
  9
$PINSBASE
 10
0.0
 20
0.0
 30
0.0
  9
$PLIMCHECK
 70
     0
  9
$PEXTMIN
 10
1.0000000000E+20
 20
1.0000000000E+20
 30
1.0000000000E+20
  9
$PEXTMAX
 10
-1.0000000000E+20
 20
-1.0000000000E+20
 30
-1.0000000000E+20
  9
$PLIMMIN
 10
0.0
 20
0.0
  9
$PLIMMAX
 10
420.0
 20
297.0
  9
$UNITMODE
 70
     0
  9
$VISRETAIN
 70
     1
  9
$PLINEGEN
 70
     0
  9
$PSLTSCALE
 70
     1
  9
$TREEDEPTH
 70
  3020
  9
$CMLSTYLE
  2
Standard
  9
$CMLJUST
 70
     0
  9
$CMLSCALE
 40
20.0
  9
$PROXYGRAPHICS
 70
     1
  9
$MEASUREMENT
 70
     1
  9
$CELWEIGHT
370
    -1
  9
$ENDCAPS
280
     0
  9
$JOINSTYLE
280
     0
  9
$LWDISPLAY
290
     1
  9
$INSUNITS
 70
     4
  9
$HYPERLINKBASE
  1

  9
$STYLESHEET
  1

  9
$XEDIT
290
     1
  9
$CEPSNTYPE
380
     0
  9
$PSTYLEMODE
290
     1
  9
$FINGERPRINTGUID
  2
{90aee03b-9659-43ba-962c-a2fe17a34c94}
  9
$VERSIONGUID
  2
{FAEB1C32-E019-11D5-929B-00C0DF256EC4}
  9
$EXTNAMES
290
     1
  9
$PSVPSCALE
 40
0.0
  9
$OLESTARTUP
290
     0
  0
ENDSEC
  0
SECTION
  2
CLASSES
  0
CLASS
  1
ACDBDICTIONARYWDFLT
  2
AcDbDictionaryWithDefault
  3
ObjectDBX Classes
 90
        0
280
     0
281
     0
  0
CLASS
  1
VISUALSTYLE
  2
AcDbVisualStyle
  3
ObjectDBX Classes
 90
     4095
280
     0
281
     0
  0
CLASS
  1
MATERIAL
  2
AcDbMaterial
  3
ObjectDBX Classes
 90
     1153
280
     0
281
     0
  0
CLASS
  1
SCALE
  2
AcDbScale
  3
ObjectDBX Classes
 90
     1153
280
     0
281
     0
  0
CLASS
  1
TABLESTYLE
  2
AcDbTableStyle
  3
ObjectDBX Classes
 90
     4095
280
     0
281
     0
  0
CLASS
  1
MLEADERSTYLE
  2
AcDbMLeaderStyle
  3
ACDB_MLEADERSTYLE_CLASS
 90
     4095
280
     0
281
     0
  0
CLASS
  1
SUN
  2
AcDbSun
  3
SCENEOE
 90
     1153
280
     0
281
     0
  0
CLASS
  1
ACDBPLACEHOLDER
  2
AcDbPlaceHolder
  3
ObjectDBX Classes
 90
        0
280
     0
281
     0
  0
CLASS
  1
LAYOUT
  2
AcDbLayout
  3
ObjectDBX Classes
 90
        0
280
     0
281
     0
  0
ENDSEC
  0
SECTION
  2
TABLES
  0
TABLE
  2
VPORT
  5
8
330
0
100
AcDbSymbolTable
 70
     1
  0
VPORT
  5
29
330
8
100
AcDbSymbolTableRecord
100
AcDbViewportTableRecord
  2
*Active
 70
     0
 10
0.0
 20
0.0
 11
1.0
 21
1.0
 12
215.9
 22
139.7
 13
0.0
 23
0.0
 14
10.0
 24
10.0
 15
10.0
 25
10.0
 16
0.0
 26
0.0
 36
1.0
 17
0.0
 27
0.0
 37
0.0
 40
279.4
 41
1.5454545455
 42
50.0
 43
0.0
 44
0.0
 50
0.0
 51
0.0
 71
     0
 72
  2000
 73
     1
 74
     3
 75
     0
 76
     0
 77
     0
 78
     0
281
     0
 65
     1
110
0.0
120
0.0
130
0.0
111
1.0
121
0.0
131
0.0
112
0.0
122
1.0
132
0.0
 79
     0
146
0.0
  0
ENDTAB
  0
TABLE
  2
LTYPE
  5
5
330
0
100
AcDbSymbolTable
 70
     6
  0
LTYPE
  5
14
330
5
100
AcDbSymbolTableRecord
100
AcDbLinetypeTableRecord
  2
ByBlock
 70
     0
  3

 72
    65
 73
     0
 40
0.0
  0
LTYPE
  5
15
330
5
100
AcDbSymbolTableRecord
100
AcDbLinetypeTableRecord
  2
ByLayer
 70
     0
  3

 72
    65
 73
     0
 40
0.0
  0
LTYPE
  5
16
330
5
100
AcDbSymbolTableRecord
100
AcDbLinetypeTableRecord
  2
Continuous
 70
     0
  3
Solid line
 72
    65
 73
     0
 40
0.0
  0
LTYPE
  5
6E
330
5
100
AcDbSymbolTableRecord
100
AcDbLinetypeTableRecord
  2
HIDDEN
 70
     0
  3
Hidden __ __ __ __ __ __ __ __ __ __ __ __ __ __
 72
    65
 73
     2
 40
1.905
 49
1.27
 74
     0
 49
-0.635
 74
     0
  0
LTYPE
  5
6F
330
5
100
AcDbSymbolTableRecord
100
AcDbLinetypeTableRecord
  2
PHANTOM
 70
     0
  3
Phantom ______  __  __  ______  __  __  ______
 72
    65
 73
     6
 40
12.7
 49
6.35
 74
     0
 49
-1.27
 74
     0
 49
1.27
 74
     0
 49
-1.27
 74
     0
 49
1.27
 74
     0
 49
-1.27
 74
     0
  0
LTYPE
  5
70
330
5
100
AcDbSymbolTableRecord
100
AcDbLinetypeTableRecord
  2
CENTER
 70
     0
  3
Center ____ _ ____ _ ____ _ ____ _ ____ _ ____
 72
    65
 73
     4
 40
10.16
 49
6.35
 74
     0
 49
-1.27
 74
     0
 49
1.27
 74
     0
 49
-1.27
 74
     0
  0
LTYPE
  5
71
330
5
100
AcDbSymbolTableRecord
100
AcDbLinetypeTableRecord
  2
CENTERX2
 70
     0
  3
Center (2x) ________  __  ________  __  _____
 72
    65
 73
     4
 40
20.32
 49
12.7
 74
     0
 49
-2.54
 74
     0
 49
2.54
 74
     0
 49
-2.54
 74
     0
  0
LTYPE
  5
72
330
5
100
AcDbSymbolTableRecord
100
AcDbLinetypeTableRecord
  2
DOT2
 70
     0
  3
Dot (.5x) ........................................
 72
    65
 73
     2
 40
0.635
 49
0.0
 74
     0
 49
-0.635
 74
     0
  0
ENDTAB
  0
TABLE
  2
LAYER
  5
2
330
0
100
AcDbSymbolTable
 70
     3
  0
LAYER
  5
10
330
2
100
AcDbSymbolTableRecord
100
AcDbLayerTableRecord
  2
0
 70
     0
 62
     7
  6
Continuous
370
    -3
390
F
  0
LAYER
  5
73
330
2
100
AcDbSymbolTableRecord
100
AcDbLayerTableRecord
  2
FRAME_&_TABLE
 70
     0
 62
     8
  6
Continuous
370
    50
390
F
  0
LAYER
  5
74
330
2
100
AcDbSymbolTableRecord
100
AcDbLayerTableRecord
  2
DIMENSIONS
 70
     0
 62
     7
  6
Continuous
370
    -3
390
F
  0
ENDTAB
  0
TABLE
  2
STYLE
  5
3
330
0
100
AcDbSymbolTable
 70
     1
  0
STYLE
  5
11
330
3
100
AcDbSymbolTableRecord
100
AcDbTextStyleTableRecord
  2
Standard
 70
     0
 40
0.0
 41
1.0
 50
0.0
 71
     0
 42
3.8805555556
  3
txt
  4

  0
ENDTAB
  0
TABLE
  2
VIEW
  5
6
330
0
100
AcDbSymbolTable
 70
     0
  0
ENDTAB
  0
TABLE
  2
UCS
  5
7
330
0
100
AcDbSymbolTable
 70
     0
  0
ENDTAB
  0
TABLE
  2
APPID
  5
9
330
0
100
AcDbSymbolTable
 70
     1
  0
APPID
  5
12
330
9
100
AcDbSymbolTableRecord
100
AcDbRegAppTableRecord
  2
ACAD
 70
     0
  0
ENDTAB
  0
TABLE
  2
DIMSTYLE
  5
A
330
0
100
AcDbSymbolTable
 70
     1
100
AcDbDimStyleTable
  0
DIMSTYLE
105
27
330
A
100
AcDbSymbolTableRecord
100
AcDbDimStyleTableRecord
  2
ISO-25
 70
     0
 41
2.5
 42
0.625
 43
3.75
 44
1.25
 73
     0
 74
     0
 77
     1
 78
     8
140
2.5
141
2.5
143
0.0393700787
147
0.625
171
     3
172
     1
178
     0
271
     2
272
     2
274
     3
278
    44
283
     0
284
     8
340
11
  0
ENDTAB
  0
TABLE
  2
BLOCK_RECORD
  5
1
330
0
100
AcDbSymbolTable
 70
     1
  0
BLOCK_RECORD
  5
1F
330
1
100
AcDbSymbolTableRecord
100
AcDbBlockTableRecord
  2
*Model_Space
340
22
  0
BLOCK_RECORD
  5
1B
330
1
100
AcDbSymbolTableRecord
100
AcDbBlockTableRecord
  2
*Paper_Space
340
1E
  0
BLOCK_RECORD
  5
23
330
1
100
AcDbSymbolTableRecord
100
AcDbBlockTableRecord
  2
*Paper_Space0
340
26
  0
ENDTAB
  0
ENDSEC
  0
SECTION
  2
BLOCKS
  0
BLOCK
  5
20
330
1F
100
AcDbEntity
  8
0
100
AcDbBlockBegin
  2
*Model_Space
 70
     0
 10
0.0
 20
0.0
 30
0.0
  3
*Model_Space
  1

  0
ENDBLK
  5
21
330
1F
100
AcDbEntity
  8
0
100
AcDbBlockEnd
  0
BLOCK
  5
1C
330
1B
100
AcDbEntity
 67
     1
  8
0
100
AcDbBlockBegin
  2
*Paper_Space
 70
     0
 10
0.0
 20
0.0
 30
0.0
  3
*Paper_Space
  1

  0
ENDBLK
  5
1D
330
1B
100
AcDbEntity
 67
     1
  8
0
100
AcDbBlockEnd
  0
BLOCK
  5
24
330
23
100
AcDbEntity
  8
0
100
AcDbBlockBegin
  2
*Paper_Space0
 70
     0
 10
0.0
 20
0.0
 30
0.0
  3
*Paper_Space0
  1

  0
ENDBLK
  5
25
330
23
100
AcDbEntity
  8
0
100
AcDbBlockEnd
  0
ENDSEC
  0
SECTION
  2
ENTITIES
  0
ARC
  5
75
330
1F
100
AcDbEntity
  8
0
  6
Continuous
 62
     7
370
    25
100
AcDbCircle
 10
97.2837174915
 20
-56.1479836639
 30
0.0
 40
3.0
100
AcDbArc
 50
270.0
 51
0.0
  0
ARC
  5
76
330
1F
100
AcDbEntity
  8
0
  6
Continuous
 62
     7
370
    25
100
AcDbCircle
 10
-33.5962825085
 20
-56.1479836639
 30
0.0
 40
3.0
100
AcDbArc
 50
180.0
 51
270.0
  0
LINE
  5
77
330
1F
100
AcDbEntity
  8
0
  6
Continuous
 62
     7
370
    25
100
AcDbLine
 10
-36.5962825085
 20
-47.1479836639
 30
0.0
 11
-36.5962825085
 21
-56.1479836639
 31
0.0
  0
LINE
  5
78
330
1F
100
AcDbEntity
  8
0
  6
Continuous
 62
     7
370
    25
100
AcDbLine
 10
100.2837174915
 20
-56.1479836639
 30
0.0
 11
100.2837174915
 21
-47.1479836639
 31
0.0
  0
ARC
  5
79
330
1F
100
AcDbEntity
  8
0
  6
Continuous
 62
     7
370
    25
100
AcDbCircle
 10
97.2837174915
 20
-47.1479836639
 30
0.0
 40
3.0
100
AcDbArc
 50
0.0
 51
90.0
  0
ARC
  5
7A
330
1F
100
AcDbEntity
  8
0
  6
Continuous
 62
     7
370
    25
100
AcDbCircle
 10
-33.5962825085
 20
-47.1479836639
 30
0.0
 40
3.0
100
AcDbArc
 50
90.0
 51
180.0
  0
ARC
  5
7B
330
1F
100
AcDbEntity
  8
0
  6
Continuous
 62
     7
370
    25
100
AcDbCircle
 10
511.8254092454
 20
-56.1479836639
 30
0.0
 40
2.999999999999972
100
AcDbArc
 50
270.0
 51
0.0
  0
ARC
  5
7C
330
1F
100
AcDbEntity
  8
0
  6
Continuous
 62
     7
370
    25
100
AcDbCircle
 10
511.8254092454
 20
-47.1479836639
 30
0.0
 40
3.0
100
AcDbArc
 50
0.0
 51
90.0
  0
LINE
  5
7D
330
1F
100
AcDbEntity
  8
0
  6
Continuous
 62
     7
370
    25
100
AcDbLine
 10
514.8254092454
 20
-56.1479836639
 30
0.0
 11
514.8254092454
 21
-47.1479836639
 31
0.0
  0
LINE
  5
7E
330
1F
100
AcDbEntity
  8
0
  6
Continuous
 62
     7
370
    25
100
AcDbLine
 10
-36.5962825085
 20
347.8520163361
 30
0.0
 11
-36.5962825085
 21
338.8520163361
 31
0.0
  0
LINE
  5
7F
330
1F
100
AcDbEntity
  8
0
  6
Continuous
 62
     7
370
    25
100
AcDbLine
 10
100.2837174915
 20
338.8520163361
 30
0.0
 11
100.2837174915
 21
347.8520163361
 31
0.0
  0
ARC
  5
80
330
1F
100
AcDbEntity
  8
0
  6
Continuous
 62
     7
370
    25
100
AcDbCircle
 10
97.2837174915
 20
338.8520163361
 30
0.0
 40
3.0
100
AcDbArc
 50
270.0
 51
0.0
  0
ARC
  5
81
330
1F
100
AcDbEntity
  8
0
  6
Continuous
 62
     7
370
    25
100
AcDbCircle
 10
-33.5962825085
 20
338.8520163361
 30
0.0
 40
3.0
100
AcDbArc
 50
180.0
 51
270.0
  0
ARC
  5
82
330
1F
100
AcDbEntity
  8
0
  6
Continuous
 62
     7
370
    25
100
AcDbCircle
 10
97.2837174915
 20
347.8520163361
 30
0.0
 40
3.0
100
AcDbArc
 50
0.0
 51
90.0
  0
ARC
  5
83
330
1F
100
AcDbEntity
  8
0
  6
Continuous
 62
     7
370
    25
100
AcDbCircle
 10
-33.5962825085
 20
347.8520163361
 30
0.0
 40
3.0
100
AcDbArc
 50
90.0
 51
180.0
  0
ARC
  5
84
330
1F
100
AcDbEntity
  8
0
  6
Continuous
 62
     7
370
    25
100
AcDbCircle
 10
511.8254092454
 20
338.8520163361
 30
0.0
 40
3.0
100
AcDbArc
 50
270.0
 51
0.0
  0
LINE
  5
85
330
1F
100
AcDbEntity
  8
0
  6
Continuous
 62
     7
370
    25
100
AcDbLine
 10
514.8254092454
 20
338.8520163361
 30
0.0
 11
514.8254092454
 21
347.8520163361
 31
0.0
  0
ARC
  5
86
330
1F
100
AcDbEntity
  8
0
  6
Continuous
 62
     7
370
    25
100
AcDbCircle
 10
511.8254092454
 20
347.8520163361
 30
0.0
 40
3.0
100
AcDbArc
 50
0.0
 51
90.0
  0
ARC
  5
87
330
1F
100
AcDbEntity
  8
0
  6
Continuous
 62
     7
370
    25
100
AcDbCircle
 10
365.3306346758
 20
-41.1479836639
 30
0.0
 40
3.0
100
AcDbArc
 50
270.0
 51
0.0
  0
ARC
  5
88
330
1F
100
AcDbEntity
  8
0
  6
Continuous
 62
     7
370
    25
100
AcDbCircle
 10
365.3306346758
 20
-32.1479836639
 30
0.0
 40
3.000000000000007
100
AcDbArc
 50
0.0
 51
90.0
  0
LINE
  5
89
330
1F
100
AcDbEntity
  8
0
  6
Continuous
 62
     7
370
    25
100
AcDbLine
 10
368.3306346758
 20
-41.1479836639
 30
0.0
 11
368.3306346758
 21
-32.1479836639
 31
0.0
  0
ARC
  5
8A
330
1F
100
AcDbEntity
  8
0
  6
Continuous
 62
     7
370
    25
100
AcDbCircle
 10
101.646098536
 20
-41.1479836639
 30
0.0
 40
3.0
100
AcDbArc
 50
180.0
 51
270.0
  0
ARC
  5
8B
330
1F
100
AcDbEntity
  8
0
  6
Continuous
 62
     7
370
    25
100
AcDbCircle
 10
101.646098536
 20
-32.1479836639
 30
0.0
 40
3.000000000000007
100
AcDbArc
 50
90.0
 51
180.0
  0
LINE
  5
8C
330
1F
100
AcDbEntity
  8
0
  6
Continuous
 62
     7
370
    25
100
AcDbLine
 10
98.646098536
 20
-32.1479836639
 30
0.0
 11
98.646098536
 21
-41.1479836639
 31
0.0
  0
ARC
  5
8D
330
1F
100
AcDbEntity
  8
0
  6
Continuous
 62
     7
370
    25
100
AcDbCircle
 10
-85.7735670722
 20
-41.1479836639
 30
0.0
 40
3.0
100
AcDbArc
 50
180.0
 51
270.0
  0
LINE
  5
8E
330
1F
100
AcDbEntity
  8
0
  6
Continuous
 62
     7
370
    25
100
AcDbLine
 10
-88.7735670722
 20
-32.1479836639
 30
0.0
 11
-88.7735670722
 21
-41.1479836639
 31
0.0
  0
ARC
  5
8F
330
1F
100
AcDbEntity
  8
0
  6
Continuous
 62
     7
370
    25
100
AcDbCircle
 10
-85.7735670722
 20
-32.1479836639
 30
0.0
 40
3.000000000000007
100
AcDbArc
 50
90.0
 51
180.0
  0
ARC
  5
90
330
1F
100
AcDbEntity
  8
0
  6
Continuous
 62
     7
370
    25
100
AcDbCircle
 10
558.8087035949
 20
-32.1479836639
 30
0.0
 40
3.000000000000007
100
AcDbArc
 50
0.0
 51
90.0
  0
ARC
  5
91
330
1F
100
AcDbEntity
  8
0
  6
Continuous
 62
     7
370
    25
100
AcDbCircle
 10
558.8087035949
 20
-41.1479836639
 30
0.0
 40
3.0
100
AcDbArc
 50
270.0
 51
0.0
  0
LINE
  5
92
330
1F
100
AcDbEntity
  8
0
  6
Continuous
 62
     7
370
    25
100
AcDbLine
 10
561.8087035949
 20
-41.1479836639
 30
0.0
 11
561.8087035949
 21
-32.1479836639
 31
0.0
  0
ARC
  5
93
330
1F
100
AcDbEntity
  8
0
  6
Continuous
 62
     7
370
    25
100
AcDbCircle
 10
-16.6664136772
 20
-28.1979836639
 30
0.0
 40
0.95000000000001
100
AcDbArc
 50
120.9040212823
 51
270.0
  0
ARC
  5
94
330
1F
100
AcDbEntity
  8
0
  6
Continuous
 62
     7
370
    25
100
AcDbCircle
 10
-4.3664136772
 20
-28.1979836639
 30
0.0
 40
0.95000000000001
100
AcDbArc
 50
270.0
 51
59.0959787177
  0
ARC
  5
95
330
1F
100
AcDbEntity
  8
0
  6
Continuous
 62
     7
370
    25
100
AcDbCircle
 10
-10.5164136772
 20
-38.4722483698
 30
0.0
 40
12.92426470588238
100
AcDbArc
 50
59.0959787177
 51
120.9040212823
  0
ARC
  5
96
330
1F
100
AcDbEntity
  8
0
  6
Continuous
 62
     7
370
    25
100
AcDbCircle
 10
473.156146918
 20
-28.1979836639
 30
0.0
 40
0.9500000000000154
100
AcDbArc
 50
120.9040212823
 51
270.0
  0
ARC
  5
97
330
1F
100
AcDbEntity
  8
0
  6
Continuous
 62
     7
370
    25
100
AcDbCircle
 10
485.456146918
 20
-28.1979836639
 30
0.0
 40
0.9500000000000154
100
AcDbArc
 50
270.0
 51
59.0959787177
  0
ARC
  5
98
330
1F
100
AcDbEntity
  8
0
  6
Continuous
 62
     7
370
    25
100
AcDbCircle
 10
479.306146918
 20
-38.4722483698
 30
0.0
 40
12.9242647058824
100
AcDbArc
 50
59.0959787177
 51
120.9040212823
  0
ARC
  5
99
330
1F
100
AcDbEntity
  8
0
  6
Continuous
 62
     7
370
    25
100
AcDbCircle
 10
485.4561469265
 20
319.9020163361
 30
0.0
 40
0.9500000000000398
100
AcDbArc
 50
300.9040212823
 51
90.0
  0
ARC
  5
9A
330
1F
100
AcDbEntity
  8
0
  6
Continuous
 62
     7
370
    25
100
AcDbCircle
 10
473.1561469265
 20
319.9020163361
 30
0.0
 40
0.9500000000000106
100
AcDbArc
 50
90.0
 51
239.0959787178
  0
ARC
  5
9B
330
1F
100
AcDbEntity
  8
0
  6
Continuous
 62
     7
370
    25
100
AcDbCircle
 10
479.3061469265
 20
330.1762810419
 30
0.0
 40
12.92426470588237
100
AcDbArc
 50
239.0959787177
 51
300.9040212823
  0
ARC
  5
9C
330
1F
100
AcDbEntity
  8
0
  6
Continuous
 62
     7
370
    25
100
AcDbCircle
 10
-4.3664136687
 20
319.9020163361
 30
0.0
 40
0.95000000000003
100
AcDbArc
 50
300.9040212823
 51
90.0
  0
ARC
  5
9D
330
1F
100
AcDbEntity
  8
0
  6
Continuous
 62
     7
370
    25
100
AcDbCircle
 10
-16.6664136687
 20
319.9020163361
 30
0.0
 40
0.9500000000000289
100
AcDbArc
 50
90.0
 51
239.0959787177
  0
ARC
  5
9E
330
1F
100
AcDbEntity
  8
0
  6
Continuous
 62
     7
370
    25
100
AcDbCircle
 10
-10.5164136687
 20
330.1762810419
 30
0.0
 40
12.92426470588235
100
AcDbArc
 50
239.0959787177
 51
300.9040212823
  0
ARC
  5
9F
330
1F
100
AcDbEntity
  8
0
  6
Continuous
 62
     7
370
    25
100
AcDbCircle
 10
344.2239669564
 20
347.9946773642
 30
0.0
 40
43.2475870416835
100
AcDbArc
 50
355.0579349473
 51
0.2938247964
  0
LINE
  5
A0
330
1F
100
AcDbEntity
  8
0
  6
Continuous
 62
     7
370
    25
100
AcDbLine
 10
387.4709853251
 20
348.2164591057
 30
0.0
 11
387.4709853251
 21
375.2799870186
 31
0.0
  0
LWPOLYLINE
  5
A1
330
1F
100
AcDbEntity
  8
0
  6
Continuous
 62
     7
370
    25
100
AcDbPolyline
 90
       22
 70
   128
 43
0.0
 10
387.4709853251
 20
375.2799870186
 10
387.4666096506
 20
376.2121432392
 10
387.4341994916
 20
377.9777679246
 10
387.3703532549
 20
379.7258014028
 10
387.2753574138
 20
381.4448565059
 10
387.1495821348
 20
383.1242878249
 10
386.9934394611
 20
384.7539782287
 10
386.8073064713
 20
386.3245410505
 10
386.5913969496
 20
387.8275693439
 10
386.3455419799
 20
389.2559667181
 10
386.0687980496
 20
390.6044219769
 10
385.7587050556
 20
391.8701426243
 10
385.4097793972
 20
393.0540568003
 10
385.0102123384
 20
394.1627894537
 10
384.5342821219
 20
395.2110837472
 10
384.0182814794
 20
396.0862261802
 10
383.510578824
 20
396.7432288554
 10
382.9801329716
 20
397.2643087398
 10
382.404651142
 20
397.6815471941
 10
381.7754665333
 20
397.9973227332
 10
381.097161941
 20
398.2009486486
 10
380.3189624645
 20
398.2799870186
  0
LWPOLYLINE
  5
A2
330
1F
100
AcDbEntity
  8
0
  6
Continuous
 62
     7
370
    25
100
AcDbPolyline
 90
       22
 70
   128
 43
0.0
 10
366.9331750343
 20
398.2799870186
 10
366.2196105395
 20
398.21361844
 10
365.5241323752
 20
398.015944069
 10
364.8986015242
 20
397.712281185
 10
364.3391238057
 20
397.3202214999
 10
363.8325012015
 20
396.8433790048
 10
363.3589585711
 20
396.2648367106
 10
362.8959521683
 20
395.5404280864
 10
362.4288137701
 20
394.6060798559
 10
361.979020486
 20
393.4600895507
 10
361.5918256786
 20
392.22725909
 10
361.2580981048
 20
390.9308166392
 10
360.9658706721
 20
389.5652433946
 10
360.7089051157
 20
388.1280271078
 10
360.4843218163
 20
386.6211372581
 10
360.2909213201
 20
385.0496152985
 10
360.1283408749
 20
383.4205627728
 10
359.9966214123
 20
381.7425122696
 10
359.8959722573
 20
380.0250156138
 10
359.8266369665
 20
378.2783511173
 10
359.7888147411
 20
376.5132973083
 10
359.7811521736
 20
375.2799870186
  0
LINE
  5
A3
330
1F
100
AcDbEntity
  8
0
  6
Continuous
 62
     7
370
    25
100
AcDbLine
 10
359.7811521736
 20
375.2799870186
 30
0.0
 11
359.7811521736
 21
355.3726888929
 31
0.0
  0
LINE
  5
A4
330
1F
100
AcDbEntity
  8
0
  6
Continuous
 62
     7
370
    25
100
AcDbLine
 10
387.4709853251
 20
-83.5759543465
 30
0.0
 11
387.4709853251
 21
-56.5124264336
 31
0.0
  0
LWPOLYLINE
  5
A5
330
1F
100
AcDbEntity
  8
0
  6
Continuous
 62
     7
370
    25
100
AcDbPolyline
 90
       22
 70
   128
 43
0.0
 10
380.3189624645
 20
-106.5759543465
 10
381.0325269593
 20
-106.5095857679
 10
381.7280051236
 20
-106.3119113969
 10
382.3535359746
 20
-106.0082485129
 10
382.913013693
 20
-105.6161888278
 10
383.4196362973
 20
-105.1393463327
 10
383.8931789276
 20
-104.5608040384
 10
384.3561853305
 20
-103.8363954143
 10
384.8233237287
 20
-102.9020471838
 10
385.2731170128
 20
-101.7560568785
 10
385.6603118202
 20
-100.5232264179
 10
385.994039394
 20
-99.2267839671
 10
386.2862668267
 20
-97.8612107225
 10
386.5432323831
 20
-96.4239944357
 10
386.7678156824
 20
-94.917104586
 10
386.9612161786
 20
-93.3455826264
 10
387.1237966239
 20
-91.7165301006
 10
387.2555160865
 20
-90.0384795975
 10
387.3561652415
 20
-88.3209829417
 10
387.4255005323
 20
-86.5743184452
 10
387.4633227577
 20
-84.8092646362
 10
387.4709853251
 20
-83.5759543465
  0
ARC
  5
A6
330
1F
100
AcDbEntity
  8
0
  6
Continuous
 62
     7
370
    25
100
AcDbCircle
 10
342.8075551284
 20
-56.370718634
 30
0.0
 40
44.66365500087232
100
AcDbArc
 50
359.8182129863
 51
4.7853264569
  0
LWPOLYLINE
  5
A7
330
1F
100
AcDbEntity
  8
0
  6
Continuous
 62
     7
370
    25
100
AcDbPolyline
 90
       22
 70
   128
 43
0.0
 10
359.7811521736
 20
-83.5759543465
 10
359.7855278482
 20
-84.5081105671
 10
359.8179380071
 20
-86.2737352525
 10
359.8817842439
 20
-88.0217687307
 10
359.9767800849
 20
-89.7408238338
 10
360.102555364
 20
-91.4202551528
 10
360.2586980377
 20
-93.0499455566
 10
360.4448310275
 20
-94.6205083784
 10
360.6607405491
 20
-96.1235366718
 10
360.9065955188
 20
-97.551934046
 10
361.1833394492
 20
-98.9003893048
 10
361.4934324431
 20
-100.1661099522
 10
361.8423581016
 20
-101.3500241282
 10
362.2419251604
 20
-102.4587567816
 10
362.7178553769
 20
-103.5070510751
 10
363.2338560193
 20
-104.3821935081
 10
363.7415586747
 20
-105.0391961833
 10
364.2720045272
 20
-105.5602760677
 10
364.8474863568
 20
-105.9775145219
 10
365.4766709654
 20
-106.2932900611
 10
366.1549755578
 20
-106.4969159765
 10
366.9331750343
 20
-106.5759543465
  0
LINE
  5
A8
330
1F
100
AcDbEntity
  8
0
  6
Continuous
 62
     7
370
    25
100
AcDbLine
 10
359.7811521736
 20
-63.6686562208
 30
0.0
 11
359.7811521736
 21
-83.5759543465
 31
0.0
  0
ARC
  5
A9
330
1F
100
AcDbEntity
  8
0
  6
Continuous
 62
     7
370
    25
100
AcDbCircle
 10
372.8300161178
 20
-28.2822885208
 30
0.0
 40
16.29605263157896
100
AcDbArc
 50
0.0
 51
24.7304992026
  0
LINE
  5
AA
330
1F
100
AcDbEntity
  8
0
  6
Continuous
 62
     7
370
    25
100
AcDbLine
 10
389.1260687494
 20
-29.1479836639
 30
0.0
 11
389.1260687494
 21
-28.2822885208
 31
0.0
  0
ARC
  5
AB
330
1F
100
AcDbEntity
  8
0
  6
Continuous
 62
     7
370
    25
100
AcDbCircle
 10
480.1021995538
 20
336.8520163361
 30
0.0
 40
16.29605263157896
100
AcDbArc
 50
135.1144932694
 51
180.0
  0
ARC
  5
AC
330
1F
100
AcDbEntity
  8
0
  6
Continuous
 62
     7
370
    25
100
AcDbCircle
 10
478.5100942906
 20
336.8520163361
 30
0.0
 40
16.29605263157896
100
AcDbArc
 50
0.0
 51
44.8855067306
  0
LINE
  5
AD
330
1F
100
AcDbEntity
  8
0
  6
Continuous
 62
     7
370
    25
100
AcDbLine
 10
494.8061469222
 20
335.8520163361
 30
0.0
 11
494.8061469222
 21
336.8520163361
 31
0.0
  0
LINE
  5
AE
330
1F
100
AcDbEntity
  8
0
  6
Continuous
 62
     7
370
    25
100
AcDbLine
 10
463.8061469222
 20
336.8520163361
 30
0.0
 11
463.8061469222
 21
335.8520163361
 31
0.0
  0
LINE
  5
AF
330
1F
100
AcDbEntity
  8
0
  6
Continuous
 62
     7
370
    25
100
AcDbLine
 10
4.9835863271
 20
335.8520163361
 30
0.0
 11
4.9835863271
 21
336.8520163361
 31
0.0
  0
LINE
  5
B0
330
1F
100
AcDbEntity
  8
0
  6
Continuous
 62
     7
370
    25
100
AcDbLine
 10
-26.0164136729
 20
336.8520163361
 30
0.0
 11
-26.0164136729
 21
335.8520163361
 31
0.0
  0
ARC
  5
B1
330
1F
100
AcDbEntity
  8
0
  6
Continuous
 62
     7
370
    25
100
AcDbCircle
 10
-9.7203610414
 20
336.8520163361
 30
0.0
 40
16.29605263157897
100
AcDbArc
 50
135.1144932694
 51
180.0
  0
ARC
  5
B2
330
1F
100
AcDbEntity
  8
0
  6
Continuous
 62
     7
370
    25
100
AcDbCircle
 10
-11.3124663045
 20
336.8520163361
 30
0.0
 40
16.29605263157899
100
AcDbArc
 50
0.0
 51
44.8855067306
  0
LINE
  5
B3
330
1F
100
AcDbEntity
  8
0
  6
Continuous
 62
     7
370
    25
100
AcDbLine
 10
389.1260687494
 20
319.9863211929
 30
0.0
 11
389.1260687494
 21
320.8520163361
 31
0.0
  0
ARC
  5
B4
330
1F
100
AcDbEntity
  8
0
  6
Continuous
 62
     7
370
    25
100
AcDbCircle
 10
372.8300161178
 20
319.9863211929
 30
0.0
 40
16.29605263157896
100
AcDbArc
 50
335.2695007965
 51
0.0
  0
ARC
  5
B5
330
1F
100
AcDbEntity
  8
0
  6
Continuous
 62
     7
370
    25
100
AcDbCircle
 10
478.5100942906
 20
-45.1479836639
 30
0.0
 40
16.29605263157896
100
AcDbArc
 50
315.1144932694
 51
0.0
  0
ARC
  5
B6
330
1F
100
AcDbEntity
  8
0
  6
Continuous
 62
     7
370
    25
100
AcDbCircle
 10
480.1021995538
 20
-45.1479836639
 30
0.0
 40
16.29605263157897
100
AcDbArc
 50
180.0
 51
224.8855067306
  0
LINE
  5
B7
330
1F
100
AcDbEntity
  8
0
  6
Continuous
 62
     7
370
    25
100
AcDbLine
 10
463.8061469222
 20
-44.1479836639
 30
0.0
 11
463.8061469222
 21
-45.1479836639
 31
0.0
  0
LINE
  5
B8
330
1F
100
AcDbEntity
  8
0
  6
Continuous
 62
     7
370
    25
100
AcDbLine
 10
494.8061469222
 20
-45.1479836639
 30
0.0
 11
494.8061469222
 21
-44.1479836639
 31
0.0
  0
LINE
  5
B9
330
1F
100
AcDbEntity
  8
0
  6
Continuous
 62
     7
370
    25
100
AcDbLine
 10
-26.0164136729
 20
-44.1479836639
 30
0.0
 11
-26.0164136729
 21
-45.1479836639
 31
0.0
  0
LINE
  5
BA
330
1F
100
AcDbEntity
  8
0
  6
Continuous
 62
     7
370
    25
100
AcDbLine
 10
4.9835863271
 20
-45.1479836639
 30
0.0
 11
4.9835863271
 21
-44.1479836639
 31
0.0
  0
ARC
  5
BB
330
1F
100
AcDbEntity
  8
0
  6
Continuous
 62
     7
370
    25
100
AcDbCircle
 10
-11.3124663045
 20
-45.1479836639
 30
0.0
 40
16.29605263157896
100
AcDbArc
 50
315.1144932694
 51
0.0
  0
ARC
  5
BC
330
1F
100
AcDbEntity
  8
0
  6
Continuous
 62
     7
370
    25
100
AcDbCircle
 10
-9.7203610414
 20
-45.1479836639
 30
0.0
 40
16.29605263157896
100
AcDbArc
 50
180.0
 51
224.8855067306
  0
LINE
  5
BD
330
1F
100
AcDbEntity
  8
0
  6
Continuous
 62
     7
370
    25
100
AcDbLine
 10
-21.2664136729
 20
-56.6479836639
 30
0.0
 11
-21.2664136729
 21
-57.2331336829
 31
0.0
  0
LINE
  5
BE
330
1F
100
AcDbEntity
  8
0
  6
Continuous
 62
     7
370
    25
100
AcDbLine
 10
0.2335863271
 20
-57.2331336829
 30
0.0
 11
0.2335863271
 21
-56.6479836639
 31
0.0
  0
ARC
  5
BF
330
1F
100
AcDbEntity
  8
0
  6
Continuous
 62
     7
370
    25
100
AcDbCircle
 10
-20.6664136729
 20
-57.2331336829
 30
0.0
 40
0.6000000000000052
100
AcDbArc
 50
180.0
 51
249.724946748
  0
ARC
  5
C0
330
1F
100
AcDbEntity
  8
0
  6
Continuous
 62
     7
370
    25
100
AcDbCircle
 10
-0.3664136729
 20
-57.2331336829
 30
0.0
 40
0.6000000000000172
100
AcDbArc
 50
290.275053252
 51
0.0
  0
ARC
  5
C1
330
1F
100
AcDbEntity
  8
0
  6
Continuous
 62
     7
370
    25
100
AcDbCircle
 10
-10.5164136729
 20
-29.7573586639
 30
0.0
 40
29.89062499999997
100
AcDbArc
 50
249.724946748
 51
290.275053252
  0
LINE
  5
C2
330
1F
100
AcDbEntity
  8
0
  6
Continuous
 62
     7
370
    25
100
AcDbLine
 10
490.0561469222
 20
348.3520163361
 30
0.0
 11
490.0561469222
 21
348.937166355
 31
0.0
  0
LINE
  5
C3
330
1F
100
AcDbEntity
  8
0
  6
Continuous
 62
     7
370
    25
100
AcDbLine
 10
468.5561469222
 20
348.937166355
 30
0.0
 11
468.5561469222
 21
348.3520163361
 31
0.0
  0
ARC
  5
C4
330
1F
100
AcDbEntity
  8
0
  6
Continuous
 62
     7
370
    25
100
AcDbCircle
 10
489.4561469222
 20
348.937166355
 30
0.0
 40
0.5999999999999659
100
AcDbArc
 50
0.0
 51
69.724946748
  0
ARC
  5
C5
330
1F
100
AcDbEntity
  8
0
  6
Continuous
 62
     7
370
    25
100
AcDbCircle
 10
469.1561469222
 20
348.937166355
 30
0.0
 40
0.6000000000000227
100
AcDbArc
 50
110.275053252
 51
180.0
  0
ARC
  5
C6
330
1F
100
AcDbEntity
  8
0
  6
Continuous
 62
     7
370
    25
100
AcDbCircle
 10
479.3061469222
 20
321.4613913361
 30
0.0
 40
29.89062499999996
100
AcDbArc
 50
69.724946748
 51
110.275053252
  0
ARC
  5
C7
330
1F
100
AcDbEntity
  8
0
  6
Continuous
 62
     7
370
    25
100
AcDbCircle
 10
469.1561469222
 20
-57.2331336829
 30
0.0
 40
0.6000000000000227
100
AcDbArc
 50
180.0
 51
249.724946748
  0
ARC
  5
C8
330
1F
100
AcDbEntity
  8
0
  6
Continuous
 62
     7
370
    25
100
AcDbCircle
 10
489.4561469222
 20
-57.2331336829
 30
0.0
 40
0.5999999999999979
100
AcDbArc
 50
290.275053252
 51
0.0
  0
LINE
  5
C9
330
1F
100
AcDbEntity
  8
0
  6
Continuous
 62
     7
370
    25
100
AcDbLine
 10
468.5561469222
 20
-56.6479836639
 30
0.0
 11
468.5561469222
 21
-57.2331336829
 31
0.0
  0
LINE
  5
CA
330
1F
100
AcDbEntity
  8
0
  6
Continuous
 62
     7
370
    25
100
AcDbLine
 10
490.0561469222
 20
-57.2331336829
 30
0.0
 11
490.0561469222
 21
-56.6479836639
 31
0.0
  0
ARC
  5
CB
330
1F
100
AcDbEntity
  8
0
  6
Continuous
 62
     7
370
    25
100
AcDbCircle
 10
479.3061469222
 20
-29.7573586639
 30
0.0
 40
29.89062499999998
100
AcDbArc
 50
249.724946748
 51
290.275053252
  0
LINE
  5
CC
330
1F
100
AcDbEntity
  8
0
  6
Continuous
 62
     7
370
    25
100
AcDbLine
 10
0.2335863271
 20
348.3520163361
 30
0.0
 11
0.2335863271
 21
348.937166355
 31
0.0
  0
LINE
  5
CD
330
1F
100
AcDbEntity
  8
0
  6
Continuous
 62
     7
370
    25
100
AcDbLine
 10
-21.2664136729
 20
348.937166355
 30
0.0
 11
-21.2664136729
 21
348.3520163361
 31
0.0
  0
ARC
  5
CE
330
1F
100
AcDbEntity
  8
0
  6
Continuous
 62
     7
370
    25
100
AcDbCircle
 10
-0.3664136729
 20
348.937166355
 30
0.0
 40
0.6000000000000186
100
AcDbArc
 50
0.0
 51
69.724946748
  0
ARC
  5
CF
330
1F
100
AcDbEntity
  8
0
  6
Continuous
 62
     7
370
    25
100
AcDbCircle
 10
-20.6664136729
 20
348.937166355
 30
0.0
 40
0.6000000000000185
100
AcDbArc
 50
110.275053252
 51
180.0
  0
ARC
  5
D0
330
1F
100
AcDbEntity
  8
0
  6
Continuous
 62
     7
370
    25
100
AcDbCircle
 10
-10.5164136729
 20
321.4613913361
 30
0.0
 40
29.890625
100
AcDbArc
 50
69.724946748
 51
110.275053252
  0
ARC
  5
D1
330
1F
100
AcDbEntity
  8
0
  6
Continuous
 62
     7
370
    25
100
AcDbCircle
 10
365.3306346758
 20
323.8520163361
 30
0.0
 40
3.0
100
AcDbArc
 50
270.0
 51
0.0
  0
ARC
  5
D2
330
1F
100
AcDbEntity
  8
0
  6
Continuous
 62
     7
370
    25
100
AcDbCircle
 10
365.3306346758
 20
332.8520163361
 30
0.0
 40
3.0
100
AcDbArc
 50
0.0
 51
90.0
  0
LINE
  5
D3
330
1F
100
AcDbEntity
  8
0
  6
Continuous
 62
     7
370
    25
100
AcDbLine
 10
368.3306346758
 20
323.8520163361
 30
0.0
 11
368.3306346758
 21
332.8520163361
 31
0.0
  0
ARC
  5
D4
330
1F
100
AcDbEntity
  8
0
  6
Continuous
 62
     7
370
    25
100
AcDbCircle
 10
101.646098536
 20
332.8520163361
 30
0.0
 40
3.000000000000014
100
AcDbArc
 50
90.0
 51
180.0
  0
ARC
  5
D5
330
1F
100
AcDbEntity
  8
0
  6
Continuous
 62
     7
370
    25
100
AcDbCircle
 10
101.646098536
 20
323.8520163361
 30
0.0
 40
3.000000000000014
100
AcDbArc
 50
180.0
 51
270.0
  0
LINE
  5
D6
330
1F
100
AcDbEntity
  8
0
  6
Continuous
 62
     7
370
    25
100
AcDbLine
 10
98.646098536
 20
332.8520163361
 30
0.0
 11
98.646098536
 21
323.8520163361
 31
0.0
  0
LINE
  5
D7
330
1F
100
AcDbEntity
  8
0
  6
Continuous
 62
     7
370
    25
100
AcDbLine
 10
-88.7735670722
 20
332.8520163361
 30
0.0
 11
-88.7735670722
 21
323.8520163361
 31
0.0
  0
ARC
  5
D8
330
1F
100
AcDbEntity
  8
0
  6
Continuous
 62
     7
370
    25
100
AcDbCircle
 10
-85.7735670722
 20
332.8520163361
 30
0.0
 40
3.0
100
AcDbArc
 50
90.0
 51
180.0
  0
ARC
  5
D9
330
1F
100
AcDbEntity
  8
0
  6
Continuous
 62
     7
370
    25
100
AcDbCircle
 10
-85.7735670722
 20
323.8520163361
 30
0.0
 40
3.0
100
AcDbArc
 50
180.0
 51
270.0
  0
LINE
  5
DA
330
1F
100
AcDbEntity
  8
0
  6
Continuous
 62
     7
370
    25
100
AcDbLine
 10
561.8087035949
 20
323.8520163361
 30
0.0
 11
561.8087035949
 21
332.8520163361
 31
0.0
  0
ARC
  5
DB
330
1F
100
AcDbEntity
  8
0
  6
Continuous
 62
     7
370
    25
100
AcDbCircle
 10
558.8087035949
 20
332.8520163361
 30
0.0
 40
3.0
100
AcDbArc
 50
0.0
 51
90.0
  0
ARC
  5
DC
330
1F
100
AcDbEntity
  8
0
  6
Continuous
 62
     7
370
    25
100
AcDbCircle
 10
558.8087035949
 20
323.8520163361
 30
0.0
 40
3.0
100
AcDbArc
 50
270.0
 51
0.0
  0
ARC
  5
DD
330
1F
100
AcDbEntity
  8
0
  6
Continuous
 62
     7
370
    25
100
AcDbCircle
 10
148.8342207935
 20
-45.0979836639
 30
0.0
 40
0.95000000000001
100
AcDbArc
 50
300.9040212823
 51
90.0
  0
ARC
  5
DE
330
1F
100
AcDbEntity
  8
0
  6
Continuous
 62
     7
370
    25
100
AcDbCircle
 10
136.5342207935
 20
-45.0979836639
 30
0.0
 40
0.95000000000001
100
AcDbArc
 50
90.0
 51
239.0959787177
  0
ARC
  5
DF
330
1F
100
AcDbEntity
  8
0
  6
Continuous
 62
     7
370
    25
100
AcDbCircle
 10
142.6842207935
 20
-34.8237189581
 30
0.0
 40
12.9242647058824
100
AcDbArc
 50
239.0959787177
 51
300.9040212823
  0
CIRCLE
  5
E0
330
1F
100
AcDbEntity
  8
0
  6
Continuous
 62
     7
370
    25
100
AcDbCircle
 10
222.6842207935
 20
245.8520163361
 30
0.0
 40
7.099999999999994
  0
ARC
  5
E1
330
1F
100
AcDbEntity
  8
0
  6
Continuous
 62
     7
370
    25
100
AcDbCircle
 10
25.6937174915
 20
-28.1979836639
 30
0.0
 40
0.95000000000001
100
AcDbArc
 50
120.9040212823
 51
270.0
  0
ARC
  5
E2
330
1F
100
AcDbEntity
  8
0
  6
Continuous
 62
     7
370
    25
100
AcDbCircle
 10
37.9937174915
 20
-28.1979836639
 30
0.0
 40
0.95000000000001
100
AcDbArc
 50
270.0
 51
59.0959787177
  0
ARC
  5
E3
330
1F
100
AcDbEntity
  8
0
  6
Continuous
 62
     7
370
    25
100
AcDbCircle
 10
31.8437174915
 20
-38.4722483698
 30
0.0
 40
12.92426470588239
100
AcDbArc
 50
59.0959787177
 51
120.9040212823
  0
ARC
  5
E4
330
1F
100
AcDbEntity
  8
0
  6
Continuous
 62
     7
370
    25
100
AcDbCircle
 10
296.5342207935
 20
336.8020163361
 30
0.0
 40
0.9500000000000203
100
AcDbArc
 50
120.9040212823
 51
270.0
  0
ARC
  5
E5
330
1F
100
AcDbEntity
  8
0
  6
Continuous
 62
     7
370
    25
100
AcDbCircle
 10
308.8342207935
 20
336.8020163361
 30
0.0
 40
0.9499999999999911
100
AcDbArc
 50
270.0
 51
59.0959787177
  0
ARC
  5
E6
330
1F
100
AcDbEntity
  8
0
  6
Continuous
 62
     7
370
    25
100
AcDbCircle
 10
302.6842207935
 20
326.5277516302
 30
0.0
 40
12.92426470588237
100
AcDbArc
 50
59.0959787177
 51
120.9040212823
  0
ARC
  5
E7
330
1F
100
AcDbEntity
  8
0
  6
Continuous
 62
     7
370
    25
100
AcDbCircle
 10
308.8342207935
 20
-45.0979836639
 30
0.0
 40
0.95000000000001
100
AcDbArc
 50
300.9040212823
 51
90.0
  0
ARC
  5
E8
330
1F
100
AcDbEntity
  8
0
  6
Continuous
 62
     7
370
    25
100
AcDbCircle
 10
296.5342207935
 20
-45.0979836639
 30
0.0
 40
0.9500000000000203
100
AcDbArc
 50
90.0
 51
239.0959787177
  0
ARC
  5
E9
330
1F
100
AcDbEntity
  8
0
  6
Continuous
 62
     7
370
    25
100
AcDbCircle
 10
302.6842207935
 20
-34.8237189581
 30
0.0
 40
12.9242647058824
100
AcDbArc
 50
239.0959787177
 51
300.9040212823
  0
CIRCLE
  5
EA
330
1F
100
AcDbEntity
  8
0
  6
Continuous
 62
     7
370
    25
100
AcDbCircle
 10
222.6842207935
 20
45.8520163361
 30
0.0
 40
7.099999999999994
  0
ARC
  5
EB
330
1F
100
AcDbEntity
  8
0
  6
Continuous
 62
     7
370
    25
100
AcDbCircle
 10
37.9937174915
 20
319.9020163361
 30
0.0
 40
0.9500000000000435
100
AcDbArc
 50
300.9040212823
 51
90.0
  0
ARC
  5
EC
330
1F
100
AcDbEntity
  8
0
  6
Continuous
 62
     7
370
    25
100
AcDbCircle
 10
25.6937174915
 20
319.9020163361
 30
0.0
 40
0.950000000000058
100
AcDbArc
 50
90.0
 51
239.0959787177
  0
ARC
  5
ED
330
1F
100
AcDbEntity
  8
0
  6
Continuous
 62
     7
370
    25
100
AcDbCircle
 10
31.8437174915
 20
330.1762810419
 30
0.0
 40
12.9242647058824
100
AcDbArc
 50
239.0959787177
 51
300.9040212823
  0
ARC
  5
EE
330
1F
100
AcDbEntity
  8
0
  6
Continuous
 62
     7
370
    25
100
AcDbCircle
 10
136.5342207935
 20
336.8020163361
 30
0.0
 40
0.9499999999999911
100
AcDbArc
 50
120.9040212823
 51
270.0
  0
ARC
  5
EF
330
1F
100
AcDbEntity
  8
0
  6
Continuous
 62
     7
370
    25
100
AcDbCircle
 10
148.8342207935
 20
336.8020163361
 30
0.0
 40
0.9500000000000056
100
AcDbArc
 50
270.0
 51
59.0959787177
  0
ARC
  5
F0
330
1F
100
AcDbEntity
  8
0
  6
Continuous
 62
     7
370
    25
100
AcDbCircle
 10
142.6842207935
 20
326.5277516302
 30
0.0
 40
12.92426470588237
100
AcDbArc
 50
59.0959787177
 51
120.9040212823
  0
ARC
  5
F1
330
1F
100
AcDbEntity
  8
0
  6
Continuous
 62
     7
370
    25
100
AcDbCircle
 10
368.333772036
 20
318.8520163361
 30
0.0
 40
19.87230769230772
100
AcDbArc
 50
180.0
 51
227.7078116412
  0
ARC
  5
F2
330
1F
100
AcDbEntity
  8
0
  6
Continuous
 62
     7
370
    25
100
AcDbCircle
 10
368.5891566514
 20
318.8520163361
 30
0.0
 40
19.87230769230769
100
AcDbArc
 50
312.2921883588
 51
0.0
  0
LINE
  5
F3
330
1F
100
AcDbEntity
  8
0
  6
Continuous
 62
     7
370
    25
100
AcDbLine
 10
348.4614643437
 20
320.8520163361
 30
0.0
 11
348.4614643437
 21
318.8520163361
 31
0.0
  0
LINE
  5
F4
330
1F
100
AcDbEntity
  8
0
  6
Continuous
 62
     7
370
    25
100
AcDbLine
 10
388.4614643437
 20
318.8520163361
 30
0.0
 11
388.4614643437
 21
320.8520163361
 31
0.0
  0
ARC
  5
F5
330
1F
100
AcDbEntity
  8
0
  6
Continuous
 62
     7
370
    25
100
AcDbCircle
 10
446.5131015531
 20
-27.1479836639
 30
0.0
 40
19.87230769230769
100
AcDbArc
 50
0.0
 51
47.7078116412
  0
ARC
  5
F6
330
1F
100
AcDbEntity
  8
0
  6
Continuous
 62
     7
370
    25
100
AcDbCircle
 10
446.2577169377
 20
-27.1479836639
 30
0.0
 40
19.87230769230769
100
AcDbArc
 50
132.2921883588
 51
180.0
  0
LINE
  5
F7
330
1F
100
AcDbEntity
  8
0
  6
Continuous
 62
     7
370
    25
100
AcDbLine
 10
466.3854092454
 20
-29.1479836639
 30
0.0
 11
466.3854092454
 21
-27.1479836639
 31
0.0
  0
LINE
  5
F8
330
1F
100
AcDbEntity
  8
0
  6
Continuous
 62
     7
370
    25
100
AcDbLine
 10
426.3854092454
 20
-27.1479836639
 30
0.0
 11
426.3854092454
 21
-29.1479836639
 31
0.0
  0
LINE
  5
F9
330
1F
100
AcDbEntity
  8
0
  6
Continuous
 62
     7
370
    25
100
AcDbLine
 10
388.4614643437
 20
-29.1479836639
 30
0.0
 11
388.4614643437
 21
-27.1479836639
 31
0.0
  0
LINE
  5
FA
330
1F
100
AcDbEntity
  8
0
  6
Continuous
 62
     7
370
    25
100
AcDbLine
 10
348.4614643437
 20
-27.1479836639
 30
0.0
 11
348.4614643437
 21
-29.1479836639
 31
0.0
  0
ARC
  5
FB
330
1F
100
AcDbEntity
  8
0
  6
Continuous
 62
     7
370
    25
100
AcDbCircle
 10
368.5891566514
 20
-27.1479836639
 30
0.0
 40
19.87230769230774
100
AcDbArc
 50
0.0
 51
47.7078116412
  0
ARC
  5
FC
330
1F
100
AcDbEntity
  8
0
  6
Continuous
 62
     7
370
    25
100
AcDbCircle
 10
368.333772036
 20
-27.1479836639
 30
0.0
 40
19.87230769230774
100
AcDbArc
 50
132.2921883588
 51
180.0
  0
ARC
  5
FD
330
1F
100
AcDbEntity
  8
0
  6
Continuous
 62
     7
370
    25
100
AcDbCircle
 10
446.2577169377
 20
318.8520163361
 30
0.0
 40
19.87230769230769
100
AcDbArc
 50
180.0
 51
227.7078116412
  0
ARC
  5
FE
330
1F
100
AcDbEntity
  8
0
  6
Continuous
 62
     7
370
    25
100
AcDbCircle
 10
446.5131015531
 20
318.8520163361
 30
0.0
 40
19.87230769230769
100
AcDbArc
 50
312.2921883588
 51
0.0
  0
LINE
  5
FF
330
1F
100
AcDbEntity
  8
0
  6
Continuous
 62
     7
370
    25
100
AcDbLine
 10
426.3854092454
 20
320.8520163361
 30
0.0
 11
426.3854092454
 21
318.8520163361
 31
0.0
  0
LINE
  5
100
330
1F
100
AcDbEntity
  8
0
  6
Continuous
 62
     7
370
    25
100
AcDbLine
 10
466.3854092454
 20
318.8520163361
 30
0.0
 11
466.3854092454
 21
320.8520163361
 31
0.0
  0
LINE
  5
101
330
1F
100
AcDbEntity
  8
0
  6
Continuous
 62
     7
370
    25
100
AcDbLine
 10
381.9114643437
 20
-12.4479836639
 30
0.0
 11
381.9114643437
 21
304.1520163361
 31
0.0
  0
LINE
  5
102
330
1F
100
AcDbEntity
  8
0
  6
Continuous
 62
     7
370
    25
100
AcDbLine
 10
355.0114643437
 20
304.1520163361
 30
0.0
 11
355.0114643437
 21
-12.4479836639
 31
0.0
  0
LINE
  5
103
330
1F
100
AcDbEntity
  8
0
  6
Continuous
 62
     7
370
    25
100
AcDbLine
 10
459.8354092454
 20
-12.4479836639
 30
0.0
 11
459.8354092454
 21
304.1520163361
 31
0.0
  0
LINE
  5
104
330
1F
100
AcDbEntity
  8
0
  6
Continuous
 62
     7
370
    25
100
AcDbLine
 10
432.9354092454
 20
304.1520163361
 30
0.0
 11
432.9354092454
 21
-12.4479836639
 31
0.0
  0
ARC
  5
105
330
1F
100
AcDbEntity
  8
0
  6
Continuous
 62
     7
370
    25
100
AcDbCircle
 10
31.7160251838
 20
-61.1479836639
 30
0.0
 40
19.87230769230769
100
AcDbArc
 50
180.0
 51
226.9233678463
  0
ARC
  5
106
330
1F
100
AcDbEntity
  8
0
  6
Continuous
 62
     7
370
    25
100
AcDbCircle
 10
31.9714097992
 20
-61.1479836639
 30
0.0
 40
19.87230769230769
100
AcDbArc
 50
313.0766321537
 51
0.0
  0
LINE
  5
107
330
1F
100
AcDbEntity
  8
0
  6
Continuous
 62
     7
370
    25
100
AcDbLine
 10
11.8437174915
 20
-59.1479836639
 30
0.0
 11
11.8437174915
 21
-61.1479836639
 31
0.0
  0
LINE
  5
108
330
1F
100
AcDbEntity
  8
0
  6
Continuous
 62
     7
370
    25
100
AcDbLine
 10
51.8437174915
 20
-61.1479836639
 30
0.0
 11
51.8437174915
 21
-59.1479836639
 31
0.0
  0
LINE
  5
109
330
1F
100
AcDbEntity
  8
0
  6
Continuous
 62
     7
370
    25
100
AcDbLine
 10
466.3854092454
 20
350.8520163361
 30
0.0
 11
466.3854092454
 21
352.8520163361
 31
0.0
  0
LINE
  5
10A
330
1F
100
AcDbEntity
  8
0
  6
Continuous
 62
     7
370
    25
100
AcDbLine
 10
426.3854092454
 20
352.8520163361
 30
0.0
 11
426.3854092454
 21
350.8520163361
 31
0.0
  0
ARC
  5
10B
330
1F
100
AcDbEntity
  8
0
  6
Continuous
 62
     7
370
    25
100
AcDbCircle
 10
446.5131015531
 20
352.8520163361
 30
0.0
 40
19.87230769230769
100
AcDbArc
 50
0.0
 51
46.9233678463
  0
ARC
  5
10C
330
1F
100
AcDbEntity
  8
0
  6
Continuous
 62
     7
370
    25
100
AcDbCircle
 10
446.2577169377
 20
352.8520163361
 30
0.0
 40
19.87230769230773
100
AcDbArc
 50
133.0766321537
 51
180.0
  0
LINE
  5
10D
330
1F
100
AcDbEntity
  8
0
  6
Continuous
 62
     7
370
    25
100
AcDbLine
 10
322.6842207935
 20
-26.1479836639
 30
0.0
 11
322.6842207935
 21
-25.1479836639
 31
0.0
  0
LINE
  5
10E
330
1F
100
AcDbEntity
  8
0
  6
Continuous
 62
     7
370
    25
100
AcDbLine
 10
322.6842207935
 20
316.8520163361
 30
0.0
 11
322.6842207935
 21
317.8520163361
 31
0.0
  0
LINE
  5
10F
330
1F
100
AcDbEntity
  8
0
  6
Continuous
 62
     7
370
    25
100
AcDbLine
 10
122.6842207935
 20
-25.1479836639
 30
0.0
 11
122.6842207935
 21
-26.1479836639
 31
0.0
  0
ARC
  5
110
330
1F
100
AcDbEntity
  8
0
  6
Continuous
 62
     7
370
    25
100
AcDbCircle
 10
31.9714097992
 20
352.8520163361
 30
0.0
 40
19.87230769230769
100
AcDbArc
 50
0.0
 51
46.9233678463
  0
ARC
  5
111
330
1F
100
AcDbEntity
  8
0
  6
Continuous
 62
     7
370
    25
100
AcDbCircle
 10
31.7160251838
 20
352.8520163361
 30
0.0
 40
19.87230769230769
100
AcDbArc
 50
133.0766321537
 51
180.0
  0
LINE
  5
112
330
1F
100
AcDbEntity
  8
0
  6
Continuous
 62
     7
370
    25
100
AcDbLine
 10
51.8437174915
 20
350.8520163361
 30
0.0
 11
51.8437174915
 21
352.8520163361
 31
0.0
  0
LINE
  5
113
330
1F
100
AcDbEntity
  8
0
  6
Continuous
 62
     7
370
    25
100
AcDbLine
 10
11.8437174915
 20
352.8520163361
 30
0.0
 11
11.8437174915
 21
350.8520163361
 31
0.0
  0
ARC
  5
114
330
1F
100
AcDbEntity
  8
0
  6
Continuous
 62
     7
370
    25
100
AcDbCircle
 10
368.333772036
 20
-46.1479836639
 30
0.0
 40
19.87230769230771
100
AcDbArc
 50
180.0
 51
226.9233678463
  0
ARC
  5
115
330
1F
100
AcDbEntity
  8
0
  6
Continuous
 62
     7
370
    25
100
AcDbCircle
 10
368.5891566514
 20
-46.1479836639
 30
0.0
 40
19.87230769230771
100
AcDbArc
 50
313.0766321537
 51
0.0
  0
LINE
  5
116
330
1F
100
AcDbEntity
  8
0
  6
Continuous
 62
     7
370
    25
100
AcDbLine
 10
348.4614643437
 20
-44.1479836639
 30
0.0
 11
348.4614643437
 21
-46.1479836639
 31
0.0
  0
LINE
  5
117
330
1F
100
AcDbEntity
  8
0
  6
Continuous
 62
     7
370
    25
100
AcDbLine
 10
388.4614643437
 20
-46.1479836639
 30
0.0
 11
388.4614643437
 21
-44.1479836639
 31
0.0
  0
LINE
  5
118
330
1F
100
AcDbEntity
  8
0
  6
Continuous
 62
     7
370
    25
100
AcDbLine
 10
122.6842207935
 20
317.8520163361
 30
0.0
 11
122.6842207935
 21
316.8520163361
 31
0.0
  0
ARC
  5
119
330
1F
100
AcDbEntity
  8
0
  6
Continuous
 62
     7
370
    25
100
AcDbCircle
 10
446.2577169377
 20
-61.1479836639
 30
0.0
 40
19.87230769230774
100
AcDbArc
 50
180.0
 51
226.9233678463
  0
ARC
  5
11A
330
1F
100
AcDbEntity
  8
0
  6
Continuous
 62
     7
370
    25
100
AcDbCircle
 10
446.5131015531
 20
-61.1479836639
 30
0.0
 40
19.87230769230774
100
AcDbArc
 50
313.0766321537
 51
0.0
  0
LINE
  5
11B
330
1F
100
AcDbEntity
  8
0
  6
Continuous
 62
     7
370
    25
100
AcDbLine
 10
426.3854092454
 20
-59.1479836639
 30
0.0
 11
426.3854092454
 21
-61.1479836639
 31
0.0
  0
LINE
  5
11C
330
1F
100
AcDbEntity
  8
0
  6
Continuous
 62
     7
370
    25
100
AcDbLine
 10
466.3854092454
 20
-61.1479836639
 30
0.0
 11
466.3854092454
 21
-59.1479836639
 31
0.0
  0
ARC
  5
11D
330
1F
100
AcDbEntity
  8
0
  6
Continuous
 62
     7
370
    25
100
AcDbCircle
 10
368.5891566514
 20
337.8520163361
 30
0.0
 40
19.87230769230765
100
AcDbArc
 50
0.0
 51
46.9233678463
  0
ARC
  5
11E
330
1F
100
AcDbEntity
  8
0
  6
Continuous
 62
     7
370
    25
100
AcDbCircle
 10
368.333772036
 20
337.8520163361
 30
0.0
 40
19.87230769230765
100
AcDbArc
 50
133.0766321537
 51
180.0
  0
LINE
  5
11F
330
1F
100
AcDbEntity
  8
0
  6
Continuous
 62
     7
370
    25
100
AcDbLine
 10
388.4614643437
 20
335.8520163361
 30
0.0
 11
388.4614643437
 21
337.8520163361
 31
0.0
  0
LINE
  5
120
330
1F
100
AcDbEntity
  8
0
  6
Continuous
 62
     7
370
    25
100
AcDbLine
 10
348.4614643437
 20
337.8520163361
 30
0.0
 11
348.4614643437
 21
335.8520163361
 31
0.0
  0
ARC
  5
121
330
1F
100
AcDbEntity
  8
0
  6
Continuous
 62
     7
370
    25
100
AcDbCircle
 10
381.5614643437
 20
352.9824076545
 30
0.0
 40
0.6000000000000313
100
AcDbArc
 50
0.0
 51
63.6246146768
  0
ARC
  5
122
330
1F
100
AcDbEntity
  8
0
  6
Continuous
 62
     7
370
    25
100
AcDbCircle
 10
355.3614643437
 20
352.9824076545
 30
0.0
 40
0.600000000000006
100
AcDbArc
 50
116.3753853232
 51
180.0
  0
LINE
  5
123
330
1F
100
AcDbEntity
  8
0
  6
Continuous
 62
     7
370
    25
100
AcDbLine
 10
382.1614643437
 20
352.3675623789
 30
0.0
 11
382.1614643437
 21
352.9824076545
 31
0.0
  0
LINE
  5
124
330
1F
100
AcDbEntity
  8
0
  6
Continuous
 62
     7
370
    25
100
AcDbLine
 10
354.7614643437
 20
352.9824076545
 30
0.0
 11
354.7614643437
 21
352.3675623789
 31
0.0
  0
ARC
  5
125
330
1F
100
AcDbEntity
  8
0
  6
Continuous
 62
     7
370
    25
100
AcDbCircle
 10
368.4614643437
 20
326.5641375482
 30
0.0
 40
30.08787878787884
100
AcDbArc
 50
63.6246146768
 51
116.3753853232
  0
ARC
  5
126
330
1F
100
AcDbEntity
  8
0
  6
Continuous
 62
     7
370
    25
100
AcDbCircle
 10
44.9437174915
 20
367.9824076545
 30
0.0
 40
0.6000000000000156
100
AcDbArc
 50
0.0
 51
63.6246146768
  0
ARC
  5
127
330
1F
100
AcDbEntity
  8
0
  6
Continuous
 62
     7
370
    25
100
AcDbCircle
 10
18.7437174915
 20
367.9824076545
 30
0.0
 40
0.5999999999999908
100
AcDbArc
 50
116.3753853232
 51
180.0
  0
LINE
  5
128
330
1F
100
AcDbEntity
  8
0
  6
Continuous
 62
     7
370
    25
100
AcDbLine
 10
45.5437174915
 20
367.3675623789
 30
0.0
 11
45.5437174915
 21
367.9824076545
 31
0.0
  0
LINE
  5
129
330
1F
100
AcDbEntity
  8
0
  6
Continuous
 62
     7
370
    25
100
AcDbLine
 10
18.1437174915
 20
367.9824076545
 30
0.0
 11
18.1437174915
 21
367.3675623789
 31
0.0
  0
ARC
  5
12A
330
1F
100
AcDbEntity
  8
0
  6
Continuous
 62
     7
370
    25
100
AcDbCircle
 10
31.8437174915
 20
341.5641375482
 30
0.0
 40
30.08787878787878
100
AcDbArc
 50
63.6246146768
 51
116.3753853232
  0
LINE
  5
12B
330
1F
100
AcDbEntity
  8
0
  6
Continuous
 62
     7
370
    25
100
AcDbLine
 10
18.1437174915
 20
-75.6635297068
 30
0.0
 11
18.1437174915
 21
-76.2783749824
 31
0.0
  0
LINE
  5
12C
330
1F
100
AcDbEntity
  8
0
  6
Continuous
 62
     7
370
    25
100
AcDbLine
 10
45.5437174915
 20
-76.2783749824
 30
0.0
 11
45.5437174915
 21
-75.6635297068
 31
0.0
  0
ARC
  5
12D
330
1F
100
AcDbEntity
  8
0
  6
Continuous
 62
     7
370
    25
100
AcDbCircle
 10
18.7437174915
 20
-76.2783749824
 30
0.0
 40
0.600000000000014
100
AcDbArc
 50
180.0
 51
243.6246146768
  0
ARC
  5
12E
330
1F
100
AcDbEntity
  8
0
  6
Continuous
 62
     7
370
    25
100
AcDbCircle
 10
44.9437174915
 20
-76.2783749824
 30
0.0
 40
0.6000000000000123
100
AcDbArc
 50
296.3753853232
 51
0.0
  0
ARC
  5
12F
330
1F
100
AcDbEntity
  8
0
  6
Continuous
 62
     7
370
    25
100
AcDbCircle
 10
31.8437174915
 20
-49.8601048761
 30
0.0
 40
30.0878787878788
100
AcDbArc
 50
243.6246146768
 51
296.3753853232
  0
ARC
  5
130
330
1F
100
AcDbEntity
  8
0
  6
Continuous
 62
     7
370
    25
100
AcDbCircle
 10
459.4854092454
 20
367.9824076545
 30
0.0
 40
0.5999999999999808
100
AcDbArc
 50
0.0
 51
63.6246146768
  0
ARC
  5
131
330
1F
100
AcDbEntity
  8
0
  6
Continuous
 62
     7
370
    25
100
AcDbCircle
 10
433.2854092454
 20
367.9824076545
 30
0.0
 40
0.6000000000000796
100
AcDbArc
 50
116.3753853232
 51
180.0
  0
LINE
  5
132
330
1F
100
AcDbEntity
  8
0
  6
Continuous
 62
     7
370
    25
100
AcDbLine
 10
460.0854092454
 20
367.3675623789
 30
0.0
 11
460.0854092454
 21
367.9824076545
 31
0.0
  0
LINE
  5
133
330
1F
100
AcDbEntity
  8
0
  6
Continuous
 62
     7
370
    25
100
AcDbLine
 10
432.6854092454
 20
367.9824076545
 30
0.0
 11
432.6854092454
 21
367.3675623789
 31
0.0
  0
ARC
  5
134
330
1F
100
AcDbEntity
  8
0
  6
Continuous
 62
     7
370
    25
100
AcDbCircle
 10
446.3854092454
 20
341.5641375482
 30
0.0
 40
30.08787878787881
100
AcDbArc
 50
63.6246146768
 51
116.3753853232
  0
LINE
  5
135
330
1F
100
AcDbEntity
  8
0
  6
Continuous
 62
     7
370
    25
100
AcDbLine
 10
432.6854092454
 20
-75.6635297068
 30
0.0
 11
432.6854092454
 21
-76.2783749824
 31
0.0
  0
LINE
  5
136
330
1F
100
AcDbEntity
  8
0
  6
Continuous
 62
     7
370
    25
100
AcDbLine
 10
460.0854092454
 20
-76.2783749824
 30
0.0
 11
460.0854092454
 21
-75.6635297068
 31
0.0
  0
ARC
  5
137
330
1F
100
AcDbEntity
  8
0
  6
Continuous
 62
     7
370
    25
100
AcDbCircle
 10
433.2854092454
 20
-76.2783749824
 30
0.0
 40
0.6000000000000796
100
AcDbArc
 50
180.0
 51
243.6246146768
  0
ARC
  5
138
330
1F
100
AcDbEntity
  8
0
  6
Continuous
 62
     7
370
    25
100
AcDbCircle
 10
459.4854092454
 20
-76.2783749824
 30
0.0
 40
0.5999999999999933
100
AcDbArc
 50
296.3753853232
 51
0.0
  0
ARC
  5
139
330
1F
100
AcDbEntity
  8
0
  6
Continuous
 62
     7
370
    25
100
AcDbCircle
 10
446.3854092454
 20
-49.8601048761
 30
0.0
 40
30.08787878787876
100
AcDbArc
 50
243.6246146768
 51
296.3753853232
  0
LINE
  5
13A
330
1F
100
AcDbEntity
  8
0
  6
Continuous
 62
     7
370
    25
100
AcDbLine
 10
354.7614643437
 20
-60.6635297068
 30
0.0
 11
354.7614643437
 21
-61.2783749824
 31
0.0
  0
LINE
  5
13B
330
1F
100
AcDbEntity
  8
0
  6
Continuous
 62
     7
370
    25
100
AcDbLine
 10
382.1614643437
 20
-61.2783749824
 30
0.0
 11
382.1614643437
 21
-60.6635297068
 31
0.0
  0
ARC
  5
13C
330
1F
100
AcDbEntity
  8
0
  6
Continuous
 62
     7
370
    25
100
AcDbCircle
 10
355.3614643437
 20
-61.2783749824
 30
0.0
 40
0.5999999999999744
100
AcDbArc
 50
180.0
 51
243.6246146768
  0
ARC
  5
13D
330
1F
100
AcDbEntity
  8
0
  6
Continuous
 62
     7
370
    25
100
AcDbCircle
 10
381.5614643437
 20
-61.2783749824
 30
0.0
 40
0.6000000000000796
100
AcDbArc
 50
296.3753853232
 51
0.0
  0
ARC
  5
13E
330
1F
100
AcDbEntity
  8
0
  6
Continuous
 62
     7
370
    25
100
AcDbCircle
 10
368.4614643437
 20
-34.8601048761
 30
0.0
 40
30.08787878787882
100
AcDbArc
 50
243.6246146768
 51
296.3753853232
  0
LINE
  5
13F
330
1F
100
AcDbEntity
  8
0
  6
Continuous
 62
     7
370
    25
100
AcDbLine
 10
322.2775802286
 20
141.0170774463
 30
0.0
 11
322.2858046232
 21
141.1315923481
 31
0.0
  0
ARC
  5
140
330
1F
100
AcDbEntity
  8
0
  6
Continuous
 62
     7
370
    25
100
AcDbCircle
 10
223.4300618648
 20
148.955720975
 30
0.0
 40
99.17488060960177
100
AcDbArc
 50
0.1802072297
 51
40.1118876288
  0
ARC
  5
141
330
1F
100
AcDbEntity
  8
0
  6
Continuous
 62
     7
370
    25
100
AcDbCircle
 10
235.7898364175
 20
139.6463673207
 30
0.0
 40
84.00789489734561
100
AcDbArc
 50
318.1463822696
 51
332.2436778144
  0
LINE
  5
142
330
1F
100
AcDbEntity
  8
0
  6
Continuous
 62
     7
370
    25
100
AcDbLine
 10
-1388.7735670722
 20
398.2799870186
 30
0.0
 11
-1388.7735670722
 21
-106.5759543464
 31
0.0
  0
ARC
  5
143
330
1F
100
AcDbEntity
  8
0
  6
Continuous
 62
     7
370
    25
100
AcDbCircle
 10
-88.7735670722
 20
398.2799870186
 30
0.0
 40
1300.0
100
AcDbArc
 50
90.0
 51
180.0
  0
LINE
  5
144
330
1F
100
AcDbEntity
  8
0
  6
Continuous
 62
     7
370
    25
100
AcDbLine
 10
561.8087035949
 20
1698.2799870186
 30
0.0
 11
-88.7735670722
 21
1698.2799870186
 31
0.0
  0
ARC
  5
145
330
1F
100
AcDbEntity
  8
0
  6
Continuous
 62
     7
370
    25
100
AcDbCircle
 10
561.8087035949
 20
398.2799870186
 30
0.0
 40
1300.0
100
AcDbArc
 50
0.0
 51
90.0
  0
LINE
  5
146
330
1F
100
AcDbEntity
  8
0
  6
Continuous
 62
     7
370
    25
100
AcDbLine
 10
1861.8087035949
 20
-106.5759543464
 30
0.0
 11
1861.8087035949
 21
398.2799870186
 31
0.0
  0
ARC
  5
147
330
1F
100
AcDbEntity
  8
0
  6
Continuous
 62
     7
370
    25
100
AcDbCircle
 10
561.8087035949
 20
-106.5759543465
 30
0.0
 40
1300.0
100
AcDbArc
 50
270.0
 51
0.0
  0
LINE
  5
148
330
1F
100
AcDbEntity
  8
0
  6
Continuous
 62
     7
370
    25
100
AcDbLine
 10
-88.7735670722
 20
-1406.5759543465
 30
0.0
 11
561.8087035949
 21
-1406.5759543465
 31
0.0
  0
ARC
  5
149
330
1F
100
AcDbEntity
  8
0
  6
Continuous
 62
     7
370
    25
100
AcDbCircle
 10
-88.7735670722
 20
-106.5759543465
 30
0.0
 40
1300.0
100
AcDbArc
 50
180.0
 51
270.0
  0
LINE
  5
14A
330
1F
100
AcDbEntity
  8
0
  6
Continuous
 62
     7
370
    25
100
AcDbLine
 10
97.2837174915
 20
-59.1479836639
 30
0.0
 11
-5.0720932378
 21
-59.1479836639
 31
0.0
  0
LINE
  5
14B
330
1F
100
AcDbEntity
  8
0
  6
Continuous
 62
     7
370
    25
100
AcDbLine
 10
-15.960734108
 20
-59.1479836639
 30
0.0
 11
-33.5962825078
 21
-59.1479836639
 31
0.0
  0
LINE
  5
14C
330
1F
100
AcDbEntity
  8
0
  6
Continuous
 62
     7
370
    25
100
AcDbLine
 10
511.8254092454
 20
-59.1479836639
 30
0.0
 11
484.7504673573
 21
-59.1479836639
 31
0.0
  0
LINE
  5
14D
330
1F
100
AcDbEntity
  8
0
  6
Continuous
 62
     7
370
    25
100
AcDbLine
 10
473.8618264871
 20
-59.1479836639
 30
0.0
 11
387.4709853251
 21
-59.1479836639
 31
0.0
  0
LINE
  5
14E
330
1F
100
AcDbEntity
  8
0
  6
Continuous
 62
     7
370
    25
100
AcDbLine
 10
-33.5962825078
 20
350.8520163361
 30
0.0
 11
-15.960734108
 21
350.8520163361
 31
0.0
  0
LINE
  5
14F
330
1F
100
AcDbEntity
  8
0
  6
Continuous
 62
     7
370
    25
100
AcDbLine
 10
-5.0720932378
 20
350.8520163361
 30
0.0
 11
97.2837174915
 21
350.8520163361
 31
0.0
  0
LINE
  5
150
330
1F
100
AcDbEntity
  8
0
  6
Continuous
 62
     7
370
    25
100
AcDbLine
 10
387.4709853251
 20
350.8520163361
 30
0.0
 11
473.8618264871
 21
350.8520163361
 31
0.0
  0
LINE
  5
151
330
1F
100
AcDbEntity
  8
0
  6
Continuous
 62
     7
370
    25
100
AcDbLine
 10
484.7504673573
 20
350.8520163361
 30
0.0
 11
511.8254092454
 21
350.8520163361
 31
0.0
  0
LINE
  5
152
330
1F
100
AcDbEntity
  8
0
  6
Continuous
 62
     7
370
    25
100
AcDbLine
 10
114.7889630768
 20
-44.1479836639
 30
0.0
 11
350.4913123093
 21
-44.1479836639
 31
0.0
  0
ARC
  5
153
330
1F
100
AcDbEntity
  8
0
  6
Continuous
 62
     7
370
    25
100
AcDbCircle
 10
117.8498082129
 20
-41.857665068
 30
0.0
 40
3.822869631329596
100
AcDbArc
 50
169.3014926622
 51
216.8061671331
  0
LINE
  5
154
330
1F
100
AcDbEntity
  8
0
  6
Continuous
 62
     7
370
    25
100
AcDbLine
 10
350.9898508438
 20
-41.1479836639
 30
0.0
 11
114.0933891038
 21
-41.1479836639
 31
0.0
  0
ARC
  5
155
330
1F
100
AcDbEntity
  8
0
  6
Continuous
 62
     7
370
    25
100
AcDbCircle
 10
346.1027551955
 20
-41.8772719414
 30
0.0
 40
4.941210911049186
100
AcDbArc
 50
332.6422103461
 51
8.4874646389
  0
LINE
  5
156
330
1F
100
AcDbEntity
  8
0
  6
Continuous
 62
     7
370
    25
100
AcDbLine
 10
114.0933891038
 20
-32.1479836639
 30
0.0
 11
350.9898508438
 21
-32.1479836639
 31
0.0
  0
LINE
  5
157
330
1F
100
AcDbEntity
  8
0
  6
Continuous
 62
     7
370
    25
100
AcDbLine
 10
350.9898508438
 20
-41.1479836639
 30
0.0
 11
350.9898508438
 21
-32.1479836639
 31
0.0
  0
LINE
  5
158
330
1F
100
AcDbEntity
  8
0
  6
Continuous
 62
     7
370
    25
100
AcDbLine
 10
114.0933891038
 20
-41.1479836639
 30
0.0
 11
114.0933891038
 21
-32.1479836639
 31
0.0
  0
ARC
  5
159
330
1F
100
AcDbEntity
  8
0
  6
Continuous
 62
     7
370
    25
100
AcDbCircle
 10
117.8498082129
 20
-31.4383022599
 30
0.0
 40
3.82286963132949
100
AcDbArc
 50
143.1938328669
 51
190.6985073378
  0
LINE
  5
15A
330
1F
100
AcDbEntity
  8
0
  6
Continuous
 62
     7
370
    25
100
AcDbLine
 10
350.4913123093
 20
-29.1479836639
 30
0.0
 11
114.7889630768
 21
-29.1479836639
 31
0.0
  0
ARC
  5
15B
330
1F
100
AcDbEntity
  8
0
  6
Continuous
 62
     7
370
    25
100
AcDbCircle
 10
346.1027551955
 20
-31.4186953865
 30
0.0
 40
4.941210911047871
100
AcDbArc
 50
351.5125353611
 51
27.3577896539
  0
LINE
  5
15C
330
1F
100
AcDbEntity
  8
0
  6
Continuous
 62
     7
370
    25
100
AcDbLine
 10
350.4913123093
 20
-44.1479836639
 30
0.0
 11
365.3306346758
 21
-44.1479836639
 31
0.0
  0
LINE
  5
15D
330
1F
100
AcDbEntity
  8
0
  6
Continuous
 62
     7
370
    25
100
AcDbLine
 10
365.3306346758
 20
-29.1479836639
 30
0.0
 11
350.4913123093
 21
-29.1479836639
 31
0.0
  0
LINE
  5
15E
330
1F
100
AcDbEntity
  8
0
  6
Continuous
 62
     7
370
    25
100
AcDbLine
 10
101.646098536
 20
-44.1479836639
 30
0.0
 11
114.7889630768
 21
-44.1479836639
 31
0.0
  0
LINE
  5
15F
330
1F
100
AcDbEntity
  8
0
  6
Continuous
 62
     7
370
    25
100
AcDbLine
 10
114.7889630768
 20
-29.1479836639
 30
0.0
 11
101.646098536
 21
-29.1479836639
 31
0.0
  0
ARC
  5
160
330
1F
100
AcDbEntity
  8
0
  6
Continuous
 62
     7
370
    25
100
AcDbCircle
 10
96.5022452465
 20
-31.8436263528
 30
0.0
 40
2.724405992571814
100
AcDbArc
 50
98.3330490111
 51
186.4141935165
  0
LINE
  5
161
330
1F
100
AcDbEntity
  8
0
  6
Continuous
 62
     7
370
    25
100
AcDbLine
 10
101.646098536
 20
-29.1479836639
 30
0.0
 11
96.1074053972
 21
-29.1479836639
 31
0.0
  0
ARC
  5
162
330
1F
100
AcDbEntity
  8
0
  6
Continuous
 62
     7
370
    25
100
AcDbCircle
 10
96.5022452465
 20
-41.4523409751
 30
0.0
 40
2.724405992571825
100
AcDbArc
 50
173.5858064835
 51
261.6669509889
  0
LINE
  5
163
330
1F
100
AcDbEntity
  8
0
  6
Continuous
 62
     7
370
    25
100
AcDbLine
 10
96.1074053972
 20
-44.1479836639
 30
0.0
 11
101.646098536
 21
-44.1479836639
 31
0.0
  0
LINE
  5
164
330
1F
100
AcDbEntity
  8
0
  6
Continuous
 62
     7
370
    25
100
AcDbLine
 10
93.7948932857
 20
-41.1479836639
 30
0.0
 11
93.7948932857
 21
-32.1479836639
 31
0.0
  0
LINE
  5
165
330
1F
100
AcDbEntity
  8
0
  6
Continuous
 62
     7
370
    25
100
AcDbLine
 10
434.0861069882
 20
-32.1479836639
 30
0.0
 11
434.0861069882
 21
-41.1479836639
 31
0.0
  0
ARC
  5
166
330
1F
100
AcDbEntity
  8
0
  6
Continuous
 62
     7
370
    25
100
AcDbCircle
 10
431.1755337139
 20
-41.2375976019
 30
0.0
 40
2.911952513863862
100
AcDbArc
 50
271.8794183926
 51
1.7635284936
  0
LINE
  5
167
330
1F
100
AcDbEntity
  8
0
  6
Continuous
 62
     7
370
    25
100
AcDbLine
 10
365.3306346758
 20
-44.1479836639
 30
0.0
 11
380.8782806403
 21
-44.1479836639
 31
0.0
  0
LINE
  5
168
330
1F
100
AcDbEntity
  8
0
  6
Continuous
 62
     7
370
    25
100
AcDbLine
 10
388.3928190226
 20
-44.1479836639
 30
0.0
 11
431.2710345655
 21
-44.1479836639
 31
0.0
  0
ARC
  5
169
330
1F
100
AcDbEntity
  8
0
  6
Continuous
 62
     7
370
    25
100
AcDbCircle
 10
431.1755337139
 20
-32.058369726
 30
0.0
 40
2.911952513863917
100
AcDbArc
 50
358.2364715064
 51
88.1205816074
  0
LINE
  5
16A
330
1F
100
AcDbEntity
  8
0
  6
Continuous
 62
     7
370
    25
100
AcDbLine
 10
431.2710345655
 20
-29.1479836639
 30
0.0
 11
388.3928190226
 21
-29.1479836639
 31
0.0
  0
LINE
  5
16B
330
1F
100
AcDbEntity
  8
0
  6
Continuous
 62
     7
370
    25
100
AcDbLine
 10
380.8782806403
 20
-29.1479836639
 30
0.0
 11
365.3306346758
 21
-29.1479836639
 31
0.0
  0
ARC
  5
16C
330
1F
100
AcDbEntity
  8
0
  6
Continuous
 62
     7
370
    25
100
AcDbCircle
 10
26.6353697477
 20
-41.2699043198
 30
0.0
 40
2.881161368759512
100
AcDbArc
 50
177.5747191424
 51
267.3496049498
  0
LINE
  5
16D
330
1F
100
AcDbEntity
  8
0
  6
Continuous
 62
     7
370
    25
100
AcDbLine
 10
93.7948932857
 20
-41.1479836639
 30
0.0
 11
23.7567891623
 21
-41.1479836639
 31
0.0
  0
LINE
  5
16E
330
1F
100
AcDbEntity
  8
0
  6
Continuous
 62
     7
370
    25
100
AcDbLine
 10
26.5021401653
 20
-44.1479836639
 30
0.0
 11
96.1074053972
 21
-44.1479836639
 31
0.0
  0
LINE
  5
16F
330
1F
100
AcDbEntity
  8
0
  6
Continuous
 62
     7
370
    25
100
AcDbLine
 10
23.7567891623
 20
-32.1479836639
 30
0.0
 11
93.7948932857
 21
-32.1479836639
 31
0.0
  0
LINE
  5
170
330
1F
100
AcDbEntity
  8
0
  6
Continuous
 62
     7
370
    25
100
AcDbLine
 10
23.7567891623
 20
-41.1479836639
 30
0.0
 11
23.7567891623
 21
-32.1479836639
 31
0.0
  0
ARC
  5
171
330
1F
100
AcDbEntity
  8
0
  6
Continuous
 62
     7
370
    25
100
AcDbCircle
 10
26.6353697477
 20
-32.0260630081
 30
0.0
 40
2.881161368759392
100
AcDbArc
 50
92.6503950502
 51
182.4252808576
  0
LINE
  5
172
330
1F
100
AcDbEntity
  8
0
  6
Continuous
 62
     7
370
    25
100
AcDbLine
 10
96.1074053972
 20
-29.1479836639
 30
0.0
 11
26.5021401653
 21
-29.1479836639
 31
0.0
  0
ARC
  5
173
330
1F
100
AcDbEntity
  8
0
  6
Continuous
 62
     7
370
    25
100
AcDbCircle
 10
-10.1875591895
 20
-41.8824487271
 30
0.0
 40
5.583532141148373
100
AcDbArc
 50
172.4413329089
 51
203.9383228278
  0
LINE
  5
174
330
1F
100
AcDbEntity
  8
0
  6
Continuous
 62
     7
370
    25
100
AcDbLine
 10
23.7567891623
 20
-41.1479836639
 30
0.0
 11
-15.7225742971
 21
-41.1479836639
 31
0.0
  0
LINE
  5
175
330
1F
100
AcDbEntity
  8
0
  6
Continuous
 62
     7
370
    25
100
AcDbLine
 10
-15.2908113507
 20
-44.1479836639
 30
0.0
 11
26.5021401653
 21
-44.1479836639
 31
0.0
  0
LINE
  5
176
330
1F
100
AcDbEntity
  8
0
  6
Continuous
 62
     7
370
    25
100
AcDbLine
 10
-15.7225742971
 20
-32.1479836639
 30
0.0
 11
23.7567891623
 21
-32.1479836639
 31
0.0
  0
LINE
  5
177
330
1F
100
AcDbEntity
  8
0
  6
Continuous
 62
     7
370
    25
100
AcDbLine
 10
-15.7225742971
 20
-41.1479836639
 30
0.0
 11
-15.7225742971
 21
-32.1479836639
 31
0.0
  0
ARC
  5
178
330
1F
100
AcDbEntity
  8
0
  6
Continuous
 62
     7
370
    25
100
AcDbCircle
 10
-10.1875591895
 20
-31.4135186008
 30
0.0
 40
5.583532141148682
100
AcDbArc
 50
156.0616771722
 51
187.5586670911
  0
LINE
  5
179
330
1F
100
AcDbEntity
  8
0
  6
Continuous
 62
     7
370
    25
100
AcDbLine
 10
26.5021401653
 20
-29.1479836639
 30
0.0
 11
-15.2908113507
 21
-29.1479836639
 31
0.0
  0
LWPOLYLINE
  5
17A
330
1F
100
AcDbEntity
  8
0
  6
Continuous
 62
     7
370
    25
100
AcDbPolyline
 90
        9
 70
   128
 43
0.0
 10
435.9433399548
 20
-32.1479836639
 10
435.9249353383
 20
-31.5627126979
 10
435.8704287676
 20
-30.9999333668
 10
435.7819148999
 20
-30.4812729649
 10
435.6627952734
 20
-30.0266633204
 10
435.5176475886
 20
-29.653574827
 10
435.3520497895
 20
-29.3763450664
 10
435.1723657067
 20
-29.2056278227
 10
434.9855004988
 20
-29.1479836639
  0
LINE
  5
17B
330
1F
100
AcDbEntity
  8
0
  6
Continuous
 62
     7
370
    25
100
AcDbLine
 10
434.0861069882
 20
-32.1479836639
 30
0.0
 11
435.9433399548
 21
-32.1479836639
 31
0.0
  0
LINE
  5
17C
330
1F
100
AcDbEntity
  8
0
  6
Continuous
 62
     7
370
    25
100
AcDbLine
 10
434.9855004988
 20
-29.1479836639
 30
0.0
 11
431.2710345655
 21
-29.1479836639
 31
0.0
  0
LINE
  5
17D
330
1F
100
AcDbEntity
  8
0
  6
Continuous
 62
     7
370
    25
100
AcDbLine
 10
435.9433399548
 20
-41.1479836639
 30
0.0
 11
435.9433399548
 21
-32.1479836639
 31
0.0
  0
LINE
  5
17E
330
1F
100
AcDbEntity
  8
0
  6
Continuous
 62
     7
370
    25
100
AcDbLine
 10
435.9433399548
 20
-41.1479836639
 30
0.0
 11
434.0861069882
 21
-41.1479836639
 31
0.0
  0
LWPOLYLINE
  5
17F
330
1F
100
AcDbEntity
  8
0
  6
Continuous
 62
     7
370
    25
100
AcDbPolyline
 90
        9
 70
   128
 43
0.0
 10
434.9855004988
 20
-44.1479836639
 10
435.1723657067
 20
-44.0903395052
 10
435.3520497895
 20
-43.9196222615
 10
435.5176475886
 20
-43.6423925009
 10
435.6627952734
 20
-43.2693040075
 10
435.7819148999
 20
-42.814694363
 10
435.8704287676
 20
-42.296033961
 10
435.9249353383
 20
-41.73325463
 10
435.9433399548
 20
-41.1479836639
  0
LINE
  5
180
330
1F
100
AcDbEntity
  8
0
  6
Continuous
 62
     7
370
    25
100
AcDbLine
 10
431.2710345655
 20
-44.1479836639
 30
0.0
 11
434.9855004988
 21
-44.1479836639
 31
0.0
  0
ARC
  5
181
330
1F
100
AcDbEntity
  8
0
  6
Continuous
 62
     7
370
    25
100
AcDbCircle
 10
554.4339550384
 20
-31.8888044826
 30
0.0
 40
2.759482547404958
100
AcDbArc
 50
354.6106586103
 51
83.3327798305
  0
LINE
  5
182
330
1F
100
AcDbEntity
  8
0
  6
Continuous
 62
     7
370
    25
100
AcDbLine
 10
435.9433399548
 20
-32.1479836639
 30
0.0
 11
557.1812391666
 21
-32.1479836639
 31
0.0
  0
LINE
  5
183
330
1F
100
AcDbEntity
  8
0
  6
Continuous
 62
     7
370
    25
100
AcDbLine
 10
554.7543378864
 20
-29.1479836639
 30
0.0
 11
434.9855004988
 21
-29.1479836639
 31
0.0
  0
LINE
  5
184
330
1F
100
AcDbEntity
  8
0
  6
Continuous
 62
     7
370
    25
100
AcDbLine
 10
557.1812391666
 20
-41.1479836639
 30
0.0
 11
435.9433399548
 21
-41.1479836639
 31
0.0
  0
ARC
  5
185
330
1F
100
AcDbEntity
  8
0
  6
Continuous
 62
     7
370
    25
100
AcDbCircle
 10
554.4339550384
 20
-41.4071628453
 30
0.0
 40
2.759482547405155
100
AcDbArc
 50
276.6672201695
 51
5.3893413896
  0
LINE
  5
186
330
1F
100
AcDbEntity
  8
0
  6
Continuous
 62
     7
370
    25
100
AcDbLine
 10
434.9855004988
 20
-44.1479836639
 30
0.0
 11
554.7543378864
 21
-44.1479836639
 31
0.0
  0
LINE
  5
187
330
1F
100
AcDbEntity
  8
0
  6
Continuous
 62
     7
370
    25
100
AcDbLine
 10
557.1812391666
 20
-41.1479836639
 30
0.0
 11
557.1812391666
 21
-32.1479836639
 31
0.0
  0
ARC
  5
188
330
1F
100
AcDbEntity
  8
0
  6
Continuous
 62
     7
370
    25
100
AcDbCircle
 10
-32.8832799862
 20
-41.5349079738
 30
0.0
 40
2.671594866683414
100
AcDbArc
 50
171.6726251487
 51
257.9857303289
  0
LINE
  5
189
330
1F
100
AcDbEntity
  8
0
  6
Continuous
 62
     7
370
    25
100
AcDbLine
 10
-15.7225742971
 20
-41.1479836639
 30
0.0
 11
-35.5267074413
 21
-41.1479836639
 31
0.0
  0
LINE
  5
18A
330
1F
100
AcDbEntity
  8
0
  6
Continuous
 62
     7
370
    25
100
AcDbLine
 10
-33.4393866031
 20
-44.1479836639
 30
0.0
 11
-15.2908113507
 21
-44.1479836639
 31
0.0
  0
LINE
  5
18B
330
1F
100
AcDbEntity
  8
0
  6
Continuous
 62
     7
370
    25
100
AcDbLine
 10
-35.5267074413
 20
-32.1479836639
 30
0.0
 11
-15.7225742971
 21
-32.1479836639
 31
0.0
  0
LINE
  5
18C
330
1F
100
AcDbEntity
  8
0
  6
Continuous
 62
     7
370
    25
100
AcDbLine
 10
-35.5267074413
 20
-41.1479836639
 30
0.0
 11
-35.5267074413
 21
-32.1479836639
 31
0.0
  0
ARC
  5
18D
330
1F
100
AcDbEntity
  8
0
  6
Continuous
 62
     7
370
    25
100
AcDbCircle
 10
-32.8832799862
 20
-31.7610593541
 30
0.0
 40
2.671594866683457
100
AcDbArc
 50
102.0142696711
 51
188.3273748513
  0
LINE
  5
18E
330
1F
100
AcDbEntity
  8
0
  6
Continuous
 62
     7
370
    25
100
AcDbLine
 10
-15.2908113507
 20
-29.1479836639
 30
0.0
 11
-33.4393866031
 21
-29.1479836639
 31
0.0
  0
LINE
  5
18F
330
1F
100
AcDbEntity
  8
0
  6
Continuous
 62
     7
370
    25
100
AcDbLine
 10
-83.9657452353
 20
-32.1479836639
 30
0.0
 11
-35.5267074413
 21
-32.1479836639
 31
0.0
  0
ARC
  5
190
330
1F
100
AcDbEntity
  8
0
  6
Continuous
 62
     7
370
    25
100
AcDbCircle
 10
-81.1076247075
 20
-32.0052666838
 30
0.0
 40
2.861681514006126
100
AcDbArc
 50
93.177127418
 51
182.8586249177
  0
LINE
  5
191
330
1F
100
AcDbEntity
  8
0
  6
Continuous
 62
     7
370
    25
100
AcDbLine
 10
-33.4393866031
 20
-29.1479836639
 30
0.0
 11
-81.2662274564
 21
-29.1479836639
 31
0.0
  0
ARC
  5
192
330
1F
100
AcDbEntity
  8
0
  6
Continuous
 62
     7
370
    25
100
AcDbCircle
 10
-81.1076247075
 20
-41.2907006441
 30
0.0
 40
2.861681514006035
100
AcDbArc
 50
177.1413750823
 51
266.822872582
  0
LINE
  5
193
330
1F
100
AcDbEntity
  8
0
  6
Continuous
 62
     7
370
    25
100
AcDbLine
 10
-35.5267074413
 20
-41.1479836639
 30
0.0
 11
-83.9657452353
 21
-41.1479836639
 31
0.0
  0
LINE
  5
194
330
1F
100
AcDbEntity
  8
0
  6
Continuous
 62
     7
370
    25
100
AcDbLine
 10
-81.2662274564
 20
-44.1479836639
 30
0.0
 11
-33.4393866031
 21
-44.1479836639
 31
0.0
  0
LINE
  5
195
330
1F
100
AcDbEntity
  8
0
  6
Continuous
 62
     7
370
    25
100
AcDbLine
 10
-83.9657452353
 20
-41.1479836639
 30
0.0
 11
-83.9657452353
 21
-32.1479836639
 31
0.0
  0
LINE
  5
196
330
1F
100
AcDbEntity
  8
0
  6
Continuous
 62
     7
370
    25
100
AcDbLine
 10
-85.7735670722
 20
-44.1479836639
 30
0.0
 11
-81.2662274564
 21
-44.1479836639
 31
0.0
  0
LINE
  5
197
330
1F
100
AcDbEntity
  8
0
  6
Continuous
 62
     7
370
    25
100
AcDbLine
 10
-81.2662274564
 20
-29.1479836639
 30
0.0
 11
-85.7735670722
 21
-29.1479836639
 31
0.0
  0
LINE
  5
198
330
1F
100
AcDbEntity
  8
0
  6
Continuous
 62
     7
370
    25
100
AcDbLine
 10
558.8087035949
 20
-29.1479836639
 30
0.0
 11
554.7543378864
 21
-29.1479836639
 31
0.0
  0
LINE
  5
199
330
1F
100
AcDbEntity
  8
0
  6
Continuous
 62
     7
370
    25
100
AcDbLine
 10
554.7543378864
 20
-44.1479836639
 30
0.0
 11
558.8087035949
 21
-44.1479836639
 31
0.0
  0
LWPOLYLINE
  5
19A
330
1F
100
AcDbEntity
  8
0
  6
Continuous
 62
     7
370
    25
100
AcDbPolyline
 90
       19
 70
   128
 43
0.0
 10
371.5150404409
 20
398.2799870186
 10
371.9311939726
 20
398.1924650747
 10
372.3441803247
 20
397.9305653379
 10
372.7508564217
 20
397.4962810232
 10
373.1481272128
 20
396.8929172966
 10
373.5329692275
 20
396.1250661204
 10
373.9024535857
 20
395.1985713056
 10
374.2537682883
 20
394.1204840372
 10
374.5842396183
 20
392.8990092103
 10
374.8913524893
 20
391.5434429859
 10
375.172769587
 20
390.0641020414
 10
375.4263491572
 20
388.4722450546
 10
375.6501613064
 20
386.7799870186
 10
375.842502689
 20
385.0002070386
 10
376.0019094708
 20
383.1464503151
 10
376.1271684701
 20
381.2328250559
 10
376.2173263903
 20
379.2738951049
 10
376.271697075
 20
377.2845691018
 10
376.2898667306
 20
375.2799870186
  0
LINE
  5
19B
330
1F
100
AcDbEntity
  8
0
  6
Continuous
 62
     7
370
    25
100
AcDbLine
 10
376.2898667306
 20
375.2799870186
 30
0.0
 11
372.7324226269
 21
375.2799870186
 31
0.0
  0
LWPOLYLINE
  5
19C
330
1F
100
AcDbEntity
  8
0
  6
Continuous
 62
     7
370
    25
100
AcDbPolyline
 90
       18
 70
   128
 43
0.0
 10
372.7324226269
 20
375.2799870186
 10
372.7147108294
 20
377.1253542078
 10
372.6617265476
 20
378.9549773749
 10
372.5739218247
 20
380.75324682
 10
372.4520457797
 20
382.5048203423
 10
372.297138216
 20
384.1947541341
 10
372.1105207504
 20
385.8086302761
 10
371.8937855372
 20
387.3326797462
 10
371.6487816848
 20
388.7538998915
 10
371.3775994798
 20
390.060165363
 10
371.0825525532
 20
391.2403315642
 10
370.7661581411
 20
392.2843297332
 10
370.4311156094
 20
393.1832528457
 10
370.0802834225
 20
393.9294316067
 10
369.7166547572
 20
394.516499882
 10
369.3433319649
 20
394.9394490122
 10
368.9635001041
 20
395.1946705445
 10
368.5803997663
 20
395.2799870186
  0
ARC
  5
19D
330
1F
100
AcDbEntity
  8
0
  6
Continuous
 62
     7
370
    25
100
AcDbCircle
 10
371.5480840188
 20
395.3123106945
 30
0.0
 40
2.967860280138414
100
AcDbArc
 50
90.6379332226
 51
180.6240343719
  0
LINE
  5
19E
330
1F
100
AcDbEntity
  8
0
  6
Continuous
 62
     7
370
    25
100
AcDbLine
 10
371.5150404409
 20
398.2799870186
 30
0.0
 11
380.3189624645
 21
398.2799870186
 31
0.0
  0
LWPOLYLINE
  5
19F
330
1F
100
AcDbEntity
  8
0
  6
Continuous
 62
     7
370
    25
100
AcDbPolyline
 90
       19
 70
   128
 43
0.0
 10
385.0937887542
 20
375.2799870186
 10
385.0756190986
 20
377.2845691018
 10
385.0212484139
 20
379.2738951049
 10
384.9310904938
 20
381.2328250559
 10
384.8058314945
 20
383.1464503151
 10
384.6464247126
 20
385.0002070386
 10
384.4540833301
 20
386.7799870186
 10
384.2302711809
 20
388.4722450546
 10
383.9766916106
 20
390.0641020414
 10
383.695274513
 20
391.5434429859
 10
383.3881616419
 20
392.8990092103
 10
383.057690312
 20
394.1204840372
 10
382.7063756094
 20
395.1985713056
 10
382.3368912512
 20
396.1250661204
 10
381.9520492365
 20
396.8929172966
 10
381.5547784453
 20
397.4962810232
 10
381.1481023484
 20
397.9305653379
 10
380.7351159963
 20
398.1924650747
 10
380.3189624645
 20
398.2799870186
  0
LINE
  5
1A0
330
1F
100
AcDbEntity
  8
0
  6
Continuous
 62
     7
370
    25
100
AcDbLine
 10
376.2898667306
 20
375.2799870186
 30
0.0
 11
385.0937887542
 21
375.2799870186
 31
0.0
  0
LWPOLYLINE
  5
1A1
330
1F
100
AcDbEntity
  8
0
  6
Continuous
 62
     7
370
    25
100
AcDbPolyline
 90
       18
 70
   128
 43
0.0
 10
363.9985343597
 20
395.2799870186
 10
363.6154340219
 20
395.1946705445
 10
363.2356021611
 20
394.9394490122
 10
362.8622793688
 20
394.516499882
 10
362.4986507035
 20
393.9294316067
 10
362.1478185167
 20
393.1832528457
 10
361.8127759849
 20
392.2843297332
 10
361.4963815729
 20
391.2403315642
 10
361.2013346462
 20
390.060165363
 10
360.9301524412
 20
388.7538998915
 10
360.6851485889
 20
387.3326797462
 10
360.4684133757
 20
385.8086302761
 10
360.28179591
 20
384.1947541341
 10
360.1268883463
 20
382.5048203423
 10
360.0050123013
 20
380.75324682
 10
359.9172075785
 20
378.9549773749
 10
359.8642232966
 20
377.1253542078
 10
359.8465114991
 20
375.2799870186
  0
LINE
  5
1A2
330
1F
100
AcDbEntity
  8
0
  6
Continuous
 62
     7
370
    25
100
AcDbLine
 10
368.5803997663
 20
395.2799870186
 30
0.0
 11
363.9985343597
 21
395.2799870186
 31
0.0
  0
LINE
  5
1A3
330
1F
100
AcDbEntity
  8
0
  6
Continuous
 62
     7
370
    25
100
AcDbLine
 10
366.9331750343
 20
398.2799870186
 30
0.0
 11
371.5150404409
 21
398.2799870186
 31
0.0
  0
ARC
  5
1A4
330
1F
100
AcDbEntity
  8
0
  6
Continuous
 62
     7
370
    25
100
AcDbCircle
 10
366.9662186122
 20
395.3123106945
 30
0.0
 40
2.967860280138527
100
AcDbArc
 50
90.6379332226
 51
180.6240343719
  0
LWPOLYLINE
  5
1A5
330
1F
100
AcDbEntity
  8
0
  6
Continuous
 62
     7
370
    25
100
AcDbPolyline
 90
       18
 70
   128
 43
0.0
 10
368.5803997663
 20
-103.5759543465
 10
368.9635001041
 20
-103.4906378724
 10
369.3433319649
 20
-103.2354163401
 10
369.7166547572
 20
-102.8124672099
 10
370.0802834225
 20
-102.2253989345
 10
370.4311156094
 20
-101.4792201736
 10
370.7661581412
 20
-100.5802970611
 10
371.0825525532
 20
-99.5362988921
 10
371.3775994798
 20
-98.3561326909
 10
371.6487816848
 20
-97.0498672194
 10
371.8937855372
 20
-95.628647074
 10
372.1105207504
 20
-94.104597604
 10
372.297138216
 20
-92.490721462
 10
372.4520457797
 20
-90.8007876702
 10
372.5739218247
 20
-89.0492141479
 10
372.6617265476
 20
-87.2509447028
 10
372.7147108294
 20
-85.4213215357
 10
372.7324226269
 20
-83.5759543465
  0
LINE
  5
1A6
330
1F
100
AcDbEntity
  8
0
  6
Continuous
 62
     7
370
    25
100
AcDbLine
 10
372.7324226269
 20
-83.5759543465
 30
0.0
 11
376.2898667306
 21
-83.5759543465
 31
0.0
  0
LWPOLYLINE
  5
1A7
330
1F
100
AcDbEntity
  8
0
  6
Continuous
 62
     7
370
    25
100
AcDbPolyline
 90
       19
 70
   128
 43
0.0
 10
376.2898667306
 20
-83.5759543465
 10
376.271697075
 20
-85.5805364297
 10
376.2173263903
 20
-87.5698624328
 10
376.1271684701
 20
-89.5287923838
 10
376.0019094708
 20
-91.4424176429
 10
375.842502689
 20
-93.2961743665
 10
375.6501613064
 20
-95.0759543465
 10
375.4263491572
 20
-96.7682123825
 10
375.172769587
 20
-98.3600693692
 10
374.8913524893
 20
-99.8394103137
 10
374.5842396183
 20
-101.1949765382
 10
374.2537682883
 20
-102.4164513651
 10
373.9024535857
 20
-103.4945386335
 10
373.5329692275
 20
-104.4210334483
 10
373.1481272128
 20
-105.1888846245
 10
372.7508564217
 20
-105.7922483511
 10
372.3441803248
 20
-106.2265326657
 10
371.9311939726
 20
-106.4884324026
 10
371.5150404409
 20
-106.5759543465
  0
ARC
  5
1A8
330
1F
100
AcDbEntity
  8
0
  6
Continuous
 62
     7
370
    25
100
AcDbCircle
 10
371.5480840188
 20
-103.6082780224
 30
0.0
 40
2.967860280138301
100
AcDbArc
 50
179.3759656281
 51
269.3620667774
  0
LINE
  5
1A9
330
1F
100
AcDbEntity
  8
0
  6
Continuous
 62
     7
370
    25
100
AcDbLine
 10
385.0937887542
 20
-83.5759543465
 30
0.0
 11
376.2898667306
 21
-83.5759543465
 31
0.0
  0
LWPOLYLINE
  5
1AA
330
1F
100
AcDbEntity
  8
0
  6
Continuous
 62
     7
370
    25
100
AcDbPolyline
 90
       19
 70
   128
 43
0.0
 10
380.3189624645
 20
-106.5759543465
 10
380.7351159963
 20
-106.4884324026
 10
381.1481023484
 20
-106.2265326657
 10
381.5547784453
 20
-105.7922483511
 10
381.9520492365
 20
-105.1888846245
 10
382.3368912512
 20
-104.4210334483
 10
382.7063756094
 20
-103.4945386335
 10
383.057690312
 20
-102.4164513651
 10
383.3881616419
 20
-101.1949765382
 10
383.695274513
 20
-99.8394103137
 10
383.9766916106
 20
-98.3600693692
 10
384.2302711809
 20
-96.7682123825
 10
384.4540833301
 20
-95.0759543465
 10
384.6464247126
 20
-93.2961743665
 10
384.8058314945
 20
-91.4424176429
 10
384.9310904938
 20
-89.5287923838
 10
385.0212484139
 20
-87.5698624328
 10
385.0756190986
 20
-85.5805364297
 10
385.0937887542
 20
-83.5759543465
  0
LINE
  5
1AB
330
1F
100
AcDbEntity
  8
0
  6
Continuous
 62
     7
370
    25
100
AcDbLine
 10
380.3189624645
 20
-106.5759543465
 30
0.0
 11
371.5150404409
 21
-106.5759543465
 31
0.0
  0
LINE
  5
1AC
330
1F
100
AcDbEntity
  8
0
  6
Continuous
 62
     7
370
    25
100
AcDbLine
 10
363.9985343597
 20
-103.5759543465
 30
0.0
 11
368.5803997663
 21
-103.5759543465
 31
0.0
  0
LWPOLYLINE
  5
1AD
330
1F
100
AcDbEntity
  8
0
  6
Continuous
 62
     7
370
    25
100
AcDbPolyline
 90
       18
 70
   128
 43
0.0
 10
359.8465114991
 20
-83.5759543465
 10
359.8642232966
 20
-85.4213215357
 10
359.9172075785
 20
-87.2509447028
 10
360.0050123013
 20
-89.0492141479
 10
360.1268883463
 20
-90.8007876702
 10
360.28179591
 20
-92.490721462
 10
360.4684133757
 20
-94.104597604
 10
360.6851485889
 20
-95.628647074
 10
360.9301524412
 20
-97.0498672194
 10
361.2013346462
 20
-98.3561326909
 10
361.4963815729
 20
-99.5362988921
 10
361.8127759849
 20
-100.5802970611
 10
362.1478185167
 20
-101.4792201736
 10
362.4986507035
 20
-102.2253989345
 10
362.8622793688
 20
-102.8124672099
 10
363.2356021611
 20
-103.2354163401
 10
363.6154340219
 20
-103.4906378724
 10
363.9985343597
 20
-103.5759543465
  0
LINE
  5
1AE
330
1F
100
AcDbEntity
  8
0
  6
Continuous
 62
     7
370
    25
100
AcDbLine
 10
371.5150404409
 20
-106.5759543465
 30
0.0
 11
366.9331750343
 21
-106.5759543465
 31
0.0
  0
ARC
  5
1AF
330
1F
100
AcDbEntity
  8
0
  6
Continuous
 62
     7
370
    25
100
AcDbCircle
 10
366.9662186122
 20
-103.6082780224
 30
0.0
 40
2.967860280138384
100
AcDbArc
 50
179.3759656281
 51
269.3620667774
  0
LINE
  5
1B0
330
1F
100
AcDbEntity
  8
0
  6
Continuous
 62
     7
370
    25
100
AcDbLine
 10
490.0561469222
 20
348.3520163361
 30
0.0
 11
468.5561469222
 21
348.3520163361
 31
0.0
  0
LINE
  5
1B1
330
1F
100
AcDbEntity
  8
0
  6
Continuous
 62
     7
370
    25
100
AcDbLine
 10
0.2335863271
 20
348.3520163361
 30
0.0
 11
-21.2664136729
 21
348.3520163361
 31
0.0
  0
LINE
  5
1B2
330
1F
100
AcDbEntity
  8
0
  6
Continuous
 62
     7
370
    25
100
AcDbLine
 10
468.6492995386
 20
-56.6479836639
 30
0.0
 11
490.0561469222
 21
-56.6479836639
 31
0.0
  0
LINE
  5
1B3
330
1F
100
AcDbEntity
  8
0
  6
Continuous
 62
     7
370
    25
100
AcDbLine
 10
468.5561469222
 20
-56.6479836639
 30
0.0
 11
468.6492995386
 21
-56.6479836639
 31
0.0
  0
LINE
  5
1B4
330
1F
100
AcDbEntity
  8
0
  6
Continuous
 62
     7
370
    25
100
AcDbLine
 10
-21.1732610566
 20
-56.6479836639
 30
0.0
 11
0.2335863271
 21
-56.6479836639
 31
0.0
  0
LINE
  5
1B5
330
1F
100
AcDbEntity
  8
0
  6
Continuous
 62
     7
370
    25
100
AcDbLine
 10
-21.2664136729
 20
-56.6479836639
 30
0.0
 11
-21.1732610566
 21
-56.6479836639
 31
0.0
  0
LINE
  5
1B6
330
1F
100
AcDbEntity
  8
0
  6
Continuous
 62
     7
370
    25
100
AcDbLine
 10
350.9898508438
 20
332.8520163361
 30
0.0
 11
114.0933891038
 21
332.8520163361
 31
0.0
  0
ARC
  5
1B7
330
1F
100
AcDbEntity
  8
0
  6
Continuous
 62
     7
370
    25
100
AcDbCircle
 10
117.8498082128
 20
333.5616977401
 30
0.0
 40
3.822869631329606
100
AcDbArc
 50
143.1938328669
 51
190.6985073378
  0
LINE
  5
1B8
330
1F
100
AcDbEntity
  8
0
  6
Continuous
 62
     7
370
    25
100
AcDbLine
 10
114.7889630768
 20
335.8520163361
 30
0.0
 11
350.4913123092
 21
335.8520163361
 31
0.0
  0
ARC
  5
1B9
330
1F
100
AcDbEntity
  8
0
  6
Continuous
 62
     7
370
    25
100
AcDbCircle
 10
346.1027551955
 20
333.5813046135
 30
0.0
 40
4.941210911051179
100
AcDbArc
 50
351.5125353611
 51
27.3577896539
  0
LINE
  5
1BA
330
1F
100
AcDbEntity
  8
0
  6
Continuous
 62
     7
370
    25
100
AcDbLine
 10
350.9898508438
 20
332.8520163361
 30
0.0
 11
350.9898508438
 21
323.8520163361
 31
0.0
  0
LINE
  5
1BB
330
1F
100
AcDbEntity
  8
0
  6
Continuous
 62
     7
370
    25
100
AcDbLine
 10
114.0933891038
 20
323.8520163361
 30
0.0
 11
350.9898508438
 21
323.8520163361
 31
0.0
  0
LINE
  5
1BC
330
1F
100
AcDbEntity
  8
0
  6
Continuous
 62
     7
370
    25
100
AcDbLine
 10
114.0933891038
 20
332.8520163361
 30
0.0
 11
114.0933891038
 21
323.8520163361
 31
0.0
  0
LINE
  5
1BD
330
1F
100
AcDbEntity
  8
0
  6
Continuous
 62
     7
370
    25
100
AcDbLine
 10
350.4913123092
 20
320.8520163361
 30
0.0
 11
114.7889630768
 21
320.8520163361
 31
0.0
  0
ARC
  5
1BE
330
1F
100
AcDbEntity
  8
0
  6
Continuous
 62
     7
370
    25
100
AcDbCircle
 10
117.8498082128
 20
323.142334932
 30
0.0
 40
3.822869631329254
100
AcDbArc
 50
169.3014926622
 51
216.8061671331
  0
ARC
  5
1BF
330
1F
100
AcDbEntity
  8
0
  6
Continuous
 62
     7
370
    25
100
AcDbCircle
 10
346.1027551955
 20
323.1227280586
 30
0.0
 40
4.941210911050134
100
AcDbArc
 50
332.6422103461
 51
8.4874646389
  0
LINE
  5
1C0
330
1F
100
AcDbEntity
  8
0
  6
Continuous
 62
     7
370
    25
100
AcDbLine
 10
365.3306346758
 20
320.8520163361
 30
0.0
 11
350.4913123092
 21
320.8520163361
 31
0.0
  0
LINE
  5
1C1
330
1F
100
AcDbEntity
  8
0
  6
Continuous
 62
     7
370
    25
100
AcDbLine
 10
350.4913123092
 20
335.8520163361
 30
0.0
 11
365.3306346758
 21
335.8520163361
 31
0.0
  0
LINE
  5
1C2
330
1F
100
AcDbEntity
  8
0
  6
Continuous
 62
     7
370
    25
100
AcDbLine
 10
101.646098536
 20
335.8520163361
 30
0.0
 11
114.7889630768
 21
335.8520163361
 31
0.0
  0
LINE
  5
1C3
330
1F
100
AcDbEntity
  8
0
  6
Continuous
 62
     7
370
    25
100
AcDbLine
 10
114.7889630768
 20
320.8520163361
 30
0.0
 11
101.646098536
 21
320.8520163361
 31
0.0
  0
ARC
  5
1C4
330
1F
100
AcDbEntity
  8
0
  6
Continuous
 62
     7
370
    25
100
AcDbCircle
 10
96.5022452465
 20
323.5476590249
 30
0.0
 40
2.724405992571763
100
AcDbArc
 50
173.5858064835
 51
261.6669509889
  0
LINE
  5
1C5
330
1F
100
AcDbEntity
  8
0
  6
Continuous
 62
     7
370
    25
100
AcDbLine
 10
101.646098536
 20
320.8520163361
 30
0.0
 11
96.1074053972
 21
320.8520163361
 31
0.0
  0
ARC
  5
1C6
330
1F
100
AcDbEntity
  8
0
  6
Continuous
 62
     7
370
    25
100
AcDbCircle
 10
96.5022452465
 20
333.1563736472
 30
0.0
 40
2.724405992571964
100
AcDbArc
 50
98.3330490111
 51
186.4141935164
  0
LINE
  5
1C7
330
1F
100
AcDbEntity
  8
0
  6
Continuous
 62
     7
370
    25
100
AcDbLine
 10
96.1074053972
 20
335.8520163361
 30
0.0
 11
101.646098536
 21
335.8520163361
 31
0.0
  0
LINE
  5
1C8
330
1F
100
AcDbEntity
  8
0
  6
Continuous
 62
     7
370
    25
100
AcDbLine
 10
93.7948932857
 20
332.8520163361
 30
0.0
 11
93.7948932857
 21
323.8520163361
 31
0.0
  0
LINE
  5
1C9
330
1F
100
AcDbEntity
  8
0
  6
Continuous
 62
     7
370
    25
100
AcDbLine
 10
434.0861069882
 20
323.8520163361
 30
0.0
 11
434.0861069882
 21
332.8520163361
 31
0.0
  0
ARC
  5
1CA
330
1F
100
AcDbEntity
  8
0
  6
Continuous
 62
     7
370
    25
100
AcDbCircle
 10
431.1755337139
 20
332.941630274
 30
0.0
 40
2.911952513863883
100
AcDbArc
 50
358.2364715064
 51
88.1205816074
  0
LINE
  5
1CB
330
1F
100
AcDbEntity
  8
0
  6
Continuous
 62
     7
370
    25
100
AcDbLine
 10
365.3306346758
 20
335.8520163361
 30
0.0
 11
380.8782806403
 21
335.8520163361
 31
0.0
  0
LINE
  5
1CC
330
1F
100
AcDbEntity
  8
0
  6
Continuous
 62
     7
370
    25
100
AcDbLine
 10
388.3928190226
 20
335.8520163361
 30
0.0
 11
431.2710345655
 21
335.8520163361
 31
0.0
  0
ARC
  5
1CD
330
1F
100
AcDbEntity
  8
0
  6
Continuous
 62
     7
370
    25
100
AcDbCircle
 10
431.1755337139
 20
323.7624023981
 30
0.0
 40
2.911952513864059
100
AcDbArc
 50
271.8794183926
 51
1.7635284936
  0
LINE
  5
1CE
330
1F
100
AcDbEntity
  8
0
  6
Continuous
 62
     7
370
    25
100
AcDbLine
 10
431.2710345655
 20
320.8520163361
 30
0.0
 11
388.3928190226
 21
320.8520163361
 31
0.0
  0
LINE
  5
1CF
330
1F
100
AcDbEntity
  8
0
  6
Continuous
 62
     7
370
    25
100
AcDbLine
 10
380.8782806403
 20
320.8520163361
 30
0.0
 11
365.3306346758
 21
320.8520163361
 31
0.0
  0
LINE
  5
1D0
330
1F
100
AcDbEntity
  8
0
  6
Continuous
 62
     7
370
    25
100
AcDbLine
 10
93.7948932857
 20
332.8520163361
 30
0.0
 11
23.7567891623
 21
332.8520163361
 31
0.0
  0
ARC
  5
1D1
330
1F
100
AcDbEntity
  8
0
  6
Continuous
 62
     7
370
    25
100
AcDbCircle
 10
26.6353697477
 20
332.9739369919
 30
0.0
 40
2.881161368759464
100
AcDbArc
 50
92.6503950502
 51
182.4252808576
  0
LINE
  5
1D2
330
1F
100
AcDbEntity
  8
0
  6
Continuous
 62
     7
370
    25
100
AcDbLine
 10
26.5021401653
 20
335.8520163361
 30
0.0
 11
96.1074053972
 21
335.8520163361
 31
0.0
  0
ARC
  5
1D3
330
1F
100
AcDbEntity
  8
0
  6
Continuous
 62
     7
370
    25
100
AcDbCircle
 10
26.6353697477
 20
323.7300956802
 30
0.0
 40
2.881161368759405
100
AcDbArc
 50
177.5747191424
 51
267.3496049499
  0
LINE
  5
1D4
330
1F
100
AcDbEntity
  8
0
  6
Continuous
 62
     7
370
    25
100
AcDbLine
 10
23.7567891623
 20
323.8520163361
 30
0.0
 11
93.7948932857
 21
323.8520163361
 31
0.0
  0
LINE
  5
1D5
330
1F
100
AcDbEntity
  8
0
  6
Continuous
 62
     7
370
    25
100
AcDbLine
 10
96.1074053972
 20
320.8520163361
 30
0.0
 11
26.5021401653
 21
320.8520163361
 31
0.0
  0
LINE
  5
1D6
330
1F
100
AcDbEntity
  8
0
  6
Continuous
 62
     7
370
    25
100
AcDbLine
 10
23.7567891623
 20
332.8520163361
 30
0.0
 11
23.7567891623
 21
323.8520163361
 31
0.0
  0
LINE
  5
1D7
330
1F
100
AcDbEntity
  8
0
  6
Continuous
 62
     7
370
    25
100
AcDbLine
 10
23.7567891623
 20
332.8520163361
 30
0.0
 11
-15.7225742971
 21
332.8520163361
 31
0.0
  0
ARC
  5
1D8
330
1F
100
AcDbEntity
  8
0
  6
Continuous
 62
     7
370
    25
100
AcDbCircle
 10
-10.1875591895
 20
333.5864813992
 30
0.0
 40
5.583532141146502
100
AcDbArc
 50
156.0616771722
 51
187.5586670911
  0
LINE
  5
1D9
330
1F
100
AcDbEntity
  8
0
  6
Continuous
 62
     7
370
    25
100
AcDbLine
 10
-15.2908113507
 20
335.8520163361
 30
0.0
 11
26.5021401653
 21
335.8520163361
 31
0.0
  0
LINE
  5
1DA
330
1F
100
AcDbEntity
  8
0
  6
Continuous
 62
     7
370
    25
100
AcDbLine
 10
-15.7225742971
 20
323.8520163361
 30
0.0
 11
23.7567891623
 21
323.8520163361
 31
0.0
  0
LINE
  5
1DB
330
1F
100
AcDbEntity
  8
0
  6
Continuous
 62
     7
370
    25
100
AcDbLine
 10
-15.7225742971
 20
332.8520163361
 30
0.0
 11
-15.7225742971
 21
323.8520163361
 31
0.0
  0
ARC
  5
1DC
330
1F
100
AcDbEntity
  8
0
  6
Continuous
 62
     7
370
    25
100
AcDbCircle
 10
-10.1875591895
 20
323.1175512729
 30
0.0
 40
5.583532141147528
100
AcDbArc
 50
172.4413329089
 51
203.9383228278
  0
LINE
  5
1DD
330
1F
100
AcDbEntity
  8
0
  6
Continuous
 62
     7
370
    25
100
AcDbLine
 10
26.5021401653
 20
320.8520163361
 30
0.0
 11
-15.2908113507
 21
320.8520163361
 31
0.0
  0
LWPOLYLINE
  5
1DE
330
1F
100
AcDbEntity
  8
0
  6
Continuous
 62
     7
370
    25
100
AcDbPolyline
 90
        9
 70
   128
 43
0.0
 10
434.9855004988
 20
335.8520163361
 10
435.1723657067
 20
335.7943721773
 10
435.3520497895
 20
335.6236549336
 10
435.5176475886
 20
335.346425173
 10
435.6627952734
 20
334.9733366796
 10
435.7819148999
 20
334.5187270351
 10
435.8704287676
 20
334.0000666332
 10
435.9249353383
 20
333.4372873021
 10
435.9433399548
 20
332.8520163361
  0
LINE
  5
1DF
330
1F
100
AcDbEntity
  8
0
  6
Continuous
 62
     7
370
    25
100
AcDbLine
 10
435.9433399548
 20
332.8520163361
 30
0.0
 11
434.0861069882
 21
332.8520163361
 31
0.0
  0
LINE
  5
1E0
330
1F
100
AcDbEntity
  8
0
  6
Continuous
 62
     7
370
    25
100
AcDbLine
 10
431.2710345655
 20
335.8520163361
 30
0.0
 11
434.9855004988
 21
335.8520163361
 31
0.0
  0
LINE
  5
1E1
330
1F
100
AcDbEntity
  8
0
  6
Continuous
 62
     7
370
    25
100
AcDbLine
 10
434.0861069882
 20
323.8520163361
 30
0.0
 11
435.9433399548
 21
323.8520163361
 31
0.0
  0
LWPOLYLINE
  5
1E2
330
1F
100
AcDbEntity
  8
0
  6
Continuous
 62
     7
370
    25
100
AcDbPolyline
 90
        9
 70
   128
 43
0.0
 10
435.9433399548
 20
323.8520163361
 10
435.9249353383
 20
323.26674537
 10
435.8704287676
 20
322.703966039
 10
435.7819148999
 20
322.185305637
 10
435.6627952734
 20
321.7306959925
 10
435.5176475886
 20
321.3576074991
 10
435.3520497895
 20
321.0803777385
 10
435.1723657067
 20
320.9096604948
 10
434.9855004988
 20
320.8520163361
  0
LINE
  5
1E3
330
1F
100
AcDbEntity
  8
0
  6
Continuous
 62
     7
370
    25
100
AcDbLine
 10
434.9855004988
 20
320.8520163361
 30
0.0
 11
431.2710345655
 21
320.8520163361
 31
0.0
  0
LINE
  5
1E4
330
1F
100
AcDbEntity
  8
0
  6
Continuous
 62
     7
370
    25
100
AcDbLine
 10
435.9433399548
 20
332.8520163361
 30
0.0
 11
435.9433399548
 21
323.8520163361
 31
0.0
  0
ARC
  5
1E5
330
1F
100
AcDbEntity
  8
0
  6
Continuous
 62
     7
370
    25
100
AcDbCircle
 10
554.4339550384
 20
333.1111955174
 30
0.0
 40
2.759482547405288
100
AcDbArc
 50
354.6106586104
 51
83.3327798305
  0
LINE
  5
1E6
330
1F
100
AcDbEntity
  8
0
  6
Continuous
 62
     7
370
    25
100
AcDbLine
 10
557.1812391666
 20
332.8520163361
 30
0.0
 11
435.9433399548
 21
332.8520163361
 31
0.0
  0
LINE
  5
1E7
330
1F
100
AcDbEntity
  8
0
  6
Continuous
 62
     7
370
    25
100
AcDbLine
 10
434.9855004988
 20
335.8520163361
 30
0.0
 11
554.7543378864
 21
335.8520163361
 31
0.0
  0
LINE
  5
1E8
330
1F
100
AcDbEntity
  8
0
  6
Continuous
 62
     7
370
    25
100
AcDbLine
 10
435.9433399548
 20
323.8520163361
 30
0.0
 11
557.1812391666
 21
323.8520163361
 31
0.0
  0
ARC
  5
1E9
330
1F
100
AcDbEntity
  8
0
  6
Continuous
 62
     7
370
    25
100
AcDbCircle
 10
554.4339550384
 20
323.5928371547
 30
0.0
 40
2.759482547405158
100
AcDbArc
 50
276.6672201695
 51
5.3893413896
  0
LINE
  5
1EA
330
1F
100
AcDbEntity
  8
0
  6
Continuous
 62
     7
370
    25
100
AcDbLine
 10
554.7543378864
 20
320.8520163361
 30
0.0
 11
434.9855004988
 21
320.8520163361
 31
0.0
  0
LINE
  5
1EB
330
1F
100
AcDbEntity
  8
0
  6
Continuous
 62
     7
370
    25
100
AcDbLine
 10
557.1812391666
 20
332.8520163361
 30
0.0
 11
557.1812391666
 21
323.8520163361
 31
0.0
  0
ARC
  5
1EC
330
1F
100
AcDbEntity
  8
0
  6
Continuous
 62
     7
370
    25
100
AcDbCircle
 10
-32.8832799862
 20
323.4650920262
 30
0.0
 40
2.671594866683427
100
AcDbArc
 50
171.6726251487
 51
257.9857303289
  0
LINE
  5
1ED
330
1F
100
AcDbEntity
  8
0
  6
Continuous
 62
     7
370
    25
100
AcDbLine
 10
-35.5267074413
 20
323.8520163361
 30
0.0
 11
-15.7225742971
 21
323.8520163361
 31
0.0
  0
LINE
  5
1EE
330
1F
100
AcDbEntity
  8
0
  6
Continuous
 62
     7
370
    25
100
AcDbLine
 10
-15.2908113507
 20
320.8520163361
 30
0.0
 11
-33.4393866031
 21
320.8520163361
 31
0.0
  0
LINE
  5
1EF
330
1F
100
AcDbEntity
  8
0
  6
Continuous
 62
     7
370
    25
100
AcDbLine
 10
-15.7225742971
 20
332.8520163361
 30
0.0
 11
-35.5267074413
 21
332.8520163361
 31
0.0
  0
ARC
  5
1F0
330
1F
100
AcDbEntity
  8
0
  6
Continuous
 62
     7
370
    25
100
AcDbCircle
 10
-32.8832799862
 20
333.2389406459
 30
0.0
 40
2.671594866683623
100
AcDbArc
 50
102.0142696711
 51
188.3273748513
  0
LINE
  5
1F1
330
1F
100
AcDbEntity
  8
0
  6
Continuous
 62
     7
370
    25
100
AcDbLine
 10
-33.4393866031
 20
335.8520163361
 30
0.0
 11
-15.2908113507
 21
335.8520163361
 31
0.0
  0
LINE
  5
1F2
330
1F
100
AcDbEntity
  8
0
  6
Continuous
 62
     7
370
    25
100
AcDbLine
 10
-35.5267074413
 20
332.8520163361
 30
0.0
 11
-35.5267074413
 21
323.8520163361
 31
0.0
  0
LINE
  5
1F3
330
1F
100
AcDbEntity
  8
0
  6
Continuous
 62
     7
370
    25
100
AcDbLine
 10
-35.5267074413
 20
332.8520163361
 30
0.0
 11
-83.9657452353
 21
332.8520163361
 31
0.0
  0
ARC
  5
1F4
330
1F
100
AcDbEntity
  8
0
  6
Continuous
 62
     7
370
    25
100
AcDbCircle
 10
-81.1076247075
 20
332.9947333162
 30
0.0
 40
2.861681514006055
100
AcDbArc
 50
93.177127418
 51
182.8586249177
  0
LINE
  5
1F5
330
1F
100
AcDbEntity
  8
0
  6
Continuous
 62
     7
370
    25
100
AcDbLine
 10
-81.2662274564
 20
335.8520163361
 30
0.0
 11
-33.4393866031
 21
335.8520163361
 31
0.0
  0
ARC
  5
1F6
330
1F
100
AcDbEntity
  8
0
  6
Continuous
 62
     7
370
    25
100
AcDbCircle
 10
-81.1076247075
 20
323.7092993559
 30
0.0
 40
2.861681514006159
100
AcDbArc
 50
177.1413750823
 51
266.822872582
  0
LINE
  5
1F7
330
1F
100
AcDbEntity
  8
0
  6
Continuous
 62
     7
370
    25
100
AcDbLine
 10
-83.9657452353
 20
323.8520163361
 30
0.0
 11
-35.5267074413
 21
323.8520163361
 31
0.0
  0
LINE
  5
1F8
330
1F
100
AcDbEntity
  8
0
  6
Continuous
 62
     7
370
    25
100
AcDbLine
 10
-33.4393866031
 20
320.8520163361
 30
0.0
 11
-81.2662274564
 21
320.8520163361
 31
0.0
  0
LINE
  5
1F9
330
1F
100
AcDbEntity
  8
0
  6
Continuous
 62
     7
370
    25
100
AcDbLine
 10
-83.9657452353
 20
332.8520163361
 30
0.0
 11
-83.9657452353
 21
323.8520163361
 31
0.0
  0
LINE
  5
1FA
330
1F
100
AcDbEntity
  8
0
  6
Continuous
 62
     7
370
    25
100
AcDbLine
 10
-85.7735670722
 20
335.8520163361
 30
0.0
 11
-81.2662274564
 21
335.8520163361
 31
0.0
  0
LINE
  5
1FB
330
1F
100
AcDbEntity
  8
0
  6
Continuous
 62
     7
370
    25
100
AcDbLine
 10
-81.2662274564
 20
320.8520163361
 30
0.0
 11
-85.7735670722
 21
320.8520163361
 31
0.0
  0
LINE
  5
1FC
330
1F
100
AcDbEntity
  8
0
  6
Continuous
 62
     7
370
    25
100
AcDbLine
 10
554.7543378864
 20
335.8520163361
 30
0.0
 11
558.8087035949
 21
335.8520163361
 31
0.0
  0
LINE
  5
1FD
330
1F
100
AcDbEntity
  8
0
  6
Continuous
 62
     7
370
    25
100
AcDbLine
 10
558.8087035949
 20
320.8520163361
 30
0.0
 11
554.7543378864
 21
320.8520163361
 31
0.0
  0
CIRCLE
  5
1FE
330
1F
100
AcDbEntity
  8
0
  6
Continuous
 62
     7
370
    25
100
AcDbCircle
 10
222.6842207935
 20
245.8520163361
 30
0.0
 40
6.637921400061373
  0
CIRCLE
  5
1FF
330
1F
100
AcDbEntity
  8
0
  6
Continuous
 62
     7
370
    25
100
AcDbCircle
 10
222.6842207935
 20
45.8520163361
 30
0.0
 40
6.637921400061394
  0
LINE
  5
200
330
1F
100
AcDbEntity
  8
0
  6
Continuous
 62
     7
370
    25
100
AcDbLine
 10
381.774550555
 20
304.1520163361
 30
0.0
 11
381.9614643437
 21
304.1520163361
 31
0.0
  0
LINE
  5
201
330
1F
100
AcDbEntity
  8
0
  6
Continuous
 62
     7
370
    25
100
AcDbLine
 10
354.9614643437
 20
304.1520163361
 30
0.0
 11
381.774550555
 21
304.1520163361
 31
0.0
  0
LINE
  5
202
330
1F
100
AcDbEntity
  8
0
  6
Continuous
 62
     7
370
    25
100
AcDbLine
 10
388.184555027
 20
320.8520163361
 30
0.0
 11
388.3928190226
 21
320.8520163361
 31
0.0
  0
LINE
  5
203
330
1F
100
AcDbEntity
  8
0
  6
Continuous
 62
     7
370
    25
100
AcDbLine
 10
380.8782806403
 20
320.8520163361
 30
0.0
 11
388.184555027
 21
320.8520163361
 31
0.0
  0
LINE
  5
204
330
1F
100
AcDbEntity
  8
0
  6
Continuous
 62
     7
370
    25
100
AcDbLine
 10
445.0278378652
 20
-12.4479836639
 30
0.0
 11
432.8854092454
 21
-12.4479836639
 31
0.0
  0
LINE
  5
205
330
1F
100
AcDbEntity
  8
0
  6
Continuous
 62
     7
370
    25
100
AcDbLine
 10
459.8854092454
 20
-12.4479836639
 30
0.0
 11
445.0278378652
 21
-12.4479836639
 31
0.0
  0
LINE
  5
206
330
1F
100
AcDbEntity
  8
0
  6
Continuous
 62
     7
370
    25
100
AcDbLine
 10
388.3928190226
 20
-29.1479836639
 30
0.0
 11
380.8782806403
 21
-29.1479836639
 31
0.0
  0
LINE
  5
207
330
1F
100
AcDbEntity
  8
0
  6
Continuous
 62
     7
370
    25
100
AcDbLine
 10
381.9614643437
 20
-12.4479836639
 30
0.0
 11
354.9614643437
 21
-12.4479836639
 31
0.0
  0
LINE
  5
208
330
1F
100
AcDbEntity
  8
0
  6
Continuous
 62
     7
370
    25
100
AcDbLine
 10
432.8854092454
 20
304.1520163361
 30
0.0
 11
459.8854092454
 21
304.1520163361
 31
0.0
  0
ARC
  5
209
330
1F
100
AcDbEntity
  8
0
  6
Continuous
 62
     7
370
    25
100
AcDbCircle
 10
627.4857955926
 20
145.8520163361
 30
0.0
 40
338.0000000000001
100
AcDbArc
 50
155.5961009947
 51
204.4038990053
  0
LINE
  5
20A
330
1F
100
AcDbEntity
  8
0
  6
Continuous
 62
     7
370
    25
100
AcDbLine
 10
319.6842207935
 20
-25.1479836639
 30
0.0
 11
319.6842207935
 21
6.2017726871
 31
0.0
  0
LINE
  5
20B
330
1F
100
AcDbEntity
  8
0
  6
Continuous
 62
     7
370
    25
100
AcDbLine
 10
125.6842207935
 20
-25.1479836639
 30
0.0
 11
319.6842207935
 21
-25.1479836639
 31
0.0
  0
LINE
  5
20C
330
1F
100
AcDbEntity
  8
0
  6
Continuous
 62
     7
370
    25
100
AcDbLine
 10
125.6842207935
 20
316.8520163361
 30
0.0
 11
125.6842207935
 21
-25.1479836639
 31
0.0
  0
LINE
  5
20D
330
1F
100
AcDbEntity
  8
0
  6
Continuous
 62
     7
370
    25
100
AcDbLine
 10
319.6842207935
 20
316.8520163361
 30
0.0
 11
125.6842207935
 21
316.8520163361
 31
0.0
  0
LINE
  5
20E
330
1F
100
AcDbEntity
  8
0
  6
Continuous
 62
     7
370
    25
100
AcDbLine
 10
319.6842207935
 20
285.502259985
 30
0.0
 11
319.6842207935
 21
316.8520163361
 31
0.0
  0
LINE
  5
20F
330
1F
100
AcDbEntity
  8
0
  6
Continuous
 62
     7
370
    25
100
AcDbLine
 10
125.6842207935
 20
316.8520163361
 30
0.0
 11
125.6842207935
 21
319.8520163361
 31
0.0
  0
LINE
  5
210
330
1F
100
AcDbEntity
  8
0
  6
Continuous
 62
     7
370
    25
100
AcDbLine
 10
125.6842207935
 20
319.8520163361
 30
0.0
 11
319.6842207935
 21
319.8520163361
 31
0.0
  0
LINE
  5
211
330
1F
100
AcDbEntity
  8
0
  6
Continuous
 62
     7
370
    25
100
AcDbLine
 10
319.6842207935
 20
316.8520163361
 30
0.0
 11
319.6842207935
 21
319.8520163361
 31
0.0
  0
LINE
  5
212
330
1F
100
AcDbEntity
  8
0
  6
Continuous
 62
     7
370
    25
100
AcDbLine
 10
322.4161874337
 20
284.262760781
 30
0.0
 11
319.6842207935
 21
285.502259985
 31
0.0
  0
LINE
  5
213
330
1F
100
AcDbEntity
  8
0
  6
Continuous
 62
     7
370
    25
100
AcDbLine
 10
322.6842207935
 20
285.502259985
 30
0.0
 11
319.6842207935
 21
285.502259985
 31
0.0
  0
ARC
  5
214
330
1F
100
AcDbEntity
  8
0
  6
Continuous
 62
     7
370
    25
100
AcDbCircle
 10
319.6842207935
 20
285.502259985
 30
0.0
 40
3.0
100
AcDbArc
 50
335.5961009947
 51
0.0
  0
LINE
  5
215
330
1F
100
AcDbEntity
  8
0
  6
Continuous
 62
     7
370
    25
100
AcDbLine
 10
125.6842207935
 20
-25.1479836639
 30
0.0
 11
125.6842207935
 21
-28.1479836639
 31
0.0
  0
ARC
  5
216
330
1F
100
AcDbEntity
  8
0
  6
Continuous
 62
     7
370
    25
100
AcDbCircle
 10
125.6842207935
 20
-25.1479836639
 30
0.0
 40
3.000000000000004
100
AcDbArc
 50
180.0
 51
270.0
  0
LINE
  5
217
330
1F
100
AcDbEntity
  8
0
  6
Continuous
 62
     7
370
    25
100
AcDbLine
 10
125.6842207935
 20
-25.1479836639
 30
0.0
 11
122.6842207935
 21
-25.1479836639
 31
0.0
  0
LINE
  5
218
330
1F
100
AcDbEntity
  8
0
  6
Continuous
 62
     7
370
    25
100
AcDbLine
 10
322.6842207935
 20
6.2017726871
 30
0.0
 11
322.6842207935
 21
-25.1479836639
 31
0.0
  0
LINE
  5
219
330
1F
100
AcDbEntity
  8
0
  6
Continuous
 62
     7
370
    25
100
AcDbLine
 10
322.6842207935
 20
-25.1479836639
 30
0.0
 11
319.6842207935
 21
-25.1479836639
 31
0.0
  0
LINE
  5
21A
330
1F
100
AcDbEntity
  8
0
  6
Continuous
 62
     7
370
    25
100
AcDbLine
 10
322.6842207935
 20
6.2017726871
 30
0.0
 11
319.6842207935
 21
6.2017726871
 31
0.0
  0
LINE
  5
21B
330
1F
100
AcDbEntity
  8
0
  6
Continuous
 62
     7
370
    25
100
AcDbLine
 10
122.6842207935
 20
-25.1479836639
 30
0.0
 11
122.6842207935
 21
316.8520163361
 31
0.0
  0
LINE
  5
21C
330
1F
100
AcDbEntity
  8
0
  6
Continuous
 62
     7
370
    25
100
AcDbLine
 10
125.6842207935
 20
316.8520163361
 30
0.0
 11
122.6842207935
 21
316.8520163361
 31
0.0
  0
LINE
  5
21D
330
1F
100
AcDbEntity
  8
0
  6
Continuous
 62
     7
370
    25
100
AcDbLine
 10
319.6842207935
 20
-25.1479836639
 30
0.0
 11
319.6842207935
 21
-28.1479836639
 31
0.0
  0
LINE
  5
21E
330
1F
100
AcDbEntity
  8
0
  6
Continuous
 62
     7
370
    25
100
AcDbLine
 10
319.6842207935
 20
-28.1479836639
 30
0.0
 11
125.6842207935
 21
-28.1479836639
 31
0.0
  0
ARC
  5
21F
330
1F
100
AcDbEntity
  8
0
  6
Continuous
 62
     7
370
    25
100
AcDbCircle
 10
125.6842207935
 20
316.8520163361
 30
0.0
 40
3.0
100
AcDbArc
 50
90.0
 51
180.0
  0
ARC
  5
220
330
1F
100
AcDbEntity
  8
0
  6
Continuous
 62
     7
370
    25
100
AcDbCircle
 10
319.6842207935
 20
316.8520163361
 30
0.0
 40
3.0
100
AcDbArc
 50
0.0
 51
90.0
  0
LINE
  5
221
330
1F
100
AcDbEntity
  8
0
  6
Continuous
 62
     7
370
    25
100
AcDbLine
 10
322.6842207935
 20
316.8520163361
 30
0.0
 11
319.6842207935
 21
316.8520163361
 31
0.0
  0
ARC
  5
222
330
1F
100
AcDbEntity
  8
0
  6
Continuous
 62
     7
370
    25
100
AcDbCircle
 10
627.4857955926
 20
145.8520163361
 30
0.0
 40
335.0000000000002
100
AcDbArc
 50
155.5961009947
 51
204.4038990053
  0
LINE
  5
223
330
1F
100
AcDbEntity
  8
0
  6
Continuous
 62
     7
370
    25
100
AcDbLine
 10
322.4161874337
 20
7.4412718911
 30
0.0
 11
319.6842207935
 21
6.2017726871
 31
0.0
  0
ARC
  5
224
330
1F
100
AcDbEntity
  8
0
  6
Continuous
 62
     7
370
    25
100
AcDbCircle
 10
319.6842207935
 20
6.2017726871
 30
0.0
 40
3.0
100
AcDbArc
 50
0.0
 51
24.4038990053
  0
LINE
  5
225
330
1F
100
AcDbEntity
  8
0
  6
Continuous
 62
     7
370
    25
100
AcDbLine
 10
322.6842207935
 20
316.8520163361
 30
0.0
 11
322.6842207935
 21
285.502259985
 31
0.0
  0
ARC
  5
226
330
1F
100
AcDbEntity
  8
0
  6
Continuous
 62
     7
370
    25
100
AcDbCircle
 10
319.6842207935
 20
-25.1479836639
 30
0.0
 40
3.000000000000004
100
AcDbArc
 50
270.0
 51
0.0
  0
LINE
  5
227
330
1F
100
AcDbEntity
  8
0
  6
Continuous
 62
     7
370
    25
100
AcDbLine
 10
122.6842207935
 20
-29.1479836639
 30
0.0
 11
122.6842207935
 21
-26.1479836639
 31
0.0
  0
LINE
  5
228
330
1F
100
AcDbEntity
  8
0
  6
Continuous
 62
     7
370
    25
100
AcDbLine
 10
122.8557936688
 20
-26.1479836639
 30
0.0
 11
122.6842207935
 21
-26.1479836639
 31
0.0
  0
LINE
  5
229
330
1F
100
AcDbEntity
  8
0
  6
Continuous
 62
     7
370
    25
100
AcDbLine
 10
322.6842207935
 20
-29.1479836639
 30
0.0
 11
322.6842207935
 21
-26.1479836639
 31
0.0
  0
LINE
  5
22A
330
1F
100
AcDbEntity
  8
0
  6
Continuous
 62
     7
370
    25
100
AcDbLine
 10
322.6842207935
 20
-26.1479836639
 30
0.0
 11
322.5126479182
 21
-26.1479836639
 31
0.0
  0
LINE
  5
22B
330
1F
100
AcDbEntity
  8
0
  6
Continuous
 62
     7
370
    25
100
AcDbLine
 10
322.6842207935
 20
317.8520163361
 30
0.0
 11
322.6842207935
 21
320.8520163361
 31
0.0
  0
LINE
  5
22C
330
1F
100
AcDbEntity
  8
0
  6
Continuous
 62
     7
370
    25
100
AcDbLine
 10
322.6842207935
 20
317.8520163361
 30
0.0
 11
322.5126479182
 21
317.8520163361
 31
0.0
  0
LINE
  5
22D
330
1F
100
AcDbEntity
  8
0
  6
Continuous
 62
     7
370
    25
100
AcDbLine
 10
122.8557936688
 20
317.8520163361
 30
0.0
 11
122.6842207935
 21
317.8520163361
 31
0.0
  0
LINE
  5
22E
330
1F
100
AcDbEntity
  8
0
  6
Continuous
 62
     7
370
    25
100
AcDbLine
 10
122.6842207935
 20
317.8520163361
 30
0.0
 11
122.6842207935
 21
320.8520163361
 31
0.0
  0
LINE
  5
22F
330
1F
100
AcDbEntity
  8
0
  6
Continuous
 62
     7
370
    25
100
AcDbLine
 10
380.8782806403
 20
-44.1479836639
 30
0.0
 11
388.3928190226
 21
-44.1479836639
 31
0.0
  0
LINE
  5
230
330
1F
100
AcDbEntity
  8
0
  6
Continuous
 62
     7
370
    25
100
AcDbLine
 10
388.3928190226
 20
335.8520163361
 30
0.0
 11
380.8782806403
 21
335.8520163361
 31
0.0
  0
ARC
  5
231
330
1F
100
AcDbEntity
  8
0
  6
Continuous
 62
     7
370
    25
100
AcDbCircle
 10
222.7059952278
 20
148.8712506941
 30
0.0
 40
80.08233513940107
100
AcDbArc
 50
333.1672543737
 51
26.0075828873
  0
ARC
  5
232
330
1F
100
AcDbEntity
  8
0
  6
Continuous
 62
     7
370
    25
100
AcDbCircle
 10
223.6972246628
 20
148.5986891048
 30
0.0
 40
98.92567511332605
100
AcDbArc
 50
318.991123808
 51
40.238711571
  0
LINE
  5
233
330
1F
100
AcDbEntity
  8
0
  6
Continuous
 62
     8
370
    25
100
AcDbLine
 10
-36.5962825085
 20
-56.1479836639
 30
0.0
 11
-21.7437270996
 21
-56.1479836639
 31
0.0
  0
LINE
  5
234
330
1F
100
AcDbEntity
  8
0
  6
Continuous
 62
     8
370
    25
100
AcDbLine
 10
0.7108997538
 20
-56.1479836639
 30
0.0
 11
100.2837174915
 21
-56.1479836639
 31
0.0
  0
LINE
  5
235
330
1F
100
AcDbEntity
  8
0
  6
Continuous
 62
     8
370
    25
100
AcDbLine
 10
100.2837174915
 20
-47.1479836639
 30
0.0
 11
4.8603915558
 21
-47.1479836639
 31
0.0
  0
LINE
  5
236
330
1F
100
AcDbEntity
  8
0
  6
Continuous
 62
     8
370
    25
100
AcDbLine
 10
-25.8932189017
 20
-47.1479836639
 30
0.0
 11
-36.5962825085
 21
-47.1479836639
 31
0.0
  0
LINE
  5
237
330
1F
100
AcDbEntity
  8
0
  6
Continuous
 62
     8
370
    25
100
AcDbLine
 10
387.3981261395
 20
-56.1479836639
 30
0.0
 11
468.0788334955
 21
-56.1479836639
 31
0.0
  0
LINE
  5
238
330
1F
100
AcDbEntity
  8
0
  6
Continuous
 62
     8
370
    25
100
AcDbLine
 10
490.5334603489
 20
-56.1479836639
 30
0.0
 11
514.8254092454
 21
-56.1479836639
 31
0.0
  0
LINE
  5
239
330
1F
100
AcDbEntity
  8
0
  6
Continuous
 62
     8
370
    25
100
AcDbLine
 10
514.8254092454
 20
-47.1479836639
 30
0.0
 11
494.682952151
 21
-47.1479836639
 31
0.0
  0
LINE
  5
23A
330
1F
100
AcDbEntity
  8
0
  6
Continuous
 62
     8
370
    25
100
AcDbLine
 10
463.9293416934
 20
-47.1479836639
 30
0.0
 11
388.4362877544
 21
-47.1479836639
 31
0.0
  0
LINE
  5
23B
330
1F
100
AcDbEntity
  8
0
  6
Continuous
 62
     8
370
    25
100
AcDbLine
 10
-36.5962825085
 20
338.8520163361
 30
0.0
 11
-25.8932189017
 21
338.8520163361
 31
0.0
  0
LINE
  5
23C
330
1F
100
AcDbEntity
  8
0
  6
Continuous
 62
     8
370
    25
100
AcDbLine
 10
4.8603915558
 20
338.8520163361
 30
0.0
 11
100.2837174915
 21
338.8520163361
 31
0.0
  0
LINE
  5
23D
330
1F
100
AcDbEntity
  8
0
  6
Continuous
 62
     8
370
    25
100
AcDbLine
 10
100.2837174915
 20
347.8520163361
 30
0.0
 11
0.7108997538
 21
347.8520163361
 31
0.0
  0
LINE
  5
23E
330
1F
100
AcDbEntity
  8
0
  6
Continuous
 62
     8
370
    25
100
AcDbLine
 10
-21.7437270996
 20
347.8520163361
 30
0.0
 11
-36.5962825085
 21
347.8520163361
 31
0.0
  0
LINE
  5
23F
330
1F
100
AcDbEntity
  8
0
  6
Continuous
 62
     8
370
    25
100
AcDbLine
 10
388.4362877544
 20
338.8520163361
 30
0.0
 11
463.9293416934
 21
338.8520163361
 31
0.0
  0
LINE
  5
240
330
1F
100
AcDbEntity
  8
0
  6
Continuous
 62
     8
370
    25
100
AcDbLine
 10
494.682952151
 20
338.8520163361
 30
0.0
 11
514.8254092454
 21
338.8520163361
 31
0.0
  0
LINE
  5
241
330
1F
100
AcDbEntity
  8
0
  6
Continuous
 62
     8
370
    25
100
AcDbLine
 10
514.8254092454
 20
347.8520163361
 30
0.0
 11
490.5334603489
 21
347.8520163361
 31
0.0
  0
LINE
  5
242
330
1F
100
AcDbEntity
  8
0
  6
Continuous
 62
     8
370
    25
100
AcDbLine
 10
468.0788334955
 20
347.8520163361
 30
0.0
 11
387.4038688192
 21
347.8520163361
 31
0.0
  0
LINE
  5
243
330
1F
100
AcDbEntity
  8
0
  6
Continuous
 62
     8
370
    25
100
AcDbLine
 10
368.3306346758
 20
-41.1479836639
 30
0.0
 11
350.9898508438
 21
-41.1479836639
 31
0.0
  0
LINE
  5
244
330
1F
100
AcDbEntity
  8
0
  6
Continuous
 62
     8
370
    25
100
AcDbLine
 10
350.9898508438
 20
-32.1479836639
 30
0.0
 11
368.3306346758
 21
-32.1479836639
 31
0.0
  0
LINE
  5
245
330
1F
100
AcDbEntity
  8
0
  6
Continuous
 62
     8
370
    25
100
AcDbLine
 10
114.0933891038
 20
-41.1479836639
 30
0.0
 11
98.646098536
 21
-41.1479836639
 31
0.0
  0
LINE
  5
246
330
1F
100
AcDbEntity
  8
0
  6
Continuous
 62
     8
370
    25
100
AcDbLine
 10
98.646098536
 20
-32.1479836639
 30
0.0
 11
114.0933891038
 21
-32.1479836639
 31
0.0
  0
LINE
  5
247
330
1F
100
AcDbEntity
  8
0
  6
Continuous
 62
     8
370
    25
100
AcDbLine
 10
93.7948932857
 20
-32.1479836639
 30
0.0
 11
98.646098536
 21
-32.1479836639
 31
0.0
  0
LINE
  5
248
330
1F
100
AcDbEntity
  8
0
  6
Continuous
 62
     8
370
    25
100
AcDbLine
 10
98.646098536
 20
-41.1479836639
 30
0.0
 11
93.7948932857
 21
-41.1479836639
 31
0.0
  0
LINE
  5
249
330
1F
100
AcDbEntity
  8
0
  6
Continuous
 62
     8
370
    25
100
AcDbLine
 10
368.3306346758
 20
-32.1479836639
 30
0.0
 11
434.0861069882
 21
-32.1479836639
 31
0.0
  0
LINE
  5
24A
330
1F
100
AcDbEntity
  8
0
  6
Continuous
 62
     8
370
    25
100
AcDbLine
 10
434.0861069882
 20
-41.1479836639
 30
0.0
 11
368.3306346758
 21
-41.1479836639
 31
0.0
  0
LINE
  5
24B
330
1F
100
AcDbEntity
  8
0
  6
Continuous
 62
     8
370
    25
100
AcDbLine
 10
-83.9657452353
 20
-41.1479836639
 30
0.0
 11
-88.7735670722
 21
-41.1479836639
 31
0.0
  0
LINE
  5
24C
330
1F
100
AcDbEntity
  8
0
  6
Continuous
 62
     8
370
    25
100
AcDbLine
 10
-88.7735670722
 20
-32.1479836639
 30
0.0
 11
-83.9657452353
 21
-32.1479836639
 31
0.0
  0
LINE
  5
24D
330
1F
100
AcDbEntity
  8
0
  6
Continuous
 62
     8
370
    25
100
AcDbLine
 10
557.1812391666
 20
-32.1479836639
 30
0.0
 11
561.8087035949
 21
-32.1479836639
 31
0.0
  0
LINE
  5
24E
330
1F
100
AcDbEntity
  8
0
  6
Continuous
 62
     8
370
    25
100
AcDbLine
 10
561.8087035949
 20
-41.1479836639
 30
0.0
 11
557.1812391666
 21
-41.1479836639
 31
0.0
  0
LINE
  5
24F
330
1F
100
AcDbEntity
  8
0
  6
Continuous
 62
     8
370
    25
100
AcDbLine
 10
-17.1543350773
 20
-27.3828562461
 30
0.0
 11
-3.8784922771
 21
-27.3828562461
 31
0.0
  0
LINE
  5
250
330
1F
100
AcDbEntity
  8
0
  6
Continuous
 62
     8
370
    25
100
AcDbLine
 10
472.6682255179
 20
-27.3828562461
 30
0.0
 11
485.944068318
 21
-27.3828562461
 31
0.0
  0
LINE
  5
251
330
1F
100
AcDbEntity
  8
0
  6
Continuous
 62
     8
370
    25
100
AcDbLine
 10
485.9440683265
 20
319.0868889182
 30
0.0
 11
472.6682255264
 21
319.0868889182
 31
0.0
  0
LINE
  5
252
330
1F
100
AcDbEntity
  8
0
  6
Continuous
 62
     8
370
    25
100
AcDbLine
 10
-3.8784922686
 20
319.0868889182
 30
0.0
 11
-17.1543350687
 21
319.0868889182
 31
0.0
  0
LINE
  5
253
330
1F
100
AcDbEntity
  8
0
  6
Continuous
 62
     8
370
    25
100
AcDbLine
 10
376.2898667306
 20
375.2799870186
 30
0.0
 11
376.2898667306
 21
355.6157565396
 31
0.0
  0
LINE
  5
254
330
1F
100
AcDbEntity
  8
0
  6
Continuous
 62
     8
370
    25
100
AcDbLine
 10
372.7324226269
 20
356.3473436432
 30
0.0
 11
372.7324226269
 21
375.2799870186
 31
0.0
  0
LINE
  5
255
330
1F
100
AcDbEntity
  8
0
  6
Continuous
 62
     8
370
    25
100
AcDbLine
 10
385.0937887542
 20
348.9202470966
 30
0.0
 11
385.0937887542
 21
375.2799870186
 31
0.0
  0
LINE
  5
256
330
1F
100
AcDbEntity
  8
0
  6
Continuous
 62
     8
370
    25
100
AcDbLine
 10
387.4709853218
 20
348.2164591057
 30
0.0
 11
385.5445964597
 21
348.2164591057
 31
0.0
  0
LINE
  5
257
330
1F
100
AcDbEntity
  8
0
  6
Continuous
 62
     8
370
    25
100
AcDbLine
 10
387.4709853251
 20
375.2799870186
 30
0.0
 11
385.0937887542
 21
375.2799870186
 31
0.0
  0
LINE
  5
258
330
1F
100
AcDbEntity
  8
0
  6
Continuous
 62
     8
370
    25
100
AcDbLine
 10
359.8465114991
 20
375.2799870186
 30
0.0
 11
359.8465114991
 21
355.3923015105
 31
0.0
  0
LINE
  5
259
330
1F
100
AcDbEntity
  8
0
  6
Continuous
 62
     8
370
    25
100
AcDbLine
 10
359.7811522012
 20
375.2799870186
 30
0.0
 11
359.8465114991
 21
375.2799870186
 31
0.0
  0
LINE
  5
25A
330
1F
100
AcDbEntity
  8
0
  6
Continuous
 62
     8
370
    25
100
AcDbLine
 10
372.7324226269
 20
-83.5759543465
 30
0.0
 11
372.7324226269
 21
-64.6433109711
 31
0.0
  0
LINE
  5
25B
330
1F
100
AcDbEntity
  8
0
  6
Continuous
 62
     8
370
    25
100
AcDbLine
 10
376.2898667306
 20
-63.9117238675
 30
0.0
 11
376.2898667306
 21
-83.5759543465
 31
0.0
  0
LINE
  5
25C
330
1F
100
AcDbEntity
  8
0
  6
Continuous
 62
     8
370
    25
100
AcDbLine
 10
385.0937887542
 20
-83.5759543465
 30
0.0
 11
385.0937887542
 21
-57.2162144245
 31
0.0
  0
LINE
  5
25D
330
1F
100
AcDbEntity
  8
0
  6
Continuous
 62
     8
370
    25
100
AcDbLine
 10
385.5445964597
 20
-56.5124264336
 30
0.0
 11
387.4709853251
 21
-56.5124264336
 31
0.0
  0
LINE
  5
25E
330
1F
100
AcDbEntity
  8
0
  6
Continuous
 62
     8
370
    25
100
AcDbLine
 10
385.0937887542
 20
-83.5759543465
 30
0.0
 11
387.4709853251
 21
-83.5759543465
 31
0.0
  0
LINE
  5
25F
330
1F
100
AcDbEntity
  8
0
  6
Continuous
 62
     8
370
    25
100
AcDbLine
 10
359.8465114991
 20
-63.6882688384
 30
0.0
 11
359.8465114991
 21
-83.5759543465
 31
0.0
  0
LINE
  5
260
330
1F
100
AcDbEntity
  8
0
  6
Continuous
 62
     8
370
    25
100
AcDbLine
 10
359.8465114991
 20
-83.5759543465
 30
0.0
 11
359.7811521785
 21
-83.5759543465
 31
0.0
  0
LINE
  5
261
330
1F
100
AcDbEntity
  8
0
  6
Continuous
 62
     8
370
    25
100
AcDbLine
 10
389.1260687494
 20
-28.2822885208
 30
0.0
 11
388.4614643437
 21
-28.2822885208
 31
0.0
  0
LINE
  5
262
330
1F
100
AcDbEntity
  8
0
  6
Continuous
 62
     8
370
    25
100
AcDbLine
 10
494.8061469222
 20
336.8520163361
 30
0.0
 11
463.8061469222
 21
336.8520163361
 31
0.0
  0
LINE
  5
263
330
1F
100
AcDbEntity
  8
0
  6
Continuous
 62
     8
370
    25
100
AcDbLine
 10
4.9835863271
 20
336.8520163361
 30
0.0
 11
-26.0164136729
 21
336.8520163361
 31
0.0
  0
LINE
  5
264
330
1F
100
AcDbEntity
  8
0
  6
Continuous
 62
     8
370
    25
100
AcDbLine
 10
388.4614643437
 20
319.9863211929
 30
0.0
 11
389.1260687494
 21
319.9863211929
 31
0.0
  0
LINE
  5
265
330
1F
100
AcDbEntity
  8
0
  6
Continuous
 62
     8
370
    25
100
AcDbLine
 10
463.940459997
 20
-45.1479836639
 30
0.0
 11
494.8061469222
 21
-45.1479836639
 31
0.0
  0
LINE
  5
266
330
1F
100
AcDbEntity
  8
0
  6
Continuous
 62
     8
370
    25
100
AcDbLine
 10
463.8061469222
 20
-45.1479836639
 30
0.0
 11
463.940459997
 21
-45.1479836639
 31
0.0
  0
LINE
  5
267
330
1F
100
AcDbEntity
  8
0
  6
Continuous
 62
     8
370
    25
100
AcDbLine
 10
-25.8821005982
 20
-45.1479836639
 30
0.0
 11
4.9835863271
 21
-45.1479836639
 31
0.0
  0
LINE
  5
268
330
1F
100
AcDbEntity
  8
0
  6
Continuous
 62
     8
370
    25
100
AcDbLine
 10
-26.0164136729
 20
-45.1479836639
 30
0.0
 11
-25.8821005982
 21
-45.1479836639
 31
0.0
  0
LINE
  5
269
330
1F
100
AcDbEntity
  8
0
  6
Continuous
 62
     8
370
    25
100
AcDbLine
 10
-21.1732610566
 20
-57.2331336829
 30
0.0
 11
0.2335863271
 21
-57.2331336829
 31
0.0
  0
LINE
  5
26A
330
1F
100
AcDbEntity
  8
0
  6
Continuous
 62
     8
370
    25
100
AcDbLine
 10
-21.2664136729
 20
-57.2331336829
 30
0.0
 11
-21.1732610566
 21
-57.2331336829
 31
0.0
  0
LINE
  5
26B
330
1F
100
AcDbEntity
  8
0
  6
Continuous
 62
     8
370
    25
100
AcDbLine
 10
-20.7845749579
 20
-57.7959576244
 30
0.0
 11
-0.1584973175
 21
-57.7959576244
 31
0.0
  0
LINE
  5
26C
330
1F
100
AcDbEntity
  8
0
  6
Continuous
 62
     8
370
    25
100
AcDbLine
 10
-20.8743300284
 20
-57.7959576244
 30
0.0
 11
-20.7845749579
 21
-57.7959576244
 31
0.0
  0
LINE
  5
26D
330
1F
100
AcDbEntity
  8
0
  6
Continuous
 62
     8
370
    25
100
AcDbLine
 10
490.0561469222
 20
348.937166355
 30
0.0
 11
468.5561469222
 21
348.937166355
 31
0.0
  0
LINE
  5
26E
330
1F
100
AcDbEntity
  8
0
  6
Continuous
 62
     8
370
    25
100
AcDbLine
 10
489.6640632777
 20
349.4999902965
 30
0.0
 11
468.9482305667
 21
349.4999902965
 31
0.0
  0
LINE
  5
26F
330
1F
100
AcDbEntity
  8
0
  6
Continuous
 62
     8
370
    25
100
AcDbLine
 10
468.6492995386
 20
-57.2331336829
 30
0.0
 11
490.0561469222
 21
-57.2331336829
 31
0.0
  0
LINE
  5
270
330
1F
100
AcDbEntity
  8
0
  6
Continuous
 62
     8
370
    25
100
AcDbLine
 10
468.5561469222
 20
-57.2331336829
 30
0.0
 11
468.6492995386
 21
-57.2331336829
 31
0.0
  0
LINE
  5
271
330
1F
100
AcDbEntity
  8
0
  6
Continuous
 62
     8
370
    25
100
AcDbLine
 10
469.0379856373
 20
-57.7959576244
 30
0.0
 11
489.6640632777
 21
-57.7959576244
 31
0.0
  0
LINE
  5
272
330
1F
100
AcDbEntity
  8
0
  6
Continuous
 62
     8
370
    25
100
AcDbLine
 10
468.9482305667
 20
-57.7959576244
 30
0.0
 11
469.0379856373
 21
-57.7959576244
 31
0.0
  0
LINE
  5
273
330
1F
100
AcDbEntity
  8
0
  6
Continuous
 62
     8
370
    25
100
AcDbLine
 10
0.2335863271
 20
348.937166355
 30
0.0
 11
-21.2664136729
 21
348.937166355
 31
0.0
  0
LINE
  5
274
330
1F
100
AcDbEntity
  8
0
  6
Continuous
 62
     8
370
    25
100
AcDbLine
 10
-0.1584973175
 20
349.4999902965
 30
0.0
 11
-20.8743300284
 21
349.4999902965
 31
0.0
  0
LINE
  5
275
330
1F
100
AcDbEntity
  8
0
  6
Continuous
 62
     8
370
    25
100
AcDbLine
 10
350.9898508438
 20
323.8520163361
 30
0.0
 11
368.3306346758
 21
323.8520163361
 31
0.0
  0
LINE
  5
276
330
1F
100
AcDbEntity
  8
0
  6
Continuous
 62
     8
370
    25
100
AcDbLine
 10
368.3306346758
 20
332.8520163361
 30
0.0
 11
350.9898508438
 21
332.8520163361
 31
0.0
  0
LINE
  5
277
330
1F
100
AcDbEntity
  8
0
  6
Continuous
 62
     8
370
    25
100
AcDbLine
 10
114.0933891038
 20
332.8520163361
 30
0.0
 11
98.646098536
 21
332.8520163361
 31
0.0
  0
LINE
  5
278
330
1F
100
AcDbEntity
  8
0
  6
Continuous
 62
     8
370
    25
100
AcDbLine
 10
98.646098536
 20
323.8520163361
 30
0.0
 11
114.0933891038
 21
323.8520163361
 31
0.0
  0
LINE
  5
279
330
1F
100
AcDbEntity
  8
0
  6
Continuous
 62
     8
370
    25
100
AcDbLine
 10
93.7948932857
 20
323.8520163361
 30
0.0
 11
98.646098536
 21
323.8520163361
 31
0.0
  0
LINE
  5
27A
330
1F
100
AcDbEntity
  8
0
  6
Continuous
 62
     8
370
    25
100
AcDbLine
 10
98.646098536
 20
332.8520163361
 30
0.0
 11
93.7948932857
 21
332.8520163361
 31
0.0
  0
LINE
  5
27B
330
1F
100
AcDbEntity
  8
0
  6
Continuous
 62
     8
370
    25
100
AcDbLine
 10
434.0861069882
 20
332.8520163361
 30
0.0
 11
368.3306346758
 21
332.8520163361
 31
0.0
  0
LINE
  5
27C
330
1F
100
AcDbEntity
  8
0
  6
Continuous
 62
     8
370
    25
100
AcDbLine
 10
368.3306346758
 20
323.8520163361
 30
0.0
 11
434.0861069882
 21
323.8520163361
 31
0.0
  0
LINE
  5
27D
330
1F
100
AcDbEntity
  8
0
  6
Continuous
 62
     8
370
    25
100
AcDbLine
 10
-83.9657452353
 20
332.8520163361
 30
0.0
 11
-88.7735670722
 21
332.8520163361
 31
0.0
  0
LINE
  5
27E
330
1F
100
AcDbEntity
  8
0
  6
Continuous
 62
     8
370
    25
100
AcDbLine
 10
-88.7735670722
 20
323.8520163361
 30
0.0
 11
-83.9657452353
 21
323.8520163361
 31
0.0
  0
LINE
  5
27F
330
1F
100
AcDbEntity
  8
0
  6
Continuous
 62
     8
370
    25
100
AcDbLine
 10
561.8087035949
 20
332.8520163361
 30
0.0
 11
557.1812391666
 21
332.8520163361
 31
0.0
  0
LINE
  5
280
330
1F
100
AcDbEntity
  8
0
  6
Continuous
 62
     8
370
    25
100
AcDbLine
 10
557.1812391666
 20
323.8520163361
 30
0.0
 11
561.8087035949
 21
323.8520163361
 31
0.0
  0
LINE
  5
281
330
1F
100
AcDbEntity
  8
0
  6
Continuous
 62
     8
370
    25
100
AcDbLine
 10
149.3221421936
 20
-45.9131110818
 30
0.0
 11
136.0462993934
 21
-45.9131110818
 31
0.0
  0
LINE
  5
282
330
1F
100
AcDbEntity
  8
0
  6
Continuous
 62
     8
370
    25
100
AcDbLine
 10
25.7255526824
 20
-27.3828562461
 30
0.0
 11
38.4816388916
 21
-27.3828562461
 31
0.0
  0
LINE
  5
283
330
1F
100
AcDbEntity
  8
0
  6
Continuous
 62
     8
370
    25
100
AcDbLine
 10
25.2057960914
 20
-27.3828562461
 30
0.0
 11
25.7255526824
 21
-27.3828562461
 31
0.0
  0
LINE
  5
284
330
1F
100
AcDbEntity
  8
0
  6
Continuous
 62
     8
370
    25
100
AcDbLine
 10
307.4459653525
 20
337.6171437539
 30
0.0
 11
309.3221421936
 21
337.6171437539
 31
0.0
  0
LINE
  5
285
330
1F
100
AcDbEntity
  8
0
  6
Continuous
 62
     8
370
    25
100
AcDbLine
 10
296.0462993934
 20
337.6171437539
 30
0.0
 11
307.4459653525
 21
337.6171437539
 31
0.0
  0
LINE
  5
286
330
1F
100
AcDbEntity
  8
0
  6
Continuous
 62
     8
370
    25
100
AcDbLine
 10
309.3221421936
 20
-45.9131110818
 30
0.0
 11
296.0462993934
 21
-45.9131110818
 31
0.0
  0
LINE
  5
287
330
1F
100
AcDbEntity
  8
0
  6
Continuous
 62
     8
370
    25
100
AcDbLine
 10
38.4816388916
 20
319.0868889182
 30
0.0
 11
25.2057960914
 21
319.0868889182
 31
0.0
  0
LINE
  5
288
330
1F
100
AcDbEntity
  8
0
  6
Continuous
 62
     8
370
    25
100
AcDbLine
 10
147.4459653525
 20
337.6171437539
 30
0.0
 11
149.3221421936
 21
337.6171437539
 31
0.0
  0
LINE
  5
289
330
1F
100
AcDbEntity
  8
0
  6
Continuous
 62
     8
370
    25
100
AcDbLine
 10
136.0462993934
 20
337.6171437539
 30
0.0
 11
147.4459653525
 21
337.6171437539
 31
0.0
  0
LINE
  5
28A
330
1F
100
AcDbEntity
  8
0
  6
Continuous
 62
     8
370
    25
100
AcDbLine
 10
388.184555027
 20
318.8520163361
 30
0.0
 11
388.4614643437
 21
318.8520163361
 31
0.0
  0
LINE
  5
28B
330
1F
100
AcDbEntity
  8
0
  6
Continuous
 62
     8
370
    25
100
AcDbLine
 10
348.4614643437
 20
318.8520163361
 30
0.0
 11
388.184555027
 21
318.8520163361
 31
0.0
  0
LINE
  5
28C
330
1F
100
AcDbEntity
  8
0
  6
Continuous
 62
     8
370
    25
100
AcDbLine
 10
444.3741923858
 20
-27.1479836639
 30
0.0
 11
426.3854092454
 21
-27.1479836639
 31
0.0
  0
LINE
  5
28D
330
1F
100
AcDbEntity
  8
0
  6
Continuous
 62
     8
370
    25
100
AcDbLine
 10
466.3854092454
 20
-27.1479836639
 30
0.0
 11
444.3741923858
 21
-27.1479836639
 31
0.0
  0
LINE
  5
28E
330
1F
100
AcDbEntity
  8
0
  6
Continuous
 62
     8
370
    25
100
AcDbLine
 10
388.4614643437
 20
-27.1479836639
 30
0.0
 11
348.4614643437
 21
-27.1479836639
 31
0.0
  0
LINE
  5
28F
330
1F
100
AcDbEntity
  8
0
  6
Continuous
 62
     8
370
    25
100
AcDbLine
 10
426.3854092454
 20
318.8520163361
 30
0.0
 11
466.3854092454
 21
318.8520163361
 31
0.0
  0
LINE
  5
290
330
1F
100
AcDbEntity
  8
0
  6
Continuous
 62
     8
370
    25
100
AcDbLine
 10
317.6842207935
 20
-29.1479836639
 30
0.0
 11
317.6842207935
 21
-28.1479836639
 31
0.0
  0
LINE
  5
291
330
1F
100
AcDbEntity
  8
0
  6
Continuous
 62
     8
370
    25
100
AcDbLine
 10
127.6842207935
 20
-29.1479836639
 30
0.0
 11
127.6842207935
 21
-28.1479836639
 31
0.0
  0
LINE
  5
292
330
1F
100
AcDbEntity
  8
0
  6
Continuous
 62
     8
370
    25
100
AcDbLine
 10
317.6842207935
 20
319.8520163361
 30
0.0
 11
317.6842207935
 21
320.8520163361
 31
0.0
  0
LINE
  5
293
330
1F
100
AcDbEntity
  8
0
  6
Continuous
 62
     8
370
    25
100
AcDbLine
 10
127.6842207935
 20
319.8520163361
 30
0.0
 11
127.6842207935
 21
320.8520163361
 31
0.0
  0
LINE
  5
294
330
1F
100
AcDbEntity
  8
0
  6
Continuous
 62
     8
370
    25
100
AcDbLine
 10
12.0170246847
 20
-61.1479836639
 30
0.0
 11
51.8437174915
 21
-61.1479836639
 31
0.0
  0
LINE
  5
295
330
1F
100
AcDbEntity
  8
0
  6
Continuous
 62
     8
370
    25
100
AcDbLine
 10
11.8437174915
 20
-61.1479836639
 30
0.0
 11
12.0170246847
 21
-61.1479836639
 31
0.0
  0
LINE
  5
296
330
1F
100
AcDbEntity
  8
0
  6
Continuous
 62
     8
370
    25
100
AcDbLine
 10
466.3854092454
 20
352.8520163361
 30
0.0
 11
426.3854092454
 21
352.8520163361
 31
0.0
  0
LINE
  5
297
330
1F
100
AcDbEntity
  8
0
  6
Continuous
 62
     8
370
    25
100
AcDbLine
 10
51.8437174915
 20
352.8520163361
 30
0.0
 11
11.8437174915
 21
352.8520163361
 31
0.0
  0
LINE
  5
298
330
1F
100
AcDbEntity
  8
0
  6
Continuous
 62
     8
370
    25
100
AcDbLine
 10
348.4614643437
 20
-46.1479836639
 30
0.0
 11
388.4614643437
 21
-46.1479836639
 31
0.0
  0
LINE
  5
299
330
1F
100
AcDbEntity
  8
0
  6
Continuous
 62
     8
370
    25
100
AcDbLine
 10
429.6873251364
 20
-61.1479836639
 30
0.0
 11
466.3854092454
 21
-61.1479836639
 31
0.0
  0
LINE
  5
29A
330
1F
100
AcDbEntity
  8
0
  6
Continuous
 62
     8
370
    25
100
AcDbLine
 10
426.3854092454
 20
-61.1479836639
 30
0.0
 11
429.6873251364
 21
-61.1479836639
 31
0.0
  0
LINE
  5
29B
330
1F
100
AcDbEntity
  8
0
  6
Continuous
 62
     8
370
    25
100
AcDbLine
 10
378.3464351048
 20
337.8520163361
 30
0.0
 11
348.4614643437
 21
337.8520163361
 31
0.0
  0
LINE
  5
29C
330
1F
100
AcDbEntity
  8
0
  6
Continuous
 62
     8
370
    25
100
AcDbLine
 10
388.4614643437
 20
337.8520163361
 30
0.0
 11
378.3464351048
 21
337.8520163361
 31
0.0
  0
LINE
  5
29D
330
1F
100
AcDbEntity
  8
0
  6
Continuous
 62
     8
370
    25
100
AcDbLine
 10
375.232669315
 20
352.9824076545
 30
0.0
 11
354.7614643437
 21
352.9824076545
 31
0.0
  0
LINE
  5
29E
330
1F
100
AcDbEntity
  8
0
  6
Continuous
 62
     8
370
    25
100
AcDbLine
 10
382.1614643437
 20
352.9824076545
 30
0.0
 11
375.232669315
 21
352.9824076545
 31
0.0
  0
LINE
  5
29F
330
1F
100
AcDbEntity
  8
0
  6
Continuous
 62
     8
370
    25
100
AcDbLine
 10
375.0678622391
 20
353.5199492721
 30
0.0
 11
355.0949141433
 21
353.5199492721
 31
0.0
  0
LINE
  5
2A0
330
1F
100
AcDbEntity
  8
0
  6
Continuous
 62
     8
370
    25
100
AcDbLine
 10
381.8280145441
 20
353.5199492721
 30
0.0
 11
375.0678622391
 21
353.5199492721
 31
0.0
  0
LINE
  5
2A1
330
1F
100
AcDbEntity
  8
0
  6
Continuous
 62
     8
370
    25
100
AcDbLine
 10
45.5437174915
 20
367.9824076545
 30
0.0
 11
18.1437174915
 21
367.9824076545
 31
0.0
  0
LINE
  5
2A2
330
1F
100
AcDbEntity
  8
0
  6
Continuous
 62
     8
370
    25
100
AcDbLine
 10
45.2102676919
 20
368.5199492721
 30
0.0
 11
18.4771672911
 21
368.5199492721
 31
0.0
  0
LINE
  5
2A3
330
1F
100
AcDbEntity
  8
0
  6
Continuous
 62
     8
370
    25
100
AcDbLine
 10
18.2624329189
 20
-76.2783749824
 30
0.0
 11
45.5437174915
 21
-76.2783749824
 31
0.0
  0
LINE
  5
2A4
330
1F
100
AcDbEntity
  8
0
  6
Continuous
 62
     8
370
    25
100
AcDbLine
 10
18.1437174915
 20
-76.2783749824
 30
0.0
 11
18.2624329189
 21
-76.2783749824
 31
0.0
  0
LINE
  5
2A5
330
1F
100
AcDbEntity
  8
0
  6
Continuous
 62
     8
370
    25
100
AcDbLine
 10
18.592993256
 20
-76.8159166
 30
0.0
 11
45.2102676919
 21
-76.8159166
 31
0.0
  0
LINE
  5
2A6
330
1F
100
AcDbEntity
  8
0
  6
Continuous
 62
     8
370
    25
100
AcDbLine
 10
18.4771672911
 20
-76.8159166
 30
0.0
 11
18.592993256
 21
-76.8159166
 31
0.0
  0
LINE
  5
2A7
330
1F
100
AcDbEntity
  8
0
  6
Continuous
 62
     8
370
    25
100
AcDbLine
 10
460.0854092454
 20
367.9824076545
 30
0.0
 11
432.6854092454
 21
367.9824076545
 31
0.0
  0
LINE
  5
2A8
330
1F
100
AcDbEntity
  8
0
  6
Continuous
 62
     8
370
    25
100
AcDbLine
 10
459.7519594458
 20
368.5199492721
 30
0.0
 11
433.018859045
 21
368.5199492721
 31
0.0
  0
LINE
  5
2A9
330
1F
100
AcDbEntity
  8
0
  6
Continuous
 62
     8
370
    25
100
AcDbLine
 10
434.9472216307
 20
-76.2783749824
 30
0.0
 11
460.0854092454
 21
-76.2783749824
 31
0.0
  0
LINE
  5
2AA
330
1F
100
AcDbEntity
  8
0
  6
Continuous
 62
     8
370
    25
100
AcDbLine
 10
432.6854092454
 20
-76.2783749824
 30
0.0
 11
434.9472216307
 21
-76.2783749824
 31
0.0
  0
LINE
  5
2AB
330
1F
100
AcDbEntity
  8
0
  6
Continuous
 62
     8
370
    25
100
AcDbLine
 10
435.2256202707
 20
-76.8159166
 30
0.0
 11
459.7519594458
 21
-76.8159166
 31
0.0
  0
LINE
  5
2AC
330
1F
100
AcDbEntity
  8
0
  6
Continuous
 62
     8
370
    25
100
AcDbLine
 10
433.018859045
 20
-76.8159166
 30
0.0
 11
435.2256202707
 21
-76.8159166
 31
0.0
  0
LINE
  5
2AD
330
1F
100
AcDbEntity
  8
0
  6
Continuous
 62
     8
370
    25
100
AcDbLine
 10
354.7614643437
 20
-61.2783749824
 30
0.0
 11
382.1614643437
 21
-61.2783749824
 31
0.0
  0
LINE
  5
2AE
330
1F
100
AcDbEntity
  8
0
  6
Continuous
 62
     8
370
    25
100
AcDbLine
 10
355.0949141433
 20
-61.8159166
 30
0.0
 11
381.8280145441
 21
-61.8159166
 31
0.0
  0
ENDSEC
  0
SECTION
  2
OBJECTS
  0
DICTIONARY
  5
C
330
0
100
AcDbDictionary
281
     1
  3
ACAD_GROUP
350
D
  3
ACAD_LAYOUT
350
1A
  3
ACAD_MLINESTYLE
350
17
  3
ACAD_PLOTSETTINGS
350
19
  3
ACAD_PLOTSTYLENAME
350
E
  3
ACAD_SCALELIST
350
47
  3
DWGPROPS
350
2AF
  0
DICTIONARY
  5
D
102
{ACAD_REACTORS
330
C
102
}
330
C
100
AcDbDictionary
281
     1
  0
DICTIONARY
  5
1A
102
{ACAD_REACTORS
330
C
102
}
330
C
100
AcDbDictionary
281
     1
  3
Layout1
350
1E
  3
Layout2
350
26
  3
Model
350
22
  0
DICTIONARY
  5
17
102
{ACAD_REACTORS
330
C
102
}
330
C
100
AcDbDictionary
281
     1
  3
Standard
350
18
  0
DICTIONARY
  5
19
102
{ACAD_REACTORS
330
C
102
}
330
C
100
AcDbDictionary
281
     1
  0
ACDBDICTIONARYWDFLT
  5
E
102
{ACAD_REACTORS
330
C
102
}
330
C
100
AcDbDictionary
281
     1
  3
Normal
350
F
100
AcDbDictionaryWithDefault
340
F
  0
DICTIONARY
  5
47
102
{ACAD_REACTORS
330
C
102
}
330
C
100
AcDbDictionary
281
     1
  3
A0
350
48
  3
A1
350
49
  3
A2
350
4A
  3
A3
350
4B
  3
A4
350
4C
  3
A5
350
4D
  3
A6
350
4E
  3
A7
350
4F
  3
A8
350
50
  3
A9
350
51
  3
B0
350
52
  3
B1
350
53
  3
B2
350
54
  3
B3
350
55
  3
B4
350
56
  3
B5
350
57
  3
B6
350
58
  3
B7
350
59
  3
B8
350
5A
  3
B9
350
5B
  3
C0
350
5C
  3
C1
350
5D
  3
C2
350
5E
  3
C3
350
5F
  3
C4
350
60
  3
C5
350
61
  3
C6
350
62
  3
C7
350
63
  3
C8
350
64
  3
C9
350
65
  3
D0
350
66
  3
D1
350
67
  3
D2
350
68
  0
XRECORD
  5
2AF
102
{ACAD_REACTORS
330
C
102
}
330
C
100
AcDbXrecord
280
     1
  1
DWGPROPS COOKIE
  2

  3

  4

  6

  7

  8
Swing
  9

300
=
301
=
302
=
303
=
304
=
305
=
306
=
307
=
308
=
309
=
 40
0.0
 41
2459537.299488148
 42
2459537.29948838
  1

 90
        0
  0
LAYOUT
  5
1E
102
{ACAD_REACTORS
330
1A
102
}
330
1A
100
AcDbPlotSettings
  1

  2
none_device
  4

  6

 40
0.0
 41
0.0
 42
0.0
 43
0.0
 44
0.0
 45
0.0
 46
0.0
 47
0.0
 48
0.0
 49
0.0
140
0.0
141
0.0
142
1.0
143
1.0
 70
   688
 72
     1
 73
     0
 74
     5
  7

 75
    16
147
1.0
148
0.0
149
0.0
100
AcDbLayout
  1
Layout1
 70
     1
 71
     1
 10
0.0
 20
0.0
 11
420.0
 21
297.0
 12
0.0
 22
0.0
 32
0.0
 14
1.0000000000E+20
 24
1.0000000000E+20
 34
1.0000000000E+20
 15
-1.0000000000E+20
 25
-1.0000000000E+20
 35
-1.0000000000E+20
146
0.0
 13
0.0
 23
0.0
 33
0.0
 16
1.0
 26
0.0
 36
0.0
 17
0.0
 27
1.0
 37
0.0
 76
     0
330
1B
  0
LAYOUT
  5
26
102
{ACAD_REACTORS
330
1A
102
}
330
1A
100
AcDbPlotSettings
  1

  2
none_device
  4

  6

 40
0.0
 41
0.0
 42
0.0
 43
0.0
 44
0.0
 45
0.0
 46
0.0
 47
0.0
 48
0.0
 49
0.0
140
0.0
141
0.0
142
1.0
143
1.0
 70
   688
 72
     1
 73
     0
 74
     5
  7

 75
    16
147
1.0
148
0.0
149
0.0
100
AcDbLayout
  1
Layout2
 70
     1
 71
     2
 10
0.0
 20
0.0
 11
0.0
 21
0.0
 12
0.0
 22
0.0
 32
0.0
 14
0.0
 24
0.0
 34
0.0
 15
0.0
 25
0.0
 35
0.0
146
0.0
 13
0.0
 23
0.0
 33
0.0
 16
1.0
 26
0.0
 36
0.0
 17
0.0
 27
1.0
 37
0.0
 76
     0
330
23
  0
LAYOUT
  5
22
102
{ACAD_REACTORS
330
1A
102
}
330
1A
100
AcDbPlotSettings
  1

  2
none_device
  4
Letter_(8.50_x_11.00_Inches)
  6

 40
6.35
 41
6.35
 42
6.35000508
 43
6.35000508
 44
215.9
 45
279.4
 46
0.0
 47
0.0
 48
0.0
 49
0.0
140
0.0
141
0.0
142
1.0
143
1.0
 70
  1712
 72
     1
 73
     0
 74
     0
  7

 75
     0
147
1.0
148
0.0
149
0.0
100
AcDbLayout
  1
Model
 70
     1
 71
     0
 10
0.0
 20
0.0
 11
431.8
 21
279.4
 12
0.0
 22
0.0
 32
0.0
 14
0.0
 24
0.0
 34
0.0
 15
431.8
 25
279.4
 35
0.0
146
0.0
 13
0.0
 23
0.0
 33
0.0
 16
1.0
 26
0.0
 36
0.0
 17
0.0
 27
1.0
 37
0.0
 76
     0
330
1F
331
29
  0
MLINESTYLE
  5
18
102
{ACAD_REACTORS
330
17
102
}
330
17
100
AcDbMlineStyle
  2
Standard
 70
     0
  3

 62
   256
 51
90.0
 52
90.0
 71
     2
 49
0.5
 62
   256
  6
BYLAYER
 49
-0.5
 62
   256
  6
BYLAYER
  0
ACDBPLACEHOLDER
  5
F
102
{ACAD_REACTORS
330
E
102
}
330
E
  0
SCALE
  5
48
102
{ACAD_REACTORS
330
47
102
}
330
47
100
AcDbScale
 70
     0
300
1:1
140
1.0
141
1.0
290
     1
  0
SCALE
  5
49
102
{ACAD_REACTORS
330
47
102
}
330
47
100
AcDbScale
 70
     0
300
1:2
140
1.0
141
2.0
290
     0
  0
SCALE
  5
4A
102
{ACAD_REACTORS
330
47
102
}
330
47
100
AcDbScale
 70
     0
300
1:4
140
1.0
141
4.0
290
     0
  0
SCALE
  5
4B
102
{ACAD_REACTORS
330
47
102
}
330
47
100
AcDbScale
 70
     0
300
1:5
140
1.0
141
5.0
290
     0
  0
SCALE
  5
4C
102
{ACAD_REACTORS
330
47
102
}
330
47
100
AcDbScale
 70
     0
300
1:8
140
1.0
141
8.0
290
     0
  0
SCALE
  5
4D
102
{ACAD_REACTORS
330
47
102
}
330
47
100
AcDbScale
 70
     0
300
1:10
140
1.0
141
10.0
290
     0
  0
SCALE
  5
4E
102
{ACAD_REACTORS
330
47
102
}
330
47
100
AcDbScale
 70
     0
300
1:16
140
1.0
141
16.0
290
     0
  0
SCALE
  5
4F
102
{ACAD_REACTORS
330
47
102
}
330
47
100
AcDbScale
 70
     0
300
1:20
140
1.0
141
20.0
290
     0
  0
SCALE
  5
50
102
{ACAD_REACTORS
330
47
102
}
330
47
100
AcDbScale
 70
     0
300
1:30
140
1.0
141
30.0
290
     0
  0
SCALE
  5
51
102
{ACAD_REACTORS
330
47
102
}
330
47
100
AcDbScale
 70
     0
300
1:40
140
1.0
141
40.0
290
     0
  0
SCALE
  5
52
102
{ACAD_REACTORS
330
47
102
}
330
47
100
AcDbScale
 70
     0
300
1:50
140
1.0
141
50.0
290
     0
  0
SCALE
  5
53
102
{ACAD_REACTORS
330
47
102
}
330
47
100
AcDbScale
 70
     0
300
1:100
140
1.0
141
100.0
290
     0
  0
SCALE
  5
54
102
{ACAD_REACTORS
330
47
102
}
330
47
100
AcDbScale
 70
     0
300
2:1
140
2.0
141
1.0
290
     0
  0
SCALE
  5
55
102
{ACAD_REACTORS
330
47
102
}
330
47
100
AcDbScale
 70
     0
300
4:1
140
4.0
141
1.0
290
     0
  0
SCALE
  5
56
102
{ACAD_REACTORS
330
47
102
}
330
47
100
AcDbScale
 70
     0
300
8:1
140
8.0
141
1.0
290
     0
  0
SCALE
  5
57
102
{ACAD_REACTORS
330
47
102
}
330
47
100
AcDbScale
 70
     0
300
10:1
140
10.0
141
1.0
290
     0
  0
SCALE
  5
58
102
{ACAD_REACTORS
330
47
102
}
330
47
100
AcDbScale
 70
     0
300
100:1
140
100.0
141
1.0
290
     0
  0
SCALE
  5
59
102
{ACAD_REACTORS
330
47
102
}
330
47
100
AcDbScale
 70
     0
300
1/128" = 1'-0"
140
0.0078125
141
12.0
290
     0
  0
SCALE
  5
5A
102
{ACAD_REACTORS
330
47
102
}
330
47
100
AcDbScale
 70
     0
300
1/64" = 1'-0"
140
0.015625
141
12.0
290
     0
  0
SCALE
  5
5B
102
{ACAD_REACTORS
330
47
102
}
330
47
100
AcDbScale
 70
     0
300
1/32" = 1'-0"
140
0.03125
141
12.0
290
     0
  0
SCALE
  5
5C
102
{ACAD_REACTORS
330
47
102
}
330
47
100
AcDbScale
 70
     0
300
1/16" = 1'-0"
140
0.0625
141
12.0
290
     0
  0
SCALE
  5
5D
102
{ACAD_REACTORS
330
47
102
}
330
47
100
AcDbScale
 70
     0
300
3/32" = 1'-0"
140
0.09375
141
12.0
290
     0
  0
SCALE
  5
5E
102
{ACAD_REACTORS
330
47
102
}
330
47
100
AcDbScale
 70
     0
300
1/8" = 1'-0"
140
0.125
141
12.0
290
     0
  0
SCALE
  5
5F
102
{ACAD_REACTORS
330
47
102
}
330
47
100
AcDbScale
 70
     0
300
3/16" = 1'-0"
140
0.1875
141
12.0
290
     0
  0
SCALE
  5
60
102
{ACAD_REACTORS
330
47
102
}
330
47
100
AcDbScale
 70
     0
300
1/4" = 1'-0"
140
0.25
141
12.0
290
     0
  0
SCALE
  5
61
102
{ACAD_REACTORS
330
47
102
}
330
47
100
AcDbScale
 70
     0
300
3/8" = 1'-0"
140
0.375
141
12.0
290
     0
  0
SCALE
  5
62
102
{ACAD_REACTORS
330
47
102
}
330
47
100
AcDbScale
 70
     0
300
1/2" = 1'-0"
140
0.5
141
12.0
290
     0
  0
SCALE
  5
63
102
{ACAD_REACTORS
330
47
102
}
330
47
100
AcDbScale
 70
     0
300
3/4" = 1'-0"
140
0.75
141
12.0
290
     0
  0
SCALE
  5
64
102
{ACAD_REACTORS
330
47
102
}
330
47
100
AcDbScale
 70
     0
300
1" = 1'-0"
140
1.0
141
12.0
290
     0
  0
SCALE
  5
65
102
{ACAD_REACTORS
330
47
102
}
330
47
100
AcDbScale
 70
     0
300
1-1/2" = 1'-0"
140
1.5
141
12.0
290
     0
  0
SCALE
  5
66
102
{ACAD_REACTORS
330
47
102
}
330
47
100
AcDbScale
 70
     0
300
3" = 1'-0"
140
3.0
141
12.0
290
     0
  0
SCALE
  5
67
102
{ACAD_REACTORS
330
47
102
}
330
47
100
AcDbScale
 70
     0
300
6" = 1'-0"
140
6.0
141
12.0
290
     0
  0
SCALE
  5
68
102
{ACAD_REACTORS
330
47
102
}
330
47
100
AcDbScale
 70
     0
300
1'-0" = 1'-0"
140
12.0
141
12.0
290
     0
  0
ENDSEC
  0
EOF
