  0
SECTION
  2
HEADER
  9
$ACADVER
  1
AC1015
  9
$ACADMAINTVER
 70
     6
  9
$DWGCODEPAGE
  3
ANSI_1250
  9
$INSBASE
 10
0.0
 20
0.0
 30
0.0
  9
$EXTMIN
 10
0.0
 20
0.0
 30
0.0
  9
$EXTMAX
 10
431.8
 20
279.4
 30
0.0
  9
$LIMMIN
 10
0.0
 20
0.0
  9
$LIMMAX
 10
431.8
 20
279.4
  9
$ORTHOMODE
 70
     0
  9
$REGENMODE
 70
     1
  9
$FILLMODE
 70
     1
  9
$QTEXTMODE
 70
     0
  9
$MIRRTEXT
 70
     1
  9
$LTSCALE
 40
1.0
  9
$ATTMODE
 70
     1
  9
$TEXTSIZE
 40
3.8805555556
  9
$TRACEWID
 40
1.0
  9
$TEXTSTYLE
  7
Standard
  9
$CLAYER
  8
0
  9
$CELTYPE
  6
ByLayer
  9
$CECOLOR
 62
   256
  9
$CELTSCALE
 40
1.0
  9
$DISPSILH
 70
     0
  9
$DIMSCALE
 40
1.0
  9
$DIMASZ
 40
3.302
  9
$DIMEXO
 40
1.0
  9
$DIMDLI
 40
3.75
  9
$DIMRND
 40
0.0
  9
$DIMDLE
 40
0.0
  9
$DIMEXE
 40
1.0
  9
$DIMTP
 40
0.0
  9
$DIMTM
 40
0.0
  9
$DIMTXT
 40
3.8805555556
  9
$DIMCEN
 40
2.5
  9
$DIMTSZ
 40
0.0
  9
$DIMTOL
 70
     0
  9
$DIMLIM
 70
     0
  9
$DIMTIH
 70
     1
  9
$DIMTOH
 70
     1
  9
$DIMSE1
 70
     0
  9
$DIMSE2
 70
     0
  9
$DIMTAD
 70
     1
  9
$DIMZIN
 70
     0
  9
$DIMBLK
  1

  9
$DIMASO
 70
     1
  9
$DIMSHO
 70
     1
  9
$DIMPOST
  1

  9
$DIMAPOST
  1

  9
$DIMALT
 70
     0
  9
$DIMALTD
 70
     3
  9
$DIMALTF
 40
0.0393700787
  9
$DIMLFAC
 40
1.0
  9
$DIMTOFL
 70
     1
  9
$DIMTVP
 40
0.0
  9
$DIMTIX
 70
     0
  9
$DIMSOXD
 70
     0
  9
$DIMSAH
 70
     0
  9
$DIMBLK1
  1

  9
$DIMBLK2
  1

  9
$DIMSTYLE
  2
ISO-25
  9
$DIMCLRD
 70
     0
  9
$DIMCLRE
 70
     0
  9
$DIMCLRT
 70
     0
  9
$DIMTFAC
 40
1.0
  9
$DIMGAP
 40
1.524
  9
$DIMJUST
 70
     0
  9
$DIMSD1
 70
     0
  9
$DIMSD2
 70
     0
  9
$DIMTOLJ
 70
     0
  9
$DIMTZIN
 70
     0
  9
$DIMALTZ
 70
     0
  9
$DIMALTTZ
 70
     0
  9
$DIMUPT
 70
     0
  9
$DIMDEC
 70
     1
  9
$DIMTDEC
 70
     1
  9
$DIMALTU
 70
     2
  9
$DIMALTTD
 70
     3
  9
$DIMTXSTY
  7
Standard
  9
$DIMAUNIT
 70
     0
  9
$DIMADEC
 70
     1
  9
$DIMALTRND
 40
0.0
  9
$DIMAZIN
 70
     0
  9
$DIMDSEP
 70
    44
  9
$DIMATFIT
 70
     3
  9
$DIMFRAC
 70
     0
  9
$DIMLDRBLK
  1

  9
$DIMLUNIT
 70
     2
  9
$DIMLWD
 70
    -2
  9
$DIMLWE
 70
    -2
  9
$DIMTMOVE
 70
     0
  9
$LUNITS
 70
     2
  9
$LUPREC
 70
     1
  9
$SKETCHINC
 40
1.0
  9
$FILLETRAD
 40
10.0
  9
$AUNITS
 70
     0
  9
$AUPREC
 70
     1
  9
$MENU
  1
.
  9
$ELEVATION
 40
0.0
  9
$PELEVATION
 40
0.0
  9
$THICKNESS
 40
0.0
  9
$LIMCHECK
 70
     0
  9
$CHAMFERA
 40
0.0
  9
$CHAMFERB
 40
0.0
  9
$CHAMFERC
 40
0.0
  9
$CHAMFERD
 40
0.0
  9
$SKPOLY
 70
     0
  9
$TDCREATE
 40
2459557.316903588
  9
$TDUCREATE
 40
2459557.275236921
  9
$TDUPDATE
 40
2459557.316903819
  9
$TDUUPDATE
 40
2459557.275237153
  9
$TDINDWG
 40
0.0000000116
  9
$TDUSRTIMER
 40
0.0000000116
  9
$USRTIMER
 70
     1
  9
$ANGBASE
 50
0.0
  9
$ANGDIR
 70
     0
  9
$PDMODE
 70
     0
  9
$PDSIZE
 40
-1.0
  9
$PLINEWID
 40
0.0
  9
$SPLFRAME
 70
     0
  9
$SPLINETYPE
 70
     6
  9
$SPLINESEGS
 70
     8
  9
$HANDSEED
  5
408
  9
$SURFTAB1
 70
     6
  9
$SURFTAB2
 70
     6
  9
$SURFTYPE
 70
     6
  9
$SURFU
 70
     6
  9
$SURFV
 70
     6
  9
$UCSBASE
  2

  9
$UCSNAME
  2

  9
$UCSORG
 10
0.0
 20
0.0
 30
0.0
  9
$UCSXDIR
 10
1.0
 20
0.0
 30
0.0
  9
$UCSYDIR
 10
0.0
 20
1.0
 30
0.0
  9
$UCSORTHOREF
  2

  9
$UCSORTHOVIEW
 70
     0
  9
$UCSORGTOP
 10
0.0
 20
0.0
 30
0.0
  9
$UCSORGBOTTOM
 10
0.0
 20
0.0
 30
0.0
  9
$UCSORGLEFT
 10
0.0
 20
0.0
 30
0.0
  9
$UCSORGRIGHT
 10
0.0
 20
0.0
 30
0.0
  9
$UCSORGFRONT
 10
0.0
 20
0.0
 30
0.0
  9
$UCSORGBACK
 10
0.0
 20
0.0
 30
0.0
  9
$PUCSBASE
  2

  9
$PUCSNAME
  2

  9
$PUCSORG
 10
0.0
 20
0.0
 30
0.0
  9
$PUCSXDIR
 10
1.0
 20
0.0
 30
0.0
  9
$PUCSYDIR
 10
0.0
 20
1.0
 30
0.0
  9
$PUCSORTHOREF
  2

  9
$PUCSORTHOVIEW
 70
     0
  9
$PUCSORGTOP
 10
0.0
 20
0.0
 30
0.0
  9
$PUCSORGBOTTOM
 10
0.0
 20
0.0
 30
0.0
  9
$PUCSORGLEFT
 10
0.0
 20
0.0
 30
0.0
  9
$PUCSORGRIGHT
 10
0.0
 20
0.0
 30
0.0
  9
$PUCSORGFRONT
 10
0.0
 20
0.0
 30
0.0
  9
$PUCSORGBACK
 10
0.0
 20
0.0
 30
0.0
  9
$USERI1
 70
     0
  9
$USERI2
 70
     0
  9
$USERI3
 70
     0
  9
$USERI4
 70
     0
  9
$USERI5
 70
     0
  9
$USERR1
 40
0.0
  9
$USERR2
 40
0.0
  9
$USERR3
 40
0.0
  9
$USERR4
 40
0.0
  9
$USERR5
 40
0.0
  9
$WORLDVIEW
 70
     1
  9
$SHADEDGE
 70
     3
  9
$SHADEDIF
 70
    70
  9
$TILEMODE
 70
     1
  9
$MAXACTVP
 70
    64
  9
$PINSBASE
 10
0.0
 20
0.0
 30
0.0
  9
$PLIMCHECK
 70
     0
  9
$PEXTMIN
 10
1.0000000000E+20
 20
1.0000000000E+20
 30
1.0000000000E+20
  9
$PEXTMAX
 10
-1.0000000000E+20
 20
-1.0000000000E+20
 30
-1.0000000000E+20
  9
$PLIMMIN
 10
0.0
 20
0.0
  9
$PLIMMAX
 10
420.0
 20
297.0
  9
$UNITMODE
 70
     0
  9
$VISRETAIN
 70
     1
  9
$PLINEGEN
 70
     0
  9
$PSLTSCALE
 70
     1
  9
$TREEDEPTH
 70
  3020
  9
$CMLSTYLE
  2
Standard
  9
$CMLJUST
 70
     0
  9
$CMLSCALE
 40
20.0
  9
$PROXYGRAPHICS
 70
     1
  9
$MEASUREMENT
 70
     1
  9
$CELWEIGHT
370
    -1
  9
$ENDCAPS
280
     0
  9
$JOINSTYLE
280
     0
  9
$LWDISPLAY
290
     1
  9
$INSUNITS
 70
     4
  9
$HYPERLINKBASE
  1

  9
$STYLESHEET
  1

  9
$XEDIT
290
     1
  9
$CEPSNTYPE
380
     0
  9
$PSTYLEMODE
290
     1
  9
$FINGERPRINTGUID
  2
{615fd8b7-d786-4569-b2e6-1f61688a7887}
  9
$VERSIONGUID
  2
{FAEB1C32-E019-11D5-929B-00C0DF256EC4}
  9
$EXTNAMES
290
     1
  9
$PSVPSCALE
 40
0.0
  9
$OLESTARTUP
290
     0
  0
ENDSEC
  0
SECTION
  2
CLASSES
  0
CLASS
  1
ACDBDICTIONARYWDFLT
  2
AcDbDictionaryWithDefault
  3
ObjectDBX Classes
 90
        0
280
     0
281
     0
  0
CLASS
  1
VISUALSTYLE
  2
AcDbVisualStyle
  3
ObjectDBX Classes
 90
     4095
280
     0
281
     0
  0
CLASS
  1
MATERIAL
  2
AcDbMaterial
  3
ObjectDBX Classes
 90
     1153
280
     0
281
     0
  0
CLASS
  1
SCALE
  2
AcDbScale
  3
ObjectDBX Classes
 90
     1153
280
     0
281
     0
  0
CLASS
  1
TABLESTYLE
  2
AcDbTableStyle
  3
ObjectDBX Classes
 90
     4095
280
     0
281
     0
  0
CLASS
  1
MLEADERSTYLE
  2
AcDbMLeaderStyle
  3
ACDB_MLEADERSTYLE_CLASS
 90
     4095
280
     0
281
     0
  0
CLASS
  1
SUN
  2
AcDbSun
  3
SCENEOE
 90
     1153
280
     0
281
     0
  0
CLASS
  1
ACDBPLACEHOLDER
  2
AcDbPlaceHolder
  3
ObjectDBX Classes
 90
        0
280
     0
281
     0
  0
CLASS
  1
LAYOUT
  2
AcDbLayout
  3
ObjectDBX Classes
 90
        0
280
     0
281
     0
  0
ENDSEC
  0
SECTION
  2
TABLES
  0
TABLE
  2
VPORT
  5
8
330
0
100
AcDbSymbolTable
 70
     1
  0
VPORT
  5
29
330
8
100
AcDbSymbolTableRecord
100
AcDbViewportTableRecord
  2
*Active
 70
     0
 10
0.0
 20
0.0
 11
1.0
 21
1.0
 12
215.9
 22
139.7
 13
0.0
 23
0.0
 14
10.0
 24
10.0
 15
10.0
 25
10.0
 16
0.0
 26
0.0
 36
1.0
 17
0.0
 27
0.0
 37
0.0
 40
279.4
 41
1.5454545455
 42
50.0
 43
0.0
 44
0.0
 50
0.0
 51
0.0
 71
     0
 72
  2000
 73
     1
 74
     3
 75
     0
 76
     0
 77
     0
 78
     0
281
     0
 65
     1
110
0.0
120
0.0
130
0.0
111
1.0
121
0.0
131
0.0
112
0.0
122
1.0
132
0.0
 79
     0
146
0.0
  0
ENDTAB
  0
TABLE
  2
LTYPE
  5
5
330
0
100
AcDbSymbolTable
 70
     6
  0
LTYPE
  5
14
330
5
100
AcDbSymbolTableRecord
100
AcDbLinetypeTableRecord
  2
ByBlock
 70
     0
  3

 72
    65
 73
     0
 40
0.0
  0
LTYPE
  5
15
330
5
100
AcDbSymbolTableRecord
100
AcDbLinetypeTableRecord
  2
ByLayer
 70
     0
  3

 72
    65
 73
     0
 40
0.0
  0
LTYPE
  5
16
330
5
100
AcDbSymbolTableRecord
100
AcDbLinetypeTableRecord
  2
Continuous
 70
     0
  3
Solid line
 72
    65
 73
     0
 40
0.0
  0
LTYPE
  5
6E
330
5
100
AcDbSymbolTableRecord
100
AcDbLinetypeTableRecord
  2
HIDDEN
 70
     0
  3
Hidden __ __ __ __ __ __ __ __ __ __ __ __ __ __
 72
    65
 73
     2
 40
1.905
 49
1.27
 74
     0
 49
-0.635
 74
     0
  0
LTYPE
  5
6F
330
5
100
AcDbSymbolTableRecord
100
AcDbLinetypeTableRecord
  2
PHANTOM
 70
     0
  3
Phantom ______  __  __  ______  __  __  ______
 72
    65
 73
     6
 40
12.7
 49
6.35
 74
     0
 49
-1.27
 74
     0
 49
1.27
 74
     0
 49
-1.27
 74
     0
 49
1.27
 74
     0
 49
-1.27
 74
     0
  0
LTYPE
  5
70
330
5
100
AcDbSymbolTableRecord
100
AcDbLinetypeTableRecord
  2
CENTER
 70
     0
  3
Center ____ _ ____ _ ____ _ ____ _ ____ _ ____
 72
    65
 73
     4
 40
10.16
 49
6.35
 74
     0
 49
-1.27
 74
     0
 49
1.27
 74
     0
 49
-1.27
 74
     0
  0
LTYPE
  5
71
330
5
100
AcDbSymbolTableRecord
100
AcDbLinetypeTableRecord
  2
CENTERX2
 70
     0
  3
Center (2x) ________  __  ________  __  _____
 72
    65
 73
     4
 40
20.32
 49
12.7
 74
     0
 49
-2.54
 74
     0
 49
2.54
 74
     0
 49
-2.54
 74
     0
  0
LTYPE
  5
72
330
5
100
AcDbSymbolTableRecord
100
AcDbLinetypeTableRecord
  2
DOT2
 70
     0
  3
Dot (.5x) ........................................
 72
    65
 73
     2
 40
0.635
 49
0.0
 74
     0
 49
-0.635
 74
     0
  0
ENDTAB
  0
TABLE
  2
LAYER
  5
2
330
0
100
AcDbSymbolTable
 70
     3
  0
LAYER
  5
10
330
2
100
AcDbSymbolTableRecord
100
AcDbLayerTableRecord
  2
0
 70
     0
 62
     7
  6
Continuous
370
    -3
390
F
  0
LAYER
  5
73
330
2
100
AcDbSymbolTableRecord
100
AcDbLayerTableRecord
  2
FRAME_&_TABLE
 70
     0
 62
     8
  6
Continuous
370
    50
390
F
  0
LAYER
  5
74
330
2
100
AcDbSymbolTableRecord
100
AcDbLayerTableRecord
  2
DIMENSIONS
 70
     0
 62
     7
  6
Continuous
370
    -3
390
F
  0
ENDTAB
  0
TABLE
  2
STYLE
  5
3
330
0
100
AcDbSymbolTable
 70
     1
  0
STYLE
  5
11
330
3
100
AcDbSymbolTableRecord
100
AcDbTextStyleTableRecord
  2
Standard
 70
     0
 40
0.0
 41
1.0
 50
0.0
 71
     0
 42
3.8805555556
  3
txt
  4

  0
ENDTAB
  0
TABLE
  2
VIEW
  5
6
330
0
100
AcDbSymbolTable
 70
     0
  0
ENDTAB
  0
TABLE
  2
UCS
  5
7
330
0
100
AcDbSymbolTable
 70
     0
  0
ENDTAB
  0
TABLE
  2
APPID
  5
9
330
0
100
AcDbSymbolTable
 70
     1
  0
APPID
  5
12
330
9
100
AcDbSymbolTableRecord
100
AcDbRegAppTableRecord
  2
ACAD
 70
     0
  0
ENDTAB
  0
TABLE
  2
DIMSTYLE
  5
A
330
0
100
AcDbSymbolTable
 70
     1
100
AcDbDimStyleTable
  0
DIMSTYLE
105
27
330
A
100
AcDbSymbolTableRecord
100
AcDbDimStyleTableRecord
  2
ISO-25
 70
     0
 41
2.5
 42
0.625
 43
3.75
 44
1.25
 73
     0
 74
     0
 77
     1
 78
     8
140
2.5
141
2.5
143
0.0393700787
147
0.625
171
     3
172
     1
178
     0
271
     2
272
     2
274
     3
278
    44
283
     0
284
     8
340
11
  0
ENDTAB
  0
TABLE
  2
BLOCK_RECORD
  5
1
330
0
100
AcDbSymbolTable
 70
     1
  0
BLOCK_RECORD
  5
1F
330
1
100
AcDbSymbolTableRecord
100
AcDbBlockTableRecord
  2
*Model_Space
340
22
  0
BLOCK_RECORD
  5
1B
330
1
100
AcDbSymbolTableRecord
100
AcDbBlockTableRecord
  2
*Paper_Space
340
1E
  0
BLOCK_RECORD
  5
23
330
1
100
AcDbSymbolTableRecord
100
AcDbBlockTableRecord
  2
*Paper_Space0
340
26
  0
ENDTAB
  0
ENDSEC
  0
SECTION
  2
BLOCKS
  0
BLOCK
  5
20
330
1F
100
AcDbEntity
  8
0
100
AcDbBlockBegin
  2
*Model_Space
 70
     0
 10
0.0
 20
0.0
 30
0.0
  3
*Model_Space
  1

  0
ENDBLK
  5
21
330
1F
100
AcDbEntity
  8
0
100
AcDbBlockEnd
  0
BLOCK
  5
1C
330
1B
100
AcDbEntity
 67
     1
  8
0
100
AcDbBlockBegin
  2
*Paper_Space
 70
     0
 10
0.0
 20
0.0
 30
0.0
  3
*Paper_Space
  1

  0
ENDBLK
  5
1D
330
1B
100
AcDbEntity
 67
     1
  8
0
100
AcDbBlockEnd
  0
BLOCK
  5
24
330
23
100
AcDbEntity
  8
0
100
AcDbBlockBegin
  2
*Paper_Space0
 70
     0
 10
0.0
 20
0.0
 30
0.0
  3
*Paper_Space0
  1

  0
ENDBLK
  5
25
330
23
100
AcDbEntity
  8
0
100
AcDbBlockEnd
  0
ENDSEC
  0
SECTION
  2
ENTITIES
  0
LINE
  5
75
330
1F
100
AcDbEntity
  8
0
  6
Continuous
 62
     7
370
    25
100
AcDbLine
 10
523.524330285
 20
219.4624574096
 30
0.0
 11
523.524330285
 21
221.4624574096
 31
0.0
  0
LINE
  5
76
330
1F
100
AcDbEntity
  8
0
  6
Continuous
 62
     7
370
    25
100
AcDbLine
 10
483.524330285
 20
221.4624574096
 30
0.0
 11
483.524330285
 21
219.4624574096
 31
0.0
  0
ARC
  5
77
330
1F
100
AcDbEntity
  8
0
  6
Continuous
 62
     7
370
    25
100
AcDbCircle
 10
503.6520225927
 20
221.4624574096
 30
0.0
 40
19.87230769230774
100
AcDbArc
 50
0.0
 51
46.9233678463
  0
ARC
  5
78
330
1F
100
AcDbEntity
  8
0
  6
Continuous
 62
     7
370
    25
100
AcDbCircle
 10
503.3966379773
 20
221.4624574096
 30
0.0
 40
19.87230769230769
100
AcDbArc
 50
133.0766321537
 51
180.0
  0
ARC
  5
79
330
1F
100
AcDbEntity
  8
0
  6
Continuous
 62
     7
370
    25
100
AcDbCircle
 10
-43.2534601657
 20
117.4624574096
 30
0.0
 40
19.8723076923077
100
AcDbArc
 50
180.0
 51
226.9233678463
  0
ARC
  5
7A
330
1F
100
AcDbEntity
  8
0
  6
Continuous
 62
     7
370
    25
100
AcDbCircle
 10
-42.9980755503
 20
117.4624574096
 30
0.0
 40
19.8723076923077
100
AcDbArc
 50
313.0766321537
 51
0.0
  0
LINE
  5
7B
330
1F
100
AcDbEntity
  8
0
  6
Continuous
 62
     7
370
    25
100
AcDbLine
 10
-63.125767858
 20
119.4624574096
 30
0.0
 11
-63.125767858
 21
117.4624574096
 31
0.0
  0
LINE
  5
7C
330
1F
100
AcDbEntity
  8
0
  6
Continuous
 62
     7
370
    25
100
AcDbLine
 10
-23.125767858
 20
117.4624574096
 30
0.0
 11
-23.125767858
 21
119.4624574096
 31
0.0
  0
ARC
  5
7D
330
1F
100
AcDbEntity
  8
0
  6
Continuous
 62
     7
370
    25
100
AcDbCircle
 10
588.9877313231
 20
117.4624574096
 30
0.0
 40
19.8723076923078
100
AcDbArc
 50
180.0
 51
226.9233678463
  0
ARC
  5
7E
330
1F
100
AcDbEntity
  8
0
  6
Continuous
 62
     7
370
    25
100
AcDbCircle
 10
589.2431159385
 20
117.4624574096
 30
0.0
 40
19.87230769230766
100
AcDbArc
 50
313.0766321537
 51
0.0
  0
LINE
  5
7F
330
1F
100
AcDbEntity
  8
0
  6
Continuous
 62
     7
370
    25
100
AcDbLine
 10
569.1154236308
 20
119.4624574096
 30
0.0
 11
569.1154236308
 21
117.4624574096
 31
0.0
  0
LINE
  5
80
330
1F
100
AcDbEntity
  8
0
  6
Continuous
 62
     7
370
    25
100
AcDbLine
 10
609.1154236308
 20
117.4624574096
 30
0.0
 11
609.1154236308
 21
119.4624574096
 31
0.0
  0
LINE
  5
81
330
1F
100
AcDbEntity
  8
0
  6
Continuous
 62
     7
370
    25
100
AcDbLine
 10
-148.7168612037
 20
119.4624574096
 30
0.0
 11
-148.7168612037
 21
117.4624574096
 31
0.0
  0
LINE
  5
82
330
1F
100
AcDbEntity
  8
0
  6
Continuous
 62
     7
370
    25
100
AcDbLine
 10
-108.7168612037
 20
117.4624574096
 30
0.0
 11
-108.7168612037
 21
119.4624574096
 31
0.0
  0
ARC
  5
83
330
1F
100
AcDbEntity
  8
0
  6
Continuous
 62
     7
370
    25
100
AcDbCircle
 10
-128.8445535114
 20
117.4624574096
 30
0.0
 40
19.87230769230769
100
AcDbArc
 50
180.0
 51
226.9233678463
  0
ARC
  5
84
330
1F
100
AcDbEntity
  8
0
  6
Continuous
 62
     7
370
    25
100
AcDbCircle
 10
-128.589168896
 20
117.4624574096
 30
0.0
 40
19.8723076923077
100
AcDbArc
 50
313.0766321537
 51
0.0
  0
ARC
  5
85
330
1F
100
AcDbEntity
  8
0
  6
Continuous
 62
     7
370
    25
100
AcDbCircle
 10
-42.9980755503
 20
221.4624574096
 30
0.0
 40
19.87230769230769
100
AcDbArc
 50
0.0
 51
46.9233678463
  0
ARC
  5
86
330
1F
100
AcDbEntity
  8
0
  6
Continuous
 62
     7
370
    25
100
AcDbCircle
 10
-43.2534601657
 20
221.4624574096
 30
0.0
 40
19.87230769230769
100
AcDbArc
 50
133.0766321537
 51
180.0
  0
LINE
  5
87
330
1F
100
AcDbEntity
  8
0
  6
Continuous
 62
     7
370
    25
100
AcDbLine
 10
-23.125767858
 20
219.4624574096
 30
0.0
 11
-23.125767858
 21
221.4624574096
 31
0.0
  0
LINE
  5
88
330
1F
100
AcDbEntity
  8
0
  6
Continuous
 62
     7
370
    25
100
AcDbLine
 10
-63.125767858
 20
221.4624574096
 30
0.0
 11
-63.125767858
 21
219.4624574096
 31
0.0
  0
LINE
  5
89
330
1F
100
AcDbEntity
  8
0
  6
Continuous
 62
     7
370
    25
100
AcDbLine
 10
483.524330285
 20
119.4624574096
 30
0.0
 11
483.524330285
 21
117.4624574096
 31
0.0
  0
LINE
  5
8A
330
1F
100
AcDbEntity
  8
0
  6
Continuous
 62
     7
370
    25
100
AcDbLine
 10
523.524330285
 20
117.4624574096
 30
0.0
 11
523.524330285
 21
119.4624574096
 31
0.0
  0
ARC
  5
8B
330
1F
100
AcDbEntity
  8
0
  6
Continuous
 62
     7
370
    25
100
AcDbCircle
 10
503.3966379773
 20
117.4624574096
 30
0.0
 40
19.87230769230771
100
AcDbArc
 50
180.0
 51
226.9233678463
  0
ARC
  5
8C
330
1F
100
AcDbEntity
  8
0
  6
Continuous
 62
     7
370
    25
100
AcDbCircle
 10
503.6520225927
 20
117.4624574096
 30
0.0
 40
19.87230769230774
100
AcDbArc
 50
313.0766321537
 51
0.0
  0
ARC
  5
8D
330
1F
100
AcDbEntity
  8
0
  6
Continuous
 62
     7
370
    25
100
AcDbCircle
 10
589.2431159385
 20
221.4624574096
 30
0.0
 40
19.87230769230765
100
AcDbArc
 50
0.0
 51
46.9233678463
  0
ARC
  5
8E
330
1F
100
AcDbEntity
  8
0
  6
Continuous
 62
     7
370
    25
100
AcDbCircle
 10
588.9877313231
 20
221.4624574096
 30
0.0
 40
19.8723076923078
100
AcDbArc
 50
133.0766321537
 51
180.0
  0
LINE
  5
8F
330
1F
100
AcDbEntity
  8
0
  6
Continuous
 62
     7
370
    25
100
AcDbLine
 10
609.1154236308
 20
219.4624574096
 30
0.0
 11
609.1154236308
 21
221.4624574096
 31
0.0
  0
LINE
  5
90
330
1F
100
AcDbEntity
  8
0
  6
Continuous
 62
     7
370
    25
100
AcDbLine
 10
569.1154236308
 20
221.4624574096
 30
0.0
 11
569.1154236308
 21
219.4624574096
 31
0.0
  0
ARC
  5
91
330
1F
100
AcDbEntity
  8
0
  6
Continuous
 62
     7
370
    25
100
AcDbCircle
 10
-128.589168896
 20
221.4624574096
 30
0.0
 40
19.8723076923077
100
AcDbArc
 50
0.0
 51
46.9233678463
  0
ARC
  5
92
330
1F
100
AcDbEntity
  8
0
  6
Continuous
 62
     7
370
    25
100
AcDbCircle
 10
-128.8445535114
 20
221.4624574096
 30
0.0
 40
19.87230769230769
100
AcDbArc
 50
133.0766321537
 51
180.0
  0
LINE
  5
93
330
1F
100
AcDbEntity
  8
0
  6
Continuous
 62
     7
370
    25
100
AcDbLine
 10
-108.7168612037
 20
219.4624574096
 30
0.0
 11
-108.7168612037
 21
221.4624574096
 31
0.0
  0
LINE
  5
94
330
1F
100
AcDbEntity
  8
0
  6
Continuous
 62
     7
370
    25
100
AcDbLine
 10
-148.7168612037
 20
221.4624574096
 30
0.0
 11
-148.7168612037
 21
219.4624574096
 31
0.0
  0
LINE
  5
95
330
1F
100
AcDbEntity
  8
0
  6
Continuous
 62
     7
370
    25
100
AcDbLine
 10
489.824330285
 20
102.9469113667
 30
0.0
 11
489.824330285
 21
102.3320660912
 31
0.0
  0
LINE
  5
96
330
1F
100
AcDbEntity
  8
0
  6
Continuous
 62
     7
370
    25
100
AcDbLine
 10
517.224330285
 20
102.3320660912
 30
0.0
 11
517.224330285
 21
102.9469113667
 31
0.0
  0
ARC
  5
97
330
1F
100
AcDbEntity
  8
0
  6
Continuous
 62
     7
370
    25
100
AcDbCircle
 10
490.424330285
 20
102.3320660912
 30
0.0
 40
0.6000000000000313
100
AcDbArc
 50
180.0
 51
243.6246146768
  0
ARC
  5
98
330
1F
100
AcDbEntity
  8
0
  6
Continuous
 62
     7
370
    25
100
AcDbCircle
 10
516.624330285
 20
102.3320660912
 30
0.0
 40
0.6000000000000565
100
AcDbArc
 50
296.3753853232
 51
0.0
  0
ARC
  5
99
330
1F
100
AcDbEntity
  8
0
  6
Continuous
 62
     7
370
    25
100
AcDbCircle
 10
503.524330285
 20
128.7503361974
 30
0.0
 40
30.08787878787881
100
AcDbArc
 50
243.6246146768
 51
296.3753853232
  0
LINE
  5
9A
330
1F
100
AcDbEntity
  8
0
  6
Continuous
 62
     7
370
    25
100
AcDbLine
 10
-56.825767858
 20
102.9469113667
 30
0.0
 11
-56.825767858
 21
102.3320660912
 31
0.0
  0
LINE
  5
9B
330
1F
100
AcDbEntity
  8
0
  6
Continuous
 62
     7
370
    25
100
AcDbLine
 10
-29.425767858
 20
102.3320660912
 30
0.0
 11
-29.425767858
 21
102.9469113667
 31
0.0
  0
ARC
  5
9C
330
1F
100
AcDbEntity
  8
0
  6
Continuous
 62
     7
370
    25
100
AcDbCircle
 10
-56.225767858
 20
102.3320660912
 30
0.0
 40
0.6000000000000123
100
AcDbArc
 50
180.0
 51
243.6246146768
  0
ARC
  5
9D
330
1F
100
AcDbEntity
  8
0
  6
Continuous
 62
     7
370
    25
100
AcDbCircle
 10
-30.025767858
 20
102.3320660912
 30
0.0
 40
0.600000000000014
100
AcDbArc
 50
296.3753853232
 51
0.0
  0
ARC
  5
9E
330
1F
100
AcDbEntity
  8
0
  6
Continuous
 62
     7
370
    25
100
AcDbCircle
 10
-43.125767858
 20
128.7503361974
 30
0.0
 40
30.08787878787878
100
AcDbArc
 50
243.6246146768
 51
270.0
  0
ARC
  5
9F
330
1F
100
AcDbEntity
  8
0
  6
Continuous
 62
     7
370
    25
100
AcDbCircle
 10
-43.125767858
 20
128.7503361974
 30
0.0
 40
30.08787878787878
100
AcDbArc
 50
270.0
 51
296.3753853232
  0
LINE
  5
A0
330
1F
100
AcDbEntity
  8
0
  6
Continuous
 62
     7
370
    25
100
AcDbLine
 10
575.4154236308
 20
102.9469113667
 30
0.0
 11
575.4154236308
 21
102.3320660912
 31
0.0
  0
LINE
  5
A1
330
1F
100
AcDbEntity
  8
0
  6
Continuous
 62
     7
370
    25
100
AcDbLine
 10
602.8154236308
 20
102.3320660912
 30
0.0
 11
602.8154236308
 21
102.9469113667
 31
0.0
  0
ARC
  5
A2
330
1F
100
AcDbEntity
  8
0
  6
Continuous
 62
     7
370
    25
100
AcDbCircle
 10
576.0154236308
 20
102.3320660912
 30
0.0
 40
0.6000000000000227
100
AcDbArc
 50
180.0
 51
243.6246146768
  0
ARC
  5
A3
330
1F
100
AcDbEntity
  8
0
  6
Continuous
 62
     7
370
    25
100
AcDbCircle
 10
602.2154236308
 20
102.3320660912
 30
0.0
 40
0.600000000000006
100
AcDbArc
 50
296.3753853232
 51
0.0
  0
ARC
  5
A4
330
1F
100
AcDbEntity
  8
0
  6
Continuous
 62
     7
370
    25
100
AcDbCircle
 10
589.1154236308
 20
128.7503361974
 30
0.0
 40
30.08787878787885
100
AcDbArc
 50
243.6246146768
 51
296.3753853232
  0
ARC
  5
A5
330
1F
100
AcDbEntity
  8
0
  6
Continuous
 62
     7
370
    25
100
AcDbCircle
 10
516.624330285
 20
236.592848728
 30
0.0
 40
0.6000000000000565
100
AcDbArc
 50
0.0
 51
63.6246146768
  0
ARC
  5
A6
330
1F
100
AcDbEntity
  8
0
  6
Continuous
 62
     7
370
    25
100
AcDbCircle
 10
490.424330285
 20
236.592848728
 30
0.0
 40
0.6000000000000313
100
AcDbArc
 50
116.3753853232
 51
180.0
  0
LINE
  5
A7
330
1F
100
AcDbEntity
  8
0
  6
Continuous
 62
     7
370
    25
100
AcDbLine
 10
517.224330285
 20
235.9780034525
 30
0.0
 11
517.224330285
 21
236.592848728
 31
0.0
  0
LINE
  5
A8
330
1F
100
AcDbEntity
  8
0
  6
Continuous
 62
     7
370
    25
100
AcDbLine
 10
489.824330285
 20
236.592848728
 30
0.0
 11
489.824330285
 21
235.9780034525
 31
0.0
  0
ARC
  5
A9
330
1F
100
AcDbEntity
  8
0
  6
Continuous
 62
     7
370
    25
100
AcDbCircle
 10
503.524330285
 20
210.1745786217
 30
0.0
 40
30.08787878787881
100
AcDbArc
 50
63.6246146768
 51
90.0
  0
ARC
  5
AA
330
1F
100
AcDbEntity
  8
0
  6
Continuous
 62
     7
370
    25
100
AcDbCircle
 10
503.524330285
 20
210.1745786217
 30
0.0
 40
30.08787878787884
100
AcDbArc
 50
90.0
 51
116.3753853232
  0
LINE
  5
AB
330
1F
100
AcDbEntity
  8
0
  6
Continuous
 62
     7
370
    25
100
AcDbLine
 10
-115.0168612037
 20
235.9780034525
 30
0.0
 11
-115.0168612037
 21
236.592848728
 31
0.0
  0
LINE
  5
AC
330
1F
100
AcDbEntity
  8
0
  6
Continuous
 62
     7
370
    25
100
AcDbLine
 10
-142.4168612037
 20
236.592848728
 30
0.0
 11
-142.4168612037
 21
235.9780034525
 31
0.0
  0
ARC
  5
AD
330
1F
100
AcDbEntity
  8
0
  6
Continuous
 62
     7
370
    25
100
AcDbCircle
 10
-115.6168612037
 20
236.592848728
 30
0.0
 40
0.6000000000000123
100
AcDbArc
 50
0.0
 51
63.6246146768
  0
ARC
  5
AE
330
1F
100
AcDbEntity
  8
0
  6
Continuous
 62
     7
370
    25
100
AcDbCircle
 10
-141.8168612037
 20
236.592848728
 30
0.0
 40
0.600000000000006
100
AcDbArc
 50
116.3753853232
 51
180.0
  0
ARC
  5
AF
330
1F
100
AcDbEntity
  8
0
  6
Continuous
 62
     7
370
    25
100
AcDbCircle
 10
-128.7168612037
 20
210.1745786217
 30
0.0
 40
30.08787878787878
100
AcDbArc
 50
63.6246146768
 51
116.3753853232
  0
ARC
  5
B0
330
1F
100
AcDbEntity
  8
0
  6
Continuous
 62
     7
370
    25
100
AcDbCircle
 10
602.2154236308
 20
236.592848728
 30
0.0
 40
0.600000000000006
100
AcDbArc
 50
0.0
 51
63.6246146768
  0
ARC
  5
B1
330
1F
100
AcDbEntity
  8
0
  6
Continuous
 62
     7
370
    25
100
AcDbCircle
 10
576.0154236308
 20
236.592848728
 30
0.0
 40
0.6000000000000227
100
AcDbArc
 50
116.3753853232
 51
180.0
  0
LINE
  5
B2
330
1F
100
AcDbEntity
  8
0
  6
Continuous
 62
     7
370
    25
100
AcDbLine
 10
602.8154236308
 20
235.9780034525
 30
0.0
 11
602.8154236308
 21
236.592848728
 31
0.0
  0
LINE
  5
B3
330
1F
100
AcDbEntity
  8
0
  6
Continuous
 62
     7
370
    25
100
AcDbLine
 10
575.4154236308
 20
236.592848728
 30
0.0
 11
575.4154236308
 21
235.9780034525
 31
0.0
  0
ARC
  5
B4
330
1F
100
AcDbEntity
  8
0
  6
Continuous
 62
     7
370
    25
100
AcDbCircle
 10
589.1154236308
 20
210.1745786217
 30
0.0
 40
30.08787878787883
100
AcDbArc
 50
63.6246146768
 51
90.0
  0
ARC
  5
B5
330
1F
100
AcDbEntity
  8
0
  6
Continuous
 62
     7
370
    25
100
AcDbCircle
 10
589.1154236308
 20
210.1745786217
 30
0.0
 40
30.08787878787879
100
AcDbArc
 50
90.0
 51
116.3753853232
  0
ARC
  5
B6
330
1F
100
AcDbEntity
  8
0
  6
Continuous
 62
     7
370
    25
100
AcDbCircle
 10
-141.8168612037
 20
102.3320660912
 30
0.0
 40
0.600000000000006
100
AcDbArc
 50
180.0
 51
243.6246146768
  0
ARC
  5
B7
330
1F
100
AcDbEntity
  8
0
  6
Continuous
 62
     7
370
    25
100
AcDbCircle
 10
-115.6168612037
 20
102.3320660912
 30
0.0
 40
0.6000000000000123
100
AcDbArc
 50
296.3753853232
 51
0.0
  0
LINE
  5
B8
330
1F
100
AcDbEntity
  8
0
  6
Continuous
 62
     7
370
    25
100
AcDbLine
 10
-142.4168612037
 20
102.9469113667
 30
0.0
 11
-142.4168612037
 21
102.3320660912
 31
0.0
  0
LINE
  5
B9
330
1F
100
AcDbEntity
  8
0
  6
Continuous
 62
     7
370
    25
100
AcDbLine
 10
-115.0168612037
 20
102.3320660912
 30
0.0
 11
-115.0168612037
 21
102.9469113667
 31
0.0
  0
ARC
  5
BA
330
1F
100
AcDbEntity
  8
0
  6
Continuous
 62
     7
370
    25
100
AcDbCircle
 10
-128.7168612037
 20
128.7503361974
 30
0.0
 40
30.0878787878788
100
AcDbArc
 50
243.6246146768
 51
270.0
  0
ARC
  5
BB
330
1F
100
AcDbEntity
  8
0
  6
Continuous
 62
     7
370
    25
100
AcDbCircle
 10
-128.7168612037
 20
128.7503361974
 30
0.0
 40
30.08787878787879
100
AcDbArc
 50
270.0
 51
296.3753853232
  0
ARC
  5
BC
330
1F
100
AcDbEntity
  8
0
  6
Continuous
 62
     7
370
    25
100
AcDbCircle
 10
-30.025767858
 20
236.592848728
 30
0.0
 40
0.600000000000014
100
AcDbArc
 50
0.0
 51
63.6246146768
  0
ARC
  5
BD
330
1F
100
AcDbEntity
  8
0
  6
Continuous
 62
     7
370
    25
100
AcDbCircle
 10
-56.225767858
 20
236.592848728
 30
0.0
 40
0.6000000000000123
100
AcDbArc
 50
116.3753853232
 51
180.0
  0
LINE
  5
BE
330
1F
100
AcDbEntity
  8
0
  6
Continuous
 62
     7
370
    25
100
AcDbLine
 10
-29.425767858
 20
235.9780034525
 30
0.0
 11
-29.425767858
 21
236.592848728
 31
0.0
  0
LINE
  5
BF
330
1F
100
AcDbEntity
  8
0
  6
Continuous
 62
     7
370
    25
100
AcDbLine
 10
-56.825767858
 20
236.592848728
 30
0.0
 11
-56.825767858
 21
235.9780034525
 31
0.0
  0
ARC
  5
C0
330
1F
100
AcDbEntity
  8
0
  6
Continuous
 62
     7
370
    25
100
AcDbCircle
 10
-43.125767858
 20
210.1745786217
 30
0.0
 40
30.08787878787881
100
AcDbArc
 50
63.6246146768
 51
116.3753853232
  0
LINE
  5
C1
330
1F
100
AcDbEntity
  8
0
  6
Continuous
 62
     7
370
    25
100
AcDbLine
 10
695.6598182514
 20
151.1624574096
 30
0.0
 11
695.6598182514
 21
187.7624574096
 31
0.0
  0
LINE
  5
C2
330
1F
100
AcDbEntity
  8
0
  6
Continuous
 62
     7
370
    25
100
AcDbLine
 10
668.7598182514
 20
187.7624574096
 30
0.0
 11
668.7598182514
 21
151.1624574096
 31
0.0
  0
LINE
  5
C3
330
1F
100
AcDbEntity
  8
0
  6
Continuous
 62
     7
370
    25
100
AcDbLine
 10
-235.2612558243
 20
187.7624574096
 30
0.0
 11
-235.2612558243
 21
151.1624574096
 31
0.0
  0
LINE
  5
C4
330
1F
100
AcDbEntity
  8
0
  6
Continuous
 62
     7
370
    25
100
AcDbLine
 10
-208.3612558243
 20
151.1624574096
 30
0.0
 11
-208.3612558243
 21
187.7624574096
 31
0.0
  0
ARC
  5
C5
330
1F
100
AcDbEntity
  8
0
  6
Continuous
 62
     7
370
    25
100
AcDbCircle
 10
-221.6835635166
 20
136.4624574096
 30
0.0
 40
19.8723076923077
100
AcDbArc
 50
0.0
 51
47.7078116412
  0
ARC
  5
C6
330
1F
100
AcDbEntity
  8
0
  6
Continuous
 62
     7
370
    25
100
AcDbCircle
 10
-221.938948132
 20
136.4624574096
 30
0.0
 40
19.8723076923077
100
AcDbArc
 50
132.2921883588
 51
180.0
  0
LINE
  5
C7
330
1F
100
AcDbEntity
  8
0
  6
Continuous
 62
     7
370
    25
100
AcDbLine
 10
-201.8112558243
 20
134.4624574096
 30
0.0
 11
-201.8112558243
 21
136.4624574096
 31
0.0
  0
LINE
  5
C8
330
1F
100
AcDbEntity
  8
0
  6
Continuous
 62
     7
370
    25
100
AcDbLine
 10
-241.8112558243
 20
136.4624574096
 30
0.0
 11
-241.8112558243
 21
134.4624574096
 31
0.0
  0
LINE
  5
C9
330
1F
100
AcDbEntity
  8
0
  6
Continuous
 62
     7
370
    25
100
AcDbLine
 10
662.2098182514
 20
204.4624574096
 30
0.0
 11
662.2098182514
 21
202.4624574096
 31
0.0
  0
LINE
  5
CA
330
1F
100
AcDbEntity
  8
0
  6
Continuous
 62
     7
370
    25
100
AcDbLine
 10
702.2098182514
 20
202.4624574096
 30
0.0
 11
702.2098182514
 21
204.4624574096
 31
0.0
  0
ARC
  5
CB
330
1F
100
AcDbEntity
  8
0
  6
Continuous
 62
     7
370
    25
100
AcDbCircle
 10
682.0821259437
 20
202.4624574096
 30
0.0
 40
19.87230769230769
100
AcDbArc
 50
180.0
 51
227.7078116412
  0
ARC
  5
CC
330
1F
100
AcDbEntity
  8
0
  6
Continuous
 62
     7
370
    25
100
AcDbCircle
 10
682.3375105591
 20
202.4624574096
 30
0.0
 40
19.8723076923078
100
AcDbArc
 50
312.2921883588
 51
0.0
  0
LINE
  5
CD
330
1F
100
AcDbEntity
  8
0
  6
Continuous
 62
     7
370
    25
100
AcDbLine
 10
-241.8112558243
 20
204.4624574096
 30
0.0
 11
-241.8112558243
 21
202.4624574096
 31
0.0
  0
LINE
  5
CE
330
1F
100
AcDbEntity
  8
0
  6
Continuous
 62
     7
370
    25
100
AcDbLine
 10
-201.8112558243
 20
202.4624574096
 30
0.0
 11
-201.8112558243
 21
204.4624574096
 31
0.0
  0
ARC
  5
CF
330
1F
100
AcDbEntity
  8
0
  6
Continuous
 62
     7
370
    25
100
AcDbCircle
 10
-221.938948132
 20
202.4624574096
 30
0.0
 40
19.87230769230769
100
AcDbArc
 50
180.0
 51
227.7078116412
  0
ARC
  5
D0
330
1F
100
AcDbEntity
  8
0
  6
Continuous
 62
     7
370
    25
100
AcDbCircle
 10
-221.6835635166
 20
202.4624574096
 30
0.0
 40
19.87230769230769
100
AcDbArc
 50
312.2921883588
 51
0.0
  0
LINE
  5
D1
330
1F
100
AcDbEntity
  8
0
  6
Continuous
 62
     7
370
    25
100
AcDbLine
 10
702.2098182514
 20
134.4624574096
 30
0.0
 11
702.2098182514
 21
136.4624574096
 31
0.0
  0
LINE
  5
D2
330
1F
100
AcDbEntity
  8
0
  6
Continuous
 62
     7
370
    25
100
AcDbLine
 10
662.2098182514
 20
136.4624574096
 30
0.0
 11
662.2098182514
 21
134.4624574096
 31
0.0
  0
ARC
  5
D3
330
1F
100
AcDbEntity
  8
0
  6
Continuous
 62
     7
370
    25
100
AcDbCircle
 10
682.3375105591
 20
136.4624574096
 30
0.0
 40
19.8723076923078
100
AcDbArc
 50
0.0
 51
47.7078116412
  0
ARC
  5
D4
330
1F
100
AcDbEntity
  8
0
  6
Continuous
 62
     7
370
    25
100
AcDbCircle
 10
682.0821259437
 20
136.4624574096
 30
0.0
 40
19.8723076923077
100
AcDbArc
 50
132.2921883588
 51
180.0
  0
ARC
  5
D5
330
1F
100
AcDbEntity
  8
0
  6
Continuous
 62
     7
370
    25
100
AcDbCircle
 10
441.9588205342
 20
116.4624574096
 30
0.0
 40
3.0
100
AcDbArc
 50
180.0
 51
270.0
  0
LINE
  5
D6
330
1F
100
AcDbEntity
  8
0
  6
Continuous
 62
     7
370
    25
100
AcDbLine
 10
438.9588205342
 20
119.4624574096
 30
0.0
 11
438.9588205342
 21
116.4624574096
 31
0.0
  0
ARC
  5
D7
330
1F
100
AcDbEntity
  8
0
  6
Continuous
 62
     7
370
    25
100
AcDbCircle
 10
442.9588205342
 20
110.4624574096
 30
0.0
 40
3.0
100
AcDbArc
 50
0.0
 51
90.0
  0
ARC
  5
D8
330
1F
100
AcDbEntity
  8
0
  6
Continuous
 62
     7
370
    25
100
AcDbCircle
 10
482.9588205342
 20
110.4624574096
 30
0.0
 40
3.0
100
AcDbArc
 50
90.0
 51
180.0
  0
ARC
  5
D9
330
1F
100
AcDbEntity
  8
0
  6
Continuous
 62
     7
370
    25
100
AcDbCircle
 10
446.9588205342
 20
30.4624574096
 30
0.0
 40
1.0
100
AcDbArc
 50
180.0
 51
270.0
  0
ARC
  5
DA
330
1F
100
AcDbEntity
  8
0
  6
Continuous
 62
     7
370
    25
100
AcDbCircle
 10
478.9588205342
 20
30.4624574096
 30
0.0
 40
1.0
100
AcDbArc
 50
270.0
 51
0.0
  0
LINE
  5
DB
330
1F
100
AcDbEntity
  8
0
  6
Continuous
 62
     7
370
    25
100
AcDbLine
 10
445.9588205342
 20
110.4624574096
 30
0.0
 11
445.9588205342
 21
30.4624574096
 31
0.0
  0
LINE
  5
DC
330
1F
100
AcDbEntity
  8
0
  6
Continuous
 62
     7
370
    25
100
AcDbLine
 10
479.9588205342
 20
30.4624574096
 30
0.0
 11
479.9588205342
 21
110.4624574096
 31
0.0
  0
LINE
  5
DD
330
1F
100
AcDbEntity
  8
0
  6
Continuous
 62
     7
370
    25
100
AcDbLine
 10
-245.8112558243
 20
119.4624574096
 30
0.0
 11
-245.8112558243
 21
116.4624574096
 31
0.0
  0
LINE
  5
DE
330
1F
100
AcDbEntity
  8
0
  6
Continuous
 62
     7
370
    25
100
AcDbLine
 10
-197.8112558243
 20
116.4624574096
 30
0.0
 11
-197.8112558243
 21
119.4624574096
 31
0.0
  0
ARC
  5
DF
330
1F
100
AcDbEntity
  8
0
  6
Continuous
 62
     7
370
    25
100
AcDbCircle
 10
-242.8112558243
 20
116.4624574096
 30
0.0
 40
3.0
100
AcDbArc
 50
180.0
 51
270.0
  0
ARC
  5
E0
330
1F
100
AcDbEntity
  8
0
  6
Continuous
 62
     7
370
    25
100
AcDbCircle
 10
-200.8112558243
 20
116.4624574096
 30
0.0
 40
3.000000000000028
100
AcDbArc
 50
270.0
 51
0.0
  0
ARC
  5
E1
330
1F
100
AcDbEntity
  8
0
  6
Continuous
 62
     7
370
    25
100
AcDbCircle
 10
-241.8112558243
 20
110.4624574096
 30
0.0
 40
3.0
100
AcDbArc
 50
0.0
 51
90.0
  0
ARC
  5
E2
330
1F
100
AcDbEntity
  8
0
  6
Continuous
 62
     7
370
    25
100
AcDbCircle
 10
-201.8112558243
 20
110.4624574096
 30
0.0
 40
3.0
100
AcDbArc
 50
90.0
 51
180.0
  0
ARC
  5
E3
330
1F
100
AcDbEntity
  8
0
  6
Continuous
 62
     7
370
    25
100
AcDbCircle
 10
-237.8112558243
 20
30.4624574096
 30
0.0
 40
1.0
100
AcDbArc
 50
180.0
 51
270.0
  0
ARC
  5
E4
330
1F
100
AcDbEntity
  8
0
  6
Continuous
 62
     7
370
    25
100
AcDbCircle
 10
-205.8112558243
 20
30.4624574096
 30
0.0
 40
1.0
100
AcDbArc
 50
270.0
 51
0.0
  0
LINE
  5
E5
330
1F
100
AcDbEntity
  8
0
  6
Continuous
 62
     7
370
    25
100
AcDbLine
 10
-238.8112558243
 20
110.4624574096
 30
0.0
 11
-238.8112558243
 21
30.4624574096
 31
0.0
  0
LINE
  5
E6
330
1F
100
AcDbEntity
  8
0
  6
Continuous
 62
     7
370
    25
100
AcDbLine
 10
-204.8112558243
 20
30.4624574096
 30
0.0
 11
-204.8112558243
 21
110.4624574096
 31
0.0
  0
ARC
  5
E7
330
1F
100
AcDbEntity
  8
0
  6
Continuous
 62
     7
370
    25
100
AcDbCircle
 10
18.4397418929
 20
116.4624574096
 30
0.0
 40
3.000000000000004
100
AcDbArc
 50
270.0
 51
0.0
  0
LINE
  5
E8
330
1F
100
AcDbEntity
  8
0
  6
Continuous
 62
     7
370
    25
100
AcDbLine
 10
21.4397418929
 20
116.4624574096
 30
0.0
 11
21.4397418929
 21
119.4624574096
 31
0.0
  0
ARC
  5
E9
330
1F
100
AcDbEntity
  8
0
  6
Continuous
 62
     7
370
    25
100
AcDbCircle
 10
-22.5602581071
 20
110.4624574096
 30
0.0
 40
3.0
100
AcDbArc
 50
0.0
 51
90.0
  0
ARC
  5
EA
330
1F
100
AcDbEntity
  8
0
  6
Continuous
 62
     7
370
    25
100
AcDbCircle
 10
17.4397418929
 20
110.4624574096
 30
0.0
 40
3.000000000000004
100
AcDbArc
 50
90.0
 51
180.0
  0
ARC
  5
EB
330
1F
100
AcDbEntity
  8
0
  6
Continuous
 62
     7
370
    25
100
AcDbCircle
 10
-18.5602581071
 20
30.4624574096
 30
0.0
 40
1.000000000000004
100
AcDbArc
 50
180.0
 51
270.0
  0
ARC
  5
EC
330
1F
100
AcDbEntity
  8
0
  6
Continuous
 62
     7
370
    25
100
AcDbCircle
 10
13.4397418929
 20
30.4624574096
 30
0.0
 40
1.0
100
AcDbArc
 50
270.0
 51
0.0
  0
LINE
  5
ED
330
1F
100
AcDbEntity
  8
0
  6
Continuous
 62
     7
370
    25
100
AcDbLine
 10
-19.5602581071
 20
110.4624574096
 30
0.0
 11
-19.5602581071
 21
30.4624574096
 31
0.0
  0
LINE
  5
EE
330
1F
100
AcDbEntity
  8
0
  6
Continuous
 62
     7
370
    25
100
AcDbLine
 10
14.4397418929
 20
30.4624574096
 30
0.0
 11
14.4397418929
 21
110.4624574096
 31
0.0
  0
ARC
  5
EF
330
1F
100
AcDbEntity
  8
0
  6
Continuous
 62
     7
370
    25
100
AcDbCircle
 10
-200.8112558243
 20
222.4624574096
 30
0.0
 40
3.000000000000028
100
AcDbArc
 50
0.0
 51
90.0
  0
ARC
  5
F0
330
1F
100
AcDbEntity
  8
0
  6
Continuous
 62
     7
370
    25
100
AcDbCircle
 10
-242.8112558243
 20
222.4624574096
 30
0.0
 40
3.0
100
AcDbArc
 50
90.0
 51
180.0
  0
LINE
  5
F1
330
1F
100
AcDbEntity
  8
0
  6
Continuous
 62
     7
370
    25
100
AcDbLine
 10
-197.8112558243
 20
219.4624574096
 30
0.0
 11
-197.8112558243
 21
222.4624574096
 31
0.0
  0
LINE
  5
F2
330
1F
100
AcDbEntity
  8
0
  6
Continuous
 62
     7
370
    25
100
AcDbLine
 10
-245.8112558243
 20
222.4624574096
 30
0.0
 11
-245.8112558243
 21
219.4624574096
 31
0.0
  0
ARC
  5
F3
330
1F
100
AcDbEntity
  8
0
  6
Continuous
 62
     7
370
    25
100
AcDbCircle
 10
-201.8112558243
 20
228.4624574096
 30
0.0
 40
3.0
100
AcDbArc
 50
180.0
 51
270.0
  0
ARC
  5
F4
330
1F
100
AcDbEntity
  8
0
  6
Continuous
 62
     7
370
    25
100
AcDbCircle
 10
-241.8112558243
 20
228.4624574096
 30
0.0
 40
3.0
100
AcDbArc
 50
270.0
 51
0.0
  0
LINE
  5
F5
330
1F
100
AcDbEntity
  8
0
  6
Continuous
 62
     7
370
    25
100
AcDbLine
 10
-204.8112558243
 20
228.4624574096
 30
0.0
 11
-204.8112558243
 21
308.4624574096
 31
0.0
  0
LINE
  5
F6
330
1F
100
AcDbEntity
  8
0
  6
Continuous
 62
     7
370
    25
100
AcDbLine
 10
-238.8112558243
 20
308.4624574096
 30
0.0
 11
-238.8112558243
 21
228.4624574096
 31
0.0
  0
ARC
  5
F7
330
1F
100
AcDbEntity
  8
0
  6
Continuous
 62
     7
370
    25
100
AcDbCircle
 10
-205.8112558243
 20
308.4624574096
 30
0.0
 40
1.0
100
AcDbArc
 50
0.0
 51
90.0
  0
ARC
  5
F8
330
1F
100
AcDbEntity
  8
0
  6
Continuous
 62
     7
370
    25
100
AcDbCircle
 10
-237.8112558243
 20
308.4624574096
 30
0.0
 40
1.0
100
AcDbArc
 50
90.0
 51
180.0
  0
ARC
  5
F9
330
1F
100
AcDbEntity
  8
0
  6
Continuous
 62
     7
370
    25
100
AcDbCircle
 10
18.4397418929
 20
222.4624574096
 30
0.0
 40
3.000000000000004
100
AcDbArc
 50
0.0
 51
90.0
  0
LINE
  5
FA
330
1F
100
AcDbEntity
  8
0
  6
Continuous
 62
     7
370
    25
100
AcDbLine
 10
21.4397418929
 20
219.4624574096
 30
0.0
 11
21.4397418929
 21
222.4624574096
 31
0.0
  0
ARC
  5
FB
330
1F
100
AcDbEntity
  8
0
  6
Continuous
 62
     7
370
    25
100
AcDbCircle
 10
17.4397418929
 20
228.4624574096
 30
0.0
 40
3.000000000000004
100
AcDbArc
 50
180.0
 51
270.0
  0
ARC
  5
FC
330
1F
100
AcDbEntity
  8
0
  6
Continuous
 62
     7
370
    25
100
AcDbCircle
 10
-22.5602581071
 20
228.4624574096
 30
0.0
 40
3.0
100
AcDbArc
 50
270.0
 51
0.0
  0
LINE
  5
FD
330
1F
100
AcDbEntity
  8
0
  6
Continuous
 62
     7
370
    25
100
AcDbLine
 10
14.4397418929
 20
228.4624574096
 30
0.0
 11
14.4397418929
 21
308.4624574096
 31
0.0
  0
LINE
  5
FE
330
1F
100
AcDbEntity
  8
0
  6
Continuous
 62
     7
370
    25
100
AcDbLine
 10
-19.5602581071
 20
308.4624574096
 30
0.0
 11
-19.5602581071
 21
228.4624574096
 31
0.0
  0
ARC
  5
FF
330
1F
100
AcDbEntity
  8
0
  6
Continuous
 62
     7
370
    25
100
AcDbCircle
 10
13.4397418929
 20
308.4624574096
 30
0.0
 40
1.0
100
AcDbArc
 50
0.0
 51
90.0
  0
ARC
  5
100
330
1F
100
AcDbEntity
  8
0
  6
Continuous
 62
     7
370
    25
100
AcDbCircle
 10
-18.5602581071
 20
308.4624574096
 30
0.0
 40
1.000000000000004
100
AcDbArc
 50
90.0
 51
180.0
  0
LINE
  5
101
330
1F
100
AcDbEntity
  8
0
  6
Continuous
 62
     7
370
    25
100
AcDbLine
 10
706.2098182514
 20
219.4624574096
 30
0.0
 11
706.2098182514
 21
222.4624574096
 31
0.0
  0
LINE
  5
102
330
1F
100
AcDbEntity
  8
0
  6
Continuous
 62
     7
370
    25
100
AcDbLine
 10
658.2098182514
 20
222.4624574096
 30
0.0
 11
658.2098182514
 21
219.4624574096
 31
0.0
  0
ARC
  5
103
330
1F
100
AcDbEntity
  8
0
  6
Continuous
 62
     7
370
    25
100
AcDbCircle
 10
703.2098182514
 20
222.4624574096
 30
0.0
 40
3.000000000000114
100
AcDbArc
 50
0.0
 51
90.0
  0
ARC
  5
104
330
1F
100
AcDbEntity
  8
0
  6
Continuous
 62
     7
370
    25
100
AcDbCircle
 10
661.2098182514
 20
222.4624574096
 30
0.0
 40
3.0
100
AcDbArc
 50
90.0
 51
180.0
  0
ARC
  5
105
330
1F
100
AcDbEntity
  8
0
  6
Continuous
 62
     7
370
    25
100
AcDbCircle
 10
702.2098182514
 20
228.4624574096
 30
0.0
 40
3.000000000000114
100
AcDbArc
 50
180.0
 51
270.0
  0
ARC
  5
106
330
1F
100
AcDbEntity
  8
0
  6
Continuous
 62
     7
370
    25
100
AcDbCircle
 10
662.2098182514
 20
228.4624574096
 30
0.0
 40
3.0
100
AcDbArc
 50
270.0
 51
0.0
  0
ARC
  5
107
330
1F
100
AcDbEntity
  8
0
  6
Continuous
 62
     7
370
    25
100
AcDbCircle
 10
698.2098182514
 20
308.4624574096
 30
0.0
 40
1.0
100
AcDbArc
 50
0.0
 51
90.0
  0
ARC
  5
108
330
1F
100
AcDbEntity
  8
0
  6
Continuous
 62
     7
370
    25
100
AcDbCircle
 10
666.2098182514
 20
308.4624574096
 30
0.0
 40
1.000000000000114
100
AcDbArc
 50
90.0
 51
180.0
  0
LINE
  5
109
330
1F
100
AcDbEntity
  8
0
  6
Continuous
 62
     7
370
    25
100
AcDbLine
 10
699.2098182514
 20
228.4624574096
 30
0.0
 11
699.2098182514
 21
308.4624574096
 31
0.0
  0
LINE
  5
10A
330
1F
100
AcDbEntity
  8
0
  6
Continuous
 62
     7
370
    25
100
AcDbLine
 10
665.2098182514
 20
308.4624574096
 30
0.0
 11
665.2098182514
 21
228.4624574096
 31
0.0
  0
LINE
  5
10B
330
1F
100
AcDbEntity
  8
0
  6
Continuous
 62
     7
370
    25
100
AcDbLine
 10
438.9588205342
 20
222.4624574096
 30
0.0
 11
438.9588205342
 21
219.4624574096
 31
0.0
  0
ARC
  5
10C
330
1F
100
AcDbEntity
  8
0
  6
Continuous
 62
     7
370
    25
100
AcDbCircle
 10
441.9588205342
 20
222.4624574096
 30
0.0
 40
3.0
100
AcDbArc
 50
90.0
 51
180.0
  0
ARC
  5
10D
330
1F
100
AcDbEntity
  8
0
  6
Continuous
 62
     7
370
    25
100
AcDbCircle
 10
482.9588205342
 20
228.4624574096
 30
0.0
 40
3.0
100
AcDbArc
 50
180.0
 51
270.0
  0
ARC
  5
10E
330
1F
100
AcDbEntity
  8
0
  6
Continuous
 62
     7
370
    25
100
AcDbCircle
 10
442.9588205342
 20
228.4624574096
 30
0.0
 40
3.0
100
AcDbArc
 50
270.0
 51
0.0
  0
ARC
  5
10F
330
1F
100
AcDbEntity
  8
0
  6
Continuous
 62
     7
370
    25
100
AcDbCircle
 10
478.9588205342
 20
308.4624574096
 30
0.0
 40
1.0
100
AcDbArc
 50
0.0
 51
90.0
  0
ARC
  5
110
330
1F
100
AcDbEntity
  8
0
  6
Continuous
 62
     7
370
    25
100
AcDbCircle
 10
446.9588205342
 20
308.4624574096
 30
0.0
 40
1.0
100
AcDbArc
 50
90.0
 51
180.0
  0
LINE
  5
111
330
1F
100
AcDbEntity
  8
0
  6
Continuous
 62
     7
370
    25
100
AcDbLine
 10
479.9588205342
 20
228.4624574096
 30
0.0
 11
479.9588205342
 21
308.4624574096
 31
0.0
  0
LINE
  5
112
330
1F
100
AcDbEntity
  8
0
  6
Continuous
 62
     7
370
    25
100
AcDbLine
 10
445.9588205342
 20
308.4624574096
 30
0.0
 11
445.9588205342
 21
228.4624574096
 31
0.0
  0
ARC
  5
113
330
1F
100
AcDbEntity
  8
0
  6
Continuous
 62
     7
370
    25
100
AcDbCircle
 10
661.2098182514
 20
116.4624574096
 30
0.0
 40
3.0
100
AcDbArc
 50
180.0
 51
270.0
  0
ARC
  5
114
330
1F
100
AcDbEntity
  8
0
  6
Continuous
 62
     7
370
    25
100
AcDbCircle
 10
703.2098182514
 20
116.4624574096
 30
0.0
 40
3.000000000000114
100
AcDbArc
 50
270.0
 51
0.0
  0
LINE
  5
115
330
1F
100
AcDbEntity
  8
0
  6
Continuous
 62
     7
370
    25
100
AcDbLine
 10
658.2098182514
 20
119.4624574096
 30
0.0
 11
658.2098182514
 21
116.4624574096
 31
0.0
  0
LINE
  5
116
330
1F
100
AcDbEntity
  8
0
  6
Continuous
 62
     7
370
    25
100
AcDbLine
 10
706.2098182514
 20
116.4624574096
 30
0.0
 11
706.2098182514
 21
119.4624574096
 31
0.0
  0
ARC
  5
117
330
1F
100
AcDbEntity
  8
0
  6
Continuous
 62
     7
370
    25
100
AcDbCircle
 10
662.2098182514
 20
110.4624574096
 30
0.0
 40
3.0
100
AcDbArc
 50
0.0
 51
90.0
  0
ARC
  5
118
330
1F
100
AcDbEntity
  8
0
  6
Continuous
 62
     7
370
    25
100
AcDbCircle
 10
702.2098182514
 20
110.4624574096
 30
0.0
 40
3.000000000000114
100
AcDbArc
 50
90.0
 51
180.0
  0
ARC
  5
119
330
1F
100
AcDbEntity
  8
0
  6
Continuous
 62
     7
370
    25
100
AcDbCircle
 10
666.2098182514
 20
30.4624574096
 30
0.0
 40
1.000000000000114
100
AcDbArc
 50
180.0
 51
270.0
  0
ARC
  5
11A
330
1F
100
AcDbEntity
  8
0
  6
Continuous
 62
     7
370
    25
100
AcDbCircle
 10
698.2098182514
 20
30.4624574096
 30
0.0
 40
1.0
100
AcDbArc
 50
270.0
 51
0.0
  0
LINE
  5
11B
330
1F
100
AcDbEntity
  8
0
  6
Continuous
 62
     7
370
    25
100
AcDbLine
 10
665.2098182514
 20
110.4624574096
 30
0.0
 11
665.2098182514
 21
30.4624574096
 31
0.0
  0
LINE
  5
11C
330
1F
100
AcDbEntity
  8
0
  6
Continuous
 62
     7
370
    25
100
AcDbLine
 10
699.2098182514
 20
30.4624574096
 30
0.0
 11
699.2098182514
 21
110.4624574096
 31
0.0
  0
ARC
  5
11D
330
1F
100
AcDbEntity
  8
0
  6
Continuous
 62
     7
370
    25
100
AcDbCircle
 10
-197.8112558243
 20
13.3021585856
 30
0.0
 40
1.0
100
AcDbArc
 50
279.5630855191
 51
0.0
  0
ARC
  5
11E
330
1F
100
AcDbEntity
  8
0
  6
Continuous
 62
     7
370
    25
100
AcDbCircle
 10
-245.8112558243
 20
13.3021585856
 30
0.0
 40
1.0
100
AcDbArc
 50
180.0
 51
260.4369144809
  0
ARC
  5
11F
330
1F
100
AcDbEntity
  8
0
  6
Continuous
 62
     7
370
    25
100
AcDbCircle
 10
-197.8112558243
 20
16.0822580872
 30
0.0
 40
1.0
100
AcDbArc
 50
0.0
 51
41.6335393366
  0
ARC
  5
120
330
1F
100
AcDbEntity
  8
0
  6
Continuous
 62
     7
370
    25
100
AcDbCircle
 10
-245.8112558243
 20
16.0822580872
 30
0.0
 40
1.0
100
AcDbArc
 50
138.3664606634
 51
180.0
  0
LINE
  5
121
330
1F
100
AcDbEntity
  8
0
  6
Continuous
 62
     7
370
    25
100
AcDbLine
 10
-246.8112558243
 20
16.0822580872
 30
0.0
 11
-246.8112558243
 21
13.3021585856
 31
0.0
  0
LINE
  5
122
330
1F
100
AcDbEntity
  8
0
  6
Continuous
 62
     7
370
    25
100
AcDbLine
 10
-196.8112558243
 20
13.3021585856
 30
0.0
 11
-196.8112558243
 21
16.0822580872
 31
0.0
  0
LINE
  5
123
330
1F
100
AcDbEntity
  8
0
  6
Continuous
 62
     7
370
    25
100
AcDbLine
 10
-197.0638465056
 20
16.746621926
 30
0.0
 11
-204.558665143
 21
25.1782928931
 31
0.0
  0
LINE
  5
124
330
1F
100
AcDbEntity
  8
0
  6
Continuous
 62
     7
370
    25
100
AcDbLine
 10
-239.0638465056
 20
25.1782928931
 30
0.0
 11
-246.558665143
 21
16.746621926
 31
0.0
  0
ARC
  5
125
330
1F
100
AcDbEntity
  8
0
  6
Continuous
 62
     7
370
    25
100
AcDbCircle
 10
-235.7725949266
 20
72.8877272849
 30
0.0
 40
61.42528204188941
100
AcDbArc
 50
260.4369144809
 51
269.963938197
  0
ARC
  5
126
330
1F
100
AcDbEntity
  8
0
  6
Continuous
 62
     7
370
    25
100
AcDbCircle
 10
-207.8499167221
 20
72.8877272849
 30
0.0
 40
61.42528204188941
100
AcDbArc
 50
270.036061803
 51
279.5630855191
  0
ARC
  5
127
330
1F
100
AcDbEntity
  8
0
  6
Continuous
 62
     7
370
    25
100
AcDbCircle
 10
-239.8112558243
 20
25.8426567319
 30
0.0
 40
1.000000000000034
100
AcDbArc
 50
318.3664606634
 51
0.0
  0
ARC
  5
128
330
1F
100
AcDbEntity
  8
0
  6
Continuous
 62
     7
370
    25
100
AcDbCircle
 10
-203.8112558243
 20
25.8426567319
 30
0.0
 40
1.000000000000013
100
AcDbArc
 50
180.0
 51
221.6335393366
  0
LINE
  5
129
330
1F
100
AcDbEntity
  8
0
  6
Continuous
 62
     7
370
    25
100
AcDbLine
 10
-238.8112558243
 20
28.4624574096
 30
0.0
 11
-238.8112558243
 21
25.8426567319
 31
0.0
  0
LINE
  5
12A
330
1F
100
AcDbEntity
  8
0
  6
Continuous
 62
     7
370
    25
100
AcDbLine
 10
-204.8112558243
 20
25.8426567319
 30
0.0
 11
-204.8112558243
 21
28.4624574096
 31
0.0
  0
ARC
  5
12B
330
1F
100
AcDbEntity
  8
0
  6
Continuous
 62
     7
370
    25
100
AcDbCircle
 10
-237.8112558243
 20
28.4624574096
 30
0.0
 40
1.0
100
AcDbArc
 50
90.0
 51
180.0
  0
ARC
  5
12C
330
1F
100
AcDbEntity
  8
0
  6
Continuous
 62
     7
370
    25
100
AcDbCircle
 10
-205.8112558243
 20
28.4624574096
 30
0.0
 40
1.0
100
AcDbArc
 50
0.0
 51
90.0
  0
ARC
  5
12D
330
1F
100
AcDbEntity
  8
0
  6
Continuous
 62
     7
370
    25
100
AcDbCircle
 10
486.9588205342
 20
16.0822580872
 30
0.0
 40
1.0
100
AcDbArc
 50
0.0
 51
41.6335393366
  0
ARC
  5
12E
330
1F
100
AcDbEntity
  8
0
  6
Continuous
 62
     7
370
    25
100
AcDbCircle
 10
438.9588205342
 20
16.0822580872
 30
0.0
 40
1.0
100
AcDbArc
 50
138.3664606634
 51
180.0
  0
ARC
  5
12F
330
1F
100
AcDbEntity
  8
0
  6
Continuous
 62
     7
370
    25
100
AcDbCircle
 10
486.9588205342
 20
13.3021585856
 30
0.0
 40
1.000000000000016
100
AcDbArc
 50
279.5630855191
 51
0.0
  0
ARC
  5
130
330
1F
100
AcDbEntity
  8
0
  6
Continuous
 62
     7
370
    25
100
AcDbCircle
 10
438.9588205342
 20
13.3021585856
 30
0.0
 40
1.000000000000016
100
AcDbArc
 50
180.0
 51
260.4369144809
  0
LINE
  5
131
330
1F
100
AcDbEntity
  8
0
  6
Continuous
 62
     7
370
    25
100
AcDbLine
 10
437.9588205342
 20
16.0822580872
 30
0.0
 11
437.9588205342
 21
13.3021585856
 31
0.0
  0
LINE
  5
132
330
1F
100
AcDbEntity
  8
0
  6
Continuous
 62
     7
370
    25
100
AcDbLine
 10
487.9588205342
 20
13.3021585856
 30
0.0
 11
487.9588205342
 21
16.0822580872
 31
0.0
  0
LINE
  5
133
330
1F
100
AcDbEntity
  8
0
  6
Continuous
 62
     7
370
    25
100
AcDbLine
 10
487.7062298528
 20
16.746621926
 30
0.0
 11
480.2114112155
 21
25.1782928931
 31
0.0
  0
LINE
  5
134
330
1F
100
AcDbEntity
  8
0
  6
Continuous
 62
     7
370
    25
100
AcDbLine
 10
445.7062298528
 20
25.1782928931
 30
0.0
 11
438.2114112155
 21
16.746621926
 31
0.0
  0
ARC
  5
135
330
1F
100
AcDbEntity
  8
0
  6
Continuous
 62
     7
370
    25
100
AcDbCircle
 10
448.9974814319
 20
72.8877272849
 30
0.0
 40
61.42528204188941
100
AcDbArc
 50
260.4369144809
 51
269.963938197
  0
ARC
  5
136
330
1F
100
AcDbEntity
  8
0
  6
Continuous
 62
     7
370
    25
100
AcDbCircle
 10
476.9201596364
 20
72.8877272849
 30
0.0
 40
61.4252820418894
100
AcDbArc
 50
270.036061803
 51
279.5630855191
  0
ARC
  5
137
330
1F
100
AcDbEntity
  8
0
  6
Continuous
 62
     7
370
    25
100
AcDbCircle
 10
444.9588205342
 20
25.8426567319
 30
0.0
 40
1.0
100
AcDbArc
 50
318.3664606634
 51
0.0
  0
ARC
  5
138
330
1F
100
AcDbEntity
  8
0
  6
Continuous
 62
     7
370
    25
100
AcDbCircle
 10
480.9588205342
 20
25.8426567319
 30
0.0
 40
1.0
100
AcDbArc
 50
180.0
 51
221.6335393366
  0
LINE
  5
139
330
1F
100
AcDbEntity
  8
0
  6
Continuous
 62
     7
370
    25
100
AcDbLine
 10
445.9588205342
 20
28.4624574096
 30
0.0
 11
445.9588205342
 21
25.8426567319
 31
0.0
  0
LINE
  5
13A
330
1F
100
AcDbEntity
  8
0
  6
Continuous
 62
     7
370
    25
100
AcDbLine
 10
479.9588205342
 20
25.8426567319
 30
0.0
 11
479.9588205342
 21
28.4624574096
 31
0.0
  0
ARC
  5
13B
330
1F
100
AcDbEntity
  8
0
  6
Continuous
 62
     7
370
    25
100
AcDbCircle
 10
446.9588205342
 20
28.4624574096
 30
0.0
 40
1.0
100
AcDbArc
 50
90.0
 51
180.0
  0
ARC
  5
13C
330
1F
100
AcDbEntity
  8
0
  6
Continuous
 62
     7
370
    25
100
AcDbCircle
 10
478.9588205342
 20
28.4624574096
 30
0.0
 40
1.0
100
AcDbArc
 50
0.0
 51
90.0
  0
ARC
  5
13D
330
1F
100
AcDbEntity
  8
0
  6
Continuous
 62
     7
370
    25
100
AcDbCircle
 10
21.4397418929
 20
16.0822580872
 30
0.0
 40
1.000000000000007
100
AcDbArc
 50
0.0
 51
41.6335393366
  0
ARC
  5
13E
330
1F
100
AcDbEntity
  8
0
  6
Continuous
 62
     7
370
    25
100
AcDbCircle
 10
-26.5602581071
 20
16.0822580872
 30
0.0
 40
1.00000000000001
100
AcDbArc
 50
138.3664606634
 51
180.0
  0
LINE
  5
13F
330
1F
100
AcDbEntity
  8
0
  6
Continuous
 62
     7
370
    25
100
AcDbLine
 10
-27.5602581071
 20
16.0822580872
 30
0.0
 11
-27.5602581071
 21
13.3021585856
 31
0.0
  0
LINE
  5
140
330
1F
100
AcDbEntity
  8
0
  6
Continuous
 62
     7
370
    25
100
AcDbLine
 10
22.4397418929
 20
13.3021585856
 30
0.0
 11
22.4397418929
 21
16.0822580872
 31
0.0
  0
ARC
  5
141
330
1F
100
AcDbEntity
  8
0
  6
Continuous
 62
     7
370
    25
100
AcDbCircle
 10
21.4397418929
 20
13.3021585856
 30
0.0
 40
1.0
100
AcDbArc
 50
279.5630855191
 51
0.0
  0
ARC
  5
142
330
1F
100
AcDbEntity
  8
0
  6
Continuous
 62
     7
370
    25
100
AcDbCircle
 10
-26.5602581071
 20
13.3021585856
 30
0.0
 40
1.000000000000004
100
AcDbArc
 50
180.0
 51
260.4369144809
  0
LINE
  5
143
330
1F
100
AcDbEntity
  8
0
  6
Continuous
 62
     7
370
    25
100
AcDbLine
 10
22.1871512116
 20
16.746621926
 30
0.0
 11
14.6923325742
 21
25.1782928931
 31
0.0
  0
LINE
  5
144
330
1F
100
AcDbEntity
  8
0
  6
Continuous
 62
     7
370
    25
100
AcDbLine
 10
-19.8128487884
 20
25.1782928931
 30
0.0
 11
-27.3076674258
 21
16.746621926
 31
0.0
  0
ARC
  5
145
330
1F
100
AcDbEntity
  8
0
  6
Continuous
 62
     7
370
    25
100
AcDbCircle
 10
-16.5215972093
 20
72.8877272849
 30
0.0
 40
61.42528204188941
100
AcDbArc
 50
260.4369144809
 51
269.963938197
  0
ARC
  5
146
330
1F
100
AcDbEntity
  8
0
  6
Continuous
 62
     7
370
    25
100
AcDbCircle
 10
11.4010809952
 20
72.8877272849
 30
0.0
 40
61.42528204188941
100
AcDbArc
 50
270.036061803
 51
279.5630855191
  0
ARC
  5
147
330
1F
100
AcDbEntity
  8
0
  6
Continuous
 62
     7
370
    25
100
AcDbCircle
 10
-20.5602581071
 20
25.8426567319
 30
0.0
 40
1.00000000000001
100
AcDbArc
 50
318.3664606634
 51
0.0
  0
ARC
  5
148
330
1F
100
AcDbEntity
  8
0
  6
Continuous
 62
     7
370
    25
100
AcDbCircle
 10
15.4397418929
 20
25.8426567319
 30
0.0
 40
1.000000000000002
100
AcDbArc
 50
180.0
 51
221.6335393366
  0
LINE
  5
149
330
1F
100
AcDbEntity
  8
0
  6
Continuous
 62
     7
370
    25
100
AcDbLine
 10
-19.5602581071
 20
28.4624574096
 30
0.0
 11
-19.5602581071
 21
25.8426567319
 31
0.0
  0
LINE
  5
14A
330
1F
100
AcDbEntity
  8
0
  6
Continuous
 62
     7
370
    25
100
AcDbLine
 10
14.4397418929
 20
25.8426567319
 30
0.0
 11
14.4397418929
 21
28.4624574096
 31
0.0
  0
ARC
  5
14B
330
1F
100
AcDbEntity
  8
0
  6
Continuous
 62
     7
370
    25
100
AcDbCircle
 10
-18.5602581071
 20
28.4624574096
 30
0.0
 40
1.000000000000004
100
AcDbArc
 50
90.0
 51
180.0
  0
ARC
  5
14C
330
1F
100
AcDbEntity
  8
0
  6
Continuous
 62
     7
370
    25
100
AcDbCircle
 10
13.4397418929
 20
28.4624574096
 30
0.0
 40
1.0
100
AcDbArc
 50
0.0
 51
90.0
  0
ARC
  5
14D
330
1F
100
AcDbEntity
  8
0
  6
Continuous
 62
     7
370
    25
100
AcDbCircle
 10
-245.8112558243
 20
325.6227562335
 30
0.0
 40
1.0
100
AcDbArc
 50
99.5630855191
 51
180.0
  0
ARC
  5
14E
330
1F
100
AcDbEntity
  8
0
  6
Continuous
 62
     7
370
    25
100
AcDbCircle
 10
-197.8112558243
 20
325.6227562335
 30
0.0
 40
1.0
100
AcDbArc
 50
0.0
 51
80.4369144809
  0
LINE
  5
14F
330
1F
100
AcDbEntity
  8
0
  6
Continuous
 62
     7
370
    25
100
AcDbLine
 10
-196.8112558243
 20
322.8426567319
 30
0.0
 11
-196.8112558243
 21
325.6227562335
 31
0.0
  0
LINE
  5
150
330
1F
100
AcDbEntity
  8
0
  6
Continuous
 62
     7
370
    25
100
AcDbLine
 10
-246.8112558243
 20
325.6227562335
 30
0.0
 11
-246.8112558243
 21
322.8426567319
 31
0.0
  0
ARC
  5
151
330
1F
100
AcDbEntity
  8
0
  6
Continuous
 62
     7
370
    25
100
AcDbCircle
 10
-245.8112558243
 20
322.8426567319
 30
0.0
 40
1.0
100
AcDbArc
 50
180.0
 51
221.6335393366
  0
ARC
  5
152
330
1F
100
AcDbEntity
  8
0
  6
Continuous
 62
     7
370
    25
100
AcDbCircle
 10
-197.8112558243
 20
322.8426567319
 30
0.0
 40
1.0
100
AcDbArc
 50
318.3664606634
 51
0.0
  0
LINE
  5
153
330
1F
100
AcDbEntity
  8
0
  6
Continuous
 62
     7
370
    25
100
AcDbLine
 10
-246.558665143
 20
322.1782928931
 30
0.0
 11
-239.0638465056
 21
313.746621926
 31
0.0
  0
LINE
  5
154
330
1F
100
AcDbEntity
  8
0
  6
Continuous
 62
     7
370
    25
100
AcDbLine
 10
-204.558665143
 20
313.746621926
 30
0.0
 11
-197.0638465056
 21
322.1782928931
 31
0.0
  0
ARC
  5
155
330
1F
100
AcDbEntity
  8
0
  6
Continuous
 62
     7
370
    25
100
AcDbCircle
 10
-207.8499167221
 20
266.0371875342
 30
0.0
 40
61.42528204188941
100
AcDbArc
 50
80.4369144809
 51
89.963938197
  0
ARC
  5
156
330
1F
100
AcDbEntity
  8
0
  6
Continuous
 62
     7
370
    25
100
AcDbCircle
 10
-235.7725949266
 20
266.0371875342
 30
0.0
 40
61.42528204188941
100
AcDbArc
 50
90.036061803
 51
99.5630855191
  0
ARC
  5
157
330
1F
100
AcDbEntity
  8
0
  6
Continuous
 62
     7
370
    25
100
AcDbCircle
 10
-203.8112558243
 20
313.0822580872
 30
0.0
 40
1.0
100
AcDbArc
 50
138.3664606634
 51
180.0
  0
ARC
  5
158
330
1F
100
AcDbEntity
  8
0
  6
Continuous
 62
     7
370
    25
100
AcDbCircle
 10
-239.8112558243
 20
313.0822580872
 30
0.0
 40
1.000000000000001
100
AcDbArc
 50
0.0
 51
41.6335393366
  0
ARC
  5
159
330
1F
100
AcDbEntity
  8
0
  6
Continuous
 62
     7
370
    25
100
AcDbCircle
 10
-205.8112558243
 20
310.4624574096
 30
0.0
 40
1.0
100
AcDbArc
 50
270.0
 51
0.0
  0
ARC
  5
15A
330
1F
100
AcDbEntity
  8
0
  6
Continuous
 62
     7
370
    25
100
AcDbCircle
 10
-237.8112558243
 20
310.4624574096
 30
0.0
 40
1.0
100
AcDbArc
 50
180.0
 51
270.0
  0
LINE
  5
15B
330
1F
100
AcDbEntity
  8
0
  6
Continuous
 62
     7
370
    25
100
AcDbLine
 10
-204.8112558243
 20
310.4624574096
 30
0.0
 11
-204.8112558243
 21
313.0822580872
 31
0.0
  0
LINE
  5
15C
330
1F
100
AcDbEntity
  8
0
  6
Continuous
 62
     7
370
    25
100
AcDbLine
 10
-238.8112558243
 20
313.0822580872
 30
0.0
 11
-238.8112558243
 21
310.4624574096
 31
0.0
  0
LINE
  5
15D
330
1F
100
AcDbEntity
  8
0
  6
Continuous
 62
     7
370
    25
100
AcDbLine
 10
22.4397418929
 20
322.8426567319
 30
0.0
 11
22.4397418929
 21
325.6227562335
 31
0.0
  0
LINE
  5
15E
330
1F
100
AcDbEntity
  8
0
  6
Continuous
 62
     7
370
    25
100
AcDbLine
 10
-27.5602581071
 20
325.6227562335
 30
0.0
 11
-27.5602581071
 21
322.8426567319
 31
0.0
  0
ARC
  5
15F
330
1F
100
AcDbEntity
  8
0
  6
Continuous
 62
     7
370
    25
100
AcDbCircle
 10
-26.5602581071
 20
325.6227562335
 30
0.0
 40
1.000000000000004
100
AcDbArc
 50
99.5630855191
 51
180.0
  0
ARC
  5
160
330
1F
100
AcDbEntity
  8
0
  6
Continuous
 62
     7
370
    25
100
AcDbCircle
 10
21.4397418929
 20
325.6227562335
 30
0.0
 40
1.0
100
AcDbArc
 50
0.0
 51
80.4369144809
  0
ARC
  5
161
330
1F
100
AcDbEntity
  8
0
  6
Continuous
 62
     7
370
    25
100
AcDbCircle
 10
-26.5602581071
 20
322.8426567319
 30
0.0
 40
1.000000000000004
100
AcDbArc
 50
180.0
 51
221.6335393366
  0
ARC
  5
162
330
1F
100
AcDbEntity
  8
0
  6
Continuous
 62
     7
370
    25
100
AcDbCircle
 10
21.4397418929
 20
322.8426567319
 30
0.0
 40
1.0
100
AcDbArc
 50
318.3664606634
 51
0.0
  0
LINE
  5
163
330
1F
100
AcDbEntity
  8
0
  6
Continuous
 62
     7
370
    25
100
AcDbLine
 10
-27.3076674258
 20
322.1782928931
 30
0.0
 11
-19.8128487884
 21
313.746621926
 31
0.0
  0
LINE
  5
164
330
1F
100
AcDbEntity
  8
0
  6
Continuous
 62
     7
370
    25
100
AcDbLine
 10
14.6923325742
 20
313.746621926
 30
0.0
 11
22.1871512116
 21
322.1782928931
 31
0.0
  0
ARC
  5
165
330
1F
100
AcDbEntity
  8
0
  6
Continuous
 62
     7
370
    25
100
AcDbCircle
 10
11.4010809952
 20
266.0371875342
 30
0.0
 40
61.42528204188939
100
AcDbArc
 50
80.4369144809
 51
89.963938197
  0
ARC
  5
166
330
1F
100
AcDbEntity
  8
0
  6
Continuous
 62
     7
370
    25
100
AcDbCircle
 10
-16.5215972093
 20
266.0371875342
 30
0.0
 40
61.42528204188939
100
AcDbArc
 50
90.036061803
 51
99.5630855191
  0
ARC
  5
167
330
1F
100
AcDbEntity
  8
0
  6
Continuous
 62
     7
370
    25
100
AcDbCircle
 10
15.4397418929
 20
313.0822580872
 30
0.0
 40
1.000000000000002
100
AcDbArc
 50
138.3664606634
 51
180.0
  0
ARC
  5
168
330
1F
100
AcDbEntity
  8
0
  6
Continuous
 62
     7
370
    25
100
AcDbCircle
 10
-20.5602581071
 20
313.0822580872
 30
0.0
 40
1.0
100
AcDbArc
 50
0.0
 51
41.6335393366
  0
ARC
  5
169
330
1F
100
AcDbEntity
  8
0
  6
Continuous
 62
     7
370
    25
100
AcDbCircle
 10
13.4397418929
 20
310.4624574096
 30
0.0
 40
1.0
100
AcDbArc
 50
270.0
 51
0.0
  0
ARC
  5
16A
330
1F
100
AcDbEntity
  8
0
  6
Continuous
 62
     7
370
    25
100
AcDbCircle
 10
-18.5602581071
 20
310.4624574096
 30
0.0
 40
1.000000000000004
100
AcDbArc
 50
180.0
 51
270.0
  0
LINE
  5
16B
330
1F
100
AcDbEntity
  8
0
  6
Continuous
 62
     7
370
    25
100
AcDbLine
 10
14.4397418929
 20
310.4624574096
 30
0.0
 11
14.4397418929
 21
313.0822580872
 31
0.0
  0
LINE
  5
16C
330
1F
100
AcDbEntity
  8
0
  6
Continuous
 62
     7
370
    25
100
AcDbLine
 10
-19.5602581071
 20
313.0822580872
 30
0.0
 11
-19.5602581071
 21
310.4624574096
 31
0.0
  0
ARC
  5
16D
330
1F
100
AcDbEntity
  8
0
  6
Continuous
 62
     7
370
    25
100
AcDbCircle
 10
706.2098182514
 20
16.0822580872
 30
0.0
 40
0.9999999999998882
100
AcDbArc
 50
0.0
 51
41.6335393366
  0
ARC
  5
16E
330
1F
100
AcDbEntity
  8
0
  6
Continuous
 62
     7
370
    25
100
AcDbCircle
 10
658.2098182514
 20
16.0822580872
 30
0.0
 40
1.000000000000114
100
AcDbArc
 50
138.3664606634
 51
180.0
  0
ARC
  5
16F
330
1F
100
AcDbEntity
  8
0
  6
Continuous
 62
     7
370
    25
100
AcDbCircle
 10
706.2098182514
 20
13.3021585856
 30
0.0
 40
0.999999999999958
100
AcDbArc
 50
279.5630855191
 51
0.0
  0
ARC
  5
170
330
1F
100
AcDbEntity
  8
0
  6
Continuous
 62
     7
370
    25
100
AcDbCircle
 10
658.2098182514
 20
13.3021585856
 30
0.0
 40
1.000000000000114
100
AcDbArc
 50
180.0
 51
260.4369144809
  0
LINE
  5
171
330
1F
100
AcDbEntity
  8
0
  6
Continuous
 62
     7
370
    25
100
AcDbLine
 10
657.2098182514
 20
16.0822580872
 30
0.0
 11
657.2098182514
 21
13.3021585856
 31
0.0
  0
LINE
  5
172
330
1F
100
AcDbEntity
  8
0
  6
Continuous
 62
     7
370
    25
100
AcDbLine
 10
707.2098182514
 20
13.3021585856
 30
0.0
 11
707.2098182514
 21
16.0822580872
 31
0.0
  0
LINE
  5
173
330
1F
100
AcDbEntity
  8
0
  6
Continuous
 62
     7
370
    25
100
AcDbLine
 10
706.9572275701
 20
16.746621926
 30
0.0
 11
699.4624089327
 21
25.1782928931
 31
0.0
  0
LINE
  5
174
330
1F
100
AcDbEntity
  8
0
  6
Continuous
 62
     7
370
    25
100
AcDbLine
 10
664.9572275701
 20
25.1782928931
 30
0.0
 11
657.4624089327
 21
16.746621926
 31
0.0
  0
ARC
  5
175
330
1F
100
AcDbEntity
  8
0
  6
Continuous
 62
     7
370
    25
100
AcDbCircle
 10
668.2484791492
 20
72.8877272849
 30
0.0
 40
61.4252820418894
100
AcDbArc
 50
260.4369144809
 51
269.963938197
  0
ARC
  5
176
330
1F
100
AcDbEntity
  8
0
  6
Continuous
 62
     7
370
    25
100
AcDbCircle
 10
696.1711573536
 20
72.8877272849
 30
0.0
 40
61.4252820418894
100
AcDbArc
 50
270.036061803
 51
279.5630855191
  0
ARC
  5
177
330
1F
100
AcDbEntity
  8
0
  6
Continuous
 62
     7
370
    25
100
AcDbCircle
 10
664.2098182514
 20
25.8426567319
 30
0.0
 40
1.000000000000056
100
AcDbArc
 50
318.3664606634
 51
0.0
  0
ARC
  5
178
330
1F
100
AcDbEntity
  8
0
  6
Continuous
 62
     7
370
    25
100
AcDbCircle
 10
700.2098182514
 20
25.8426567319
 30
0.0
 40
1.000000000000114
100
AcDbArc
 50
180.0
 51
221.6335393366
  0
ARC
  5
179
330
1F
100
AcDbEntity
  8
0
  6
Continuous
 62
     7
370
    25
100
AcDbCircle
 10
666.2098182514
 20
28.4624574096
 30
0.0
 40
1.000000000000114
100
AcDbArc
 50
90.0
 51
180.0
  0
ARC
  5
17A
330
1F
100
AcDbEntity
  8
0
  6
Continuous
 62
     7
370
    25
100
AcDbCircle
 10
698.2098182514
 20
28.4624574096
 30
0.0
 40
1.0
100
AcDbArc
 50
0.0
 51
90.0
  0
LINE
  5
17B
330
1F
100
AcDbEntity
  8
0
  6
Continuous
 62
     7
370
    25
100
AcDbLine
 10
665.2098182514
 20
28.4624574096
 30
0.0
 11
665.2098182514
 21
25.8426567319
 31
0.0
  0
LINE
  5
17C
330
1F
100
AcDbEntity
  8
0
  6
Continuous
 62
     7
370
    25
100
AcDbLine
 10
699.2098182514
 20
25.8426567319
 30
0.0
 11
699.2098182514
 21
28.4624574096
 31
0.0
  0
ARC
  5
17D
330
1F
100
AcDbEntity
  8
0
  6
Continuous
 62
     7
370
    25
100
AcDbCircle
 10
658.2098182514
 20
325.6227562335
 30
0.0
 40
1.000000000000114
100
AcDbArc
 50
99.5630855191
 51
180.0
  0
ARC
  5
17E
330
1F
100
AcDbEntity
  8
0
  6
Continuous
 62
     7
370
    25
100
AcDbCircle
 10
706.2098182514
 20
325.6227562335
 30
0.0
 40
0.9999999999999405
100
AcDbArc
 50
0.0
 51
80.4369144809
  0
LINE
  5
17F
330
1F
100
AcDbEntity
  8
0
  6
Continuous
 62
     7
370
    25
100
AcDbLine
 10
707.2098182514
 20
322.8426567319
 30
0.0
 11
707.2098182514
 21
325.6227562335
 31
0.0
  0
LINE
  5
180
330
1F
100
AcDbEntity
  8
0
  6
Continuous
 62
     7
370
    25
100
AcDbLine
 10
657.2098182514
 20
325.6227562335
 30
0.0
 11
657.2098182514
 21
322.8426567319
 31
0.0
  0
ARC
  5
181
330
1F
100
AcDbEntity
  8
0
  6
Continuous
 62
     7
370
    25
100
AcDbCircle
 10
658.2098182514
 20
322.8426567319
 30
0.0
 40
1.000000000000114
100
AcDbArc
 50
180.0
 51
221.6335393366
  0
ARC
  5
182
330
1F
100
AcDbEntity
  8
0
  6
Continuous
 62
     7
370
    25
100
AcDbCircle
 10
706.2098182514
 20
322.8426567319
 30
0.0
 40
0.9999999999998863
100
AcDbArc
 50
318.3664606634
 51
0.0
  0
LINE
  5
183
330
1F
100
AcDbEntity
  8
0
  6
Continuous
 62
     7
370
    25
100
AcDbLine
 10
657.4624089327
 20
322.1782928931
 30
0.0
 11
664.9572275701
 21
313.746621926
 31
0.0
  0
LINE
  5
184
330
1F
100
AcDbEntity
  8
0
  6
Continuous
 62
     7
370
    25
100
AcDbLine
 10
699.4624089327
 20
313.746621926
 30
0.0
 11
706.9572275701
 21
322.1782928931
 31
0.0
  0
ARC
  5
185
330
1F
100
AcDbEntity
  8
0
  6
Continuous
 62
     7
370
    25
100
AcDbCircle
 10
696.1711573536
 20
266.0371875342
 30
0.0
 40
61.4252820418894
100
AcDbArc
 50
80.4369144809
 51
89.963938197
  0
ARC
  5
186
330
1F
100
AcDbEntity
  8
0
  6
Continuous
 62
     7
370
    25
100
AcDbCircle
 10
668.2484791492
 20
266.0371875342
 30
0.0
 40
61.4252820418894
100
AcDbArc
 50
90.036061803
 51
99.5630855191
  0
ARC
  5
187
330
1F
100
AcDbEntity
  8
0
  6
Continuous
 62
     7
370
    25
100
AcDbCircle
 10
700.2098182514
 20
313.0822580872
 30
0.0
 40
1.000000000000114
100
AcDbArc
 50
138.3664606634
 51
180.0
  0
ARC
  5
188
330
1F
100
AcDbEntity
  8
0
  6
Continuous
 62
     7
370
    25
100
AcDbCircle
 10
664.2098182514
 20
313.0822580872
 30
0.0
 40
1.000000000000023
100
AcDbArc
 50
0.0
 51
41.6335393366
  0
LINE
  5
189
330
1F
100
AcDbEntity
  8
0
  6
Continuous
 62
     7
370
    25
100
AcDbLine
 10
699.2098182514
 20
310.4624574096
 30
0.0
 11
699.2098182514
 21
313.0822580872
 31
0.0
  0
LINE
  5
18A
330
1F
100
AcDbEntity
  8
0
  6
Continuous
 62
     7
370
    25
100
AcDbLine
 10
665.2098182514
 20
313.0822580872
 30
0.0
 11
665.2098182514
 21
310.4624574096
 31
0.0
  0
ARC
  5
18B
330
1F
100
AcDbEntity
  8
0
  6
Continuous
 62
     7
370
    25
100
AcDbCircle
 10
698.2098182514
 20
310.4624574096
 30
0.0
 40
1.0
100
AcDbArc
 50
270.0
 51
0.0
  0
ARC
  5
18C
330
1F
100
AcDbEntity
  8
0
  6
Continuous
 62
     7
370
    25
100
AcDbCircle
 10
666.2098182514
 20
310.4624574096
 30
0.0
 40
1.000000000000114
100
AcDbArc
 50
180.0
 51
270.0
  0
LINE
  5
18D
330
1F
100
AcDbEntity
  8
0
  6
Continuous
 62
     7
370
    25
100
AcDbLine
 10
487.9588205342
 20
322.8426567319
 30
0.0
 11
487.9588205342
 21
325.6227562335
 31
0.0
  0
LINE
  5
18E
330
1F
100
AcDbEntity
  8
0
  6
Continuous
 62
     7
370
    25
100
AcDbLine
 10
437.9588205342
 20
325.6227562335
 30
0.0
 11
437.9588205342
 21
322.8426567319
 31
0.0
  0
ARC
  5
18F
330
1F
100
AcDbEntity
  8
0
  6
Continuous
 62
     7
370
    25
100
AcDbCircle
 10
438.9588205342
 20
325.6227562335
 30
0.0
 40
1.0
100
AcDbArc
 50
99.5630855191
 51
180.0
  0
ARC
  5
190
330
1F
100
AcDbEntity
  8
0
  6
Continuous
 62
     7
370
    25
100
AcDbCircle
 10
486.9588205342
 20
325.6227562335
 30
0.0
 40
1.0
100
AcDbArc
 50
0.0
 51
80.4369144809
  0
ARC
  5
191
330
1F
100
AcDbEntity
  8
0
  6
Continuous
 62
     7
370
    25
100
AcDbCircle
 10
438.9588205342
 20
322.8426567319
 30
0.0
 40
1.0
100
AcDbArc
 50
180.0
 51
221.6335393366
  0
ARC
  5
192
330
1F
100
AcDbEntity
  8
0
  6
Continuous
 62
     7
370
    25
100
AcDbCircle
 10
486.9588205342
 20
322.8426567319
 30
0.0
 40
1.0
100
AcDbArc
 50
318.3664606634
 51
0.0
  0
LINE
  5
193
330
1F
100
AcDbEntity
  8
0
  6
Continuous
 62
     7
370
    25
100
AcDbLine
 10
438.2114112155
 20
322.1782928931
 30
0.0
 11
445.7062298528
 21
313.746621926
 31
0.0
  0
LINE
  5
194
330
1F
100
AcDbEntity
  8
0
  6
Continuous
 62
     7
370
    25
100
AcDbLine
 10
480.2114112155
 20
313.746621926
 30
0.0
 11
487.7062298528
 21
322.1782928931
 31
0.0
  0
ARC
  5
195
330
1F
100
AcDbEntity
  8
0
  6
Continuous
 62
     7
370
    25
100
AcDbCircle
 10
476.9201596364
 20
266.0371875342
 30
0.0
 40
61.42528204188939
100
AcDbArc
 50
80.4369144809
 51
89.963938197
  0
ARC
  5
196
330
1F
100
AcDbEntity
  8
0
  6
Continuous
 62
     7
370
    25
100
AcDbCircle
 10
448.9974814319
 20
266.0371875342
 30
0.0
 40
61.42528204188939
100
AcDbArc
 50
90.036061803
 51
99.5630855191
  0
ARC
  5
197
330
1F
100
AcDbEntity
  8
0
  6
Continuous
 62
     7
370
    25
100
AcDbCircle
 10
480.9588205342
 20
313.0822580872
 30
0.0
 40
1.0
100
AcDbArc
 50
138.3664606634
 51
180.0
  0
ARC
  5
198
330
1F
100
AcDbEntity
  8
0
  6
Continuous
 62
     7
370
    25
100
AcDbCircle
 10
444.9588205342
 20
313.0822580872
 30
0.0
 40
1.0
100
AcDbArc
 50
0.0
 51
41.6335393366
  0
LINE
  5
199
330
1F
100
AcDbEntity
  8
0
  6
Continuous
 62
     7
370
    25
100
AcDbLine
 10
479.9588205342
 20
310.4624574096
 30
0.0
 11
479.9588205342
 21
313.0822580872
 31
0.0
  0
LINE
  5
19A
330
1F
100
AcDbEntity
  8
0
  6
Continuous
 62
     7
370
    25
100
AcDbLine
 10
445.9588205342
 20
313.0822580872
 30
0.0
 11
445.9588205342
 21
310.4624574096
 31
0.0
  0
ARC
  5
19B
330
1F
100
AcDbEntity
  8
0
  6
Continuous
 62
     7
370
    25
100
AcDbCircle
 10
478.9588205342
 20
310.4624574096
 30
0.0
 40
1.0
100
AcDbArc
 50
270.0
 51
0.0
  0
ARC
  5
19C
330
1F
100
AcDbEntity
  8
0
  6
Continuous
 62
     7
370
    25
100
AcDbCircle
 10
446.9588205342
 20
310.4624574096
 30
0.0
 40
1.0
100
AcDbArc
 50
180.0
 51
270.0
  0
ARC
  5
19D
330
1F
100
AcDbEntity
  8
0
  6
Continuous
 62
     7
370
    25
100
AcDbCircle
 10
694.9598182514
 20
327.7103118046
 30
0.0
 40
1.000000000000043
100
AcDbArc
 50
0.0
 51
74.3504861218
  0
ARC
  5
19E
330
1F
100
AcDbEntity
  8
0
  6
Continuous
 62
     7
370
    25
100
AcDbCircle
 10
669.4598182514
 20
327.7103118046
 30
0.0
 40
1.000000000000012
100
AcDbArc
 50
105.6495138782
 51
180.0
  0
LINE
  5
19F
330
1F
100
AcDbEntity
  8
0
  6
Continuous
 62
     7
370
    25
100
AcDbLine
 10
695.9598182514
 20
327.4624574096
 30
0.0
 11
695.9598182514
 21
327.7103118046
 31
0.0
  0
LINE
  5
1A0
330
1F
100
AcDbEntity
  8
0
  6
Continuous
 62
     7
370
    25
100
AcDbLine
 10
668.4598182514
 20
327.7103118046
 30
0.0
 11
668.4598182514
 21
327.4624574096
 31
0.0
  0
ARC
  5
1A1
330
1F
100
AcDbEntity
  8
0
  6
Continuous
 62
     7
370
    25
100
AcDbCircle
 10
682.2098182514
 20
282.1968324096
 30
0.0
 40
48.26562500000038
100
AcDbArc
 50
74.3504861218
 51
105.6495138782
  0
LINE
  5
1A2
330
1F
100
AcDbEntity
  8
0
  6
Continuous
 62
     7
370
    25
100
AcDbLine
 10
11.1897418929
 20
327.4624574096
 30
0.0
 11
11.1897418929
 21
327.7103118046
 31
0.0
  0
LINE
  5
1A3
330
1F
100
AcDbEntity
  8
0
  6
Continuous
 62
     7
370
    25
100
AcDbLine
 10
-16.3102581071
 20
327.7103118046
 30
0.0
 11
-16.3102581071
 21
327.4624574096
 31
0.0
  0
ARC
  5
1A4
330
1F
100
AcDbEntity
  8
0
  6
Continuous
 62
     7
370
    25
100
AcDbCircle
 10
10.1897418929
 20
327.7103118046
 30
0.0
 40
1.000000000000022
100
AcDbArc
 50
0.0
 51
74.3504861218
  0
ARC
  5
1A5
330
1F
100
AcDbEntity
  8
0
  6
Continuous
 62
     7
370
    25
100
AcDbCircle
 10
-15.3102581071
 20
327.7103118046
 30
0.0
 40
1.000000000000022
100
AcDbArc
 50
105.6495138782
 51
180.0
  0
ARC
  5
1A6
330
1F
100
AcDbEntity
  8
0
  6
Continuous
 62
     7
370
    25
100
AcDbCircle
 10
-2.5602581071
 20
282.1968324096
 30
0.0
 40
48.26562500000036
100
AcDbArc
 50
74.3504861218
 51
105.6495138782
  0
ARC
  5
1A7
330
1F
100
AcDbEntity
  8
0
  6
Continuous
 62
     7
370
    25
100
AcDbCircle
 10
-234.5612558243
 20
11.2146030146
 30
0.0
 40
1.000000000000011
100
AcDbArc
 50
180.0
 51
254.3504861218
  0
ARC
  5
1A8
330
1F
100
AcDbEntity
  8
0
  6
Continuous
 62
     7
370
    25
100
AcDbCircle
 10
-209.0612558243
 20
11.2146030146
 30
0.0
 40
1.000000000000011
100
AcDbArc
 50
285.6495138782
 51
0.0
  0
LINE
  5
1A9
330
1F
100
AcDbEntity
  8
0
  6
Continuous
 62
     7
370
    25
100
AcDbLine
 10
-235.5612558243
 20
11.4624574096
 30
0.0
 11
-235.5612558243
 21
11.2146030146
 31
0.0
  0
LINE
  5
1AA
330
1F
100
AcDbEntity
  8
0
  6
Continuous
 62
     7
370
    25
100
AcDbLine
 10
-208.0612558243
 20
11.2146030146
 30
0.0
 11
-208.0612558243
 21
11.4624574096
 31
0.0
  0
ARC
  5
1AB
330
1F
100
AcDbEntity
  8
0
  6
Continuous
 62
     7
370
    25
100
AcDbCircle
 10
-221.8112558243
 20
56.7280824096
 30
0.0
 40
48.26562500000036
100
AcDbArc
 50
254.3504861218
 51
285.6495138782
  0
ARC
  5
1AC
330
1F
100
AcDbEntity
  8
0
  6
Continuous
 62
     7
370
    25
100
AcDbCircle
 10
475.7088205342
 20
327.7103118046
 30
0.0
 40
1.000000000000027
100
AcDbArc
 50
0.0
 51
74.3504861218
  0
ARC
  5
1AD
330
1F
100
AcDbEntity
  8
0
  6
Continuous
 62
     7
370
    25
100
AcDbCircle
 10
450.2088205342
 20
327.7103118046
 30
0.0
 40
1.000000000000027
100
AcDbArc
 50
105.6495138782
 51
180.0
  0
LINE
  5
1AE
330
1F
100
AcDbEntity
  8
0
  6
Continuous
 62
     7
370
    25
100
AcDbLine
 10
476.7088205342
 20
327.4624574096
 30
0.0
 11
476.7088205342
 21
327.7103118046
 31
0.0
  0
LINE
  5
1AF
330
1F
100
AcDbEntity
  8
0
  6
Continuous
 62
     7
370
    25
100
AcDbLine
 10
449.2088205342
 20
327.7103118046
 30
0.0
 11
449.2088205342
 21
327.4624574096
 31
0.0
  0
ARC
  5
1B0
330
1F
100
AcDbEntity
  8
0
  6
Continuous
 62
     7
370
    25
100
AcDbCircle
 10
462.9588205342
 20
282.1968324096
 30
0.0
 40
48.26562500000038
100
AcDbArc
 50
74.3504861218
 51
105.6495138782
  0
ARC
  5
1B1
330
1F
100
AcDbEntity
  8
0
  6
Continuous
 62
     7
370
    25
100
AcDbCircle
 10
-209.0612558243
 20
327.7103118046
 30
0.0
 40
1.000000000000035
100
AcDbArc
 50
0.0
 51
74.3504861218
  0
ARC
  5
1B2
330
1F
100
AcDbEntity
  8
0
  6
Continuous
 62
     7
370
    25
100
AcDbCircle
 10
-234.5612558243
 20
327.7103118046
 30
0.0
 40
1.000000000000035
100
AcDbArc
 50
105.6495138782
 51
180.0
  0
LINE
  5
1B3
330
1F
100
AcDbEntity
  8
0
  6
Continuous
 62
     7
370
    25
100
AcDbLine
 10
-208.0612558243
 20
327.4624574096
 30
0.0
 11
-208.0612558243
 21
327.7103118046
 31
0.0
  0
LINE
  5
1B4
330
1F
100
AcDbEntity
  8
0
  6
Continuous
 62
     7
370
    25
100
AcDbLine
 10
-235.5612558243
 20
327.7103118046
 30
0.0
 11
-235.5612558243
 21
327.4624574096
 31
0.0
  0
ARC
  5
1B5
330
1F
100
AcDbEntity
  8
0
  6
Continuous
 62
     7
370
    25
100
AcDbCircle
 10
-221.8112558243
 20
282.1968324096
 30
0.0
 40
48.26562500000037
100
AcDbArc
 50
74.3504861218
 51
105.6495138782
  0
LINE
  5
1B6
330
1F
100
AcDbEntity
  8
0
  6
Continuous
 62
     7
370
    25
100
AcDbLine
 10
-16.3102581071
 20
11.4624574096
 30
0.0
 11
-16.3102581071
 21
11.2146030146
 31
0.0
  0
LINE
  5
1B7
330
1F
100
AcDbEntity
  8
0
  6
Continuous
 62
     7
370
    25
100
AcDbLine
 10
11.1897418929
 20
11.2146030146
 30
0.0
 11
11.1897418929
 21
11.4624574096
 31
0.0
  0
ARC
  5
1B8
330
1F
100
AcDbEntity
  8
0
  6
Continuous
 62
     7
370
    25
100
AcDbCircle
 10
-15.3102581071
 20
11.2146030146
 30
0.0
 40
1.000000000000002
100
AcDbArc
 50
180.0
 51
254.3504861218
  0
ARC
  5
1B9
330
1F
100
AcDbEntity
  8
0
  6
Continuous
 62
     7
370
    25
100
AcDbCircle
 10
10.1897418929
 20
11.2146030146
 30
0.0
 40
1.0
100
AcDbArc
 50
285.6495138782
 51
0.0
  0
ARC
  5
1BA
330
1F
100
AcDbEntity
  8
0
  6
Continuous
 62
     7
370
    25
100
AcDbCircle
 10
-2.5602581071
 20
56.7280824096
 30
0.0
 40
48.26562500000036
100
AcDbArc
 50
254.3504861218
 51
285.6495138782
  0
LINE
  5
1BB
330
1F
100
AcDbEntity
  8
0
  6
Continuous
 62
     7
370
    25
100
AcDbLine
 10
668.4598182514
 20
11.4624574096
 30
0.0
 11
668.4598182514
 21
11.2146030146
 31
0.0
  0
LINE
  5
1BC
330
1F
100
AcDbEntity
  8
0
  6
Continuous
 62
     7
370
    25
100
AcDbLine
 10
695.9598182514
 20
11.2146030146
 30
0.0
 11
695.9598182514
 21
11.4624574096
 31
0.0
  0
ARC
  5
1BD
330
1F
100
AcDbEntity
  8
0
  6
Continuous
 62
     7
370
    25
100
AcDbCircle
 10
669.4598182514
 20
11.2146030146
 30
0.0
 40
1.0
100
AcDbArc
 50
180.0
 51
254.3504861218
  0
ARC
  5
1BE
330
1F
100
AcDbEntity
  8
0
  6
Continuous
 62
     7
370
    25
100
AcDbCircle
 10
694.9598182514
 20
11.2146030146
 30
0.0
 40
1.000000000000019
100
AcDbArc
 50
285.6495138782
 51
0.0
  0
ARC
  5
1BF
330
1F
100
AcDbEntity
  8
0
  6
Continuous
 62
     7
370
    25
100
AcDbCircle
 10
682.2098182514
 20
56.7280824096
 30
0.0
 40
48.26562500000036
100
AcDbArc
 50
254.3504861218
 51
285.6495138782
  0
ARC
  5
1C0
330
1F
100
AcDbEntity
  8
0
  6
Continuous
 62
     7
370
    25
100
AcDbCircle
 10
450.2088205342
 20
11.2146030146
 30
0.0
 40
1.000000000000005
100
AcDbArc
 50
180.0
 51
254.3504861218
  0
ARC
  5
1C1
330
1F
100
AcDbEntity
  8
0
  6
Continuous
 62
     7
370
    25
100
AcDbCircle
 10
475.7088205342
 20
11.2146030146
 30
0.0
 40
1.000000000000005
100
AcDbArc
 50
285.6495138782
 51
0.0
  0
LINE
  5
1C2
330
1F
100
AcDbEntity
  8
0
  6
Continuous
 62
     7
370
    25
100
AcDbLine
 10
449.2088205342
 20
11.4624574096
 30
0.0
 11
449.2088205342
 21
11.2146030146
 31
0.0
  0
LINE
  5
1C3
330
1F
100
AcDbEntity
  8
0
  6
Continuous
 62
     7
370
    25
100
AcDbLine
 10
476.7088205342
 20
11.2146030146
 30
0.0
 11
476.7088205342
 21
11.4624574096
 31
0.0
  0
ARC
  5
1C4
330
1F
100
AcDbEntity
  8
0
  6
Continuous
 62
     7
370
    25
100
AcDbCircle
 10
462.9588205342
 20
56.7280824096
 30
0.0
 40
48.26562500000038
100
AcDbArc
 50
254.3504861218
 51
285.6495138782
  0
LINE
  5
1C5
330
1F
100
AcDbEntity
  8
0
  6
Continuous
 62
     7
370
    25
100
AcDbLine
 10
-260.6577089539
 20
131.4624574096
 30
0.0
 11
-260.6577089539
 21
122.4624574096
 31
0.0
  0
ARC
  5
1C6
330
1F
100
AcDbEntity
  8
0
  6
Continuous
 62
     7
370
    25
100
AcDbCircle
 10
-257.6577089539
 20
131.4624574096
 30
0.0
 40
3.0
100
AcDbArc
 50
90.0
 51
180.0
  0
ARC
  5
1C7
330
1F
100
AcDbEntity
  8
0
  6
Continuous
 62
     7
370
    25
100
AcDbCircle
 10
-257.6577089539
 20
122.4624574096
 30
0.0
 40
3.0
100
AcDbArc
 50
180.0
 51
270.0
  0
ARC
  5
1C8
330
1F
100
AcDbEntity
  8
0
  6
Continuous
 62
     7
370
    25
100
AcDbCircle
 10
33.2861950224
 20
131.4624574096
 30
0.0
 40
3.000000000000028
100
AcDbArc
 50
0.0
 51
90.0
  0
LINE
  5
1C9
330
1F
100
AcDbEntity
  8
0
  6
Continuous
 62
     7
370
    25
100
AcDbLine
 10
36.2861950224
 20
122.4624574096
 30
0.0
 11
36.2861950224
 21
131.4624574096
 31
0.0
  0
ARC
  5
1CA
330
1F
100
AcDbEntity
  8
0
  6
Continuous
 62
     7
370
    25
100
AcDbCircle
 10
33.2861950224
 20
122.4624574096
 30
0.0
 40
3.000000000000007
100
AcDbArc
 50
270.0
 51
0.0
  0
ARC
  5
1CB
330
1F
100
AcDbEntity
  8
0
  6
Continuous
 62
     7
370
    25
100
AcDbCircle
 10
718.0562713809
 20
207.4624574096
 30
0.0
 40
3.0
100
AcDbArc
 50
270.0
 51
0.0
  0
LINE
  5
1CC
330
1F
100
AcDbEntity
  8
0
  6
Continuous
 62
     7
370
    25
100
AcDbLine
 10
721.0562713809
 20
207.4624574096
 30
0.0
 11
721.0562713809
 21
216.4624574096
 31
0.0
  0
ARC
  5
1CD
330
1F
100
AcDbEntity
  8
0
  6
Continuous
 62
     7
370
    25
100
AcDbCircle
 10
718.0562713809
 20
216.4624574096
 30
0.0
 40
3.0
100
AcDbArc
 50
0.0
 51
90.0
  0
ARC
  5
1CE
330
1F
100
AcDbEntity
  8
0
  6
Continuous
 62
     7
370
    25
100
AcDbCircle
 10
427.1123674046
 20
207.4624574096
 30
0.0
 40
3.0
100
AcDbArc
 50
180.0
 51
270.0
  0
LINE
  5
1CF
330
1F
100
AcDbEntity
  8
0
  6
Continuous
 62
     7
370
    25
100
AcDbLine
 10
424.1123674046
 20
216.4624574096
 30
0.0
 11
424.1123674046
 21
207.4624574096
 31
0.0
  0
ARC
  5
1D0
330
1F
100
AcDbEntity
  8
0
  6
Continuous
 62
     7
370
    25
100
AcDbCircle
 10
427.1123674046
 20
216.4624574096
 30
0.0
 40
3.0
100
AcDbArc
 50
90.0
 51
180.0
  0
LINE
  5
1D1
330
1F
100
AcDbEntity
  8
0
  6
Continuous
 62
     7
370
    25
100
AcDbLine
 10
721.0562713809
 20
122.4624574096
 30
0.0
 11
721.0562713809
 21
131.4624574096
 31
0.0
  0
ARC
  5
1D2
330
1F
100
AcDbEntity
  8
0
  6
Continuous
 62
     7
370
    25
100
AcDbCircle
 10
718.0562713809
 20
122.4624574096
 30
0.0
 40
3.0
100
AcDbArc
 50
270.0
 51
0.0
  0
ARC
  5
1D3
330
1F
100
AcDbEntity
  8
0
  6
Continuous
 62
     7
370
    25
100
AcDbCircle
 10
718.0562713809
 20
131.4624574096
 30
0.0
 40
3.0
100
AcDbArc
 50
0.0
 51
90.0
  0
ARC
  5
1D4
330
1F
100
AcDbEntity
  8
0
  6
Continuous
 62
     7
370
    25
100
AcDbCircle
 10
427.1123674046
 20
122.4624574096
 30
0.0
 40
3.0
100
AcDbArc
 50
180.0
 51
270.0
  0
LINE
  5
1D5
330
1F
100
AcDbEntity
  8
0
  6
Continuous
 62
     7
370
    25
100
AcDbLine
 10
424.1123674046
 20
131.4624574096
 30
0.0
 11
424.1123674046
 21
122.4624574096
 31
0.0
  0
ARC
  5
1D6
330
1F
100
AcDbEntity
  8
0
  6
Continuous
 62
     7
370
    25
100
AcDbCircle
 10
427.1123674046
 20
131.4624574096
 30
0.0
 40
3.0
100
AcDbArc
 50
90.0
 51
180.0
  0
ARC
  5
1D7
330
1F
100
AcDbEntity
  8
0
  6
Continuous
 62
     7
370
    25
100
AcDbCircle
 10
-257.6577089539
 20
216.4624574096
 30
0.0
 40
3.0
100
AcDbArc
 50
90.0
 51
180.0
  0
LINE
  5
1D8
330
1F
100
AcDbEntity
  8
0
  6
Continuous
 62
     7
370
    25
100
AcDbLine
 10
-260.6577089539
 20
216.4624574096
 30
0.0
 11
-260.6577089539
 21
207.4624574096
 31
0.0
  0
ARC
  5
1D9
330
1F
100
AcDbEntity
  8
0
  6
Continuous
 62
     7
370
    25
100
AcDbCircle
 10
-257.6577089539
 20
207.4624574096
 30
0.0
 40
3.0
100
AcDbArc
 50
180.0
 51
270.0
  0
ARC
  5
1DA
330
1F
100
AcDbEntity
  8
0
  6
Continuous
 62
     7
370
    25
100
AcDbCircle
 10
33.2861950224
 20
216.4624574096
 30
0.0
 40
3.0
100
AcDbArc
 50
0.0
 51
90.0
  0
LINE
  5
1DB
330
1F
100
AcDbEntity
  8
0
  6
Continuous
 62
     7
370
    25
100
AcDbLine
 10
36.2861950224
 20
207.4624574096
 30
0.0
 11
36.2861950224
 21
216.4624574096
 31
0.0
  0
ARC
  5
1DC
330
1F
100
AcDbEntity
  8
0
  6
Continuous
 62
     7
370
    25
100
AcDbCircle
 10
33.2861950224
 20
207.4624574096
 30
0.0
 40
3.000000000000007
100
AcDbArc
 50
270.0
 51
0.0
  0
LINE
  5
1DD
330
1F
100
AcDbEntity
  8
0
  6
Continuous
 62
     7
370
    25
100
AcDbLine
 10
1005.6287012432
 20
134.4624574096
 30
0.0
 11
1005.6287012432
 21
137.8931756456
 31
0.0
  0
LINE
  5
1DE
330
1F
100
AcDbEntity
  8
0
  6
Continuous
 62
     7
370
    25
100
AcDbLine
 10
1005.6287012432
 20
201.0317388787
 30
0.0
 11
1005.6287012432
 21
204.4624574096
 31
0.0
  0
ARC
  5
1DF
330
1F
100
AcDbEntity
  8
0
  6
Continuous
 62
     7
370
    25
100
AcDbCircle
 10
1001.6287012432
 20
204.4624574096
 30
0.0
 40
4.000000000000029
100
AcDbArc
 50
0.0
 51
60.2623398659
  0
ARC
  5
1E0
330
1F
100
AcDbEntity
  8
0
  6
Continuous
 62
     7
370
    25
100
AcDbCircle
 10
1001.6287012432
 20
134.4624574096
 30
0.0
 40
4.000000000000033
100
AcDbArc
 50
299.7376620643
 51
0.0
  0
ARC
  5
1E1
330
1F
100
AcDbEntity
  8
0
  6
Continuous
 62
     7
370
    25
100
AcDbCircle
 10
-541.2301388161
 20
204.4624574096
 30
0.0
 40
4.0
100
AcDbArc
 50
119.7376620643
 51
180.0
  0
ARC
  5
1E2
330
1F
100
AcDbEntity
  8
0
  6
Continuous
 62
     7
370
    25
100
AcDbCircle
 10
-541.2301388161
 20
134.4624574096
 30
0.0
 40
4.000000000000026
100
AcDbArc
 50
180.0
 51
240.2623398659
  0
LINE
  5
1E3
330
1F
100
AcDbEntity
  8
0
  6
Continuous
 62
     7
370
    25
100
AcDbLine
 10
-545.2301388161
 20
204.4624574096
 30
0.0
 11
-545.2301388161
 21
201.0317391735
 31
0.0
  0
LINE
  5
1E4
330
1F
100
AcDbEntity
  8
0
  6
Continuous
 62
     7
370
    25
100
AcDbLine
 10
-545.2301388161
 20
137.8931759405
 30
0.0
 11
-545.2301388161
 21
134.4624574096
 31
0.0
  0
LINE
  5
1E5
330
1F
100
AcDbEntity
  8
0
  6
Continuous
 62
     7
370
    25
100
AcDbLine
 10
290.1457273878
 20
222.4803039979
 30
0.0
 11
290.3608079961
 21
222.2190397649
 31
0.0
  0
LWPOLYLINE
  5
1E6
330
1F
100
AcDbEntity
  8
0
  6
Continuous
 62
     7
370
    25
100
AcDbPolyline
 90
       22
 70
   128
 43
0.0
 10
159.604923637
 20
207.1987051942
 10
163.7053637231
 20
214.0824708856
 10
168.8792446126
 20
220.9621647577
 10
174.7646697195
 20
227.2493859668
 10
181.2933439547
 20
232.8709288783
 10
188.3930970072
 20
237.7598537846
 10
195.979357803
 20
241.8600189029
 10
203.9674947818
 20
245.1210321213
 10
212.2639284642
 20
247.5050464677
 10
220.7725581041
 20
248.9832189328
 10
229.3963612915
 20
249.5350476884
 10
238.0330321171
 20
249.1558362409
 10
246.5835076986
 20
247.845339562
 10
254.9472496449
 20
245.6190037617
 10
263.0259813944
 20
242.5024349054
 10
270.7254192122
 20
238.5267301673
 10
277.9544992825
 20
233.7413747631
 10
284.6276083997
 20
228.1985596638
 10
290.6651945283
 20
221.9608576781
 10
295.9960919029
 20
215.1042630548
 10
300.5547359391
 20
207.7038729966
 10
302.0945060255
 20
204.4624574096
  0
ARC
  5
1E7
330
1F
100
AcDbEntity
  8
0
  6
Continuous
 62
     7
370
    25
100
AcDbCircle
 10
230.1994369254
 20
169.2523736273
 30
0.0
 40
79.88917699012471
100
AcDbArc
 50
205.8156636262
 51
334.1843363738
  0
ARC
  5
1E8
330
1F
100
AcDbEntity
  8
0
  6
Continuous
 62
     7
370
    25
100
AcDbCircle
 10
230.218911539
 20
169.3886126759
 30
0.0
 40
99.86725253352255
100
AcDbArc
 50
200.4705450336
 51
339.5294549664
  0
ARC
  5
1E9
330
1F
100
AcDbEntity
  8
0
  6
Continuous
 62
     7
370
    25
100
AcDbCircle
 10
230.2087860807
 20
169.5728714958
 30
0.0
 40
99.83884658505448
100
AcDbArc
 50
20.4542302005
 51
159.5457697995
  0
LINE
  5
1EA
330
1F
100
AcDbEntity
  8
0
  6
Continuous
 62
     7
370
    25
100
AcDbLine
 10
307.7055214998
 20
232.4429142832
 30
0.0
 11
304.2685433367
 21
236.3847591225
 31
0.0
  0
LINE
  5
1EB
330
1F
100
AcDbEntity
  8
0
  6
Continuous
 62
     7
370
    25
100
AcDbLine
 10
171.5031287908
 20
259.1271756145
 30
0.0
 11
175.1318873963
 21
252.8419813415
 31
0.0
  0
LINE
  5
1EC
330
1F
100
AcDbEntity
  8
0
  6
Continuous
 62
     7
370
    25
100
AcDbLine
 10
185.1500442023
 20
235.4900247552
 30
0.0
 11
188.5031287908
 21
229.6823118858
 31
0.0
  0
LINE
  5
1ED
330
1F
100
AcDbEntity
  8
0
  6
Continuous
 62
     7
370
    25
100
AcDbLine
 10
198.8954336362
 20
235.6823118858
 30
0.0
 11
195.5188298633
 21
241.5307611775
 31
0.0
  0
LINE
  5
1EE
330
1F
100
AcDbEntity
  8
0
  6
Continuous
 62
     7
370
    25
100
AcDbLine
 10
185.496040202
 20
258.8907421045
 30
0.0
 11
181.8954336362
 21
265.1271756145
 31
0.0
  0
LINE
  5
1EF
330
1F
100
AcDbEntity
  8
0
  6
Continuous
 62
     7
370
    25
100
AcDbLine
 10
181.8954336362
 20
73.7977392046
 30
0.0
 11
185.5127211917
 21
80.0630650362
 31
0.0
  0
LINE
  5
1F0
330
1F
100
AcDbEntity
  8
0
  6
Continuous
 62
     7
370
    25
100
AcDbLine
 10
195.5155910696
 20
97.3885438864
 30
0.0
 11
198.8954336362
 21
103.2426029333
 31
0.0
  0
LINE
  5
1F1
330
1F
100
AcDbEntity
  8
0
  6
Continuous
 62
     7
370
    25
100
AcDbLine
 10
188.5031287908
 20
109.2426029333
 30
0.0
 11
185.1385993377
 21
103.4150669769
 31
0.0
  0
LINE
  5
1F2
330
1F
100
AcDbEntity
  8
0
  6
Continuous
 62
     7
370
    25
100
AcDbLine
 10
175.1323407001
 20
86.0837186228
 30
0.0
 11
171.5031287908
 21
79.7977392046
 31
0.0
  0
LINE
  5
1F3
330
1F
100
AcDbEntity
  8
0
  6
Continuous
 62
     7
370
    25
100
AcDbLine
 10
2309.6808596443
 20
8.4624574096
 30
0.0
 11
2309.6808596443
 21
330.4624574096
 31
0.0
  0
ARC
  5
1F4
330
1F
100
AcDbEntity
  8
0
  6
Continuous
 62
     7
370
    25
100
AcDbCircle
 10
1009.6808596443
 20
8.4624574096
 30
0.0
 40
1300.000000000001
100
AcDbArc
 50
270.0
 51
0.0
  0
LINE
  5
1F5
330
1F
100
AcDbEntity
  8
0
  6
Continuous
 62
     7
370
    25
100
AcDbLine
 10
-549.2822972172
 20
-1291.5375425904
 30
0.0
 11
1009.6808596443
 21
-1291.5375425904
 31
0.0
  0
ARC
  5
1F6
330
1F
100
AcDbEntity
  8
0
  6
Continuous
 62
     7
370
    25
100
AcDbCircle
 10
-549.2822972172
 20
8.4624574096
 30
0.0
 40
1300.0
100
AcDbArc
 50
180.0
 51
270.0
  0
LINE
  5
1F7
330
1F
100
AcDbEntity
  8
0
  6
Continuous
 62
     7
370
    25
100
AcDbLine
 10
-1849.2822972172
 20
330.4624574096
 30
0.0
 11
-1849.2822972172
 21
8.4624574096
 31
0.0
  0
ARC
  5
1F8
330
1F
100
AcDbEntity
  8
0
  6
Continuous
 62
     7
370
    25
100
AcDbCircle
 10
-549.2822972172
 20
330.4624574096
 30
0.0
 40
1300.000000000001
100
AcDbArc
 50
90.0
 51
180.0
  0
ARC
  5
1F9
330
1F
100
AcDbEntity
  8
0
  6
Continuous
 62
     7
370
    25
100
AcDbCircle
 10
1009.6808596443
 20
330.4624574096
 30
0.0
 40
1300.0
100
AcDbArc
 50
0.0
 51
90.0
  0
LINE
  5
1FA
330
1F
100
AcDbEntity
  8
0
  6
Continuous
 62
     7
370
    25
100
AcDbLine
 10
1009.6808596443
 20
1630.4624574096
 30
0.0
 11
-549.2822972172
 21
1630.4624574096
 31
0.0
  0
LINE
  5
1FB
330
1F
100
AcDbEntity
  8
0
  6
Continuous
 62
     7
370
    25
100
AcDbLine
 10
493.2138148619
 20
219.4624574096
 30
0.0
 11
483.524330285
 21
219.4624574096
 31
0.0
  0
LINE
  5
1FC
330
1F
100
AcDbEntity
  8
0
  6
Continuous
 62
     7
370
    25
100
AcDbLine
 10
-32.8152524349
 20
119.4624574096
 30
0.0
 11
-23.125767858
 21
119.4624574096
 31
0.0
  0
LINE
  5
1FD
330
1F
100
AcDbEntity
  8
0
  6
Continuous
 62
     7
370
    25
100
AcDbLine
 10
575.6154236308
 20
102.7624574096
 30
0.0
 11
602.6154236308
 21
102.7624574096
 31
0.0
  0
LINE
  5
1FE
330
1F
100
AcDbEntity
  8
0
  6
Continuous
 62
     7
370
    25
100
AcDbLine
 10
-29.625767858
 20
236.1624574096
 30
0.0
 11
-56.625767858
 21
236.1624574096
 31
0.0
  0
LINE
  5
1FF
330
1F
100
AcDbEntity
  8
0
  6
Continuous
 62
     7
370
    25
100
AcDbLine
 10
-23.125767858
 20
219.4624574096
 30
0.0
 11
-32.8152524349
 21
219.4624574096
 31
0.0
  0
LINE
  5
200
330
1F
100
AcDbEntity
  8
0
  6
Continuous
 62
     7
370
    25
100
AcDbLine
 10
483.524330285
 20
119.4624574096
 30
0.0
 11
493.2138148619
 21
119.4624574096
 31
0.0
  0
LINE
  5
201
330
1F
100
AcDbEntity
  8
0
  6
Continuous
 62
     7
370
    25
100
AcDbLine
 10
490.024330285
 20
102.7624574096
 30
0.0
 11
517.024330285
 21
102.7624574096
 31
0.0
  0
LINE
  5
202
330
1F
100
AcDbEntity
  8
0
  6
Continuous
 62
     7
370
    25
100
AcDbLine
 10
-115.2168612037
 20
236.1624574096
 30
0.0
 11
-142.2168612037
 21
236.1624574096
 31
0.0
  0
LINE
  5
203
330
1F
100
AcDbEntity
  8
0
  6
Continuous
 62
     7
370
    25
100
AcDbLine
 10
-208.3112558243
 20
151.1624574096
 30
0.0
 11
-235.3112558243
 21
151.1624574096
 31
0.0
  0
LINE
  5
204
330
1F
100
AcDbEntity
  8
0
  6
Continuous
 62
     7
370
    25
100
AcDbLine
 10
668.7098182514
 20
187.7624574096
 30
0.0
 11
695.7098182514
 21
187.7624574096
 31
0.0
  0
LINE
  5
205
330
1F
100
AcDbEntity
  8
0
  6
Continuous
 62
     7
370
    25
100
AcDbLine
 10
-221.8112558243
 20
187.7624574096
 30
0.0
 11
-208.3112558243
 21
187.7624574096
 31
0.0
  0
LINE
  5
206
330
1F
100
AcDbEntity
  8
0
  6
Continuous
 62
     7
370
    25
100
AcDbLine
 10
-235.3112558243
 20
187.7624574096
 30
0.0
 11
-221.8112558243
 21
187.7624574096
 31
0.0
  0
LINE
  5
207
330
1F
100
AcDbEntity
  8
0
  6
Continuous
 62
     7
370
    25
100
AcDbLine
 10
682.2098182514
 20
151.1624574096
 30
0.0
 11
668.7098182514
 21
151.1624574096
 31
0.0
  0
LINE
  5
208
330
1F
100
AcDbEntity
  8
0
  6
Continuous
 62
     7
370
    25
100
AcDbLine
 10
695.7098182514
 20
151.1624574096
 30
0.0
 11
682.2098182514
 21
151.1624574096
 31
0.0
  0
LINE
  5
209
330
1F
100
AcDbEntity
  8
0
  6
Continuous
 62
     7
370
    25
100
AcDbLine
 10
483.9310629019
 20
113.4624574096
 30
0.0
 11
441.9588205342
 21
113.4624574096
 31
0.0
  0
LINE
  5
20A
330
1F
100
AcDbEntity
  8
0
  6
Continuous
 62
     7
370
    25
100
AcDbLine
 10
446.9588205342
 20
29.4624574096
 30
0.0
 11
478.9588205342
 21
29.4624574096
 31
0.0
  0
LINE
  5
20B
330
1F
100
AcDbEntity
  8
0
  6
Continuous
 62
     7
370
    25
100
AcDbLine
 10
-200.8112558332
 20
113.4624574096
 30
0.0
 11
-242.8112558243
 21
113.4624574096
 31
0.0
  0
LINE
  5
20C
330
1F
100
AcDbEntity
  8
0
  6
Continuous
 62
     7
370
    25
100
AcDbLine
 10
-237.8112558243
 20
29.4624574096
 30
0.0
 11
-205.8112558243
 21
29.4624574096
 31
0.0
  0
LINE
  5
20D
330
1F
100
AcDbEntity
  8
0
  6
Continuous
 62
     7
370
    25
100
AcDbLine
 10
18.439741884
 20
113.4624574096
 30
0.0
 11
-23.5325004748
 21
113.4624574096
 31
0.0
  0
LINE
  5
20E
330
1F
100
AcDbEntity
  8
0
  6
Continuous
 62
     7
370
    25
100
AcDbLine
 10
-18.5602581071
 20
29.4624574096
 30
0.0
 11
13.4397418929
 21
29.4624574096
 31
0.0
  0
LINE
  5
20F
330
1F
100
AcDbEntity
  8
0
  6
Continuous
 62
     7
370
    25
100
AcDbLine
 10
-242.8112558155
 20
225.4624574096
 30
0.0
 11
-200.8112558243
 21
225.4624574096
 31
0.0
  0
LINE
  5
210
330
1F
100
AcDbEntity
  8
0
  6
Continuous
 62
     7
370
    25
100
AcDbLine
 10
-205.8112558243
 20
309.4624574096
 30
0.0
 11
-237.8112558243
 21
309.4624574096
 31
0.0
  0
LINE
  5
211
330
1F
100
AcDbEntity
  8
0
  6
Continuous
 62
     7
370
    25
100
AcDbLine
 10
-23.5325004748
 20
225.4624574096
 30
0.0
 11
18.4397418929
 21
225.4624574096
 31
0.0
  0
LINE
  5
212
330
1F
100
AcDbEntity
  8
0
  6
Continuous
 62
     7
370
    25
100
AcDbLine
 10
13.4397418929
 20
309.4624574096
 30
0.0
 11
-18.5602581071
 21
309.4624574096
 31
0.0
  0
LINE
  5
213
330
1F
100
AcDbEntity
  8
0
  6
Continuous
 62
     7
370
    25
100
AcDbLine
 10
661.2098182603
 20
225.4624574096
 30
0.0
 11
703.2098182514
 21
225.4624574096
 31
0.0
  0
LINE
  5
214
330
1F
100
AcDbEntity
  8
0
  6
Continuous
 62
     7
370
    25
100
AcDbLine
 10
698.2098182514
 20
309.4624574096
 30
0.0
 11
666.2098182514
 21
309.4624574096
 31
0.0
  0
LINE
  5
215
330
1F
100
AcDbEntity
  8
0
  6
Continuous
 62
     7
370
    25
100
AcDbLine
 10
441.958820543
 20
225.4624574096
 30
0.0
 11
483.9310629019
 21
225.4624574096
 31
0.0
  0
LINE
  5
216
330
1F
100
AcDbEntity
  8
0
  6
Continuous
 62
     7
370
    25
100
AcDbLine
 10
478.9588205342
 20
309.4624574096
 30
0.0
 11
446.9588205342
 21
309.4624574096
 31
0.0
  0
LINE
  5
217
330
1F
100
AcDbEntity
  8
0
  6
Continuous
 62
     7
370
    25
100
AcDbLine
 10
703.2098182425
 20
113.4624574096
 30
0.0
 11
661.2098182514
 21
113.4624574096
 31
0.0
  0
LINE
  5
218
330
1F
100
AcDbEntity
  8
0
  6
Continuous
 62
     7
370
    25
100
AcDbLine
 10
666.2098182514
 20
29.4624574096
 30
0.0
 11
698.2098182514
 21
29.4624574096
 31
0.0
  0
LINE
  5
219
330
1F
100
AcDbEntity
  8
0
  6
Continuous
 62
     7
370
    25
100
AcDbLine
 10
-235.8112558243
 20
11.4624574096
 30
0.0
 11
-207.8112558243
 21
11.4624574096
 31
0.0
  0
LINE
  5
21A
330
1F
100
AcDbEntity
  8
0
  6
Continuous
 62
     7
370
    25
100
AcDbLine
 10
-237.8112558243
 20
29.4624574096
 30
0.0
 11
-205.8112559728
 21
29.4624574096
 31
0.0
  0
LINE
  5
21B
330
1F
100
AcDbEntity
  8
0
  6
Continuous
 62
     7
370
    25
100
AcDbLine
 10
448.9588205342
 20
11.4624574096
 30
0.0
 11
476.9588205342
 21
11.4624574096
 31
0.0
  0
LINE
  5
21C
330
1F
100
AcDbEntity
  8
0
  6
Continuous
 62
     7
370
    25
100
AcDbLine
 10
446.9588205342
 20
29.4624574096
 30
0.0
 11
478.9588203857
 21
29.4624574096
 31
0.0
  0
LINE
  5
21D
330
1F
100
AcDbEntity
  8
0
  6
Continuous
 62
     7
370
    25
100
AcDbLine
 10
-16.5602581071
 20
11.4624574096
 30
0.0
 11
11.4397418929
 21
11.4624574096
 31
0.0
  0
LINE
  5
21E
330
1F
100
AcDbEntity
  8
0
  6
Continuous
 62
     7
370
    25
100
AcDbLine
 10
-18.5602581071
 20
29.4624574096
 30
0.0
 11
13.4397417445
 21
29.4624574096
 31
0.0
  0
LINE
  5
21F
330
1F
100
AcDbEntity
  8
0
  6
Continuous
 62
     7
370
    25
100
AcDbLine
 10
-207.8112558243
 20
327.4624574096
 30
0.0
 11
-235.8112558243
 21
327.4624574096
 31
0.0
  0
LINE
  5
220
330
1F
100
AcDbEntity
  8
0
  6
Continuous
 62
     7
370
    25
100
AcDbLine
 10
-205.8112558243
 20
309.4624574096
 30
0.0
 11
-237.8112556759
 21
309.4624574096
 31
0.0
  0
LINE
  5
221
330
1F
100
AcDbEntity
  8
0
  6
Continuous
 62
     7
370
    25
100
AcDbLine
 10
11.4397418929
 20
327.4624574096
 30
0.0
 11
-16.5602581071
 21
327.4624574096
 31
0.0
  0
LINE
  5
222
330
1F
100
AcDbEntity
  8
0
  6
Continuous
 62
     7
370
    25
100
AcDbLine
 10
13.4397418929
 20
309.4624574096
 30
0.0
 11
-18.5602579587
 21
309.4624574096
 31
0.0
  0
LINE
  5
223
330
1F
100
AcDbEntity
  8
0
  6
Continuous
 62
     7
370
    25
100
AcDbLine
 10
668.2098182514
 20
11.4624574096
 30
0.0
 11
696.2098182514
 21
11.4624574096
 31
0.0
  0
LINE
  5
224
330
1F
100
AcDbEntity
  8
0
  6
Continuous
 62
     7
370
    25
100
AcDbLine
 10
666.2098182514
 20
29.4624574096
 30
0.0
 11
698.209818103
 21
29.4624574096
 31
0.0
  0
LINE
  5
225
330
1F
100
AcDbEntity
  8
0
  6
Continuous
 62
     7
370
    25
100
AcDbLine
 10
696.2098182514
 20
327.4624574096
 30
0.0
 11
668.2098182514
 21
327.4624574096
 31
0.0
  0
LINE
  5
226
330
1F
100
AcDbEntity
  8
0
  6
Continuous
 62
     7
370
    25
100
AcDbLine
 10
698.2098182514
 20
309.4624574096
 30
0.0
 11
666.2098183998
 21
309.4624574096
 31
0.0
  0
LINE
  5
227
330
1F
100
AcDbEntity
  8
0
  6
Continuous
 62
     7
370
    25
100
AcDbLine
 10
476.9588205342
 20
327.4624574096
 30
0.0
 11
448.9588205342
 21
327.4624574096
 31
0.0
  0
LINE
  5
228
330
1F
100
AcDbEntity
  8
0
  6
Continuous
 62
     7
370
    25
100
AcDbLine
 10
478.9588205342
 20
309.4624574096
 30
0.0
 11
446.9588206826
 21
309.4624574096
 31
0.0
  0
ARC
  5
229
330
1F
100
AcDbEntity
  8
0
  6
Continuous
 62
     7
370
    25
100
AcDbCircle
 10
-459.7178940803
 20
184.4624574096
 30
0.0
 40
2.25000000000024
100
AcDbArc
 50
180.0
 51
240.0
  0
ARC
  5
22A
330
1F
100
AcDbEntity
  8
0
  6
Continuous
 62
     7
370
    25
100
AcDbCircle
 10
-459.7178940803
 20
184.4624574096
 30
0.0
 40
2.250000000000268
100
AcDbArc
 50
240.0
 51
300.0
  0
ARC
  5
22B
330
1F
100
AcDbEntity
  8
0
  6
Continuous
 62
     7
370
    25
100
AcDbCircle
 10
-459.7178940803
 20
184.4624574096
 30
0.0
 40
2.250000000000268
100
AcDbArc
 50
300.0
 51
0.0
  0
ARC
  5
22C
330
1F
100
AcDbEntity
  8
0
  6
Continuous
 62
     7
370
    25
100
AcDbCircle
 10
-459.7178940803
 20
184.4624574096
 30
0.0
 40
2.250000000000268
100
AcDbArc
 50
0.0
 51
60.0
  0
ARC
  5
22D
330
1F
100
AcDbEntity
  8
0
  6
Continuous
 62
     7
370
    25
100
AcDbCircle
 10
-459.7178940803
 20
184.4624574096
 30
0.0
 40
2.250000000000268
100
AcDbArc
 50
60.0
 51
120.0
  0
ARC
  5
22E
330
1F
100
AcDbEntity
  8
0
  6
Continuous
 62
     7
370
    25
100
AcDbCircle
 10
-459.7178940803
 20
184.4624574096
 30
0.0
 40
2.25000000000024
100
AcDbArc
 50
120.0
 51
180.0
  0
CIRCLE
  5
22F
330
1F
100
AcDbEntity
  8
0
  6
Continuous
 62
     7
370
    25
100
AcDbCircle
 10
-459.7178940803
 20
184.4624574096
 30
0.0
 40
3.849999999999966
  0
ARC
  5
230
330
1F
100
AcDbEntity
  8
0
  6
Continuous
 62
     7
370
    25
100
AcDbCircle
 10
-460.6178940803
 20
186.0213031364
 30
0.0
 40
0.450000000000303
100
AcDbArc
 50
120.0000000001
 51
196.6582417728
  0
ARC
  5
231
330
1F
100
AcDbEntity
  8
0
  6
Continuous
 62
     7
370
    25
100
AcDbCircle
 10
-461.5178940803
 20
184.4624574096
 30
0.0
 40
0.4499999999999534
100
AcDbArc
 50
103.3417582272
 51
180.0
  0
ARC
  5
232
330
1F
100
AcDbEntity
  8
0
  6
Continuous
 62
     7
370
    25
100
AcDbCircle
 10
-461.803458277
 20
185.66655846
 30
0.0
 40
0.7875000000000233
100
AcDbArc
 50
283.3417582272
 51
16.6582417728
  0
ARC
  5
233
330
1F
100
AcDbEntity
  8
0
  6
Continuous
 62
     7
370
    25
100
AcDbCircle
 10
-459.7178940803
 20
182.0542553088
 30
0.0
 40
0.787499999999794
100
AcDbArc
 50
43.3417582272
 51
136.6582417728
  0
ARC
  5
234
330
1F
100
AcDbEntity
  8
0
  6
Continuous
 62
     7
370
    25
100
AcDbCircle
 10
-458.8178940803
 20
182.9036116828
 30
0.0
 40
0.450000000000303
100
AcDbArc
 50
223.3417582272
 51
300.0000000001
  0
ARC
  5
235
330
1F
100
AcDbEntity
  8
0
  6
Continuous
 62
     7
370
    25
100
AcDbCircle
 10
-460.6178940803
 20
182.9036116828
 30
0.0
 40
0.450000000000303
100
AcDbArc
 50
239.9999999999
 51
316.6582417728
  0
ARC
  5
236
330
1F
100
AcDbEntity
  8
0
  6
Continuous
 62
     7
370
    25
100
AcDbCircle
 10
-458.8178940803
 20
186.0213031364
 30
0.0
 40
0.450000000000303
100
AcDbArc
 50
59.9999999999
 51
136.6582417728
  0
ARC
  5
237
330
1F
100
AcDbEntity
  8
0
  6
Continuous
 62
     7
370
    25
100
AcDbCircle
 10
-459.7178940803
 20
186.8706595103
 30
0.0
 40
0.787499999999794
100
AcDbArc
 50
223.3417582272
 51
316.6582417728
  0
ARC
  5
238
330
1F
100
AcDbEntity
  8
0
  6
Continuous
 62
     7
370
    25
100
AcDbCircle
 10
-460.6178940803
 20
186.0213031364
 30
0.0
 40
0.450000000000303
100
AcDbArc
 50
43.3417582272
 51
120.0000000001
  0
ARC
  5
239
330
1F
100
AcDbEntity
  8
0
  6
Continuous
 62
     7
370
    25
100
AcDbCircle
 10
-461.803458277
 20
183.2583563592
 30
0.0
 40
0.7875000000000514
100
AcDbArc
 50
343.3417582272
 51
76.6582417728
  0
ARC
  5
23A
330
1F
100
AcDbEntity
  8
0
  6
Continuous
 62
     7
370
    25
100
AcDbCircle
 10
-461.5178940803
 20
184.4624574096
 30
0.0
 40
0.4500000000000335
100
AcDbArc
 50
180.0
 51
256.6582417728
  0
ARC
  5
23B
330
1F
100
AcDbEntity
  8
0
  6
Continuous
 62
     7
370
    25
100
AcDbCircle
 10
-460.6178940803
 20
182.9036116828
 30
0.0
 40
0.450000000000303
100
AcDbArc
 50
163.3417582272
 51
239.9999999999
  0
ARC
  5
23C
330
1F
100
AcDbEntity
  8
0
  6
Continuous
 62
     7
370
    25
100
AcDbCircle
 10
-458.8178940803
 20
182.9036116828
 30
0.0
 40
0.450000000000303
100
AcDbArc
 50
300.0000000001
 51
16.6582417728
  0
ARC
  5
23D
330
1F
100
AcDbEntity
  8
0
  6
Continuous
 62
     7
370
    25
100
AcDbCircle
 10
-457.6323298835
 20
183.2583563592
 30
0.0
 40
0.7874999999999956
100
AcDbArc
 50
103.3417582272
 51
196.6582417728
  0
ARC
  5
23E
330
1F
100
AcDbEntity
  8
0
  6
Continuous
 62
     7
370
    25
100
AcDbCircle
 10
-457.9178940803
 20
184.4624574096
 30
0.0
 40
0.449999999999981
100
AcDbArc
 50
283.3417582272
 51
0.0
  0
ARC
  5
23F
330
1F
100
AcDbEntity
  8
0
  6
Continuous
 62
     7
370
    25
100
AcDbCircle
 10
-457.6323298835
 20
185.66655846
 30
0.0
 40
0.7875000000000432
100
AcDbArc
 50
163.3417582272
 51
256.6582417728
  0
ARC
  5
240
330
1F
100
AcDbEntity
  8
0
  6
Continuous
 62
     7
370
    25
100
AcDbCircle
 10
-458.8178940803
 20
186.0213031364
 30
0.0
 40
0.450000000000303
100
AcDbArc
 50
343.3417582272
 51
59.9999999999
  0
ARC
  5
241
330
1F
100
AcDbEntity
  8
0
  6
Continuous
 62
     7
370
    25
100
AcDbCircle
 10
-457.9178940803
 20
184.4624574096
 30
0.0
 40
0.4500000000000058
100
AcDbArc
 50
0.0
 51
76.6582417728
  0
ARC
  5
242
330
1F
100
AcDbEntity
  8
0
  6
Continuous
 62
     7
370
    25
100
AcDbCircle
 10
-369.7178940803
 20
169.4624574096
 30
0.0
 40
2.250000000000243
100
AcDbArc
 50
120.0
 51
180.0
  0
ARC
  5
243
330
1F
100
AcDbEntity
  8
0
  6
Continuous
 62
     7
370
    25
100
AcDbCircle
 10
-370.6178940803
 20
171.0213031364
 30
0.0
 40
0.450000000000303
100
AcDbArc
 50
120.0000000001
 51
196.6582417728
  0
ARC
  5
244
330
1F
100
AcDbEntity
  8
0
  6
Continuous
 62
     7
370
    25
100
AcDbCircle
 10
-371.803458277
 20
170.66655846
 30
0.0
 40
0.7874999999999956
100
AcDbArc
 50
283.3417582272
 51
16.6582417728
  0
ARC
  5
245
330
1F
100
AcDbEntity
  8
0
  6
Continuous
 62
     7
370
    25
100
AcDbCircle
 10
-371.5178940803
 20
169.4624574096
 30
0.0
 40
0.4499999999999942
100
AcDbArc
 50
103.3417582272
 51
180.0
  0
ARC
  5
246
330
1F
100
AcDbEntity
  8
0
  6
Continuous
 62
     7
370
    25
100
AcDbCircle
 10
-369.7178940803
 20
169.4624574096
 30
0.0
 40
2.250000000000268
100
AcDbArc
 50
60.0
 51
120.0
  0
ARC
  5
247
330
1F
100
AcDbEntity
  8
0
  6
Continuous
 62
     7
370
    25
100
AcDbCircle
 10
-368.8178940803
 20
171.0213031364
 30
0.0
 40
0.4500000000002746
100
AcDbArc
 50
59.9999999999
 51
136.6582417728
  0
ARC
  5
248
330
1F
100
AcDbEntity
  8
0
  6
Continuous
 62
     7
370
    25
100
AcDbCircle
 10
-369.7178940803
 20
171.8706595103
 30
0.0
 40
0.787499999999794
100
AcDbArc
 50
223.3417582272
 51
316.6582417728
  0
ARC
  5
249
330
1F
100
AcDbEntity
  8
0
  6
Continuous
 62
     7
370
    25
100
AcDbCircle
 10
-370.6178940803
 20
171.0213031364
 30
0.0
 40
0.450000000000303
100
AcDbArc
 50
43.3417582272
 51
120.0000000001
  0
ARC
  5
24A
330
1F
100
AcDbEntity
  8
0
  6
Continuous
 62
     7
370
    25
100
AcDbCircle
 10
-369.7178940803
 20
169.4624574096
 30
0.0
 40
2.250000000000268
100
AcDbArc
 50
240.0
 51
300.0
  0
ARC
  5
24B
330
1F
100
AcDbEntity
  8
0
  6
Continuous
 62
     7
370
    25
100
AcDbCircle
 10
-368.8178940803
 20
167.9036116828
 30
0.0
 40
0.4500000000002746
100
AcDbArc
 50
223.3417582272
 51
300.0000000001
  0
ARC
  5
24C
330
1F
100
AcDbEntity
  8
0
  6
Continuous
 62
     7
370
    25
100
AcDbCircle
 10
-370.6178940803
 20
167.9036116828
 30
0.0
 40
0.450000000000303
100
AcDbArc
 50
239.9999999999
 51
316.6582417728
  0
ARC
  5
24D
330
1F
100
AcDbEntity
  8
0
  6
Continuous
 62
     7
370
    25
100
AcDbCircle
 10
-369.7178940803
 20
167.0542553088
 30
0.0
 40
0.7874999999997746
100
AcDbArc
 50
43.3417582272
 51
136.6582417728
  0
ARC
  5
24E
330
1F
100
AcDbEntity
  8
0
  6
Continuous
 62
     7
370
    25
100
AcDbCircle
 10
-369.7178940803
 20
169.4624574096
 30
0.0
 40
2.250000000000268
100
AcDbArc
 50
180.0
 51
240.0
  0
ARC
  5
24F
330
1F
100
AcDbEntity
  8
0
  6
Continuous
 62
     7
370
    25
100
AcDbCircle
 10
-371.5178940803
 20
169.4624574096
 30
0.0
 40
0.4500000000000058
100
AcDbArc
 50
180.0
 51
256.6582417728
  0
ARC
  5
250
330
1F
100
AcDbEntity
  8
0
  6
Continuous
 62
     7
370
    25
100
AcDbCircle
 10
-371.803458277
 20
168.2583563592
 30
0.0
 40
0.7875000000000514
100
AcDbArc
 50
343.3417582272
 51
76.6582417728
  0
ARC
  5
251
330
1F
100
AcDbEntity
  8
0
  6
Continuous
 62
     7
370
    25
100
AcDbCircle
 10
-370.6178940803
 20
167.9036116828
 30
0.0
 40
0.450000000000303
100
AcDbArc
 50
163.3417582272
 51
239.9999999999
  0
ARC
  5
252
330
1F
100
AcDbEntity
  8
0
  6
Continuous
 62
     7
370
    25
100
AcDbCircle
 10
-369.7178940803
 20
169.4624574096
 30
0.0
 40
2.25000000000024
100
AcDbArc
 50
300.0
 51
0.0
  0
ARC
  5
253
330
1F
100
AcDbEntity
  8
0
  6
Continuous
 62
     7
370
    25
100
AcDbCircle
 10
-369.7178940803
 20
169.4624574096
 30
0.0
 40
2.25000000000024
100
AcDbArc
 50
0.0
 51
60.0
  0
CIRCLE
  5
254
330
1F
100
AcDbEntity
  8
0
  6
Continuous
 62
     7
370
    25
100
AcDbCircle
 10
-369.7178940803
 20
169.4624574096
 30
0.0
 40
3.850000000000023
  0
ARC
  5
255
330
1F
100
AcDbEntity
  8
0
  6
Continuous
 62
     7
370
    25
100
AcDbCircle
 10
-367.9178940803
 20
169.4624574096
 30
0.0
 40
0.4500000000000335
100
AcDbArc
 50
0.0
 51
76.6582417728
  0
ARC
  5
256
330
1F
100
AcDbEntity
  8
0
  6
Continuous
 62
     7
370
    25
100
AcDbCircle
 10
-367.6323298835
 20
170.66655846
 30
0.0
 40
0.7875000000000514
100
AcDbArc
 50
163.3417582272
 51
256.6582417728
  0
ARC
  5
257
330
1F
100
AcDbEntity
  8
0
  6
Continuous
 62
     7
370
    25
100
AcDbCircle
 10
-368.8178940803
 20
171.0213031364
 30
0.0
 40
0.4500000000002746
100
AcDbArc
 50
343.3417582272
 51
59.9999999999
  0
ARC
  5
258
330
1F
100
AcDbEntity
  8
0
  6
Continuous
 62
     7
370
    25
100
AcDbCircle
 10
-368.8178940803
 20
167.9036116828
 30
0.0
 40
0.4500000000002746
100
AcDbArc
 50
300.0000000001
 51
16.6582417728
  0
ARC
  5
259
330
1F
100
AcDbEntity
  8
0
  6
Continuous
 62
     7
370
    25
100
AcDbCircle
 10
-367.6323298835
 20
168.2583563592
 30
0.0
 40
0.7875000000000233
100
AcDbArc
 50
103.3417582272
 51
196.6582417728
  0
ARC
  5
25A
330
1F
100
AcDbEntity
  8
0
  6
Continuous
 62
     7
370
    25
100
AcDbCircle
 10
-367.9178940803
 20
169.4624574096
 30
0.0
 40
0.4499999999999534
100
AcDbArc
 50
283.3417582272
 51
0.0
  0
ARC
  5
25B
330
1F
100
AcDbEntity
  8
0
  6
Continuous
 62
     7
370
    25
100
AcDbCircle
 10
920.1164565073
 20
154.4624574096
 30
0.0
 40
2.250000000000265
100
AcDbArc
 50
0.0
 51
60.0
  0
ARC
  5
25C
330
1F
100
AcDbEntity
  8
0
  6
Continuous
 62
     7
370
    25
100
AcDbCircle
 10
922.2020207041
 20
155.66655846
 30
0.0
 40
0.7875000000001059
100
AcDbArc
 50
163.3417582272
 51
256.6582417728
  0
ARC
  5
25D
330
1F
100
AcDbEntity
  8
0
  6
Continuous
 62
     7
370
    25
100
AcDbCircle
 10
921.0164565073
 20
156.0213031364
 30
0.0
 40
0.4500000000003276
100
AcDbArc
 50
343.3417582272
 51
59.9999999999
  0
ARC
  5
25E
330
1F
100
AcDbEntity
  8
0
  6
Continuous
 62
     7
370
    25
100
AcDbCircle
 10
921.9164565073
 20
154.4624574096
 30
0.0
 40
0.4500000000000204
100
AcDbArc
 50
0.0
 51
76.6582417728
  0
ARC
  5
25F
330
1F
100
AcDbEntity
  8
0
  6
Continuous
 62
     7
370
    25
100
AcDbCircle
 10
920.1164565073
 20
154.4624574096
 30
0.0
 40
2.25000000000024
100
AcDbArc
 50
300.0
 51
0.0
  0
ARC
  5
260
330
1F
100
AcDbEntity
  8
0
  6
Continuous
 62
     7
370
    25
100
AcDbCircle
 10
921.0164565073
 20
152.9036116828
 30
0.0
 40
0.450000000000303
100
AcDbArc
 50
300.0000000001
 51
16.6582417728
  0
ARC
  5
261
330
1F
100
AcDbEntity
  8
0
  6
Continuous
 62
     7
370
    25
100
AcDbCircle
 10
922.2020207041
 20
153.2583563592
 30
0.0
 40
0.7875000000000233
100
AcDbArc
 50
103.3417582272
 51
196.6582417728
  0
ARC
  5
262
330
1F
100
AcDbEntity
  8
0
  6
Continuous
 62
     7
370
    25
100
AcDbCircle
 10
921.9164565073
 20
154.4624574096
 30
0.0
 40
0.4499999999999403
100
AcDbArc
 50
283.3417582272
 51
0.0
  0
ARC
  5
263
330
1F
100
AcDbEntity
  8
0
  6
Continuous
 62
     7
370
    25
100
AcDbCircle
 10
920.1164565073
 20
154.4624574096
 30
0.0
 40
2.250000000000265
100
AcDbArc
 50
60.0
 51
120.0
  0
ARC
  5
264
330
1F
100
AcDbEntity
  8
0
  6
Continuous
 62
     7
370
    25
100
AcDbCircle
 10
920.1164565073
 20
156.8706595103
 30
0.0
 40
0.787499999999794
100
AcDbArc
 50
223.3417582272
 51
316.6582417728
  0
ARC
  5
265
330
1F
100
AcDbEntity
  8
0
  6
Continuous
 62
     7
370
    25
100
AcDbCircle
 10
919.2164565073
 20
156.0213031364
 30
0.0
 40
0.450000000000303
100
AcDbArc
 50
43.3417582272
 51
120.0000000001
  0
ARC
  5
266
330
1F
100
AcDbEntity
  8
0
  6
Continuous
 62
     7
370
    25
100
AcDbCircle
 10
921.0164565073
 20
156.0213031364
 30
0.0
 40
0.4500000000003276
100
AcDbArc
 50
59.9999999999
 51
136.6582417728
  0
ARC
  5
267
330
1F
100
AcDbEntity
  8
0
  6
Continuous
 62
     7
370
    25
100
AcDbCircle
 10
920.1164565073
 20
154.4624574096
 30
0.0
 40
2.25000000000024
100
AcDbArc
 50
240.0
 51
300.0
  0
ARC
  5
268
330
1F
100
AcDbEntity
  8
0
  6
Continuous
 62
     7
370
    25
100
AcDbCircle
 10
919.2164565073
 20
152.9036116828
 30
0.0
 40
0.450000000000303
100
AcDbArc
 50
239.9999999999
 51
316.6582417728
  0
ARC
  5
269
330
1F
100
AcDbEntity
  8
0
  6
Continuous
 62
     7
370
    25
100
AcDbCircle
 10
920.1164565073
 20
152.0542553088
 30
0.0
 40
0.7874999999997746
100
AcDbArc
 50
43.3417582272
 51
136.6582417728
  0
ARC
  5
26A
330
1F
100
AcDbEntity
  8
0
  6
Continuous
 62
     7
370
    25
100
AcDbCircle
 10
921.0164565073
 20
152.9036116828
 30
0.0
 40
0.450000000000303
100
AcDbArc
 50
223.3417582272
 51
300.0000000001
  0
ARC
  5
26B
330
1F
100
AcDbEntity
  8
0
  6
Continuous
 62
     7
370
    25
100
AcDbCircle
 10
920.1164565073
 20
154.4624574096
 30
0.0
 40
2.25000000000024
100
AcDbArc
 50
120.0
 51
180.0
  0
ARC
  5
26C
330
1F
100
AcDbEntity
  8
0
  6
Continuous
 62
     7
370
    25
100
AcDbCircle
 10
920.1164565073
 20
154.4624574096
 30
0.0
 40
2.25000000000024
100
AcDbArc
 50
180.0
 51
240.0
  0
CIRCLE
  5
26D
330
1F
100
AcDbEntity
  8
0
  6
Continuous
 62
     7
370
    25
100
AcDbCircle
 10
920.1164565073
 20
154.4624574096
 30
0.0
 40
3.849999999999909
  0
ARC
  5
26E
330
1F
100
AcDbEntity
  8
0
  6
Continuous
 62
     7
370
    25
100
AcDbCircle
 10
918.0308923106
 20
153.2583563592
 30
0.0
 40
0.787499999999997
100
AcDbArc
 50
343.3417582272
 51
76.6582417728
  0
ARC
  5
26F
330
1F
100
AcDbEntity
  8
0
  6
Continuous
 62
     7
370
    25
100
AcDbCircle
 10
919.2164565073
 20
152.9036116828
 30
0.0
 40
0.450000000000303
100
AcDbArc
 50
163.3417582272
 51
239.9999999999
  0
ARC
  5
270
330
1F
100
AcDbEntity
  8
0
  6
Continuous
 62
     7
370
    25
100
AcDbCircle
 10
918.3164565073
 20
154.4624574096
 30
0.0
 40
0.4499999999999927
100
AcDbArc
 50
180.0
 51
256.6582417728
  0
ARC
  5
271
330
1F
100
AcDbEntity
  8
0
  6
Continuous
 62
     7
370
    25
100
AcDbCircle
 10
919.2164565073
 20
156.0213031364
 30
0.0
 40
0.450000000000303
100
AcDbArc
 50
120.0000000001
 51
196.6582417728
  0
ARC
  5
272
330
1F
100
AcDbEntity
  8
0
  6
Continuous
 62
     7
370
    25
100
AcDbCircle
 10
918.0308923106
 20
155.66655846
 30
0.0
 40
0.7874999999999956
100
AcDbArc
 50
283.3417582272
 51
16.6582417728
  0
ARC
  5
273
330
1F
100
AcDbEntity
  8
0
  6
Continuous
 62
     7
370
    25
100
AcDbCircle
 10
918.3164565073
 20
154.4624574096
 30
0.0
 40
0.4499999999999679
100
AcDbArc
 50
103.3417582272
 51
180.0
  0
ARC
  5
274
330
1F
100
AcDbEntity
  8
0
  6
Continuous
 62
     7
370
    25
100
AcDbCircle
 10
830.1164565073
 20
169.4624574096
 30
0.0
 40
2.250000000000322
100
AcDbArc
 50
240.0
 51
300.0
  0
ARC
  5
275
330
1F
100
AcDbEntity
  8
0
  6
Continuous
 62
     7
370
    25
100
AcDbCircle
 10
829.2164565073
 20
167.9036116828
 30
0.0
 40
0.4500000000003276
100
AcDbArc
 50
239.9999999999
 51
316.6582417728
  0
ARC
  5
276
330
1F
100
AcDbEntity
  8
0
  6
Continuous
 62
     7
370
    25
100
AcDbCircle
 10
831.0164565073
 20
167.9036116828
 30
0.0
 40
0.4500000000003276
100
AcDbArc
 50
223.3417582272
 51
300.0000000001
  0
ARC
  5
277
330
1F
100
AcDbEntity
  8
0
  6
Continuous
 62
     7
370
    25
100
AcDbCircle
 10
830.1164565073
 20
167.0542553088
 30
0.0
 40
0.787499999999794
100
AcDbArc
 50
43.3417582272
 51
136.6582417728
  0
ARC
  5
278
330
1F
100
AcDbEntity
  8
0
  6
Continuous
 62
     7
370
    25
100
AcDbCircle
 10
830.1164565073
 20
169.4624574096
 30
0.0
 40
2.250000000000297
100
AcDbArc
 50
60.0
 51
120.0
  0
ARC
  5
279
330
1F
100
AcDbEntity
  8
0
  6
Continuous
 62
     7
370
    25
100
AcDbCircle
 10
831.0164565073
 20
171.0213031364
 30
0.0
 40
0.450000000000303
100
AcDbArc
 50
59.9999999999
 51
136.6582417728
  0
ARC
  5
27A
330
1F
100
AcDbEntity
  8
0
  6
Continuous
 62
     7
370
    25
100
AcDbCircle
 10
829.2164565073
 20
171.0213031364
 30
0.0
 40
0.450000000000303
100
AcDbArc
 50
43.3417582272
 51
120.0000000001
  0
ARC
  5
27B
330
1F
100
AcDbEntity
  8
0
  6
Continuous
 62
     7
370
    25
100
AcDbCircle
 10
830.1164565073
 20
171.8706595103
 30
0.0
 40
0.7874999999997746
100
AcDbArc
 50
223.3417582272
 51
316.6582417728
  0
ARC
  5
27C
330
1F
100
AcDbEntity
  8
0
  6
Continuous
 62
     7
370
    25
100
AcDbCircle
 10
830.1164565073
 20
169.4624574096
 30
0.0
 40
2.250000000000297
100
AcDbArc
 50
300.0
 51
0.0
  0
ARC
  5
27D
330
1F
100
AcDbEntity
  8
0
  6
Continuous
 62
     7
370
    25
100
AcDbCircle
 10
832.2020207041
 20
168.2583563592
 30
0.0
 40
0.7874999999999956
100
AcDbArc
 50
103.3417582272
 51
196.6582417728
  0
ARC
  5
27E
330
1F
100
AcDbEntity
  8
0
  6
Continuous
 62
     7
370
    25
100
AcDbCircle
 10
831.0164565073
 20
167.9036116828
 30
0.0
 40
0.4500000000003276
100
AcDbArc
 50
300.0000000001
 51
16.6582417728
  0
ARC
  5
27F
330
1F
100
AcDbEntity
  8
0
  6
Continuous
 62
     7
370
    25
100
AcDbCircle
 10
831.9164565073
 20
169.4624574096
 30
0.0
 40
0.4499999999999679
100
AcDbArc
 50
283.3417582272
 51
0.0
  0
ARC
  5
280
330
1F
100
AcDbEntity
  8
0
  6
Continuous
 62
     7
370
    25
100
AcDbCircle
 10
830.1164565073
 20
169.4624574096
 30
0.0
 40
2.250000000000297
100
AcDbArc
 50
0.0
 51
60.0
  0
ARC
  5
281
330
1F
100
AcDbEntity
  8
0
  6
Continuous
 62
     7
370
    25
100
AcDbCircle
 10
832.2020207041
 20
170.66655846
 30
0.0
 40
0.787499999999997
100
AcDbArc
 50
163.3417582272
 51
256.6582417728
  0
ARC
  5
282
330
1F
100
AcDbEntity
  8
0
  6
Continuous
 62
     7
370
    25
100
AcDbCircle
 10
831.0164565073
 20
171.0213031364
 30
0.0
 40
0.4500000000003276
100
AcDbArc
 50
343.3417582272
 51
59.9999999999
  0
ARC
  5
283
330
1F
100
AcDbEntity
  8
0
  6
Continuous
 62
     7
370
    25
100
AcDbCircle
 10
831.9164565073
 20
169.4624574096
 30
0.0
 40
0.4499999999999927
100
AcDbArc
 50
0.0
 51
76.6582417728
  0
ARC
  5
284
330
1F
100
AcDbEntity
  8
0
  6
Continuous
 62
     7
370
    25
100
AcDbCircle
 10
830.1164565073
 20
169.4624574096
 30
0.0
 40
2.25000000000024
100
AcDbArc
 50
120.0
 51
180.0
  0
ARC
  5
285
330
1F
100
AcDbEntity
  8
0
  6
Continuous
 62
     7
370
    25
100
AcDbCircle
 10
830.1164565073
 20
169.4624574096
 30
0.0
 40
2.250000000000265
100
AcDbArc
 50
180.0
 51
240.0
  0
CIRCLE
  5
286
330
1F
100
AcDbEntity
  8
0
  6
Continuous
 62
     7
370
    25
100
AcDbCircle
 10
830.1164565073
 20
169.4624574096
 30
0.0
 40
3.850000000000136
  0
ARC
  5
287
330
1F
100
AcDbEntity
  8
0
  6
Continuous
 62
     7
370
    25
100
AcDbCircle
 10
828.3164565073
 20
169.4624574096
 30
0.0
 40
0.4500000000000466
100
AcDbArc
 50
180.0
 51
256.6582417728
  0
ARC
  5
288
330
1F
100
AcDbEntity
  8
0
  6
Continuous
 62
     7
370
    25
100
AcDbCircle
 10
828.0308923106
 20
168.2583563592
 30
0.0
 40
0.7875000000001059
100
AcDbArc
 50
343.3417582272
 51
76.6582417728
  0
ARC
  5
289
330
1F
100
AcDbEntity
  8
0
  6
Continuous
 62
     7
370
    25
100
AcDbCircle
 10
829.2164565073
 20
167.9036116828
 30
0.0
 40
0.4500000000003276
100
AcDbArc
 50
163.3417582272
 51
239.9999999999
  0
ARC
  5
28A
330
1F
100
AcDbEntity
  8
0
  6
Continuous
 62
     7
370
    25
100
AcDbCircle
 10
828.0308923106
 20
170.66655846
 30
0.0
 40
0.7875000000000233
100
AcDbArc
 50
283.3417582272
 51
16.6582417728
  0
ARC
  5
28B
330
1F
100
AcDbEntity
  8
0
  6
Continuous
 62
     7
370
    25
100
AcDbCircle
 10
828.3164565073
 20
169.4624574096
 30
0.0
 40
0.4499999999999665
100
AcDbArc
 50
103.3417582272
 51
180.0
  0
ARC
  5
28C
330
1F
100
AcDbEntity
  8
0
  6
Continuous
 62
     7
370
    25
100
AcDbCircle
 10
829.2164565073
 20
171.0213031364
 30
0.0
 40
0.450000000000303
100
AcDbArc
 50
120.0000000001
 51
196.6582417728
  0
ARC
  5
28D
330
1F
100
AcDbEntity
  8
0
  6
Continuous
 62
     7
370
    25
100
AcDbCircle
 10
920.1164565073
 20
184.4624574096
 30
0.0
 40
2.25000000000024
100
AcDbArc
 50
0.0
 51
60.0
  0
ARC
  5
28E
330
1F
100
AcDbEntity
  8
0
  6
Continuous
 62
     7
370
    25
100
AcDbCircle
 10
920.1164565073
 20
184.4624574096
 30
0.0
 40
2.25000000000024
100
AcDbArc
 50
60.0
 51
120.0
  0
ARC
  5
28F
330
1F
100
AcDbEntity
  8
0
  6
Continuous
 62
     7
370
    25
100
AcDbCircle
 10
920.1164565073
 20
184.4624574096
 30
0.0
 40
2.25000000000024
100
AcDbArc
 50
120.0
 51
180.0
  0
ARC
  5
290
330
1F
100
AcDbEntity
  8
0
  6
Continuous
 62
     7
370
    25
100
AcDbCircle
 10
920.1164565073
 20
184.4624574096
 30
0.0
 40
2.25000000000024
100
AcDbArc
 50
180.0
 51
240.0
  0
ARC
  5
291
330
1F
100
AcDbEntity
  8
0
  6
Continuous
 62
     7
370
    25
100
AcDbCircle
 10
920.1164565073
 20
184.4624574096
 30
0.0
 40
2.25000000000024
100
AcDbArc
 50
240.0
 51
300.0
  0
ARC
  5
292
330
1F
100
AcDbEntity
  8
0
  6
Continuous
 62
     7
370
    25
100
AcDbCircle
 10
920.1164565073
 20
184.4624574096
 30
0.0
 40
2.25000000000024
100
AcDbArc
 50
300.0
 51
0.0
  0
CIRCLE
  5
293
330
1F
100
AcDbEntity
  8
0
  6
Continuous
 62
     7
370
    25
100
AcDbCircle
 10
920.1164565073
 20
184.4624574096
 30
0.0
 40
3.849999999999909
  0
ARC
  5
294
330
1F
100
AcDbEntity
  8
0
  6
Continuous
 62
     7
370
    25
100
AcDbCircle
 10
919.2164565073
 20
182.9036116828
 30
0.0
 40
0.4500000000003276
100
AcDbArc
 50
239.9999999999
 51
316.6582417728
  0
ARC
  5
295
330
1F
100
AcDbEntity
  8
0
  6
Continuous
 62
     7
370
    25
100
AcDbCircle
 10
921.0164565073
 20
182.9036116828
 30
0.0
 40
0.450000000000303
100
AcDbArc
 50
223.3417582272
 51
300.0000000001
  0
ARC
  5
296
330
1F
100
AcDbEntity
  8
0
  6
Continuous
 62
     7
370
    25
100
AcDbCircle
 10
920.1164565073
 20
182.0542553088
 30
0.0
 40
0.7874999999997746
100
AcDbArc
 50
43.3417582272
 51
136.6582417728
  0
ARC
  5
297
330
1F
100
AcDbEntity
  8
0
  6
Continuous
 62
     7
370
    25
100
AcDbCircle
 10
922.2020207041
 20
183.2583563592
 30
0.0
 40
0.7875000000000233
100
AcDbArc
 50
103.3417582272
 51
196.6582417728
  0
ARC
  5
298
330
1F
100
AcDbEntity
  8
0
  6
Continuous
 62
     7
370
    25
100
AcDbCircle
 10
921.9164565073
 20
184.4624574096
 30
0.0
 40
0.4499999999999403
100
AcDbArc
 50
283.3417582272
 51
0.0
  0
ARC
  5
299
330
1F
100
AcDbEntity
  8
0
  6
Continuous
 62
     7
370
    25
100
AcDbCircle
 10
921.0164565073
 20
182.9036116828
 30
0.0
 40
0.450000000000303
100
AcDbArc
 50
300.0000000001
 51
16.6582417728
  0
ARC
  5
29A
330
1F
100
AcDbEntity
  8
0
  6
Continuous
 62
     7
370
    25
100
AcDbCircle
 10
921.0164565073
 20
186.0213031364
 30
0.0
 40
0.450000000000303
100
AcDbArc
 50
59.9999999999
 51
136.6582417728
  0
ARC
  5
29B
330
1F
100
AcDbEntity
  8
0
  6
Continuous
 62
     7
370
    25
100
AcDbCircle
 10
919.2164565073
 20
186.0213031364
 30
0.0
 40
0.450000000000303
100
AcDbArc
 50
43.3417582272
 51
120.0000000001
  0
ARC
  5
29C
330
1F
100
AcDbEntity
  8
0
  6
Continuous
 62
     7
370
    25
100
AcDbCircle
 10
920.1164565073
 20
186.8706595103
 30
0.0
 40
0.787499999999794
100
AcDbArc
 50
223.3417582272
 51
316.6582417728
  0
ARC
  5
29D
330
1F
100
AcDbEntity
  8
0
  6
Continuous
 62
     7
370
    25
100
AcDbCircle
 10
921.0164565073
 20
186.0213031364
 30
0.0
 40
0.450000000000303
100
AcDbArc
 50
343.3417582272
 51
59.9999999999
  0
ARC
  5
29E
330
1F
100
AcDbEntity
  8
0
  6
Continuous
 62
     7
370
    25
100
AcDbCircle
 10
922.2020207041
 20
185.66655846
 30
0.0
 40
0.7875000000001059
100
AcDbArc
 50
163.3417582272
 51
256.6582417728
  0
ARC
  5
29F
330
1F
100
AcDbEntity
  8
0
  6
Continuous
 62
     7
370
    25
100
AcDbCircle
 10
921.9164565073
 20
184.4624574096
 30
0.0
 40
0.4500000000000204
100
AcDbArc
 50
0.0
 51
76.6582417728
  0
ARC
  5
2A0
330
1F
100
AcDbEntity
  8
0
  6
Continuous
 62
     7
370
    25
100
AcDbCircle
 10
918.3164565073
 20
184.4624574096
 30
0.0
 40
0.4499999999999927
100
AcDbArc
 50
180.0
 51
256.6582417728
  0
ARC
  5
2A1
330
1F
100
AcDbEntity
  8
0
  6
Continuous
 62
     7
370
    25
100
AcDbCircle
 10
918.0308923106
 20
183.2583563592
 30
0.0
 40
0.787499999999997
100
AcDbArc
 50
343.3417582272
 51
76.6582417728
  0
ARC
  5
2A2
330
1F
100
AcDbEntity
  8
0
  6
Continuous
 62
     7
370
    25
100
AcDbCircle
 10
919.2164565073
 20
182.9036116828
 30
0.0
 40
0.4500000000003276
100
AcDbArc
 50
163.3417582272
 51
239.9999999999
  0
ARC
  5
2A3
330
1F
100
AcDbEntity
  8
0
  6
Continuous
 62
     7
370
    25
100
AcDbCircle
 10
919.2164565073
 20
186.0213031364
 30
0.0
 40
0.450000000000303
100
AcDbArc
 50
120.0000000001
 51
196.6582417728
  0
ARC
  5
2A4
330
1F
100
AcDbEntity
  8
0
  6
Continuous
 62
     7
370
    25
100
AcDbCircle
 10
918.0308923106
 20
185.66655846
 30
0.0
 40
0.7874999999999956
100
AcDbArc
 50
283.3417582272
 51
16.6582417728
  0
ARC
  5
2A5
330
1F
100
AcDbEntity
  8
0
  6
Continuous
 62
     7
370
    25
100
AcDbCircle
 10
918.3164565073
 20
184.4624574096
 30
0.0
 40
0.4499999999999679
100
AcDbArc
 50
103.3417582272
 51
180.0
  0
ARC
  5
2A6
330
1F
100
AcDbEntity
  8
0
  6
Continuous
 62
     7
370
    25
100
AcDbCircle
 10
-459.7178940803
 20
154.4624574096
 30
0.0
 40
2.25000000000024
100
AcDbArc
 50
180.0
 51
240.0
  0
ARC
  5
2A7
330
1F
100
AcDbEntity
  8
0
  6
Continuous
 62
     7
370
    25
100
AcDbCircle
 10
-459.7178940803
 20
154.4624574096
 30
0.0
 40
2.250000000000268
100
AcDbArc
 50
240.0
 51
300.0
  0
ARC
  5
2A8
330
1F
100
AcDbEntity
  8
0
  6
Continuous
 62
     7
370
    25
100
AcDbCircle
 10
-459.7178940803
 20
154.4624574096
 30
0.0
 40
2.250000000000268
100
AcDbArc
 50
300.0
 51
0.0
  0
ARC
  5
2A9
330
1F
100
AcDbEntity
  8
0
  6
Continuous
 62
     7
370
    25
100
AcDbCircle
 10
-459.7178940803
 20
154.4624574096
 30
0.0
 40
2.250000000000268
100
AcDbArc
 50
0.0
 51
60.0
  0
ARC
  5
2AA
330
1F
100
AcDbEntity
  8
0
  6
Continuous
 62
     7
370
    25
100
AcDbCircle
 10
-459.7178940803
 20
154.4624574096
 30
0.0
 40
2.250000000000268
100
AcDbArc
 50
60.0
 51
120.0
  0
ARC
  5
2AB
330
1F
100
AcDbEntity
  8
0
  6
Continuous
 62
     7
370
    25
100
AcDbCircle
 10
-459.7178940803
 20
154.4624574096
 30
0.0
 40
2.25000000000024
100
AcDbArc
 50
120.0
 51
180.0
  0
CIRCLE
  5
2AC
330
1F
100
AcDbEntity
  8
0
  6
Continuous
 62
     7
370
    25
100
AcDbCircle
 10
-459.7178940803
 20
154.4624574096
 30
0.0
 40
3.849999999999966
  0
ARC
  5
2AD
330
1F
100
AcDbEntity
  8
0
  6
Continuous
 62
     7
370
    25
100
AcDbCircle
 10
-458.8178940803
 20
156.0213031364
 30
0.0
 40
0.450000000000303
100
AcDbArc
 50
59.9999999999
 51
136.6582417728
  0
ARC
  5
2AE
330
1F
100
AcDbEntity
  8
0
  6
Continuous
 62
     7
370
    25
100
AcDbCircle
 10
-459.7178940803
 20
156.8706595103
 30
0.0
 40
0.787499999999794
100
AcDbArc
 50
223.3417582272
 51
316.6582417728
  0
ARC
  5
2AF
330
1F
100
AcDbEntity
  8
0
  6
Continuous
 62
     7
370
    25
100
AcDbCircle
 10
-460.6178940803
 20
156.0213031364
 30
0.0
 40
0.450000000000303
100
AcDbArc
 50
43.3417582272
 51
120.0000000001
  0
ARC
  5
2B0
330
1F
100
AcDbEntity
  8
0
  6
Continuous
 62
     7
370
    25
100
AcDbCircle
 10
-457.9178940803
 20
154.4624574096
 30
0.0
 40
0.4500000000000058
100
AcDbArc
 50
0.0
 51
76.6582417728
  0
ARC
  5
2B1
330
1F
100
AcDbEntity
  8
0
  6
Continuous
 62
     7
370
    25
100
AcDbCircle
 10
-457.6323298835
 20
155.66655846
 30
0.0
 40
0.7875000000000432
100
AcDbArc
 50
163.3417582272
 51
256.6582417728
  0
ARC
  5
2B2
330
1F
100
AcDbEntity
  8
0
  6
Continuous
 62
     7
370
    25
100
AcDbCircle
 10
-458.8178940803
 20
156.0213031364
 30
0.0
 40
0.450000000000303
100
AcDbArc
 50
343.3417582272
 51
59.9999999999
  0
ARC
  5
2B3
330
1F
100
AcDbEntity
  8
0
  6
Continuous
 62
     7
370
    25
100
AcDbCircle
 10
-460.6178940803
 20
152.9036116828
 30
0.0
 40
0.450000000000303
100
AcDbArc
 50
239.9999999999
 51
316.6582417728
  0
ARC
  5
2B4
330
1F
100
AcDbEntity
  8
0
  6
Continuous
 62
     7
370
    25
100
AcDbCircle
 10
-458.8178940803
 20
152.9036116828
 30
0.0
 40
0.450000000000303
100
AcDbArc
 50
223.3417582272
 51
300.0000000001
  0
ARC
  5
2B5
330
1F
100
AcDbEntity
  8
0
  6
Continuous
 62
     7
370
    25
100
AcDbCircle
 10
-459.7178940803
 20
152.0542553088
 30
0.0
 40
0.787499999999794
100
AcDbArc
 50
43.3417582272
 51
136.6582417728
  0
ARC
  5
2B6
330
1F
100
AcDbEntity
  8
0
  6
Continuous
 62
     7
370
    25
100
AcDbCircle
 10
-461.5178940803
 20
154.4624574096
 30
0.0
 40
0.4499999999999534
100
AcDbArc
 50
103.3417582272
 51
180.0
  0
ARC
  5
2B7
330
1F
100
AcDbEntity
  8
0
  6
Continuous
 62
     7
370
    25
100
AcDbCircle
 10
-461.803458277
 20
155.66655846
 30
0.0
 40
0.7875000000000233
100
AcDbArc
 50
283.3417582272
 51
16.6582417728
  0
ARC
  5
2B8
330
1F
100
AcDbEntity
  8
0
  6
Continuous
 62
     7
370
    25
100
AcDbCircle
 10
-460.6178940803
 20
156.0213031364
 30
0.0
 40
0.450000000000303
100
AcDbArc
 50
120.0000000001
 51
196.6582417728
  0
ARC
  5
2B9
330
1F
100
AcDbEntity
  8
0
  6
Continuous
 62
     7
370
    25
100
AcDbCircle
 10
-461.5178940803
 20
154.4624574096
 30
0.0
 40
0.4500000000000335
100
AcDbArc
 50
180.0
 51
256.6582417728
  0
ARC
  5
2BA
330
1F
100
AcDbEntity
  8
0
  6
Continuous
 62
     7
370
    25
100
AcDbCircle
 10
-460.6178940803
 20
152.9036116828
 30
0.0
 40
0.450000000000303
100
AcDbArc
 50
163.3417582272
 51
239.9999999999
  0
ARC
  5
2BB
330
1F
100
AcDbEntity
  8
0
  6
Continuous
 62
     7
370
    25
100
AcDbCircle
 10
-461.803458277
 20
153.2583563592
 30
0.0
 40
0.7875000000000514
100
AcDbArc
 50
343.3417582272
 51
76.6582417728
  0
ARC
  5
2BC
330
1F
100
AcDbEntity
  8
0
  6
Continuous
 62
     7
370
    25
100
AcDbCircle
 10
-457.6323298835
 20
153.2583563592
 30
0.0
 40
0.7874999999999956
100
AcDbArc
 50
103.3417582272
 51
196.6582417728
  0
ARC
  5
2BD
330
1F
100
AcDbEntity
  8
0
  6
Continuous
 62
     7
370
    25
100
AcDbCircle
 10
-457.9178940803
 20
154.4624574096
 30
0.0
 40
0.449999999999981
100
AcDbArc
 50
283.3417582272
 51
0.0
  0
ARC
  5
2BE
330
1F
100
AcDbEntity
  8
0
  6
Continuous
 62
     7
370
    25
100
AcDbCircle
 10
-458.8178940803
 20
152.9036116828
 30
0.0
 40
0.450000000000303
100
AcDbArc
 50
300.0000000001
 51
16.6582417728
  0
LINE
  5
2BF
330
1F
100
AcDbEntity
  8
0
  6
Continuous
 62
     7
370
    25
100
AcDbLine
 10
-173.1983443705
 20
122.4624574096
 30
0.0
 11
-173.1983443705
 21
131.4624574096
 31
0.0
  0
LINE
  5
2C0
330
1F
100
AcDbEntity
  8
0
  6
Continuous
 62
     7
370
    25
100
AcDbLine
 10
-257.6577089539
 20
134.4624574096
 30
0.0
 11
-175.8670943705
 21
134.4624574096
 31
0.0
  0
ARC
  5
2C1
330
1F
100
AcDbEntity
  8
0
  6
Continuous
 62
     7
370
    25
100
AcDbCircle
 10
-176.0429982054
 20
131.6189385294
 30
0.0
 40
2.848954506697291
100
AcDbArc
 50
356.8513986899
 51
86.4601182795
  0
LINE
  5
2C2
330
1F
100
AcDbEntity
  8
0
  6
Continuous
 62
     7
370
    25
100
AcDbLine
 10
-175.8670943705
 20
119.4624574096
 30
0.0
 11
-257.6577089539
 21
119.4624574096
 31
0.0
  0
ARC
  5
2C3
330
1F
100
AcDbEntity
  8
0
  6
Continuous
 62
     7
370
    25
100
AcDbCircle
 10
-176.0429982054
 20
122.3059762898
 30
0.0
 40
2.848954506697775
100
AcDbArc
 50
273.5398817205
 51
3.1486013101
  0
LINE
  5
2C4
330
1F
100
AcDbEntity
  8
0
  6
Continuous
 62
     7
370
    25
100
AcDbLine
 10
-173.1983443705
 20
122.4624574096
 30
0.0
 11
31.1755596058
 21
122.4624574096
 31
0.0
  0
ARC
  5
2C5
330
1F
100
AcDbEntity
  8
0
  6
Continuous
 62
     7
370
    25
100
AcDbCircle
 10
28.3309057709
 20
122.3059762898
 30
0.0
 40
2.848954506697537
100
AcDbArc
 50
273.5398817205
 51
3.1486013101
  0
LINE
  5
2C6
330
1F
100
AcDbEntity
  8
0
  6
Continuous
 62
     7
370
    25
100
AcDbLine
 10
28.5068096058
 20
119.4624574096
 30
0.0
 11
-23.125767858
 21
119.4624574096
 31
0.0
  0
LINE
  5
2C7
330
1F
100
AcDbEntity
  8
0
  6
Continuous
 62
     7
370
    25
100
AcDbLine
 10
-32.8152524349
 20
119.4624574096
 30
0.0
 11
-175.8670943705
 21
119.4624574096
 31
0.0
  0
LINE
  5
2C8
330
1F
100
AcDbEntity
  8
0
  6
Continuous
 62
     7
370
    25
100
AcDbLine
 10
31.1755596058
 20
131.4624574096
 30
0.0
 11
-173.1983443705
 21
131.4624574096
 31
0.0
  0
LINE
  5
2C9
330
1F
100
AcDbEntity
  8
0
  6
Continuous
 62
     7
370
    25
100
AcDbLine
 10
31.1755596058
 20
122.4624574096
 30
0.0
 11
31.1755596058
 21
131.4624574096
 31
0.0
  0
ARC
  5
2CA
330
1F
100
AcDbEntity
  8
0
  6
Continuous
 62
     7
370
    25
100
AcDbCircle
 10
28.3309057709
 20
131.6189385294
 30
0.0
 40
2.848954506697576
100
AcDbArc
 50
356.8513986899
 51
86.4601182795
  0
LINE
  5
2CB
330
1F
100
AcDbEntity
  8
0
  6
Continuous
 62
     7
370
    25
100
AcDbLine
 10
-175.8670943705
 20
134.4624574096
 30
0.0
 11
-53.4641655014
 21
134.4624574096
 31
0.0
  0
LINE
  5
2CC
330
1F
100
AcDbEntity
  8
0
  6
Continuous
 62
     7
370
    25
100
AcDbLine
 10
33.2861950224
 20
119.4624574096
 30
0.0
 11
28.5068096058
 21
119.4624574096
 31
0.0
  0
LINE
  5
2CD
330
1F
100
AcDbEntity
  8
0
  6
Continuous
 62
     7
370
    25
100
AcDbLine
 10
718.0562713809
 20
204.4624574096
 30
0.0
 11
636.2656567976
 21
204.4624574096
 31
0.0
  0
ARC
  5
2CE
330
1F
100
AcDbEntity
  8
0
  6
Continuous
 62
     7
370
    25
100
AcDbCircle
 10
636.4415606325
 20
207.3059762898
 30
0.0
 40
2.848954506697616
100
AcDbArc
 50
176.8513986899
 51
266.4601182795
  0
LINE
  5
2CF
330
1F
100
AcDbEntity
  8
0
  6
Continuous
 62
     7
370
    25
100
AcDbLine
 10
633.5969067976
 20
216.4624574096
 30
0.0
 11
633.5969067976
 21
207.4624574096
 31
0.0
  0
LINE
  5
2D0
330
1F
100
AcDbEntity
  8
0
  6
Continuous
 62
     7
370
    25
100
AcDbLine
 10
636.2656567976
 20
219.4624574096
 30
0.0
 11
718.0562713809
 21
219.4624574096
 31
0.0
  0
ARC
  5
2D1
330
1F
100
AcDbEntity
  8
0
  6
Continuous
 62
     7
370
    25
100
AcDbCircle
 10
636.4415606325
 20
216.6189385294
 30
0.0
 40
2.848954506697832
100
AcDbArc
 50
93.5398817205
 51
183.1486013101
  0
LINE
  5
2D2
330
1F
100
AcDbEntity
  8
0
  6
Continuous
 62
     7
370
    25
100
AcDbLine
 10
633.5969067976
 20
216.4624574096
 30
0.0
 11
429.2230028213
 21
216.4624574096
 31
0.0
  0
ARC
  5
2D3
330
1F
100
AcDbEntity
  8
0
  6
Continuous
 62
     7
370
    25
100
AcDbCircle
 10
432.0676566562
 20
216.6189385294
 30
0.0
 40
2.848954506697519
100
AcDbArc
 50
93.5398817205
 51
183.1486013101
  0
LINE
  5
2D4
330
1F
100
AcDbEntity
  8
0
  6
Continuous
 62
     7
370
    25
100
AcDbLine
 10
431.8917528213
 20
219.4624574096
 30
0.0
 11
483.524330285
 21
219.4624574096
 31
0.0
  0
LINE
  5
2D5
330
1F
100
AcDbEntity
  8
0
  6
Continuous
 62
     7
370
    25
100
AcDbLine
 10
493.2138148619
 20
219.4624574096
 30
0.0
 11
636.2656567976
 21
219.4624574096
 31
0.0
  0
LINE
  5
2D6
330
1F
100
AcDbEntity
  8
0
  6
Continuous
 62
     7
370
    25
100
AcDbLine
 10
429.2230028213
 20
207.4624574096
 30
0.0
 11
633.5969067976
 21
207.4624574096
 31
0.0
  0
LINE
  5
2D7
330
1F
100
AcDbEntity
  8
0
  6
Continuous
 62
     7
370
    25
100
AcDbLine
 10
429.2230028213
 20
216.4624574096
 30
0.0
 11
429.2230028213
 21
207.4624574096
 31
0.0
  0
ARC
  5
2D8
330
1F
100
AcDbEntity
  8
0
  6
Continuous
 62
     7
370
    25
100
AcDbCircle
 10
432.0676566562
 20
207.3059762898
 30
0.0
 40
2.848954506697617
100
AcDbArc
 50
176.8513986899
 51
266.4601182795
  0
LINE
  5
2D9
330
1F
100
AcDbEntity
  8
0
  6
Continuous
 62
     7
370
    25
100
AcDbLine
 10
636.2656567976
 20
204.4624574096
 30
0.0
 11
513.8627279285
 21
204.4624574096
 31
0.0
  0
LINE
  5
2DA
330
1F
100
AcDbEntity
  8
0
  6
Continuous
 62
     7
370
    25
100
AcDbLine
 10
427.1123674046
 20
219.4624574096
 30
0.0
 11
431.8917528213
 21
219.4624574096
 31
0.0
  0
LINE
  5
2DB
330
1F
100
AcDbEntity
  8
0
  6
Continuous
 62
     7
370
    25
100
AcDbLine
 10
633.5969067976
 20
131.4624574096
 30
0.0
 11
633.5969067976
 21
122.4624574096
 31
0.0
  0
LINE
  5
2DC
330
1F
100
AcDbEntity
  8
0
  6
Continuous
 62
     7
370
    25
100
AcDbLine
 10
718.0562713809
 20
119.4624574096
 30
0.0
 11
636.2656567976
 21
119.4624574096
 31
0.0
  0
ARC
  5
2DD
330
1F
100
AcDbEntity
  8
0
  6
Continuous
 62
     7
370
    25
100
AcDbCircle
 10
636.4415606325
 20
122.3059762898
 30
0.0
 40
2.848954506697616
100
AcDbArc
 50
176.8513986899
 51
266.4601182795
  0
LINE
  5
2DE
330
1F
100
AcDbEntity
  8
0
  6
Continuous
 62
     7
370
    25
100
AcDbLine
 10
636.2656567976
 20
134.4624574096
 30
0.0
 11
718.0562713809
 21
134.4624574096
 31
0.0
  0
ARC
  5
2DF
330
1F
100
AcDbEntity
  8
0
  6
Continuous
 62
     7
370
    25
100
AcDbCircle
 10
636.4415606325
 20
131.6189385294
 30
0.0
 40
2.848954506697829
100
AcDbArc
 50
93.5398817205
 51
183.1486013101
  0
LINE
  5
2E0
330
1F
100
AcDbEntity
  8
0
  6
Continuous
 62
     7
370
    25
100
AcDbLine
 10
633.5969067976
 20
131.4624574096
 30
0.0
 11
429.2230028213
 21
131.4624574096
 31
0.0
  0
LINE
  5
2E1
330
1F
100
AcDbEntity
  8
0
  6
Continuous
 62
     7
370
    25
100
AcDbLine
 10
429.2230028213
 20
122.4624574096
 30
0.0
 11
633.5969067976
 21
122.4624574096
 31
0.0
  0
LINE
  5
2E2
330
1F
100
AcDbEntity
  8
0
  6
Continuous
 62
     7
370
    25
100
AcDbLine
 10
429.2230028213
 20
131.4624574096
 30
0.0
 11
429.2230028213
 21
122.4624574096
 31
0.0
  0
ARC
  5
2E3
330
1F
100
AcDbEntity
  8
0
  6
Continuous
 62
     7
370
    25
100
AcDbCircle
 10
432.0676566562
 20
131.6189385294
 30
0.0
 40
2.848954506697515
100
AcDbArc
 50
93.5398817205
 51
183.1486013101
  0
LINE
  5
2E4
330
1F
100
AcDbEntity
  8
0
  6
Continuous
 62
     7
370
    25
100
AcDbLine
 10
513.8627279285
 20
134.4624574096
 30
0.0
 11
636.2656567976
 21
134.4624574096
 31
0.0
  0
ARC
  5
2E5
330
1F
100
AcDbEntity
  8
0
  6
Continuous
 62
     7
370
    25
100
AcDbCircle
 10
432.0676566562
 20
122.3059762898
 30
0.0
 40
2.848954506697596
100
AcDbArc
 50
176.8513986899
 51
266.4601182795
  0
LINE
  5
2E6
330
1F
100
AcDbEntity
  8
0
  6
Continuous
 62
     7
370
    25
100
AcDbLine
 10
636.2656567976
 20
119.4624574096
 30
0.0
 11
493.2138148619
 21
119.4624574096
 31
0.0
  0
LINE
  5
2E7
330
1F
100
AcDbEntity
  8
0
  6
Continuous
 62
     7
370
    25
100
AcDbLine
 10
483.524330285
 20
119.4624574096
 30
0.0
 11
431.8917528213
 21
119.4624574096
 31
0.0
  0
LINE
  5
2E8
330
1F
100
AcDbEntity
  8
0
  6
Continuous
 62
     7
370
    25
100
AcDbLine
 10
431.8917528213
 20
119.4624574096
 30
0.0
 11
427.1123674046
 21
119.4624574096
 31
0.0
  0
LINE
  5
2E9
330
1F
100
AcDbEntity
  8
0
  6
Continuous
 62
     7
370
    25
100
AcDbLine
 10
-257.6577089539
 20
219.4624574096
 30
0.0
 11
-175.8670943705
 21
219.4624574096
 31
0.0
  0
ARC
  5
2EA
330
1F
100
AcDbEntity
  8
0
  6
Continuous
 62
     7
370
    25
100
AcDbCircle
 10
-176.0429982054
 20
216.6189385294
 30
0.0
 40
2.848954506697427
100
AcDbArc
 50
356.8513986899
 51
86.4601182795
  0
LINE
  5
2EB
330
1F
100
AcDbEntity
  8
0
  6
Continuous
 62
     7
370
    25
100
AcDbLine
 10
-173.1983443705
 20
207.4624574096
 30
0.0
 11
-173.1983443705
 21
216.4624574096
 31
0.0
  0
LINE
  5
2EC
330
1F
100
AcDbEntity
  8
0
  6
Continuous
 62
     7
370
    25
100
AcDbLine
 10
-175.8670943705
 20
204.4624574096
 30
0.0
 11
-257.6577089539
 21
204.4624574096
 31
0.0
  0
ARC
  5
2ED
330
1F
100
AcDbEntity
  8
0
  6
Continuous
 62
     7
370
    25
100
AcDbCircle
 10
-176.0429982054
 20
207.3059762898
 30
0.0
 40
2.848954506697723
100
AcDbArc
 50
273.5398817205
 51
3.1486013101
  0
LINE
  5
2EE
330
1F
100
AcDbEntity
  8
0
  6
Continuous
 62
     7
370
    25
100
AcDbLine
 10
-173.1983443705
 20
207.4624574096
 30
0.0
 11
31.1755596058
 21
207.4624574096
 31
0.0
  0
LINE
  5
2EF
330
1F
100
AcDbEntity
  8
0
  6
Continuous
 62
     7
370
    25
100
AcDbLine
 10
31.1755596058
 20
216.4624574096
 30
0.0
 11
-173.1983443705
 21
216.4624574096
 31
0.0
  0
LINE
  5
2F0
330
1F
100
AcDbEntity
  8
0
  6
Continuous
 62
     7
370
    25
100
AcDbLine
 10
31.1755596058
 20
207.4624574096
 30
0.0
 11
31.1755596058
 21
216.4624574096
 31
0.0
  0
ARC
  5
2F1
330
1F
100
AcDbEntity
  8
0
  6
Continuous
 62
     7
370
    25
100
AcDbCircle
 10
28.3309057709
 20
207.3059762898
 30
0.0
 40
2.848954506697608
100
AcDbArc
 50
273.5398817205
 51
3.1486013101
  0
LINE
  5
2F2
330
1F
100
AcDbEntity
  8
0
  6
Continuous
 62
     7
370
    25
100
AcDbLine
 10
-53.4641655014
 20
204.4624574096
 30
0.0
 11
-175.8670943705
 21
204.4624574096
 31
0.0
  0
ARC
  5
2F3
330
1F
100
AcDbEntity
  8
0
  6
Continuous
 62
     7
370
    25
100
AcDbCircle
 10
28.3309057709
 20
216.6189385294
 30
0.0
 40
2.848954506697537
100
AcDbArc
 50
356.8513986899
 51
86.4601182795
  0
LINE
  5
2F4
330
1F
100
AcDbEntity
  8
0
  6
Continuous
 62
     7
370
    25
100
AcDbLine
 10
-175.8670943705
 20
219.4624574096
 30
0.0
 11
-32.8152524349
 21
219.4624574096
 31
0.0
  0
LINE
  5
2F5
330
1F
100
AcDbEntity
  8
0
  6
Continuous
 62
     7
370
    25
100
AcDbLine
 10
-23.125767858
 20
219.4624574096
 30
0.0
 11
28.5068096058
 21
219.4624574096
 31
0.0
  0
LINE
  5
2F6
330
1F
100
AcDbEntity
  8
0
  6
Continuous
 62
     7
370
    25
100
AcDbLine
 10
28.5068096058
 20
219.4624574096
 30
0.0
 11
33.2861950224
 21
219.4624574096
 31
0.0
  0
CIRCLE
  5
2F7
330
1F
100
AcDbEntity
  8
0
  6
Continuous
 62
     7
370
    25
100
AcDbCircle
 10
120.1992812135
 20
169.4624574096
 30
0.0
 40
14.0
  0
CIRCLE
  5
2F8
330
1F
100
AcDbEntity
  8
0
  6
Continuous
 62
     7
370
    25
100
AcDbCircle
 10
120.1992812135
 20
169.4624574096
 30
0.0
 40
17.0
  0
CIRCLE
  5
2F9
330
1F
100
AcDbEntity
  8
0
  6
Continuous
 62
     7
370
    25
100
AcDbCircle
 10
340.1992812135
 20
169.4624574096
 30
0.0
 40
14.0
  0
CIRCLE
  5
2FA
330
1F
100
AcDbEntity
  8
0
  6
Continuous
 62
     7
370
    25
100
AcDbCircle
 10
340.1992812135
 20
169.4624574096
 30
0.0
 40
17.0
  0
CIRCLE
  5
2FB
330
1F
100
AcDbEntity
  8
0
  6
Continuous
 62
     7
370
    25
100
AcDbCircle
 10
160.1992812135
 20
169.4624574096
 30
0.0
 40
14.0
  0
CIRCLE
  5
2FC
330
1F
100
AcDbEntity
  8
0
  6
Continuous
 62
     7
370
    25
100
AcDbCircle
 10
160.1992812135
 20
169.4624574096
 30
0.0
 40
17.0
  0
CIRCLE
  5
2FD
330
1F
100
AcDbEntity
  8
0
  6
Continuous
 62
     7
370
    25
100
AcDbCircle
 10
300.1992812135
 20
169.4624574096
 30
0.0
 40
13.99999999999994
  0
CIRCLE
  5
2FE
330
1F
100
AcDbEntity
  8
0
  6
Continuous
 62
     7
370
    25
100
AcDbCircle
 10
300.1992812135
 20
169.4624574096
 30
0.0
 40
16.99999999999994
  0
ARC
  5
2FF
330
1F
100
AcDbEntity
  8
0
  6
Continuous
 62
     7
370
    25
100
AcDbCircle
 10
770.1164924744
 20
344.4623956614
 30
0.0
 40
124.9999307039028
100
AcDbArc
 50
277.9281298636
 51
319.8727244278
  0
LWPOLYLINE
  5
300
330
1F
100
AcDbEntity
  8
0
  6
Continuous
 62
     7
370
    25
100
AcDbPolyline
 90
        7
 70
   128
 43
0.0
 10
865.6932745073
 20
263.9014782621
 10
865.8231025047
 20
263.7931096946
 10
866.1979542696
 20
263.480229594
 10
866.7755852037
 20
262.9981293667
 10
867.4908964821
 20
262.4011781486
 10
867.9112371186
 20
262.050420688
 10
867.9965635781
 20
261.9792219777
  0
ARC
  5
301
330
1F
100
AcDbEntity
  8
0
  6
Continuous
 62
     7
370
    25
100
AcDbCircle
 10
770.1164924744
 20
344.4623956614
 30
0.0
 40
127.9999307039028
100
AcDbArc
 50
277.928130342
 51
319.8792848399
  0
LINE
  5
302
330
1F
100
AcDbEntity
  8
0
  6
Continuous
 62
     7
370
    25
100
AcDbLine
 10
787.3578365073
 20
220.6572312621
 30
0.0
 11
787.7716300522
 21
217.6859058168
 31
0.0
  0
ARC
  5
303
330
1F
100
AcDbEntity
  8
0
  6
Continuous
 62
     7
370
    25
100
AcDbCircle
 10
914.6171482061
 20
223.46066175
 30
0.0
 40
63.47444413198315
100
AcDbArc
 50
67.7246621443
 51
140.422626138
  0
LWPOLYLINE
  5
304
330
1F
100
AcDbEntity
  8
0
  6
Continuous
 62
     7
370
    25
100
AcDbPolyline
 90
        7
 70
   128
 43
0.0
 10
938.6776365073
 20
282.1981962621
 10
938.6090469712
 20
282.0436597609
 10
938.4110465502
 20
281.5975076548
 10
938.1059653543
 20
280.9099390841
 10
937.7281228218
 20
280.0581576715
 10
937.4786551742
 20
279.49563263
 10
937.4605284185
 20
279.4547540593
  0
ARC
  5
305
330
1F
100
AcDbEntity
  8
0
  6
Continuous
 62
     7
370
    25
100
AcDbCircle
 10
914.6171482061
 20
223.46066175
 30
0.0
 40
60.47444413198313
100
AcDbArc
 50
67.8064786741
 51
140.4360199895
  0
ARC
  5
306
330
1F
100
AcDbEntity
  8
0
  6
Continuous
 62
     7
370
    25
100
AcDbCircle
 10
914.6171488855
 20
115.4642532743
 30
0.0
 40
60.47444433711906
100
AcDbArc
 50
219.5639792539
 51
292.1935205693
  0
LWPOLYLINE
  5
307
330
1F
100
AcDbEntity
  8
0
  6
Continuous
 62
     7
370
    25
100
AcDbPolyline
 90
        7
 70
   128
 43
0.0
 10
938.6776365073
 20
56.7267182621
 10
938.6090469723
 20
56.8812547638
 10
938.4110465541
 20
57.3274068712
 10
938.1059653627
 20
58.0149754437
 10
937.7281228357
 20
58.8667568588
 10
937.4786551894
 20
59.4292819071
 10
937.4605284361
 20
59.4701604734
  0
ARC
  5
308
330
1F
100
AcDbEntity
  8
0
  6
Continuous
 62
     7
370
    25
100
AcDbCircle
 10
914.6171488855
 20
115.4642532743
 30
0.0
 40
63.47444433711906
100
AcDbArc
 50
219.5773731234
 51
292.2753371171
  0
LWPOLYLINE
  5
309
330
1F
100
AcDbEntity
  8
0
  6
Continuous
 62
     7
370
    25
100
AcDbPolyline
 90
        7
 70
   128
 43
0.0
 10
867.9965635908
 20
76.9456935316
 10
867.9112371881
 20
76.8744948696
 10
867.4908964919
 20
76.5237373639
 10
866.7755852096
 20
75.9267861506
 10
866.1979542724
 20
75.444685927
 10
865.8231025054
 20
75.1318058289
 10
865.6932745073
 20
75.0234372621
  0
ARC
  5
30A
330
1F
100
AcDbEntity
  8
0
  6
Continuous
 62
     7
370
    25
100
AcDbCircle
 10
770.1164924744
 20
-5.5374801371
 30
0.0
 40
127.9999307039033
100
AcDbArc
 50
40.1207151513
 51
82.0718701364
  0
ARC
  5
30B
330
1F
100
AcDbEntity
  8
0
  6
Continuous
 62
     7
370
    25
100
AcDbCircle
 10
770.1164924744
 20
-5.5374801371
 30
0.0
 40
124.9999307039031
100
AcDbArc
 50
40.1272755722
 51
82.0718701364
  0
LINE
  5
30C
330
1F
100
AcDbEntity
  8
0
  6
Continuous
 62
     7
370
    25
100
AcDbLine
 10
787.7716289935
 20
121.2390098549
 30
0.0
 11
787.3578365073
 21
118.2676842621
 31
0.0
  0
ARC
  5
30D
330
1F
100
AcDbEntity
  8
0
  6
Continuous
 62
     7
370
    25
100
AcDbCircle
 10
884.68086838
 20
169.4624572621
 30
0.0
 40
124.9999912642761
100
AcDbArc
 50
295.5929116477
 51
64.4070883523
  0
ARC
  5
30E
330
1F
100
AcDbEntity
  8
0
  6
Continuous
 62
     7
370
    25
100
AcDbCircle
 10
884.68086838
 20
169.4624572621
 30
0.0
 40
121.9999912642761
100
AcDbArc
 50
295.6339596125
 51
64.3660403967
  0
CIRCLE
  5
30F
330
1F
100
AcDbEntity
  8
0
  6
Continuous
 62
     7
370
    25
100
AcDbCircle
 10
830.1164565073
 20
169.4624574096
 30
0.0
 40
4.700000000000017
  0
ARC
  5
310
330
1F
100
AcDbEntity
  8
0
  6
Continuous
 62
     7
370
    25
100
AcDbCircle
 10
790.1164607206
 20
138.0765247376
 30
0.0
 40
17.00000421330677
100
AcDbArc
 50
180.0000099564
 51
262.0718461204
  0
ARC
  5
311
330
1F
100
AcDbEntity
  8
0
  6
Continuous
 62
     7
370
    25
100
AcDbCircle
 10
790.1164607206
 20
138.0765247376
 30
0.0
 40
20.00000421330693
100
AcDbArc
 50
180.0000099564
 51
262.0718497228
  0
LINE
  5
312
330
1F
100
AcDbEntity
  8
0
  6
Continuous
 62
     7
370
    25
100
AcDbLine
 10
773.1164565073
 20
138.0765217835
 30
0.0
 11
770.1164565073
 21
138.0765212621
 31
0.0
  0
LINE
  5
313
330
1F
100
AcDbEntity
  8
0
  6
Continuous
 62
     7
370
    25
100
AcDbLine
 10
773.1164565073
 20
200.8483942621
 30
0.0
 11
773.1164565073
 21
138.0765217835
 31
0.0
  0
LINE
  5
314
330
1F
100
AcDbEntity
  8
0
  6
Continuous
 62
     7
370
    25
100
AcDbLine
 10
770.1164565073
 20
138.0765212621
 30
0.0
 11
770.1164565073
 21
200.8483942621
 31
0.0
  0
LINE
  5
315
330
1F
100
AcDbEntity
  8
0
  6
Continuous
 62
     7
370
    25
100
AcDbLine
 10
773.1164565073
 20
200.8483942621
 30
0.0
 11
770.1164565073
 21
200.8483942621
 31
0.0
  0
CIRCLE
  5
316
330
1F
100
AcDbEntity
  8
0
  6
Continuous
 62
     7
370
    25
100
AcDbCircle
 10
920.1164565073
 20
154.4624574096
 30
0.0
 40
4.699999999999989
  0
ARC
  5
317
330
1F
100
AcDbEntity
  8
0
  6
Continuous
 62
     7
370
    25
100
AcDbCircle
 10
790.1164607206
 20
200.8483907867
 30
0.0
 40
17.00000421330687
100
AcDbArc
 50
97.9281502772
 51
179.9999882865
  0
ARC
  5
318
330
1F
100
AcDbEntity
  8
0
  6
Continuous
 62
     7
370
    25
100
AcDbCircle
 10
790.1164607206
 20
200.8483907867
 30
0.0
 40
20.0000042133067
100
AcDbArc
 50
97.9281502772
 51
179.9999900436
  0
CIRCLE
  5
319
330
1F
100
AcDbEntity
  8
0
  6
Continuous
 62
     7
370
    25
100
AcDbCircle
 10
920.1164565073
 20
184.4624574096
 30
0.0
 40
4.699999999999989
  0
ARC
  5
31A
330
1F
100
AcDbEntity
  8
0
  6
Continuous
 62
     7
370
    25
100
AcDbCircle
 10
-454.218585779
 20
115.4642530692
 30
0.0
 40
63.47444413198316
100
AcDbArc
 50
247.7246621443
 51
320.422626138
  0
LWPOLYLINE
  5
31B
330
1F
100
AcDbEntity
  8
0
  6
Continuous
 62
     7
370
    25
100
AcDbPolyline
 90
        7
 70
   128
 43
0.0
 10
-478.2790740803
 20
56.726718557
 10
-478.2104845442
 20
56.8812550582
 10
-478.0124841231
 20
57.3274071644
 10
-477.7074029272
 20
58.0149757351
 10
-477.3295603947
 20
58.8667571476
 10
-477.0800927471
 20
59.4292821892
 10
-477.0619659915
 20
59.4701607599
  0
ARC
  5
31C
330
1F
100
AcDbEntity
  8
0
  6
Continuous
 62
     7
370
    25
100
AcDbCircle
 10
-454.218585779
 20
115.4642530692
 30
0.0
 40
60.47444413198314
100
AcDbArc
 50
247.8064786741
 51
320.4360199895
  0
LWPOLYLINE
  5
31D
330
1F
100
AcDbEntity
  8
0
  6
Continuous
 62
     7
370
    25
100
AcDbPolyline
 90
        7
 70
   128
 43
0.0
 10
-405.2947120803
 20
75.023436557
 10
-405.4245400777
 20
75.1318051246
 10
-405.7993918426
 20
75.4446852252
 10
-406.3770227766
 20
75.9267854525
 10
-407.092334055
 20
76.5237366705
 10
-407.5126746915
 20
76.8744941311
 10
-407.598001151
 20
76.9456928415
  0
ARC
  5
31E
330
1F
100
AcDbEntity
  8
0
  6
Continuous
 62
     7
370
    25
100
AcDbCircle
 10
-309.7179300473
 20
-5.5374808422
 30
0.0
 40
124.9999307039029
100
AcDbArc
 50
97.9281298636
 51
139.8727244278
  0
ARC
  5
31F
330
1F
100
AcDbEntity
  8
0
  6
Continuous
 62
     7
370
    25
100
AcDbCircle
 10
-309.7179300473
 20
-5.5374808422
 30
0.0
 40
127.9999307039029
100
AcDbArc
 50
97.928130342
 51
139.8792848399
  0
LINE
  5
320
330
1F
100
AcDbEntity
  8
0
  6
Continuous
 62
     7
370
    25
100
AcDbLine
 10
-326.9592740803
 20
118.267683557
 30
0.0
 11
-327.3730676251
 21
121.2390090024
 31
0.0
  0
ARC
  5
321
330
1F
100
AcDbEntity
  8
0
  6
Continuous
 62
     7
370
    25
100
AcDbCircle
 10
-454.2185864585
 20
223.4606615448
 30
0.0
 40
60.47444433711905
100
AcDbArc
 50
39.5639792539
 51
112.1935205693
  0
LWPOLYLINE
  5
322
330
1F
100
AcDbEntity
  8
0
  6
Continuous
 62
     7
370
    25
100
AcDbPolyline
 90
        7
 70
   128
 43
0.0
 10
-478.2790740803
 20
282.198196557
 10
-478.2104845452
 20
282.0436600553
 10
-478.0124841271
 20
281.597507948
 10
-477.7074029356
 20
280.9099393754
 10
-477.3295604086
 20
280.0581579603
 10
-477.0800927624
 20
279.495632912
 10
-477.061966009
 20
279.4547543457
  0
ARC
  5
323
330
1F
100
AcDbEntity
  8
0
  6
Continuous
 62
     7
370
    25
100
AcDbCircle
 10
-454.2185864585
 20
223.4606615448
 30
0.0
 40
63.47444433711905
100
AcDbArc
 50
39.5773731234
 51
112.2753371171
  0
LWPOLYLINE
  5
324
330
1F
100
AcDbEntity
  8
0
  6
Continuous
 62
     7
370
    25
100
AcDbPolyline
 90
        7
 70
   128
 43
0.0
 10
-407.5980011637
 20
261.9792212876
 10
-407.512674761
 20
262.0504199495
 10
-407.0923340648
 20
262.4011774552
 10
-406.3770227825
 20
262.9981286686
 10
-405.7993918453
 20
263.4802288921
 10
-405.4245400784
 20
263.7931089903
 10
-405.2947120803
 20
263.901477557
  0
ARC
  5
325
330
1F
100
AcDbEntity
  8
0
  6
Continuous
 62
     7
370
    25
100
AcDbCircle
 10
-309.7179300473
 20
344.4623949562
 30
0.0
 40
127.9999307039032
100
AcDbArc
 50
220.1207151513
 51
262.0718701364
  0
ARC
  5
326
330
1F
100
AcDbEntity
  8
0
  6
Continuous
 62
     7
370
    25
100
AcDbCircle
 10
-309.7179300473
 20
344.4623949562
 30
0.0
 40
124.999930703903
100
AcDbArc
 50
220.1272755722
 51
262.0718701364
  0
LINE
  5
327
330
1F
100
AcDbEntity
  8
0
  6
Continuous
 62
     7
370
    25
100
AcDbLine
 10
-327.3730665665
 20
217.6859049642
 30
0.0
 11
-326.9592740803
 21
220.657230557
 31
0.0
  0
ARC
  5
328
330
1F
100
AcDbEntity
  8
0
  6
Continuous
 62
     7
370
    25
100
AcDbCircle
 10
-424.282305953
 20
169.462457557
 30
0.0
 40
124.9999912642761
100
AcDbArc
 50
115.5929116477
 51
244.4070883523
  0
ARC
  5
329
330
1F
100
AcDbEntity
  8
0
  6
Continuous
 62
     7
370
    25
100
AcDbCircle
 10
-424.282305953
 20
169.462457557
 30
0.0
 40
121.9999912642761
100
AcDbArc
 50
115.6339596125
 51
244.3660403967
  0
ARC
  5
32A
330
1F
100
AcDbEntity
  8
0
  6
Continuous
 62
     7
370
    25
100
AcDbCircle
 10
-329.7178982936
 20
200.8483900815
 30
0.0
 40
17.00000421330677
100
AcDbArc
 50
0.0000099564
 51
82.0718461204
  0
ARC
  5
32B
330
1F
100
AcDbEntity
  8
0
  6
Continuous
 62
     7
370
    25
100
AcDbCircle
 10
-329.7178982936
 20
200.8483900815
 30
0.0
 40
20.00000421330681
100
AcDbArc
 50
0.0000099564
 51
82.0718497228
  0
LINE
  5
32C
330
1F
100
AcDbEntity
  8
0
  6
Continuous
 62
     7
370
    25
100
AcDbLine
 10
-312.7178940803
 20
200.8483930357
 30
0.0
 11
-309.7178940803
 21
200.848393557
 31
0.0
  0
ARC
  5
32D
330
1F
100
AcDbEntity
  8
0
  6
Continuous
 62
     7
370
    25
100
AcDbCircle
 10
-329.7178982936
 20
138.0765240325
 30
0.0
 40
17.00000421330675
100
AcDbArc
 50
277.9281502772
 51
359.9999882865
  0
LINE
  5
32E
330
1F
100
AcDbEntity
  8
0
  6
Continuous
 62
     7
370
    25
100
AcDbLine
 10
-312.7178940803
 20
138.076520557
 30
0.0
 11
-309.7178940803
 21
138.076520557
 31
0.0
  0
ARC
  5
32F
330
1F
100
AcDbEntity
  8
0
  6
Continuous
 62
     7
370
    25
100
AcDbCircle
 10
-329.7178982936
 20
138.0765240325
 30
0.0
 40
20.00000421330671
100
AcDbArc
 50
277.9281502772
 51
359.9999900436
  0
CIRCLE
  5
330
330
1F
100
AcDbEntity
  8
0
  6
Continuous
 62
     7
370
    25
100
AcDbCircle
 10
-369.7178940803
 20
169.4624574096
 30
0.0
 40
4.699999999999989
  0
CIRCLE
  5
331
330
1F
100
AcDbEntity
  8
0
  6
Continuous
 62
     7
370
    25
100
AcDbCircle
 10
-459.7178940803
 20
184.4624574096
 30
0.0
 40
4.700000000000017
  0
LINE
  5
332
330
1F
100
AcDbEntity
  8
0
  6
Continuous
 62
     7
370
    25
100
AcDbLine
 10
-312.7178940803
 20
138.076520557
 30
0.0
 11
-312.7178940803
 21
200.8483930357
 31
0.0
  0
CIRCLE
  5
333
330
1F
100
AcDbEntity
  8
0
  6
Continuous
 62
     7
370
    25
100
AcDbCircle
 10
-459.7178940803
 20
154.4624574096
 30
0.0
 40
4.700000000000017
  0
LINE
  5
334
330
1F
100
AcDbEntity
  8
0
  6
Continuous
 62
     7
370
    25
100
AcDbLine
 10
-309.7178940803
 20
200.848393557
 30
0.0
 11
-309.7178940803
 21
138.076520557
 31
0.0
  0
LINE
  5
335
330
1F
100
AcDbEntity
  8
0
  6
Continuous
 62
     7
370
    25
100
AcDbLine
 10
770.4457034658
 20
204.4624574096
 30
0.0
 11
718.0562713809
 21
204.4624574096
 31
0.0
  0
LINE
  5
336
330
1F
100
AcDbEntity
  8
0
  6
Continuous
 62
     7
370
    25
100
AcDbLine
 10
513.8627279285
 20
204.4624574096
 30
0.0
 11
-53.4641655014
 21
204.4624574096
 31
0.0
  0
LINE
  5
337
330
1F
100
AcDbEntity
  8
0
  6
Continuous
 62
     7
370
    25
100
AcDbLine
 10
-257.6577089539
 20
204.4624574096
 30
0.0
 11
-310.0471411683
 21
204.4624574096
 31
0.0
  0
LINE
  5
338
330
1F
100
AcDbEntity
  8
0
  6
Continuous
 62
     7
370
    25
100
AcDbLine
 10
770.4457035954
 20
134.4624574096
 30
0.0
 11
718.0562713809
 21
134.4624574096
 31
0.0
  0
LINE
  5
339
330
1F
100
AcDbEntity
  8
0
  6
Continuous
 62
     7
370
    25
100
AcDbLine
 10
513.8627279285
 20
134.4624574096
 30
0.0
 11
-53.4641655014
 21
134.4624574096
 31
0.0
  0
LINE
  5
33A
330
1F
100
AcDbEntity
  8
0
  6
Continuous
 62
     7
370
    25
100
AcDbLine
 10
-257.6577089539
 20
134.4624574096
 30
0.0
 11
-310.0471410388
 21
134.4624574096
 31
0.0
  0
ARC
  5
33B
330
1F
100
AcDbEntity
  8
0
  6
Continuous
 62
     7
370
    25
100
AcDbCircle
 10
230.1790964797
 20
170.0416881785
 30
0.0
 40
79.80613270036635
100
AcDbArc
 50
126.3620161384
 51
154.4496045404
  0
LWPOLYLINE
  5
33C
330
1F
100
AcDbEntity
  8
0
  6
Continuous
 62
     7
370
    25
100
AcDbPolyline
 90
       29
 70
   128
 43
0.0
 10
158.0958437275
 20
134.4624574096
 10
159.5450175347
 20
131.428024856
 10
163.0433353181
 20
125.4563992181
 10
167.0367681479
 20
119.8037436824
 10
171.3777013581
 20
114.6380760655
 10
176.1282054745
 20
109.8463435962
 10
181.4105691307
 20
105.3443157143
 10
187.056279251
 20
101.3072899222
 10
192.8925693179
 20
97.8352283698
 10
198.9944171637
 20
94.8542644172
 10
205.5031509846
 20
92.3216506566
 10
212.202337418
 20
90.3474701915
 10
218.9180239889
 20
88.9688162991
 10
225.7244616816
 20
88.1469353453
 10
232.769325771
 20
87.8854953276
 10
239.8113416678
 20
88.2146563741
 10
246.6987661777
 20
89.1171964013
 10
253.4891562777
 20
90.5815932544
 10
260.3213182988
 20
92.65732458
 10
266.9584708559
 20
95.2910632707
 10
273.3079125661
 20
98.4390543287
 10
279.3816077286
 20
102.0913100027
 10
285.2945293749
 20
106.3344143948
 10
290.8481985503
 20
111.0384078471
 10
296.0813116714
 20
116.2409521751
 10
300.8982980733
 20
121.8319204197
 10
305.384550854
 20
127.8931447271
 10
309.4751432132
 20
134.23069259
 10
309.6118804015
 20
134.4624574096
  0
LWPOLYLINE
  5
33D
330
1F
100
AcDbEntity
  8
0
  6
Continuous
 62
     7
370
    25
100
AcDbPolyline
 90
       34
 70
   128
 43
0.0
 10
316.2292321404
 20
134.4624574096
 10
316.0732450525
 20
133.7744365318
 10
314.2457573913
 20
128.0723426242
 10
311.93355552
 20
122.5466695275
 10
309.1256309036
 20
117.0728563815
 10
305.9158316183
 20
111.8240286014
 10
302.2798074334
 20
106.7509289264
 10
298.2898150616
 20
101.9508944754
 10
293.8810673923
 20
97.3522918163
 10
289.1604323383
 20
93.0742557501
 10
283.3377665852
 20
88.5445073507
 10
277.1717636616
 20
84.4944040683
 10
270.5281206666
 20
80.8607140663
 10
263.6138307615
 20
77.7724797126
 10
256.3222856841
 20
75.1991184614
 10
248.8459935724
 20
73.2258129556
 10
241.0215327623
 20
71.8392349827
 10
233.1088879857
 20
71.1056806306
 10
225.1848058377
 20
71.0253091833
 10
217.2805717119
 20
71.5917122183
 10
209.2303662035
 20
72.8478267934
 10
201.3141523597
 20
74.7760462174
 10
193.6850425923
 20
77.3236714013
 10
186.2900998776
 20
80.4874599464
 10
178.9826933279
 20
84.3621440137
 10
172.0284942683
 20
88.8397230986
 10
165.585426237
 20
93.8023550457
 10
159.5738282917
 20
99.2799751901
 10
153.8819862072
 20
105.4105358512
 10
148.7279538364
 20
111.9996118121
 10
144.2420840766
 20
118.853551241
 10
140.340232466
 20
126.056078679
 10
136.9629801327
 20
133.778730398
 10
136.730960398
 20
134.4624574096
  0
ARC
  5
33E
330
1F
100
AcDbEntity
  8
0
  6
Continuous
 62
     7
370
    25
100
AcDbCircle
 10
228.514947231
 20
170.4899587772
 30
0.0
 40
97.89765931328255
100
AcDbArc
 50
127.2305481182
 51
159.6948140457
  0
ARC
  5
33F
330
1F
100
AcDbEntity
  8
0
  6
Continuous
 62
     7
370
    25
100
AcDbCircle
 10
33.4119590538
 20
104.260301204
 30
0.0
 40
198.1116428064566
100
AcDbArc
 50
41.0288610088
 51
46.6984173827
  0
LINE
  5
340
330
1F
100
AcDbEntity
  8
0
  6
Continuous
 62
     7
370
    25
100
AcDbLine
 10
169.2845420973
 20
248.4368048117
 30
0.0
 11
182.8632249504
 21
234.3085312472
 31
0.0
  0
ARC
  5
341
330
1F
100
AcDbEntity
  8
0
  6
Continuous
 62
     7
370
    25
100
AcDbCircle
 10
176.6992812135
 20
262.1271756145
 30
0.0
 40
5.999999999999985
100
AcDbArc
 50
30.0
 51
210.0
  0
ARC
  5
342
330
1F
100
AcDbEntity
  8
0
  6
Continuous
 62
     7
370
    25
100
AcDbCircle
 10
193.6992812135
 20
232.6823118858
 30
0.0
 40
5.999999999999999
100
AcDbArc
 50
210.0
 51
30.0
  0
ARC
  5
343
330
1F
100
AcDbEntity
  8
0
  6
Continuous
 62
     7
370
    25
100
AcDbCircle
 10
176.6992812135
 20
76.7977392046
 30
0.0
 40
6.000000000000021
100
AcDbArc
 50
150.0
 51
330.0
  0
ARC
  5
344
330
1F
100
AcDbEntity
  8
0
  6
Continuous
 62
     7
370
    25
100
AcDbCircle
 10
193.6992812135
 20
106.2426029333
 30
0.0
 40
6.000000000000021
100
AcDbArc
 50
330.0
 51
150.0
  0
LINE
  5
345
330
1F
100
AcDbEntity
  8
0
  6
Continuous
 62
     7
370
    25
100
AcDbLine
 10
312.6001559856
 20
77.6492595907
 30
0.0
 11
268.5114055413
 21
52.1946076535
 31
0.0
  0
LINE
  5
346
330
1F
100
AcDbEntity
  8
0
  6
Continuous
 62
     7
370
    25
100
AcDbLine
 10
171.0701160889
 20
258.8771756145
 30
0.0
 11
170.5701160889
 21
259.7432010183
 31
0.0
  0
LWPOLYLINE
  5
347
330
1F
100
AcDbEntity
  8
0
  6
Continuous
 62
     7
370
    25
100
AcDbPolyline
 90
        3
 70
   128
 43
0.0
 10
171.0701160889
 20
258.8771756145
 10
171.8688398479
 20
257.7778266732
 10
172.7531287908
 20
256.962112105
  0
LWPOLYLINE
  5
348
330
1F
100
AcDbEntity
  8
0
  6
Continuous
 62
     7
370
    25
100
AcDbPolyline
 90
        3
 70
   128
 43
0.0
 10
183.1454336362
 20
262.962112105
 10
182.8811485695
 20
264.1357860779
 10
182.3284463381
 20
265.3771756145
  0
LINE
  5
349
330
1F
100
AcDbEntity
  8
0
  6
Continuous
 62
     7
370
    25
100
AcDbLine
 10
182.3284463381
 20
265.3771756145
 30
0.0
 11
181.8284463381
 21
266.2432010183
 31
0.0
  0
ARC
  5
34A
330
1F
100
AcDbEntity
  8
0
  6
Continuous
 62
     7
370
    25
100
AcDbCircle
 10
176.1992812135
 20
262.9932010183
 30
0.0
 40
6.50000000000002
100
AcDbArc
 50
30.0
 51
210.0
  0
LINE
  5
34B
330
1F
100
AcDbEntity
  8
0
  6
Continuous
 62
     7
370
    25
100
AcDbLine
 10
199.3284463381
 20
235.9323118858
 30
0.0
 11
199.8284463381
 21
235.066286482
 31
0.0
  0
LWPOLYLINE
  5
34C
330
1F
100
AcDbEntity
  8
0
  6
Continuous
 62
     7
370
    25
100
AcDbPolyline
 90
        3
 70
   128
 43
0.0
 10
199.3284463381
 20
235.9323118858
 10
198.5297225791
 20
237.0316608272
 10
197.6454336362
 20
237.8473753953
  0
LWPOLYLINE
  5
34D
330
1F
100
AcDbEntity
  8
0
  6
Continuous
 62
     7
370
    25
100
AcDbPolyline
 90
        3
 70
   128
 43
0.0
 10
187.2531287908
 20
231.8473753953
 10
187.5174138576
 20
230.6737014224
 10
188.0701160889
 20
229.4323118858
  0
LINE
  5
34E
330
1F
100
AcDbEntity
  8
0
  6
Continuous
 62
     7
370
    25
100
AcDbLine
 10
188.0701160889
 20
229.4323118858
 30
0.0
 11
188.5701160889
 21
228.566286482
 31
0.0
  0
ARC
  5
34F
330
1F
100
AcDbEntity
  8
0
  6
Continuous
 62
     7
370
    25
100
AcDbCircle
 10
194.1992812135
 20
231.816286482
 30
0.0
 40
6.500000000000016
100
AcDbArc
 50
210.0
 51
30.0
  0
LINE
  5
350
330
1F
100
AcDbEntity
  8
0
  6
Continuous
 62
     7
370
    25
100
AcDbLine
 10
182.3284463381
 20
73.5477392046
 30
0.0
 11
181.8284463381
 21
72.6817138008
 31
0.0
  0
LWPOLYLINE
  5
351
330
1F
100
AcDbEntity
  8
0
  6
Continuous
 62
     7
370
    25
100
AcDbPolyline
 90
        3
 70
   128
 43
0.0
 10
182.3284463381
 20
73.5477392046
 10
182.8811485695
 20
74.7891287412
 10
183.1454336362
 20
75.9628027141
  0
LWPOLYLINE
  5
352
330
1F
100
AcDbEntity
  8
0
  6
Continuous
 62
     7
370
    25
100
AcDbPolyline
 90
        3
 70
   128
 43
0.0
 10
172.7531287908
 20
81.9628027141
 10
171.8688398479
 20
81.147088146
 10
171.0701160889
 20
80.0477392046
  0
LINE
  5
353
330
1F
100
AcDbEntity
  8
0
  6
Continuous
 62
     7
370
    25
100
AcDbLine
 10
171.0701160889
 20
80.0477392046
 30
0.0
 11
170.5701160889
 21
79.1817138008
 31
0.0
  0
ARC
  5
354
330
1F
100
AcDbEntity
  8
0
  6
Continuous
 62
     7
370
    25
100
AcDbCircle
 10
176.1992812135
 20
75.9317138008
 30
0.0
 40
6.50000000000001
100
AcDbArc
 50
150.0
 51
330.0
  0
LINE
  5
355
330
1F
100
AcDbEntity
  8
0
  6
Continuous
 62
     7
370
    25
100
AcDbLine
 10
188.0701160889
 20
109.4926029333
 30
0.0
 11
188.5701160889
 21
110.3586283371
 31
0.0
  0
LWPOLYLINE
  5
356
330
1F
100
AcDbEntity
  8
0
  6
Continuous
 62
     7
370
    25
100
AcDbPolyline
 90
        3
 70
   128
 43
0.0
 10
188.0701160889
 20
109.4926029333
 10
187.5174138576
 20
108.2512133967
 10
187.2531287908
 20
107.0775394238
  0
LWPOLYLINE
  5
357
330
1F
100
AcDbEntity
  8
0
  6
Continuous
 62
     7
370
    25
100
AcDbPolyline
 90
        3
 70
   128
 43
0.0
 10
197.6454336363
 20
101.0775394239
 10
198.5297225791
 20
101.893253992
 10
199.3284463381
 20
102.9926029333
  0
LINE
  5
358
330
1F
100
AcDbEntity
  8
0
  6
Continuous
 62
     7
370
    25
100
AcDbLine
 10
199.3284463381
 20
102.9926029333
 30
0.0
 11
199.8284463381
 21
103.8586283371
 31
0.0
  0
ARC
  5
359
330
1F
100
AcDbEntity
  8
0
  6
Continuous
 62
     7
370
    25
100
AcDbCircle
 10
194.1992812135
 20
107.1086283371
 30
0.0
 40
6.499999999999999
100
AcDbArc
 50
330.0
 51
150.0
  0
ARC
  5
35A
330
1F
100
AcDbEntity
  8
0
  6
Continuous
 62
     7
370
    25
100
AcDbCircle
 10
230.1992812135
 20
169.4624574096
 30
0.0
 40
122.5
100
AcDbArc
 50
314.4256105058
 51
343.398450401
  0
ARC
  5
35B
330
1F
100
AcDbEntity
  8
0
  6
Continuous
 62
     7
370
    25
100
AcDbCircle
 10
230.1992812135
 20
169.4624574096
 30
0.0
 40
122.5
100
AcDbArc
 50
16.601549599
 51
45.5743894942
  0
ARC
  5
35C
330
1F
100
AcDbEntity
  8
0
  6
Continuous
 62
     7
370
    25
100
AcDbCircle
 10
329.9468061412
 20
67.6946763057
 30
0.0
 40
20.00000000000001
100
AcDbArc
 50
134.4256105058
 51
150.1501239057
  0
ARC
  5
35D
330
1F
100
AcDbEntity
  8
0
  6
Continuous
 62
     7
370
    25
100
AcDbCircle
 10
268.4590024725
 20
32.1946763057
 30
0.0
 40
19.99999999999998
100
AcDbArc
 50
89.8498760943
 51
105.5743894942
  0
ARC
  5
35E
330
1F
100
AcDbEntity
  8
0
  6
Continuous
 62
     7
370
    25
100
AcDbCircle
 10
230.1992812135
 20
169.4624574096
 30
0.0
 40
122.5
100
AcDbArc
 50
196.601549599
 51
285.5743894942
  0
ARC
  5
35F
330
1F
100
AcDbEntity
  8
0
  6
Continuous
 62
     7
370
    25
100
AcDbCircle
 10
230.1992812135
 20
169.4624574096
 30
0.0
 40
122.5
100
AcDbArc
 50
74.4256105058
 51
163.398450401
  0
ARC
  5
360
330
1F
100
AcDbEntity
  8
0
  6
Continuous
 62
     7
370
    25
100
AcDbCircle
 10
268.4590024725
 20
306.7302385135
 30
0.0
 40
20.00000000000001
100
AcDbArc
 50
254.4256105058
 51
270.1501239057
  0
LINE
  5
361
330
1F
100
AcDbEntity
  8
0
  6
Continuous
 62
     7
370
    25
100
AcDbLine
 10
268.5114055413
 20
286.7303071656
 30
0.0
 11
312.6001559856
 21
261.2756552284
 31
0.0
  0
ARC
  5
362
330
1F
100
AcDbEntity
  8
0
  6
Continuous
 62
     7
370
    25
100
AcDbCircle
 10
329.9468061412
 20
271.2302385135
 30
0.0
 40
20.0
100
AcDbArc
 50
209.8498760943
 51
225.5743894942
  0
LINE
  5
363
330
1F
100
AcDbEntity
  8
0
  6
Continuous
 62
     8
370
    25
100
AcDbLine
 10
503.524330285
 20
221.4624574096
 30
0.0
 11
483.524330285
 21
221.4624574096
 31
0.0
  0
LINE
  5
364
330
1F
100
AcDbEntity
  8
0
  6
Continuous
 62
     8
370
    25
100
AcDbLine
 10
523.524330285
 20
221.4624574096
 30
0.0
 11
503.524330285
 21
221.4624574096
 31
0.0
  0
LINE
  5
365
330
1F
100
AcDbEntity
  8
0
  6
Continuous
 62
     8
370
    25
100
AcDbLine
 10
-43.125767858
 20
117.4624574096
 30
0.0
 11
-23.125767858
 21
117.4624574096
 31
0.0
  0
LINE
  5
366
330
1F
100
AcDbEntity
  8
0
  6
Continuous
 62
     8
370
    25
100
AcDbLine
 10
-63.125767858
 20
117.4624574096
 30
0.0
 11
-43.125767858
 21
117.4624574096
 31
0.0
  0
LINE
  5
367
330
1F
100
AcDbEntity
  8
0
  6
Continuous
 62
     8
370
    25
100
AcDbLine
 10
569.1154236308
 20
117.4624574096
 30
0.0
 11
609.1154236308
 21
117.4624574096
 31
0.0
  0
LINE
  5
368
330
1F
100
AcDbEntity
  8
0
  6
Continuous
 62
     8
370
    25
100
AcDbLine
 10
-128.7168612037
 20
117.4624574096
 30
0.0
 11
-108.7168612037
 21
117.4624574096
 31
0.0
  0
LINE
  5
369
330
1F
100
AcDbEntity
  8
0
  6
Continuous
 62
     8
370
    25
100
AcDbLine
 10
-148.7168612037
 20
117.4624574096
 30
0.0
 11
-128.7168612037
 21
117.4624574096
 31
0.0
  0
LINE
  5
36A
330
1F
100
AcDbEntity
  8
0
  6
Continuous
 62
     8
370
    25
100
AcDbLine
 10
-23.125767858
 20
221.4624574096
 30
0.0
 11
-63.125767858
 21
221.4624574096
 31
0.0
  0
LINE
  5
36B
330
1F
100
AcDbEntity
  8
0
  6
Continuous
 62
     8
370
    25
100
AcDbLine
 10
483.524330285
 20
117.4624574096
 30
0.0
 11
523.524330285
 21
117.4624574096
 31
0.0
  0
LINE
  5
36C
330
1F
100
AcDbEntity
  8
0
  6
Continuous
 62
     8
370
    25
100
AcDbLine
 10
589.1154236308
 20
221.4624574096
 30
0.0
 11
569.1154236308
 21
221.4624574096
 31
0.0
  0
LINE
  5
36D
330
1F
100
AcDbEntity
  8
0
  6
Continuous
 62
     8
370
    25
100
AcDbLine
 10
609.1154236308
 20
221.4624574096
 30
0.0
 11
589.1154236308
 21
221.4624574096
 31
0.0
  0
LINE
  5
36E
330
1F
100
AcDbEntity
  8
0
  6
Continuous
 62
     8
370
    25
100
AcDbLine
 10
-108.7168612037
 20
221.4624574096
 30
0.0
 11
-148.7168612037
 21
221.4624574096
 31
0.0
  0
LINE
  5
36F
330
1F
100
AcDbEntity
  8
0
  6
Continuous
 62
     8
370
    25
100
AcDbLine
 10
489.824330285
 20
102.3320660912
 30
0.0
 11
517.224330285
 21
102.3320660912
 31
0.0
  0
LINE
  5
370
330
1F
100
AcDbEntity
  8
0
  6
Continuous
 62
     8
370
    25
100
AcDbLine
 10
490.1577800846
 20
101.7945244735
 30
0.0
 11
516.8908804854
 21
101.7945244735
 31
0.0
  0
LINE
  5
371
330
1F
100
AcDbEntity
  8
0
  6
Continuous
 62
     8
370
    25
100
AcDbLine
 10
-43.125767858
 20
102.3320660912
 30
0.0
 11
-29.425767858
 21
102.3320660912
 31
0.0
  0
LINE
  5
372
330
1F
100
AcDbEntity
  8
0
  6
Continuous
 62
     8
370
    25
100
AcDbLine
 10
-56.825767858
 20
102.3320660912
 30
0.0
 11
-43.125767858
 21
102.3320660912
 31
0.0
  0
LINE
  5
373
330
1F
100
AcDbEntity
  8
0
  6
Continuous
 62
     8
370
    25
100
AcDbLine
 10
-43.125767858
 20
101.7945244735
 30
0.0
 11
-29.7592176576
 21
101.7945244735
 31
0.0
  0
LINE
  5
374
330
1F
100
AcDbEntity
  8
0
  6
Continuous
 62
     8
370
    25
100
AcDbLine
 10
-56.4923180584
 20
101.7945244735
 30
0.0
 11
-43.125767858
 21
101.7945244735
 31
0.0
  0
LINE
  5
375
330
1F
100
AcDbEntity
  8
0
  6
Continuous
 62
     8
370
    25
100
AcDbLine
 10
575.4154236308
 20
102.3320660912
 30
0.0
 11
602.8154236308
 21
102.3320660912
 31
0.0
  0
LINE
  5
376
330
1F
100
AcDbEntity
  8
0
  6
Continuous
 62
     8
370
    25
100
AcDbLine
 10
575.7488734304
 20
101.7945244735
 30
0.0
 11
602.4819738312
 21
101.7945244735
 31
0.0
  0
LINE
  5
377
330
1F
100
AcDbEntity
  8
0
  6
Continuous
 62
     8
370
    25
100
AcDbLine
 10
503.524330285
 20
236.592848728
 30
0.0
 11
489.824330285
 21
236.592848728
 31
0.0
  0
LINE
  5
378
330
1F
100
AcDbEntity
  8
0
  6
Continuous
 62
     8
370
    25
100
AcDbLine
 10
517.224330285
 20
236.592848728
 30
0.0
 11
503.524330285
 21
236.592848728
 31
0.0
  0
LINE
  5
379
330
1F
100
AcDbEntity
  8
0
  6
Continuous
 62
     8
370
    25
100
AcDbLine
 10
503.524330285
 20
237.1303903456
 30
0.0
 11
490.1577800846
 21
237.1303903456
 31
0.0
  0
LINE
  5
37A
330
1F
100
AcDbEntity
  8
0
  6
Continuous
 62
     8
370
    25
100
AcDbLine
 10
516.8908804854
 20
237.1303903456
 30
0.0
 11
503.524330285
 21
237.1303903456
 31
0.0
  0
LINE
  5
37B
330
1F
100
AcDbEntity
  8
0
  6
Continuous
 62
     8
370
    25
100
AcDbLine
 10
-115.0168612037
 20
236.592848728
 30
0.0
 11
-142.4168612037
 21
236.592848728
 31
0.0
  0
LINE
  5
37C
330
1F
100
AcDbEntity
  8
0
  6
Continuous
 62
     8
370
    25
100
AcDbLine
 10
-115.3503110033
 20
237.1303903456
 30
0.0
 11
-142.0834114041
 21
237.1303903456
 31
0.0
  0
LINE
  5
37D
330
1F
100
AcDbEntity
  8
0
  6
Continuous
 62
     8
370
    25
100
AcDbLine
 10
589.1154236308
 20
236.592848728
 30
0.0
 11
575.4154236308
 21
236.592848728
 31
0.0
  0
LINE
  5
37E
330
1F
100
AcDbEntity
  8
0
  6
Continuous
 62
     8
370
    25
100
AcDbLine
 10
602.8154236308
 20
236.592848728
 30
0.0
 11
589.1154236308
 21
236.592848728
 31
0.0
  0
LINE
  5
37F
330
1F
100
AcDbEntity
  8
0
  6
Continuous
 62
     8
370
    25
100
AcDbLine
 10
589.1154236308
 20
237.1303903456
 30
0.0
 11
575.7488734304
 21
237.1303903456
 31
0.0
  0
LINE
  5
380
330
1F
100
AcDbEntity
  8
0
  6
Continuous
 62
     8
370
    25
100
AcDbLine
 10
602.4819738312
 20
237.1303903456
 30
0.0
 11
589.1154236308
 21
237.1303903456
 31
0.0
  0
LINE
  5
381
330
1F
100
AcDbEntity
  8
0
  6
Continuous
 62
     8
370
    25
100
AcDbLine
 10
-128.7168612037
 20
102.3320660912
 30
0.0
 11
-115.0168612037
 21
102.3320660912
 31
0.0
  0
LINE
  5
382
330
1F
100
AcDbEntity
  8
0
  6
Continuous
 62
     8
370
    25
100
AcDbLine
 10
-142.4168612037
 20
102.3320660912
 30
0.0
 11
-128.7168612037
 21
102.3320660912
 31
0.0
  0
LINE
  5
383
330
1F
100
AcDbEntity
  8
0
  6
Continuous
 62
     8
370
    25
100
AcDbLine
 10
-128.7168612037
 20
101.7945244735
 30
0.0
 11
-115.3503110033
 21
101.7945244735
 31
0.0
  0
LINE
  5
384
330
1F
100
AcDbEntity
  8
0
  6
Continuous
 62
     8
370
    25
100
AcDbLine
 10
-142.0834114041
 20
101.7945244735
 30
0.0
 11
-128.7168612037
 21
101.7945244735
 31
0.0
  0
LINE
  5
385
330
1F
100
AcDbEntity
  8
0
  6
Continuous
 62
     8
370
    25
100
AcDbLine
 10
-29.425767858
 20
236.592848728
 30
0.0
 11
-56.825767858
 21
236.592848728
 31
0.0
  0
LINE
  5
386
330
1F
100
AcDbEntity
  8
0
  6
Continuous
 62
     8
370
    25
100
AcDbLine
 10
-29.7592176576
 20
237.1303903456
 30
0.0
 11
-56.4923180584
 21
237.1303903456
 31
0.0
  0
LINE
  5
387
330
1F
100
AcDbEntity
  8
0
  6
Continuous
 62
     8
370
    25
100
AcDbLine
 10
-201.8112558243
 20
136.4624574096
 30
0.0
 11
-241.8112558243
 21
136.4624574096
 31
0.0
  0
LINE
  5
388
330
1F
100
AcDbEntity
  8
0
  6
Continuous
 62
     8
370
    25
100
AcDbLine
 10
662.2098182514
 20
202.4624574096
 30
0.0
 11
702.2098182514
 21
202.4624574096
 31
0.0
  0
LINE
  5
389
330
1F
100
AcDbEntity
  8
0
  6
Continuous
 62
     8
370
    25
100
AcDbLine
 10
-221.8112558243
 20
202.4624574096
 30
0.0
 11
-201.8112558243
 21
202.4624574096
 31
0.0
  0
LINE
  5
38A
330
1F
100
AcDbEntity
  8
0
  6
Continuous
 62
     8
370
    25
100
AcDbLine
 10
-241.8112558243
 20
202.4624574096
 30
0.0
 11
-221.8112558243
 21
202.4624574096
 31
0.0
  0
LINE
  5
38B
330
1F
100
AcDbEntity
  8
0
  6
Continuous
 62
     8
370
    25
100
AcDbLine
 10
682.2098182514
 20
136.4624574096
 30
0.0
 11
662.2098182514
 21
136.4624574096
 31
0.0
  0
LINE
  5
38C
330
1F
100
AcDbEntity
  8
0
  6
Continuous
 62
     8
370
    25
100
AcDbLine
 10
702.2098182514
 20
136.4624574096
 30
0.0
 11
682.2098182514
 21
136.4624574096
 31
0.0
  0
LINE
  5
38D
330
1F
100
AcDbEntity
  8
0
  6
Continuous
 62
     8
370
    25
100
AcDbLine
 10
438.9588205342
 20
116.4624574096
 30
0.0
 11
483.5495068744
 21
116.4624574096
 31
0.0
  0
LINE
  5
38E
330
1F
100
AcDbEntity
  8
0
  6
Continuous
 62
     8
370
    25
100
AcDbLine
 10
479.9588205342
 20
110.4624574096
 30
0.0
 11
445.9588205342
 21
110.4624574096
 31
0.0
  0
LINE
  5
38F
330
1F
100
AcDbEntity
  8
0
  6
Continuous
 62
     8
370
    25
100
AcDbLine
 10
445.9588205342
 20
30.4624574096
 30
0.0
 11
479.9588205342
 21
30.4624574096
 31
0.0
  0
LINE
  5
390
330
1F
100
AcDbEntity
  8
0
  6
Continuous
 62
     8
370
    25
100
AcDbLine
 10
-245.8112558243
 20
116.4624574096
 30
0.0
 11
-197.8112558243
 21
116.4624574096
 31
0.0
  0
LINE
  5
391
330
1F
100
AcDbEntity
  8
0
  6
Continuous
 62
     8
370
    25
100
AcDbLine
 10
-204.8112558243
 20
110.4624574096
 30
0.0
 11
-238.8112558243
 21
110.4624574096
 31
0.0
  0
LINE
  5
392
330
1F
100
AcDbEntity
  8
0
  6
Continuous
 62
     8
370
    25
100
AcDbLine
 10
-238.8112558243
 20
30.4624574096
 30
0.0
 11
-204.8112558243
 21
30.4624574096
 31
0.0
  0
LINE
  5
393
330
1F
100
AcDbEntity
  8
0
  6
Continuous
 62
     8
370
    25
100
AcDbLine
 10
-23.1509444473
 20
116.4624574096
 30
0.0
 11
21.4397418929
 21
116.4624574096
 31
0.0
  0
LINE
  5
394
330
1F
100
AcDbEntity
  8
0
  6
Continuous
 62
     8
370
    25
100
AcDbLine
 10
14.4397418929
 20
110.4624574096
 30
0.0
 11
-19.5602581071
 21
110.4624574096
 31
0.0
  0
LINE
  5
395
330
1F
100
AcDbEntity
  8
0
  6
Continuous
 62
     8
370
    25
100
AcDbLine
 10
-19.5602581071
 20
30.4624574096
 30
0.0
 11
14.4397418929
 21
30.4624574096
 31
0.0
  0
LINE
  5
396
330
1F
100
AcDbEntity
  8
0
  6
Continuous
 62
     8
370
    25
100
AcDbLine
 10
-197.8112558243
 20
222.4624574096
 30
0.0
 11
-245.8112558243
 21
222.4624574096
 31
0.0
  0
LINE
  5
397
330
1F
100
AcDbEntity
  8
0
  6
Continuous
 62
     8
370
    25
100
AcDbLine
 10
-238.8112558243
 20
228.4624574096
 30
0.0
 11
-204.8112558243
 21
228.4624574096
 31
0.0
  0
LINE
  5
398
330
1F
100
AcDbEntity
  8
0
  6
Continuous
 62
     8
370
    25
100
AcDbLine
 10
-204.8112558243
 20
308.4624574096
 30
0.0
 11
-238.8112558243
 21
308.4624574096
 31
0.0
  0
LINE
  5
399
330
1F
100
AcDbEntity
  8
0
  6
Continuous
 62
     8
370
    25
100
AcDbLine
 10
21.4397418929
 20
222.4624574096
 30
0.0
 11
-23.1509444473
 21
222.4624574096
 31
0.0
  0
LINE
  5
39A
330
1F
100
AcDbEntity
  8
0
  6
Continuous
 62
     8
370
    25
100
AcDbLine
 10
-19.5602581071
 20
228.4624574096
 30
0.0
 11
14.4397418929
 21
228.4624574096
 31
0.0
  0
LINE
  5
39B
330
1F
100
AcDbEntity
  8
0
  6
Continuous
 62
     8
370
    25
100
AcDbLine
 10
14.4397418929
 20
308.4624574096
 30
0.0
 11
-19.5602581071
 21
308.4624574096
 31
0.0
  0
LINE
  5
39C
330
1F
100
AcDbEntity
  8
0
  6
Continuous
 62
     8
370
    25
100
AcDbLine
 10
706.2098182514
 20
222.4624574096
 30
0.0
 11
658.2098182514
 21
222.4624574096
 31
0.0
  0
LINE
  5
39D
330
1F
100
AcDbEntity
  8
0
  6
Continuous
 62
     8
370
    25
100
AcDbLine
 10
665.2098182514
 20
228.4624574096
 30
0.0
 11
699.2098182514
 21
228.4624574096
 31
0.0
  0
LINE
  5
39E
330
1F
100
AcDbEntity
  8
0
  6
Continuous
 62
     8
370
    25
100
AcDbLine
 10
699.2098182514
 20
308.4624574096
 30
0.0
 11
665.2098182514
 21
308.4624574096
 31
0.0
  0
LINE
  5
39F
330
1F
100
AcDbEntity
  8
0
  6
Continuous
 62
     8
370
    25
100
AcDbLine
 10
483.5495068744
 20
222.4624574096
 30
0.0
 11
438.9588205342
 21
222.4624574096
 31
0.0
  0
LINE
  5
3A0
330
1F
100
AcDbEntity
  8
0
  6
Continuous
 62
     8
370
    25
100
AcDbLine
 10
445.9588205342
 20
228.4624574096
 30
0.0
 11
479.9588205342
 21
228.4624574096
 31
0.0
  0
LINE
  5
3A1
330
1F
100
AcDbEntity
  8
0
  6
Continuous
 62
     8
370
    25
100
AcDbLine
 10
479.9588205342
 20
308.4624574096
 30
0.0
 11
445.9588205342
 21
308.4624574096
 31
0.0
  0
LINE
  5
3A2
330
1F
100
AcDbEntity
  8
0
  6
Continuous
 62
     8
370
    25
100
AcDbLine
 10
658.2098182514
 20
116.4624574096
 30
0.0
 11
706.2098182514
 21
116.4624574096
 31
0.0
  0
LINE
  5
3A3
330
1F
100
AcDbEntity
  8
0
  6
Continuous
 62
     8
370
    25
100
AcDbLine
 10
699.2098182514
 20
110.4624574096
 30
0.0
 11
665.2098182514
 21
110.4624574096
 31
0.0
  0
LINE
  5
3A4
330
1F
100
AcDbEntity
  8
0
  6
Continuous
 62
     8
370
    25
100
AcDbLine
 10
665.2098182514
 20
30.4624574096
 30
0.0
 11
699.2098182514
 21
30.4624574096
 31
0.0
  0
LINE
  5
3A5
330
1F
100
AcDbEntity
  8
0
  6
Continuous
 62
     8
370
    25
100
AcDbLine
 10
-246.8112558243
 20
13.3021585856
 30
0.0
 11
-196.8112558243
 21
13.3021585856
 31
0.0
  0
LINE
  5
3A6
330
1F
100
AcDbEntity
  8
0
  6
Continuous
 62
     8
370
    25
100
AcDbLine
 10
-197.645122369
 20
12.3160553075
 30
0.0
 11
-245.9773892797
 21
12.3160553075
 31
0.0
  0
LINE
  5
3A7
330
1F
100
AcDbEntity
  8
0
  6
Continuous
 62
     8
370
    25
100
AcDbLine
 10
-246.558665143
 20
16.746621926
 30
0.0
 11
-197.0638465056
 21
16.746621926
 31
0.0
  0
LINE
  5
3A8
330
1F
100
AcDbEntity
  8
0
  6
Continuous
 62
     8
370
    25
100
AcDbLine
 10
-196.8112558243
 20
16.0822580872
 30
0.0
 11
-246.8112558243
 21
16.0822580872
 31
0.0
  0
LINE
  5
3A9
330
1F
100
AcDbEntity
  8
0
  6
Continuous
 62
     8
370
    25
100
AcDbLine
 10
-204.558665143
 20
25.1782928931
 30
0.0
 11
-239.0638465056
 21
25.1782928931
 31
0.0
  0
LINE
  5
3AA
330
1F
100
AcDbEntity
  8
0
  6
Continuous
 62
     8
370
    25
100
AcDbLine
 10
-238.8112558243
 20
25.8426567319
 30
0.0
 11
-204.8112558243
 21
25.8426567319
 31
0.0
  0
LINE
  5
3AB
330
1F
100
AcDbEntity
  8
0
  6
Continuous
 62
     8
370
    25
100
AcDbLine
 10
-204.8112558243
 20
28.4624574096
 30
0.0
 11
-238.8112558243
 21
28.4624574096
 31
0.0
  0
LINE
  5
3AC
330
1F
100
AcDbEntity
  8
0
  6
Continuous
 62
     8
370
    25
100
AcDbLine
 10
438.2114112155
 20
16.746621926
 30
0.0
 11
487.7062298528
 21
16.746621926
 31
0.0
  0
LINE
  5
3AD
330
1F
100
AcDbEntity
  8
0
  6
Continuous
 62
     8
370
    25
100
AcDbLine
 10
487.9588205342
 20
16.0822580872
 30
0.0
 11
437.9588205342
 21
16.0822580872
 31
0.0
  0
LINE
  5
3AE
330
1F
100
AcDbEntity
  8
0
  6
Continuous
 62
     8
370
    25
100
AcDbLine
 10
437.9588205342
 20
13.3021585856
 30
0.0
 11
487.9588205342
 21
13.3021585856
 31
0.0
  0
LINE
  5
3AF
330
1F
100
AcDbEntity
  8
0
  6
Continuous
 62
     8
370
    25
100
AcDbLine
 10
487.1249539895
 20
12.3160553075
 30
0.0
 11
438.7926870788
 21
12.3160553075
 31
0.0
  0
LINE
  5
3B0
330
1F
100
AcDbEntity
  8
0
  6
Continuous
 62
     8
370
    25
100
AcDbLine
 10
480.2114112155
 20
25.1782928931
 30
0.0
 11
445.7062298528
 21
25.1782928931
 31
0.0
  0
LINE
  5
3B1
330
1F
100
AcDbEntity
  8
0
  6
Continuous
 62
     8
370
    25
100
AcDbLine
 10
445.9588205342
 20
25.8426567319
 30
0.0
 11
479.9588205342
 21
25.8426567319
 31
0.0
  0
LINE
  5
3B2
330
1F
100
AcDbEntity
  8
0
  6
Continuous
 62
     8
370
    25
100
AcDbLine
 10
479.9588205342
 20
28.4624574096
 30
0.0
 11
445.9588205342
 21
28.4624574096
 31
0.0
  0
LINE
  5
3B3
330
1F
100
AcDbEntity
  8
0
  6
Continuous
 62
     8
370
    25
100
AcDbLine
 10
-27.3076674258
 20
16.746621926
 30
0.0
 11
22.1871512116
 21
16.746621926
 31
0.0
  0
LINE
  5
3B4
330
1F
100
AcDbEntity
  8
0
  6
Continuous
 62
     8
370
    25
100
AcDbLine
 10
22.4397418929
 20
16.0822580872
 30
0.0
 11
-27.5602581071
 21
16.0822580872
 31
0.0
  0
LINE
  5
3B5
330
1F
100
AcDbEntity
  8
0
  6
Continuous
 62
     8
370
    25
100
AcDbLine
 10
-27.5602581071
 20
13.3021585856
 30
0.0
 11
22.4397418929
 21
13.3021585856
 31
0.0
  0
LINE
  5
3B6
330
1F
100
AcDbEntity
  8
0
  6
Continuous
 62
     8
370
    25
100
AcDbLine
 10
21.6058753483
 20
12.3160553075
 30
0.0
 11
-26.7263915625
 21
12.3160553075
 31
0.0
  0
LINE
  5
3B7
330
1F
100
AcDbEntity
  8
0
  6
Continuous
 62
     8
370
    25
100
AcDbLine
 10
14.6923325742
 20
25.1782928931
 30
0.0
 11
-19.8128487884
 21
25.1782928931
 31
0.0
  0
LINE
  5
3B8
330
1F
100
AcDbEntity
  8
0
  6
Continuous
 62
     8
370
    25
100
AcDbLine
 10
-19.5602581071
 20
25.8426567319
 30
0.0
 11
14.4397418929
 21
25.8426567319
 31
0.0
  0
LINE
  5
3B9
330
1F
100
AcDbEntity
  8
0
  6
Continuous
 62
     8
370
    25
100
AcDbLine
 10
14.4397418929
 20
28.4624574096
 30
0.0
 11
-19.5602581071
 21
28.4624574096
 31
0.0
  0
LINE
  5
3BA
330
1F
100
AcDbEntity
  8
0
  6
Continuous
 62
     8
370
    25
100
AcDbLine
 10
-196.8112558243
 20
325.6227562335
 30
0.0
 11
-246.8112558243
 21
325.6227562335
 31
0.0
  0
LINE
  5
3BB
330
1F
100
AcDbEntity
  8
0
  6
Continuous
 62
     8
370
    25
100
AcDbLine
 10
-245.9773892797
 20
326.6088595116
 30
0.0
 11
-197.645122369
 21
326.6088595116
 31
0.0
  0
LINE
  5
3BC
330
1F
100
AcDbEntity
  8
0
  6
Continuous
 62
     8
370
    25
100
AcDbLine
 10
-246.8112558243
 20
322.8426567319
 30
0.0
 11
-196.8112558243
 21
322.8426567319
 31
0.0
  0
LINE
  5
3BD
330
1F
100
AcDbEntity
  8
0
  6
Continuous
 62
     8
370
    25
100
AcDbLine
 10
-197.0638465056
 20
322.1782928931
 30
0.0
 11
-246.558665143
 21
322.1782928931
 31
0.0
  0
LINE
  5
3BE
330
1F
100
AcDbEntity
  8
0
  6
Continuous
 62
     8
370
    25
100
AcDbLine
 10
-239.0638465056
 20
313.746621926
 30
0.0
 11
-204.558665143
 21
313.746621926
 31
0.0
  0
LINE
  5
3BF
330
1F
100
AcDbEntity
  8
0
  6
Continuous
 62
     8
370
    25
100
AcDbLine
 10
-204.8112558243
 20
313.0822580872
 30
0.0
 11
-238.8112558243
 21
313.0822580872
 31
0.0
  0
LINE
  5
3C0
330
1F
100
AcDbEntity
  8
0
  6
Continuous
 62
     8
370
    25
100
AcDbLine
 10
-238.8112558243
 20
310.4624574096
 30
0.0
 11
-204.8112558243
 21
310.4624574096
 31
0.0
  0
LINE
  5
3C1
330
1F
100
AcDbEntity
  8
0
  6
Continuous
 62
     8
370
    25
100
AcDbLine
 10
22.4397418929
 20
325.6227562335
 30
0.0
 11
-27.5602581071
 21
325.6227562335
 31
0.0
  0
LINE
  5
3C2
330
1F
100
AcDbEntity
  8
0
  6
Continuous
 62
     8
370
    25
100
AcDbLine
 10
-27.5602581071
 20
322.8426567319
 30
0.0
 11
22.4397418929
 21
322.8426567319
 31
0.0
  0
LINE
  5
3C3
330
1F
100
AcDbEntity
  8
0
  6
Continuous
 62
     8
370
    25
100
AcDbLine
 10
-26.7263915625
 20
326.6088595116
 30
0.0
 11
21.6058753483
 21
326.6088595116
 31
0.0
  0
LINE
  5
3C4
330
1F
100
AcDbEntity
  8
0
  6
Continuous
 62
     8
370
    25
100
AcDbLine
 10
22.1871512116
 20
322.1782928931
 30
0.0
 11
-27.3076674258
 21
322.1782928931
 31
0.0
  0
LINE
  5
3C5
330
1F
100
AcDbEntity
  8
0
  6
Continuous
 62
     8
370
    25
100
AcDbLine
 10
-19.8128487884
 20
313.746621926
 30
0.0
 11
14.6923325742
 21
313.746621926
 31
0.0
  0
LINE
  5
3C6
330
1F
100
AcDbEntity
  8
0
  6
Continuous
 62
     8
370
    25
100
AcDbLine
 10
14.4397418929
 20
313.0822580872
 30
0.0
 11
-19.5602581071
 21
313.0822580872
 31
0.0
  0
LINE
  5
3C7
330
1F
100
AcDbEntity
  8
0
  6
Continuous
 62
     8
370
    25
100
AcDbLine
 10
-19.5602581071
 20
310.4624574096
 30
0.0
 11
14.4397418929
 21
310.4624574096
 31
0.0
  0
LINE
  5
3C8
330
1F
100
AcDbEntity
  8
0
  6
Continuous
 62
     8
370
    25
100
AcDbLine
 10
657.4624089327
 20
16.746621926
 30
0.0
 11
706.9572275701
 21
16.746621926
 31
0.0
  0
LINE
  5
3C9
330
1F
100
AcDbEntity
  8
0
  6
Continuous
 62
     8
370
    25
100
AcDbLine
 10
707.2098182514
 20
16.0822580872
 30
0.0
 11
657.2098182514
 21
16.0822580872
 31
0.0
  0
LINE
  5
3CA
330
1F
100
AcDbEntity
  8
0
  6
Continuous
 62
     8
370
    25
100
AcDbLine
 10
657.2098182514
 20
13.3021585856
 30
0.0
 11
707.2098182514
 21
13.3021585856
 31
0.0
  0
LINE
  5
3CB
330
1F
100
AcDbEntity
  8
0
  6
Continuous
 62
     8
370
    25
100
AcDbLine
 10
706.3759517068
 20
12.3160553075
 30
0.0
 11
658.043684796
 21
12.3160553075
 31
0.0
  0
LINE
  5
3CC
330
1F
100
AcDbEntity
  8
0
  6
Continuous
 62
     8
370
    25
100
AcDbLine
 10
699.4624089327
 20
25.1782928931
 30
0.0
 11
664.9572275701
 21
25.1782928931
 31
0.0
  0
LINE
  5
3CD
330
1F
100
AcDbEntity
  8
0
  6
Continuous
 62
     8
370
    25
100
AcDbLine
 10
665.2098182514
 20
25.8426567319
 30
0.0
 11
699.2098182514
 21
25.8426567319
 31
0.0
  0
LINE
  5
3CE
330
1F
100
AcDbEntity
  8
0
  6
Continuous
 62
     8
370
    25
100
AcDbLine
 10
699.2098182514
 20
28.4624574096
 30
0.0
 11
665.2098182514
 21
28.4624574096
 31
0.0
  0
LINE
  5
3CF
330
1F
100
AcDbEntity
  8
0
  6
Continuous
 62
     8
370
    25
100
AcDbLine
 10
707.2098182514
 20
325.6227562335
 30
0.0
 11
657.2098182514
 21
325.6227562335
 31
0.0
  0
LINE
  5
3D0
330
1F
100
AcDbEntity
  8
0
  6
Continuous
 62
     8
370
    25
100
AcDbLine
 10
658.043684796
 20
326.6088595116
 30
0.0
 11
706.3759517068
 21
326.6088595116
 31
0.0
  0
LINE
  5
3D1
330
1F
100
AcDbEntity
  8
0
  6
Continuous
 62
     8
370
    25
100
AcDbLine
 10
657.2098182514
 20
322.8426567319
 30
0.0
 11
707.2098182514
 21
322.8426567319
 31
0.0
  0
LINE
  5
3D2
330
1F
100
AcDbEntity
  8
0
  6
Continuous
 62
     8
370
    25
100
AcDbLine
 10
706.9572275701
 20
322.1782928931
 30
0.0
 11
657.4624089327
 21
322.1782928931
 31
0.0
  0
LINE
  5
3D3
330
1F
100
AcDbEntity
  8
0
  6
Continuous
 62
     8
370
    25
100
AcDbLine
 10
664.9572275701
 20
313.746621926
 30
0.0
 11
699.4624089327
 21
313.746621926
 31
0.0
  0
LINE
  5
3D4
330
1F
100
AcDbEntity
  8
0
  6
Continuous
 62
     8
370
    25
100
AcDbLine
 10
699.2098182514
 20
313.0822580872
 30
0.0
 11
665.2098182514
 21
313.0822580872
 31
0.0
  0
LINE
  5
3D5
330
1F
100
AcDbEntity
  8
0
  6
Continuous
 62
     8
370
    25
100
AcDbLine
 10
665.2098182514
 20
310.4624574096
 30
0.0
 11
699.2098182514
 21
310.4624574096
 31
0.0
  0
LINE
  5
3D6
330
1F
100
AcDbEntity
  8
0
  6
Continuous
 62
     8
370
    25
100
AcDbLine
 10
487.9588205342
 20
325.6227562335
 30
0.0
 11
437.9588205342
 21
325.6227562335
 31
0.0
  0
LINE
  5
3D7
330
1F
100
AcDbEntity
  8
0
  6
Continuous
 62
     8
370
    25
100
AcDbLine
 10
437.9588205342
 20
322.8426567319
 30
0.0
 11
487.9588205342
 21
322.8426567319
 31
0.0
  0
LINE
  5
3D8
330
1F
100
AcDbEntity
  8
0
  6
Continuous
 62
     8
370
    25
100
AcDbLine
 10
438.7926870788
 20
326.6088595116
 30
0.0
 11
487.1249539895
 21
326.6088595116
 31
0.0
  0
LINE
  5
3D9
330
1F
100
AcDbEntity
  8
0
  6
Continuous
 62
     8
370
    25
100
AcDbLine
 10
487.7062298528
 20
322.1782928931
 30
0.0
 11
438.2114112155
 21
322.1782928931
 31
0.0
  0
LINE
  5
3DA
330
1F
100
AcDbEntity
  8
0
  6
Continuous
 62
     8
370
    25
100
AcDbLine
 10
445.7062298528
 20
313.746621926
 30
0.0
 11
480.2114112155
 21
313.746621926
 31
0.0
  0
LINE
  5
3DB
330
1F
100
AcDbEntity
  8
0
  6
Continuous
 62
     8
370
    25
100
AcDbLine
 10
479.9588205342
 20
313.0822580872
 30
0.0
 11
445.9588205342
 21
313.0822580872
 31
0.0
  0
LINE
  5
3DC
330
1F
100
AcDbEntity
  8
0
  6
Continuous
 62
     8
370
    25
100
AcDbLine
 10
445.9588205342
 20
310.4624574096
 30
0.0
 11
479.9588205342
 21
310.4624574096
 31
0.0
  0
LINE
  5
3DD
330
1F
100
AcDbEntity
  8
0
  6
Continuous
 62
     8
370
    25
100
AcDbLine
 10
695.9598182514
 20
327.7103118046
 30
0.0
 11
668.4598182514
 21
327.7103118046
 31
0.0
  0
LINE
  5
3DE
330
1F
100
AcDbEntity
  8
0
  6
Continuous
 62
     8
370
    25
100
AcDbLine
 10
669.1900661853
 20
328.6732416166
 30
0.0
 11
695.2295703175
 21
328.6732416166
 31
0.0
  0
LINE
  5
3DF
330
1F
100
AcDbEntity
  8
0
  6
Continuous
 62
     8
370
    25
100
AcDbLine
 10
11.1897418929
 20
327.7103118046
 30
0.0
 11
-16.3102581071
 21
327.7103118046
 31
0.0
  0
LINE
  5
3E0
330
1F
100
AcDbEntity
  8
0
  6
Continuous
 62
     8
370
    25
100
AcDbLine
 10
-15.5800101732
 20
328.6732416166
 30
0.0
 11
10.459493959
 21
328.6732416166
 31
0.0
  0
LINE
  5
3E1
330
1F
100
AcDbEntity
  8
0
  6
Continuous
 62
     8
370
    25
100
AcDbLine
 10
-235.5612558243
 20
11.2146030146
 30
0.0
 11
-208.0612558243
 21
11.2146030146
 31
0.0
  0
LINE
  5
3E2
330
1F
100
AcDbEntity
  8
0
  6
Continuous
 62
     8
370
    25
100
AcDbLine
 10
-208.7915037582
 20
10.2516732026
 30
0.0
 11
-234.8310078904
 21
10.2516732026
 31
0.0
  0
LINE
  5
3E3
330
1F
100
AcDbEntity
  8
0
  6
Continuous
 62
     8
370
    25
100
AcDbLine
 10
476.7088205342
 20
327.7103118046
 30
0.0
 11
449.2088205342
 21
327.7103118046
 31
0.0
  0
LINE
  5
3E4
330
1F
100
AcDbEntity
  8
0
  6
Continuous
 62
     8
370
    25
100
AcDbLine
 10
449.939068468
 20
328.6732416166
 30
0.0
 11
475.9785726003
 21
328.6732416166
 31
0.0
  0
LINE
  5
3E5
330
1F
100
AcDbEntity
  8
0
  6
Continuous
 62
     8
370
    25
100
AcDbLine
 10
-208.0612558243
 20
327.7103118046
 30
0.0
 11
-235.5612558243
 21
327.7103118046
 31
0.0
  0
LINE
  5
3E6
330
1F
100
AcDbEntity
  8
0
  6
Continuous
 62
     8
370
    25
100
AcDbLine
 10
-234.8310078904
 20
328.6732416166
 30
0.0
 11
-208.7915037582
 21
328.6732416166
 31
0.0
  0
LINE
  5
3E7
330
1F
100
AcDbEntity
  8
0
  6
Continuous
 62
     8
370
    25
100
AcDbLine
 10
-16.3102581071
 20
11.2146030146
 30
0.0
 11
11.1897418929
 21
11.2146030146
 31
0.0
  0
LINE
  5
3E8
330
1F
100
AcDbEntity
  8
0
  6
Continuous
 62
     8
370
    25
100
AcDbLine
 10
10.459493959
 20
10.2516732026
 30
0.0
 11
-15.5800101732
 21
10.2516732026
 31
0.0
  0
LINE
  5
3E9
330
1F
100
AcDbEntity
  8
0
  6
Continuous
 62
     8
370
    25
100
AcDbLine
 10
668.4598182514
 20
11.2146030146
 30
0.0
 11
695.9598182514
 21
11.2146030146
 31
0.0
  0
LINE
  5
3EA
330
1F
100
AcDbEntity
  8
0
  6
Continuous
 62
     8
370
    25
100
AcDbLine
 10
695.2295703175
 20
10.2516732026
 30
0.0
 11
669.1900661853
 21
10.2516732026
 31
0.0
  0
LINE
  5
3EB
330
1F
100
AcDbEntity
  8
0
  6
Continuous
 62
     8
370
    25
100
AcDbLine
 10
449.2088205342
 20
11.2146030146
 30
0.0
 11
476.7088205342
 21
11.2146030146
 31
0.0
  0
LINE
  5
3EC
330
1F
100
AcDbEntity
  8
0
  6
Continuous
 62
     8
370
    25
100
AcDbLine
 10
475.9785726003
 20
10.2516732026
 30
0.0
 11
449.939068468
 21
10.2516732026
 31
0.0
  0
LINE
  5
3ED
330
1F
100
AcDbEntity
  8
0
  6
Continuous
 62
     8
370
    25
100
AcDbLine
 10
-260.6577089539
 20
122.4624574096
 30
0.0
 11
-173.1983443705
 21
122.4624574096
 31
0.0
  0
LINE
  5
3EE
330
1F
100
AcDbEntity
  8
0
  6
Continuous
 62
     8
370
    25
100
AcDbLine
 10
-173.1983443705
 20
131.4624574096
 30
0.0
 11
-260.6577089539
 21
131.4624574096
 31
0.0
  0
LINE
  5
3EF
330
1F
100
AcDbEntity
  8
0
  6
Continuous
 62
     8
370
    25
100
AcDbLine
 10
36.2861950224
 20
131.4624574096
 30
0.0
 11
31.1755596058
 21
131.4624574096
 31
0.0
  0
LINE
  5
3F0
330
1F
100
AcDbEntity
  8
0
  6
Continuous
 62
     8
370
    25
100
AcDbLine
 10
31.1755596058
 20
122.4624574096
 30
0.0
 11
36.2861950224
 21
122.4624574096
 31
0.0
  0
LINE
  5
3F1
330
1F
100
AcDbEntity
  8
0
  6
Continuous
 62
     8
370
    25
100
AcDbLine
 10
633.5969067976
 20
207.4624574096
 30
0.0
 11
721.0562713809
 21
207.4624574096
 31
0.0
  0
LINE
  5
3F2
330
1F
100
AcDbEntity
  8
0
  6
Continuous
 62
     8
370
    25
100
AcDbLine
 10
721.0562713809
 20
216.4624574096
 30
0.0
 11
633.5969067976
 21
216.4624574096
 31
0.0
  0
LINE
  5
3F3
330
1F
100
AcDbEntity
  8
0
  6
Continuous
 62
     8
370
    25
100
AcDbLine
 10
424.1123674046
 20
207.4624574096
 30
0.0
 11
429.2230028213
 21
207.4624574096
 31
0.0
  0
LINE
  5
3F4
330
1F
100
AcDbEntity
  8
0
  6
Continuous
 62
     8
370
    25
100
AcDbLine
 10
429.2230028213
 20
216.4624574096
 30
0.0
 11
424.1123674046
 21
216.4624574096
 31
0.0
  0
LINE
  5
3F5
330
1F
100
AcDbEntity
  8
0
  6
Continuous
 62
     8
370
    25
100
AcDbLine
 10
721.0562713809
 20
131.4624574096
 30
0.0
 11
633.5969067976
 21
131.4624574096
 31
0.0
  0
LINE
  5
3F6
330
1F
100
AcDbEntity
  8
0
  6
Continuous
 62
     8
370
    25
100
AcDbLine
 10
633.5969067976
 20
122.4624574096
 30
0.0
 11
721.0562713809
 21
122.4624574096
 31
0.0
  0
LINE
  5
3F7
330
1F
100
AcDbEntity
  8
0
  6
Continuous
 62
     8
370
    25
100
AcDbLine
 10
424.1123674046
 20
122.4624574096
 30
0.0
 11
429.2230028213
 21
122.4624574096
 31
0.0
  0
LINE
  5
3F8
330
1F
100
AcDbEntity
  8
0
  6
Continuous
 62
     8
370
    25
100
AcDbLine
 10
429.2230028213
 20
131.4624574096
 30
0.0
 11
424.1123674046
 21
131.4624574096
 31
0.0
  0
LINE
  5
3F9
330
1F
100
AcDbEntity
  8
0
  6
Continuous
 62
     8
370
    25
100
AcDbLine
 10
-173.1983443705
 20
216.4624574096
 30
0.0
 11
-260.6577089539
 21
216.4624574096
 31
0.0
  0
LINE
  5
3FA
330
1F
100
AcDbEntity
  8
0
  6
Continuous
 62
     8
370
    25
100
AcDbLine
 10
-260.6577089539
 20
207.4624574096
 30
0.0
 11
-173.1983443705
 21
207.4624574096
 31
0.0
  0
LINE
  5
3FB
330
1F
100
AcDbEntity
  8
0
  6
Continuous
 62
     8
370
    25
100
AcDbLine
 10
36.2861950224
 20
216.4624574096
 30
0.0
 11
31.1755596058
 21
216.4624574096
 31
0.0
  0
LINE
  5
3FC
330
1F
100
AcDbEntity
  8
0
  6
Continuous
 62
     8
370
    25
100
AcDbLine
 10
31.1755596058
 20
207.4624574096
 30
0.0
 11
36.2861950224
 21
207.4624574096
 31
0.0
  0
LINE
  5
3FD
330
1F
100
AcDbEntity
  8
0
  6
Continuous
 62
     8
370
    25
100
AcDbLine
 10
1005.6287012432
 20
204.4624574096
 30
0.0
 11
1004.6808592373
 21
204.4624574096
 31
0.0
  0
LINE
  5
3FE
330
1F
100
AcDbEntity
  8
0
  6
Continuous
 62
     8
370
    25
100
AcDbLine
 10
1004.6808593233
 20
134.4624574096
 30
0.0
 11
1005.6287012432
 21
134.4624574096
 31
0.0
  0
LINE
  5
3FF
330
1F
100
AcDbEntity
  8
0
  6
Continuous
 62
     8
370
    25
100
AcDbLine
 10
-544.2822968963
 20
204.4624574096
 30
0.0
 11
-545.2301388161
 21
204.4624574096
 31
0.0
  0
LINE
  5
400
330
1F
100
AcDbEntity
  8
0
  6
Continuous
 62
     8
370
    25
100
AcDbLine
 10
-545.2301388161
 20
134.4624574096
 30
0.0
 11
-544.2822968103
 21
134.4624574096
 31
0.0
  0
LINE
  5
401
330
1F
100
AcDbEntity
  8
0
  6
Continuous
 62
     8
370
    25
100
AcDbLine
 10
770.1230642098
 20
201.3624574096
 30
0.0
 11
702.1793505196
 21
201.3624574096
 31
0.0
  0
LINE
  5
402
330
1F
100
AcDbEntity
  8
0
  6
Continuous
 62
     8
370
    25
100
AcDbLine
 10
662.2402859832
 20
201.3624574096
 30
0.0
 11
-201.8417235561
 21
201.3624574096
 31
0.0
  0
LINE
  5
403
330
1F
100
AcDbEntity
  8
0
  6
Continuous
 62
     8
370
    25
100
AcDbLine
 10
-241.7807880925
 20
201.3624574096
 30
0.0
 11
-309.7245018009
 21
201.3624574096
 31
0.0
  0
LINE
  5
404
330
1F
100
AcDbEntity
  8
0
  6
Continuous
 62
     8
370
    25
100
AcDbLine
 10
770.1230642279
 20
137.5624574096
 30
0.0
 11
702.1793505196
 21
137.5624574096
 31
0.0
  0
LINE
  5
405
330
1F
100
AcDbEntity
  8
0
  6
Continuous
 62
     8
370
    25
100
AcDbLine
 10
662.2402859832
 20
137.5624574096
 30
0.0
 11
-201.8417235561
 21
137.5624574096
 31
0.0
  0
LINE
  5
406
330
1F
100
AcDbEntity
  8
0
  6
Continuous
 62
     8
370
    25
100
AcDbLine
 10
-241.7807880925
 20
137.5624574096
 30
0.0
 11
-309.7245017827
 21
137.5624574096
 31
0.0
  0
ENDSEC
  0
SECTION
  2
OBJECTS
  0
DICTIONARY
  5
C
330
0
100
AcDbDictionary
281
     1
  3
ACAD_GROUP
350
D
  3
ACAD_LAYOUT
350
1A
  3
ACAD_MLINESTYLE
350
17
  3
ACAD_PLOTSETTINGS
350
19
  3
ACAD_PLOTSTYLENAME
350
E
  3
ACAD_SCALELIST
350
47
  3
DWGPROPS
350
407
  0
DICTIONARY
  5
D
102
{ACAD_REACTORS
330
C
102
}
330
C
100
AcDbDictionary
281
     1
  0
DICTIONARY
  5
1A
102
{ACAD_REACTORS
330
C
102
}
330
C
100
AcDbDictionary
281
     1
  3
Layout1
350
1E
  3
Layout2
350
26
  3
Model
350
22
  0
DICTIONARY
  5
17
102
{ACAD_REACTORS
330
C
102
}
330
C
100
AcDbDictionary
281
     1
  3
Standard
350
18
  0
DICTIONARY
  5
19
102
{ACAD_REACTORS
330
C
102
}
330
C
100
AcDbDictionary
281
     1
  0
ACDBDICTIONARYWDFLT
  5
E
102
{ACAD_REACTORS
330
C
102
}
330
C
100
AcDbDictionary
281
     1
  3
Normal
350
F
100
AcDbDictionaryWithDefault
340
F
  0
DICTIONARY
  5
47
102
{ACAD_REACTORS
330
C
102
}
330
C
100
AcDbDictionary
281
     1
  3
A0
350
48
  3
A1
350
49
  3
A2
350
4A
  3
A3
350
4B
  3
A4
350
4C
  3
A5
350
4D
  3
A6
350
4E
  3
A7
350
4F
  3
A8
350
50
  3
A9
350
51
  3
B0
350
52
  3
B1
350
53
  3
B2
350
54
  3
B3
350
55
  3
B4
350
56
  3
B5
350
57
  3
B6
350
58
  3
B7
350
59
  3
B8
350
5A
  3
B9
350
5B
  3
C0
350
5C
  3
C1
350
5D
  3
C2
350
5E
  3
C3
350
5F
  3
C4
350
60
  3
C5
350
61
  3
C6
350
62
  3
C7
350
63
  3
C8
350
64
  3
C9
350
65
  3
D0
350
66
  3
D1
350
67
  3
D2
350
68
  0
XRECORD
  5
407
102
{ACAD_REACTORS
330
C
102
}
330
C
100
AcDbXrecord
280
     1
  1
DWGPROPS COOKIE
  2

  3

  4

  6

  7

  8
Swing
  9

300
=
301
=
302
=
303
=
304
=
305
=
306
=
307
=
308
=
309
=
 40
0.0
 41
2459557.275236921
 42
2459557.275237153
  1

 90
        0
  0
LAYOUT
  5
1E
102
{ACAD_REACTORS
330
1A
102
}
330
1A
100
AcDbPlotSettings
  1

  2
none_device
  4

  6

 40
0.0
 41
0.0
 42
0.0
 43
0.0
 44
0.0
 45
0.0
 46
0.0
 47
0.0
 48
0.0
 49
0.0
140
0.0
141
0.0
142
1.0
143
1.0
 70
   688
 72
     1
 73
     0
 74
     5
  7

 75
    16
147
1.0
148
0.0
149
0.0
100
AcDbLayout
  1
Layout1
 70
     1
 71
     1
 10
0.0
 20
0.0
 11
420.0
 21
297.0
 12
0.0
 22
0.0
 32
0.0
 14
1.0000000000E+20
 24
1.0000000000E+20
 34
1.0000000000E+20
 15
-1.0000000000E+20
 25
-1.0000000000E+20
 35
-1.0000000000E+20
146
0.0
 13
0.0
 23
0.0
 33
0.0
 16
1.0
 26
0.0
 36
0.0
 17
0.0
 27
1.0
 37
0.0
 76
     0
330
1B
  0
LAYOUT
  5
26
102
{ACAD_REACTORS
330
1A
102
}
330
1A
100
AcDbPlotSettings
  1

  2
none_device
  4

  6

 40
0.0
 41
0.0
 42
0.0
 43
0.0
 44
0.0
 45
0.0
 46
0.0
 47
0.0
 48
0.0
 49
0.0
140
0.0
141
0.0
142
1.0
143
1.0
 70
   688
 72
     1
 73
     0
 74
     5
  7

 75
    16
147
1.0
148
0.0
149
0.0
100
AcDbLayout
  1
Layout2
 70
     1
 71
     2
 10
0.0
 20
0.0
 11
0.0
 21
0.0
 12
0.0
 22
0.0
 32
0.0
 14
0.0
 24
0.0
 34
0.0
 15
0.0
 25
0.0
 35
0.0
146
0.0
 13
0.0
 23
0.0
 33
0.0
 16
1.0
 26
0.0
 36
0.0
 17
0.0
 27
1.0
 37
0.0
 76
     0
330
23
  0
LAYOUT
  5
22
102
{ACAD_REACTORS
330
1A
102
}
330
1A
100
AcDbPlotSettings
  1

  2
none_device
  4
Letter_(8.50_x_11.00_Inches)
  6

 40
6.35
 41
6.35
 42
6.35000508
 43
6.35000508
 44
215.9
 45
279.4
 46
0.0
 47
0.0
 48
0.0
 49
0.0
140
0.0
141
0.0
142
1.0
143
1.0
 70
  1712
 72
     1
 73
     0
 74
     0
  7

 75
     0
147
1.0
148
0.0
149
0.0
100
AcDbLayout
  1
Model
 70
     1
 71
     0
 10
0.0
 20
0.0
 11
431.8
 21
279.4
 12
0.0
 22
0.0
 32
0.0
 14
0.0
 24
0.0
 34
0.0
 15
431.8
 25
279.4
 35
0.0
146
0.0
 13
0.0
 23
0.0
 33
0.0
 16
1.0
 26
0.0
 36
0.0
 17
0.0
 27
1.0
 37
0.0
 76
     0
330
1F
331
29
  0
MLINESTYLE
  5
18
102
{ACAD_REACTORS
330
17
102
}
330
17
100
AcDbMlineStyle
  2
Standard
 70
     0
  3

 62
   256
 51
90.0
 52
90.0
 71
     2
 49
0.5
 62
   256
  6
BYLAYER
 49
-0.5
 62
   256
  6
BYLAYER
  0
ACDBPLACEHOLDER
  5
F
102
{ACAD_REACTORS
330
E
102
}
330
E
  0
SCALE
  5
48
102
{ACAD_REACTORS
330
47
102
}
330
47
100
AcDbScale
 70
     0
300
1:1
140
1.0
141
1.0
290
     1
  0
SCALE
  5
49
102
{ACAD_REACTORS
330
47
102
}
330
47
100
AcDbScale
 70
     0
300
1:2
140
1.0
141
2.0
290
     0
  0
SCALE
  5
4A
102
{ACAD_REACTORS
330
47
102
}
330
47
100
AcDbScale
 70
     0
300
1:4
140
1.0
141
4.0
290
     0
  0
SCALE
  5
4B
102
{ACAD_REACTORS
330
47
102
}
330
47
100
AcDbScale
 70
     0
300
1:5
140
1.0
141
5.0
290
     0
  0
SCALE
  5
4C
102
{ACAD_REACTORS
330
47
102
}
330
47
100
AcDbScale
 70
     0
300
1:8
140
1.0
141
8.0
290
     0
  0
SCALE
  5
4D
102
{ACAD_REACTORS
330
47
102
}
330
47
100
AcDbScale
 70
     0
300
1:10
140
1.0
141
10.0
290
     0
  0
SCALE
  5
4E
102
{ACAD_REACTORS
330
47
102
}
330
47
100
AcDbScale
 70
     0
300
1:16
140
1.0
141
16.0
290
     0
  0
SCALE
  5
4F
102
{ACAD_REACTORS
330
47
102
}
330
47
100
AcDbScale
 70
     0
300
1:20
140
1.0
141
20.0
290
     0
  0
SCALE
  5
50
102
{ACAD_REACTORS
330
47
102
}
330
47
100
AcDbScale
 70
     0
300
1:30
140
1.0
141
30.0
290
     0
  0
SCALE
  5
51
102
{ACAD_REACTORS
330
47
102
}
330
47
100
AcDbScale
 70
     0
300
1:40
140
1.0
141
40.0
290
     0
  0
SCALE
  5
52
102
{ACAD_REACTORS
330
47
102
}
330
47
100
AcDbScale
 70
     0
300
1:50
140
1.0
141
50.0
290
     0
  0
SCALE
  5
53
102
{ACAD_REACTORS
330
47
102
}
330
47
100
AcDbScale
 70
     0
300
1:100
140
1.0
141
100.0
290
     0
  0
SCALE
  5
54
102
{ACAD_REACTORS
330
47
102
}
330
47
100
AcDbScale
 70
     0
300
2:1
140
2.0
141
1.0
290
     0
  0
SCALE
  5
55
102
{ACAD_REACTORS
330
47
102
}
330
47
100
AcDbScale
 70
     0
300
4:1
140
4.0
141
1.0
290
     0
  0
SCALE
  5
56
102
{ACAD_REACTORS
330
47
102
}
330
47
100
AcDbScale
 70
     0
300
8:1
140
8.0
141
1.0
290
     0
  0
SCALE
  5
57
102
{ACAD_REACTORS
330
47
102
}
330
47
100
AcDbScale
 70
     0
300
10:1
140
10.0
141
1.0
290
     0
  0
SCALE
  5
58
102
{ACAD_REACTORS
330
47
102
}
330
47
100
AcDbScale
 70
     0
300
100:1
140
100.0
141
1.0
290
     0
  0
SCALE
  5
59
102
{ACAD_REACTORS
330
47
102
}
330
47
100
AcDbScale
 70
     0
300
1/128" = 1'-0"
140
0.0078125
141
12.0
290
     0
  0
SCALE
  5
5A
102
{ACAD_REACTORS
330
47
102
}
330
47
100
AcDbScale
 70
     0
300
1/64" = 1'-0"
140
0.015625
141
12.0
290
     0
  0
SCALE
  5
5B
102
{ACAD_REACTORS
330
47
102
}
330
47
100
AcDbScale
 70
     0
300
1/32" = 1'-0"
140
0.03125
141
12.0
290
     0
  0
SCALE
  5
5C
102
{ACAD_REACTORS
330
47
102
}
330
47
100
AcDbScale
 70
     0
300
1/16" = 1'-0"
140
0.0625
141
12.0
290
     0
  0
SCALE
  5
5D
102
{ACAD_REACTORS
330
47
102
}
330
47
100
AcDbScale
 70
     0
300
3/32" = 1'-0"
140
0.09375
141
12.0
290
     0
  0
SCALE
  5
5E
102
{ACAD_REACTORS
330
47
102
}
330
47
100
AcDbScale
 70
     0
300
1/8" = 1'-0"
140
0.125
141
12.0
290
     0
  0
SCALE
  5
5F
102
{ACAD_REACTORS
330
47
102
}
330
47
100
AcDbScale
 70
     0
300
3/16" = 1'-0"
140
0.1875
141
12.0
290
     0
  0
SCALE
  5
60
102
{ACAD_REACTORS
330
47
102
}
330
47
100
AcDbScale
 70
     0
300
1/4" = 1'-0"
140
0.25
141
12.0
290
     0
  0
SCALE
  5
61
102
{ACAD_REACTORS
330
47
102
}
330
47
100
AcDbScale
 70
     0
300
3/8" = 1'-0"
140
0.375
141
12.0
290
     0
  0
SCALE
  5
62
102
{ACAD_REACTORS
330
47
102
}
330
47
100
AcDbScale
 70
     0
300
1/2" = 1'-0"
140
0.5
141
12.0
290
     0
  0
SCALE
  5
63
102
{ACAD_REACTORS
330
47
102
}
330
47
100
AcDbScale
 70
     0
300
3/4" = 1'-0"
140
0.75
141
12.0
290
     0
  0
SCALE
  5
64
102
{ACAD_REACTORS
330
47
102
}
330
47
100
AcDbScale
 70
     0
300
1" = 1'-0"
140
1.0
141
12.0
290
     0
  0
SCALE
  5
65
102
{ACAD_REACTORS
330
47
102
}
330
47
100
AcDbScale
 70
     0
300
1-1/2" = 1'-0"
140
1.5
141
12.0
290
     0
  0
SCALE
  5
66
102
{ACAD_REACTORS
330
47
102
}
330
47
100
AcDbScale
 70
     0
300
3" = 1'-0"
140
3.0
141
12.0
290
     0
  0
SCALE
  5
67
102
{ACAD_REACTORS
330
47
102
}
330
47
100
AcDbScale
 70
     0
300
6" = 1'-0"
140
6.0
141
12.0
290
     0
  0
SCALE
  5
68
102
{ACAD_REACTORS
330
47
102
}
330
47
100
AcDbScale
 70
     0
300
1'-0" = 1'-0"
140
12.0
141
12.0
290
     0
  0
ENDSEC
  0
EOF
