  0
SECTION
  2
HEADER
  9
$ACADVER
  1
AC1015
  9
$ACADMAINTVER
 70
     6
  9
$DWGCODEPAGE
  3
ANSI_1250
  9
$INSBASE
 10
0.0
 20
0.0
 30
0.0
  9
$EXTMIN
 10
0.0
 20
0.0
 30
0.0
  9
$EXTMAX
 10
431.8
 20
279.4
 30
0.0
  9
$LIMMIN
 10
0.0
 20
0.0
  9
$LIMMAX
 10
431.8
 20
279.4
  9
$ORTHOMODE
 70
     0
  9
$REGENMODE
 70
     1
  9
$FILLMODE
 70
     1
  9
$QTEXTMODE
 70
     0
  9
$MIRRTEXT
 70
     1
  9
$LTSCALE
 40
1.0
  9
$ATTMODE
 70
     1
  9
$TEXTSIZE
 40
3.8805555556
  9
$TRACEWID
 40
1.0
  9
$TEXTSTYLE
  7
Standard
  9
$CLAYER
  8
0
  9
$CELTYPE
  6
ByLayer
  9
$CECOLOR
 62
   256
  9
$CELTSCALE
 40
1.0
  9
$DISPSILH
 70
     0
  9
$DIMSCALE
 40
1.0
  9
$DIMASZ
 40
3.302
  9
$DIMEXO
 40
1.0
  9
$DIMDLI
 40
3.75
  9
$DIMRND
 40
0.0
  9
$DIMDLE
 40
0.0
  9
$DIMEXE
 40
1.0
  9
$DIMTP
 40
0.0
  9
$DIMTM
 40
0.0
  9
$DIMTXT
 40
3.8805555556
  9
$DIMCEN
 40
2.5
  9
$DIMTSZ
 40
0.0
  9
$DIMTOL
 70
     0
  9
$DIMLIM
 70
     0
  9
$DIMTIH
 70
     1
  9
$DIMTOH
 70
     1
  9
$DIMSE1
 70
     0
  9
$DIMSE2
 70
     0
  9
$DIMTAD
 70
     1
  9
$DIMZIN
 70
     0
  9
$DIMBLK
  1

  9
$DIMASO
 70
     1
  9
$DIMSHO
 70
     1
  9
$DIMPOST
  1

  9
$DIMAPOST
  1

  9
$DIMALT
 70
     0
  9
$DIMALTD
 70
     3
  9
$DIMALTF
 40
0.0393700787
  9
$DIMLFAC
 40
1.0
  9
$DIMTOFL
 70
     1
  9
$DIMTVP
 40
0.0
  9
$DIMTIX
 70
     0
  9
$DIMSOXD
 70
     0
  9
$DIMSAH
 70
     0
  9
$DIMBLK1
  1

  9
$DIMBLK2
  1

  9
$DIMSTYLE
  2
ISO-25
  9
$DIMCLRD
 70
     0
  9
$DIMCLRE
 70
     0
  9
$DIMCLRT
 70
     0
  9
$DIMTFAC
 40
1.0
  9
$DIMGAP
 40
1.524
  9
$DIMJUST
 70
     0
  9
$DIMSD1
 70
     0
  9
$DIMSD2
 70
     0
  9
$DIMTOLJ
 70
     0
  9
$DIMTZIN
 70
     0
  9
$DIMALTZ
 70
     0
  9
$DIMALTTZ
 70
     0
  9
$DIMUPT
 70
     0
  9
$DIMDEC
 70
     1
  9
$DIMTDEC
 70
     1
  9
$DIMALTU
 70
     2
  9
$DIMALTTD
 70
     3
  9
$DIMTXSTY
  7
Standard
  9
$DIMAUNIT
 70
     0
  9
$DIMADEC
 70
     1
  9
$DIMALTRND
 40
0.0
  9
$DIMAZIN
 70
     0
  9
$DIMDSEP
 70
    44
  9
$DIMATFIT
 70
     3
  9
$DIMFRAC
 70
     0
  9
$DIMLDRBLK
  1

  9
$DIMLUNIT
 70
     2
  9
$DIMLWD
 70
    -2
  9
$DIMLWE
 70
    -2
  9
$DIMTMOVE
 70
     0
  9
$LUNITS
 70
     2
  9
$LUPREC
 70
     1
  9
$SKETCHINC
 40
1.0
  9
$FILLETRAD
 40
10.0
  9
$AUNITS
 70
     0
  9
$AUPREC
 70
     1
  9
$MENU
  1
.
  9
$ELEVATION
 40
0.0
  9
$PELEVATION
 40
0.0
  9
$THICKNESS
 40
0.0
  9
$LIMCHECK
 70
     0
  9
$CHAMFERA
 40
0.0
  9
$CHAMFERB
 40
0.0
  9
$CHAMFERC
 40
0.0
  9
$CHAMFERD
 40
0.0
  9
$SKPOLY
 70
     0
  9
$TDCREATE
 40
2459629.370494271
  9
$TDUCREATE
 40
2459629.328827604
  9
$TDUPDATE
 40
2459629.37049463
  9
$TDUUPDATE
 40
2459629.328827963
  9
$TDINDWG
 40
0.0000000116
  9
$TDUSRTIMER
 40
0.0000000116
  9
$USRTIMER
 70
     1
  9
$ANGBASE
 50
0.0
  9
$ANGDIR
 70
     0
  9
$PDMODE
 70
     0
  9
$PDSIZE
 40
-1.0
  9
$PLINEWID
 40
0.0
  9
$SPLFRAME
 70
     0
  9
$SPLINETYPE
 70
     6
  9
$SPLINESEGS
 70
     8
  9
$HANDSEED
  5
248
  9
$SURFTAB1
 70
     6
  9
$SURFTAB2
 70
     6
  9
$SURFTYPE
 70
     6
  9
$SURFU
 70
     6
  9
$SURFV
 70
     6
  9
$UCSBASE
  2

  9
$UCSNAME
  2

  9
$UCSORG
 10
0.0
 20
0.0
 30
0.0
  9
$UCSXDIR
 10
1.0
 20
0.0
 30
0.0
  9
$UCSYDIR
 10
0.0
 20
1.0
 30
0.0
  9
$UCSORTHOREF
  2

  9
$UCSORTHOVIEW
 70
     0
  9
$UCSORGTOP
 10
0.0
 20
0.0
 30
0.0
  9
$UCSORGBOTTOM
 10
0.0
 20
0.0
 30
0.0
  9
$UCSORGLEFT
 10
0.0
 20
0.0
 30
0.0
  9
$UCSORGRIGHT
 10
0.0
 20
0.0
 30
0.0
  9
$UCSORGFRONT
 10
0.0
 20
0.0
 30
0.0
  9
$UCSORGBACK
 10
0.0
 20
0.0
 30
0.0
  9
$PUCSBASE
  2

  9
$PUCSNAME
  2

  9
$PUCSORG
 10
0.0
 20
0.0
 30
0.0
  9
$PUCSXDIR
 10
1.0
 20
0.0
 30
0.0
  9
$PUCSYDIR
 10
0.0
 20
1.0
 30
0.0
  9
$PUCSORTHOREF
  2

  9
$PUCSORTHOVIEW
 70
     0
  9
$PUCSORGTOP
 10
0.0
 20
0.0
 30
0.0
  9
$PUCSORGBOTTOM
 10
0.0
 20
0.0
 30
0.0
  9
$PUCSORGLEFT
 10
0.0
 20
0.0
 30
0.0
  9
$PUCSORGRIGHT
 10
0.0
 20
0.0
 30
0.0
  9
$PUCSORGFRONT
 10
0.0
 20
0.0
 30
0.0
  9
$PUCSORGBACK
 10
0.0
 20
0.0
 30
0.0
  9
$USERI1
 70
     0
  9
$USERI2
 70
     0
  9
$USERI3
 70
     0
  9
$USERI4
 70
     0
  9
$USERI5
 70
     0
  9
$USERR1
 40
0.0
  9
$USERR2
 40
0.0
  9
$USERR3
 40
0.0
  9
$USERR4
 40
0.0
  9
$USERR5
 40
0.0
  9
$WORLDVIEW
 70
     1
  9
$SHADEDGE
 70
     3
  9
$SHADEDIF
 70
    70
  9
$TILEMODE
 70
     1
  9
$MAXACTVP
 70
    64
  9
$PINSBASE
 10
0.0
 20
0.0
 30
0.0
  9
$PLIMCHECK
 70
     0
  9
$PEXTMIN
 10
1.0000000000E+20
 20
1.0000000000E+20
 30
1.0000000000E+20
  9
$PEXTMAX
 10
-1.0000000000E+20
 20
-1.0000000000E+20
 30
-1.0000000000E+20
  9
$PLIMMIN
 10
0.0
 20
0.0
  9
$PLIMMAX
 10
420.0
 20
297.0
  9
$UNITMODE
 70
     0
  9
$VISRETAIN
 70
     1
  9
$PLINEGEN
 70
     0
  9
$PSLTSCALE
 70
     1
  9
$TREEDEPTH
 70
  3020
  9
$CMLSTYLE
  2
Standard
  9
$CMLJUST
 70
     0
  9
$CMLSCALE
 40
20.0
  9
$PROXYGRAPHICS
 70
     1
  9
$MEASUREMENT
 70
     1
  9
$CELWEIGHT
370
    -1
  9
$ENDCAPS
280
     0
  9
$JOINSTYLE
280
     0
  9
$LWDISPLAY
290
     1
  9
$INSUNITS
 70
     4
  9
$HYPERLINKBASE
  1

  9
$STYLESHEET
  1

  9
$XEDIT
290
     1
  9
$CEPSNTYPE
380
     0
  9
$PSTYLEMODE
290
     1
  9
$FINGERPRINTGUID
  2
{00e5661d-455e-4ad0-a3aa-a10b4b7bf5ec}
  9
$VERSIONGUID
  2
{FAEB1C32-E019-11D5-929B-00C0DF256EC4}
  9
$EXTNAMES
290
     1
  9
$PSVPSCALE
 40
0.0
  9
$OLESTARTUP
290
     0
  0
ENDSEC
  0
SECTION
  2
CLASSES
  0
CLASS
  1
ACDBDICTIONARYWDFLT
  2
AcDbDictionaryWithDefault
  3
ObjectDBX Classes
 90
        0
280
     0
281
     0
  0
CLASS
  1
VISUALSTYLE
  2
AcDbVisualStyle
  3
ObjectDBX Classes
 90
     4095
280
     0
281
     0
  0
CLASS
  1
MATERIAL
  2
AcDbMaterial
  3
ObjectDBX Classes
 90
     1153
280
     0
281
     0
  0
CLASS
  1
SCALE
  2
AcDbScale
  3
ObjectDBX Classes
 90
     1153
280
     0
281
     0
  0
CLASS
  1
TABLESTYLE
  2
AcDbTableStyle
  3
ObjectDBX Classes
 90
     4095
280
     0
281
     0
  0
CLASS
  1
MLEADERSTYLE
  2
AcDbMLeaderStyle
  3
ACDB_MLEADERSTYLE_CLASS
 90
     4095
280
     0
281
     0
  0
CLASS
  1
SUN
  2
AcDbSun
  3
SCENEOE
 90
     1153
280
     0
281
     0
  0
CLASS
  1
ACDBPLACEHOLDER
  2
AcDbPlaceHolder
  3
ObjectDBX Classes
 90
        0
280
     0
281
     0
  0
CLASS
  1
LAYOUT
  2
AcDbLayout
  3
ObjectDBX Classes
 90
        0
280
     0
281
     0
  0
ENDSEC
  0
SECTION
  2
TABLES
  0
TABLE
  2
VPORT
  5
8
330
0
100
AcDbSymbolTable
 70
     1
  0
VPORT
  5
29
330
8
100
AcDbSymbolTableRecord
100
AcDbViewportTableRecord
  2
*Active
 70
     0
 10
0.0
 20
0.0
 11
1.0
 21
1.0
 12
215.9
 22
139.7
 13
0.0
 23
0.0
 14
10.0
 24
10.0
 15
10.0
 25
10.0
 16
0.0
 26
0.0
 36
1.0
 17
0.0
 27
0.0
 37
0.0
 40
279.4
 41
1.5454545455
 42
50.0
 43
0.0
 44
0.0
 50
0.0
 51
0.0
 71
     0
 72
  2000
 73
     1
 74
     3
 75
     0
 76
     0
 77
     0
 78
     0
281
     0
 65
     1
110
0.0
120
0.0
130
0.0
111
1.0
121
0.0
131
0.0
112
0.0
122
1.0
132
0.0
 79
     0
146
0.0
  0
ENDTAB
  0
TABLE
  2
LTYPE
  5
5
330
0
100
AcDbSymbolTable
 70
     6
  0
LTYPE
  5
14
330
5
100
AcDbSymbolTableRecord
100
AcDbLinetypeTableRecord
  2
ByBlock
 70
     0
  3

 72
    65
 73
     0
 40
0.0
  0
LTYPE
  5
15
330
5
100
AcDbSymbolTableRecord
100
AcDbLinetypeTableRecord
  2
ByLayer
 70
     0
  3

 72
    65
 73
     0
 40
0.0
  0
LTYPE
  5
16
330
5
100
AcDbSymbolTableRecord
100
AcDbLinetypeTableRecord
  2
Continuous
 70
     0
  3
Solid line
 72
    65
 73
     0
 40
0.0
  0
LTYPE
  5
6E
330
5
100
AcDbSymbolTableRecord
100
AcDbLinetypeTableRecord
  2
HIDDEN
 70
     0
  3
Hidden __ __ __ __ __ __ __ __ __ __ __ __ __ __
 72
    65
 73
     2
 40
1.905
 49
1.27
 74
     0
 49
-0.635
 74
     0
  0
LTYPE
  5
6F
330
5
100
AcDbSymbolTableRecord
100
AcDbLinetypeTableRecord
  2
PHANTOM
 70
     0
  3
Phantom ______  __  __  ______  __  __  ______
 72
    65
 73
     6
 40
12.7
 49
6.35
 74
     0
 49
-1.27
 74
     0
 49
1.27
 74
     0
 49
-1.27
 74
     0
 49
1.27
 74
     0
 49
-1.27
 74
     0
  0
LTYPE
  5
70
330
5
100
AcDbSymbolTableRecord
100
AcDbLinetypeTableRecord
  2
CENTER
 70
     0
  3
Center ____ _ ____ _ ____ _ ____ _ ____ _ ____
 72
    65
 73
     4
 40
10.16
 49
6.35
 74
     0
 49
-1.27
 74
     0
 49
1.27
 74
     0
 49
-1.27
 74
     0
  0
LTYPE
  5
71
330
5
100
AcDbSymbolTableRecord
100
AcDbLinetypeTableRecord
  2
CENTERX2
 70
     0
  3
Center (2x) ________  __  ________  __  _____
 72
    65
 73
     4
 40
20.32
 49
12.7
 74
     0
 49
-2.54
 74
     0
 49
2.54
 74
     0
 49
-2.54
 74
     0
  0
LTYPE
  5
72
330
5
100
AcDbSymbolTableRecord
100
AcDbLinetypeTableRecord
  2
DOT2
 70
     0
  3
Dot (.5x) ........................................
 72
    65
 73
     2
 40
0.635
 49
0.0
 74
     0
 49
-0.635
 74
     0
  0
ENDTAB
  0
TABLE
  2
LAYER
  5
2
330
0
100
AcDbSymbolTable
 70
     3
  0
LAYER
  5
10
330
2
100
AcDbSymbolTableRecord
100
AcDbLayerTableRecord
  2
0
 70
     0
 62
     7
  6
Continuous
370
    -3
390
F
  0
LAYER
  5
73
330
2
100
AcDbSymbolTableRecord
100
AcDbLayerTableRecord
  2
FRAME_&_TABLE
 70
     0
 62
     8
  6
Continuous
370
    50
390
F
  0
LAYER
  5
74
330
2
100
AcDbSymbolTableRecord
100
AcDbLayerTableRecord
  2
DIMENSIONS
 70
     0
 62
     7
  6
Continuous
370
    -3
390
F
  0
ENDTAB
  0
TABLE
  2
STYLE
  5
3
330
0
100
AcDbSymbolTable
 70
     1
  0
STYLE
  5
11
330
3
100
AcDbSymbolTableRecord
100
AcDbTextStyleTableRecord
  2
Standard
 70
     0
 40
0.0
 41
1.0
 50
0.0
 71
     0
 42
3.8805555556
  3
txt
  4

  0
ENDTAB
  0
TABLE
  2
VIEW
  5
6
330
0
100
AcDbSymbolTable
 70
     0
  0
ENDTAB
  0
TABLE
  2
UCS
  5
7
330
0
100
AcDbSymbolTable
 70
     0
  0
ENDTAB
  0
TABLE
  2
APPID
  5
9
330
0
100
AcDbSymbolTable
 70
     1
  0
APPID
  5
12
330
9
100
AcDbSymbolTableRecord
100
AcDbRegAppTableRecord
  2
ACAD
 70
     0
  0
ENDTAB
  0
TABLE
  2
DIMSTYLE
  5
A
330
0
100
AcDbSymbolTable
 70
     1
100
AcDbDimStyleTable
  0
DIMSTYLE
105
27
330
A
100
AcDbSymbolTableRecord
100
AcDbDimStyleTableRecord
  2
ISO-25
 70
     0
 41
2.5
 42
0.625
 43
3.75
 44
1.25
 73
     0
 74
     0
 77
     1
 78
     8
140
2.5
141
2.5
143
0.0393700787
147
0.625
171
     3
172
     1
178
     0
271
     2
272
     2
274
     3
278
    44
283
     0
284
     8
340
11
  0
ENDTAB
  0
TABLE
  2
BLOCK_RECORD
  5
1
330
0
100
AcDbSymbolTable
 70
     1
  0
BLOCK_RECORD
  5
1F
330
1
100
AcDbSymbolTableRecord
100
AcDbBlockTableRecord
  2
*Model_Space
340
22
  0
BLOCK_RECORD
  5
1B
330
1
100
AcDbSymbolTableRecord
100
AcDbBlockTableRecord
  2
*Paper_Space
340
1E
  0
BLOCK_RECORD
  5
23
330
1
100
AcDbSymbolTableRecord
100
AcDbBlockTableRecord
  2
*Paper_Space0
340
26
  0
ENDTAB
  0
ENDSEC
  0
SECTION
  2
BLOCKS
  0
BLOCK
  5
20
330
1F
100
AcDbEntity
  8
0
100
AcDbBlockBegin
  2
*Model_Space
 70
     0
 10
0.0
 20
0.0
 30
0.0
  3
*Model_Space
  1

  0
ENDBLK
  5
21
330
1F
100
AcDbEntity
  8
0
100
AcDbBlockEnd
  0
BLOCK
  5
1C
330
1B
100
AcDbEntity
 67
     1
  8
0
100
AcDbBlockBegin
  2
*Paper_Space
 70
     0
 10
0.0
 20
0.0
 30
0.0
  3
*Paper_Space
  1

  0
ENDBLK
  5
1D
330
1B
100
AcDbEntity
 67
     1
  8
0
100
AcDbBlockEnd
  0
BLOCK
  5
24
330
23
100
AcDbEntity
  8
0
100
AcDbBlockBegin
  2
*Paper_Space0
 70
     0
 10
0.0
 20
0.0
 30
0.0
  3
*Paper_Space0
  1

  0
ENDBLK
  5
25
330
23
100
AcDbEntity
  8
0
100
AcDbBlockEnd
  0
ENDSEC
  0
SECTION
  2
ENTITIES
  0
CIRCLE
  5
75
330
1F
100
AcDbEntity
  8
0
  6
Continuous
 62
     7
370
    25
100
AcDbCircle
 10
496.7753045508
 20
185.1536732789
 30
0.0
 40
11.15000000000001
  0
CIRCLE
  5
76
330
1F
100
AcDbEntity
  8
0
  6
Continuous
 62
     7
370
    25
100
AcDbCircle
 10
172.2753045508
 20
457.6536732789
 30
0.0
 40
11.14999999999998
  0
CIRCLE
  5
77
330
1F
100
AcDbEntity
  8
0
  6
Continuous
 62
     7
370
    25
100
AcDbCircle
 10
-33.2246954492
 20
185.1536732789
 30
0.0
 40
11.15000000000001
  0
CIRCLE
  5
78
330
1F
100
AcDbEntity
  8
0
  6
Continuous
 62
     7
370
    25
100
AcDbCircle
 10
224.2753045508
 20
-139.3463267211
 30
0.0
 40
11.15000000000001
  0
CIRCLE
  5
79
330
1F
100
AcDbEntity
  8
0
  6
Continuous
 62
     7
370
    25
100
AcDbCircle
 10
224.2753045508
 20
390.6536732789
 30
0.0
 40
11.15000000000003
  0
CIRCLE
  5
7A
330
1F
100
AcDbEntity
  8
0
  6
Continuous
 62
     7
370
    25
100
AcDbCircle
 10
-100.2246954492
 20
133.1536732789
 30
0.0
 40
11.14999999999998
  0
CIRCLE
  5
7B
330
1F
100
AcDbEntity
  8
0
  6
Continuous
 62
     7
370
    25
100
AcDbCircle
 10
172.2753045508
 20
-72.3463267211
 30
0.0
 40
11.14999999999999
  0
CIRCLE
  5
7C
330
1F
100
AcDbEntity
  8
0
  6
Continuous
 62
     7
370
    25
100
AcDbCircle
 10
429.7753045508
 20
133.1536732789
 30
0.0
 40
11.14999999999999
  0
ARC
  5
7D
330
1F
100
AcDbEntity
  8
0
  6
Continuous
 62
     7
370
    25
100
AcDbCircle
 10
278.2753045508
 20
-105.8463267211
 30
0.0
 40
12.50000000000001
100
AcDbArc
 50
270.0
 51
90.0
  0
LINE
  5
7E
330
1F
100
AcDbEntity
  8
0
  6
Continuous
 62
     7
370
    25
100
AcDbLine
 10
278.2753045508
 20
-93.3463267211
 30
0.0
 11
228.2753045508
 21
-93.3463267211
 31
0.0
  0
LINE
  5
7F
330
1F
100
AcDbEntity
  8
0
  6
Continuous
 62
     7
370
    25
100
AcDbLine
 10
228.2753045508
 20
-118.3463267211
 30
0.0
 11
278.2753045508
 21
-118.3463267211
 31
0.0
  0
ARC
  5
80
330
1F
100
AcDbEntity
  8
0
  6
Continuous
 62
     7
370
    25
100
AcDbCircle
 10
118.2753045508
 20
-105.8463267211
 30
0.0
 40
12.50000000000001
100
AcDbArc
 50
90.0
 51
270.0
  0
LINE
  5
81
330
1F
100
AcDbEntity
  8
0
  6
Continuous
 62
     7
370
    25
100
AcDbLine
 10
168.2753045508
 20
-93.3463267211
 30
0.0
 11
118.2753045508
 21
-93.3463267211
 31
0.0
  0
LINE
  5
82
330
1F
100
AcDbEntity
  8
0
  6
Continuous
 62
     7
370
    25
100
AcDbLine
 10
118.2753045508
 20
-118.3463267211
 30
0.0
 11
168.2753045508
 21
-118.3463267211
 31
0.0
  0
LINE
  5
83
330
1F
100
AcDbEntity
  8
0
  6
Continuous
 62
     7
370
    25
100
AcDbLine
 10
168.2753045508
 20
-118.3463267211
 30
0.0
 11
228.2753045508
 21
-118.3463267211
 31
0.0
  0
LINE
  5
84
330
1F
100
AcDbEntity
  8
0
  6
Continuous
 62
     7
370
    25
100
AcDbLine
 10
228.2753045508
 20
-93.3463267211
 30
0.0
 11
168.2753045508
 21
-93.3463267211
 31
0.0
  0
LINE
  5
85
330
1F
100
AcDbEntity
  8
0
  6
Continuous
 62
     7
370
    25
100
AcDbLine
 10
168.2753045508
 20
411.6536732789
 30
0.0
 11
228.2753045508
 21
411.6536732789
 31
0.0
  0
LINE
  5
86
330
1F
100
AcDbEntity
  8
0
  6
Continuous
 62
     7
370
    25
100
AcDbLine
 10
228.2753045508
 20
436.6536732789
 30
0.0
 11
168.2753045508
 21
436.6536732789
 31
0.0
  0
ARC
  5
87
330
1F
100
AcDbEntity
  8
0
  6
Continuous
 62
     7
370
    25
100
AcDbCircle
 10
278.2753045508
 20
424.1536732789
 30
0.0
 40
12.5
100
AcDbArc
 50
270.0
 51
90.0
  0
LINE
  5
88
330
1F
100
AcDbEntity
  8
0
  6
Continuous
 62
     7
370
    25
100
AcDbLine
 10
278.2753045508
 20
436.6536732789
 30
0.0
 11
228.2753045508
 21
436.6536732789
 31
0.0
  0
LINE
  5
89
330
1F
100
AcDbEntity
  8
0
  6
Continuous
 62
     7
370
    25
100
AcDbLine
 10
228.2753045508
 20
411.6536732789
 30
0.0
 11
278.2753045508
 21
411.6536732789
 31
0.0
  0
ARC
  5
8A
330
1F
100
AcDbEntity
  8
0
  6
Continuous
 62
     7
370
    25
100
AcDbCircle
 10
118.2753045508
 20
424.1536732789
 30
0.0
 40
12.5
100
AcDbArc
 50
90.0
 51
270.0
  0
LINE
  5
8B
330
1F
100
AcDbEntity
  8
0
  6
Continuous
 62
     7
370
    25
100
AcDbLine
 10
168.2753045508
 20
436.6536732789
 30
0.0
 11
118.2753045508
 21
436.6536732789
 31
0.0
  0
LINE
  5
8C
330
1F
100
AcDbEntity
  8
0
  6
Continuous
 62
     7
370
    25
100
AcDbLine
 10
118.2753045508
 20
411.6536732789
 30
0.0
 11
168.2753045508
 21
411.6536732789
 31
0.0
  0
ARC
  5
8D
330
1F
100
AcDbEntity
  8
0
  6
Continuous
 62
     7
370
    25
100
AcDbCircle
 10
463.2753045508
 20
79.1536732789
 30
0.0
 40
12.5
100
AcDbArc
 50
180.0
 51
0.0
  0
LINE
  5
8E
330
1F
100
AcDbEntity
  8
0
  6
Continuous
 62
     7
370
    25
100
AcDbLine
 10
475.7753045508
 20
79.1536732789
 30
0.0
 11
475.7753045508
 21
129.1536732789
 31
0.0
  0
LINE
  5
8F
330
1F
100
AcDbEntity
  8
0
  6
Continuous
 62
     7
370
    25
100
AcDbLine
 10
450.7753045508
 20
129.1536732789
 30
0.0
 11
450.7753045508
 21
79.1536732789
 31
0.0
  0
LINE
  5
90
330
1F
100
AcDbEntity
  8
0
  6
Continuous
 62
     7
370
    25
100
AcDbLine
 10
450.7753045508
 20
189.1536732789
 30
0.0
 11
450.7753045508
 21
129.1536732789
 31
0.0
  0
LINE
  5
91
330
1F
100
AcDbEntity
  8
0
  6
Continuous
 62
     7
370
    25
100
AcDbLine
 10
475.7753045508
 20
129.1536732789
 30
0.0
 11
475.7753045508
 21
189.1536732789
 31
0.0
  0
ARC
  5
92
330
1F
100
AcDbEntity
  8
0
  6
Continuous
 62
     7
370
    25
100
AcDbCircle
 10
463.2753045508
 20
239.1536732789
 30
0.0
 40
12.5
100
AcDbArc
 50
0.0
 51
180.0
  0
LINE
  5
93
330
1F
100
AcDbEntity
  8
0
  6
Continuous
 62
     7
370
    25
100
AcDbLine
 10
475.7753045508
 20
189.1536732789
 30
0.0
 11
475.7753045508
 21
239.1536732789
 31
0.0
  0
LINE
  5
94
330
1F
100
AcDbEntity
  8
0
  6
Continuous
 62
     7
370
    25
100
AcDbLine
 10
450.7753045508
 20
239.1536732789
 30
0.0
 11
450.7753045508
 21
189.1536732789
 31
0.0
  0
ARC
  5
95
330
1F
100
AcDbEntity
  8
0
  6
Continuous
 62
     7
370
    25
100
AcDbCircle
 10
-66.7246954492
 20
239.1536732789
 30
0.0
 40
12.50000000000001
100
AcDbArc
 50
0.0
 51
180.0
  0
LINE
  5
96
330
1F
100
AcDbEntity
  8
0
  6
Continuous
 62
     7
370
    25
100
AcDbLine
 10
-79.2246954492
 20
239.1536732789
 30
0.0
 11
-79.2246954492
 21
189.1536732789
 31
0.0
  0
LINE
  5
97
330
1F
100
AcDbEntity
  8
0
  6
Continuous
 62
     7
370
    25
100
AcDbLine
 10
-54.2246954492
 20
189.1536732789
 30
0.0
 11
-54.2246954492
 21
239.1536732789
 31
0.0
  0
LINE
  5
98
330
1F
100
AcDbEntity
  8
0
  6
Continuous
 62
     7
370
    25
100
AcDbLine
 10
-54.2246954492
 20
129.1536732789
 30
0.0
 11
-54.2246954492
 21
189.1536732789
 31
0.0
  0
LINE
  5
99
330
1F
100
AcDbEntity
  8
0
  6
Continuous
 62
     7
370
    25
100
AcDbLine
 10
-79.2246954492
 20
189.1536732789
 30
0.0
 11
-79.2246954492
 21
129.1536732789
 31
0.0
  0
ARC
  5
9A
330
1F
100
AcDbEntity
  8
0
  6
Continuous
 62
     7
370
    25
100
AcDbCircle
 10
-66.7246954492
 20
79.1536732789
 30
0.0
 40
12.50000000000001
100
AcDbArc
 50
180.0
 51
0.0
  0
LINE
  5
9B
330
1F
100
AcDbEntity
  8
0
  6
Continuous
 62
     7
370
    25
100
AcDbLine
 10
-79.2246954492
 20
129.1536732789
 30
0.0
 11
-79.2246954492
 21
79.1536732789
 31
0.0
  0
LINE
  5
9C
330
1F
100
AcDbEntity
  8
0
  6
Continuous
 62
     7
370
    25
100
AcDbLine
 10
-54.2246954492
 20
79.1536732789
 30
0.0
 11
-54.2246954492
 21
129.1536732789
 31
0.0
  0
ARC
  5
9D
330
1F
100
AcDbEntity
  8
0
  6
Continuous
 62
     7
370
    25
100
AcDbCircle
 10
-226.5465885279
 20
147.9631309847
 30
0.0
 40
3.000000000000013
100
AcDbArc
 50
30.7233813655
 51
210.7233813655
  0
ARC
  5
9E
330
1F
100
AcDbEntity
  8
0
  6
Continuous
 62
     7
370
    25
100
AcDbCircle
 10
-282.7937151315
 20
114.5349780558
 30
0.0
 40
62.43073176576027
100
AcDbArc
 50
347.3749865654
 51
30.7233813655
  0
ARC
  5
9F
330
1F
100
AcDbEntity
  8
0
  6
Continuous
 62
     7
370
    25
100
AcDbCircle
 10
-218.9450045768
 20
100.2338305529
 30
0.0
 40
2.999999999999989
100
AcDbArc
 50
167.3749865654
 51
347.3749865654
  0
ARC
  5
A0
330
1F
100
AcDbEntity
  8
0
  6
Continuous
 62
     7
370
    25
100
AcDbCircle
 10
-282.7937151315
 20
114.5349780558
 30
0.0
 40
68.43073176576024
100
AcDbArc
 50
347.3749865654
 51
30.7233813655
  0
ARC
  5
A1
330
1F
100
AcDbEntity
  8
0
  6
Continuous
 62
     7
370
    25
100
AcDbCircle
 10
-240.3566208236
 20
158.4311101328
 30
0.0
 40
87.92787496198363
100
AcDbArc
 50
162.7814035901
 51
240.6043472817
  0
ARC
  5
A2
330
1F
100
AcDbEntity
  8
0
  6
Continuous
 62
     7
370
    25
100
AcDbCircle
 10
-282.042419338
 20
84.4376094198
 30
0.0
 40
3.000000000000037
100
AcDbArc
 50
240.6043472817
 51
60.6043472817
  0
ARC
  5
A3
330
1F
100
AcDbEntity
  8
0
  6
Continuous
 62
     7
370
    25
100
AcDbCircle
 10
-240.3566208236
 20
158.4311101328
 30
0.0
 40
81.92787496198365
100
AcDbArc
 50
162.7814035901
 51
240.6043472817
  0
ARC
  5
A4
330
1F
100
AcDbEntity
  8
0
  6
Continuous
 62
     7
370
    25
100
AcDbCircle
 10
-321.4782266739
 20
183.5712972805
 30
0.0
 40
3.000000000000012
100
AcDbArc
 50
342.7814035901
 51
162.7814035901
  0
CIRCLE
  5
A5
330
1F
100
AcDbEntity
  8
0
  6
Continuous
 62
     7
370
    25
100
AcDbCircle
 10
-225.4436332064
 20
204.3749433154
 30
0.0
 40
17.6198172714742
  0
CIRCLE
  5
A6
330
1F
100
AcDbEntity
  8
0
  6
Continuous
 62
     7
370
    25
100
AcDbCircle
 10
-251.7246954492
 20
159.1536732789
 30
0.0
 40
118.0
  0
CIRCLE
  5
A7
330
1F
100
AcDbEntity
  8
0
  6
Continuous
 62
     7
370
    25
100
AcDbCircle
 10
-251.7246954492
 20
159.1536732789
 30
0.0
 40
127.0
  0
CIRCLE
  5
A8
330
1F
100
AcDbEntity
  8
0
  6
Continuous
 62
     7
370
    25
100
AcDbCircle
 10
-251.7246954492
 20
159.1536732789
 30
0.0
 40
124.0
  0
CIRCLE
  5
A9
330
1F
100
AcDbEntity
  8
0
  6
Continuous
 62
     7
370
    25
100
AcDbCircle
 10
648.2753045508
 20
159.1536732789
 30
0.0
 40
127.0000000000001
  0
CIRCLE
  5
AA
330
1F
100
AcDbEntity
  8
0
  6
Continuous
 62
     7
370
    25
100
AcDbCircle
 10
648.2753045508
 20
159.1536732789
 30
0.0
 40
124.0000000000001
  0
LINE
  5
AB
330
1F
100
AcDbEntity
  8
0
  6
Continuous
 62
     7
370
    25
100
AcDbLine
 10
698.601651991
 20
130.8374276789
 30
0.0
 11
701.5184583262
 21
148.3592408282
 31
0.0
  0
LINE
  5
AC
330
1F
100
AcDbEntity
  8
0
  6
Continuous
 62
     7
370
    25
100
AcDbLine
 10
698.601651991
 20
130.8374276789
 30
0.0
 11
682.3666955685
 21
144.6681294534
 31
0.0
  0
ARC
  5
AD
330
1F
100
AcDbEntity
  8
0
  6
Continuous
 62
     7
370
    25
100
AcDbCircle
 10
680.4212208779
 20
142.3844639288
 30
0.0
 40
2.999999999999984
100
AcDbArc
 50
49.5720314578
 51
229.5720314578
  0
LINE
  5
AE
330
1F
100
AcDbEntity
  8
0
  6
Continuous
 62
     7
370
    25
100
AcDbLine
 10
694.1543870041
 20
126.7440267737
 30
0.0
 11
678.4757461873
 21
140.1007984042
 31
0.0
  0
LINE
  5
AF
330
1F
100
AcDbEntity
  8
0
  6
Continuous
 62
     7
370
    25
100
AcDbLine
 10
674.5865747108
 20
115.4803746775
 30
0.0
 11
694.1543870041
 21
126.7440267737
 31
0.0
  0
ARC
  5
B0
330
1F
100
AcDbEntity
  8
0
  6
Continuous
 62
     7
370
    25
100
AcDbCircle
 10
676.0832021852
 20
112.880354254
 30
0.0
 40
2.999999999999995
100
AcDbArc
 50
119.9256529974
 51
299.9256529974
  0
LINE
  5
B1
330
1F
100
AcDbEntity
  8
0
  6
Continuous
 62
     7
370
    25
100
AcDbLine
 10
677.5798296597
 20
110.2803338304
 30
0.0
 11
697.0447388187
 21
121.4847526773
 31
0.0
  0
LINE
  5
B2
330
1F
100
AcDbEntity
  8
0
  6
Continuous
 62
     7
370
    25
100
AcDbLine
 10
693.5505084922
 20
100.4942432483
 30
0.0
 11
697.0447388187
 21
121.4847526773
 31
0.0
  0
ARC
  5
B3
330
1F
100
AcDbEntity
  8
0
  6
Continuous
 62
     7
370
    25
100
AcDbCircle
 10
696.5097859515
 20
100.0016207573
 30
0.0
 40
3.000000000000056
100
AcDbArc
 50
170.5488005373
 51
350.5488005373
  0
LINE
  5
B4
330
1F
100
AcDbEntity
  8
0
  6
Continuous
 62
     7
370
    25
100
AcDbLine
 10
699.4690634109
 20
99.5089982663
 30
0.0
 11
702.7796157258
 21
119.3961187732
 31
0.0
  0
LINE
  5
B5
330
1F
100
AcDbEntity
  8
0
  6
Continuous
 62
     7
370
    25
100
AcDbLine
 10
716.4130776452
 20
107.7816529838
 30
0.0
 11
702.7796157258
 21
119.3961187732
 31
0.0
  0
ARC
  5
B6
330
1F
100
AcDbEntity
  8
0
  6
Continuous
 62
     7
370
    25
100
AcDbCircle
 10
718.3585523358
 20
110.0653185084
 30
0.0
 40
3.000000000000057
100
AcDbArc
 50
229.5720314578
 51
49.5720314578
  0
LINE
  5
B7
330
1F
100
AcDbEntity
  8
0
  6
Continuous
 62
     7
370
    25
100
AcDbLine
 10
720.3040270264
 20
112.348984033
 30
0.0
 11
704.5255073377
 21
125.7908433505
 31
0.0
  0
LINE
  5
B8
330
1F
100
AcDbEntity
  8
0
  6
Continuous
 62
     7
370
    25
100
AcDbLine
 10
704.5255073377
 20
125.7908433505
 30
0.0
 11
725.9307931635
 21
138.1121845892
 31
0.0
  0
ARC
  5
B9
330
1F
100
AcDbEntity
  8
0
  6
Continuous
 62
     7
370
    25
100
AcDbCircle
 10
724.434165689
 20
140.7122050127
 30
0.0
 40
3.000000000000109
100
AcDbArc
 50
299.9256529974
 51
119.9256529974
  0
LINE
  5
BA
330
1F
100
AcDbEntity
  8
0
  6
Continuous
 62
     7
370
    25
100
AcDbLine
 10
705.0465063613
 20
133.0137640949
 30
0.0
 11
722.9375382146
 21
143.3122254362
 31
0.0
  0
LINE
  5
BB
330
1F
100
AcDbEntity
  8
0
  6
Continuous
 62
     7
370
    25
100
AcDbLine
 10
705.0465063613
 20
133.0137640949
 30
0.0
 11
707.4370132449
 21
147.3739958461
 31
0.0
  0
ARC
  5
BC
330
1F
100
AcDbEntity
  8
0
  6
Continuous
 62
     7
370
    25
100
AcDbCircle
 10
704.4777357855
 20
147.8666183371
 30
0.0
 40
2.999999999999946
100
AcDbArc
 50
350.5488005373
 51
170.5488005373
  0
ARC
  5
BD
330
1F
100
AcDbEntity
  8
0
  6
Continuous
 62
     7
370
    25
100
AcDbCircle
 10
631.4227473658
 20
215.9607781735
 30
0.0
 40
3.000000000000029
100
AcDbArc
 50
267.0464945124
 51
87.0464945124
  0
ARC
  5
BE
330
1F
100
AcDbEntity
  8
0
  6
Continuous
 62
     7
370
    25
100
AcDbCircle
 10
630.3073659884
 20
194.3423892199
 30
0.0
 40
24.64714338111092
100
AcDbArc
 50
87.0464945124
 51
269.9508753919
  0
ARC
  5
BF
330
1F
100
AcDbEntity
  8
0
  6
Continuous
 62
     7
370
    25
100
AcDbCircle
 10
630.2888060297
 20
172.6952537954
 30
0.0
 40
3.000000000000029
100
AcDbArc
 50
269.9508753919
 51
89.9508753919
  0
ARC
  5
C0
330
1F
100
AcDbEntity
  8
0
  6
Continuous
 62
     7
370
    25
100
AcDbCircle
 10
630.3073659884
 20
194.3423892199
 30
0.0
 40
18.64714338111089
100
AcDbArc
 50
87.0464945124
 51
269.9508753919
  0
ARC
  5
C1
330
1F
100
AcDbEntity
  8
0
  6
Continuous
 62
     7
370
    25
100
AcDbCircle
 10
630.400391943
 20
150.4657479136
 30
0.0
 40
3.000000000000005
100
AcDbArc
 50
270.4576493173
 51
90.4576493173
  0
ARC
  5
C2
330
1F
100
AcDbEntity
  8
0
  6
Continuous
 62
     7
370
    25
100
AcDbCircle
 10
630.5569923213
 20
130.8604527892
 30
0.0
 40
22.60592054956851
100
AcDbArc
 50
90.4576493173
 51
255.1775740075
  0
ARC
  5
C3
330
1F
100
AcDbEntity
  8
0
  6
Continuous
 62
     7
370
    25
100
AcDbCircle
 10
625.5413241619
 20
111.9069519645
 30
0.0
 40
3.000000000000037
100
AcDbArc
 50
255.1775740075
 51
75.1775740075
  0
ARC
  5
C4
330
1F
100
AcDbEntity
  8
0
  6
Continuous
 62
     7
370
    25
100
AcDbCircle
 10
630.5569923213
 20
130.8604527892
 30
0.0
 40
16.6059205495685
100
AcDbArc
 50
90.4576493173
 51
255.1775740075
  0
CIRCLE
  5
C5
330
1F
100
AcDbEntity
  8
0
  6
Continuous
 62
     7
370
    25
100
AcDbCircle
 10
648.2753045508
 20
159.1536732789
 30
0.0
 40
118.0
  0
LINE
  5
C6
330
1F
100
AcDbEntity
  8
0
  6
Continuous
 62
     7
370
    25
100
AcDbLine
 10
108.464937808
 20
-251.4260146168
 30
0.0
 11
126.5304840368
 21
-287.8725777988
 31
0.0
  0
ARC
  5
C7
330
1F
100
AcDbEntity
  8
0
  6
Continuous
 62
     7
370
    25
100
AcDbCircle
 10
134.5942398398
 20
-283.8755986458
 30
0.0
 40
9.000000000000014
100
AcDbArc
 50
206.3663338027
 51
272.1731248154
  0
LINE
  5
C8
330
1F
100
AcDbEntity
  8
0
  6
Continuous
 62
     7
370
    25
100
AcDbLine
 10
217.200383507
 20
-284.6268886303
 30
0.0
 11
199.4677836179
 21
-250.8986062667
 31
0.0
  0
ARC
  5
C9
330
1F
100
AcDbEntity
  8
0
  6
Continuous
 62
     7
370
    25
100
AcDbCircle
 10
225.1665086712
 20
-280.4387088505
 30
0.0
 40
9.00000000000001
100
AcDbArc
 50
207.7330899872
 51
272.1731248154
  0
LINE
  5
CA
330
1F
100
AcDbEntity
  8
0
  6
Continuous
 62
     7
370
    25
100
AcDbLine
 10
261.5862453568
 20
-288.0631890009
 30
0.0
 11
225.5077804827
 21
-289.4322361646
 31
0.0
  0
ARC
  5
CB
330
1F
100
AcDbEntity
  8
0
  6
Continuous
 62
     7
370
    25
100
AcDbCircle
 10
116.528693611
 20
-247.4290354638
 30
0.0
 40
8.99999999999999
100
AcDbArc
 50
92.1731248154
 51
206.3663338027
  0
ARC
  5
CC
330
1F
100
AcDbEntity
  8
0
  6
Continuous
 62
     7
370
    25
100
AcDbCircle
 10
246.2803981142
 20
-355.9635841191
 30
0.0
 40
3.000000000000013
100
AcDbArc
 50
272.1731248154
 51
92.1731248154
  0
ARC
  5
CD
330
1F
100
AcDbEntity
  8
0
  6
Continuous
 62
     7
370
    25
100
AcDbCircle
 10
152.5245635143
 20
-353.5169604837
 30
0.0
 40
2.999999999999986
100
AcDbArc
 50
212.0404403864
 51
272.1731248154
  0
LINE
  5
CE
330
1F
100
AcDbEntity
  8
0
  6
Continuous
 62
     7
370
    25
100
AcDbLine
 10
152.8658353257
 20
-362.5104877978
 30
0.0
 11
246.3941553846
 21
-358.9614265572
 31
0.0
  0
ARC
  5
CF
330
1F
100
AcDbEntity
  8
0
  6
Continuous
 62
     7
370
    25
100
AcDbCircle
 10
196.8124085632
 20
-252.2946661933
 30
0.0
 40
3.000000000000057
100
AcDbArc
 50
27.7330899872
 51
156.6131596436
  0
LINE
  5
D0
330
1F
100
AcDbEntity
  8
0
  6
Continuous
 62
     7
370
    25
100
AcDbLine
 10
134.9355116512
 20
-292.86912596
 30
0.0
 11
171.0139765254
 21
-291.5000787963
 31
0.0
  0
LINE
  5
D1
330
1F
100
AcDbEntity
  8
0
  6
Continuous
 62
     7
370
    25
100
AcDbLine
 10
152.6383207848
 20
-356.5148029217
 30
0.0
 11
246.1666408437
 21
-352.9657416811
 31
0.0
  0
ARC
  5
D2
330
1F
100
AcDbEntity
  8
0
  6
Continuous
 62
     7
370
    25
100
AcDbCircle
 10
152.5245635143
 20
-353.5169604837
 30
0.0
 40
8.99999999999998
100
AcDbArc
 50
212.0404403864
 51
272.1731248154
  0
ARC
  5
D3
330
1F
100
AcDbEntity
  8
0
  6
Continuous
 62
     7
370
    25
100
AcDbCircle
 10
261.2449735454
 20
-279.0696616867
 30
0.0
 40
9.000000000000062
100
AcDbArc
 50
272.1731248154
 51
337.9799158281
  0
LINE
  5
D4
330
1F
100
AcDbEntity
  8
0
  6
Continuous
 62
     7
370
    25
100
AcDbLine
 10
284.8399876124
 20
-244.7332198282
 30
0.0
 11
269.5884459096
 21
-282.4440459132
 31
0.0
  0
LINE
  5
D5
330
1F
100
AcDbEntity
  8
0
  6
Continuous
 62
     7
370
    25
100
AcDbLine
 10
178.9333170764
 20
-286.078985302
 30
0.0
 11
194.058871109
 21
-251.10385492
 31
0.0
  0
CIRCLE
  5
D6
330
1F
100
AcDbEntity
  8
0
  6
Continuous
 62
     7
370
    25
100
AcDbCircle
 10
198.2753045508
 20
-290.8463267211
 30
0.0
 40
118.0
  0
ARC
  5
D7
330
1F
100
AcDbEntity
  8
0
  6
Continuous
 62
     7
370
    25
100
AcDbCircle
 10
132.5713729524
 20
-332.944983266
 30
0.0
 40
2.999999999999968
100
AcDbArc
 50
32.0404403864
 51
212.0404403864
  0
ARC
  5
D8
330
1F
100
AcDbEntity
  8
0
  6
Continuous
 62
     7
370
    25
100
AcDbCircle
 10
170.6727047139
 20
-282.5065514821
 30
0.0
 40
9.00000000000002
100
AcDbArc
 50
272.1731248154
 51
336.6131596436
  0
LINE
  5
D9
330
1F
100
AcDbEntity
  8
0
  6
Continuous
 62
     7
370
    25
100
AcDbLine
 10
116.1874217995
 20
-238.4355081496
 30
0.0
 11
276.1552434367
 21
-232.3653082876
 31
0.0
  0
LINE
  5
DA
330
1F
100
AcDbEntity
  8
0
  6
Continuous
 62
     7
370
    25
100
AcDbLine
 10
135.1143945278
 20
-331.3534301669
 30
0.0
 11
149.9815419389
 21
-355.1085135828
 31
0.0
  0
LINE
  5
DB
330
1F
100
AcDbEntity
  8
0
  6
Continuous
 62
     7
370
    25
100
AcDbLine
 10
130.0283513771
 20
-334.5365363652
 30
0.0
 11
144.8954987883
 21
-358.291619781
 31
0.0
  0
ARC
  5
DC
330
1F
100
AcDbEntity
  8
0
  6
Continuous
 62
     7
370
    25
100
AcDbCircle
 10
276.4965152482
 20
-241.3588356017
 30
0.0
 40
9.00000000000005
100
AcDbArc
 50
337.9799158281
 51
92.1731248154
  0
CIRCLE
  5
DD
330
1F
100
AcDbEntity
  8
0
  6
Continuous
 62
     7
370
    25
100
AcDbCircle
 10
198.2753045508
 20
-290.8463267211
 30
0.0
 40
127.0
  0
CIRCLE
  5
DE
330
1F
100
AcDbEntity
  8
0
  6
Continuous
 62
     7
370
    25
100
AcDbCircle
 10
198.2753045508
 20
-290.8463267211
 30
0.0
 40
124.0
  0
CIRCLE
  5
DF
330
1F
100
AcDbEntity
  8
0
  6
Continuous
 62
     7
370
    25
100
AcDbCircle
 10
198.2753045508
 20
609.1536732789
 30
0.0
 40
118.0000000000001
  0
CIRCLE
  5
E0
330
1F
100
AcDbEntity
  8
0
  6
Continuous
 62
     7
370
    25
100
AcDbCircle
 10
241.7148857773
 20
585.0638757634
 30
0.0
 40
18.1611061286683
  0
LINE
  5
E1
330
1F
100
AcDbEntity
  8
0
  6
Continuous
 62
     7
370
    25
100
AcDbLine
 10
128.0146885891
 20
638.6679920904
 30
0.0
 11
128.363785001
 21
647.8677209006
 31
0.0
  0
ARC
  5
E2
330
1F
100
AcDbEntity
  8
0
  6
Continuous
 62
     7
370
    25
100
AcDbCircle
 10
135.3587506898
 20
647.6022872695
 30
0.0
 40
7.000000000000086
100
AcDbArc
 50
87.8268751846
 51
177.8268751846
  0
LINE
  5
E3
330
1F
100
AcDbEntity
  8
0
  6
Continuous
 62
     7
370
    25
100
AcDbLine
 10
264.1901378399
 20
649.718640339
 30
0.0
 11
135.624184321
 21
654.5972529583
 31
0.0
  0
ARC
  5
E4
330
1F
100
AcDbEntity
  8
0
  6
Continuous
 62
     7
370
    25
100
AcDbCircle
 10
263.9247042088
 20
642.7236746502
 30
0.0
 40
6.999999999999978
100
AcDbArc
 50
357.8268751846
 51
87.8268751846
  0
LINE
  5
E5
330
1F
100
AcDbEntity
  8
0
  6
Continuous
 62
     7
370
    25
100
AcDbLine
 10
270.5705734857
 20
633.2585122089
 30
0.0
 11
270.9196698976
 21
642.4582410191
 31
0.0
  0
ARC
  5
E6
330
1F
100
AcDbEntity
  8
0
  6
Continuous
 62
     7
370
    25
100
AcDbCircle
 10
273.5684159238
 20
633.1447549384
 30
0.0
 40
3.000000000000006
100
AcDbArc
 50
177.8268751846
 51
357.8268751846
  0
LINE
  5
E7
330
1F
100
AcDbEntity
  8
0
  6
Continuous
 62
     7
370
    25
100
AcDbLine
 10
276.5662583618
 20
633.0309976679
 30
0.0
 11
276.9153547737
 21
642.2307264781
 31
0.0
  0
ARC
  5
E8
330
1F
100
AcDbEntity
  8
0
  6
Continuous
 62
     7
370
    25
100
AcDbCircle
 10
263.9247042088
 20
642.7236746502
 30
0.0
 40
13.0
100
AcDbArc
 50
357.8268751846
 51
87.8268751846
  0
LINE
  5
E9
330
1F
100
AcDbEntity
  8
0
  6
Continuous
 62
     7
370
    25
100
AcDbLine
 10
264.4176523809
 20
655.7143252151
 30
0.0
 11
135.8516988619
 21
660.5929378344
 31
0.0
  0
ARC
  5
EA
330
1F
100
AcDbEntity
  8
0
  6
Continuous
 62
     7
370
    25
100
AcDbCircle
 10
135.3587506898
 20
647.6022872695
 30
0.0
 40
13.00000000000001
100
AcDbArc
 50
87.8268751846
 51
177.8268751846
  0
LINE
  5
EB
330
1F
100
AcDbEntity
  8
0
  6
Continuous
 62
     7
370
    25
100
AcDbLine
 10
122.019003713
 20
638.8955066314
 30
0.0
 11
122.3681001249
 21
648.0952354416
 31
0.0
  0
ARC
  5
EC
330
1F
100
AcDbEntity
  8
0
  6
Continuous
 62
     7
370
    25
100
AcDbCircle
 10
125.0168461511
 20
638.7817493609
 30
0.0
 40
3.000000000000025
100
AcDbArc
 50
177.8268751846
 51
357.8268751846
  0
CIRCLE
  5
ED
330
1F
100
AcDbEntity
  8
0
  6
Continuous
 62
     7
370
    25
100
AcDbCircle
 10
159.8262191639
 20
588.171254283
 30
0.0
 40
18.16110612866819
  0
CIRCLE
  5
EE
330
1F
100
AcDbEntity
  8
0
  6
Continuous
 62
     7
370
    25
100
AcDbCircle
 10
198.2753045508
 20
609.1536732789
 30
0.0
 40
124.0000000000001
  0
CIRCLE
  5
EF
330
1F
100
AcDbEntity
  8
0
  6
Continuous
 62
     7
370
    25
100
AcDbCircle
 10
198.2753045508
 20
609.1536732789
 30
0.0
 40
127.0000000000001
  0
ARC
  5
F0
330
1F
100
AcDbEntity
  8
0
  6
Continuous
 62
     7
370
    25
100
AcDbCircle
 10
198.2753045508
 20
609.1536732789
 30
0.0
 40
1430.0
100
AcDbArc
 50
32.143140058
 51
147.856859942
  0
ARC
  5
F1
330
1F
100
AcDbEntity
  8
0
  6
Continuous
 62
     7
370
    25
100
AcDbCircle
 10
-251.7246954492
 20
159.1536732789
 30
0.0
 40
1430.0
100
AcDbArc
 50
122.143140058
 51
237.856859942
  0
ARC
  5
F2
330
1F
100
AcDbEntity
  8
0
  6
Continuous
 62
     7
370
    25
100
AcDbCircle
 10
648.2753045508
 20
159.1536732789
 30
0.0
 40
1430.0
100
AcDbArc
 50
302.143140058
 51
57.856859942
  0
ARC
  5
F3
330
1F
100
AcDbEntity
  8
0
  6
Continuous
 62
     7
370
    25
100
AcDbCircle
 10
198.2753045508
 20
-290.8463267211
 30
0.0
 40
1430.0
100
AcDbArc
 50
212.143140058
 51
327.856859942
  0
CIRCLE
  5
F4
330
1F
100
AcDbEntity
  8
0
  6
Continuous
 62
     7
370
    25
100
AcDbCircle
 10
88.2753045508
 20
281.1371700483
 30
0.0
 40
15.5000000000004
  0
CIRCLE
  5
F5
330
1F
100
AcDbEntity
  8
0
  6
Continuous
 62
     7
370
    25
100
AcDbCircle
 10
88.2753045508
 20
37.1701765095
 30
0.0
 40
15.50000000000037
  0
CIRCLE
  5
F6
330
1F
100
AcDbEntity
  8
0
  6
Continuous
 62
     7
370
    25
100
AcDbCircle
 10
308.2753045508
 20
37.1701765095
 30
0.0
 40
15.50000000000037
  0
CIRCLE
  5
F7
330
1F
100
AcDbEntity
  8
0
  6
Continuous
 62
     7
370
    25
100
AcDbCircle
 10
308.2753045508
 20
281.1371700483
 30
0.0
 40
15.5000000000004
  0
CIRCLE
  5
F8
330
1F
100
AcDbEntity
  8
0
  6
Continuous
 62
     7
370
    25
100
AcDbCircle
 10
308.2753045508
 20
281.1371700483
 30
0.0
 40
10.35791635548946
  0
CIRCLE
  5
F9
330
1F
100
AcDbEntity
  8
0
  6
Continuous
 62
     7
370
    25
100
AcDbCircle
 10
308.2753045508
 20
281.1371700483
 30
0.0
 40
10.75000000000028
  0
CIRCLE
  5
FA
330
1F
100
AcDbEntity
  8
0
  6
Continuous
 62
     7
370
    25
100
AcDbCircle
 10
308.2753045508
 20
37.1701765095
 30
0.0
 40
10.35791635548941
  0
CIRCLE
  5
FB
330
1F
100
AcDbEntity
  8
0
  6
Continuous
 62
     7
370
    25
100
AcDbCircle
 10
308.2753045508
 20
37.1701765095
 30
0.0
 40
10.75000000000026
  0
CIRCLE
  5
FC
330
1F
100
AcDbEntity
  8
0
  6
Continuous
 62
     7
370
    25
100
AcDbCircle
 10
88.2753045508
 20
281.1371700483
 30
0.0
 40
10.35791635548946
  0
CIRCLE
  5
FD
330
1F
100
AcDbEntity
  8
0
  6
Continuous
 62
     7
370
    25
100
AcDbCircle
 10
88.2753045508
 20
281.1371700483
 30
0.0
 40
10.75000000000028
  0
CIRCLE
  5
FE
330
1F
100
AcDbEntity
  8
0
  6
Continuous
 62
     7
370
    25
100
AcDbCircle
 10
88.2753045508
 20
37.1701765095
 30
0.0
 40
10.35791635548941
  0
CIRCLE
  5
FF
330
1F
100
AcDbEntity
  8
0
  6
Continuous
 62
     7
370
    25
100
AcDbCircle
 10
88.2753045508
 20
37.1701765095
 30
0.0
 40
10.75000000000026
  0
CIRCLE
  5
100
330
1F
100
AcDbEntity
  8
0
  6
Continuous
 62
     7
370
    25
100
AcDbCircle
 10
496.7753045508
 20
185.1536732789
 30
0.0
 40
10.65000000000001
  0
CIRCLE
  5
101
330
1F
100
AcDbEntity
  8
0
  6
Continuous
 62
     7
370
    25
100
AcDbCircle
 10
172.2753045508
 20
457.6536732789
 30
0.0
 40
10.64999999999998
  0
CIRCLE
  5
102
330
1F
100
AcDbEntity
  8
0
  6
Continuous
 62
     7
370
    25
100
AcDbCircle
 10
-33.2246954492
 20
185.1536732789
 30
0.0
 40
10.65000000000001
  0
CIRCLE
  5
103
330
1F
100
AcDbEntity
  8
0
  6
Continuous
 62
     7
370
    25
100
AcDbCircle
 10
224.2753045508
 20
-139.3463267211
 30
0.0
 40
10.65000000000001
  0
CIRCLE
  5
104
330
1F
100
AcDbEntity
  8
0
  6
Continuous
 62
     7
370
    25
100
AcDbCircle
 10
224.2753045508
 20
390.6536732789
 30
0.0
 40
10.64999999999998
  0
CIRCLE
  5
105
330
1F
100
AcDbEntity
  8
0
  6
Continuous
 62
     7
370
    25
100
AcDbCircle
 10
-100.2246954492
 20
133.1536732789
 30
0.0
 40
10.64999999999998
  0
CIRCLE
  5
106
330
1F
100
AcDbEntity
  8
0
  6
Continuous
 62
     7
370
    25
100
AcDbCircle
 10
172.2753045508
 20
-72.3463267211
 30
0.0
 40
10.64999999999999
  0
CIRCLE
  5
107
330
1F
100
AcDbEntity
  8
0
  6
Continuous
 62
     7
370
    25
100
AcDbCircle
 10
429.7753045508
 20
133.1536732789
 30
0.0
 40
10.64999999999999
  0
ARC
  5
108
330
1F
100
AcDbEntity
  8
0
  6
Continuous
 62
     7
370
    25
100
AcDbCircle
 10
166.7753045508
 20
-66.8463267211
 30
0.0
 40
10.00000000000001
100
AcDbArc
 50
90.0
 51
180.0
  0
ARC
  5
109
330
1F
100
AcDbEntity
  8
0
  6
Continuous
 62
     7
370
    25
100
AcDbCircle
 10
166.7753045508
 20
-144.8463267211
 30
0.0
 40
10.0
100
AcDbArc
 50
180.0
 51
270.0
  0
LINE
  5
10A
330
1F
100
AcDbEntity
  8
0
  6
Continuous
 62
     7
370
    25
100
AcDbLine
 10
156.7753045508
 20
-66.8463267211
 30
0.0
 11
156.7753045508
 21
-93.3463267211
 31
0.0
  0
LINE
  5
10B
330
1F
100
AcDbEntity
  8
0
  6
Continuous
 62
     7
370
    25
100
AcDbLine
 10
156.7753045508
 20
-118.3463267211
 30
0.0
 11
156.7753045508
 21
-144.8463267211
 31
0.0
  0
LINE
  5
10C
330
1F
100
AcDbEntity
  8
0
  6
Continuous
 62
     7
370
    25
100
AcDbLine
 10
229.7753045508
 20
-56.8463267211
 30
0.0
 11
166.7753045508
 21
-56.8463267211
 31
0.0
  0
LINE
  5
10D
330
1F
100
AcDbEntity
  8
0
  6
Continuous
 62
     7
370
    25
100
AcDbLine
 10
239.7753045508
 20
-144.8463267211
 30
0.0
 11
239.7753045508
 21
-118.3463267211
 31
0.0
  0
LINE
  5
10E
330
1F
100
AcDbEntity
  8
0
  6
Continuous
 62
     7
370
    25
100
AcDbLine
 10
239.7753045508
 20
-93.3463267211
 30
0.0
 11
239.7753045508
 21
-66.8463267211
 31
0.0
  0
LINE
  5
10F
330
1F
100
AcDbEntity
  8
0
  6
Continuous
 62
     7
370
    25
100
AcDbLine
 10
166.7753045508
 20
-154.8463267211
 30
0.0
 11
229.7753045508
 21
-154.8463267211
 31
0.0
  0
ARC
  5
110
330
1F
100
AcDbEntity
  8
0
  6
Continuous
 62
     7
370
    25
100
AcDbCircle
 10
229.7753045508
 20
-66.8463267211
 30
0.0
 40
10.00000000000001
100
AcDbArc
 50
0.0
 51
90.0
  0
ARC
  5
111
330
1F
100
AcDbEntity
  8
0
  6
Continuous
 62
     7
370
    25
100
AcDbCircle
 10
229.7753045508
 20
-144.8463267211
 30
0.0
 40
10.0
100
AcDbArc
 50
270.0
 51
0.0
  0
ARC
  5
112
330
1F
100
AcDbEntity
  8
0
  6
Continuous
 62
     7
370
    25
100
AcDbCircle
 10
166.7753045508
 20
463.1536732789
 30
0.0
 40
10.0
100
AcDbArc
 50
90.0
 51
180.0
  0
LINE
  5
113
330
1F
100
AcDbEntity
  8
0
  6
Continuous
 62
     7
370
    25
100
AcDbLine
 10
229.7753045508
 20
473.1536732789
 30
0.0
 11
166.7753045508
 21
473.1536732789
 31
0.0
  0
ARC
  5
114
330
1F
100
AcDbEntity
  8
0
  6
Continuous
 62
     7
370
    25
100
AcDbCircle
 10
229.7753045508
 20
463.1536732789
 30
0.0
 40
10.0
100
AcDbArc
 50
0.0
 51
90.0
  0
LINE
  5
115
330
1F
100
AcDbEntity
  8
0
  6
Continuous
 62
     7
370
    25
100
AcDbLine
 10
239.7753045508
 20
385.1536732789
 30
0.0
 11
239.7753045508
 21
411.6536732789
 31
0.0
  0
LINE
  5
116
330
1F
100
AcDbEntity
  8
0
  6
Continuous
 62
     7
370
    25
100
AcDbLine
 10
239.7753045508
 20
436.6536732789
 30
0.0
 11
239.7753045508
 21
463.1536732789
 31
0.0
  0
ARC
  5
117
330
1F
100
AcDbEntity
  8
0
  6
Continuous
 62
     7
370
    25
100
AcDbCircle
 10
229.7753045508
 20
385.1536732789
 30
0.0
 40
10.00000000000006
100
AcDbArc
 50
270.0
 51
0.0
  0
LINE
  5
118
330
1F
100
AcDbEntity
  8
0
  6
Continuous
 62
     7
370
    25
100
AcDbLine
 10
166.7753045508
 20
375.1536732789
 30
0.0
 11
229.7753045508
 21
375.1536732789
 31
0.0
  0
ARC
  5
119
330
1F
100
AcDbEntity
  8
0
  6
Continuous
 62
     7
370
    25
100
AcDbCircle
 10
166.7753045508
 20
385.1536732789
 30
0.0
 40
10.00000000000006
100
AcDbArc
 50
180.0
 51
270.0
  0
LINE
  5
11A
330
1F
100
AcDbEntity
  8
0
  6
Continuous
 62
     7
370
    25
100
AcDbLine
 10
156.7753045508
 20
463.1536732789
 30
0.0
 11
156.7753045508
 21
436.6536732789
 31
0.0
  0
LINE
  5
11B
330
1F
100
AcDbEntity
  8
0
  6
Continuous
 62
     7
370
    25
100
AcDbLine
 10
156.7753045508
 20
411.6536732789
 30
0.0
 11
156.7753045508
 21
385.1536732789
 31
0.0
  0
LINE
  5
11C
330
1F
100
AcDbEntity
  8
0
  6
Continuous
 62
     7
370
    25
100
AcDbLine
 10
512.2753045508
 20
127.6536732789
 30
0.0
 11
512.2753045508
 21
190.6536732789
 31
0.0
  0
LINE
  5
11D
330
1F
100
AcDbEntity
  8
0
  6
Continuous
 62
     7
370
    25
100
AcDbLine
 10
424.2753045508
 20
117.6536732789
 30
0.0
 11
450.7753045508
 21
117.6536732789
 31
0.0
  0
LINE
  5
11E
330
1F
100
AcDbEntity
  8
0
  6
Continuous
 62
     7
370
    25
100
AcDbLine
 10
475.7753045508
 20
117.6536732789
 30
0.0
 11
502.2753045508
 21
117.6536732789
 31
0.0
  0
ARC
  5
11F
330
1F
100
AcDbEntity
  8
0
  6
Continuous
 62
     7
370
    25
100
AcDbCircle
 10
424.2753045508
 20
127.6536732789
 30
0.0
 40
10.0
100
AcDbArc
 50
180.0
 51
270.0
  0
LINE
  5
120
330
1F
100
AcDbEntity
  8
0
  6
Continuous
 62
     7
370
    25
100
AcDbLine
 10
414.2753045508
 20
190.6536732789
 30
0.0
 11
414.2753045508
 21
127.6536732789
 31
0.0
  0
ARC
  5
121
330
1F
100
AcDbEntity
  8
0
  6
Continuous
 62
     7
370
    25
100
AcDbCircle
 10
424.2753045508
 20
190.6536732789
 30
0.0
 40
9.999999999999972
100
AcDbArc
 50
90.0
 51
180.0
  0
LINE
  5
122
330
1F
100
AcDbEntity
  8
0
  6
Continuous
 62
     7
370
    25
100
AcDbLine
 10
502.2753045508
 20
200.6536732789
 30
0.0
 11
475.7753045508
 21
200.6536732789
 31
0.0
  0
LINE
  5
123
330
1F
100
AcDbEntity
  8
0
  6
Continuous
 62
     7
370
    25
100
AcDbLine
 10
450.7753045508
 20
200.6536732789
 30
0.0
 11
424.2753045508
 21
200.6536732789
 31
0.0
  0
ARC
  5
124
330
1F
100
AcDbEntity
  8
0
  6
Continuous
 62
     7
370
    25
100
AcDbCircle
 10
502.2753045508
 20
127.6536732789
 30
0.0
 40
10.0
100
AcDbArc
 50
270.0
 51
0.0
  0
ARC
  5
125
330
1F
100
AcDbEntity
  8
0
  6
Continuous
 62
     7
370
    25
100
AcDbCircle
 10
502.2753045508
 20
190.6536732789
 30
0.0
 40
10.0
100
AcDbArc
 50
0.0
 51
90.0
  0
ARC
  5
126
330
1F
100
AcDbEntity
  8
0
  6
Continuous
 62
     7
370
    25
100
AcDbCircle
 10
-105.7246954492
 20
127.6536732789
 30
0.0
 40
10.00000000000001
100
AcDbArc
 50
180.0
 51
270.0
  0
ARC
  5
127
330
1F
100
AcDbEntity
  8
0
  6
Continuous
 62
     7
370
    25
100
AcDbCircle
 10
-27.7246954492
 20
190.6536732789
 30
0.0
 40
10.00000000000003
100
AcDbArc
 50
0.0
 51
90.0
  0
ARC
  5
128
330
1F
100
AcDbEntity
  8
0
  6
Continuous
 62
     7
370
    25
100
AcDbCircle
 10
-27.7246954492
 20
127.6536732789
 30
0.0
 40
10.0
100
AcDbArc
 50
270.0
 51
0.0
  0
LINE
  5
129
330
1F
100
AcDbEntity
  8
0
  6
Continuous
 62
     7
370
    25
100
AcDbLine
 10
-105.7246954492
 20
117.6536732789
 30
0.0
 11
-79.2246954492
 21
117.6536732789
 31
0.0
  0
LINE
  5
12A
330
1F
100
AcDbEntity
  8
0
  6
Continuous
 62
     7
370
    25
100
AcDbLine
 10
-54.2246954492
 20
117.6536732789
 30
0.0
 11
-27.7246954492
 21
117.6536732789
 31
0.0
  0
ARC
  5
12B
330
1F
100
AcDbEntity
  8
0
  6
Continuous
 62
     7
370
    25
100
AcDbCircle
 10
-105.7246954492
 20
190.6536732789
 30
0.0
 40
10.00000000000001
100
AcDbArc
 50
90.0
 51
180.0
  0
LINE
  5
12C
330
1F
100
AcDbEntity
  8
0
  6
Continuous
 62
     7
370
    25
100
AcDbLine
 10
-115.7246954492
 20
190.6536732789
 30
0.0
 11
-115.7246954492
 21
127.6536732789
 31
0.0
  0
LINE
  5
12D
330
1F
100
AcDbEntity
  8
0
  6
Continuous
 62
     7
370
    25
100
AcDbLine
 10
-17.7246954492
 20
127.6536732789
 30
0.0
 11
-17.7246954492
 21
190.6536732789
 31
0.0
  0
LINE
  5
12E
330
1F
100
AcDbEntity
  8
0
  6
Continuous
 62
     7
370
    25
100
AcDbLine
 10
-27.7246954492
 20
200.6536732789
 30
0.0
 11
-54.2246954492
 21
200.6536732789
 31
0.0
  0
LINE
  5
12F
330
1F
100
AcDbEntity
  8
0
  6
Continuous
 62
     7
370
    25
100
AcDbLine
 10
-79.2246954492
 20
200.6536732789
 30
0.0
 11
-105.7246954492
 21
200.6536732789
 31
0.0
  0
LINE
  5
130
330
1F
100
AcDbEntity
  8
0
  6
Continuous
 62
     7
370
    25
100
AcDbLine
 10
24.3944284824
 20
173.0729816672
 30
0.0
 11
24.3944284824
 21
190.2369773937
 31
0.0
  0
LINE
  5
131
330
1F
100
AcDbEntity
  8
0
  6
Continuous
 62
     7
370
    25
100
AcDbLine
 10
7.2304327559
 20
173.0729816672
 30
0.0
 11
24.3944284824
 21
173.0729816672
 31
0.0
  0
LINE
  5
132
330
1F
100
AcDbEntity
  8
0
  6
Continuous
 62
     7
370
    25
100
AcDbLine
 10
7.2304327559
 20
165.6103748296
 30
0.0
 11
7.2304327559
 21
173.0729816672
 31
0.0
  0
LINE
  5
133
330
1F
100
AcDbEntity
  8
0
  6
Continuous
 62
     7
370
    25
100
AcDbLine
 10
24.3944284824
 20
165.6103748296
 30
0.0
 11
7.2304327559
 21
165.6103748296
 31
0.0
  0
LINE
  5
134
330
1F
100
AcDbEntity
  8
0
  6
Continuous
 62
     7
370
    25
100
AcDbLine
 10
24.3944284824
 20
148.4463791031
 30
0.0
 11
24.3944284824
 21
165.6103748296
 31
0.0
  0
LINE
  5
135
330
1F
100
AcDbEntity
  8
0
  6
Continuous
 62
     7
370
    25
100
AcDbLine
 10
31.1107746362
 20
148.4463791031
 30
0.0
 11
24.3944284824
 21
148.4463791031
 31
0.0
  0
LINE
  5
136
330
1F
100
AcDbEntity
  8
0
  6
Continuous
 62
     7
370
    25
100
AcDbLine
 10
31.1107746362
 20
165.6103748296
 30
0.0
 11
31.1107746362
 21
148.4463791031
 31
0.0
  0
LINE
  5
137
330
1F
100
AcDbEntity
  8
0
  6
Continuous
 62
     7
370
    25
100
AcDbLine
 10
48.2747703627
 20
165.6103748296
 30
0.0
 11
31.1107746362
 21
165.6103748296
 31
0.0
  0
LINE
  5
138
330
1F
100
AcDbEntity
  8
0
  6
Continuous
 62
     7
370
    25
100
AcDbLine
 10
48.2747703627
 20
173.0729816672
 30
0.0
 11
48.2747703627
 21
165.6103748296
 31
0.0
  0
LINE
  5
139
330
1F
100
AcDbEntity
  8
0
  6
Continuous
 62
     7
370
    25
100
AcDbLine
 10
31.1107746362
 20
173.0729816672
 30
0.0
 11
48.2747703627
 21
173.0729816672
 31
0.0
  0
LINE
  5
13A
330
1F
100
AcDbEntity
  8
0
  6
Continuous
 62
     7
370
    25
100
AcDbLine
 10
31.1107746362
 20
190.2369773937
 30
0.0
 11
31.1107746362
 21
173.0729816672
 31
0.0
  0
LINE
  5
13B
330
1F
100
AcDbEntity
  8
0
  6
Continuous
 62
     7
370
    25
100
AcDbLine
 10
24.3944284824
 20
190.2369773937
 30
0.0
 11
31.1107746362
 21
190.2369773937
 31
0.0
  0
LINE
  5
13C
330
1F
100
AcDbEntity
  8
0
  6
Continuous
 62
     7
370
    25
100
AcDbLine
 10
32.6032960037
 20
99.9394346587
 30
0.0
 11
32.6032960037
 21
140.9837722655
 31
0.0
  0
LINE
  5
13D
330
1F
100
AcDbEntity
  8
0
  6
Continuous
 62
     7
370
    25
100
AcDbLine
 10
39.3196421576
 20
99.9394346587
 30
0.0
 11
32.6032960037
 21
99.9394346587
 31
0.0
  0
LINE
  5
13E
330
1F
100
AcDbEntity
  8
0
  6
Continuous
 62
     7
370
    25
100
AcDbLine
 10
39.3196421576
 20
140.9837722655
 30
0.0
 11
39.3196421576
 21
99.9394346587
 31
0.0
  0
LINE
  5
13F
330
1F
100
AcDbEntity
  8
0
  6
Continuous
 62
     7
370
    25
100
AcDbLine
 10
32.6032960037
 20
140.9837722655
 30
0.0
 11
39.3196421576
 21
140.9837722655
 31
0.0
  0
LINE
  5
140
330
1F
100
AcDbEntity
  8
0
  6
Continuous
 62
     7
370
    25
100
AcDbLine
 10
15.4393002773
 20
99.9394346587
 30
0.0
 11
15.4393002773
 21
140.9837722655
 31
0.0
  0
LINE
  5
141
330
1F
100
AcDbEntity
  8
0
  6
Continuous
 62
     7
370
    25
100
AcDbLine
 10
22.1556464311
 20
99.9394346587
 30
0.0
 11
15.4393002773
 21
99.9394346587
 31
0.0
  0
LINE
  5
142
330
1F
100
AcDbEntity
  8
0
  6
Continuous
 62
     7
370
    25
100
AcDbLine
 10
22.1556464311
 20
140.9837722655
 30
0.0
 11
22.1556464311
 21
99.9394346587
 31
0.0
  0
LINE
  5
143
330
1F
100
AcDbEntity
  8
0
  6
Continuous
 62
     7
370
    25
100
AcDbLine
 10
15.4393002773
 20
140.9837722655
 30
0.0
 11
22.1556464311
 21
140.9837722655
 31
0.0
  0
ARC
  5
144
330
1F
100
AcDbEntity
  8
0
  6
Continuous
 62
     7
370
    25
100
AcDbCircle
 10
-183.5667890654
 20
59.1536732789
 30
0.0
 40
27.00000000000004
100
AcDbArc
 50
270.0
 51
311.3137672474
  0
LINE
  5
145
330
1F
100
AcDbEntity
  8
0
  6
Continuous
 62
     7
370
    25
100
AcDbLine
 10
-251.7246954492
 20
32.1536732789
 30
0.0
 11
-183.5667890654
 21
32.1536732789
 31
0.0
  0
LINE
  5
146
330
1F
100
AcDbEntity
  8
0
  6
Continuous
 62
     7
370
    25
100
AcDbLine
 10
-183.5667890654
 20
286.1536732789
 30
0.0
 11
-251.7246954492
 21
286.1536732789
 31
0.0
  0
ARC
  5
147
330
1F
100
AcDbEntity
  8
0
  6
Continuous
 62
     7
370
    25
100
AcDbCircle
 10
-183.5667890654
 20
259.1536732789
 30
0.0
 40
27.00000000000002
100
AcDbArc
 50
48.6862327526
 51
90.0
  0
ARC
  5
148
330
1F
100
AcDbEntity
  8
0
  6
Continuous
 62
     7
370
    25
100
AcDbCircle
 10
580.1173981669
 20
259.1536732789
 30
0.0
 40
27.00000000000005
100
AcDbArc
 50
90.0
 51
131.3137672474
  0
LINE
  5
149
330
1F
100
AcDbEntity
  8
0
  6
Continuous
 62
     7
370
    25
100
AcDbLine
 10
648.2753045508
 20
286.1536732789
 30
0.0
 11
580.1173981669
 21
286.1536732789
 31
0.0
  0
LINE
  5
14A
330
1F
100
AcDbEntity
  8
0
  6
Continuous
 62
     7
370
    25
100
AcDbLine
 10
580.1173981669
 20
32.1536732789
 30
0.0
 11
648.2753045508
 21
32.1536732789
 31
0.0
  0
ARC
  5
14B
330
1F
100
AcDbEntity
  8
0
  6
Continuous
 62
     7
370
    25
100
AcDbCircle
 10
580.1173981669
 20
59.1536732789
 30
0.0
 40
27.00000000000002
100
AcDbArc
 50
228.6862327526
 51
270.0
  0
LINE
  5
14C
330
1F
100
AcDbEntity
  8
0
  6
Continuous
 62
     7
370
    25
100
AcDbLine
 10
334.0484179991
 20
159.523279767
 30
0.0
 11
334.0484179991
 21
152.0606729294
 31
0.0
  0
LINE
  5
14D
330
1F
100
AcDbEntity
  8
0
  6
Continuous
 62
     7
370
    25
100
AcDbLine
 10
334.0484179991
 20
152.0606729294
 30
0.0
 11
338.2577946684
 21
152.0606729294
 31
0.0
  0
ARC
  5
14E
330
1F
100
AcDbEntity
  8
0
  6
Continuous
 62
     7
370
    25
100
AcDbCircle
 10
356.4421494935
 20
156.0858086159
 30
0.0
 40
18.62451281774541
100
AcDbArc
 50
192.4812623617
 51
239.0058735195
  0
LINE
  5
14F
330
1F
100
AcDbEntity
  8
0
  6
Continuous
 62
     7
370
    25
100
AcDbLine
 10
346.8514528548
 20
140.1205019892
 30
0.0
 11
350.4661530418
 21
146.1838700448
 31
0.0
  0
ARC
  5
150
330
1F
100
AcDbEntity
  8
0
  6
Continuous
 62
     7
370
    25
100
AcDbCircle
 10
358.3175357717
 20
159.2383239344
 30
0.0
 40
15.23361339696636
100
AcDbArc
 50
208.1103958836
 51
238.9758995767
  0
LINE
  5
151
330
1F
100
AcDbEntity
  8
0
  6
Continuous
 62
     7
370
    25
100
AcDbLine
 10
344.8808582368
 20
152.0606729294
 30
0.0
 11
363.9105056727
 21
152.0606729294
 31
0.0
  0
LWPOLYLINE
  5
152
330
1F
100
AcDbEntity
  8
0
  6
Continuous
 62
     7
370
    25
100
AcDbPolyline
 90
        6
 70
   128
 43
0.0
 10
363.9105056727
 20
152.0606729294
 10
365.9979727188
 20
148.3879632747
 10
368.2569241091
 20
144.8183086163
 10
369.5553816799
 20
143.0262590838
 10
370.9750691432
 20
141.3288488057
 10
372.6091067678
 20
139.8406542328
  0
ARC
  5
153
330
1F
100
AcDbEntity
  8
0
  6
Continuous
 62
     7
370
    25
100
AcDbCircle
 10
382.9166684226
 20
153.4992783419
 30
0.0
 40
17.1115119092361
100
AcDbArc
 50
232.9597539373
 51
269.2587087579
  0
ARC
  5
154
330
1F
100
AcDbEntity
  8
0
  6
Continuous
 62
     7
370
    25
100
AcDbCircle
 10
382.2408400195
 20
152.717941323
 30
0.0
 40
16.33506539078373
100
AcDbArc
 50
271.59419105
 51
335.0307855559
  0
ARC
  5
155
330
1F
100
AcDbEntity
  8
0
  6
Continuous
 62
     7
370
    25
100
AcDbCircle
 10
379.5146452868
 20
154.1389997384
 30
0.0
 40
19.40681533738829
100
AcDbArc
 50
334.6250494715
 51
353.8522548827
  0
LINE
  5
156
330
1F
100
AcDbEntity
  8
0
  6
Continuous
 62
     7
370
    25
100
AcDbLine
 10
398.8098529617
 20
152.0606729294
 30
0.0
 11
410.9132684264
 21
152.0606729294
 31
0.0
  0
LINE
  5
157
330
1F
100
AcDbEntity
  8
0
  6
Continuous
 62
     7
370
    25
100
AcDbLine
 10
410.9132684264
 20
152.0606729294
 30
0.0
 11
410.9132684264
 21
159.523279767
 31
0.0
  0
LINE
  5
158
330
1F
100
AcDbEntity
  8
0
  6
Continuous
 62
     7
370
    25
100
AcDbLine
 10
410.9132684264
 20
159.523279767
 30
0.0
 11
398.9147958703
 21
159.523279767
 31
0.0
  0
ARC
  5
159
330
1F
100
AcDbEntity
  8
0
  6
Continuous
 62
     7
370
    25
100
AcDbCircle
 10
378.0157377601
 20
158.8268791824
 30
0.0
 40
20.91065765744495
100
AcDbArc
 50
1.9085097445
 51
62.8502501634
  0
LINE
  5
15A
330
1F
100
AcDbEntity
  8
0
  6
Continuous
 62
     7
370
    25
100
AcDbLine
 10
387.5576410893
 20
177.4335361772
 30
0.0
 11
384.047883811
 21
171.6150349085
 31
0.0
  0
LWPOLYLINE
  5
15B
330
1F
100
AcDbEntity
  8
0
  6
Continuous
 62
     7
370
    25
100
AcDbPolyline
 90
        7
 70
   128
 43
0.0
 10
384.047883811
 20
171.6150349085
 10
386.2049057548
 20
169.8266727479
 10
388.1796618392
 20
167.8382184828
 10
389.9038568429
 20
165.6307852324
 10
391.007738147
 20
163.7270298955
 10
391.8171942045
 20
161.678589734
 10
392.2567513324
 20
159.523279767
  0
LINE
  5
15C
330
1F
100
AcDbEntity
  8
0
  6
Continuous
 62
     7
370
    25
100
AcDbLine
 10
392.2567513324
 20
159.523279767
 30
0.0
 11
368.4813523607
 21
159.523279767
 31
0.0
  0
LWPOLYLINE
  5
15D
330
1F
100
AcDbEntity
  8
0
  6
Continuous
 62
     7
370
    25
100
AcDbPolyline
 90
        3
 70
   128
 43
0.0
 10
368.4813523607
 20
159.523279767
 10
366.3401553374
 20
163.710183613
 10
364.505182155
 20
166.9159246655
  0
ARC
  5
15E
330
1F
100
AcDbEntity
  8
0
  6
Continuous
 62
     7
370
    25
100
AcDbCircle
 10
352.3720602571
 20
159.4628013115
 30
0.0
 40
14.23944151717847
100
AcDbArc
 50
31.5615372244
 51
90.0681414508
  0
ARC
  5
15F
330
1F
100
AcDbEntity
  8
0
  6
Continuous
 62
     7
370
    25
100
AcDbCircle
 10
352.7247766214
 20
158.8270968806
 30
0.0
 40
14.87972813629818
100
AcDbArc
 50
91.4235229253
 51
177.3183039295
  0
LINE
  5
160
330
1F
100
AcDbEntity
  8
0
  6
Continuous
 62
     7
370
    25
100
AcDbLine
 10
337.8613436802
 20
159.523279767
 30
0.0
 11
334.0484179991
 21
159.523279767
 31
0.0
  0
ARC
  5
161
330
1F
100
AcDbEntity
  8
0
  6
Continuous
 62
     7
370
    25
100
AcDbCircle
 10
580.1173981669
 20
259.1536732789
 30
0.0
 40
30.00000000000001
100
AcDbArc
 50
90.0
 51
131.3137672474
  0
LINE
  5
162
330
1F
100
AcDbEntity
  8
0
  6
Continuous
 62
     7
370
    25
100
AcDbLine
 10
580.1173981669
 20
289.1536732789
 30
0.0
 11
580.1173981669
 21
286.1536732789
 31
0.0
  0
LINE
  5
163
330
1F
100
AcDbEntity
  8
0
  6
Continuous
 62
     7
370
    25
100
AcDbLine
 10
560.3119332018
 20
281.6868390022
 30
0.0
 11
562.2924796983
 21
279.4335224299
 31
0.0
  0
ARC
  5
164
330
1F
100
AcDbEntity
  8
0
  6
Continuous
 62
     7
370
    25
100
AcDbCircle
 10
76.2918077814
 20
269.1536732789
 30
0.0
 40
19.99999999999999
100
AcDbArc
 50
109.9328223102
 51
132.4399084066
  0
LINE
  5
165
330
1F
100
AcDbEntity
  8
0
  6
Continuous
 62
     7
370
    25
100
AcDbLine
 10
62.7954761303
 20
283.9133830309
 30
0.0
 11
64.8199258779
 21
281.6994265681
 31
0.0
  0
LINE
  5
166
330
1F
100
AcDbEntity
  8
0
  6
Continuous
 62
     7
370
    25
100
AcDbLine
 10
-183.5667890654
 20
286.1536732789
 30
0.0
 11
-183.5667890654
 21
289.1536732789
 31
0.0
  0
ARC
  5
167
330
1F
100
AcDbEntity
  8
0
  6
Continuous
 62
     7
370
    25
100
AcDbCircle
 10
-183.5667890654
 20
259.1536732789
 30
0.0
 40
30.00000000000005
100
AcDbArc
 50
48.6862327526
 51
90.0
  0
LINE
  5
168
330
1F
100
AcDbEntity
  8
0
  6
Continuous
 62
     7
370
    25
100
AcDbLine
 10
-163.7613241003
 20
281.6868390022
 30
0.0
 11
-165.7418705968
 21
279.4335224299
 31
0.0
  0
ARC
  5
169
330
1F
100
AcDbEntity
  8
0
  6
Continuous
 62
     7
370
    25
100
AcDbCircle
 10
320.2588013202
 20
269.1536732789
 30
0.0
 40
19.99999999999999
100
AcDbArc
 50
47.5600915934
 51
70.0671776897
  0
LINE
  5
16A
330
1F
100
AcDbEntity
  8
0
  6
Continuous
 62
     7
370
    25
100
AcDbLine
 10
333.7551329712
 20
283.9133830309
 30
0.0
 11
331.7306832236
 21
281.6994265681
 31
0.0
  0
LINE
  5
16B
330
1F
100
AcDbEntity
  8
0
  6
Continuous
 62
     7
370
    25
100
AcDbLine
 10
-251.7246954492
 20
32.1536732789
 30
0.0
 11
-251.7246954492
 21
29.1536732789
 31
0.0
  0
ARC
  5
16C
330
1F
100
AcDbEntity
  8
0
  6
Continuous
 62
     7
370
    25
100
AcDbCircle
 10
-251.7246954492
 20
159.1536732789
 30
0.0
 40
129.9999999999999
100
AcDbArc
 50
90.0
 51
270.0
  0
LINE
  5
16D
330
1F
100
AcDbEntity
  8
0
  6
Continuous
 62
     7
370
    25
100
AcDbLine
 10
-251.7246954492
 20
286.1536732789
 30
0.0
 11
-251.7246954492
 21
289.1536732789
 31
0.0
  0
LINE
  5
16E
330
1F
100
AcDbEntity
  8
0
  6
Continuous
 62
     7
370
    25
100
AcDbLine
 10
580.1173981669
 20
289.1536732789
 30
0.0
 11
648.2753045508
 21
289.1536732789
 31
0.0
  0
LINE
  5
16F
330
1F
100
AcDbEntity
  8
0
  6
Continuous
 62
     7
370
    25
100
AcDbLine
 10
648.2753045508
 20
289.1536732789
 30
0.0
 11
648.2753045508
 21
286.1536732789
 31
0.0
  0
ARC
  5
170
330
1F
100
AcDbEntity
  8
0
  6
Continuous
 62
     7
370
    25
100
AcDbCircle
 10
648.2753045508
 20
159.1536732789
 30
0.0
 40
129.9999999999999
100
AcDbArc
 50
270.0
 51
90.0
  0
LINE
  5
171
330
1F
100
AcDbEntity
  8
0
  6
Continuous
 62
     7
370
    25
100
AcDbLine
 10
648.2753045508
 20
29.1536732789
 30
0.0
 11
648.2753045508
 21
32.1536732789
 31
0.0
  0
LINE
  5
172
330
1F
100
AcDbEntity
  8
0
  6
Continuous
 62
     7
370
    25
100
AcDbLine
 10
562.2924796983
 20
38.8738241279
 30
0.0
 11
560.3119332018
 21
36.6205075555
 31
0.0
  0
ARC
  5
173
330
1F
100
AcDbEntity
  8
0
  6
Continuous
 62
     7
370
    25
100
AcDbCircle
 10
448.2753045508
 20
-90.8463267211
 30
0.0
 40
169.7056274847715
100
AcDbArc
 50
48.6862327526
 51
80.7604970305
  0
ARC
  5
174
330
1F
100
AcDbEntity
  8
0
  6
Continuous
 62
     7
370
    25
100
AcDbCircle
 10
448.2753045508
 20
-90.8463267211
 30
0.0
 40
169.7056274847716
100
AcDbArc
 50
89.1546008312
 51
132.4399084066
  0
LINE
  5
175
330
1F
100
AcDbEntity
  8
0
  6
Continuous
 62
     7
370
    25
100
AcDbLine
 10
331.7306832236
 20
36.6079199897
 30
0.0
 11
333.7551329712
 21
34.3939635269
 31
0.0
  0
ARC
  5
176
330
1F
100
AcDbEntity
  8
0
  6
Continuous
 62
     7
370
    25
100
AcDbCircle
 10
-51.7246954492
 20
409.1536732789
 30
0.0
 40
169.7056274847715
100
AcDbArc
 50
228.6862327526
 51
260.7604970305
  0
ARC
  5
177
330
1F
100
AcDbEntity
  8
0
  6
Continuous
 62
     7
370
    25
100
AcDbCircle
 10
-51.7246954492
 20
409.1536732789
 30
0.0
 40
169.7056274847716
100
AcDbArc
 50
269.1546008312
 51
312.4399084066
  0
LINE
  5
178
330
1F
100
AcDbEntity
  8
0
  6
Continuous
 62
     7
370
    25
100
AcDbLine
 10
580.1173981669
 20
29.1536732789
 30
0.0
 11
580.1173981669
 21
32.1536732789
 31
0.0
  0
ARC
  5
179
330
1F
100
AcDbEntity
  8
0
  6
Continuous
 62
     7
370
    25
100
AcDbCircle
 10
580.1173981669
 20
59.1536732789
 30
0.0
 40
30.00000000000005
100
AcDbArc
 50
228.6862327526
 51
270.0
  0
LINE
  5
17A
330
1F
100
AcDbEntity
  8
0
  6
Continuous
 62
     7
370
    25
100
AcDbLine
 10
648.2753045508
 20
29.1536732789
 30
0.0
 11
580.1173981669
 21
29.1536732789
 31
0.0
  0
LINE
  5
17B
330
1F
100
AcDbEntity
  8
0
  6
Continuous
 62
     7
370
    25
100
AcDbLine
 10
-251.7246954492
 20
289.1536732789
 30
0.0
 11
-183.5667890654
 21
289.1536732789
 31
0.0
  0
ARC
  5
17C
330
1F
100
AcDbEntity
  8
0
  6
Continuous
 62
     7
370
    25
100
AcDbCircle
 10
320.2588013202
 20
49.1536732789
 30
0.0
 40
20.00000000000001
100
AcDbArc
 50
289.9328223102
 51
312.4399084066
  0
LWPOLYLINE
  5
17D
330
1F
100
AcDbEntity
  8
0
  6
Continuous
 62
     7
370
    25
100
AcDbPolyline
 90
        7
 70
   128
 43
0.0
 10
392.105167131
 20
152.0606729294
 10
391.2718202288
 20
149.7452293289
 10
389.9100040104
 20
147.6900200993
 10
388.1879502039
 20
145.9249790958
 10
386.5993031434
 20
144.8187882342
 10
384.8025991346
 20
144.0910421676
 10
382.8818514927
 20
143.851805408
  0
LWPOLYLINE
  5
17E
330
1F
100
AcDbEntity
  8
0
  6
Continuous
 62
     7
370
    25
100
AcDbPolyline
 90
        7
 70
   128
 43
0.0
 10
382.8818514927
 20
143.851805408
 10
380.7833679463
 20
144.0752694936
 10
378.7834710341
 20
144.7546707327
 10
376.9638310135
 20
145.8246142023
 10
375.3230906111
 20
147.1549681082
 10
372.9849706354
 20
149.5106283633
 10
370.8600582902
 20
152.0606729294
  0
LINE
  5
17F
330
1F
100
AcDbEntity
  8
0
  6
Continuous
 62
     7
370
    25
100
AcDbLine
 10
370.8600582902
 20
152.0606729294
 30
0.0
 11
392.105167131
 21
152.0606729294
 31
0.0
  0
LINE
  5
180
330
1F
100
AcDbEntity
  8
0
  6
Continuous
 62
     7
370
    25
100
AcDbLine
 10
361.2286313404
 20
159.523279767
 30
0.0
 11
344.4960675717
 21
159.523279767
 31
0.0
  0
ARC
  5
181
330
1F
100
AcDbEntity
  8
0
  6
Continuous
 62
     7
370
    25
100
AcDbCircle
 10
342.4827770774
 20
147.9629186746
 30
0.0
 40
22.02382801954823
100
AcDbArc
 50
31.6616758768
 51
50.2144933731
  0
ARC
  5
182
330
1F
100
AcDbEntity
  8
0
  6
Continuous
 62
     7
370
    25
100
AcDbCircle
 10
351.9995136766
 20
158.6919030698
 30
0.0
 40
7.549363593122054
100
AcDbArc
 50
88.8054330968
 51
173.6774555322
  0
ARC
  5
183
330
1F
100
AcDbEntity
  8
0
  6
Continuous
 62
     7
370
    25
100
AcDbCircle
 10
352.5548133791
 20
159.6440079181
 30
0.0
 40
6.607610155848956
100
AcDbArc
 50
52.5121222212
 51
93.452468403
  0
ARC
  5
184
330
1F
100
AcDbEntity
  8
0
  6
Continuous
 62
     7
370
    25
100
AcDbCircle
 10
448.2753045508
 20
409.1536732789
 30
0.0
 40
169.7056274847716
100
AcDbArc
 50
227.5600915934
 51
270.8453991688
  0
ARC
  5
185
330
1F
100
AcDbEntity
  8
0
  6
Continuous
 62
     7
370
    25
100
AcDbCircle
 10
448.2753045508
 20
409.1536732789
 30
0.0
 40
169.7056274847716
100
AcDbArc
 50
279.2395029695
 51
311.3137672474
  0
ARC
  5
186
330
1F
100
AcDbEntity
  8
0
  6
Continuous
 62
     7
370
    25
100
AcDbCircle
 10
76.2918077814
 20
49.1536732789
 30
0.0
 40
20.0
100
AcDbArc
 50
227.5600915934
 51
250.0671776898
  0
LINE
  5
187
330
1F
100
AcDbEntity
  8
0
  6
Continuous
 62
     7
370
    25
100
AcDbLine
 10
64.8199258779
 20
36.6079199897
 30
0.0
 11
62.7954761303
 21
34.3939635269
 31
0.0
  0
LINE
  5
188
330
1F
100
AcDbEntity
  8
0
  6
Continuous
 62
     7
370
    25
100
AcDbLine
 10
-165.7418705968
 20
38.8738241279
 30
0.0
 11
-163.7613241003
 21
36.6205075555
 31
0.0
  0
ARC
  5
189
330
1F
100
AcDbEntity
  8
0
  6
Continuous
 62
     7
370
    25
100
AcDbCircle
 10
-183.5667890654
 20
59.1536732789
 30
0.0
 40
30.00000000000004
100
AcDbArc
 50
270.0
 51
311.3137672474
  0
LINE
  5
18A
330
1F
100
AcDbEntity
  8
0
  6
Continuous
 62
     7
370
    25
100
AcDbLine
 10
-183.5667890654
 20
32.1536732789
 30
0.0
 11
-183.5667890654
 21
29.1536732789
 31
0.0
  0
LINE
  5
18B
330
1F
100
AcDbEntity
  8
0
  6
Continuous
 62
     7
370
    25
100
AcDbLine
 10
-183.5667890654
 20
29.1536732789
 30
0.0
 11
-251.7246954492
 21
29.1536732789
 31
0.0
  0
ARC
  5
18C
330
1F
100
AcDbEntity
  8
0
  6
Continuous
 62
     7
370
    25
100
AcDbCircle
 10
-51.7246954492
 20
-90.8463267211
 30
0.0
 40
169.7056274847716
100
AcDbArc
 50
47.5600915934
 51
90.8453991688
  0
ARC
  5
18D
330
1F
100
AcDbEntity
  8
0
  6
Continuous
 62
     7
370
    25
100
AcDbCircle
 10
-51.7246954492
 20
-90.8463267211
 30
0.0
 40
169.7056274847716
100
AcDbArc
 50
99.2395029695
 51
131.3137672474
  0
ARC
  5
18E
330
1F
100
AcDbEntity
  8
0
  6
Continuous
 62
     7
370
    25
100
AcDbCircle
 10
198.2753045508
 20
-290.8463267211
 30
0.0
 40
129.9999999999999
100
AcDbArc
 50
180.0
 51
0.0
  0
LINE
  5
18F
330
1F
100
AcDbEntity
  8
0
  6
Continuous
 62
     7
370
    25
100
AcDbLine
 10
68.2753045508
 20
-290.8463267211
 30
0.0
 11
71.2753045508
 21
-290.8463267211
 31
0.0
  0
LINE
  5
190
330
1F
100
AcDbEntity
  8
0
  6
Continuous
 62
     7
370
    25
100
AcDbLine
 10
328.2753045508
 20
-290.8463267211
 30
0.0
 11
325.2753045508
 21
-290.8463267211
 31
0.0
  0
LINE
  5
191
330
1F
100
AcDbEntity
  8
0
  6
Continuous
 62
     7
370
    25
100
AcDbLine
 10
240.0456286941
 20
3.4873393092
 30
0.0
 11
247.386332153
 21
-0.3950182963
 31
0.0
  0
LINE
  5
192
330
1F
100
AcDbEntity
  8
0
  6
Continuous
 62
     7
370
    25
100
AcDbLine
 10
227.6167842096
 20
9.5427571444
 30
0.0
 11
240.0456286941
 21
3.4873393092
 31
0.0
  0
LWPOLYLINE
  5
193
330
1F
100
AcDbEntity
  8
0
  6
Continuous
 62
     7
370
    25
100
AcDbPolyline
 90
        7
 70
   128
 43
0.0
 10
232.6254230317
 20
28.8352918666
 10
233.2186268915
 20
26.0280217477
 10
233.1346579024
 20
23.1556587512
 10
232.5894231549
 20
20.3342406786
 10
231.6570607885
 20
17.6162860311
 10
229.7882839731
 20
13.5042737834
 10
227.6167842096
 20
9.5427571444
  0
LWPOLYLINE
  5
194
330
1F
100
AcDbEntity
  8
0
  6
Continuous
 62
     7
370
    25
100
AcDbPolyline
 90
        9
 70
   128
 43
0.0
 10
213.1473831679
 20
35.2882207194
 10
216.2066365444
 20
36.1615560832
 10
219.3659848987
 20
36.5290026407
 10
222.5400041742
 20
36.3335000872
 10
225.625973662
 20
35.5663385009
 10
227.8723528157
 20
34.4706883766
 10
229.8482368346
 20
32.943185905
 10
231.4886910807
 20
31.0591470876
 10
232.6254230317
 20
28.8352918666
  0
ARC
  5
195
330
1F
100
AcDbEntity
  8
0
  6
Continuous
 62
     7
370
    25
100
AcDbCircle
 10
218.511769413
 20
19.1815022136
 30
0.0
 40
16.97654325277237
100
AcDbArc
 50
108.4204769176
 51
149.846971642
  0
ARC
  5
196
330
1F
100
AcDbEntity
  8
0
  6
Continuous
 62
     7
370
    25
100
AcDbCircle
 10
213.3678257123
 20
22.0715212142
 30
0.0
 40
11.07727889194153
100
AcDbArc
 50
149.4078374444
 51
200.7759714321
  0
LWPOLYLINE
  5
197
330
1F
100
AcDbEntity
  8
0
  6
Continuous
 62
     7
370
    25
100
AcDbPolyline
 90
        7
 70
   128
 43
0.0
 10
216.1022150656
 20
6.7336792865
 10
213.1988596047
 20
8.3368954405
 10
210.3598098311
 20
10.0509650729
 10
207.6534023072
 20
11.9661373157
 10
205.7499243784
 20
13.7436407993
 10
204.1641389826
 20
15.8098439232
 10
203.0108522184
 20
18.1422454924
  0
LWPOLYLINE
  5
198
330
1F
100
AcDbEntity
  8
0
  6
Continuous
 62
     7
370
    25
100
AcDbPolyline
 90
        9
 70
   128
 43
0.0
 10
209.0795204209
 20
-19.4357960407
 10
208.2845903891
 20
-16.3904627413
 10
208.0437057772
 20
-13.2518449665
 10
208.3170507805
 20
-10.1149148968
 10
209.0353634816
 20
-7.0489343953
 10
210.1357778171
 20
-4.097660377
 10
211.9094437642
 20
-0.3723552276
 10
213.9268599927
 20
3.2273718142
 10
216.1022150656
 20
6.7336792865
  0
LWPOLYLINE
  5
199
330
1F
100
AcDbEntity
  8
0
  6
Continuous
 62
     7
370
    25
100
AcDbPolyline
 90
       10
 70
   128
 43
0.0
 10
230.9558767577
 20
-28.4062946719
 10
228.1130910582
 20
-29.2650851286
 10
225.1785334909
 20
-29.7195667427
 10
222.2113778174
 20
-29.7023048149
 10
219.2983538138
 20
-29.1377832262
 10
216.5410994042
 20
-28.0394279203
 10
214.0777096477
 20
-26.4812651125
 10
211.9655693374
 20
-24.4739328223
 10
210.2922382957
 20
-22.0875132845
 10
209.0795204209
 20
-19.4357960407
  0
LWPOLYLINE
  5
19A
330
1F
100
AcDbEntity
  8
0
  6
Continuous
 62
     7
370
    25
100
AcDbPolyline
 90
        8
 70
   128
 43
0.0
 10
250.2351611127
 20
-10.3725448388
 10
248.2671575414
 20
-13.604053733
 10
246.1353085154
 20
-16.7299259548
 10
243.7926457538
 20
-19.7004663159
 10
241.1418061057
 20
-22.3981875448
 10
238.0132908669
 20
-24.8309508918
 10
234.5952977478
 20
-26.836612464
 10
230.9558767577
 20
-28.4062946719
  0
LINE
  5
19B
330
1F
100
AcDbEntity
  8
0
  6
Continuous
 62
     7
370
    25
100
AcDbLine
 10
260.5439468365
 20
-15.8714472493
 30
0.0
 11
250.2351611127
 21
-10.3725448388
 31
0.0
  0
LINE
  5
19C
330
1F
100
AcDbEntity
  8
0
  6
Continuous
 62
     7
370
    25
100
AcDbLine
 10
271.1044895381
 20
-12.0023400111
 30
0.0
 11
260.5439468365
 21
-15.8714472493
 31
0.0
  0
ARC
  5
19D
330
1F
100
AcDbEntity
  8
0
  6
Continuous
 62
     7
370
    25
100
AcDbCircle
 10
242.0786662158
 20
-51.2569213049
 30
0.0
 40
48.82028852939923
100
AcDbArc
 50
53.5198482879
 51
65.2322339044
  0
LWPOLYLINE
  5
19E
330
1F
100
AcDbEntity
  8
0
  6
Continuous
 62
     7
370
    25
100
AcDbPolyline
 90
        3
 70
   128
 43
0.0
 10
254.8992903862
 20
-3.3763509285
 10
259.1783976918
 20
-5.3540537705
 10
262.5315019246
 20
-6.9274493527
  0
LWPOLYLINE
  5
19F
330
1F
100
AcDbEntity
  8
0
  6
Continuous
 62
     7
370
    25
100
AcDbPolyline
 90
        3
 70
   128
 43
0.0
 10
259.841677372
 20
5.355641092
 10
257.1539720491
 20
0.4199174731
 10
254.8992903862
 20
-3.3763509285
  0
LINE
  5
1A0
330
1F
100
AcDbEntity
  8
0
  6
Continuous
 62
     7
370
    25
100
AcDbLine
 10
252.4479724441
 20
8.6284818038
 30
0.0
 11
259.841677372
 21
5.355641092
 31
0.0
  0
LWPOLYLINE
  5
1A1
330
1F
100
AcDbEntity
  8
0
  6
Continuous
 62
     7
370
    25
100
AcDbPolyline
 90
        3
 70
   128
 43
0.0
 10
247.386332153
 20
-0.3950182963
 10
250.0550994611
 20
4.7518464095
 10
252.4479724441
 20
8.6284818038
  0
ARC
  5
1A2
330
1F
100
AcDbEntity
  8
0
  6
Continuous
 62
     7
370
    25
100
AcDbCircle
 10
175.095278333
 20
301.4151025489
 30
0.0
 40
11.08986502447354
100
AcDbArc
 50
327.5983368527
 51
19.1475442815
  0
LWPOLYLINE
  5
1A3
330
1F
100
AcDbEntity
  8
0
  6
Continuous
 62
     7
370
    25
100
AcDbPolyline
 90
        8
 70
   128
 43
0.0
 10
171.8574893125
 20
290.357942161
 10
173.810027631
 20
289.542386833
 10
175.9232509442
 20
289.3763847457
 10
177.9978807192
 20
289.8008596222
 10
179.9259554651
 20
290.6748422138
 10
181.6961556568
 20
292.0117418936
 10
183.2046395307
 20
293.6394676002
 10
184.4585885713
 20
295.4725839211
  0
ARC
  5
1A4
330
1F
100
AcDbEntity
  8
0
  6
Continuous
 62
     7
370
    25
100
AcDbCircle
 10
174.5546477426
 20
295.3106168064
 30
0.0
 40
5.639472470116448
100
AcDbArc
 50
185.6330421706
 51
241.4278971636
  0
ARC
  5
1A5
330
1F
100
AcDbEntity
  8
0
  6
Continuous
 62
     7
370
    25
100
AcDbCircle
 10
248.1498606239
 20
293.2499539169
 30
0.0
 40
79.22178898770429
100
AcDbArc
 50
169.2934603766
 51
178.9099430517
  0
LWPOLYLINE
  5
1A6
330
1F
100
AcDbEntity
  8
0
  6
Continuous
 62
     7
370
    25
100
AcDbPolyline
 90
        9
 70
   128
 43
0.0
 10
165.2323056854
 20
326.3591899908
 10
167.0903686743
 20
325.0068995068
 10
168.6480884113
 20
323.3167352942
 10
169.8626424949
 20
321.3657765248
 10
170.6915608913
 20
319.2230594448
 10
171.0729210641
 20
316.9562614838
 10
171.0341872221
 20
313.946579603
 10
170.7313087064
 20
310.9498086156
 10
170.3071963437
 20
307.9676802419
  0
LWPOLYLINE
  5
1A7
330
1F
100
AcDbEntity
  8
0
  6
Continuous
 62
     7
370
    25
100
AcDbPolyline
 90
       10
 70
   128
 43
0.0
 10
144.8267401138
 20
319.3497457133
 10
146.3465145862
 20
321.5888658355
 10
148.1164656912
 20
323.635671597
 10
150.1570115851
 20
325.4114904809
 10
152.4702349151
 20
326.8119410101
 10
154.9998056117
 20
327.7679773677
 10
157.6146167278
 20
328.2348564139
 10
160.2680332502
 20
328.1676163514
 10
162.8416525628
 20
327.5145630517
 10
165.2323056854
 20
326.3591899908
  0
LWPOLYLINE
  5
1A8
330
1F
100
AcDbEntity
  8
0
  6
Continuous
 62
     7
370
    25
100
AcDbPolyline
 90
       10
 70
   128
 43
0.0
 10
150.4581461968
 20
294.9028181292
 10
147.9031491597
 20
296.7888309756
 10
145.6239741381
 20
298.9985191251
 10
143.7219169904
 20
301.5384808848
 10
142.3652933204
 20
304.4061739267
 10
141.6761878116
 20
307.5025157372
 10
141.6681370647
 20
310.6184341561
 10
142.2636848132
 20
313.6784514245
 10
143.3641643331
 20
316.5954791619
 10
144.8267401138
 20
319.3497457133
  0
LINE
  5
1A9
330
1F
100
AcDbEntity
  8
0
  6
Continuous
 62
     7
370
    25
100
AcDbLine
 10
155.2945302446
 20
302.8795392163
 30
0.0
 11
150.4581461968
 21
294.9028181292
 31
0.0
  0
LWPOLYLINE
  5
1AA
330
1F
100
AcDbEntity
  8
0
  6
Continuous
 62
     7
370
    25
100
AcDbPolyline
 90
        8
 70
   128
 43
0.0
 10
151.7964332895
 20
315.1228785592
 10
150.8728514514
 20
313.3218769655
 10
150.3096645757
 20
311.3793302079
 10
150.2775859238
 20
309.3578375998
 10
150.9360041931
 20
307.4541319066
 10
152.1630548132
 20
305.7300040392
 10
153.6547980877
 20
304.2237501732
 10
155.2945302446
 20
302.8795392163
  0
LWPOLYLINE
  5
1AB
330
1F
100
AcDbEntity
  8
0
  6
Continuous
 62
     7
370
    25
100
AcDbPolyline
 90
        8
 70
   128
 43
0.0
 10
160.210416496
 20
318.1572126604
 10
158.9359950664
 20
318.7192643688
 10
157.5518278989
 20
318.8918301428
 10
156.1747985368
 20
318.6863082337
 10
154.876244753
 20
318.1748897027
 10
153.6696707648
 20
317.3532660465
 10
152.6415840471
 20
316.314881396
 10
151.7964332895
 20
315.1228785592
  0
ARC
  5
1AC
330
1F
100
AcDbEntity
  8
0
  6
Continuous
 62
     7
370
    25
100
AcDbCircle
 10
158.3144287111
 20
314.27441851
 30
0.0
 40
4.320979066691575
100
AcDbArc
 50
14.932960708
 51
63.9735118977
  0
ARC
  5
1AD
330
1F
100
AcDbEntity
  8
0
  6
Continuous
 62
     7
370
    25
100
AcDbCircle
 10
119.8016776193
 20
313.2514618144
 30
0.0
 40
42.74123010953088
100
AcDbArc
 50
348.1250578329
 51
2.8651284399
  0
LWPOLYLINE
  5
1AE
330
1F
100
AcDbEntity
  8
0
  6
Continuous
 62
     7
370
    25
100
AcDbPolyline
 90
        9
 70
   128
 43
0.0
 10
167.0078548974
 20
282.2089662996
 10
164.8296683976
 20
283.8735771276
 10
163.0625833207
 20
285.9703747037
 10
161.7724209865
 20
288.388564614
 10
160.987878525
 20
291.0172554885
 10
160.6271070188
 20
293.7370173002
 10
160.7023875325
 20
297.3290242631
 10
161.0871229332
 20
300.9027537957
 10
161.6282057922
 20
304.4563329195
  0
LWPOLYLINE
  5
1AF
330
1F
100
AcDbEntity
  8
0
  6
Continuous
 62
     7
370
    25
100
AcDbPolyline
 90
       11
 70
   128
 43
0.0
 10
191.4680328488
 20
291.3252189705
 10
189.6431371757
 20
288.6152834474
 10
187.5532074587
 20
286.1040684341
 10
185.141407181
 20
283.9019349594
 10
182.4024247804
 20
282.1253025104
 10
179.3834713801
 20
280.8834002284
 10
176.8827590563
 20
280.3042883249
 10
174.3241369086
 20
280.1147858677
 10
171.7714537376
 20
280.3610470532
 10
169.3039030651
 20
281.0636300759
 10
167.0078548974
 20
282.2089662996
  0
LWPOLYLINE
  5
1B0
330
1F
100
AcDbEntity
  8
0
  6
Continuous
 62
     7
370
    25
100
AcDbPolyline
 90
       12
 70
   128
 43
0.0
 10
183.8358213104
 20
319.6942552619
 10
186.4032374487
 20
317.9459928741
 10
188.7912839103
 20
315.9589653708
 10
190.9137154403
 20
313.6927656855
 10
192.6677548802
 20
311.1305846686
 10
193.9659585869
 20
308.3114782821
 10
194.7032491738
 20
305.2961582869
 10
194.9188404206
 20
302.3767115738
 10
194.6609071576
 20
299.4608586126
 10
193.9438296379
 20
296.6221903662
 10
192.8594241514
 20
293.9022929643
 10
191.4680328488
 20
291.3252189705
  0
LINE
  5
1B1
330
1F
100
AcDbEntity
  8
0
  6
Continuous
 62
     7
370
    25
100
AcDbLine
 10
179.0126876298
 20
311.7307845421
 30
0.0
 11
183.8358213104
 21
319.6942552619
 31
0.0
  0
LWPOLYLINE
  5
1B2
330
1F
100
AcDbEntity
  8
0
  6
Continuous
 62
     7
370
    25
100
AcDbPolyline
 90
        6
 70
   128
 43
0.0
 10
185.5716194207
 20
305.052599446
 10
184.7636715763
 20
306.6289145447
 10
183.6572039205
 20
308.0156476226
 10
182.3785019513
 20
309.2471579114
 10
180.7360151477
 20
310.5440770747
 10
179.0126876298
 20
311.7307845421
  0
ARC
  5
1B3
330
1F
100
AcDbEntity
  8
0
  6
Continuous
 62
     7
370
    25
100
AcDbCircle
 10
127.7379767002
 20
74.4338751386
 30
0.0
 40
6.300232484106512
100
AcDbArc
 50
104.2199012141
 51
194.7544047093
  0
ARC
  5
1B4
330
1F
100
AcDbEntity
  8
0
  6
Continuous
 62
     7
370
    25
100
AcDbCircle
 10
128.3226522499
 20
74.1989513004
 30
0.0
 40
6.816182588637883
100
AcDbArc
 50
191.5915235038
 51
280.7643060612
  0
ARC
  5
1B5
330
1F
100
AcDbEntity
  8
0
  6
Continuous
 62
     7
370
    25
100
AcDbCircle
 10
127.5312436314
 20
73.9110096993
 30
0.0
 40
6.732632506867755
100
AcDbArc
 50
287.8565721132
 51
18.5169543097
  0
ARC
  5
1B6
330
1F
100
AcDbEntity
  8
0
  6
Continuous
 62
     7
370
    25
100
AcDbCircle
 10
127.8646155198
 20
74.5318955156
 30
0.0
 40
6.238051947449305
100
AcDbArc
 50
14.0774234678
 51
105.5687041596
  0
CIRCLE
  5
1B7
330
1F
100
AcDbEntity
  8
0
  6
Continuous
 62
     7
370
    25
100
AcDbCircle
 10
198.2753045508
 20
159.1536732789
 30
0.0
 40
1.0
  0
LINE
  5
1B8
330
1F
100
AcDbEntity
  8
0
  6
Continuous
 62
     7
370
    25
100
AcDbLine
 10
325.2753045508
 20
540.995766895
 30
0.0
 11
325.2753045508
 21
609.1536732789
 31
0.0
  0
ARC
  5
1B9
330
1F
100
AcDbEntity
  8
0
  6
Continuous
 62
     7
370
    25
100
AcDbCircle
 10
298.2753045508
 20
540.995766895
 30
0.0
 40
27.0
100
AcDbArc
 50
318.6862327526
 51
0.0
  0
ARC
  5
1BA
330
1F
100
AcDbEntity
  8
0
  6
Continuous
 62
     7
370
    25
100
AcDbCircle
 10
308.2753045508
 20
281.1371700483
 30
0.0
 40
17.00000000000006
100
AcDbArc
 50
0.0
 51
42.4399084066
  0
LINE
  5
1BB
330
1F
100
AcDbEntity
  8
0
  6
Continuous
 62
     7
370
    25
100
AcDbLine
 10
325.2753045508
 20
37.1701765095
 30
0.0
 11
325.2753045508
 21
281.1371700483
 31
0.0
  0
ARC
  5
1BC
330
1F
100
AcDbEntity
  8
0
  6
Continuous
 62
     7
370
    25
100
AcDbCircle
 10
308.2753045508
 20
37.1701765095
 30
0.0
 40
17.0
100
AcDbArc
 50
317.5600915934
 51
0.0
  0
ARC
  5
1BD
330
1F
100
AcDbEntity
  8
0
  6
Continuous
 62
     7
370
    25
100
AcDbCircle
 10
298.2753045508
 20
-222.6884203373
 30
0.0
 40
27.00000000000002
100
AcDbArc
 50
0.0
 51
41.3137672474
  0
LINE
  5
1BE
330
1F
100
AcDbEntity
  8
0
  6
Continuous
 62
     7
370
    25
100
AcDbLine
 10
325.2753045508
 20
-290.8463267211
 30
0.0
 11
325.2753045508
 21
-222.6884203373
 31
0.0
  0
LINE
  5
1BF
330
1F
100
AcDbEntity
  8
0
  6
Continuous
 62
     7
370
    25
100
AcDbLine
 10
71.2753045508
 20
-222.6884203373
 30
0.0
 11
71.2753045508
 21
-290.8463267211
 31
0.0
  0
ARC
  5
1C0
330
1F
100
AcDbEntity
  8
0
  6
Continuous
 62
     7
370
    25
100
AcDbCircle
 10
98.2753045508
 20
-222.6884203373
 30
0.0
 40
27.00000000000001
100
AcDbArc
 50
138.6862327526
 51
180.0
  0
ARC
  5
1C1
330
1F
100
AcDbEntity
  8
0
  6
Continuous
 62
     7
370
    25
100
AcDbCircle
 10
88.2753045508
 20
37.1701765095
 30
0.0
 40
17.00000000000003
100
AcDbArc
 50
180.0
 51
222.4399084066
  0
LINE
  5
1C2
330
1F
100
AcDbEntity
  8
0
  6
Continuous
 62
     7
370
    25
100
AcDbLine
 10
71.2753045508
 20
281.1371700483
 30
0.0
 11
71.2753045508
 21
37.1701765095
 31
0.0
  0
ARC
  5
1C3
330
1F
100
AcDbEntity
  8
0
  6
Continuous
 62
     7
370
    25
100
AcDbCircle
 10
88.2753045508
 20
281.1371700483
 30
0.0
 40
17.00000000000003
100
AcDbArc
 50
137.5600915934
 51
180.0
  0
ARC
  5
1C4
330
1F
100
AcDbEntity
  8
0
  6
Continuous
 62
     7
370
    25
100
AcDbCircle
 10
98.2753045508
 20
540.995766895
 30
0.0
 40
27.0000000000001
100
AcDbArc
 50
180.0
 51
221.3137672474
  0
LINE
  5
1C5
330
1F
100
AcDbEntity
  8
0
  6
Continuous
 62
     7
370
    25
100
AcDbLine
 10
71.2753045508
 20
609.1536732789
 30
0.0
 11
71.2753045508
 21
540.995766895
 31
0.0
  0
LINE
  5
1C6
330
1F
100
AcDbEntity
  8
0
  6
Continuous
 62
     7
370
    25
100
AcDbLine
 10
261.9758821882
 20
228.2748417707
 30
0.0
 11
250.9452164564
 21
231.6446751708
 31
0.0
  0
LINE
  5
1C7
330
1F
100
AcDbEntity
  8
0
  6
Continuous
 62
     7
370
    25
100
AcDbLine
 10
260.6116243757
 20
218.9699038701
 30
0.0
 11
261.9758821882
 21
228.2748417707
 31
0.0
  0
LINE
  5
1C8
330
1F
100
AcDbEntity
  8
0
  6
Continuous
 62
     7
370
    25
100
AcDbLine
 10
266.278541443
 20
218.1303606008
 30
0.0
 11
260.6116243757
 21
218.9699038701
 31
0.0
  0
LINE
  5
1C9
330
1F
100
AcDbEntity
  8
0
  6
Continuous
 62
     7
370
    25
100
AcDbLine
 10
267.5378563469
 20
226.7006981409
 30
0.0
 11
266.278541443
 21
218.1303606008
 31
0.0
  0
LINE
  5
1CA
330
1F
100
AcDbEntity
  8
0
  6
Continuous
 62
     7
370
    25
100
AcDbLine
 10
285.0633220921
 20
221.441892385
 30
0.0
 11
267.5378563469
 21
226.7006981409
 31
0.0
  0
LINE
  5
1CB
330
1F
100
AcDbEntity
  8
0
  6
Continuous
 62
     7
370
    25
100
AcDbLine
 10
286.0078082699
 20
227.8667304593
 30
0.0
 11
285.0633220921
 21
221.441892385
 31
0.0
  0
LINE
  5
1CC
330
1F
100
AcDbEntity
  8
0
  6
Continuous
 62
     7
370
    25
100
AcDbLine
 10
268.4706822016
 20
233.0905552456
 30
0.0
 11
286.0078082699
 21
227.8667304593
 31
0.0
  0
LINE
  5
1CD
330
1F
100
AcDbEntity
  8
0
  6
Continuous
 62
     7
370
    25
100
AcDbLine
 10
270.0331655082
 20
243.6548080501
 30
0.0
 11
268.4706822016
 21
233.0905552456
 31
0.0
  0
LINE
  5
1CE
330
1F
100
AcDbEntity
  8
0
  6
Continuous
 62
     7
370
    25
100
AcDbLine
 10
287.5586312534
 20
238.4309832638
 30
0.0
 11
270.0331655082
 21
243.6548080501
 31
0.0
  0
LINE
  5
1CF
330
1F
100
AcDbEntity
  8
0
  6
Continuous
 62
     7
370
    25
100
AcDbLine
 10
288.4681364617
 20
244.6692561671
 30
0.0
 11
287.5586312534
 21
238.4309832638
 31
0.0
  0
LINE
  5
1D0
330
1F
100
AcDbEntity
  8
0
  6
Continuous
 62
     7
370
    25
100
AcDbLine
 10
270.9543310397
 20
249.9630428925
 30
0.0
 11
288.4681364617
 21
244.6692561671
 31
0.0
  0
LINE
  5
1D1
330
1F
100
AcDbEntity
  8
0
  6
Continuous
 62
     7
370
    25
100
AcDbLine
 10
272.4818333768
 20
260.3523908492
 30
0.0
 11
270.9543310397
 21
249.9630428925
 31
0.0
  0
LINE
  5
1D2
330
1F
100
AcDbEntity
  8
0
  6
Continuous
 62
     7
370
    25
100
AcDbLine
 10
266.8149163095
 20
261.1919341185
 30
0.0
 11
272.4818333768
 21
260.3523908492
 31
0.0
  0
LINE
  5
1D3
330
1F
100
AcDbEntity
  8
0
  6
Continuous
 62
     7
370
    25
100
AcDbLine
 10
265.3923568811
 20
251.5138658759
 30
0.0
 11
266.8149163095
 21
261.1919341185
 31
0.0
  0
LINE
  5
1D4
330
1F
100
AcDbEntity
  8
0
  6
Continuous
 62
     7
370
    25
100
AcDbLine
 10
254.3733514724
 20
255.0236231543
 30
0.0
 11
265.3923568811
 21
251.5138658759
 31
0.0
  0
LINE
  5
1D5
330
1F
100
AcDbEntity
  8
0
  6
Continuous
 62
     7
370
    25
100
AcDbLine
 10
255.8658728399
 20
265.1797646473
 30
0.0
 11
254.3733514724
 21
255.0236231543
 31
0.0
  0
LINE
  5
1D6
330
1F
100
AcDbEntity
  8
0
  6
Continuous
 62
     7
370
    25
100
AcDbLine
 10
250.2455970653
 20
266.0076475934
 30
0.0
 11
255.8658728399
 21
265.1797646473
 31
0.0
  0
LINE
  5
1D7
330
1F
100
AcDbEntity
  8
0
  6
Continuous
 62
     7
370
    25
100
AcDbLine
 10
248.8696789297
 20
256.5977667841
 30
0.0
 11
250.2455970653
 21
266.0076475934
 31
0.0
  0
LINE
  5
1D8
330
1F
100
AcDbEntity
  8
0
  6
Continuous
 62
     7
370
    25
100
AcDbLine
 10
230.3880666834
 20
262.2763441746
 30
0.0
 11
248.8696789297
 21
256.5977667841
 31
0.0
  0
LINE
  5
1D9
330
1F
100
AcDbEntity
  8
0
  6
Continuous
 62
     7
370
    25
100
AcDbLine
 10
229.4669011519
 20
255.9447886858
 30
0.0
 11
230.3880666834
 21
262.2763441746
 31
0.0
  0
LINE
  5
1DA
330
1F
100
AcDbEntity
  8
0
  6
Continuous
 62
     7
370
    25
100
AcDbLine
 10
247.936853075
 20
250.2662112953
 30
0.0
 11
229.4669011519
 21
255.9447886858
 31
0.0
  0
LINE
  5
1DB
330
1F
100
AcDbEntity
  8
0
  6
Continuous
 62
     7
370
    25
100
AcDbLine
 10
246.3743697683
 20
239.6436568749
 30
0.0
 11
247.936853075
 21
250.2662112953
 31
0.0
  0
LINE
  5
1DC
330
1F
100
AcDbEntity
  8
0
  6
Continuous
 62
     7
370
    25
100
AcDbLine
 10
227.8810971989
 20
245.1823103872
 30
0.0
 11
246.3743697683
 21
239.6436568749
 31
0.0
  0
LINE
  5
1DD
330
1F
100
AcDbEntity
  8
0
  6
Continuous
 62
     7
370
    25
100
AcDbLine
 10
226.936611021
 20
238.7691326361
 30
0.0
 11
227.8810971989
 21
245.1823103872
 31
0.0
  0
LINE
  5
1DE
330
1F
100
AcDbEntity
  8
0
  6
Continuous
 62
     7
370
    25
100
AcDbLine
 10
245.4298835905
 20
233.242139447
 30
0.0
 11
226.936611021
 21
238.7691326361
 31
0.0
  0
LINE
  5
1DF
330
1F
100
AcDbEntity
  8
0
  6
Continuous
 62
     7
370
    25
100
AcDbLine
 10
244.0189844852
 20
223.6340331436
 30
0.0
 11
245.4298835905
 21
233.242139447
 31
0.0
  0
LINE
  5
1E0
330
1F
100
AcDbEntity
  8
0
  6
Continuous
 62
     7
370
    25
100
AcDbLine
 10
249.6392602598
 20
222.8061501975
 30
0.0
 11
244.0189844852
 21
223.6340331436
 31
0.0
  0
LINE
  5
1E1
330
1F
100
AcDbEntity
  8
0
  6
Continuous
 62
     7
370
    25
100
AcDbLine
 10
250.9452164564
 20
231.6446751708
 30
0.0
 11
249.6392602598
 21
222.8061501975
 31
0.0
  0
LINE
  5
1E2
330
1F
100
AcDbEntity
  8
0
  6
Continuous
 62
     7
370
    25
100
AcDbLine
 10
137.4929250305
 20
81.2565888725
 30
0.0
 11
187.804569495
 21
94.4274539232
 31
0.0
  0
LINE
  5
1E3
330
1F
100
AcDbEntity
  8
0
  6
Continuous
 62
     7
370
    25
100
AcDbLine
 10
139.7719881983
 20
72.5245968519
 30
0.0
 11
137.4929250305
 21
81.2565888725
 31
0.0
  0
LINE
  5
1E4
330
1F
100
AcDbEntity
  8
0
  6
Continuous
 62
     7
370
    25
100
AcDbLine
 10
190.0836326627
 20
85.6954619027
 30
0.0
 11
139.7719881983
 21
72.5245968519
 31
0.0
  0
LINE
  5
1E5
330
1F
100
AcDbEntity
  8
0
  6
Continuous
 62
     7
370
    25
100
AcDbLine
 10
187.804569495
 20
94.4274539232
 30
0.0
 11
190.0836326627
 21
85.6954619027
 31
0.0
  0
ARC
  5
1E6
330
1F
100
AcDbEntity
  8
0
  6
Continuous
 62
     7
370
    25
100
AcDbCircle
 10
137.4085223262
 20
324.1663183258
 30
0.0
 40
6.406495399622039
100
AcDbArc
 50
58.3297042685
 51
148.9341047794
  0
ARC
  5
1E7
330
1F
100
AcDbEntity
  8
0
  6
Continuous
 62
     7
370
    25
100
AcDbCircle
 10
137.7343715585
 20
323.5008443751
 30
0.0
 40
7.040489125701057
100
AcDbArc
 50
145.6617939098
 51
234.0764445317
  0
ARC
  5
1E8
330
1F
100
AcDbEntity
  8
0
  6
Continuous
 62
     7
370
    25
100
AcDbCircle
 10
136.8086916296
 20
323.9374413569
 30
0.0
 40
6.924377939179835
100
AcDbArc
 50
242.4282339897
 51
332.8787043654
  0
ARC
  5
1E9
330
1F
100
AcDbEntity
  8
0
  6
Continuous
 62
     7
370
    25
100
AcDbCircle
 10
137.5653327516
 20
324.1279814661
 30
0.0
 40
6.358648148917784
100
AcDbArc
 50
328.2374222834
 51
59.7137610008
  0
LWPOLYLINE
  5
1EA
330
1F
100
AcDbEntity
  8
0
  6
Continuous
 62
     7
370
    25
100
AcDbPolyline
 90
        3
 70
   128
 43
0.0
 10
211.6765924027
 20
21.1765795936
 10
212.4101049072
 20
19.6840863923
 10
213.2666364732
 20
18.6987609171
  0
LWPOLYLINE
  5
1EB
330
1F
100
AcDbEntity
  8
0
  6
Continuous
 62
     7
370
    25
100
AcDbPolyline
 90
        7
 70
   128
 43
0.0
 10
215.6384522117
 20
27.6692595482
 10
214.200630445
 20
26.9962219752
 10
212.9328687301
 20
26.04299308
 10
211.9606065771
 20
24.7903987084
 10
211.4978095634
 20
23.6345227887
 10
211.3983396828
 20
22.3908833663
 10
211.6765924027
 20
21.1765795936
  0
LWPOLYLINE
  5
1EC
330
1F
100
AcDbEntity
  8
0
  6
Continuous
 62
     7
370
    25
100
AcDbPolyline
 90
        7
 70
   128
 43
0.0
 10
223.8801806439
 20
25.7744570309
 10
223.1969525016
 20
26.879526294
 10
222.151587027
 20
27.6572450053
 10
220.9385352977
 20
28.1347811963
 10
219.653952555
 20
28.3579297163
 10
217.611187692
 20
28.221480603
 10
215.6384522117
 20
27.6692595482
  0
ARC
  5
1ED
330
1F
100
AcDbEntity
  8
0
  6
Continuous
 62
     7
370
    25
100
AcDbCircle
 10
217.0723797118
 20
23.7742786909
 30
0.0
 40
7.095552615727684
100
AcDbArc
 50
341.4852033171
 51
16.3731477733
  0
ARC
  5
1EE
330
1F
100
AcDbEntity
  8
0
  6
Continuous
 62
     7
370
    25
100
AcDbCircle
 10
182.9206976796
 20
32.1051394798
 30
0.0
 40
42.22789301579855
100
AcDbArc
 50
333.343675214
 51
345.4845408851
  0
LWPOLYLINE
  5
1EF
330
1F
100
AcDbEntity
  8
0
  6
Continuous
 62
     7
370
    25
100
AcDbPolyline
 90
        3
 70
   128
 43
0.0
 10
213.2666364732
 20
18.6987609171
 10
217.33713092
 20
15.5037251392
 10
220.6603414011
 20
13.1601074048
  0
LINE
  5
1F0
330
1F
100
AcDbEntity
  8
0
  6
Continuous
 62
     7
370
    25
100
AcDbLine
 10
243.2257168351
 20
-7.0599530252
 30
0.0
 11
230.0548517844
 21
-1.1370388626
 31
0.0
  0
ARC
  5
1F1
330
1F
100
AcDbEntity
  8
0
  6
Continuous
 62
     7
370
    25
100
AcDbCircle
 10
181.4089378649
 20
36.8641045164
 30
0.0
 40
75.83295453283475
100
AcDbArc
 50
314.4007909344
 51
324.6042129525
  0
ARC
  5
1F2
330
1F
100
AcDbEntity
  8
0
  6
Continuous
 62
     7
370
    25
100
AcDbCircle
 10
223.3617640096
 20
-5.5565096202
 30
0.0
 40
16.17438340501369
100
AcDbArc
 50
290.081414085
 51
313.3621940922
  0
ARC
  5
1F3
330
1F
100
AcDbEntity
  8
0
  6
Continuous
 62
     7
370
    25
100
AcDbCircle
 10
225.6944709268
 20
-12.5877983507
 30
0.0
 40
8.77245380476632
100
AcDbArc
 50
201.9818964286
 51
291.5402583599
  0
LWPOLYLINE
  5
1F4
330
1F
100
AcDbEntity
  8
0
  6
Continuous
 62
     7
370
    25
100
AcDbPolyline
 90
        8
 70
   128
 43
0.0
 10
223.0719082414
 20
2.9838253535
 10
221.2464011723
 20
-0.3157060529
 10
219.5545853332
 20
-3.6852541092
 10
218.0956986789
 20
-7.1618734186
 10
217.466337735
 20
-9.2923176952
 10
217.099065413
 20
-11.4822309175
 10
217.0790894601
 20
-13.7063701768
 10
217.5597554636
 20
-15.8714472493
  0
LWPOLYLINE
  5
1F5
330
1F
100
AcDbEntity
  8
0
  6
Continuous
 62
     7
370
    25
100
AcDbPolyline
 90
        3
 70
   128
 43
0.0
 10
230.0548517844
 20
-1.1370388626
 10
226.0797493697
 20
1.0613893922
 10
223.0719082414
 20
2.9838253535
  0
LINE
  5
1F6
330
1F
100
AcDbEntity
  8
0
  6
Continuous
 62
     7
370
    25
100
AcDbLine
 10
68.2753045508
 20
37.1701765095
 30
0.0
 11
68.2753045508
 21
281.1371700483
 31
0.0
  0
LINE
  5
1F7
330
1F
100
AcDbEntity
  8
0
  6
Continuous
 62
     7
370
    25
100
AcDbLine
 10
68.2753045508
 20
281.1371700483
 30
0.0
 11
71.2753045508
 21
281.1371700483
 31
0.0
  0
LINE
  5
1F8
330
1F
100
AcDbEntity
  8
0
  6
Continuous
 62
     7
370
    25
100
AcDbLine
 10
68.2753045508
 20
37.1701765095
 30
0.0
 11
71.2753045508
 21
37.1701765095
 31
0.0
  0
LINE
  5
1F9
330
1F
100
AcDbEntity
  8
0
  6
Continuous
 62
     7
370
    25
100
AcDbLine
 10
253.4405256177
 20
248.6687470191
 30
0.0
 11
251.8897026343
 21
238.1161545378
 31
0.0
  0
LINE
  5
1FA
330
1F
100
AcDbEntity
  8
0
  6
Continuous
 62
     7
370
    25
100
AcDbLine
 10
264.4711913495
 20
245.2639326495
 30
0.0
 11
253.4405256177
 21
248.6687470191
 31
0.0
  0
LINE
  5
1FB
330
1F
100
AcDbEntity
  8
0
  6
Continuous
 62
     7
370
    25
100
AcDbLine
 10
262.9087080429
 20
234.6063972595
 30
0.0
 11
264.4711913495
 21
245.2639326495
 31
0.0
  0
LINE
  5
1FC
330
1F
100
AcDbEntity
  8
0
  6
Continuous
 62
     7
370
    25
100
AcDbLine
 10
251.8897026343
 20
238.1161545378
 30
0.0
 11
262.9087080429
 21
234.6063972595
 31
0.0
  0
LINE
  5
1FD
330
1F
100
AcDbEntity
  8
0
  6
Continuous
 62
     7
370
    25
100
AcDbLine
 10
71.2753045508
 20
540.995766895
 30
0.0
 11
68.2753045508
 21
540.995766895
 31
0.0
  0
LINE
  5
1FE
330
1F
100
AcDbEntity
  8
0
  6
Continuous
 62
     7
370
    25
100
AcDbLine
 10
68.2753045508
 20
540.995766895
 30
0.0
 11
68.2753045508
 21
609.1536732789
 31
0.0
  0
LINE
  5
1FF
330
1F
100
AcDbEntity
  8
0
  6
Continuous
 62
     7
370
    25
100
AcDbLine
 10
71.2753045508
 20
609.1536732789
 30
0.0
 11
68.2753045508
 21
609.1536732789
 31
0.0
  0
ARC
  5
200
330
1F
100
AcDbEntity
  8
0
  6
Continuous
 62
     7
370
    25
100
AcDbCircle
 10
98.2753045508
 20
-222.6884203373
 30
0.0
 40
30.00000000000001
100
AcDbArc
 50
138.6862327526
 51
180.0
  0
LINE
  5
201
330
1F
100
AcDbEntity
  8
0
  6
Continuous
 62
     7
370
    25
100
AcDbLine
 10
75.7421388274
 20
-202.8829553722
 30
0.0
 11
77.9954553997
 21
-204.8635018687
 31
0.0
  0
LINE
  5
202
330
1F
100
AcDbEntity
  8
0
  6
Continuous
 62
     7
370
    25
100
AcDbLine
 10
68.2753045508
 20
-222.6884203373
 30
0.0
 11
71.2753045508
 21
-222.6884203373
 31
0.0
  0
LINE
  5
203
330
1F
100
AcDbEntity
  8
0
  6
Continuous
 62
     7
370
    25
100
AcDbLine
 10
318.5551537018
 20
523.1708484264
 30
0.0
 11
320.8084702741
 21
521.1903019299
 31
0.0
  0
ARC
  5
204
330
1F
100
AcDbEntity
  8
0
  6
Continuous
 62
     7
370
    25
100
AcDbCircle
 10
448.2753045508
 20
409.1536732789
 30
0.0
 40
169.7056274847716
100
AcDbArc
 50
138.6862327526
 51
170.7604970305
  0
ARC
  5
205
330
1F
100
AcDbEntity
  8
0
  6
Continuous
 62
     7
370
    25
100
AcDbCircle
 10
448.2753045508
 20
409.1536732789
 30
0.0
 40
169.7056274847716
100
AcDbArc
 50
179.1546008312
 51
222.4399084066
  0
LINE
  5
206
330
1F
100
AcDbEntity
  8
0
  6
Continuous
 62
     7
370
    25
100
AcDbLine
 10
320.82105784
 20
292.6090519517
 30
0.0
 11
323.0350143028
 21
294.6335016994
 31
0.0
  0
ARC
  5
207
330
1F
100
AcDbEntity
  8
0
  6
Continuous
 62
     7
370
    25
100
AcDbCircle
 10
-51.7246954492
 20
-90.8463267211
 30
0.0
 40
169.7056274847716
100
AcDbArc
 50
318.6862327526
 51
350.7604970305
  0
ARC
  5
208
330
1F
100
AcDbEntity
  8
0
  6
Continuous
 62
     7
370
    25
100
AcDbCircle
 10
-51.7246954492
 20
-90.8463267211
 30
0.0
 40
169.7056274847716
100
AcDbArc
 50
359.1546008312
 51
42.4399084066
  0
LINE
  5
209
330
1F
100
AcDbEntity
  8
0
  6
Continuous
 62
     7
370
    25
100
AcDbLine
 10
73.5155947987
 20
23.6738448584
 30
0.0
 11
75.7295512615
 21
25.6982946061
 31
0.0
  0
LINE
  5
20A
330
1F
100
AcDbEntity
  8
0
  6
Continuous
 62
     7
370
    25
100
AcDbLine
 10
325.2753045508
 20
609.1536732789
 30
0.0
 11
328.2753045508
 21
609.1536732789
 31
0.0
  0
LINE
  5
20B
330
1F
100
AcDbEntity
  8
0
  6
Continuous
 62
     7
370
    25
100
AcDbLine
 10
328.2753045508
 20
609.1536732789
 30
0.0
 11
328.2753045508
 21
540.995766895
 31
0.0
  0
LINE
  5
20C
330
1F
100
AcDbEntity
  8
0
  6
Continuous
 62
     7
370
    25
100
AcDbLine
 10
325.2753045508
 20
540.995766895
 30
0.0
 11
328.2753045508
 21
540.995766895
 31
0.0
  0
ARC
  5
20D
330
1F
100
AcDbEntity
  8
0
  6
Continuous
 62
     7
370
    25
100
AcDbCircle
 10
88.2753045508
 20
281.1371700483
 30
0.0
 40
20.00000000000004
100
AcDbArc
 50
137.5600915934
 51
180.0
  0
LINE
  5
20E
330
1F
100
AcDbEntity
  8
0
  6
Continuous
 62
     7
370
    25
100
AcDbLine
 10
73.5155947987
 20
294.6335016994
 30
0.0
 11
75.7295512615
 21
292.6090519517
 31
0.0
  0
LINE
  5
20F
330
1F
100
AcDbEntity
  8
0
  6
Continuous
 62
     7
370
    25
100
AcDbLine
 10
325.2753045508
 20
37.1701765095
 30
0.0
 11
328.2753045508
 21
37.1701765095
 31
0.0
  0
ARC
  5
210
330
1F
100
AcDbEntity
  8
0
  6
Continuous
 62
     7
370
    25
100
AcDbCircle
 10
308.2753045508
 20
37.1701765095
 30
0.0
 40
20.00000000000006
100
AcDbArc
 50
317.5600915934
 51
0.0
  0
LINE
  5
211
330
1F
100
AcDbEntity
  8
0
  6
Continuous
 62
     7
370
    25
100
AcDbLine
 10
320.82105784
 20
25.6982946061
 30
0.0
 11
323.0350143028
 21
23.6738448584
 31
0.0
  0
ARC
  5
212
330
1F
100
AcDbEntity
  8
0
  6
Continuous
 62
     7
370
    25
100
AcDbCircle
 10
-51.7246954492
 20
409.1536732789
 30
0.0
 40
169.7056274847716
100
AcDbArc
 50
317.5600915934
 51
0.8453991688
  0
ARC
  5
213
330
1F
100
AcDbEntity
  8
0
  6
Continuous
 62
     7
370
    25
100
AcDbCircle
 10
-51.7246954492
 20
409.1536732789
 30
0.0
 40
169.7056274847715
100
AcDbArc
 50
9.2395029695
 51
41.3137672474
  0
LINE
  5
214
330
1F
100
AcDbEntity
  8
0
  6
Continuous
 62
     7
370
    25
100
AcDbLine
 10
75.7421388274
 20
521.1903019299
 30
0.0
 11
77.9954553997
 21
523.1708484264
 31
0.0
  0
ARC
  5
215
330
1F
100
AcDbEntity
  8
0
  6
Continuous
 62
     7
370
    25
100
AcDbCircle
 10
298.2753045508
 20
540.995766895
 30
0.0
 40
30.0
100
AcDbArc
 50
318.6862327526
 51
0.0
  0
ARC
  5
216
330
1F
100
AcDbEntity
  8
0
  6
Continuous
 62
     7
370
    25
100
AcDbCircle
 10
88.2753045508
 20
37.1701765095
 30
0.0
 40
20.00000000000003
100
AcDbArc
 50
180.0
 51
222.4399084066
  0
ARC
  5
217
330
1F
100
AcDbEntity
  8
0
  6
Continuous
 62
     7
370
    25
100
AcDbCircle
 10
198.2753045508
 20
609.1536732789
 30
0.0
 40
129.9999999999999
100
AcDbArc
 50
0.0
 51
180.0
  0
LINE
  5
218
330
1F
100
AcDbEntity
  8
0
  6
Continuous
 62
     7
370
    25
100
AcDbLine
 10
328.2753045508
 20
-222.6884203373
 30
0.0
 11
328.2753045508
 21
-290.8463267211
 31
0.0
  0
LINE
  5
219
330
1F
100
AcDbEntity
  8
0
  6
Continuous
 62
     7
370
    25
100
AcDbLine
 10
328.2753045508
 20
-222.6884203373
 30
0.0
 11
325.2753045508
 21
-222.6884203373
 31
0.0
  0
ARC
  5
21A
330
1F
100
AcDbEntity
  8
0
  6
Continuous
 62
     7
370
    25
100
AcDbCircle
 10
98.2753045508
 20
540.995766895
 30
0.0
 40
30.00000000000005
100
AcDbArc
 50
180.0
 51
221.3137672474
  0
ARC
  5
21B
330
1F
100
AcDbEntity
  8
0
  6
Continuous
 62
     7
370
    25
100
AcDbCircle
 10
308.2753045508
 20
281.1371700483
 30
0.0
 40
20.00000000000006
100
AcDbArc
 50
0.0
 51
42.4399084066
  0
LINE
  5
21C
330
1F
100
AcDbEntity
  8
0
  6
Continuous
 62
     7
370
    25
100
AcDbLine
 10
325.2753045508
 20
281.1371700483
 30
0.0
 11
328.2753045508
 21
281.1371700483
 31
0.0
  0
LINE
  5
21D
330
1F
100
AcDbEntity
  8
0
  6
Continuous
 62
     7
370
    25
100
AcDbLine
 10
318.5551537018
 20
-204.8635018687
 30
0.0
 11
320.8084702741
 21
-202.8829553722
 31
0.0
  0
ARC
  5
21E
330
1F
100
AcDbEntity
  8
0
  6
Continuous
 62
     7
370
    25
100
AcDbCircle
 10
298.2753045508
 20
-222.6884203373
 30
0.0
 40
30.00000000000006
100
AcDbArc
 50
0.0
 51
41.3137672474
  0
ARC
  5
21F
330
1F
100
AcDbEntity
  8
0
  6
Continuous
 62
     7
370
    25
100
AcDbCircle
 10
448.2753045508
 20
-90.8463267211
 30
0.0
 40
169.7056274847715
100
AcDbArc
 50
137.5600915934
 51
180.8453991688
  0
ARC
  5
220
330
1F
100
AcDbEntity
  8
0
  6
Continuous
 62
     7
370
    25
100
AcDbCircle
 10
448.2753045508
 20
-90.8463267211
 30
0.0
 40
169.7056274847715
100
AcDbArc
 50
189.2395029695
 51
221.3137672474
  0
LINE
  5
221
330
1F
100
AcDbEntity
  8
0
  6
Continuous
 62
     7
370
    25
100
AcDbLine
 10
328.2753045508
 20
281.1371700483
 30
0.0
 11
328.2753045508
 21
37.1701765095
 31
0.0
  0
LINE
  5
222
330
1F
100
AcDbEntity
  8
0
  6
Continuous
 62
     7
370
    25
100
AcDbLine
 10
68.2753045508
 20
-290.8463267211
 30
0.0
 11
68.2753045508
 21
-222.6884203373
 31
0.0
  0
LINE
  5
223
330
1F
100
AcDbEntity
  8
0
  6
Continuous
 62
     8
370
    25
100
AcDbLine
 10
228.2753045508
 20
-105.8463267211
 30
0.0
 11
228.2753045508
 21
-93.3463267211
 31
0.0
  0
LINE
  5
224
330
1F
100
AcDbEntity
  8
0
  6
Continuous
 62
     8
370
    25
100
AcDbLine
 10
228.2753045508
 20
-118.3463267211
 30
0.0
 11
228.2753045508
 21
-105.8463267211
 31
0.0
  0
LINE
  5
225
330
1F
100
AcDbEntity
  8
0
  6
Continuous
 62
     8
370
    25
100
AcDbLine
 10
168.2753045508
 20
-105.8463267211
 30
0.0
 11
168.2753045508
 21
-93.3463267211
 31
0.0
  0
LINE
  5
226
330
1F
100
AcDbEntity
  8
0
  6
Continuous
 62
     8
370
    25
100
AcDbLine
 10
168.2753045508
 20
-118.3463267211
 30
0.0
 11
168.2753045508
 21
-105.8463267211
 31
0.0
  0
LINE
  5
227
330
1F
100
AcDbEntity
  8
0
  6
Continuous
 62
     8
370
    25
100
AcDbLine
 10
228.2753045508
 20
424.1536732789
 30
0.0
 11
228.2753045508
 21
436.6536732789
 31
0.0
  0
LINE
  5
228
330
1F
100
AcDbEntity
  8
0
  6
Continuous
 62
     8
370
    25
100
AcDbLine
 10
228.2753045508
 20
411.6536732789
 30
0.0
 11
228.2753045508
 21
424.1536732789
 31
0.0
  0
LINE
  5
229
330
1F
100
AcDbEntity
  8
0
  6
Continuous
 62
     8
370
    25
100
AcDbLine
 10
168.2753045508
 20
424.1536732789
 30
0.0
 11
168.2753045508
 21
436.6536732789
 31
0.0
  0
LINE
  5
22A
330
1F
100
AcDbEntity
  8
0
  6
Continuous
 62
     8
370
    25
100
AcDbLine
 10
168.2753045508
 20
411.6536732789
 30
0.0
 11
168.2753045508
 21
424.1536732789
 31
0.0
  0
LINE
  5
22B
330
1F
100
AcDbEntity
  8
0
  6
Continuous
 62
     8
370
    25
100
AcDbLine
 10
463.2753045508
 20
129.1536732789
 30
0.0
 11
475.7753045508
 21
129.1536732789
 31
0.0
  0
LINE
  5
22C
330
1F
100
AcDbEntity
  8
0
  6
Continuous
 62
     8
370
    25
100
AcDbLine
 10
450.7753045508
 20
129.1536732789
 30
0.0
 11
463.2753045508
 21
129.1536732789
 31
0.0
  0
LINE
  5
22D
330
1F
100
AcDbEntity
  8
0
  6
Continuous
 62
     8
370
    25
100
AcDbLine
 10
463.2753045508
 20
189.1536732789
 30
0.0
 11
475.7753045508
 21
189.1536732789
 31
0.0
  0
LINE
  5
22E
330
1F
100
AcDbEntity
  8
0
  6
Continuous
 62
     8
370
    25
100
AcDbLine
 10
450.7753045508
 20
189.1536732789
 30
0.0
 11
463.2753045508
 21
189.1536732789
 31
0.0
  0
LINE
  5
22F
330
1F
100
AcDbEntity
  8
0
  6
Continuous
 62
     8
370
    25
100
AcDbLine
 10
-66.7246954492
 20
189.1536732789
 30
0.0
 11
-79.2246954492
 21
189.1536732789
 31
0.0
  0
LINE
  5
230
330
1F
100
AcDbEntity
  8
0
  6
Continuous
 62
     8
370
    25
100
AcDbLine
 10
-54.2246954492
 20
189.1536732789
 30
0.0
 11
-66.7246954492
 21
189.1536732789
 31
0.0
  0
LINE
  5
231
330
1F
100
AcDbEntity
  8
0
  6
Continuous
 62
     8
370
    25
100
AcDbLine
 10
-66.7246954492
 20
129.1536732789
 30
0.0
 11
-79.2246954492
 21
129.1536732789
 31
0.0
  0
LINE
  5
232
330
1F
100
AcDbEntity
  8
0
  6
Continuous
 62
     8
370
    25
100
AcDbLine
 10
-54.2246954492
 20
129.1536732789
 30
0.0
 11
-66.7246954492
 21
129.1536732789
 31
0.0
  0
ARC
  5
233
330
1F
100
AcDbEntity
  8
0
  6
Continuous
 62
     8
370
    25
100
AcDbCircle
 10
320.2588013202
 20
49.1536732789
 30
0.0
 40
17.00000000000002
100
AcDbArc
 50
297.1932071904
 51
312.4399084066
  0
ARC
  5
234
330
1F
100
AcDbEntity
  8
0
  6
Continuous
 62
     8
370
    25
100
AcDbCircle
 10
76.2918077814
 20
49.1536732789
 30
0.0
 40
17.00000000000001
100
AcDbArc
 50
227.5600915934
 51
242.8067928096
  0
ARC
  5
235
330
1F
100
AcDbEntity
  8
0
  6
Continuous
 62
     8
370
    25
100
AcDbCircle
 10
-51.7246954492
 20
-90.8463267211
 30
0.0
 40
172.7056274847716
100
AcDbArc
 50
99.1622333753
 51
131.3137672474
  0
ARC
  5
236
330
1F
100
AcDbEntity
  8
0
  6
Continuous
 62
     8
370
    25
100
AcDbCircle
 10
-51.7246954492
 20
-90.8463267211
 30
0.0
 40
172.7056274847716
100
AcDbArc
 50
47.5600915934
 51
90.8294139209
  0
ARC
  5
237
330
1F
100
AcDbEntity
  8
0
  6
Continuous
 62
     8
370
    25
100
AcDbCircle
 10
-51.7246954492
 20
409.1536732789
 30
0.0
 40
172.7056274847716
100
AcDbArc
 50
269.1705860791
 51
312.4399084066
  0
ARC
  5
238
330
1F
100
AcDbEntity
  8
0
  6
Continuous
 62
     8
370
    25
100
AcDbCircle
 10
-51.7246954492
 20
409.1536732789
 30
0.0
 40
172.7056274847716
100
AcDbArc
 50
228.6862327526
 51
260.8377666247
  0
ARC
  5
239
330
1F
100
AcDbEntity
  8
0
  6
Continuous
 62
     8
370
    25
100
AcDbCircle
 10
76.2918077814
 20
269.1536732789
 30
0.0
 40
17.0
100
AcDbArc
 50
117.1932071904
 51
132.4399084066
  0
ARC
  5
23A
330
1F
100
AcDbEntity
  8
0
  6
Continuous
 62
     8
370
    25
100
AcDbCircle
 10
320.2588013202
 20
269.1536732789
 30
0.0
 40
17.0
100
AcDbArc
 50
47.5600915934
 51
62.8067928096
  0
ARC
  5
23B
330
1F
100
AcDbEntity
  8
0
  6
Continuous
 62
     8
370
    25
100
AcDbCircle
 10
448.2753045508
 20
409.1536732789
 30
0.0
 40
172.7056274847715
100
AcDbArc
 50
279.1622333753
 51
311.3137672474
  0
ARC
  5
23C
330
1F
100
AcDbEntity
  8
0
  6
Continuous
 62
     8
370
    25
100
AcDbCircle
 10
448.2753045508
 20
409.1536732789
 30
0.0
 40
172.7056274847716
100
AcDbArc
 50
227.5600915934
 51
270.8294139209
  0
ARC
  5
23D
330
1F
100
AcDbEntity
  8
0
  6
Continuous
 62
     8
370
    25
100
AcDbCircle
 10
448.2753045508
 20
-90.8463267211
 30
0.0
 40
172.7056274847715
100
AcDbArc
 50
89.1705860791
 51
132.4399084066
  0
ARC
  5
23E
330
1F
100
AcDbEntity
  8
0
  6
Continuous
 62
     8
370
    25
100
AcDbCircle
 10
448.2753045508
 20
-90.8463267211
 30
0.0
 40
172.7056274847716
100
AcDbArc
 50
48.6862327526
 51
80.8377666247
  0
ARC
  5
23F
330
1F
100
AcDbEntity
  8
0
  6
Continuous
 62
     8
370
    25
100
AcDbCircle
 10
448.2753045508
 20
409.1536732789
 30
0.0
 40
172.7056274847716
100
AcDbArc
 50
179.1705860791
 51
222.4399084066
  0
ARC
  5
240
330
1F
100
AcDbEntity
  8
0
  6
Continuous
 62
     8
370
    25
100
AcDbCircle
 10
448.2753045508
 20
409.1536732789
 30
0.0
 40
172.7056274847716
100
AcDbArc
 50
138.6862327526
 51
170.8377666247
  0
ARC
  5
241
330
1F
100
AcDbEntity
  8
0
  6
Continuous
 62
     8
370
    25
100
AcDbCircle
 10
448.2753045508
 20
-90.8463267211
 30
0.0
 40
172.7056274847715
100
AcDbArc
 50
189.1622333753
 51
221.3137672474
  0
ARC
  5
242
330
1F
100
AcDbEntity
  8
0
  6
Continuous
 62
     8
370
    25
100
AcDbCircle
 10
448.2753045508
 20
-90.8463267211
 30
0.0
 40
172.7056274847716
100
AcDbArc
 50
137.5600915934
 51
180.8294139209
  0
ARC
  5
243
330
1F
100
AcDbEntity
  8
0
  6
Continuous
 62
     8
370
    25
100
AcDbCircle
 10
-51.7246954492
 20
-90.8463267211
 30
0.0
 40
172.7056274847715
100
AcDbArc
 50
359.1705860791
 51
42.4399084066
  0
ARC
  5
244
330
1F
100
AcDbEntity
  8
0
  6
Continuous
 62
     8
370
    25
100
AcDbCircle
 10
-51.7246954492
 20
-90.8463267211
 30
0.0
 40
172.7056274847716
100
AcDbArc
 50
318.6862327526
 51
350.8377666247
  0
ARC
  5
245
330
1F
100
AcDbEntity
  8
0
  6
Continuous
 62
     8
370
    25
100
AcDbCircle
 10
-51.7246954492
 20
409.1536732789
 30
0.0
 40
172.7056274847716
100
AcDbArc
 50
9.1622333753
 51
41.3137672474
  0
ARC
  5
246
330
1F
100
AcDbEntity
  8
0
  6
Continuous
 62
     8
370
    25
100
AcDbCircle
 10
-51.7246954492
 20
409.1536732789
 30
0.0
 40
172.7056274847716
100
AcDbArc
 50
317.5600915934
 51
0.8294139209
  0
ENDSEC
  0
SECTION
  2
OBJECTS
  0
DICTIONARY
  5
C
330
0
100
AcDbDictionary
281
     1
  3
ACAD_GROUP
350
D
  3
ACAD_LAYOUT
350
1A
  3
ACAD_MLINESTYLE
350
17
  3
ACAD_PLOTSETTINGS
350
19
  3
ACAD_PLOTSTYLENAME
350
E
  3
ACAD_SCALELIST
350
47
  3
DWGPROPS
350
247
  0
DICTIONARY
  5
D
102
{ACAD_REACTORS
330
C
102
}
330
C
100
AcDbDictionary
281
     1
  0
DICTIONARY
  5
1A
102
{ACAD_REACTORS
330
C
102
}
330
C
100
AcDbDictionary
281
     1
  3
Layout1
350
1E
  3
Layout2
350
26
  3
Model
350
22
  0
DICTIONARY
  5
17
102
{ACAD_REACTORS
330
C
102
}
330
C
100
AcDbDictionary
281
     1
  3
Standard
350
18
  0
DICTIONARY
  5
19
102
{ACAD_REACTORS
330
C
102
}
330
C
100
AcDbDictionary
281
     1
  0
ACDBDICTIONARYWDFLT
  5
E
102
{ACAD_REACTORS
330
C
102
}
330
C
100
AcDbDictionary
281
     1
  3
Normal
350
F
100
AcDbDictionaryWithDefault
340
F
  0
DICTIONARY
  5
47
102
{ACAD_REACTORS
330
C
102
}
330
C
100
AcDbDictionary
281
     1
  3
A0
350
48
  3
A1
350
49
  3
A2
350
4A
  3
A3
350
4B
  3
A4
350
4C
  3
A5
350
4D
  3
A6
350
4E
  3
A7
350
4F
  3
A8
350
50
  3
A9
350
51
  3
B0
350
52
  3
B1
350
53
  3
B2
350
54
  3
B3
350
55
  3
B4
350
56
  3
B5
350
57
  3
B6
350
58
  3
B7
350
59
  3
B8
350
5A
  3
B9
350
5B
  3
C0
350
5C
  3
C1
350
5D
  3
C2
350
5E
  3
C3
350
5F
  3
C4
350
60
  3
C5
350
61
  3
C6
350
62
  3
C7
350
63
  3
C8
350
64
  3
C9
350
65
  3
D0
350
66
  3
D1
350
67
  3
D2
350
68
  0
XRECORD
  5
247
102
{ACAD_REACTORS
330
C
102
}
330
C
100
AcDbXrecord
280
     1
  1
DWGPROPS COOKIE
  2

  3

  4

  6

  7

  8
Swing
  9

300
=
301
=
302
=
303
=
304
=
305
=
306
=
307
=
308
=
309
=
 40
0.0
 41
2459629.328827604
 42
2459629.328827963
  1

 90
        0
  0
LAYOUT
  5
1E
102
{ACAD_REACTORS
330
1A
102
}
330
1A
100
AcDbPlotSettings
  1

  2
none_device
  4

  6

 40
0.0
 41
0.0
 42
0.0
 43
0.0
 44
0.0
 45
0.0
 46
0.0
 47
0.0
 48
0.0
 49
0.0
140
0.0
141
0.0
142
1.0
143
1.0
 70
   688
 72
     1
 73
     0
 74
     5
  7

 75
    16
147
1.0
148
0.0
149
0.0
100
AcDbLayout
  1
Layout1
 70
     1
 71
     1
 10
0.0
 20
0.0
 11
420.0
 21
297.0
 12
0.0
 22
0.0
 32
0.0
 14
1.0000000000E+20
 24
1.0000000000E+20
 34
1.0000000000E+20
 15
-1.0000000000E+20
 25
-1.0000000000E+20
 35
-1.0000000000E+20
146
0.0
 13
0.0
 23
0.0
 33
0.0
 16
1.0
 26
0.0
 36
0.0
 17
0.0
 27
1.0
 37
0.0
 76
     0
330
1B
  0
LAYOUT
  5
26
102
{ACAD_REACTORS
330
1A
102
}
330
1A
100
AcDbPlotSettings
  1

  2
none_device
  4

  6

 40
0.0
 41
0.0
 42
0.0
 43
0.0
 44
0.0
 45
0.0
 46
0.0
 47
0.0
 48
0.0
 49
0.0
140
0.0
141
0.0
142
1.0
143
1.0
 70
   688
 72
     1
 73
     0
 74
     5
  7

 75
    16
147
1.0
148
0.0
149
0.0
100
AcDbLayout
  1
Layout2
 70
     1
 71
     2
 10
0.0
 20
0.0
 11
0.0
 21
0.0
 12
0.0
 22
0.0
 32
0.0
 14
0.0
 24
0.0
 34
0.0
 15
0.0
 25
0.0
 35
0.0
146
0.0
 13
0.0
 23
0.0
 33
0.0
 16
1.0
 26
0.0
 36
0.0
 17
0.0
 27
1.0
 37
0.0
 76
     0
330
23
  0
LAYOUT
  5
22
102
{ACAD_REACTORS
330
1A
102
}
330
1A
100
AcDbPlotSettings
  1

  2
none_device
  4
Letter_(8.50_x_11.00_Inches)
  6

 40
6.35
 41
6.35
 42
6.35000508
 43
6.35000508
 44
215.9
 45
279.4
 46
0.0
 47
0.0
 48
0.0
 49
0.0
140
0.0
141
0.0
142
1.0
143
1.0
 70
  1712
 72
     1
 73
     0
 74
     0
  7

 75
     0
147
1.0
148
0.0
149
0.0
100
AcDbLayout
  1
Model
 70
     1
 71
     0
 10
0.0
 20
0.0
 11
431.8
 21
279.4
 12
0.0
 22
0.0
 32
0.0
 14
0.0
 24
0.0
 34
0.0
 15
431.8
 25
279.4
 35
0.0
146
0.0
 13
0.0
 23
0.0
 33
0.0
 16
1.0
 26
0.0
 36
0.0
 17
0.0
 27
1.0
 37
0.0
 76
     0
330
1F
331
29
  0
MLINESTYLE
  5
18
102
{ACAD_REACTORS
330
17
102
}
330
17
100
AcDbMlineStyle
  2
Standard
 70
     0
  3

 62
   256
 51
90.0
 52
90.0
 71
     2
 49
0.5
 62
   256
  6
BYLAYER
 49
-0.5
 62
   256
  6
BYLAYER
  0
ACDBPLACEHOLDER
  5
F
102
{ACAD_REACTORS
330
E
102
}
330
E
  0
SCALE
  5
48
102
{ACAD_REACTORS
330
47
102
}
330
47
100
AcDbScale
 70
     0
300
1:1
140
1.0
141
1.0
290
     1
  0
SCALE
  5
49
102
{ACAD_REACTORS
330
47
102
}
330
47
100
AcDbScale
 70
     0
300
1:2
140
1.0
141
2.0
290
     0
  0
SCALE
  5
4A
102
{ACAD_REACTORS
330
47
102
}
330
47
100
AcDbScale
 70
     0
300
1:4
140
1.0
141
4.0
290
     0
  0
SCALE
  5
4B
102
{ACAD_REACTORS
330
47
102
}
330
47
100
AcDbScale
 70
     0
300
1:5
140
1.0
141
5.0
290
     0
  0
SCALE
  5
4C
102
{ACAD_REACTORS
330
47
102
}
330
47
100
AcDbScale
 70
     0
300
1:8
140
1.0
141
8.0
290
     0
  0
SCALE
  5
4D
102
{ACAD_REACTORS
330
47
102
}
330
47
100
AcDbScale
 70
     0
300
1:10
140
1.0
141
10.0
290
     0
  0
SCALE
  5
4E
102
{ACAD_REACTORS
330
47
102
}
330
47
100
AcDbScale
 70
     0
300
1:16
140
1.0
141
16.0
290
     0
  0
SCALE
  5
4F
102
{ACAD_REACTORS
330
47
102
}
330
47
100
AcDbScale
 70
     0
300
1:20
140
1.0
141
20.0
290
     0
  0
SCALE
  5
50
102
{ACAD_REACTORS
330
47
102
}
330
47
100
AcDbScale
 70
     0
300
1:30
140
1.0
141
30.0
290
     0
  0
SCALE
  5
51
102
{ACAD_REACTORS
330
47
102
}
330
47
100
AcDbScale
 70
     0
300
1:40
140
1.0
141
40.0
290
     0
  0
SCALE
  5
52
102
{ACAD_REACTORS
330
47
102
}
330
47
100
AcDbScale
 70
     0
300
1:50
140
1.0
141
50.0
290
     0
  0
SCALE
  5
53
102
{ACAD_REACTORS
330
47
102
}
330
47
100
AcDbScale
 70
     0
300
1:100
140
1.0
141
100.0
290
     0
  0
SCALE
  5
54
102
{ACAD_REACTORS
330
47
102
}
330
47
100
AcDbScale
 70
     0
300
2:1
140
2.0
141
1.0
290
     0
  0
SCALE
  5
55
102
{ACAD_REACTORS
330
47
102
}
330
47
100
AcDbScale
 70
     0
300
4:1
140
4.0
141
1.0
290
     0
  0
SCALE
  5
56
102
{ACAD_REACTORS
330
47
102
}
330
47
100
AcDbScale
 70
     0
300
8:1
140
8.0
141
1.0
290
     0
  0
SCALE
  5
57
102
{ACAD_REACTORS
330
47
102
}
330
47
100
AcDbScale
 70
     0
300
10:1
140
10.0
141
1.0
290
     0
  0
SCALE
  5
58
102
{ACAD_REACTORS
330
47
102
}
330
47
100
AcDbScale
 70
     0
300
100:1
140
100.0
141
1.0
290
     0
  0
SCALE
  5
59
102
{ACAD_REACTORS
330
47
102
}
330
47
100
AcDbScale
 70
     0
300
1/128" = 1'-0"
140
0.0078125
141
12.0
290
     0
  0
SCALE
  5
5A
102
{ACAD_REACTORS
330
47
102
}
330
47
100
AcDbScale
 70
     0
300
1/64" = 1'-0"
140
0.015625
141
12.0
290
     0
  0
SCALE
  5
5B
102
{ACAD_REACTORS
330
47
102
}
330
47
100
AcDbScale
 70
     0
300
1/32" = 1'-0"
140
0.03125
141
12.0
290
     0
  0
SCALE
  5
5C
102
{ACAD_REACTORS
330
47
102
}
330
47
100
AcDbScale
 70
     0
300
1/16" = 1'-0"
140
0.0625
141
12.0
290
     0
  0
SCALE
  5
5D
102
{ACAD_REACTORS
330
47
102
}
330
47
100
AcDbScale
 70
     0
300
3/32" = 1'-0"
140
0.09375
141
12.0
290
     0
  0
SCALE
  5
5E
102
{ACAD_REACTORS
330
47
102
}
330
47
100
AcDbScale
 70
     0
300
1/8" = 1'-0"
140
0.125
141
12.0
290
     0
  0
SCALE
  5
5F
102
{ACAD_REACTORS
330
47
102
}
330
47
100
AcDbScale
 70
     0
300
3/16" = 1'-0"
140
0.1875
141
12.0
290
     0
  0
SCALE
  5
60
102
{ACAD_REACTORS
330
47
102
}
330
47
100
AcDbScale
 70
     0
300
1/4" = 1'-0"
140
0.25
141
12.0
290
     0
  0
SCALE
  5
61
102
{ACAD_REACTORS
330
47
102
}
330
47
100
AcDbScale
 70
     0
300
3/8" = 1'-0"
140
0.375
141
12.0
290
     0
  0
SCALE
  5
62
102
{ACAD_REACTORS
330
47
102
}
330
47
100
AcDbScale
 70
     0
300
1/2" = 1'-0"
140
0.5
141
12.0
290
     0
  0
SCALE
  5
63
102
{ACAD_REACTORS
330
47
102
}
330
47
100
AcDbScale
 70
     0
300
3/4" = 1'-0"
140
0.75
141
12.0
290
     0
  0
SCALE
  5
64
102
{ACAD_REACTORS
330
47
102
}
330
47
100
AcDbScale
 70
     0
300
1" = 1'-0"
140
1.0
141
12.0
290
     0
  0
SCALE
  5
65
102
{ACAD_REACTORS
330
47
102
}
330
47
100
AcDbScale
 70
     0
300
1-1/2" = 1'-0"
140
1.5
141
12.0
290
     0
  0
SCALE
  5
66
102
{ACAD_REACTORS
330
47
102
}
330
47
100
AcDbScale
 70
     0
300
3" = 1'-0"
140
3.0
141
12.0
290
     0
  0
SCALE
  5
67
102
{ACAD_REACTORS
330
47
102
}
330
47
100
AcDbScale
 70
     0
300
6" = 1'-0"
140
6.0
141
12.0
290
     0
  0
SCALE
  5
68
102
{ACAD_REACTORS
330
47
102
}
330
47
100
AcDbScale
 70
     0
300
1'-0" = 1'-0"
140
12.0
141
12.0
290
     0
  0
ENDSEC
  0
EOF
