  0
SECTION
  2
HEADER
  9
$ACADVER
  1
AC1015
  9
$ACADMAINTVER
 70
     6
  9
$DWGCODEPAGE
  3
ANSI_1250
  9
$INSBASE
 10
0.0
 20
0.0
 30
0.0
  9
$EXTMIN
 10
0.0
 20
0.0
 30
0.0
  9
$EXTMAX
 10
431.8
 20
279.4
 30
0.0
  9
$LIMMIN
 10
0.0
 20
0.0
  9
$LIMMAX
 10
431.8
 20
279.4
  9
$ORTHOMODE
 70
     0
  9
$REGENMODE
 70
     1
  9
$FILLMODE
 70
     1
  9
$QTEXTMODE
 70
     0
  9
$MIRRTEXT
 70
     1
  9
$LTSCALE
 40
1.0
  9
$ATTMODE
 70
     1
  9
$TEXTSIZE
 40
3.8805555556
  9
$TRACEWID
 40
1.0
  9
$TEXTSTYLE
  7
Standard
  9
$CLAYER
  8
0
  9
$CELTYPE
  6
ByLayer
  9
$CECOLOR
 62
   256
  9
$CELTSCALE
 40
1.0
  9
$DISPSILH
 70
     0
  9
$DIMSCALE
 40
1.0
  9
$DIMASZ
 40
3.302
  9
$DIMEXO
 40
1.0
  9
$DIMDLI
 40
3.75
  9
$DIMRND
 40
0.0
  9
$DIMDLE
 40
0.0
  9
$DIMEXE
 40
1.0
  9
$DIMTP
 40
0.0
  9
$DIMTM
 40
0.0
  9
$DIMTXT
 40
3.8805555556
  9
$DIMCEN
 40
2.5
  9
$DIMTSZ
 40
0.0
  9
$DIMTOL
 70
     0
  9
$DIMLIM
 70
     0
  9
$DIMTIH
 70
     1
  9
$DIMTOH
 70
     1
  9
$DIMSE1
 70
     0
  9
$DIMSE2
 70
     0
  9
$DIMTAD
 70
     1
  9
$DIMZIN
 70
     0
  9
$DIMBLK
  1

  9
$DIMASO
 70
     1
  9
$DIMSHO
 70
     1
  9
$DIMPOST
  1

  9
$DIMAPOST
  1

  9
$DIMALT
 70
     0
  9
$DIMALTD
 70
     3
  9
$DIMALTF
 40
0.0393700787
  9
$DIMLFAC
 40
1.0
  9
$DIMTOFL
 70
     1
  9
$DIMTVP
 40
0.0
  9
$DIMTIX
 70
     0
  9
$DIMSOXD
 70
     0
  9
$DIMSAH
 70
     0
  9
$DIMBLK1
  1

  9
$DIMBLK2
  1

  9
$DIMSTYLE
  2
ISO-25
  9
$DIMCLRD
 70
     0
  9
$DIMCLRE
 70
     0
  9
$DIMCLRT
 70
     0
  9
$DIMTFAC
 40
1.0
  9
$DIMGAP
 40
1.524
  9
$DIMJUST
 70
     0
  9
$DIMSD1
 70
     0
  9
$DIMSD2
 70
     0
  9
$DIMTOLJ
 70
     0
  9
$DIMTZIN
 70
     0
  9
$DIMALTZ
 70
     0
  9
$DIMALTTZ
 70
     0
  9
$DIMUPT
 70
     0
  9
$DIMDEC
 70
     1
  9
$DIMTDEC
 70
     1
  9
$DIMALTU
 70
     2
  9
$DIMALTTD
 70
     3
  9
$DIMTXSTY
  7
Standard
  9
$DIMAUNIT
 70
     0
  9
$DIMADEC
 70
     1
  9
$DIMALTRND
 40
0.0
  9
$DIMAZIN
 70
     0
  9
$DIMDSEP
 70
    44
  9
$DIMATFIT
 70
     3
  9
$DIMFRAC
 70
     0
  9
$DIMLDRBLK
  1

  9
$DIMLUNIT
 70
     2
  9
$DIMLWD
 70
    -2
  9
$DIMLWE
 70
    -2
  9
$DIMTMOVE
 70
     0
  9
$LUNITS
 70
     2
  9
$LUPREC
 70
     1
  9
$SKETCHINC
 40
1.0
  9
$FILLETRAD
 40
10.0
  9
$AUNITS
 70
     0
  9
$AUPREC
 70
     1
  9
$MENU
  1
.
  9
$ELEVATION
 40
0.0
  9
$PELEVATION
 40
0.0
  9
$THICKNESS
 40
0.0
  9
$LIMCHECK
 70
     0
  9
$CHAMFERA
 40
0.0
  9
$CHAMFERB
 40
0.0
  9
$CHAMFERC
 40
0.0
  9
$CHAMFERD
 40
0.0
  9
$SKPOLY
 70
     0
  9
$TDCREATE
 40
2459683.417829826
  9
$TDUCREATE
 40
2459683.334496493
  9
$TDUPDATE
 40
2459683.417830289
  9
$TDUUPDATE
 40
2459683.334496956
  9
$TDINDWG
 40
0.0000000116
  9
$TDUSRTIMER
 40
0.0000000116
  9
$USRTIMER
 70
     1
  9
$ANGBASE
 50
0.0
  9
$ANGDIR
 70
     0
  9
$PDMODE
 70
     0
  9
$PDSIZE
 40
-1.0
  9
$PLINEWID
 40
0.0
  9
$SPLFRAME
 70
     0
  9
$SPLINETYPE
 70
     6
  9
$SPLINESEGS
 70
     8
  9
$HANDSEED
  5
3BF
  9
$SURFTAB1
 70
     6
  9
$SURFTAB2
 70
     6
  9
$SURFTYPE
 70
     6
  9
$SURFU
 70
     6
  9
$SURFV
 70
     6
  9
$UCSBASE
  2

  9
$UCSNAME
  2

  9
$UCSORG
 10
0.0
 20
0.0
 30
0.0
  9
$UCSXDIR
 10
1.0
 20
0.0
 30
0.0
  9
$UCSYDIR
 10
0.0
 20
1.0
 30
0.0
  9
$UCSORTHOREF
  2

  9
$UCSORTHOVIEW
 70
     0
  9
$UCSORGTOP
 10
0.0
 20
0.0
 30
0.0
  9
$UCSORGBOTTOM
 10
0.0
 20
0.0
 30
0.0
  9
$UCSORGLEFT
 10
0.0
 20
0.0
 30
0.0
  9
$UCSORGRIGHT
 10
0.0
 20
0.0
 30
0.0
  9
$UCSORGFRONT
 10
0.0
 20
0.0
 30
0.0
  9
$UCSORGBACK
 10
0.0
 20
0.0
 30
0.0
  9
$PUCSBASE
  2

  9
$PUCSNAME
  2

  9
$PUCSORG
 10
0.0
 20
0.0
 30
0.0
  9
$PUCSXDIR
 10
1.0
 20
0.0
 30
0.0
  9
$PUCSYDIR
 10
0.0
 20
1.0
 30
0.0
  9
$PUCSORTHOREF
  2

  9
$PUCSORTHOVIEW
 70
     0
  9
$PUCSORGTOP
 10
0.0
 20
0.0
 30
0.0
  9
$PUCSORGBOTTOM
 10
0.0
 20
0.0
 30
0.0
  9
$PUCSORGLEFT
 10
0.0
 20
0.0
 30
0.0
  9
$PUCSORGRIGHT
 10
0.0
 20
0.0
 30
0.0
  9
$PUCSORGFRONT
 10
0.0
 20
0.0
 30
0.0
  9
$PUCSORGBACK
 10
0.0
 20
0.0
 30
0.0
  9
$USERI1
 70
     0
  9
$USERI2
 70
     0
  9
$USERI3
 70
     0
  9
$USERI4
 70
     0
  9
$USERI5
 70
     0
  9
$USERR1
 40
0.0
  9
$USERR2
 40
0.0
  9
$USERR3
 40
0.0
  9
$USERR4
 40
0.0
  9
$USERR5
 40
0.0
  9
$WORLDVIEW
 70
     1
  9
$SHADEDGE
 70
     3
  9
$SHADEDIF
 70
    70
  9
$TILEMODE
 70
     1
  9
$MAXACTVP
 70
    64
  9
$PINSBASE
 10
0.0
 20
0.0
 30
0.0
  9
$PLIMCHECK
 70
     0
  9
$PEXTMIN
 10
1.0000000000E+20
 20
1.0000000000E+20
 30
1.0000000000E+20
  9
$PEXTMAX
 10
-1.0000000000E+20
 20
-1.0000000000E+20
 30
-1.0000000000E+20
  9
$PLIMMIN
 10
0.0
 20
0.0
  9
$PLIMMAX
 10
420.0
 20
297.0
  9
$UNITMODE
 70
     0
  9
$VISRETAIN
 70
     1
  9
$PLINEGEN
 70
     0
  9
$PSLTSCALE
 70
     1
  9
$TREEDEPTH
 70
  3020
  9
$CMLSTYLE
  2
Standard
  9
$CMLJUST
 70
     0
  9
$CMLSCALE
 40
20.0
  9
$PROXYGRAPHICS
 70
     1
  9
$MEASUREMENT
 70
     1
  9
$CELWEIGHT
370
    -1
  9
$ENDCAPS
280
     0
  9
$JOINSTYLE
280
     0
  9
$LWDISPLAY
290
     1
  9
$INSUNITS
 70
     4
  9
$HYPERLINKBASE
  1

  9
$STYLESHEET
  1

  9
$XEDIT
290
     1
  9
$CEPSNTYPE
380
     0
  9
$PSTYLEMODE
290
     1
  9
$FINGERPRINTGUID
  2
{a32e10e3-139c-498d-be13-f9ec713a5e2a}
  9
$VERSIONGUID
  2
{FAEB1C32-E019-11D5-929B-00C0DF256EC4}
  9
$EXTNAMES
290
     1
  9
$PSVPSCALE
 40
0.0
  9
$OLESTARTUP
290
     0
  0
ENDSEC
  0
SECTION
  2
CLASSES
  0
CLASS
  1
ACDBDICTIONARYWDFLT
  2
AcDbDictionaryWithDefault
  3
ObjectDBX Classes
 90
        0
280
     0
281
     0
  0
CLASS
  1
VISUALSTYLE
  2
AcDbVisualStyle
  3
ObjectDBX Classes
 90
     4095
280
     0
281
     0
  0
CLASS
  1
MATERIAL
  2
AcDbMaterial
  3
ObjectDBX Classes
 90
     1153
280
     0
281
     0
  0
CLASS
  1
SCALE
  2
AcDbScale
  3
ObjectDBX Classes
 90
     1153
280
     0
281
     0
  0
CLASS
  1
TABLESTYLE
  2
AcDbTableStyle
  3
ObjectDBX Classes
 90
     4095
280
     0
281
     0
  0
CLASS
  1
MLEADERSTYLE
  2
AcDbMLeaderStyle
  3
ACDB_MLEADERSTYLE_CLASS
 90
     4095
280
     0
281
     0
  0
CLASS
  1
SUN
  2
AcDbSun
  3
SCENEOE
 90
     1153
280
     0
281
     0
  0
CLASS
  1
ACDBPLACEHOLDER
  2
AcDbPlaceHolder
  3
ObjectDBX Classes
 90
        0
280
     0
281
     0
  0
CLASS
  1
LAYOUT
  2
AcDbLayout
  3
ObjectDBX Classes
 90
        0
280
     0
281
     0
  0
ENDSEC
  0
SECTION
  2
TABLES
  0
TABLE
  2
VPORT
  5
8
330
0
100
AcDbSymbolTable
 70
     1
  0
VPORT
  5
29
330
8
100
AcDbSymbolTableRecord
100
AcDbViewportTableRecord
  2
*Active
 70
     0
 10
0.0
 20
0.0
 11
1.0
 21
1.0
 12
215.9
 22
139.7
 13
0.0
 23
0.0
 14
10.0
 24
10.0
 15
10.0
 25
10.0
 16
0.0
 26
0.0
 36
1.0
 17
0.0
 27
0.0
 37
0.0
 40
279.4
 41
1.5454545455
 42
50.0
 43
0.0
 44
0.0
 50
0.0
 51
0.0
 71
     0
 72
  2000
 73
     1
 74
     3
 75
     0
 76
     0
 77
     0
 78
     0
281
     0
 65
     1
110
0.0
120
0.0
130
0.0
111
1.0
121
0.0
131
0.0
112
0.0
122
1.0
132
0.0
 79
     0
146
0.0
  0
ENDTAB
  0
TABLE
  2
LTYPE
  5
5
330
0
100
AcDbSymbolTable
 70
     6
  0
LTYPE
  5
14
330
5
100
AcDbSymbolTableRecord
100
AcDbLinetypeTableRecord
  2
ByBlock
 70
     0
  3

 72
    65
 73
     0
 40
0.0
  0
LTYPE
  5
15
330
5
100
AcDbSymbolTableRecord
100
AcDbLinetypeTableRecord
  2
ByLayer
 70
     0
  3

 72
    65
 73
     0
 40
0.0
  0
LTYPE
  5
16
330
5
100
AcDbSymbolTableRecord
100
AcDbLinetypeTableRecord
  2
Continuous
 70
     0
  3
Solid line
 72
    65
 73
     0
 40
0.0
  0
LTYPE
  5
6E
330
5
100
AcDbSymbolTableRecord
100
AcDbLinetypeTableRecord
  2
HIDDEN
 70
     0
  3
Hidden __ __ __ __ __ __ __ __ __ __ __ __ __ __
 72
    65
 73
     2
 40
1.905
 49
1.27
 74
     0
 49
-0.635
 74
     0
  0
LTYPE
  5
6F
330
5
100
AcDbSymbolTableRecord
100
AcDbLinetypeTableRecord
  2
PHANTOM
 70
     0
  3
Phantom ______  __  __  ______  __  __  ______
 72
    65
 73
     6
 40
12.7
 49
6.35
 74
     0
 49
-1.27
 74
     0
 49
1.27
 74
     0
 49
-1.27
 74
     0
 49
1.27
 74
     0
 49
-1.27
 74
     0
  0
LTYPE
  5
70
330
5
100
AcDbSymbolTableRecord
100
AcDbLinetypeTableRecord
  2
CENTER
 70
     0
  3
Center ____ _ ____ _ ____ _ ____ _ ____ _ ____
 72
    65
 73
     4
 40
10.16
 49
6.35
 74
     0
 49
-1.27
 74
     0
 49
1.27
 74
     0
 49
-1.27
 74
     0
  0
LTYPE
  5
71
330
5
100
AcDbSymbolTableRecord
100
AcDbLinetypeTableRecord
  2
CENTERX2
 70
     0
  3
Center (2x) ________  __  ________  __  _____
 72
    65
 73
     4
 40
20.32
 49
12.7
 74
     0
 49
-2.54
 74
     0
 49
2.54
 74
     0
 49
-2.54
 74
     0
  0
LTYPE
  5
72
330
5
100
AcDbSymbolTableRecord
100
AcDbLinetypeTableRecord
  2
DOT2
 70
     0
  3
Dot (.5x) ........................................
 72
    65
 73
     2
 40
0.635
 49
0.0
 74
     0
 49
-0.635
 74
     0
  0
ENDTAB
  0
TABLE
  2
LAYER
  5
2
330
0
100
AcDbSymbolTable
 70
     3
  0
LAYER
  5
10
330
2
100
AcDbSymbolTableRecord
100
AcDbLayerTableRecord
  2
0
 70
     0
 62
     7
  6
Continuous
370
    -3
390
F
  0
LAYER
  5
73
330
2
100
AcDbSymbolTableRecord
100
AcDbLayerTableRecord
  2
FRAME_&_TABLE
 70
     0
 62
     8
  6
Continuous
370
    50
390
F
  0
LAYER
  5
74
330
2
100
AcDbSymbolTableRecord
100
AcDbLayerTableRecord
  2
DIMENSIONS
 70
     0
 62
     7
  6
Continuous
370
    -3
390
F
  0
ENDTAB
  0
TABLE
  2
STYLE
  5
3
330
0
100
AcDbSymbolTable
 70
     1
  0
STYLE
  5
11
330
3
100
AcDbSymbolTableRecord
100
AcDbTextStyleTableRecord
  2
Standard
 70
     0
 40
0.0
 41
1.0
 50
0.0
 71
     0
 42
3.8805555556
  3
txt
  4

  0
ENDTAB
  0
TABLE
  2
VIEW
  5
6
330
0
100
AcDbSymbolTable
 70
     0
  0
ENDTAB
  0
TABLE
  2
UCS
  5
7
330
0
100
AcDbSymbolTable
 70
     0
  0
ENDTAB
  0
TABLE
  2
APPID
  5
9
330
0
100
AcDbSymbolTable
 70
     1
  0
APPID
  5
12
330
9
100
AcDbSymbolTableRecord
100
AcDbRegAppTableRecord
  2
ACAD
 70
     0
  0
ENDTAB
  0
TABLE
  2
DIMSTYLE
  5
A
330
0
100
AcDbSymbolTable
 70
     1
100
AcDbDimStyleTable
  0
DIMSTYLE
105
27
330
A
100
AcDbSymbolTableRecord
100
AcDbDimStyleTableRecord
  2
ISO-25
 70
     0
 41
2.5
 42
0.625
 43
3.75
 44
1.25
 73
     0
 74
     0
 77
     1
 78
     8
140
2.5
141
2.5
143
0.0393700787
147
0.625
171
     3
172
     1
178
     0
271
     2
272
     2
274
     3
278
    44
283
     0
284
     8
340
11
  0
ENDTAB
  0
TABLE
  2
BLOCK_RECORD
  5
1
330
0
100
AcDbSymbolTable
 70
     1
  0
BLOCK_RECORD
  5
1F
330
1
100
AcDbSymbolTableRecord
100
AcDbBlockTableRecord
  2
*Model_Space
340
22
  0
BLOCK_RECORD
  5
1B
330
1
100
AcDbSymbolTableRecord
100
AcDbBlockTableRecord
  2
*Paper_Space
340
1E
  0
BLOCK_RECORD
  5
23
330
1
100
AcDbSymbolTableRecord
100
AcDbBlockTableRecord
  2
*Paper_Space0
340
26
  0
ENDTAB
  0
ENDSEC
  0
SECTION
  2
BLOCKS
  0
BLOCK
  5
20
330
1F
100
AcDbEntity
  8
0
100
AcDbBlockBegin
  2
*Model_Space
 70
     0
 10
0.0
 20
0.0
 30
0.0
  3
*Model_Space
  1

  0
ENDBLK
  5
21
330
1F
100
AcDbEntity
  8
0
100
AcDbBlockEnd
  0
BLOCK
  5
1C
330
1B
100
AcDbEntity
 67
     1
  8
0
100
AcDbBlockBegin
  2
*Paper_Space
 70
     0
 10
0.0
 20
0.0
 30
0.0
  3
*Paper_Space
  1

  0
ENDBLK
  5
1D
330
1B
100
AcDbEntity
 67
     1
  8
0
100
AcDbBlockEnd
  0
BLOCK
  5
24
330
23
100
AcDbEntity
  8
0
100
AcDbBlockBegin
  2
*Paper_Space0
 70
     0
 10
0.0
 20
0.0
 30
0.0
  3
*Paper_Space0
  1

  0
ENDBLK
  5
25
330
23
100
AcDbEntity
  8
0
100
AcDbBlockEnd
  0
ENDSEC
  0
SECTION
  2
ENTITIES
  0
LWPOLYLINE
  5
75
330
1F
100
AcDbEntity
  8
0
  6
Continuous
 62
     7
370
    25
100
AcDbPolyline
 90
        3
 70
   128
 43
0.0
 10
-10.7196658883
 20
185.2136021637
 10
-10.8950205846
 20
185.2539847794
 10
-11.4802915507
 20
185.3116289382
  0
LINE
  5
76
330
1F
100
AcDbEntity
  8
0
  6
Continuous
 62
     7
370
    25
100
AcDbLine
 10
-158.2974414636
 20
182.3116289382
 30
0.0
 11
-158.2974414636
 21
173.3116289382
 31
0.0
  0
ARC
  5
77
330
1F
100
AcDbEntity
  8
0
  6
Continuous
 62
     7
370
    25
100
AcDbCircle
 10
-155.2974414636
 20
173.3116289382
 30
0.0
 40
3.0
100
AcDbArc
 50
180.0
 51
270.0
  0
ARC
  5
78
330
1F
100
AcDbEntity
  8
0
  6
Continuous
 62
     7
370
    25
100
AcDbCircle
 10
-155.2974414636
 20
182.3116289382
 30
0.0
 40
3.0
100
AcDbArc
 50
90.0
 51
180.0
  0
ARC
  5
79
330
1F
100
AcDbEntity
  8
0
  6
Continuous
 62
     7
370
    25
100
AcDbCircle
 10
39.7958036366
 20
173.3116289382
 30
0.0
 40
3.0
100
AcDbArc
 50
180.0
 51
270.0
  0
LINE
  5
7A
330
1F
100
AcDbEntity
  8
0
  6
Continuous
 62
     7
370
    25
100
AcDbLine
 10
36.7958036366
 20
182.3116289382
 30
0.0
 11
36.7958036366
 21
173.3116289382
 31
0.0
  0
ARC
  5
7B
330
1F
100
AcDbEntity
  8
0
  6
Continuous
 62
     7
370
    25
100
AcDbCircle
 10
39.7958036366
 20
182.3116289382
 30
0.0
 40
3.0
100
AcDbArc
 50
90.0
 51
180.0
  0
ARC
  5
7C
330
1F
100
AcDbEntity
  8
0
  6
Continuous
 62
     7
370
    25
100
AcDbCircle
 10
530.1366747956
 20
173.3116289382
 30
0.0
 40
3.0
100
AcDbArc
 50
270.0
 51
0.0
  0
ARC
  5
7D
330
1F
100
AcDbEntity
  8
0
  6
Continuous
 62
     7
370
    25
100
AcDbCircle
 10
530.1366747956
 20
182.3116289382
 30
0.0
 40
3.0
100
AcDbArc
 50
0.0
 51
90.0
  0
LINE
  5
7E
330
1F
100
AcDbEntity
  8
0
  6
Continuous
 62
     7
370
    25
100
AcDbLine
 10
533.1366747956
 20
173.3116289382
 30
0.0
 11
533.1366747956
 21
182.3116289382
 31
0.0
  0
ARC
  5
7F
330
1F
100
AcDbEntity
  8
0
  6
Continuous
 62
     7
370
    25
100
AcDbCircle
 10
441.9078392049
 20
197.3116289382
 30
0.0
 40
3.000000000000028
100
AcDbArc
 50
0.0
 51
90.0
  0
ARC
  5
80
330
1F
100
AcDbEntity
  8
0
  6
Continuous
 62
     7
370
    25
100
AcDbCircle
 10
441.9078392049
 20
188.3116289382
 30
0.0
 40
3.0
100
AcDbArc
 50
270.0
 51
0.0
  0
LINE
  5
81
330
1F
100
AcDbEntity
  8
0
  6
Continuous
 62
     7
370
    25
100
AcDbLine
 10
444.9078392049
 20
188.3116289382
 30
0.0
 11
444.9078392049
 21
197.3116289382
 31
0.0
  0
LINE
  5
82
330
1F
100
AcDbEntity
  8
0
  6
Continuous
 62
     7
370
    25
100
AcDbLine
 10
559.4124838894
 20
188.3116289382
 30
0.0
 11
559.4124838894
 21
197.3116289382
 31
0.0
  0
ARC
  5
83
330
1F
100
AcDbEntity
  8
0
  6
Continuous
 62
     7
370
    25
100
AcDbCircle
 10
556.4124838894
 20
188.3116289382
 30
0.0
 40
3.000000000000114
100
AcDbArc
 50
270.0
 51
0.0
  0
ARC
  5
84
330
1F
100
AcDbEntity
  8
0
  6
Continuous
 62
     7
370
    25
100
AcDbCircle
 10
556.4124838894
 20
197.3116289382
 30
0.0
 40
3.000000000000114
100
AcDbArc
 50
0.0
 51
90.0
  0
ARC
  5
85
330
1F
100
AcDbEntity
  8
0
  6
Continuous
 62
     7
370
    25
100
AcDbCircle
 10
39.7958036366
 20
152.3116289382
 30
0.0
 40
3.0
100
AcDbArc
 50
90.0
 51
180.0
  0
ARC
  5
86
330
1F
100
AcDbEntity
  8
0
  6
Continuous
 62
     7
370
    25
100
AcDbCircle
 10
39.7958036366
 20
143.3116289382
 30
0.0
 40
3.0
100
AcDbArc
 50
180.0
 51
270.0
  0
LINE
  5
87
330
1F
100
AcDbEntity
  8
0
  6
Continuous
 62
     7
370
    25
100
AcDbLine
 10
36.7958036366
 20
152.3116289382
 30
0.0
 11
36.7958036366
 21
143.3116289382
 31
0.0
  0
LINE
  5
88
330
1F
100
AcDbEntity
  8
0
  6
Continuous
 62
     7
370
    25
100
AcDbLine
 10
533.1366747956
 20
143.3116289382
 30
0.0
 11
533.1366747956
 21
152.3116289382
 31
0.0
  0
ARC
  5
89
330
1F
100
AcDbEntity
  8
0
  6
Continuous
 62
     7
370
    25
100
AcDbCircle
 10
530.1366747956
 20
143.3116289382
 30
0.0
 40
2.999999999999972
100
AcDbArc
 50
270.0
 51
0.0
  0
ARC
  5
8A
330
1F
100
AcDbEntity
  8
0
  6
Continuous
 62
     7
370
    25
100
AcDbCircle
 10
530.1366747956
 20
152.3116289382
 30
0.0
 40
3.0
100
AcDbArc
 50
0.0
 51
90.0
  0
LINE
  5
8B
330
1F
100
AcDbEntity
  8
0
  6
Continuous
 62
     7
370
    25
100
AcDbLine
 10
444.9078392049
 20
128.3116289382
 30
0.0
 11
444.9078392049
 21
137.3116289382
 31
0.0
  0
ARC
  5
8C
330
1F
100
AcDbEntity
  8
0
  6
Continuous
 62
     7
370
    25
100
AcDbCircle
 10
441.9078392049
 20
137.3116289382
 30
0.0
 40
3.0
100
AcDbArc
 50
0.0
 51
90.0
  0
ARC
  5
8D
330
1F
100
AcDbEntity
  8
0
  6
Continuous
 62
     7
370
    25
100
AcDbCircle
 10
441.9078392049
 20
128.3116289382
 30
0.0
 40
3.0
100
AcDbArc
 50
270.0
 51
0.0
  0
LINE
  5
8E
330
1F
100
AcDbEntity
  8
0
  6
Continuous
 62
     7
370
    25
100
AcDbLine
 10
559.4124838894
 20
128.3116289382
 30
0.0
 11
559.4124838894
 21
137.3116289382
 31
0.0
  0
ARC
  5
8F
330
1F
100
AcDbEntity
  8
0
  6
Continuous
 62
     7
370
    25
100
AcDbCircle
 10
556.4124838894
 20
137.3116289382
 30
0.0
 40
3.000000000000114
100
AcDbArc
 50
0.0
 51
90.0
  0
ARC
  5
90
330
1F
100
AcDbEntity
  8
0
  6
Continuous
 62
     7
370
    25
100
AcDbCircle
 10
556.4124838894
 20
128.3116289382
 30
0.0
 40
3.000000000000114
100
AcDbArc
 50
270.0
 51
0.0
  0
ARC
  5
91
330
1F
100
AcDbEntity
  8
0
  6
Continuous
 62
     7
370
    25
100
AcDbCircle
 10
530.1366747956
 20
158.3116289382
 30
0.0
 40
3.000000000000114
100
AcDbArc
 50
270.0
 51
0.0
  0
LINE
  5
92
330
1F
100
AcDbEntity
  8
0
  6
Continuous
 62
     7
370
    25
100
AcDbLine
 10
533.1366747956
 20
158.3116289382
 30
0.0
 11
533.1366747956
 21
167.3116289382
 31
0.0
  0
ARC
  5
93
330
1F
100
AcDbEntity
  8
0
  6
Continuous
 62
     7
370
    25
100
AcDbCircle
 10
530.1366747956
 20
167.3116289382
 30
0.0
 40
3.000000000000114
100
AcDbArc
 50
0.0
 51
90.0
  0
LINE
  5
94
330
1F
100
AcDbEntity
  8
0
  6
Continuous
 62
     7
370
    25
100
AcDbLine
 10
539.7010732914
 20
167.3116289382
 30
0.0
 11
539.7010732914
 21
170.3116289382
 31
0.0
  0
LINE
  5
95
330
1F
100
AcDbEntity
  8
0
  6
Continuous
 62
     7
370
    25
100
AcDbLine
 10
539.7010732914
 20
155.3116289382
 30
0.0
 11
539.7010732914
 21
158.3116289382
 31
0.0
  0
LINE
  5
96
330
1F
100
AcDbEntity
  8
0
  6
Continuous
 62
     7
370
    25
100
AcDbLine
 10
565.0607158456
 20
167.3116289382
 30
0.0
 11
565.0607158456
 21
170.3116289382
 31
0.0
  0
LINE
  5
97
330
1F
100
AcDbEntity
  8
0
  6
Continuous
 62
     7
370
    25
100
AcDbLine
 10
565.0607158456
 20
155.3116289382
 30
0.0
 11
565.0607158456
 21
158.3116289382
 31
0.0
  0
LINE
  5
98
330
1F
100
AcDbEntity
  8
0
  6
Continuous
 62
     7
370
    25
100
AcDbLine
 10
580.947162713
 20
158.3116289382
 30
0.0
 11
580.947162713
 21
167.3116289382
 31
0.0
  0
ARC
  5
99
330
1F
100
AcDbEntity
  8
0
  6
Continuous
 62
     7
370
    25
100
AcDbCircle
 10
577.947162713
 20
158.3116289382
 30
0.0
 40
3.0
100
AcDbArc
 50
270.0
 51
0.0
  0
ARC
  5
9A
330
1F
100
AcDbEntity
  8
0
  6
Continuous
 62
     7
370
    25
100
AcDbCircle
 10
577.947162713
 20
167.3116289382
 30
0.0
 40
3.000000000000037
100
AcDbArc
 50
1.1355844547
 51
90.0
  0
LWPOLYLINE
  5
9B
330
1F
100
AcDbEntity
  8
0
  6
Continuous
 62
     7
370
    25
100
AcDbPolyline
 90
        3
 70
   128
 43
0.0
 10
-11.4802915507
 20
140.3116289382
 10
-10.8950205846
 20
140.3692730969
 10
-10.7691752156
 20
140.3971283706
  0
LINE
  5
9C
330
1F
100
AcDbEntity
  8
0
  6
Continuous
 62
     7
370
    25
100
AcDbLine
 10
-158.2974414636
 20
152.3116289382
 30
0.0
 11
-158.2974414636
 21
143.3116289382
 31
0.0
  0
ARC
  5
9D
330
1F
100
AcDbEntity
  8
0
  6
Continuous
 62
     7
370
    25
100
AcDbCircle
 10
-155.2974414636
 20
152.3116289382
 30
0.0
 40
3.0
100
AcDbArc
 50
90.0
 51
180.0
  0
ARC
  5
9E
330
1F
100
AcDbEntity
  8
0
  6
Continuous
 62
     7
370
    25
100
AcDbCircle
 10
-155.2974414636
 20
143.3116289382
 30
0.0
 40
3.0
100
AcDbArc
 50
180.0
 51
270.0
  0
LINE
  5
9F
330
1F
100
AcDbEntity
  8
0
  6
Continuous
 62
     7
370
    25
100
AcDbLine
 10
-86.0071620461
 20
167.3116289382
 30
0.0
 11
-86.0071620461
 21
158.3116289382
 31
0.0
  0
LINE
  5
A0
330
1F
100
AcDbEntity
  8
0
  6
Continuous
 62
     7
370
    25
100
AcDbLine
 10
-28.0392698733
 20
158.3116289382
 30
0.0
 11
-28.0392698733
 21
167.3116289382
 31
0.0
  0
ARC
  5
A1
330
1F
100
AcDbEntity
  8
0
  6
Continuous
 62
     7
370
    25
100
AcDbCircle
 10
-31.0392698733
 20
158.3116289382
 30
0.0
 40
3.000000000000004
100
AcDbArc
 50
270.0
 51
0.0
  0
ARC
  5
A2
330
1F
100
AcDbEntity
  8
0
  6
Continuous
 62
     7
370
    25
100
AcDbCircle
 10
-83.0071620461
 20
158.3116289382
 30
0.0
 40
3.000000000000014
100
AcDbArc
 50
180.0
 51
270.0
  0
ARC
  5
A3
330
1F
100
AcDbEntity
  8
0
  6
Continuous
 62
     7
370
    25
100
AcDbCircle
 10
-31.0392698733
 20
167.3116289382
 30
0.0
 40
3.000000000000004
100
AcDbArc
 50
0.0
 51
90.0
  0
ARC
  5
A4
330
1F
100
AcDbEntity
  8
0
  6
Continuous
 62
     7
370
    25
100
AcDbCircle
 10
-83.0071620461
 20
167.3116289382
 30
0.0
 40
3.000000000000014
100
AcDbArc
 50
90.0
 51
180.0
  0
ARC
  5
A5
330
1F
100
AcDbEntity
  8
0
  6
Continuous
 62
     7
370
    25
100
AcDbCircle
 10
-134.5399001506
 20
158.3116289382
 30
0.0
 40
3.0
100
AcDbArc
 50
180.0
 51
270.0
  0
ARC
  5
A6
330
1F
100
AcDbEntity
  8
0
  6
Continuous
 62
     7
370
    25
100
AcDbCircle
 10
-134.5399001506
 20
167.3116289382
 30
0.0
 40
3.0
100
AcDbArc
 50
90.0
 51
180.0
  0
LINE
  5
A7
330
1F
100
AcDbEntity
  8
0
  6
Continuous
 62
     7
370
    25
100
AcDbLine
 10
-137.5399001506
 20
167.3116289382
 30
0.0
 11
-137.5399001506
 21
158.3116289382
 31
0.0
  0
ARC
  5
A8
330
1F
100
AcDbEntity
  8
0
  6
Continuous
 62
     7
370
    25
100
AcDbCircle
 10
-169.4250623629
 20
158.3116289382
 30
0.0
 40
3.0
100
AcDbArc
 50
180.0
 51
270.0
  0
ARC
  5
A9
330
1F
100
AcDbEntity
  8
0
  6
Continuous
 62
     7
370
    25
100
AcDbCircle
 10
-169.4250623629
 20
167.3116289382
 30
0.0
 40
3.0
100
AcDbArc
 50
90.0
 51
180.0
  0
LINE
  5
AA
330
1F
100
AcDbEntity
  8
0
  6
Continuous
 62
     7
370
    25
100
AcDbLine
 10
-172.4250623629
 20
167.3116289382
 30
0.0
 11
-172.4250623629
 21
158.3116289382
 31
0.0
  0
ARC
  5
AB
330
1F
100
AcDbEntity
  8
0
  6
Continuous
 62
     7
370
    25
100
AcDbCircle
 10
-26.9066933444
 20
158.3116289382
 30
0.0
 40
3.000000000000004
100
AcDbArc
 50
270.0
 51
0.0
  0
ARC
  5
AC
330
1F
100
AcDbEntity
  8
0
  6
Continuous
 62
     7
370
    25
100
AcDbCircle
 10
-26.9066933444
 20
167.3116289382
 30
0.0
 40
3.000000000000004
100
AcDbArc
 50
0.0
 51
90.0
  0
ARC
  5
AD
330
1F
100
AcDbEntity
  8
0
  6
Continuous
 62
     7
370
    25
100
AcDbCircle
 10
43.608170606
 20
190.3116289382
 30
0.0
 40
19.87230769230769
100
AcDbArc
 50
0.0
 51
46.9233678463
  0
ARC
  5
AE
330
1F
100
AcDbEntity
  8
0
  6
Continuous
 62
     7
370
    25
100
AcDbCircle
 10
43.3527859906
 20
190.3116289382
 30
0.0
 40
19.8723076923077
100
AcDbArc
 50
133.0766321537
 51
180.0
  0
LINE
  5
AF
330
1F
100
AcDbEntity
  8
0
  6
Continuous
 62
     7
370
    25
100
AcDbLine
 10
63.4804782983
 20
188.3116289382
 30
0.0
 11
63.4804782983
 21
190.3116289382
 31
0.0
  0
LINE
  5
B0
330
1F
100
AcDbEntity
  8
0
  6
Continuous
 62
     7
370
    25
100
AcDbLine
 10
23.4804782983
 20
190.3116289382
 30
0.0
 11
23.4804782983
 21
188.3116289382
 31
0.0
  0
ARC
  5
B1
330
1F
100
AcDbEntity
  8
0
  6
Continuous
 62
     7
370
    25
100
AcDbCircle
 10
43.3527859906
 20
135.3116289382
 30
0.0
 40
19.87230769230769
100
AcDbArc
 50
180.0
 51
226.9233678463
  0
ARC
  5
B2
330
1F
100
AcDbEntity
  8
0
  6
Continuous
 62
     7
370
    25
100
AcDbCircle
 10
43.608170606
 20
135.3116289382
 30
0.0
 40
19.87230769230771
100
AcDbArc
 50
313.0766321537
 51
0.0
  0
LINE
  5
B3
330
1F
100
AcDbEntity
  8
0
  6
Continuous
 62
     7
370
    25
100
AcDbLine
 10
23.4804782983
 20
137.3116289382
 30
0.0
 11
23.4804782983
 21
135.3116289382
 31
0.0
  0
LINE
  5
B4
330
1F
100
AcDbEntity
  8
0
  6
Continuous
 62
     7
370
    25
100
AcDbLine
 10
63.4804782983
 20
135.3116289382
 30
0.0
 11
63.4804782983
 21
137.3116289382
 31
0.0
  0
LINE
  5
B5
330
1F
100
AcDbEntity
  8
0
  6
Continuous
 62
     7
370
    25
100
AcDbLine
 10
29.7804782983
 20
120.7960828953
 30
0.0
 11
29.7804782983
 21
120.1812376198
 31
0.0
  0
LINE
  5
B6
330
1F
100
AcDbEntity
  8
0
  6
Continuous
 62
     7
370
    25
100
AcDbLine
 10
57.1804782983
 20
120.1812376198
 30
0.0
 11
57.1804782983
 21
120.7960828953
 31
0.0
  0
ARC
  5
B7
330
1F
100
AcDbEntity
  8
0
  6
Continuous
 62
     7
370
    25
100
AcDbCircle
 10
30.3804782983
 20
120.1812376198
 30
0.0
 40
0.6000000000000156
100
AcDbArc
 50
180.0
 51
243.6246146768
  0
ARC
  5
B8
330
1F
100
AcDbEntity
  8
0
  6
Continuous
 62
     7
370
    25
100
AcDbCircle
 10
56.5804782983
 20
120.1812376198
 30
0.0
 40
0.6000000000000121
100
AcDbArc
 50
296.3753853232
 51
0.0
  0
ARC
  5
B9
330
1F
100
AcDbEntity
  8
0
  6
Continuous
 62
     7
370
    25
100
AcDbCircle
 10
43.4804782983
 20
146.599507726
 30
0.0
 40
30.0878787878788
100
AcDbArc
 50
243.6246146768
 51
296.3753853232
  0
ARC
  5
BA
330
1F
100
AcDbEntity
  8
0
  6
Continuous
 62
     7
370
    25
100
AcDbCircle
 10
56.5804782983
 20
205.4420202566
 30
0.0
 40
0.5999999999999943
100
AcDbArc
 50
0.0
 51
63.6246146768
  0
ARC
  5
BB
330
1F
100
AcDbEntity
  8
0
  6
Continuous
 62
     7
370
    25
100
AcDbCircle
 10
30.3804782983
 20
205.4420202566
 30
0.0
 40
0.6000000000000156
100
AcDbArc
 50
116.3753853232
 51
180.0
  0
LINE
  5
BC
330
1F
100
AcDbEntity
  8
0
  6
Continuous
 62
     7
370
    25
100
AcDbLine
 10
57.1804782983
 20
204.827174981
 30
0.0
 11
57.1804782983
 21
205.4420202566
 31
0.0
  0
LINE
  5
BD
330
1F
100
AcDbEntity
  8
0
  6
Continuous
 62
     7
370
    25
100
AcDbLine
 10
29.7804782983
 20
205.4420202566
 30
0.0
 11
29.7804782983
 21
204.827174981
 31
0.0
  0
ARC
  5
BE
330
1F
100
AcDbEntity
  8
0
  6
Continuous
 62
     7
370
    25
100
AcDbCircle
 10
43.4804782983
 20
179.0237501503
 30
0.0
 40
30.0878787878788
100
AcDbArc
 50
63.6246146768
 51
116.3753853232
  0
LINE
  5
BF
330
1F
100
AcDbEntity
  8
0
  6
Continuous
 62
     7
370
    25
100
AcDbLine
 10
171.3203258685
 20
262.39793955
 30
0.0
 11
171.107664497
 21
262.4132127679
 31
0.0
  0
ARC
  5
C0
330
1F
100
AcDbEntity
  8
0
  6
Continuous
 62
     7
370
    25
100
AcDbCircle
 10
163.4014022554
 20
162.9535379289
 30
0.0
 40
99.77924780665862
100
AcDbArc
 50
90.2467980482
 51
165.277253332
  0
ARC
  5
C1
330
1F
100
AcDbEntity
  8
0
  6
Continuous
 62
     7
370
    25
100
AcDbCircle
 10
163.4027549846
 20
162.6971557059
 30
0.0
 40
99.80590739594834
100
AcDbArc
 50
194.7350102321
 51
292.5544692345
  0
LINE
  5
C2
330
1F
100
AcDbEntity
  8
0
  6
Continuous
 62
     7
370
    25
100
AcDbLine
 10
-81.0232159597
 20
155.3116289382
 30
0.0
 11
-81.0232159597
 21
152.3116289382
 31
0.0
  0
LINE
  5
C3
330
1F
100
AcDbEntity
  8
0
  6
Continuous
 62
     7
370
    25
100
AcDbLine
 10
-33.0232159597
 20
152.3116289382
 30
0.0
 11
-33.0232159597
 21
155.3116289382
 31
0.0
  0
ARC
  5
C4
330
1F
100
AcDbEntity
  8
0
  6
Continuous
 62
     7
370
    25
100
AcDbCircle
 10
-78.0232159597
 20
152.3116289382
 30
0.0
 40
3.0
100
AcDbArc
 50
180.0
 51
270.0
  0
ARC
  5
C5
330
1F
100
AcDbEntity
  8
0
  6
Continuous
 62
     7
370
    25
100
AcDbCircle
 10
-36.0232159597
 20
152.3116289382
 30
0.0
 40
3.0
100
AcDbArc
 50
270.0
 51
0.0
  0
ARC
  5
C6
330
1F
100
AcDbEntity
  8
0
  6
Continuous
 62
     7
370
    25
100
AcDbCircle
 10
-77.0232159597
 20
146.3116289382
 30
0.0
 40
3.0
100
AcDbArc
 50
0.0
 51
90.0
  0
ARC
  5
C7
330
1F
100
AcDbEntity
  8
0
  6
Continuous
 62
     7
370
    25
100
AcDbCircle
 10
-37.0232159597
 20
146.3116289382
 30
0.0
 40
3.000000000000007
100
AcDbArc
 50
90.0
 51
180.0
  0
LINE
  5
C8
330
1F
100
AcDbEntity
  8
0
  6
Continuous
 62
     7
370
    25
100
AcDbLine
 10
-74.0232159597
 20
146.3116289382
 30
0.0
 11
-74.0232159597
 21
66.3116289382
 31
0.0
  0
LINE
  5
C9
330
1F
100
AcDbEntity
  8
0
  6
Continuous
 62
     7
370
    25
100
AcDbLine
 10
-40.0232159597
 20
66.3116289382
 30
0.0
 11
-40.0232159597
 21
146.3116289382
 31
0.0
  0
ARC
  5
CA
330
1F
100
AcDbEntity
  8
0
  6
Continuous
 62
     7
370
    25
100
AcDbCircle
 10
-73.0232159597
 20
66.3116289382
 30
0.0
 40
1.0
100
AcDbArc
 50
180.0
 51
270.0
  0
ARC
  5
CB
330
1F
100
AcDbEntity
  8
0
  6
Continuous
 62
     7
370
    25
100
AcDbCircle
 10
-41.0232159597
 20
66.3116289382
 30
0.0
 40
1.0
100
AcDbArc
 50
270.0
 51
0.0
  0
ARC
  5
CC
330
1F
100
AcDbEntity
  8
0
  6
Continuous
 62
     7
370
    25
100
AcDbCircle
 10
-107.404651635
 20
188.3116289382
 30
0.0
 40
3.0
100
AcDbArc
 50
0.0
 51
90.0
  0
ARC
  5
CD
330
1F
100
AcDbEntity
  8
0
  6
Continuous
 62
     7
370
    25
100
AcDbCircle
 10
-149.404651635
 20
188.3116289382
 30
0.0
 40
3.0
100
AcDbArc
 50
90.0
 51
180.0
  0
LINE
  5
CE
330
1F
100
AcDbEntity
  8
0
  6
Continuous
 62
     7
370
    25
100
AcDbLine
 10
-104.404651635
 20
185.3116289382
 30
0.0
 11
-104.404651635
 21
188.3116289382
 31
0.0
  0
LINE
  5
CF
330
1F
100
AcDbEntity
  8
0
  6
Continuous
 62
     7
370
    25
100
AcDbLine
 10
-152.404651635
 20
188.3116289382
 30
0.0
 11
-152.404651635
 21
185.3116289382
 31
0.0
  0
ARC
  5
D0
330
1F
100
AcDbEntity
  8
0
  6
Continuous
 62
     7
370
    25
100
AcDbCircle
 10
-108.404651635
 20
194.3116289382
 30
0.0
 40
3.0
100
AcDbArc
 50
180.0
 51
270.0
  0
ARC
  5
D1
330
1F
100
AcDbEntity
  8
0
  6
Continuous
 62
     7
370
    25
100
AcDbCircle
 10
-148.404651635
 20
194.3116289382
 30
0.0
 40
3.0
100
AcDbArc
 50
270.0
 51
0.0
  0
LINE
  5
D2
330
1F
100
AcDbEntity
  8
0
  6
Continuous
 62
     7
370
    25
100
AcDbLine
 10
-111.404651635
 20
194.3116289382
 30
0.0
 11
-111.404651635
 21
274.3116289382
 31
0.0
  0
LINE
  5
D3
330
1F
100
AcDbEntity
  8
0
  6
Continuous
 62
     7
370
    25
100
AcDbLine
 10
-145.404651635
 20
274.3116289382
 30
0.0
 11
-145.404651635
 21
194.3116289382
 31
0.0
  0
ARC
  5
D4
330
1F
100
AcDbEntity
  8
0
  6
Continuous
 62
     7
370
    25
100
AcDbCircle
 10
-112.404651635
 20
274.3116289382
 30
0.0
 40
1.0
100
AcDbArc
 50
0.0
 51
90.0
  0
ARC
  5
D5
330
1F
100
AcDbEntity
  8
0
  6
Continuous
 62
     7
370
    25
100
AcDbCircle
 10
-144.404651635
 20
274.3116289382
 30
0.0
 40
1.0
100
AcDbArc
 50
90.0
 51
180.0
  0
LINE
  5
D6
330
1F
100
AcDbEntity
  8
0
  6
Continuous
 62
     7
370
    25
100
AcDbLine
 10
-152.404651635
 20
140.3116289382
 30
0.0
 11
-152.404651635
 21
137.3116289382
 31
0.0
  0
LINE
  5
D7
330
1F
100
AcDbEntity
  8
0
  6
Continuous
 62
     7
370
    25
100
AcDbLine
 10
-104.404651635
 20
137.3116289382
 30
0.0
 11
-104.404651635
 21
140.3116289382
 31
0.0
  0
ARC
  5
D8
330
1F
100
AcDbEntity
  8
0
  6
Continuous
 62
     7
370
    25
100
AcDbCircle
 10
-149.404651635
 20
137.3116289382
 30
0.0
 40
3.000000000000028
100
AcDbArc
 50
180.0
 51
270.0
  0
ARC
  5
D9
330
1F
100
AcDbEntity
  8
0
  6
Continuous
 62
     7
370
    25
100
AcDbCircle
 10
-107.404651635
 20
137.3116289382
 30
0.0
 40
3.0
100
AcDbArc
 50
270.0
 51
0.0
  0
ARC
  5
DA
330
1F
100
AcDbEntity
  8
0
  6
Continuous
 62
     7
370
    25
100
AcDbCircle
 10
-148.404651635
 20
131.3116289382
 30
0.0
 40
3.0
100
AcDbArc
 50
0.0
 51
90.0
  0
ARC
  5
DB
330
1F
100
AcDbEntity
  8
0
  6
Continuous
 62
     7
370
    25
100
AcDbCircle
 10
-108.404651635
 20
131.3116289382
 30
0.0
 40
3.000000000000014
100
AcDbArc
 50
90.0
 51
180.0
  0
ARC
  5
DC
330
1F
100
AcDbEntity
  8
0
  6
Continuous
 62
     7
370
    25
100
AcDbCircle
 10
-144.404651635
 20
51.3116289382
 30
0.0
 40
1.000000000000007
100
AcDbArc
 50
180.0
 51
270.0
  0
ARC
  5
DD
330
1F
100
AcDbEntity
  8
0
  6
Continuous
 62
     7
370
    25
100
AcDbCircle
 10
-112.404651635
 20
51.3116289382
 30
0.0
 40
1.000000000000007
100
AcDbArc
 50
270.0
 51
0.0
  0
LINE
  5
DE
330
1F
100
AcDbEntity
  8
0
  6
Continuous
 62
     7
370
    25
100
AcDbLine
 10
-145.404651635
 20
131.3116289382
 30
0.0
 11
-145.404651635
 21
51.3116289382
 31
0.0
  0
LINE
  5
DF
330
1F
100
AcDbEntity
  8
0
  6
Continuous
 62
     7
370
    25
100
AcDbLine
 10
-111.404651635
 20
51.3116289382
 30
0.0
 11
-111.404651635
 21
131.3116289382
 31
0.0
  0
LINE
  5
E0
330
1F
100
AcDbEntity
  8
0
  6
Continuous
 62
     7
370
    25
100
AcDbLine
 10
-33.0232159597
 20
170.3116289382
 30
0.0
 11
-33.0232159597
 21
173.3116289382
 31
0.0
  0
LINE
  5
E1
330
1F
100
AcDbEntity
  8
0
  6
Continuous
 62
     7
370
    25
100
AcDbLine
 10
-81.0232159597
 20
173.3116289382
 30
0.0
 11
-81.0232159597
 21
170.3116289382
 31
0.0
  0
ARC
  5
E2
330
1F
100
AcDbEntity
  8
0
  6
Continuous
 62
     7
370
    25
100
AcDbCircle
 10
-36.0232159597
 20
173.3116289382
 30
0.0
 40
3.0
100
AcDbArc
 50
0.0
 51
90.0
  0
ARC
  5
E3
330
1F
100
AcDbEntity
  8
0
  6
Continuous
 62
     7
370
    25
100
AcDbCircle
 10
-78.0232159597
 20
173.3116289382
 30
0.0
 40
3.0
100
AcDbArc
 50
90.0
 51
180.0
  0
ARC
  5
E4
330
1F
100
AcDbEntity
  8
0
  6
Continuous
 62
     7
370
    25
100
AcDbCircle
 10
-37.0232159597
 20
179.3116289382
 30
0.0
 40
3.0
100
AcDbArc
 50
180.0
 51
270.0
  0
ARC
  5
E5
330
1F
100
AcDbEntity
  8
0
  6
Continuous
 62
     7
370
    25
100
AcDbCircle
 10
-77.0232159597
 20
179.3116289382
 30
0.0
 40
3.0
100
AcDbArc
 50
270.0
 51
0.0
  0
ARC
  5
E6
330
1F
100
AcDbEntity
  8
0
  6
Continuous
 62
     7
370
    25
100
AcDbCircle
 10
-41.0232159597
 20
259.3116289382
 30
0.0
 40
1.000000000000007
100
AcDbArc
 50
0.0
 51
90.0
  0
ARC
  5
E7
330
1F
100
AcDbEntity
  8
0
  6
Continuous
 62
     7
370
    25
100
AcDbCircle
 10
-73.0232159597
 20
259.3116289382
 30
0.0
 40
1.000000000000014
100
AcDbArc
 50
90.0
 51
180.0
  0
LINE
  5
E8
330
1F
100
AcDbEntity
  8
0
  6
Continuous
 62
     7
370
    25
100
AcDbLine
 10
-40.0232159597
 20
179.3116289382
 30
0.0
 11
-40.0232159597
 21
259.3116289382
 31
0.0
  0
LINE
  5
E9
330
1F
100
AcDbEntity
  8
0
  6
Continuous
 62
     7
370
    25
100
AcDbLine
 10
-74.0232159597
 20
259.3116289382
 30
0.0
 11
-74.0232159597
 21
179.3116289382
 31
0.0
  0
LINE
  5
EA
330
1F
100
AcDbEntity
  8
0
  6
Continuous
 62
     7
370
    25
100
AcDbLine
 10
-82.0232159597
 20
51.9314296158
 30
0.0
 11
-82.0232159597
 21
49.1513301142
 31
0.0
  0
LINE
  5
EB
330
1F
100
AcDbEntity
  8
0
  6
Continuous
 62
     7
370
    25
100
AcDbLine
 10
-32.0232159597
 20
49.1513301142
 30
0.0
 11
-32.0232159597
 21
51.9314296158
 31
0.0
  0
ARC
  5
EC
330
1F
100
AcDbEntity
  8
0
  6
Continuous
 62
     7
370
    25
100
AcDbCircle
 10
-33.0232159597
 20
49.1513301142
 30
0.0
 40
1.000000000000009
100
AcDbArc
 50
279.5630855191
 51
0.0
  0
ARC
  5
ED
330
1F
100
AcDbEntity
  8
0
  6
Continuous
 62
     7
370
    25
100
AcDbCircle
 10
-81.0232159597
 20
49.1513301142
 30
0.0
 40
1.000000000000004
100
AcDbArc
 50
180.0
 51
260.4369144809
  0
ARC
  5
EE
330
1F
100
AcDbEntity
  8
0
  6
Continuous
 62
     7
370
    25
100
AcDbCircle
 10
-33.0232159597
 20
51.9314296158
 30
0.0
 40
1.00000000000001
100
AcDbArc
 50
0.0
 51
41.6335393366
  0
ARC
  5
EF
330
1F
100
AcDbEntity
  8
0
  6
Continuous
 62
     7
370
    25
100
AcDbCircle
 10
-81.0232159597
 20
51.9314296158
 30
0.0
 40
1.00000000000001
100
AcDbArc
 50
138.3664606634
 51
180.0
  0
LINE
  5
F0
330
1F
100
AcDbEntity
  8
0
  6
Continuous
 62
     7
370
    25
100
AcDbLine
 10
-32.275806641
 20
52.5957934546
 30
0.0
 11
-39.7706252784
 21
61.0274644217
 31
0.0
  0
LINE
  5
F1
330
1F
100
AcDbEntity
  8
0
  6
Continuous
 62
     7
370
    25
100
AcDbLine
 10
-74.275806641
 20
61.0274644217
 30
0.0
 11
-81.7706252784
 21
52.5957934546
 31
0.0
  0
ARC
  5
F2
330
1F
100
AcDbEntity
  8
0
  6
Continuous
 62
     7
370
    25
100
AcDbCircle
 10
-70.984555062
 20
108.7368988135
 30
0.0
 40
61.42528204188939
100
AcDbArc
 50
260.4369144809
 51
269.963938197
  0
ARC
  5
F3
330
1F
100
AcDbEntity
  8
0
  6
Continuous
 62
     7
370
    25
100
AcDbCircle
 10
-43.0618768575
 20
108.7368988135
 30
0.0
 40
61.4252820418894
100
AcDbArc
 50
270.036061803
 51
279.5630855191
  0
ARC
  5
F4
330
1F
100
AcDbEntity
  8
0
  6
Continuous
 62
     7
370
    25
100
AcDbCircle
 10
-75.0232159597
 20
61.6918282605
 30
0.0
 40
1.0
100
AcDbArc
 50
318.3664606634
 51
0.0
  0
ARC
  5
F5
330
1F
100
AcDbEntity
  8
0
  6
Continuous
 62
     7
370
    25
100
AcDbCircle
 10
-39.0232159597
 20
61.6918282605
 30
0.0
 40
1.0
100
AcDbArc
 50
180.0
 51
221.6335393366
  0
ARC
  5
F6
330
1F
100
AcDbEntity
  8
0
  6
Continuous
 62
     7
370
    25
100
AcDbCircle
 10
-73.0232159597
 20
64.3116289382
 30
0.0
 40
1.0
100
AcDbArc
 50
90.0
 51
180.0
  0
ARC
  5
F7
330
1F
100
AcDbEntity
  8
0
  6
Continuous
 62
     7
370
    25
100
AcDbCircle
 10
-41.0232159597
 20
64.3116289382
 30
0.0
 40
1.0
100
AcDbArc
 50
0.0
 51
90.0
  0
LINE
  5
F8
330
1F
100
AcDbEntity
  8
0
  6
Continuous
 62
     7
370
    25
100
AcDbLine
 10
-74.0232159597
 20
64.3116289382
 30
0.0
 11
-74.0232159597
 21
61.6918282605
 31
0.0
  0
LINE
  5
F9
330
1F
100
AcDbEntity
  8
0
  6
Continuous
 62
     7
370
    25
100
AcDbLine
 10
-40.0232159597
 20
61.6918282605
 30
0.0
 11
-40.0232159597
 21
64.3116289382
 31
0.0
  0
ARC
  5
FA
330
1F
100
AcDbEntity
  8
0
  6
Continuous
 62
     7
370
    25
100
AcDbCircle
 10
-152.404651635
 20
291.4719277621
 30
0.0
 40
1.000000000000048
100
AcDbArc
 50
99.5630855191
 51
180.0
  0
ARC
  5
FB
330
1F
100
AcDbEntity
  8
0
  6
Continuous
 62
     7
370
    25
100
AcDbCircle
 10
-104.404651635
 20
291.4719277621
 30
0.0
 40
1.000000000000046
100
AcDbArc
 50
0.0
 51
80.4369144809
  0
LINE
  5
FC
330
1F
100
AcDbEntity
  8
0
  6
Continuous
 62
     7
370
    25
100
AcDbLine
 10
-103.404651635
 20
288.6918282605
 30
0.0
 11
-103.404651635
 21
291.4719277621
 31
0.0
  0
LINE
  5
FD
330
1F
100
AcDbEntity
  8
0
  6
Continuous
 62
     7
370
    25
100
AcDbLine
 10
-153.404651635
 20
291.4719277621
 30
0.0
 11
-153.404651635
 21
288.6918282605
 31
0.0
  0
ARC
  5
FE
330
1F
100
AcDbEntity
  8
0
  6
Continuous
 62
     7
370
    25
100
AcDbCircle
 10
-152.404651635
 20
288.6918282605
 30
0.0
 40
1.000000000000044
100
AcDbArc
 50
180.0
 51
221.6335393366
  0
ARC
  5
FF
330
1F
100
AcDbEntity
  8
0
  6
Continuous
 62
     7
370
    25
100
AcDbCircle
 10
-104.404651635
 20
288.6918282605
 30
0.0
 40
1.000000000000033
100
AcDbArc
 50
318.3664606634
 51
0.0
  0
LINE
  5
100
330
1F
100
AcDbEntity
  8
0
  6
Continuous
 62
     7
370
    25
100
AcDbLine
 10
-153.1520609537
 20
288.0274644217
 30
0.0
 11
-145.6572423163
 21
279.5957934546
 31
0.0
  0
LINE
  5
101
330
1F
100
AcDbEntity
  8
0
  6
Continuous
 62
     7
370
    25
100
AcDbLine
 10
-111.1520609537
 20
279.5957934546
 30
0.0
 11
-103.6572423163
 21
288.0274644217
 31
0.0
  0
ARC
  5
102
330
1F
100
AcDbEntity
  8
0
  6
Continuous
 62
     7
370
    25
100
AcDbCircle
 10
-114.4433125327
 20
231.8863590628
 30
0.0
 40
61.42528204188942
100
AcDbArc
 50
80.4369144809
 51
89.963938197
  0
ARC
  5
103
330
1F
100
AcDbEntity
  8
0
  6
Continuous
 62
     7
370
    25
100
AcDbCircle
 10
-142.3659907372
 20
231.8863590628
 30
0.0
 40
61.42528204188943
100
AcDbArc
 50
90.036061803
 51
99.5630855191
  0
ARC
  5
104
330
1F
100
AcDbEntity
  8
0
  6
Continuous
 62
     7
370
    25
100
AcDbCircle
 10
-110.404651635
 20
278.9314296158
 30
0.0
 40
1.0
100
AcDbArc
 50
138.3664606634
 51
180.0
  0
ARC
  5
105
330
1F
100
AcDbEntity
  8
0
  6
Continuous
 62
     7
370
    25
100
AcDbCircle
 10
-146.404651635
 20
278.9314296158
 30
0.0
 40
1.0
100
AcDbArc
 50
0.0
 51
41.6335393366
  0
LINE
  5
106
330
1F
100
AcDbEntity
  8
0
  6
Continuous
 62
     7
370
    25
100
AcDbLine
 10
-111.404651635
 20
276.3116289382
 30
0.0
 11
-111.404651635
 21
278.9314296158
 31
0.0
  0
LINE
  5
107
330
1F
100
AcDbEntity
  8
0
  6
Continuous
 62
     7
370
    25
100
AcDbLine
 10
-145.404651635
 20
278.9314296158
 30
0.0
 11
-145.404651635
 21
276.3116289382
 31
0.0
  0
ARC
  5
108
330
1F
100
AcDbEntity
  8
0
  6
Continuous
 62
     7
370
    25
100
AcDbCircle
 10
-112.404651635
 20
276.3116289382
 30
0.0
 40
1.0
100
AcDbArc
 50
270.0
 51
0.0
  0
ARC
  5
109
330
1F
100
AcDbEntity
  8
0
  6
Continuous
 62
     7
370
    25
100
AcDbCircle
 10
-144.404651635
 20
276.3116289382
 30
0.0
 40
1.0
100
AcDbArc
 50
180.0
 51
270.0
  0
ARC
  5
10A
330
1F
100
AcDbEntity
  8
0
  6
Continuous
 62
     7
370
    25
100
AcDbCircle
 10
-81.0232159597
 20
273.6918282605
 30
0.0
 40
1.0
100
AcDbArc
 50
180.0
 51
221.6335393366
  0
ARC
  5
10B
330
1F
100
AcDbEntity
  8
0
  6
Continuous
 62
     7
370
    25
100
AcDbCircle
 10
-33.0232159597
 20
273.6918282605
 30
0.0
 40
1.0
100
AcDbArc
 50
318.3664606634
 51
0.0
  0
ARC
  5
10C
330
1F
100
AcDbEntity
  8
0
  6
Continuous
 62
     7
370
    25
100
AcDbCircle
 10
-81.0232159597
 20
276.4719277621
 30
0.0
 40
1.0
100
AcDbArc
 50
99.5630855191
 51
180.0
  0
ARC
  5
10D
330
1F
100
AcDbEntity
  8
0
  6
Continuous
 62
     7
370
    25
100
AcDbCircle
 10
-33.0232159597
 20
276.4719277621
 30
0.0
 40
1.0
100
AcDbArc
 50
0.0
 51
80.4369144809
  0
LINE
  5
10E
330
1F
100
AcDbEntity
  8
0
  6
Continuous
 62
     7
370
    25
100
AcDbLine
 10
-32.0232159597
 20
273.6918282605
 30
0.0
 11
-32.0232159597
 21
276.4719277621
 31
0.0
  0
LINE
  5
10F
330
1F
100
AcDbEntity
  8
0
  6
Continuous
 62
     7
370
    25
100
AcDbLine
 10
-82.0232159597
 20
276.4719277621
 30
0.0
 11
-82.0232159597
 21
273.6918282605
 31
0.0
  0
LINE
  5
110
330
1F
100
AcDbEntity
  8
0
  6
Continuous
 62
     7
370
    25
100
AcDbLine
 10
-81.7706252784
 20
273.0274644217
 30
0.0
 11
-74.275806641
 21
264.5957934546
 31
0.0
  0
LINE
  5
111
330
1F
100
AcDbEntity
  8
0
  6
Continuous
 62
     7
370
    25
100
AcDbLine
 10
-39.7706252784
 20
264.5957934546
 30
0.0
 11
-32.275806641
 21
273.0274644217
 31
0.0
  0
ARC
  5
112
330
1F
100
AcDbEntity
  8
0
  6
Continuous
 62
     7
370
    25
100
AcDbCircle
 10
-43.0618768575
 20
216.8863590628
 30
0.0
 40
61.42528204188945
100
AcDbArc
 50
80.4369144809
 51
89.963938197
  0
ARC
  5
113
330
1F
100
AcDbEntity
  8
0
  6
Continuous
 62
     7
370
    25
100
AcDbCircle
 10
-70.984555062
 20
216.8863590628
 30
0.0
 40
61.42528204188945
100
AcDbArc
 50
90.036061803
 51
99.5630855191
  0
ARC
  5
114
330
1F
100
AcDbEntity
  8
0
  6
Continuous
 62
     7
370
    25
100
AcDbCircle
 10
-39.0232159597
 20
263.9314296158
 30
0.0
 40
1.000000000000007
100
AcDbArc
 50
138.3664606634
 51
180.0
  0
ARC
  5
115
330
1F
100
AcDbEntity
  8
0
  6
Continuous
 62
     7
370
    25
100
AcDbCircle
 10
-75.0232159597
 20
263.9314296158
 30
0.0
 40
1.0
100
AcDbArc
 50
0.0
 51
41.6335393366
  0
ARC
  5
116
330
1F
100
AcDbEntity
  8
0
  6
Continuous
 62
     7
370
    25
100
AcDbCircle
 10
-41.0232159597
 20
261.3116289382
 30
0.0
 40
1.0
100
AcDbArc
 50
270.0
 51
0.0
  0
ARC
  5
117
330
1F
100
AcDbEntity
  8
0
  6
Continuous
 62
     7
370
    25
100
AcDbCircle
 10
-73.0232159597
 20
261.3116289382
 30
0.0
 40
1.000000000000014
100
AcDbArc
 50
180.0
 51
270.0
  0
LINE
  5
118
330
1F
100
AcDbEntity
  8
0
  6
Continuous
 62
     7
370
    25
100
AcDbLine
 10
-40.0232159597
 20
261.3116289382
 30
0.0
 11
-40.0232159597
 21
263.9314296158
 31
0.0
  0
LINE
  5
119
330
1F
100
AcDbEntity
  8
0
  6
Continuous
 62
     7
370
    25
100
AcDbLine
 10
-74.0232159597
 20
263.9314296158
 30
0.0
 11
-74.0232159597
 21
261.3116289382
 31
0.0
  0
LINE
  5
11A
330
1F
100
AcDbEntity
  8
0
  6
Continuous
 62
     7
370
    25
100
AcDbLine
 10
-153.404651635
 20
36.9314296158
 30
0.0
 11
-153.404651635
 21
34.1513301142
 31
0.0
  0
LINE
  5
11B
330
1F
100
AcDbEntity
  8
0
  6
Continuous
 62
     7
370
    25
100
AcDbLine
 10
-103.404651635
 20
34.1513301142
 30
0.0
 11
-103.404651635
 21
36.9314296158
 31
0.0
  0
ARC
  5
11C
330
1F
100
AcDbEntity
  8
0
  6
Continuous
 62
     7
370
    25
100
AcDbCircle
 10
-104.404651635
 20
34.1513301142
 30
0.0
 40
1.000000000000011
100
AcDbArc
 50
279.5630855191
 51
0.0
  0
ARC
  5
11D
330
1F
100
AcDbEntity
  8
0
  6
Continuous
 62
     7
370
    25
100
AcDbCircle
 10
-152.404651635
 20
34.1513301142
 30
0.0
 40
1.000000000000013
100
AcDbArc
 50
180.0
 51
260.4369144809
  0
ARC
  5
11E
330
1F
100
AcDbEntity
  8
0
  6
Continuous
 62
     7
370
    25
100
AcDbCircle
 10
-104.404651635
 20
36.9314296158
 30
0.0
 40
1.0
100
AcDbArc
 50
0.0
 51
41.6335393366
  0
ARC
  5
11F
330
1F
100
AcDbEntity
  8
0
  6
Continuous
 62
     7
370
    25
100
AcDbCircle
 10
-152.404651635
 20
36.9314296158
 30
0.0
 40
1.000000000000006
100
AcDbArc
 50
138.3664606634
 51
180.0
  0
LINE
  5
120
330
1F
100
AcDbEntity
  8
0
  6
Continuous
 62
     7
370
    25
100
AcDbLine
 10
-103.6572423163
 20
37.5957934546
 30
0.0
 11
-111.1520609537
 21
46.0274644217
 31
0.0
  0
LINE
  5
121
330
1F
100
AcDbEntity
  8
0
  6
Continuous
 62
     7
370
    25
100
AcDbLine
 10
-145.6572423163
 20
46.0274644217
 30
0.0
 11
-153.1520609537
 21
37.5957934546
 31
0.0
  0
ARC
  5
122
330
1F
100
AcDbEntity
  8
0
  6
Continuous
 62
     7
370
    25
100
AcDbCircle
 10
-142.3659907372
 20
93.7368988135
 30
0.0
 40
61.42528204188942
100
AcDbArc
 50
260.4369144809
 51
269.963938197
  0
ARC
  5
123
330
1F
100
AcDbEntity
  8
0
  6
Continuous
 62
     7
370
    25
100
AcDbCircle
 10
-114.4433125327
 20
93.7368988135
 30
0.0
 40
61.42528204188942
100
AcDbArc
 50
270.036061803
 51
279.5630855191
  0
ARC
  5
124
330
1F
100
AcDbEntity
  8
0
  6
Continuous
 62
     7
370
    25
100
AcDbCircle
 10
-146.404651635
 20
46.6918282605
 30
0.0
 40
1.0
100
AcDbArc
 50
318.3664606634
 51
0.0
  0
ARC
  5
125
330
1F
100
AcDbEntity
  8
0
  6
Continuous
 62
     7
370
    25
100
AcDbCircle
 10
-110.404651635
 20
46.6918282605
 30
0.0
 40
1.0
100
AcDbArc
 50
180.0
 51
221.6335393366
  0
ARC
  5
126
330
1F
100
AcDbEntity
  8
0
  6
Continuous
 62
     7
370
    25
100
AcDbCircle
 10
-144.404651635
 20
49.3116289382
 30
0.0
 40
1.0
100
AcDbArc
 50
90.0
 51
180.0
  0
ARC
  5
127
330
1F
100
AcDbEntity
  8
0
  6
Continuous
 62
     7
370
    25
100
AcDbCircle
 10
-112.404651635
 20
49.3116289382
 30
0.0
 40
1.0
100
AcDbArc
 50
0.0
 51
90.0
  0
LINE
  5
128
330
1F
100
AcDbEntity
  8
0
  6
Continuous
 62
     7
370
    25
100
AcDbLine
 10
-145.404651635
 20
49.3116289382
 30
0.0
 11
-145.404651635
 21
46.6918282605
 31
0.0
  0
LINE
  5
129
330
1F
100
AcDbEntity
  8
0
  6
Continuous
 62
     7
370
    25
100
AcDbLine
 10
-111.404651635
 20
46.6918282605
 30
0.0
 11
-111.404651635
 21
49.3116289382
 31
0.0
  0
LINE
  5
12A
330
1F
100
AcDbEntity
  8
0
  6
Continuous
 62
     7
370
    25
100
AcDbLine
 10
-70.7732159597
 20
47.3116289382
 30
0.0
 11
-70.7732159597
 21
47.0637745431
 31
0.0
  0
LINE
  5
12B
330
1F
100
AcDbEntity
  8
0
  6
Continuous
 62
     7
370
    25
100
AcDbLine
 10
-43.2732159597
 20
47.0637745431
 30
0.0
 11
-43.2732159597
 21
47.3116289382
 31
0.0
  0
ARC
  5
12C
330
1F
100
AcDbEntity
  8
0
  6
Continuous
 62
     7
370
    25
100
AcDbCircle
 10
-69.7732159597
 20
47.0637745431
 30
0.0
 40
1.000000000000006
100
AcDbArc
 50
180.0
 51
254.3504861218
  0
ARC
  5
12D
330
1F
100
AcDbEntity
  8
0
  6
Continuous
 62
     7
370
    25
100
AcDbCircle
 10
-44.2732159597
 20
47.0637745431
 30
0.0
 40
1.0
100
AcDbArc
 50
285.6495138782
 51
0.0
  0
ARC
  5
12E
330
1F
100
AcDbEntity
  8
0
  6
Continuous
 62
     7
370
    25
100
AcDbCircle
 10
-57.0232159597
 20
92.5772539382
 30
0.0
 40
48.26562500000037
100
AcDbArc
 50
254.3504861218
 51
285.6495138782
  0
LINE
  5
12F
330
1F
100
AcDbEntity
  8
0
  6
Continuous
 62
     7
370
    25
100
AcDbLine
 10
-114.654651635
 20
293.3116289382
 30
0.0
 11
-114.654651635
 21
293.5594833332
 31
0.0
  0
LINE
  5
130
330
1F
100
AcDbEntity
  8
0
  6
Continuous
 62
     7
370
    25
100
AcDbLine
 10
-142.154651635
 20
293.5594833332
 30
0.0
 11
-142.154651635
 21
293.3116289382
 31
0.0
  0
ARC
  5
131
330
1F
100
AcDbEntity
  8
0
  6
Continuous
 62
     7
370
    25
100
AcDbCircle
 10
-115.654651635
 20
293.5594833332
 30
0.0
 40
1.0
100
AcDbArc
 50
0.0
 51
74.3504861218
  0
ARC
  5
132
330
1F
100
AcDbEntity
  8
0
  6
Continuous
 62
     7
370
    25
100
AcDbCircle
 10
-141.154651635
 20
293.5594833332
 30
0.0
 40
1.0
100
AcDbArc
 50
105.6495138782
 51
180.0
  0
ARC
  5
133
330
1F
100
AcDbEntity
  8
0
  6
Continuous
 62
     7
370
    25
100
AcDbCircle
 10
-128.404651635
 20
248.0460039382
 30
0.0
 40
48.26562500000038
100
AcDbArc
 50
74.3504861218
 51
105.6495138782
  0
ARC
  5
134
330
1F
100
AcDbEntity
  8
0
  6
Continuous
 62
     7
370
    25
100
AcDbCircle
 10
-44.2732159597
 20
278.5594833332
 30
0.0
 40
1.0
100
AcDbArc
 50
0.0
 51
74.3504861218
  0
ARC
  5
135
330
1F
100
AcDbEntity
  8
0
  6
Continuous
 62
     7
370
    25
100
AcDbCircle
 10
-69.7732159597
 20
278.5594833332
 30
0.0
 40
1.0
100
AcDbArc
 50
105.6495138782
 51
180.0
  0
LINE
  5
136
330
1F
100
AcDbEntity
  8
0
  6
Continuous
 62
     7
370
    25
100
AcDbLine
 10
-43.2732159597
 20
278.3116289382
 30
0.0
 11
-43.2732159597
 21
278.5594833332
 31
0.0
  0
LINE
  5
137
330
1F
100
AcDbEntity
  8
0
  6
Continuous
 62
     7
370
    25
100
AcDbLine
 10
-70.7732159597
 20
278.5594833332
 30
0.0
 11
-70.7732159597
 21
278.3116289382
 31
0.0
  0
ARC
  5
138
330
1F
100
AcDbEntity
  8
0
  6
Continuous
 62
     7
370
    25
100
AcDbCircle
 10
-57.0232159597
 20
233.0460039382
 30
0.0
 40
48.26562500000043
100
AcDbArc
 50
74.3504861218
 51
105.6495138782
  0
LINE
  5
139
330
1F
100
AcDbEntity
  8
0
  6
Continuous
 62
     7
370
    25
100
AcDbLine
 10
-142.154651635
 20
32.3116289382
 30
0.0
 11
-142.154651635
 21
32.0637745431
 31
0.0
  0
LINE
  5
13A
330
1F
100
AcDbEntity
  8
0
  6
Continuous
 62
     7
370
    25
100
AcDbLine
 10
-114.654651635
 20
32.0637745431
 30
0.0
 11
-114.654651635
 21
32.3116289382
 31
0.0
  0
ARC
  5
13B
330
1F
100
AcDbEntity
  8
0
  6
Continuous
 62
     7
370
    25
100
AcDbCircle
 10
-141.154651635
 20
32.0637745431
 30
0.0
 40
1.0
100
AcDbArc
 50
180.0
 51
254.3504861218
  0
ARC
  5
13C
330
1F
100
AcDbEntity
  8
0
  6
Continuous
 62
     7
370
    25
100
AcDbCircle
 10
-115.654651635
 20
32.0637745431
 30
0.0
 40
1.0
100
AcDbArc
 50
285.6495138782
 51
0.0
  0
ARC
  5
13D
330
1F
100
AcDbEntity
  8
0
  6
Continuous
 62
     7
370
    25
100
AcDbCircle
 10
-128.404651635
 20
77.5772539382
 30
0.0
 40
48.2656250000004
100
AcDbArc
 50
254.3504861218
 51
285.6495138782
  0
LINE
  5
13E
330
1F
100
AcDbEntity
  8
0
  6
Continuous
 62
     7
370
    25
100
AcDbLine
 10
580.9471627129
 20
1596.3116289382
 30
0.0
 11
-172.4250623629
 21
1596.3116289382
 31
0.0
  0
ARC
  5
13F
330
1F
100
AcDbEntity
  8
0
  6
Continuous
 62
     7
370
    25
100
AcDbCircle
 10
580.947162713
 20
296.3116289382
 30
0.0
 40
1300.0
100
AcDbArc
 50
0.0
 51
90.0
  0
LINE
  5
140
330
1F
100
AcDbEntity
  8
0
  6
Continuous
 62
     7
370
    25
100
AcDbLine
 10
1880.947162713
 20
29.3116289382
 30
0.0
 11
1880.947162713
 21
296.3116289381
 31
0.0
  0
ARC
  5
141
330
1F
100
AcDbEntity
  8
0
  6
Continuous
 62
     7
370
    25
100
AcDbCircle
 10
580.947162713
 20
29.3116289382
 30
0.0
 40
1300.0
100
AcDbArc
 50
270.0
 51
0.0
  0
ARC
  5
142
330
1F
100
AcDbEntity
  8
0
  6
Continuous
 62
     7
370
    25
100
AcDbCircle
 10
-172.4250623629
 20
296.3116289382
 30
0.0
 40
1300.0
100
AcDbArc
 50
90.0
 51
180.0
  0
LINE
  5
143
330
1F
100
AcDbEntity
  8
0
  6
Continuous
 62
     7
370
    25
100
AcDbLine
 10
-172.4250623629
 20
-1270.6883710618
 30
0.0
 11
580.9471627129
 21
-1270.6883710618
 31
0.0
  0
ARC
  5
144
330
1F
100
AcDbEntity
  8
0
  6
Continuous
 62
     7
370
    25
100
AcDbCircle
 10
-172.4250623629
 20
29.3116289382
 30
0.0
 40
1300.0
100
AcDbArc
 50
180.0
 51
270.0
  0
LINE
  5
145
330
1F
100
AcDbEntity
  8
0
  6
Continuous
 62
     7
370
    25
100
AcDbLine
 10
-1472.4250623629
 20
296.3116289381
 30
0.0
 11
-1472.4250623629
 21
29.3116289382
 31
0.0
  0
LINE
  5
146
330
1F
100
AcDbEntity
  8
0
  6
Continuous
 62
     7
370
    25
100
AcDbLine
 10
0.515232148
 20
173.3116289382
 30
0.0
 11
-17.2481300952
 21
173.3116289382
 31
0.0
  0
LINE
  5
147
330
1F
100
AcDbEntity
  8
0
  6
Continuous
 62
     7
370
    25
100
AcDbLine
 10
-17.2481300952
 20
173.3116289382
 30
0.0
 11
-17.2481300952
 21
182.3116289382
 31
0.0
  0
LINE
  5
148
330
1F
100
AcDbEntity
  8
0
  6
Continuous
 62
     7
370
    25
100
AcDbLine
 10
-17.2481300952
 20
182.3116289382
 30
0.0
 11
-12.7381648771
 21
182.3116289382
 31
0.0
  0
LINE
  5
149
330
1F
100
AcDbEntity
  8
0
  6
Continuous
 62
     7
370
    25
100
AcDbLine
 10
-12.7381648771
 20
182.3116289382
 30
0.0
 11
0.515232148
 21
182.3116289382
 31
0.0
  0
LINE
  5
14A
330
1F
100
AcDbEntity
  8
0
  6
Continuous
 62
     7
370
    25
100
AcDbLine
 10
0.515232148
 20
182.3116289382
 30
0.0
 11
0.515232148
 21
173.3116289382
 31
0.0
  0
LWPOLYLINE
  5
14B
330
1F
100
AcDbEntity
  8
0
  6
Continuous
 62
     7
370
    25
100
AcDbPolyline
 90
        9
 70
   128
 43
0.0
 10
0.515232148
 20
173.3116289382
 10
0.4790773247
 20
172.7263579721
 10
0.3720022643
 20
172.1635786411
 10
0.1981218014
 20
171.6449182391
 10
-0.0358819354
 20
171.1903085946
 10
-0.3210163137
 20
170.8172201013
 10
-0.6463237792
 20
170.5399903406
 10
-0.9993029485
 20
170.369273097
 10
-1.36638903
 20
170.3116289382
  0
ARC
  5
14C
330
1F
100
AcDbEntity
  8
0
  6
Continuous
 62
     7
370
    25
100
AcDbCircle
 10
-14.5643834136
 20
172.9788729913
 30
0.0
 40
2.704297093777109
100
AcDbArc
 50
172.9320071007
 51
260.5044640711
  0
LINE
  5
14D
330
1F
100
AcDbEntity
  8
0
  6
Continuous
 62
     7
370
    25
100
AcDbLine
 10
-1.36638903
 20
185.3116289382
 30
0.0
 11
-10.2003152415
 21
185.3116289382
 31
0.0
  0
LWPOLYLINE
  5
14E
330
1F
100
AcDbEntity
  8
0
  6
Continuous
 62
     7
370
    25
100
AcDbPolyline
 90
        9
 70
   128
 43
0.0
 10
-1.36638903
 20
185.3116289382
 10
-0.9993029485
 20
185.2539847794
 10
-0.6463237792
 20
185.0832675357
 10
-0.3210163137
 20
184.8060377751
 10
-0.0358819354
 20
184.4329492817
 10
0.1981218014
 20
183.9783396372
 10
0.3720022643
 20
183.4596792353
 10
0.4790773247
 20
182.8968999042
 10
0.515232148
 20
182.3116289382
  0
ARC
  5
14F
330
1F
100
AcDbEntity
  8
0
  6
Continuous
 62
     7
370
    25
100
AcDbCircle
 10
-9.771710758
 20
182.3756042319
 30
0.0
 40
2.967143892524787
100
AcDbArc
 50
98.3054419089
 51
181.2354636396
  0
LINE
  5
150
330
1F
100
AcDbEntity
  8
0
  6
Continuous
 62
     7
370
    25
100
AcDbLine
 10
39.7958036366
 20
185.3116289382
 30
0.0
 11
-1.36638903
 21
185.3116289382
 31
0.0
  0
LINE
  5
151
330
1F
100
AcDbEntity
  8
0
  6
Continuous
 62
     7
370
    25
100
AcDbLine
 10
-17.2481300952
 20
173.3116289382
 30
0.0
 11
-19.2042319928
 21
173.3116289382
 31
0.0
  0
LINE
  5
152
330
1F
100
AcDbEntity
  8
0
  6
Continuous
 62
     7
370
    25
100
AcDbLine
 10
-19.2042319928
 20
182.3116289382
 30
0.0
 11
-19.2042319928
 21
173.3116289382
 31
0.0
  0
LINE
  5
153
330
1F
100
AcDbEntity
  8
0
  6
Continuous
 62
     7
370
    25
100
AcDbLine
 10
-17.2481300952
 20
182.3116289382
 30
0.0
 11
-19.2042319928
 21
182.3116289382
 31
0.0
  0
ARC
  5
154
330
1F
100
AcDbEntity
  8
0
  6
Continuous
 62
     7
370
    25
100
AcDbCircle
 10
-11.0006218399
 20
172.568233155
 30
0.0
 40
8.237223854683732
100
AcDbArc
 50
174.8221059064
 51
195.8995718804
  0
LINE
  5
155
330
1F
100
AcDbEntity
  8
0
  6
Continuous
 62
     7
370
    25
100
AcDbLine
 10
-16.9539574524
 20
185.3116289382
 30
0.0
 11
-20.2099919368
 21
185.3116289382
 31
0.0
  0
ARC
  5
156
330
1F
100
AcDbEntity
  8
0
  6
Continuous
 62
     7
370
    25
100
AcDbCircle
 10
-17.1282354214
 20
182.4668307153
 30
0.0
 40
2.850131530202004
100
AcDbArc
 50
356.878457255
 51
86.4943284065
  0
LINE
  5
157
330
1F
100
AcDbEntity
  8
0
  6
Continuous
 62
     7
370
    25
100
AcDbLine
 10
-22.4224189381
 20
182.3116289382
 30
0.0
 11
-19.2042319928
 21
182.3116289382
 31
0.0
  0
ARC
  5
158
330
1F
100
AcDbEntity
  8
0
  6
Continuous
 62
     7
370
    25
100
AcDbCircle
 10
-19.7461159805
 20
182.6537261685
 30
0.0
 40
2.698078582261352
100
AcDbArc
 50
99.8999511348
 51
187.2843057826
  0
LINE
  5
159
330
1F
100
AcDbEntity
  8
0
  6
Continuous
 62
     7
370
    25
100
AcDbLine
 10
-19.2042319928
 20
173.3116289382
 30
0.0
 11
-22.4224189381
 21
173.3116289382
 31
0.0
  0
LINE
  5
15A
330
1F
100
AcDbEntity
  8
0
  6
Continuous
 62
     7
370
    25
100
AcDbLine
 10
-22.4224189381
 20
182.3116289382
 30
0.0
 11
-22.4224189381
 21
173.3116289382
 31
0.0
  0
ARC
  5
15B
330
1F
100
AcDbEntity
  8
0
  6
Continuous
 62
     7
370
    25
100
AcDbCircle
 10
-19.7461159805
 20
172.9695317078
 30
0.0
 40
2.698078582233945
100
AcDbArc
 50
172.7156942169
 51
260.1000488658
  0
LINE
  5
15C
330
1F
100
AcDbEntity
  8
0
  6
Continuous
 62
     7
370
    25
100
AcDbLine
 10
-37.13224179
 20
182.3116289382
 30
0.0
 11
-22.4224189381
 21
182.3116289382
 31
0.0
  0
LWPOLYLINE
  5
15D
330
1F
100
AcDbEntity
  8
0
  6
Continuous
 62
     7
370
    25
100
AcDbPolyline
 90
        9
 70
   128
 43
0.0
 10
-32.3013656293
 20
185.3116289382
 10
-32.3110897063
 20
185.3116224418
 10
-33.6160999957
 20
185.1922866829
 10
-34.8799937354
 20
184.8303939904
 10
-35.6111933534
 20
184.4726286414
 10
-36.2909548254
 20
183.9772214295
 10
-36.8493800982
 20
183.3034579791
 10
-37.0699642524
 20
182.7816372583
 10
-37.13224179
 20
182.3116289382
  0
LINE
  5
15E
330
1F
100
AcDbEntity
  8
0
  6
Continuous
 62
     7
370
    25
100
AcDbLine
 10
-20.2099919368
 20
185.3116289382
 30
0.0
 11
-32.3013656293
 21
185.3116289382
 31
0.0
  0
LINE
  5
15F
330
1F
100
AcDbEntity
  8
0
  6
Continuous
 62
     7
370
    25
100
AcDbLine
 10
-40.0338884351
 20
182.3116289382
 30
0.0
 11
-37.13224179
 21
182.3116289382
 31
0.0
  0
LINE
  5
160
330
1F
100
AcDbEntity
  8
0
  6
Continuous
 62
     7
370
    25
100
AcDbLine
 10
-11.4802915507
 20
185.3116289382
 30
0.0
 11
-16.9539574524
 21
185.3116289382
 31
0.0
  0
LINE
  5
161
330
1F
100
AcDbEntity
  8
0
  6
Continuous
 62
     7
370
    25
100
AcDbLine
 10
-32.3013656293
 20
185.3116289382
 30
0.0
 11
-37.4692653974
 21
185.3116289382
 31
0.0
  0
ARC
  5
162
330
1F
100
AcDbEntity
  8
0
  6
Continuous
 62
     7
370
    25
100
AcDbCircle
 10
-74.263966499
 20
182.3194025749
 30
0.0
 40
2.992236566717394
100
AcDbArc
 50
90.1496283501
 51
180.1488508909
  0
LINE
  5
163
330
1F
100
AcDbEntity
  8
0
  6
Continuous
 62
     7
370
    25
100
AcDbLine
 10
-37.4692653974
 20
185.3116289382
 30
0.0
 11
-40.0232159597
 21
185.3116289382
 31
0.0
  0
LINE
  5
164
330
1F
100
AcDbEntity
  8
0
  6
Continuous
 62
     7
370
    25
100
AcDbLine
 10
-74.0232159597
 20
185.3116289382
 30
0.0
 11
-74.2717807379
 21
185.3116289382
 31
0.0
  0
LWPOLYLINE
  5
165
330
1F
100
AcDbEntity
  8
0
  6
Continuous
 62
     7
370
    25
100
AcDbPolyline
 90
        9
 70
   128
 43
0.0
 10
-86.3824961289
 20
170.3116289382
 10
-86.6521646194
 20
170.3692730969
 10
-86.911469901
 20
170.5399903406
 10
-87.1504470171
 20
170.8172201012
 10
-87.3599122114
 20
171.1903085946
 10
-87.5318158537
 20
171.6449182391
 10
-87.6595517835
 20
172.1635786411
 10
-87.7382111807
 20
172.7263579721
 10
-87.7647712088
 20
173.3116289382
  0
LINE
  5
166
330
1F
100
AcDbEntity
  8
0
  6
Continuous
 62
     7
370
    25
100
AcDbLine
 10
-87.7647712088
 20
182.3116289382
 30
0.0
 11
-77.256192968
 21
182.3116289382
 31
0.0
  0
LWPOLYLINE
  5
167
330
1F
100
AcDbEntity
  8
0
  6
Continuous
 62
     7
370
    25
100
AcDbPolyline
 90
        9
 70
   128
 43
0.0
 10
-87.7647712088
 20
182.3116289382
 10
-87.7382111807
 20
182.8968999042
 10
-87.6595517835
 20
183.4596792353
 10
-87.5318158537
 20
183.9783396372
 10
-87.3599122114
 20
184.4329492817
 10
-87.1504470171
 20
184.8060377751
 10
-86.911469901
 20
185.0832675357
 10
-86.6521646194
 20
185.2539847794
 10
-86.3824961289
 20
185.3116289382
  0
LINE
  5
168
330
1F
100
AcDbEntity
  8
0
  6
Continuous
 62
     7
370
    25
100
AcDbLine
 10
-74.2717807379
 20
185.3116289382
 30
0.0
 11
-86.3824961289
 21
185.3116289382
 31
0.0
  0
LINE
  5
169
330
1F
100
AcDbEntity
  8
0
  6
Continuous
 62
     7
370
    25
100
AcDbLine
 10
-87.7647712088
 20
182.3116289382
 30
0.0
 11
-87.7647712088
 21
173.3116289382
 31
0.0
  0
LINE
  5
16A
330
1F
100
AcDbEntity
  8
0
  6
Continuous
 62
     7
370
    25
100
AcDbLine
 10
-87.7647712088
 20
173.3116289382
 30
0.0
 11
-152.2985393348
 21
173.3116289382
 31
0.0
  0
LWPOLYLINE
  5
16B
330
1F
100
AcDbEntity
  8
0
  6
Continuous
 62
     7
370
    25
100
AcDbPolyline
 90
        9
 70
   128
 43
0.0
 10
-150.5023384276
 20
170.3116289382
 10
-150.852759841
 20
170.3692730969
 10
-151.189714756
 20
170.5399903406
 10
-151.5002541842
 20
170.8172201012
 10
-151.7724442695
 20
171.1903085946
 10
-151.9958248996
 20
171.6449182391
 10
-152.1618116821
 20
172.1635786411
 10
-152.2640258381
 20
172.7263579721
 10
-152.2985393348
 20
173.3116289382
  0
LINE
  5
16C
330
1F
100
AcDbEntity
  8
0
  6
Continuous
 62
     7
370
    25
100
AcDbLine
 10
-152.2985393348
 20
182.3116289382
 30
0.0
 11
-87.7647712088
 21
182.3116289382
 31
0.0
  0
LWPOLYLINE
  5
16D
330
1F
100
AcDbEntity
  8
0
  6
Continuous
 62
     7
370
    25
100
AcDbPolyline
 90
        9
 70
   128
 43
0.0
 10
-152.2985393348
 20
182.3116289382
 10
-152.2640258381
 20
182.8968999042
 10
-152.1618116821
 20
183.4596792353
 10
-151.9958248996
 20
183.9783396372
 10
-151.7724442695
 20
184.4329492817
 10
-151.5002541842
 20
184.8060377751
 10
-151.189714756
 20
185.0832675357
 10
-150.852759841
 20
185.2539847794
 10
-150.5023384276
 20
185.3116289382
  0
LINE
  5
16E
330
1F
100
AcDbEntity
  8
0
  6
Continuous
 62
     7
370
    25
100
AcDbLine
 10
-86.3824961289
 20
185.3116289382
 30
0.0
 11
-150.5023384276
 21
185.3116289382
 31
0.0
  0
LINE
  5
16F
330
1F
100
AcDbEntity
  8
0
  6
Continuous
 62
     7
370
    25
100
AcDbLine
 10
-152.2985393348
 20
182.3116289382
 30
0.0
 11
-152.2985393348
 21
173.3116289382
 31
0.0
  0
LINE
  5
170
330
1F
100
AcDbEntity
  8
0
  6
Continuous
 62
     7
370
    25
100
AcDbLine
 10
-152.2985393348
 20
173.3116289382
 30
0.0
 11
-155.3127314187
 21
173.3116289382
 31
0.0
  0
LINE
  5
171
330
1F
100
AcDbEntity
  8
0
  6
Continuous
 62
     7
370
    25
100
AcDbLine
 10
-155.3127314187
 20
182.3116289382
 30
0.0
 11
-155.3127314187
 21
173.3116289382
 31
0.0
  0
LINE
  5
172
330
1F
100
AcDbEntity
  8
0
  6
Continuous
 62
     7
370
    25
100
AcDbLine
 10
-155.3127314187
 20
182.3116289382
 30
0.0
 11
-152.2985393348
 21
182.3116289382
 31
0.0
  0
ARC
  5
173
330
1F
100
AcDbEntity
  8
0
  6
Continuous
 62
     7
370
    25
100
AcDbCircle
 10
-152.4541956844
 20
173.1693352953
 30
0.0
 40
2.862075125723724
100
AcDbArc
 50
177.1502538439
 51
266.8338470142
  0
ARC
  5
174
330
1F
100
AcDbEntity
  8
0
  6
Continuous
 62
     7
370
    25
100
AcDbCircle
 10
-152.4541956844
 20
182.453922581
 30
0.0
 40
2.862075125723778
100
AcDbArc
 50
93.1661529858
 51
182.8497461561
  0
LINE
  5
175
330
1F
100
AcDbEntity
  8
0
  6
Continuous
 62
     7
370
    25
100
AcDbLine
 10
-150.5023384276
 20
185.3116289382
 30
0.0
 11
-152.6122728863
 21
185.3116289382
 31
0.0
  0
LINE
  5
176
330
1F
100
AcDbEntity
  8
0
  6
Continuous
 62
     7
370
    25
100
AcDbLine
 10
-152.6122728863
 20
185.3116289382
 30
0.0
 11
-155.2974414636
 21
185.3116289382
 31
0.0
  0
ARC
  5
177
330
1F
100
AcDbEntity
  8
0
  6
Continuous
 62
     7
370
    25
100
AcDbCircle
 10
28.2886455496
 20
172.5622664967
 30
0.0
 40
25.8000918529527
100
AcDbArc
 50
354.9955161098
 51
1.6643872637
  0
LINE
  5
178
330
1F
100
AcDbEntity
  8
0
  6
Continuous
 62
     7
370
    25
100
AcDbLine
 10
54.0778525082
 20
182.3116289382
 30
0.0
 11
54.0778525082
 21
173.3116289382
 31
0.0
  0
LINE
  5
179
330
1F
100
AcDbEntity
  8
0
  6
Continuous
 62
     7
370
    25
100
AcDbLine
 10
53.9903842106
 20
185.3116289382
 30
0.0
 11
39.7958036366
 21
185.3116289382
 31
0.0
  0
ARC
  5
17A
330
1F
100
AcDbEntity
  8
0
  6
Continuous
 62
     7
370
    25
100
AcDbCircle
 10
28.2886455496
 20
183.0609913796
 30
0.0
 40
25.80009185295477
100
AcDbArc
 50
358.3356127363
 51
5.0044838902
  0
LINE
  5
17B
330
1F
100
AcDbEntity
  8
0
  6
Continuous
 62
     7
370
    25
100
AcDbLine
 10
54.1653208057
 20
173.3116289382
 30
0.0
 11
54.0778525082
 21
173.3116289382
 31
0.0
  0
LINE
  5
17C
330
1F
100
AcDbEntity
  8
0
  6
Continuous
 62
     7
370
    25
100
AcDbLine
 10
54.1653208057
 20
173.3116289382
 30
0.0
 11
54.1653208057
 21
170.3116289382
 31
0.0
  0
LINE
  5
17D
330
1F
100
AcDbEntity
  8
0
  6
Continuous
 62
     7
370
    25
100
AcDbLine
 10
54.1653208057
 20
182.3116289382
 30
0.0
 11
54.0778525082
 21
182.3116289382
 31
0.0
  0
LINE
  5
17E
330
1F
100
AcDbEntity
  8
0
  6
Continuous
 62
     7
370
    25
100
AcDbLine
 10
53.9903842106
 20
185.3116289382
 30
0.0
 11
54.1653208057
 21
185.3116289382
 31
0.0
  0
LINE
  5
17F
330
1F
100
AcDbEntity
  8
0
  6
Continuous
 62
     7
370
    25
100
AcDbLine
 10
54.1653208057
 20
185.3116289382
 30
0.0
 11
54.1653208057
 21
182.3116289382
 31
0.0
  0
LINE
  5
180
330
1F
100
AcDbEntity
  8
0
  6
Continuous
 62
     7
370
    25
100
AcDbLine
 10
54.1653208057
 20
173.3116289382
 30
0.0
 11
54.1653208057
 21
182.3116289382
 31
0.0
  0
LINE
  5
181
330
1F
100
AcDbEntity
  8
0
  6
Continuous
 62
     7
370
    25
100
AcDbLine
 10
347.3973674277
 20
170.3116289382
 30
0.0
 11
505.9226947899
 21
170.3116289382
 31
0.0
  0
LINE
  5
182
330
1F
100
AcDbEntity
  8
0
  6
Continuous
 62
     7
370
    25
100
AcDbLine
 10
505.9226947899
 20
173.3116289382
 30
0.0
 11
505.9226947899
 21
170.3116289382
 31
0.0
  0
LINE
  5
183
330
1F
100
AcDbEntity
  8
0
  6
Continuous
 62
     7
370
    25
100
AcDbLine
 10
505.9226947899
 20
185.3116289382
 30
0.0
 11
444.9671145222
 21
185.3116289382
 31
0.0
  0
LINE
  5
184
330
1F
100
AcDbEntity
  8
0
  6
Continuous
 62
     7
370
    25
100
AcDbLine
 10
347.3416528623
 20
185.3116289382
 30
0.0
 11
345.5808964192
 21
185.3116289382
 31
0.0
  0
LINE
  5
185
330
1F
100
AcDbEntity
  8
0
  6
Continuous
 62
     7
370
    25
100
AcDbLine
 10
108.0581671807
 20
185.3116289382
 30
0.0
 11
54.1653208057
 21
185.3116289382
 31
0.0
  0
LINE
  5
186
330
1F
100
AcDbEntity
  8
0
  6
Continuous
 62
     7
370
    25
100
AcDbLine
 10
505.9226947899
 20
185.3116289382
 30
0.0
 11
505.9226947899
 21
182.3116289382
 31
0.0
  0
LINE
  5
187
330
1F
100
AcDbEntity
  8
0
  6
Continuous
 62
     7
370
    25
100
AcDbLine
 10
505.9226947899
 20
182.3116289382
 30
0.0
 11
505.9226947899
 21
173.3116289382
 31
0.0
  0
LINE
  5
188
330
1F
100
AcDbEntity
  8
0
  6
Continuous
 62
     7
370
    25
100
AcDbLine
 10
505.9226947899
 20
170.3116289382
 30
0.0
 11
530.1366747956
 21
170.3116289382
 31
0.0
  0
LINE
  5
189
330
1F
100
AcDbEntity
  8
0
  6
Continuous
 62
     7
370
    25
100
AcDbLine
 10
530.1366747956
 20
185.3116289382
 30
0.0
 11
505.9226947899
 21
185.3116289382
 31
0.0
  0
LINE
  5
18A
330
1F
100
AcDbEntity
  8
0
  6
Continuous
 62
     7
370
    25
100
AcDbLine
 10
437.0506183098
 20
188.3116289382
 30
0.0
 11
423.6477838626
 21
188.3116289382
 31
0.0
  0
LINE
  5
18B
330
1F
100
AcDbEntity
  8
0
  6
Continuous
 62
     7
370
    25
100
AcDbLine
 10
423.6477838626
 20
197.3116289382
 30
0.0
 11
423.6477838626
 21
188.3116289382
 31
0.0
  0
LINE
  5
18C
330
1F
100
AcDbEntity
  8
0
  6
Continuous
 62
     7
370
    25
100
AcDbLine
 10
423.6477838626
 20
197.3116289382
 30
0.0
 11
437.0506183098
 21
197.3116289382
 31
0.0
  0
LINE
  5
18D
330
1F
100
AcDbEntity
  8
0
  6
Continuous
 62
     7
370
    25
100
AcDbLine
 10
437.0506183098
 20
197.3116289382
 30
0.0
 11
437.0506183098
 21
188.3116289382
 31
0.0
  0
LWPOLYLINE
  5
18E
330
1F
100
AcDbEntity
  8
0
  6
Continuous
 62
     7
370
    25
100
AcDbPolyline
 90
        9
 70
   128
 43
0.0
 10
425.3010276048
 20
200.3116289382
 10
424.9784957507
 20
200.2539847794
 10
424.668358615
 20
200.0832675357
 10
424.3825345937
 20
199.8060377751
 10
424.1320077437
 20
199.4329492817
 10
423.9264056714
 20
198.9783396372
 10
423.7736295491
 20
198.4596792353
 10
423.6795504775
 20
197.8968999042
 10
423.6477838626
 20
197.3116289382
  0
LINE
  5
18F
330
1F
100
AcDbEntity
  8
0
  6
Continuous
 62
     7
370
    25
100
AcDbLine
 10
434.6830117178
 20
200.3116289382
 30
0.0
 11
425.3010276048
 21
200.3116289382
 31
0.0
  0
ARC
  5
190
330
1F
100
AcDbEntity
  8
0
  6
Continuous
 62
     7
370
    25
100
AcDbCircle
 10
434.3245865642
 20
197.594498857
 30
0.0
 40
2.740668617128036
100
AcDbArc
 50
354.0758373937
 51
82.4853213614
  0
LINE
  5
191
330
1F
100
AcDbEntity
  8
0
  6
Continuous
 62
     7
370
    25
100
AcDbLine
 10
425.3010276048
 20
185.3116289382
 30
0.0
 11
434.6830117178
 21
185.3116289382
 31
0.0
  0
LWPOLYLINE
  5
192
330
1F
100
AcDbEntity
  8
0
  6
Continuous
 62
     7
370
    25
100
AcDbPolyline
 90
        9
 70
   128
 43
0.0
 10
423.6477838626
 20
188.3116289382
 10
423.6795504775
 20
187.7263579721
 10
423.7736295491
 20
187.1635786411
 10
423.9264056714
 20
186.6449182391
 10
424.1320077437
 20
186.1903085946
 10
424.3825345937
 20
185.8172201012
 10
424.668358615
 20
185.5399903406
 10
424.9784957507
 20
185.3692730969
 10
425.3010276048
 20
185.3116289382
  0
ARC
  5
193
330
1F
100
AcDbEntity
  8
0
  6
Continuous
 62
     7
370
    25
100
AcDbCircle
 10
434.3245865642
 20
188.0287590194
 30
0.0
 40
2.740668617127875
100
AcDbArc
 50
277.5146786386
 51
5.9241626064
  0
LINE
  5
194
330
1F
100
AcDbEntity
  8
0
  6
Continuous
 62
     7
370
    25
100
AcDbLine
 10
425.3010276048
 20
200.3116289382
 30
0.0
 11
341.8649700266
 21
200.3116289382
 31
0.0
  0
LINE
  5
195
330
1F
100
AcDbEntity
  8
0
  6
Continuous
 62
     7
370
    25
100
AcDbLine
 10
347.3416528623
 20
185.3116289382
 30
0.0
 11
425.3010276048
 21
185.3116289382
 31
0.0
  0
LINE
  5
196
330
1F
100
AcDbEntity
  8
0
  6
Continuous
 62
     7
370
    25
100
AcDbLine
 10
441.9078392049
 20
200.3116289382
 30
0.0
 11
434.6830117178
 21
200.3116289382
 31
0.0
  0
LINE
  5
197
330
1F
100
AcDbEntity
  8
0
  6
Continuous
 62
     7
370
    25
100
AcDbLine
 10
434.6830117178
 20
185.3116289382
 30
0.0
 11
441.9078392049
 21
185.3116289382
 31
0.0
  0
ARC
  5
198
330
1F
100
AcDbEntity
  8
0
  6
Continuous
 62
     7
370
    25
100
AcDbCircle
 10
474.0336820243
 20
197.3207809528
 30
0.0
 40
2.990862160942972
100
AcDbArc
 50
359.8246750931
 51
89.8235954816
  0
LINE
  5
199
330
1F
100
AcDbEntity
  8
0
  6
Continuous
 62
     7
370
    25
100
AcDbLine
 10
474.0428903948
 20
200.3116289382
 30
0.0
 11
441.9078392049
 21
200.3116289382
 31
0.0
  0
LINE
  5
19A
330
1F
100
AcDbEntity
  8
0
  6
Continuous
 62
     7
370
    25
100
AcDbLine
 10
477.0245301827
 20
197.3116289382
 30
0.0
 11
477.0245301827
 21
188.3116289382
 31
0.0
  0
ARC
  5
19B
330
1F
100
AcDbEntity
  8
0
  6
Continuous
 62
     7
370
    25
100
AcDbCircle
 10
474.0336820243
 20
188.3024769235
 30
0.0
 40
2.990862160942844
100
AcDbArc
 50
270.1764045184
 51
0.1753249069
  0
LINE
  5
19C
330
1F
100
AcDbEntity
  8
0
  6
Continuous
 62
     7
370
    25
100
AcDbLine
 10
441.9078392049
 20
185.3116289382
 30
0.0
 11
444.9671145222
 21
185.3116289382
 31
0.0
  0
LINE
  5
19D
330
1F
100
AcDbEntity
  8
0
  6
Continuous
 62
     7
370
    25
100
AcDbLine
 10
514.5598056967
 20
188.3116289382
 30
0.0
 11
477.0245301827
 21
188.3116289382
 31
0.0
  0
LINE
  5
19E
330
1F
100
AcDbEntity
  8
0
  6
Continuous
 62
     7
370
    25
100
AcDbLine
 10
477.0245301827
 20
197.3116289382
 30
0.0
 11
514.5598056967
 21
197.3116289382
 31
0.0
  0
LINE
  5
19F
330
1F
100
AcDbEntity
  8
0
  6
Continuous
 62
     7
370
    25
100
AcDbLine
 10
514.5598056967
 20
197.3116289382
 30
0.0
 11
514.5598056967
 21
188.3116289382
 31
0.0
  0
LWPOLYLINE
  5
1A0
330
1F
100
AcDbEntity
  8
0
  6
Continuous
 62
     7
370
    25
100
AcDbPolyline
 90
        9
 70
   128
 43
0.0
 10
512.7630600192
 20
200.3116289382
 10
513.1135877121
 20
200.2539847794
 10
513.4506448222
 20
200.0832675357
 10
513.761278434
 20
199.8060377751
 10
514.0335510719
 20
199.4329492817
 10
514.2569994511
 20
198.9783396372
 10
514.4230365758
 20
198.4596792353
 10
514.5252817324
 20
197.8968999042
 10
514.5598056967
 20
197.3116289382
  0
LINE
  5
1A1
330
1F
100
AcDbEntity
  8
0
  6
Continuous
 62
     7
370
    25
100
AcDbLine
 10
512.7630600192
 20
200.3116289382
 30
0.0
 11
474.0428903948
 21
200.3116289382
 31
0.0
  0
LWPOLYLINE
  5
1A2
330
1F
100
AcDbEntity
  8
0
  6
Continuous
 62
     7
370
    25
100
AcDbPolyline
 90
        9
 70
   128
 43
0.0
 10
514.5598056967
 20
188.3116289382
 10
514.5252817324
 20
187.7263579721
 10
514.4230365758
 20
187.1635786411
 10
514.2569994511
 20
186.6449182391
 10
514.0335510719
 20
186.1903085946
 10
513.761278434
 20
185.8172201012
 10
513.4506448222
 20
185.5399903406
 10
513.1135877121
 20
185.3692730969
 10
512.7630600192
 20
185.3116289382
  0
LINE
  5
1A3
330
1F
100
AcDbEntity
  8
0
  6
Continuous
 62
     7
370
    25
100
AcDbLine
 10
555.6566040724
 20
188.3116289382
 30
0.0
 11
514.5598056967
 21
188.3116289382
 31
0.0
  0
LWPOLYLINE
  5
1A4
330
1F
100
AcDbEntity
  8
0
  6
Continuous
 62
     7
370
    25
100
AcDbPolyline
 90
        9
 70
   128
 43
0.0
 10
555.6566040724
 20
188.3116289382
 10
555.6206103669
 20
187.7263579721
 10
555.5140124682
 20
187.1635786411
 10
555.3409068738
 20
186.6449182391
 10
555.1079459347
 20
186.1903085946
 10
554.824082209
 20
185.8172201012
 10
554.5002244206
 20
185.5399903406
 10
554.1488182427
 20
185.3692730969
 10
553.7833680175
 20
185.3116289382
  0
LINE
  5
1A5
330
1F
100
AcDbEntity
  8
0
  6
Continuous
 62
     7
370
    25
100
AcDbLine
 10
530.1366747956
 20
185.3116289382
 30
0.0
 11
553.7833680175
 21
185.3116289382
 31
0.0
  0
LINE
  5
1A6
330
1F
100
AcDbEntity
  8
0
  6
Continuous
 62
     7
370
    25
100
AcDbLine
 10
514.5598056967
 20
197.3116289382
 30
0.0
 11
555.6566040724
 21
197.3116289382
 31
0.0
  0
LINE
  5
1A7
330
1F
100
AcDbEntity
  8
0
  6
Continuous
 62
     7
370
    25
100
AcDbLine
 10
555.6566040724
 20
197.3116289382
 30
0.0
 11
555.6566040724
 21
188.3116289382
 31
0.0
  0
LWPOLYLINE
  5
1A8
330
1F
100
AcDbEntity
  8
0
  6
Continuous
 62
     7
370
    25
100
AcDbPolyline
 90
        9
 70
   128
 43
0.0
 10
553.7833680175
 20
200.3116289382
 10
554.1488182427
 20
200.2539847794
 10
554.5002244206
 20
200.0832675357
 10
554.824082209
 20
199.8060377751
 10
555.1079459347
 20
199.4329492817
 10
555.3409068738
 20
198.9783396372
 10
555.5140124682
 20
198.4596792353
 10
555.6206103669
 20
197.8968999042
 10
555.6566040724
 20
197.3116289382
  0
LINE
  5
1A9
330
1F
100
AcDbEntity
  8
0
  6
Continuous
 62
     7
370
    25
100
AcDbLine
 10
553.7833680175
 20
200.3116289382
 30
0.0
 11
512.7630600192
 21
200.3116289382
 31
0.0
  0
LINE
  5
1AA
330
1F
100
AcDbEntity
  8
0
  6
Continuous
 62
     7
370
    25
100
AcDbLine
 10
553.7833680175
 20
185.3116289382
 30
0.0
 11
556.4124838894
 21
185.3116289382
 31
0.0
  0
LINE
  5
1AB
330
1F
100
AcDbEntity
  8
0
  6
Continuous
 62
     7
370
    25
100
AcDbLine
 10
556.4124838894
 20
200.3116289382
 30
0.0
 11
553.7833680175
 21
200.3116289382
 31
0.0
  0
ARC
  5
1AC
330
1F
100
AcDbEntity
  8
0
  6
Continuous
 62
     7
370
    25
100
AcDbCircle
 10
28.2886455496
 20
153.0609913796
 30
0.0
 40
25.80009185295449
100
AcDbArc
 50
358.3356127363
 51
5.0044838902
  0
ARC
  5
1AD
330
1F
100
AcDbEntity
  8
0
  6
Continuous
 62
     7
370
    25
100
AcDbCircle
 10
28.2886455496
 20
142.5622664967
 30
0.0
 40
25.80009185295237
100
AcDbArc
 50
354.9955161098
 51
1.6643872637
  0
LINE
  5
1AE
330
1F
100
AcDbEntity
  8
0
  6
Continuous
 62
     7
370
    25
100
AcDbLine
 10
53.9903842106
 20
140.3116289382
 30
0.0
 11
39.7958036366
 21
140.3116289382
 31
0.0
  0
LINE
  5
1AF
330
1F
100
AcDbEntity
  8
0
  6
Continuous
 62
     7
370
    25
100
AcDbLine
 10
54.0778525082
 20
143.3116289382
 30
0.0
 11
54.0778525082
 21
152.3116289382
 31
0.0
  0
LINE
  5
1B0
330
1F
100
AcDbEntity
  8
0
  6
Continuous
 62
     7
370
    25
100
AcDbLine
 10
53.9903842106
 20
140.3116289382
 30
0.0
 11
54.1653208057
 21
140.3116289382
 31
0.0
  0
LINE
  5
1B1
330
1F
100
AcDbEntity
  8
0
  6
Continuous
 62
     7
370
    25
100
AcDbLine
 10
54.1653208057
 20
143.3116289382
 30
0.0
 11
54.0778525082
 21
143.3116289382
 31
0.0
  0
LINE
  5
1B2
330
1F
100
AcDbEntity
  8
0
  6
Continuous
 62
     7
370
    25
100
AcDbLine
 10
54.1653208057
 20
140.3116289382
 30
0.0
 11
54.1653208057
 21
143.3116289382
 31
0.0
  0
LINE
  5
1B3
330
1F
100
AcDbEntity
  8
0
  6
Continuous
 62
     7
370
    25
100
AcDbLine
 10
54.1653208057
 20
152.3116289382
 30
0.0
 11
54.1653208057
 21
155.3116289382
 31
0.0
  0
LINE
  5
1B4
330
1F
100
AcDbEntity
  8
0
  6
Continuous
 62
     7
370
    25
100
AcDbLine
 10
54.1653208057
 20
152.3116289382
 30
0.0
 11
54.0778525082
 21
152.3116289382
 31
0.0
  0
LINE
  5
1B5
330
1F
100
AcDbEntity
  8
0
  6
Continuous
 62
     7
370
    25
100
AcDbLine
 10
54.1653208057
 20
152.3116289382
 30
0.0
 11
54.1653208057
 21
143.3116289382
 31
0.0
  0
LINE
  5
1B6
330
1F
100
AcDbEntity
  8
0
  6
Continuous
 62
     7
370
    25
100
AcDbLine
 10
347.3973674454
 20
155.3116289382
 30
0.0
 11
505.9226947899
 21
155.3116289382
 31
0.0
  0
LINE
  5
1B7
330
1F
100
AcDbEntity
  8
0
  6
Continuous
 62
     7
370
    25
100
AcDbLine
 10
505.9226947899
 20
152.3116289382
 30
0.0
 11
505.9226947899
 21
155.3116289382
 31
0.0
  0
LINE
  5
1B8
330
1F
100
AcDbEntity
  8
0
  6
Continuous
 62
     7
370
    25
100
AcDbLine
 10
505.9226947899
 20
140.3116289382
 30
0.0
 11
444.9671145222
 21
140.3116289382
 31
0.0
  0
LINE
  5
1B9
330
1F
100
AcDbEntity
  8
0
  6
Continuous
 62
     7
370
    25
100
AcDbLine
 10
347.3416528623
 20
140.3116289382
 30
0.0
 11
345.5808964732
 21
140.3116289382
 31
0.0
  0
LINE
  5
1BA
330
1F
100
AcDbEntity
  8
0
  6
Continuous
 62
     7
370
    25
100
AcDbLine
 10
108.0581671807
 20
140.3116289382
 30
0.0
 11
54.1653208057
 21
140.3116289382
 31
0.0
  0
LINE
  5
1BB
330
1F
100
AcDbEntity
  8
0
  6
Continuous
 62
     7
370
    25
100
AcDbLine
 10
505.9226947899
 20
140.3116289382
 30
0.0
 11
505.9226947899
 21
143.3116289382
 31
0.0
  0
LINE
  5
1BC
330
1F
100
AcDbEntity
  8
0
  6
Continuous
 62
     7
370
    25
100
AcDbLine
 10
505.9226947899
 20
143.3116289382
 30
0.0
 11
505.9226947899
 21
152.3116289382
 31
0.0
  0
LINE
  5
1BD
330
1F
100
AcDbEntity
  8
0
  6
Continuous
 62
     7
370
    25
100
AcDbLine
 10
530.1366747956
 20
140.3116289382
 30
0.0
 11
505.9226947899
 21
140.3116289382
 31
0.0
  0
LINE
  5
1BE
330
1F
100
AcDbEntity
  8
0
  6
Continuous
 62
     7
370
    25
100
AcDbLine
 10
505.9226947899
 20
155.3116289382
 30
0.0
 11
530.1366747956
 21
155.3116289382
 31
0.0
  0
LINE
  5
1BF
330
1F
100
AcDbEntity
  8
0
  6
Continuous
 62
     7
370
    25
100
AcDbLine
 10
434.6830117178
 20
125.3116289382
 30
0.0
 11
425.3010276048
 21
125.3116289382
 31
0.0
  0
LWPOLYLINE
  5
1C0
330
1F
100
AcDbEntity
  8
0
  6
Continuous
 62
     7
370
    25
100
AcDbPolyline
 90
        9
 70
   128
 43
0.0
 10
425.3010276048
 20
125.3116289382
 10
424.9784957507
 20
125.3692730969
 10
424.668358615
 20
125.5399903406
 10
424.3825345937
 20
125.8172201012
 10
424.1320077437
 20
126.1903085946
 10
423.9264056714
 20
126.6449182391
 10
423.7736295491
 20
127.1635786411
 10
423.6795504775
 20
127.7263579721
 10
423.6477838626
 20
128.3116289382
  0
LINE
  5
1C1
330
1F
100
AcDbEntity
  8
0
  6
Continuous
 62
     7
370
    25
100
AcDbLine
 10
423.6477838626
 20
128.3116289382
 30
0.0
 11
437.0506183098
 21
128.3116289382
 31
0.0
  0
ARC
  5
1C2
330
1F
100
AcDbEntity
  8
0
  6
Continuous
 62
     7
370
    25
100
AcDbCircle
 10
434.3245865642
 20
128.0287590194
 30
0.0
 40
2.740668617127957
100
AcDbArc
 50
277.5146786386
 51
5.9241626063
  0
LINE
  5
1C3
330
1F
100
AcDbEntity
  8
0
  6
Continuous
 62
     7
370
    25
100
AcDbLine
 10
423.6477838626
 20
128.3116289382
 30
0.0
 11
423.6477838626
 21
137.3116289382
 31
0.0
  0
LINE
  5
1C4
330
1F
100
AcDbEntity
  8
0
  6
Continuous
 62
     7
370
    25
100
AcDbLine
 10
437.0506183098
 20
137.3116289382
 30
0.0
 11
423.6477838626
 21
137.3116289382
 31
0.0
  0
LINE
  5
1C5
330
1F
100
AcDbEntity
  8
0
  6
Continuous
 62
     7
370
    25
100
AcDbLine
 10
437.0506183098
 20
128.3116289382
 30
0.0
 11
437.0506183098
 21
137.3116289382
 31
0.0
  0
LWPOLYLINE
  5
1C6
330
1F
100
AcDbEntity
  8
0
  6
Continuous
 62
     7
370
    25
100
AcDbPolyline
 90
        9
 70
   128
 43
0.0
 10
423.6477838626
 20
137.3116289382
 10
423.6795504775
 20
137.8968999042
 10
423.7736295491
 20
138.4596792353
 10
423.9264056714
 20
138.9783396372
 10
424.1320077437
 20
139.4329492817
 10
424.3825345937
 20
139.8060377751
 10
424.668358615
 20
140.0832675357
 10
424.9784957507
 20
140.2539847794
 10
425.3010276048
 20
140.3116289382
  0
LINE
  5
1C7
330
1F
100
AcDbEntity
  8
0
  6
Continuous
 62
     7
370
    25
100
AcDbLine
 10
425.3010276048
 20
140.3116289382
 30
0.0
 11
434.6830117178
 21
140.3116289382
 31
0.0
  0
ARC
  5
1C8
330
1F
100
AcDbEntity
  8
0
  6
Continuous
 62
     7
370
    25
100
AcDbCircle
 10
434.3245865642
 20
137.594498857
 30
0.0
 40
2.740668617127872
100
AcDbArc
 50
354.0758373937
 51
82.4853213614
  0
LINE
  5
1C9
330
1F
100
AcDbEntity
  8
0
  6
Continuous
 62
     7
370
    25
100
AcDbLine
 10
425.3010276048
 20
125.3116289382
 30
0.0
 11
341.8649701194
 21
125.3116289382
 31
0.0
  0
LINE
  5
1CA
330
1F
100
AcDbEntity
  8
0
  6
Continuous
 62
     7
370
    25
100
AcDbLine
 10
347.3416528623
 20
140.3116289382
 30
0.0
 11
425.3010276048
 21
140.3116289382
 31
0.0
  0
LINE
  5
1CB
330
1F
100
AcDbEntity
  8
0
  6
Continuous
 62
     7
370
    25
100
AcDbLine
 10
434.6830117178
 20
140.3116289382
 30
0.0
 11
441.9078392049
 21
140.3116289382
 31
0.0
  0
LINE
  5
1CC
330
1F
100
AcDbEntity
  8
0
  6
Continuous
 62
     7
370
    25
100
AcDbLine
 10
441.9078392049
 20
125.3116289382
 30
0.0
 11
434.6830117178
 21
125.3116289382
 31
0.0
  0
ARC
  5
1CD
330
1F
100
AcDbEntity
  8
0
  6
Continuous
 62
     7
370
    25
100
AcDbCircle
 10
474.0336820243
 20
128.3024769235
 30
0.0
 40
2.990862160942915
100
AcDbArc
 50
270.1764045184
 51
0.1753249069
  0
LINE
  5
1CE
330
1F
100
AcDbEntity
  8
0
  6
Continuous
 62
     7
370
    25
100
AcDbLine
 10
474.0428903948
 20
125.3116289382
 30
0.0
 11
441.9078392049
 21
125.3116289382
 31
0.0
  0
ARC
  5
1CF
330
1F
100
AcDbEntity
  8
0
  6
Continuous
 62
     7
370
    25
100
AcDbCircle
 10
474.0336820243
 20
137.3207809528
 30
0.0
 40
2.990862160942844
100
AcDbArc
 50
359.8246750931
 51
89.8235954816
  0
LINE
  5
1D0
330
1F
100
AcDbEntity
  8
0
  6
Continuous
 62
     7
370
    25
100
AcDbLine
 10
441.9078392049
 20
140.3116289382
 30
0.0
 11
444.9671145222
 21
140.3116289382
 31
0.0
  0
LINE
  5
1D1
330
1F
100
AcDbEntity
  8
0
  6
Continuous
 62
     7
370
    25
100
AcDbLine
 10
477.0245301827
 20
128.3116289382
 30
0.0
 11
477.0245301827
 21
137.3116289382
 31
0.0
  0
LINE
  5
1D2
330
1F
100
AcDbEntity
  8
0
  6
Continuous
 62
     7
370
    25
100
AcDbLine
 10
477.0245301827
 20
128.3116289382
 30
0.0
 11
514.5598056967
 21
128.3116289382
 31
0.0
  0
LINE
  5
1D3
330
1F
100
AcDbEntity
  8
0
  6
Continuous
 62
     7
370
    25
100
AcDbLine
 10
514.5598056967
 20
137.3116289382
 30
0.0
 11
477.0245301827
 21
137.3116289382
 31
0.0
  0
LINE
  5
1D4
330
1F
100
AcDbEntity
  8
0
  6
Continuous
 62
     7
370
    25
100
AcDbLine
 10
514.5598056967
 20
128.3116289382
 30
0.0
 11
514.5598056967
 21
137.3116289382
 31
0.0
  0
LWPOLYLINE
  5
1D5
330
1F
100
AcDbEntity
  8
0
  6
Continuous
 62
     7
370
    25
100
AcDbPolyline
 90
        9
 70
   128
 43
0.0
 10
514.5598056967
 20
137.3116289382
 10
514.5252817324
 20
137.8968999042
 10
514.4230365758
 20
138.4596792353
 10
514.2569994511
 20
138.9783396372
 10
514.0335510719
 20
139.4329492817
 10
513.761278434
 20
139.8060377751
 10
513.4506448222
 20
140.0832675357
 10
513.1135877121
 20
140.2539847794
 10
512.7630600192
 20
140.3116289382
  0
LWPOLYLINE
  5
1D6
330
1F
100
AcDbEntity
  8
0
  6
Continuous
 62
     7
370
    25
100
AcDbPolyline
 90
        9
 70
   128
 43
0.0
 10
512.7630600192
 20
125.3116289382
 10
513.1135877121
 20
125.3692730969
 10
513.4506448222
 20
125.5399903406
 10
513.761278434
 20
125.8172201012
 10
514.0335510719
 20
126.1903085946
 10
514.2569994511
 20
126.6449182391
 10
514.4230365758
 20
127.1635786411
 10
514.5252817324
 20
127.7263579721
 10
514.5598056967
 20
128.3116289382
  0
LINE
  5
1D7
330
1F
100
AcDbEntity
  8
0
  6
Continuous
 62
     7
370
    25
100
AcDbLine
 10
512.7630600192
 20
125.3116289382
 30
0.0
 11
474.0428903948
 21
125.3116289382
 31
0.0
  0
LINE
  5
1D8
330
1F
100
AcDbEntity
  8
0
  6
Continuous
 62
     7
370
    25
100
AcDbLine
 10
514.5598056967
 20
128.3116289382
 30
0.0
 11
555.6566040724
 21
128.3116289382
 31
0.0
  0
LINE
  5
1D9
330
1F
100
AcDbEntity
  8
0
  6
Continuous
 62
     7
370
    25
100
AcDbLine
 10
555.6566040724
 20
137.3116289382
 30
0.0
 11
514.5598056967
 21
137.3116289382
 31
0.0
  0
LINE
  5
1DA
330
1F
100
AcDbEntity
  8
0
  6
Continuous
 62
     7
370
    25
100
AcDbLine
 10
555.6566040724
 20
128.3116289382
 30
0.0
 11
555.6566040724
 21
137.3116289382
 31
0.0
  0
LWPOLYLINE
  5
1DB
330
1F
100
AcDbEntity
  8
0
  6
Continuous
 62
     7
370
    25
100
AcDbPolyline
 90
        9
 70
   128
 43
0.0
 10
555.6566040724
 20
137.3116289382
 10
555.6206103669
 20
137.8968999042
 10
555.5140124682
 20
138.4596792353
 10
555.3409068738
 20
138.9783396372
 10
555.1079459347
 20
139.4329492817
 10
554.824082209
 20
139.8060377751
 10
554.5002244206
 20
140.0832675357
 10
554.1488182427
 20
140.2539847794
 10
553.7833680175
 20
140.3116289382
  0
LINE
  5
1DC
330
1F
100
AcDbEntity
  8
0
  6
Continuous
 62
     7
370
    25
100
AcDbLine
 10
530.1366747956
 20
140.3116289382
 30
0.0
 11
553.7833680175
 21
140.3116289382
 31
0.0
  0
LWPOLYLINE
  5
1DD
330
1F
100
AcDbEntity
  8
0
  6
Continuous
 62
     7
370
    25
100
AcDbPolyline
 90
        9
 70
   128
 43
0.0
 10
553.7833680175
 20
125.3116289382
 10
554.1488182427
 20
125.3692730969
 10
554.5002244206
 20
125.5399903406
 10
554.824082209
 20
125.8172201012
 10
555.1079459347
 20
126.1903085946
 10
555.3409068738
 20
126.6449182391
 10
555.5140124682
 20
127.1635786411
 10
555.6206103669
 20
127.7263579721
 10
555.6566040724
 20
128.3116289382
  0
LINE
  5
1DE
330
1F
100
AcDbEntity
  8
0
  6
Continuous
 62
     7
370
    25
100
AcDbLine
 10
553.7833680175
 20
125.3116289382
 30
0.0
 11
512.7630600192
 21
125.3116289382
 31
0.0
  0
LINE
  5
1DF
330
1F
100
AcDbEntity
  8
0
  6
Continuous
 62
     7
370
    25
100
AcDbLine
 10
553.7833680175
 20
140.3116289382
 30
0.0
 11
556.4124838894
 21
140.3116289382
 31
0.0
  0
LINE
  5
1E0
330
1F
100
AcDbEntity
  8
0
  6
Continuous
 62
     7
370
    25
100
AcDbLine
 10
556.4124838894
 20
125.3116289382
 30
0.0
 11
553.7833680175
 21
125.3116289382
 31
0.0
  0
LINE
  5
1E1
330
1F
100
AcDbEntity
  8
0
  6
Continuous
 62
     7
370
    25
100
AcDbLine
 10
505.9226947899
 20
158.3116289382
 30
0.0
 11
505.9226947899
 21
167.3116289382
 31
0.0
  0
LINE
  5
1E2
330
1F
100
AcDbEntity
  8
0
  6
Continuous
 62
     7
370
    25
100
AcDbLine
 10
505.9226947899
 20
155.3116289382
 30
0.0
 11
505.9226947899
 21
158.3116289382
 31
0.0
  0
LINE
  5
1E3
330
1F
100
AcDbEntity
  8
0
  6
Continuous
 62
     7
370
    25
100
AcDbLine
 10
505.9226947899
 20
170.3116289382
 30
0.0
 11
505.9226947899
 21
167.3116289382
 31
0.0
  0
LINE
  5
1E4
330
1F
100
AcDbEntity
  8
0
  6
Continuous
 62
     7
370
    25
100
AcDbLine
 10
538.6209006551
 20
158.3116289382
 30
0.0
 11
538.6209006551
 21
167.3116289382
 31
0.0
  0
ARC
  5
1E5
330
1F
100
AcDbEntity
  8
0
  6
Continuous
 62
     7
370
    25
100
AcDbCircle
 10
543.2267772063
 20
157.6232794588
 30
0.0
 40
4.657029504988177
100
AcDbArc
 50
171.5000411676
 51
209.7607083445
  0
LINE
  5
1E6
330
1F
100
AcDbEntity
  8
0
  6
Continuous
 62
     7
370
    25
100
AcDbLine
 10
539.1839816784
 20
155.3116289382
 30
0.0
 11
530.1706867899
 21
155.3116289382
 31
0.0
  0
LINE
  5
1E7
330
1F
100
AcDbEntity
  8
0
  6
Continuous
 62
     7
370
    25
100
AcDbLine
 10
530.1706867899
 20
170.3116289382
 30
0.0
 11
539.1839816784
 21
170.3116289382
 31
0.0
  0
ARC
  5
1E8
330
1F
100
AcDbEntity
  8
0
  6
Continuous
 62
     7
370
    25
100
AcDbCircle
 10
543.9563628808
 20
167.8630398015
 30
0.0
 40
5.363880228151735
100
AcDbArc
 50
152.8387779043
 51
185.9004725836
  0
LINE
  5
1E9
330
1F
100
AcDbEntity
  8
0
  6
Continuous
 62
     7
370
    25
100
AcDbLine
 10
538.7421132267
 20
158.3116289382
 30
0.0
 11
538.7421132267
 21
167.3116289382
 31
0.0
  0
LINE
  5
1EA
330
1F
100
AcDbEntity
  8
0
  6
Continuous
 62
     7
370
    25
100
AcDbLine
 10
539.1839816784
 20
170.3116289382
 30
0.0
 11
539.7010732914
 21
170.3116289382
 31
0.0
  0
LINE
  5
1EB
330
1F
100
AcDbEntity
  8
0
  6
Continuous
 62
     7
370
    25
100
AcDbLine
 10
539.1839816784
 20
155.3116289382
 30
0.0
 11
539.7010732914
 21
155.3116289382
 31
0.0
  0
LINE
  5
1EC
330
1F
100
AcDbEntity
  8
0
  6
Continuous
 62
     7
370
    25
100
AcDbLine
 10
542.3242463485
 20
167.3116289382
 30
0.0
 11
542.3242463485
 21
158.3116289382
 31
0.0
  0
LINE
  5
1ED
330
1F
100
AcDbEntity
  8
0
  6
Continuous
 62
     7
370
    25
100
AcDbLine
 10
538.7421132267
 20
167.3116289382
 30
0.0
 11
542.3242463485
 21
167.3116289382
 31
0.0
  0
LINE
  5
1EE
330
1F
100
AcDbEntity
  8
0
  6
Continuous
 62
     7
370
    25
100
AcDbLine
 10
542.3242463485
 20
158.3116289382
 30
0.0
 11
538.7421132267
 21
158.3116289382
 31
0.0
  0
LINE
  5
1EF
330
1F
100
AcDbEntity
  8
0
  6
Continuous
 62
     7
370
    25
100
AcDbLine
 10
544.8606563057
 20
158.3116289382
 30
0.0
 11
544.8606563057
 21
167.3116289382
 31
0.0
  0
LINE
  5
1F0
330
1F
100
AcDbEntity
  8
0
  6
Continuous
 62
     7
370
    25
100
AcDbLine
 10
542.3242463485
 20
167.3116289382
 30
0.0
 11
544.8606563057
 21
167.3116289382
 31
0.0
  0
LINE
  5
1F1
330
1F
100
AcDbEntity
  8
0
  6
Continuous
 62
     7
370
    25
100
AcDbLine
 10
542.3242463485
 20
158.3116289382
 30
0.0
 11
544.8606563057
 21
158.3116289382
 31
0.0
  0
LINE
  5
1F2
330
1F
100
AcDbEntity
  8
0
  6
Continuous
 62
     7
370
    25
100
AcDbLine
 10
545.2250317728
 20
158.3116289382
 30
0.0
 11
563.607660604
 21
158.3116289382
 31
0.0
  0
LWPOLYLINE
  5
1F3
330
1F
100
AcDbEntity
  8
0
  6
Continuous
 62
     7
370
    25
100
AcDbPolyline
 90
        9
 70
   128
 43
0.0
 10
563.607660604
 20
158.3116289382
 10
563.5765072651
 20
157.7263579721
 10
563.4842444537
 20
157.1635786411
 10
563.3344177779
 20
156.6449182391
 10
563.132784993
 20
156.1903085946
 10
562.8870947336
 20
155.8172201012
 10
562.6067887387
 20
155.5399903406
 10
562.3026390104
 20
155.3692730969
 10
561.9863338524
 20
155.3116289382
  0
LINE
  5
1F4
330
1F
100
AcDbEntity
  8
0
  6
Continuous
 62
     7
370
    25
100
AcDbLine
 10
561.9863338524
 20
155.3116289382
 30
0.0
 11
545.5472528713
 21
155.3116289382
 31
0.0
  0
ARC
  5
1F5
330
1F
100
AcDbEntity
  8
0
  6
Continuous
 62
     7
370
    25
100
AcDbCircle
 10
555.2397772572
 20
157.8699786291
 30
0.0
 40
10.02447914417377
100
AcDbArc
 50
177.4748920374
 51
194.7860429908
  0
LINE
  5
1F6
330
1F
100
AcDbEntity
  8
0
  6
Continuous
 62
     7
370
    25
100
AcDbLine
 10
545.5472528713
 20
155.3116289382
 30
0.0
 11
539.7010732914
 21
155.3116289382
 31
0.0
  0
LINE
  5
1F7
330
1F
100
AcDbEntity
  8
0
  6
Continuous
 62
     7
370
    25
100
AcDbLine
 10
563.607660604
 20
167.3116289382
 30
0.0
 11
545.2250317728
 21
167.3116289382
 31
0.0
  0
LINE
  5
1F8
330
1F
100
AcDbEntity
  8
0
  6
Continuous
 62
     7
370
    25
100
AcDbLine
 10
563.607660604
 20
158.3116289382
 30
0.0
 11
563.607660604
 21
167.3116289382
 31
0.0
  0
LINE
  5
1F9
330
1F
100
AcDbEntity
  8
0
  6
Continuous
 62
     7
370
    25
100
AcDbLine
 10
544.8606563057
 20
167.3116289382
 30
0.0
 11
545.2250317728
 21
167.3116289382
 31
0.0
  0
LINE
  5
1FA
330
1F
100
AcDbEntity
  8
0
  6
Continuous
 62
     7
370
    25
100
AcDbLine
 10
544.8606563057
 20
158.3116289382
 30
0.0
 11
545.2250317728
 21
158.3116289382
 31
0.0
  0
LINE
  5
1FB
330
1F
100
AcDbEntity
  8
0
  6
Continuous
 62
     7
370
    25
100
AcDbLine
 10
545.5472528713
 20
170.3116289382
 30
0.0
 11
539.7010732914
 21
170.3116289382
 31
0.0
  0
ARC
  5
1FC
330
1F
100
AcDbEntity
  8
0
  6
Continuous
 62
     7
370
    25
100
AcDbCircle
 10
552.2509107434
 20
168.074304531
 30
0.0
 40
7.067152847377154
100
AcDbArc
 50
161.5437325779
 51
186.1953323939
  0
LINE
  5
1FD
330
1F
100
AcDbEntity
  8
0
  6
Continuous
 62
     7
370
    25
100
AcDbLine
 10
545.5472528713
 20
170.3116289382
 30
0.0
 11
561.9863338524
 21
170.3116289382
 31
0.0
  0
LWPOLYLINE
  5
1FE
330
1F
100
AcDbEntity
  8
0
  6
Continuous
 62
     7
370
    25
100
AcDbPolyline
 90
        9
 70
   128
 43
0.0
 10
561.9863338524
 20
170.3116289382
 10
562.3026390104
 20
170.2539847794
 10
562.6067887387
 20
170.0832675357
 10
562.8870947336
 20
169.8060377751
 10
563.132784993
 20
169.4329492817
 10
563.3344177779
 20
168.9783396372
 10
563.4842444537
 20
168.4596792353
 10
563.5765072651
 20
167.8968999042
 10
563.607660604
 20
167.3116289382
  0
LINE
  5
1FF
330
1F
100
AcDbEntity
  8
0
  6
Continuous
 62
     7
370
    25
100
AcDbLine
 10
563.607660604
 20
158.3116289382
 30
0.0
 11
564.2874191444
 21
158.3116289382
 31
0.0
  0
ARC
  5
200
330
1F
100
AcDbEntity
  8
0
  6
Continuous
 62
     7
370
    25
100
AcDbCircle
 10
569.1328128081
 20
157.7412298275
 30
0.0
 40
4.878851801615948
100
AcDbArc
 50
173.2860484247
 51
209.8668575342
  0
LINE
  5
201
330
1F
100
AcDbEntity
  8
0
  6
Continuous
 62
     7
370
    25
100
AcDbLine
 10
564.9019459442
 20
155.3116289382
 30
0.0
 11
561.9863338524
 21
155.3116289382
 31
0.0
  0
ARC
  5
202
330
1F
100
AcDbEntity
  8
0
  6
Continuous
 62
     7
370
    25
100
AcDbCircle
 10
569.097153357
 20
167.8893326116
 30
0.0
 40
4.84430435978799
100
AcDbArc
 50
149.9980313454
 51
186.8490626957
  0
LINE
  5
203
330
1F
100
AcDbEntity
  8
0
  6
Continuous
 62
     7
370
    25
100
AcDbLine
 10
564.2874191444
 20
167.3116289382
 30
0.0
 11
563.607660604
 21
167.3116289382
 31
0.0
  0
LINE
  5
204
330
1F
100
AcDbEntity
  8
0
  6
Continuous
 62
     7
370
    25
100
AcDbLine
 10
561.9863338524
 20
170.3116289382
 30
0.0
 11
564.9019459442
 21
170.3116289382
 31
0.0
  0
LINE
  5
205
330
1F
100
AcDbEntity
  8
0
  6
Continuous
 62
     7
370
    25
100
AcDbLine
 10
564.2874191444
 20
158.3116289382
 30
0.0
 11
564.2874191444
 21
167.3116289382
 31
0.0
  0
LINE
  5
206
330
1F
100
AcDbEntity
  8
0
  6
Continuous
 62
     7
370
    25
100
AcDbLine
 10
564.614646199
 20
158.3116289382
 30
0.0
 11
564.614646199
 21
167.3116289382
 31
0.0
  0
LINE
  5
207
330
1F
100
AcDbEntity
  8
0
  6
Continuous
 62
     7
370
    25
100
AcDbLine
 10
564.9019459442
 20
155.3116289382
 30
0.0
 11
565.0607158456
 21
155.3116289382
 31
0.0
  0
LINE
  5
208
330
1F
100
AcDbEntity
  8
0
  6
Continuous
 62
     7
370
    25
100
AcDbLine
 10
564.9019459442
 20
170.3116289382
 30
0.0
 11
565.0607158456
 21
170.3116289382
 31
0.0
  0
LINE
  5
209
330
1F
100
AcDbEntity
  8
0
  6
Continuous
 62
     7
370
    25
100
AcDbLine
 10
567.9111020199
 20
167.3116289382
 30
0.0
 11
567.9111020199
 21
158.3116289382
 31
0.0
  0
LINE
  5
20A
330
1F
100
AcDbEntity
  8
0
  6
Continuous
 62
     7
370
    25
100
AcDbLine
 10
564.614646199
 20
167.3116289382
 30
0.0
 11
567.9111020199
 21
167.3116289382
 31
0.0
  0
LINE
  5
20B
330
1F
100
AcDbEntity
  8
0
  6
Continuous
 62
     7
370
    25
100
AcDbLine
 10
567.9111020199
 20
158.3116289382
 30
0.0
 11
564.614646199
 21
158.3116289382
 31
0.0
  0
LINE
  5
20C
330
1F
100
AcDbEntity
  8
0
  6
Continuous
 62
     7
370
    25
100
AcDbLine
 10
570.5901010941
 20
158.3116289382
 30
0.0
 11
570.5901010941
 21
167.3116289382
 31
0.0
  0
LINE
  5
20D
330
1F
100
AcDbEntity
  8
0
  6
Continuous
 62
     7
370
    25
100
AcDbLine
 10
567.9111020199
 20
167.3116289382
 30
0.0
 11
570.5901010941
 21
167.3116289382
 31
0.0
  0
LINE
  5
20E
330
1F
100
AcDbEntity
  8
0
  6
Continuous
 62
     7
370
    25
100
AcDbLine
 10
567.9111020199
 20
158.3116289382
 30
0.0
 11
570.5901010941
 21
158.3116289382
 31
0.0
  0
LINE
  5
20F
330
1F
100
AcDbEntity
  8
0
  6
Continuous
 62
     7
370
    25
100
AcDbLine
 10
571.0217356637
 20
158.3116289382
 30
0.0
 11
580.947162713
 21
158.3116289382
 31
0.0
  0
LINE
  5
210
330
1F
100
AcDbEntity
  8
0
  6
Continuous
 62
     7
370
    25
100
AcDbLine
 10
580.947162713
 20
167.3116289382
 30
0.0
 11
571.0217356637
 21
167.3116289382
 31
0.0
  0
LINE
  5
211
330
1F
100
AcDbEntity
  8
0
  6
Continuous
 62
     7
370
    25
100
AcDbLine
 10
570.5901010941
 20
167.3116289382
 30
0.0
 11
571.0217356637
 21
167.3116289382
 31
0.0
  0
LINE
  5
212
330
1F
100
AcDbEntity
  8
0
  6
Continuous
 62
     7
370
    25
100
AcDbLine
 10
570.5901010941
 20
158.3116289382
 30
0.0
 11
571.0217356637
 21
158.3116289382
 31
0.0
  0
ARC
  5
213
330
1F
100
AcDbEntity
  8
0
  6
Continuous
 62
     7
370
    25
100
AcDbCircle
 10
546.9046591645
 20
157.1971904963
 30
0.0
 40
24.14281159905845
100
AcDbArc
 50
355.5206190208
 51
2.6457281756
  0
LINE
  5
214
330
1F
100
AcDbEntity
  8
0
  6
Continuous
 62
     7
370
    25
100
AcDbLine
 10
570.9737266478
 20
155.3116289382
 30
0.0
 11
565.0607158456
 21
155.3116289382
 31
0.0
  0
LINE
  5
215
330
1F
100
AcDbEntity
  8
0
  6
Continuous
 62
     7
370
    25
100
AcDbLine
 10
577.947162713
 20
155.3116289382
 30
0.0
 11
570.9737266478
 21
155.3116289382
 31
0.0
  0
LINE
  5
216
330
1F
100
AcDbEntity
  8
0
  6
Continuous
 62
     7
370
    25
100
AcDbLine
 10
570.9737266478
 20
170.3116289382
 30
0.0
 11
577.947162713
 21
170.3116289382
 31
0.0
  0
ARC
  5
217
330
1F
100
AcDbEntity
  8
0
  6
Continuous
 62
     7
370
    25
100
AcDbCircle
 10
549.5410002675
 20
168.4682567606
 30
0.0
 40
21.5118521071078
100
AcDbArc
 50
356.9178914113
 51
4.9157613922
  0
LINE
  5
218
330
1F
100
AcDbEntity
  8
0
  6
Continuous
 62
     7
370
    25
100
AcDbLine
 10
570.9737266478
 20
170.3116289382
 30
0.0
 11
565.0607158456
 21
170.3116289382
 31
0.0
  0
LINE
  5
219
330
1F
100
AcDbEntity
  8
0
  6
Continuous
 62
     7
370
    25
100
AcDbLine
 10
-12.7381648771
 20
143.3116289382
 30
0.0
 11
0.515232148
 21
143.3116289382
 31
0.0
  0
LINE
  5
21A
330
1F
100
AcDbEntity
  8
0
  6
Continuous
 62
     7
370
    25
100
AcDbLine
 10
-17.2481300952
 20
143.3116289382
 30
0.0
 11
-12.7381648771
 21
143.3116289382
 31
0.0
  0
LINE
  5
21B
330
1F
100
AcDbEntity
  8
0
  6
Continuous
 62
     7
370
    25
100
AcDbLine
 10
-17.2481300952
 20
152.3116289382
 30
0.0
 11
-17.2481300952
 21
143.3116289382
 31
0.0
  0
LINE
  5
21C
330
1F
100
AcDbEntity
  8
0
  6
Continuous
 62
     7
370
    25
100
AcDbLine
 10
0.515232148
 20
152.3116289382
 30
0.0
 11
-17.2481300952
 21
152.3116289382
 31
0.0
  0
LINE
  5
21D
330
1F
100
AcDbEntity
  8
0
  6
Continuous
 62
     7
370
    25
100
AcDbLine
 10
0.515232148
 20
143.3116289382
 30
0.0
 11
0.515232148
 21
152.3116289382
 31
0.0
  0
LWPOLYLINE
  5
21E
330
1F
100
AcDbEntity
  8
0
  6
Continuous
 62
     7
370
    25
100
AcDbPolyline
 90
        9
 70
   128
 43
0.0
 10
-1.36638903
 20
140.3116289382
 10
-0.9993029485
 20
140.3692730969
 10
-0.6463237792
 20
140.5399903406
 10
-0.3210163137
 20
140.8172201012
 10
-0.0358819354
 20
141.1903085946
 10
0.1981218014
 20
141.6449182391
 10
0.3720022643
 20
142.1635786411
 10
0.4790773247
 20
142.7263579721
 10
0.515232148
 20
143.3116289382
  0
LINE
  5
21F
330
1F
100
AcDbEntity
  8
0
  6
Continuous
 62
     7
370
    25
100
AcDbLine
 10
-1.36638903
 20
140.3116289382
 30
0.0
 11
-10.2003152415
 21
140.3116289382
 31
0.0
  0
ARC
  5
220
330
1F
100
AcDbEntity
  8
0
  6
Continuous
 62
     7
370
    25
100
AcDbCircle
 10
-9.771710758
 20
143.2476536444
 30
0.0
 40
2.967143892524662
100
AcDbArc
 50
178.7645363604
 51
261.6945580911
  0
LWPOLYLINE
  5
221
330
1F
100
AcDbEntity
  8
0
  6
Continuous
 62
     7
370
    25
100
AcDbPolyline
 90
        9
 70
   128
 43
0.0
 10
0.515232148
 20
152.3116289382
 10
0.4790773247
 20
152.8968999042
 10
0.3720022643
 20
153.4596792352
 10
0.1981218014
 20
153.9783396372
 10
-0.0358819354
 20
154.4329492817
 10
-0.3210163137
 20
154.8060377751
 10
-0.6463237792
 20
155.0832675357
 10
-0.9993029485
 20
155.2539847794
 10
-1.36638903
 20
155.3116289382
  0
ARC
  5
222
330
1F
100
AcDbEntity
  8
0
  6
Continuous
 62
     7
370
    25
100
AcDbCircle
 10
-14.5643834136
 20
152.644384885
 30
0.0
 40
2.704297093777196
100
AcDbArc
 50
99.4955359289
 51
187.0679928993
  0
LINE
  5
223
330
1F
100
AcDbEntity
  8
0
  6
Continuous
 62
     7
370
    25
100
AcDbLine
 10
39.7958036366
 20
140.3116289382
 30
0.0
 11
-1.36638903
 21
140.3116289382
 31
0.0
  0
LINE
  5
224
330
1F
100
AcDbEntity
  8
0
  6
Continuous
 62
     7
370
    25
100
AcDbLine
 10
-17.2481300952
 20
152.3116289382
 30
0.0
 11
-19.2042319928
 21
152.3116289382
 31
0.0
  0
ARC
  5
225
330
1F
100
AcDbEntity
  8
0
  6
Continuous
 62
     7
370
    25
100
AcDbCircle
 10
-11.0006218399
 20
153.0550247213
 30
0.0
 40
8.237223854684284
100
AcDbArc
 50
164.1004281196
 51
185.1778940936
  0
LINE
  5
226
330
1F
100
AcDbEntity
  8
0
  6
Continuous
 62
     7
370
    25
100
AcDbLine
 10
-19.2042319928
 20
143.3116289382
 30
0.0
 11
-19.2042319928
 21
152.3116289382
 31
0.0
  0
LINE
  5
227
330
1F
100
AcDbEntity
  8
0
  6
Continuous
 62
     7
370
    25
100
AcDbLine
 10
-17.2481300952
 20
143.3116289382
 30
0.0
 11
-19.2042319928
 21
143.3116289382
 31
0.0
  0
LINE
  5
228
330
1F
100
AcDbEntity
  8
0
  6
Continuous
 62
     7
370
    25
100
AcDbLine
 10
-22.4224189381
 20
143.3116289382
 30
0.0
 11
-19.2042319928
 21
143.3116289382
 31
0.0
  0
ARC
  5
229
330
1F
100
AcDbEntity
  8
0
  6
Continuous
 62
     7
370
    25
100
AcDbCircle
 10
-17.1282354214
 20
143.156427161
 30
0.0
 40
2.850131530201895
100
AcDbArc
 50
273.5056715935
 51
3.121542745
  0
LINE
  5
22A
330
1F
100
AcDbEntity
  8
0
  6
Continuous
 62
     7
370
    25
100
AcDbLine
 10
-16.9539574524
 20
140.3116289382
 30
0.0
 11
-20.2099919368
 21
140.3116289382
 31
0.0
  0
ARC
  5
22B
330
1F
100
AcDbEntity
  8
0
  6
Continuous
 62
     7
370
    25
100
AcDbCircle
 10
-19.7461159805
 20
142.9695317079
 30
0.0
 40
2.698078582261318
100
AcDbArc
 50
172.7156942174
 51
260.1000488652
  0
LINE
  5
22C
330
1F
100
AcDbEntity
  8
0
  6
Continuous
 62
     7
370
    25
100
AcDbLine
 10
-22.4224189381
 20
143.3116289382
 30
0.0
 11
-22.4224189381
 21
152.3116289382
 31
0.0
  0
LINE
  5
22D
330
1F
100
AcDbEntity
  8
0
  6
Continuous
 62
     7
370
    25
100
AcDbLine
 10
-19.2042319928
 20
152.3116289382
 30
0.0
 11
-22.4224189381
 21
152.3116289382
 31
0.0
  0
ARC
  5
22E
330
1F
100
AcDbEntity
  8
0
  6
Continuous
 62
     7
370
    25
100
AcDbCircle
 10
-19.7461159805
 20
152.6537261685
 30
0.0
 40
2.698078582234033
100
AcDbArc
 50
99.8999511342
 51
187.2843057831
  0
LINE
  5
22F
330
1F
100
AcDbEntity
  8
0
  6
Continuous
 62
     7
370
    25
100
AcDbLine
 10
-37.13224179
 20
143.3116289382
 30
0.0
 11
-22.4224189381
 21
143.3116289382
 31
0.0
  0
LINE
  5
230
330
1F
100
AcDbEntity
  8
0
  6
Continuous
 62
     7
370
    25
100
AcDbLine
 10
-40.0338884351
 20
143.3116289382
 30
0.0
 11
-37.13224179
 21
143.3116289382
 31
0.0
  0
LINE
  5
231
330
1F
100
AcDbEntity
  8
0
  6
Continuous
 62
     7
370
    25
100
AcDbLine
 10
-20.2099919368
 20
140.3116289382
 30
0.0
 11
-32.3013656293
 21
140.3116289382
 31
0.0
  0
LWPOLYLINE
  5
232
330
1F
100
AcDbEntity
  8
0
  6
Continuous
 62
     7
370
    25
100
AcDbPolyline
 90
        9
 70
   128
 43
0.0
 10
-32.3013656293
 20
140.3116289382
 10
-32.3110897063
 20
140.3116354345
 10
-33.6160999957
 20
140.4309711934
 10
-34.8799937354
 20
140.7928638859
 10
-35.6111933534
 20
141.1506292349
 10
-36.2909548254
 20
141.6460364469
 10
-36.8493800982
 20
142.3197998972
 10
-37.0699642524
 20
142.841620618
 10
-37.13224179
 20
143.3116289382
  0
LINE
  5
233
330
1F
100
AcDbEntity
  8
0
  6
Continuous
 62
     7
370
    25
100
AcDbLine
 10
-11.4802915507
 20
140.3116289382
 30
0.0
 11
-16.9539574524
 21
140.3116289382
 31
0.0
  0
LINE
  5
234
330
1F
100
AcDbEntity
  8
0
  6
Continuous
 62
     7
370
    25
100
AcDbLine
 10
-32.3013656293
 20
140.3116289382
 30
0.0
 11
-37.4692653974
 21
140.3116289382
 31
0.0
  0
ARC
  5
235
330
1F
100
AcDbEntity
  8
0
  6
Continuous
 62
     7
370
    25
100
AcDbCircle
 10
-74.263966499
 20
143.3038553014
 30
0.0
 40
2.992236566717281
100
AcDbArc
 50
179.8511491091
 51
269.8503716499
  0
LINE
  5
236
330
1F
100
AcDbEntity
  8
0
  6
Continuous
 62
     7
370
    25
100
AcDbLine
 10
-37.4692653974
 20
140.3116289382
 30
0.0
 11
-40.0232159597
 21
140.3116289382
 31
0.0
  0
LINE
  5
237
330
1F
100
AcDbEntity
  8
0
  6
Continuous
 62
     7
370
    25
100
AcDbLine
 10
-74.0232159597
 20
140.3116289382
 30
0.0
 11
-74.2717807379
 21
140.3116289382
 31
0.0
  0
LINE
  5
238
330
1F
100
AcDbEntity
  8
0
  6
Continuous
 62
     7
370
    25
100
AcDbLine
 10
-87.7647712088
 20
143.3116289382
 30
0.0
 11
-77.256192968
 21
143.3116289382
 31
0.0
  0
LINE
  5
239
330
1F
100
AcDbEntity
  8
0
  6
Continuous
 62
     7
370
    25
100
AcDbLine
 10
-87.7647712088
 20
143.3116289382
 30
0.0
 11
-87.7647712088
 21
152.3116289382
 31
0.0
  0
LWPOLYLINE
  5
23A
330
1F
100
AcDbEntity
  8
0
  6
Continuous
 62
     7
370
    25
100
AcDbPolyline
 90
        9
 70
   128
 43
0.0
 10
-87.7647712088
 20
143.3116289382
 10
-87.7382111807
 20
142.7263579721
 10
-87.6595517835
 20
142.1635786411
 10
-87.5318158537
 20
141.6449182391
 10
-87.3599122114
 20
141.1903085946
 10
-87.1504470171
 20
140.8172201012
 10
-86.911469901
 20
140.5399903406
 10
-86.6521646194
 20
140.3692730969
 10
-86.3824961289
 20
140.3116289382
  0
LINE
  5
23B
330
1F
100
AcDbEntity
  8
0
  6
Continuous
 62
     7
370
    25
100
AcDbLine
 10
-74.2717807379
 20
140.3116289382
 30
0.0
 11
-86.3824961289
 21
140.3116289382
 31
0.0
  0
LWPOLYLINE
  5
23C
330
1F
100
AcDbEntity
  8
0
  6
Continuous
 62
     7
370
    25
100
AcDbPolyline
 90
        9
 70
   128
 43
0.0
 10
-86.3824961289
 20
155.3116289382
 10
-86.6521646194
 20
155.2539847794
 10
-86.911469901
 20
155.0832675357
 10
-87.1504470171
 20
154.8060377751
 10
-87.3599122114
 20
154.4329492817
 10
-87.5318158537
 20
153.9783396372
 10
-87.6595517835
 20
153.4596792353
 10
-87.7382111807
 20
152.8968999042
 10
-87.7647712088
 20
152.3116289382
  0
LINE
  5
23D
330
1F
100
AcDbEntity
  8
0
  6
Continuous
 62
     7
370
    25
100
AcDbLine
 10
-152.2985393348
 20
143.3116289382
 30
0.0
 11
-87.7647712088
 21
143.3116289382
 31
0.0
  0
LWPOLYLINE
  5
23E
330
1F
100
AcDbEntity
  8
0
  6
Continuous
 62
     7
370
    25
100
AcDbPolyline
 90
        9
 70
   128
 43
0.0
 10
-152.2985393348
 20
143.3116289382
 10
-152.2640258381
 20
142.7263579721
 10
-152.1618116821
 20
142.1635786411
 10
-151.9958248996
 20
141.6449182391
 10
-151.7724442695
 20
141.1903085946
 10
-151.5002541842
 20
140.8172201012
 10
-151.189714756
 20
140.5399903406
 10
-150.852759841
 20
140.3692730969
 10
-150.5023384276
 20
140.3116289382
  0
LINE
  5
23F
330
1F
100
AcDbEntity
  8
0
  6
Continuous
 62
     7
370
    25
100
AcDbLine
 10
-86.3824961289
 20
140.3116289382
 30
0.0
 11
-150.5023384276
 21
140.3116289382
 31
0.0
  0
LINE
  5
240
330
1F
100
AcDbEntity
  8
0
  6
Continuous
 62
     7
370
    25
100
AcDbLine
 10
-87.7647712088
 20
152.3116289382
 30
0.0
 11
-152.2985393348
 21
152.3116289382
 31
0.0
  0
LWPOLYLINE
  5
241
330
1F
100
AcDbEntity
  8
0
  6
Continuous
 62
     7
370
    25
100
AcDbPolyline
 90
        9
 70
   128
 43
0.0
 10
-150.5023384276
 20
155.3116289382
 10
-150.852759841
 20
155.2539847794
 10
-151.189714756
 20
155.0832675357
 10
-151.5002541842
 20
154.8060377751
 10
-151.7724442695
 20
154.4329492817
 10
-151.9958248996
 20
153.9783396372
 10
-152.1618116821
 20
153.4596792353
 10
-152.2640258381
 20
152.8968999042
 10
-152.2985393348
 20
152.3116289382
  0
LINE
  5
242
330
1F
100
AcDbEntity
  8
0
  6
Continuous
 62
     7
370
    25
100
AcDbLine
 10
-152.2985393348
 20
143.3116289382
 30
0.0
 11
-152.2985393348
 21
152.3116289382
 31
0.0
  0
LINE
  5
243
330
1F
100
AcDbEntity
  8
0
  6
Continuous
 62
     7
370
    25
100
AcDbLine
 10
-155.3127314187
 20
143.3116289382
 30
0.0
 11
-152.2985393348
 21
143.3116289382
 31
0.0
  0
LINE
  5
244
330
1F
100
AcDbEntity
  8
0
  6
Continuous
 62
     7
370
    25
100
AcDbLine
 10
-155.3127314187
 20
143.3116289382
 30
0.0
 11
-155.3127314187
 21
152.3116289382
 31
0.0
  0
LINE
  5
245
330
1F
100
AcDbEntity
  8
0
  6
Continuous
 62
     7
370
    25
100
AcDbLine
 10
-152.2985393348
 20
152.3116289382
 30
0.0
 11
-155.3127314187
 21
152.3116289382
 31
0.0
  0
ARC
  5
246
330
1F
100
AcDbEntity
  8
0
  6
Continuous
 62
     7
370
    25
100
AcDbCircle
 10
-152.4541956844
 20
152.453922581
 30
0.0
 40
2.862075125723806
100
AcDbArc
 50
93.1661529858
 51
182.8497461561
  0
ARC
  5
247
330
1F
100
AcDbEntity
  8
0
  6
Continuous
 62
     7
370
    25
100
AcDbCircle
 10
-152.4541956844
 20
143.1693352953
 30
0.0
 40
2.862075125723667
100
AcDbArc
 50
177.1502538439
 51
266.8338470142
  0
LINE
  5
248
330
1F
100
AcDbEntity
  8
0
  6
Continuous
 62
     7
370
    25
100
AcDbLine
 10
-150.5023384276
 20
140.3116289382
 30
0.0
 11
-152.6122728863
 21
140.3116289382
 31
0.0
  0
LINE
  5
249
330
1F
100
AcDbEntity
  8
0
  6
Continuous
 62
     7
370
    25
100
AcDbLine
 10
-152.6122728863
 20
140.3116289382
 30
0.0
 11
-155.2974414636
 21
140.3116289382
 31
0.0
  0
LINE
  5
24A
330
1F
100
AcDbEntity
  8
0
  6
Continuous
 62
     7
370
    25
100
AcDbLine
 10
-31.0392698733
 20
155.3116289382
 30
0.0
 11
-83.0071620461
 21
155.3116289382
 31
0.0
  0
LINE
  5
24B
330
1F
100
AcDbEntity
  8
0
  6
Continuous
 62
     7
370
    25
100
AcDbLine
 10
-83.0071620461
 20
170.3116289382
 30
0.0
 11
-31.0392698733
 21
170.3116289382
 31
0.0
  0
LWPOLYLINE
  5
24C
330
1F
100
AcDbEntity
  8
0
  6
Continuous
 62
     7
370
    25
100
AcDbPolyline
 90
        9
 70
   128
 43
0.0
 10
-117.2359497431
 20
158.3116289382
 10
-117.2600360507
 20
157.7263579721
 10
-117.3313693502
 20
157.1635786411
 10
-117.447208343
 20
156.6449182391
 10
-117.6031014014
 20
156.1903085946
 10
-117.7930576427
 20
155.8172201012
 10
-118.0097771551
 20
155.5399903406
 10
-118.2449315292
 20
155.3692730969
 10
-118.4894839143
 20
155.3116289382
  0
LINE
  5
24D
330
1F
100
AcDbEntity
  8
0
  6
Continuous
 62
     7
370
    25
100
AcDbLine
 10
-118.4894839143
 20
155.3116289382
 30
0.0
 11
-134.5399001506
 21
155.3116289382
 31
0.0
  0
LINE
  5
24E
330
1F
100
AcDbEntity
  8
0
  6
Continuous
 62
     7
370
    25
100
AcDbLine
 10
-134.5399001506
 20
170.3116289382
 30
0.0
 11
-118.4894839143
 21
170.3116289382
 31
0.0
  0
LWPOLYLINE
  5
24F
330
1F
100
AcDbEntity
  8
0
  6
Continuous
 62
     7
370
    25
100
AcDbPolyline
 90
        9
 70
   128
 43
0.0
 10
-118.4894839143
 20
170.3116289382
 10
-118.2449315292
 20
170.2539847794
 10
-118.0097771551
 20
170.0832675357
 10
-117.7930576427
 20
169.8060377751
 10
-117.6031014014
 20
169.4329492817
 10
-117.447208343
 20
168.9783396372
 10
-117.3313693502
 20
168.4596792353
 10
-117.2600360507
 20
167.8968999042
 10
-117.2359497431
 20
167.3116289382
  0
LINE
  5
250
330
1F
100
AcDbEntity
  8
0
  6
Continuous
 62
     7
370
    25
100
AcDbLine
 10
-117.2359497431
 20
158.3116289382
 30
0.0
 11
-117.2359497431
 21
167.3116289382
 31
0.0
  0
LINE
  5
251
330
1F
100
AcDbEntity
  8
0
  6
Continuous
 62
     7
370
    25
100
AcDbLine
 10
-117.2359497431
 20
158.3116289382
 30
0.0
 11
-117.0637834518
 21
158.3116289382
 31
0.0
  0
LINE
  5
252
330
1F
100
AcDbEntity
  8
0
  6
Continuous
 62
     7
370
    25
100
AcDbLine
 10
-117.0637834518
 20
167.3116289382
 30
0.0
 11
-117.2359497431
 21
167.3116289382
 31
0.0
  0
LINE
  5
253
330
1F
100
AcDbEntity
  8
0
  6
Continuous
 62
     7
370
    25
100
AcDbLine
 10
-117.0637834518
 20
167.3116289382
 30
0.0
 11
-117.0637834518
 21
158.3116289382
 31
0.0
  0
LWPOLYLINE
  5
254
330
1F
100
AcDbEntity
  8
0
  6
Continuous
 62
     7
370
    25
100
AcDbPolyline
 90
        9
 70
   128
 43
0.0
 10
-118.4894839143
 20
170.3116289382
 10
-118.211343552
 20
170.2539847794
 10
-117.9438919678
 20
170.0832675357
 10
-117.6974071762
 20
169.8060377751
 10
-117.4813614494
 20
169.4329492817
 10
-117.3040573035
 20
168.9783396372
 10
-117.1723084375
 20
168.4596792353
 10
-117.0911778865
 20
167.8968999042
 10
-117.0637834518
 20
167.3116289382
  0
LWPOLYLINE
  5
255
330
1F
100
AcDbEntity
  8
0
  6
Continuous
 62
     7
370
    25
100
AcDbPolyline
 90
        9
 70
   128
 43
0.0
 10
-117.0637834518
 20
158.3116289382
 10
-117.0911778865
 20
157.7263579721
 10
-117.1723084375
 20
157.1635786411
 10
-117.3040573035
 20
156.6449182391
 10
-117.4813614494
 20
156.1903085946
 10
-117.6974071762
 20
155.8172201012
 10
-117.9438919678
 20
155.5399903406
 10
-118.211343552
 20
155.3692730969
 10
-118.4894839143
 20
155.3116289382
  0
LWPOLYLINE
  5
256
330
1F
100
AcDbEntity
  8
0
  6
Continuous
 62
     7
370
    25
100
AcDbPolyline
 90
        3
 70
   128
 43
0.0
 10
-114.4357059384
 20
155.3116289382
 10
-114.4242143226
 20
155.3116352743
 10
-113.5133924917
 20
155.3519180929
  0
LINE
  5
257
330
1F
100
AcDbEntity
  8
0
  6
Continuous
 62
     7
370
    25
100
AcDbLine
 10
-114.4357059384
 20
155.3116289382
 30
0.0
 11
-118.4894839143
 21
155.3116289382
 31
0.0
  0
LINE
  5
258
330
1F
100
AcDbEntity
  8
0
  6
Continuous
 62
     7
370
    25
100
AcDbLine
 10
-83.0071620461
 20
155.3116289382
 30
0.0
 11
-104.4307105872
 21
155.3116289382
 31
0.0
  0
LWPOLYLINE
  5
259
330
1F
100
AcDbEntity
  8
0
  6
Continuous
 62
     7
370
    25
100
AcDbPolyline
 90
       11
 70
   128
 43
0.0
 10
-113.5133924917
 20
155.3519180929
 10
-113.0005067382
 20
155.4070370619
 10
-111.4543373319
 20
155.6655565747
 10
-109.9078862602
 20
155.9544674205
 10
-108.8959967255
 20
156.0702451479
 10
-107.9121460865
 20
156.0611393638
 10
-106.8971750015
 20
155.8994911301
 10
-105.9915466575
 20
155.6544051766
 10
-105.1536202496
 20
155.4167620502
 10
-104.4357049911
 20
155.3116360255
 10
-104.4307105872
 20
155.3116289382
  0
LINE
  5
25A
330
1F
100
AcDbEntity
  8
0
  6
Continuous
 62
     7
370
    25
100
AcDbLine
 10
-118.4894839143
 20
170.3116289382
 30
0.0
 11
-114.4357059384
 21
170.3116289382
 31
0.0
  0
LWPOLYLINE
  5
25B
330
1F
100
AcDbEntity
  8
0
  6
Continuous
 62
     7
370
    25
100
AcDbPolyline
 90
        3
 70
   128
 43
0.0
 10
-113.5133924917
 20
170.2713397834
 10
-114.4242143226
 20
170.311622602
 10
-114.4357059384
 20
170.3116289382
  0
LWPOLYLINE
  5
25C
330
1F
100
AcDbEntity
  8
0
  6
Continuous
 62
     7
370
    25
100
AcDbPolyline
 90
       11
 70
   128
 43
0.0
 10
-104.4307105872
 20
170.3116289382
 10
-104.4357049911
 20
170.3116218508
 10
-104.7397017936
 20
170.2883560567
 10
-105.6339757713
 20
170.0750831875
 10
-106.7547771474
 20
169.7575599546
 10
-107.6323270782
 20
169.5914972849
 10
-108.6390992286
 20
169.5419432031
 10
-109.6830290563
 20
169.6349312085
 10
-110.7962059073
 20
169.8288306258
 10
-112.1312368509
 20
170.0835069598
 10
-113.5133924917
 20
170.2713397834
  0
LINE
  5
25D
330
1F
100
AcDbEntity
  8
0
  6
Continuous
 62
     7
370
    25
100
AcDbLine
 10
-104.4307105872
 20
170.3116289382
 30
0.0
 11
-83.0071620461
 21
170.3116289382
 31
0.0
  0
LINE
  5
25E
330
1F
100
AcDbEntity
  8
0
  6
Continuous
 62
     7
370
    25
100
AcDbLine
 10
-106.9166238249
 20
170.3116289382
 30
0.0
 11
-104.4307105872
 21
170.3116289382
 31
0.0
  0
LINE
  5
25F
330
1F
100
AcDbEntity
  8
0
  6
Continuous
 62
     7
370
    25
100
AcDbLine
 10
-104.4307105872
 20
155.3116289382
 30
0.0
 11
-106.9166238249
 21
155.3116289382
 31
0.0
  0
LINE
  5
260
330
1F
100
AcDbEntity
  8
0
  6
Continuous
 62
     7
370
    25
100
AcDbLine
 10
-106.9166238249
 20
155.3116289382
 30
0.0
 11
-114.4357059384
 21
155.3116289382
 31
0.0
  0
LINE
  5
261
330
1F
100
AcDbEntity
  8
0
  6
Continuous
 62
     7
370
    25
100
AcDbLine
 10
-114.4357059384
 20
170.3116289382
 30
0.0
 11
-106.9166238249
 21
170.3116289382
 31
0.0
  0
LINE
  5
262
330
1F
100
AcDbEntity
  8
0
  6
Continuous
 62
     7
370
    25
100
AcDbLine
 10
-158.0435085082
 20
158.3116289382
 30
0.0
 11
-158.0435085082
 21
167.3116289382
 31
0.0
  0
LINE
  5
263
330
1F
100
AcDbEntity
  8
0
  6
Continuous
 62
     7
370
    25
100
AcDbLine
 10
-155.2920419222
 20
170.3116289382
 30
0.0
 11
-134.6023769711
 21
170.3116289382
 31
0.0
  0
ARC
  5
264
330
1F
100
AcDbEntity
  8
0
  6
Continuous
 62
     7
370
    25
100
AcDbCircle
 10
-155.1621628576
 20
167.4307482403
 30
0.0
 40
2.883806887865094
100
AcDbArc
 50
92.5813241056
 51
182.3673483876
  0
LINE
  5
265
330
1F
100
AcDbEntity
  8
0
  6
Continuous
 62
     7
370
    25
100
AcDbLine
 10
-134.5399001506
 20
155.3116289382
 30
0.0
 11
-155.2920419222
 21
155.3116289382
 31
0.0
  0
ARC
  5
266
330
1F
100
AcDbEntity
  8
0
  6
Continuous
 62
     7
370
    25
100
AcDbCircle
 10
-155.1621628576
 20
158.192509636
 30
0.0
 40
2.883806887864541
100
AcDbArc
 50
177.6326516124
 51
267.4186758945
  0
LINE
  5
267
330
1F
100
AcDbEntity
  8
0
  6
Continuous
 62
     7
370
    25
100
AcDbLine
 10
-155.2920419222
 20
155.3116289382
 30
0.0
 11
-169.4250623629
 21
155.3116289382
 31
0.0
  0
LINE
  5
268
330
1F
100
AcDbEntity
  8
0
  6
Continuous
 62
     7
370
    25
100
AcDbLine
 10
-169.4250623629
 20
170.3116289382
 30
0.0
 11
-155.2920419222
 21
170.3116289382
 31
0.0
  0
LINE
  5
269
330
1F
100
AcDbEntity
  8
0
  6
Continuous
 62
     7
370
    25
100
AcDbLine
 10
89.3980766569
 20
167.3116289382
 30
0.0
 11
62.4304498926
 21
167.3116289382
 31
0.0
  0
ARC
  5
26A
330
1F
100
AcDbEntity
  8
0
  6
Continuous
 62
     7
370
    25
100
AcDbCircle
 10
66.4242301207
 20
168.0274540768
 30
0.0
 40
4.057423583983634
100
AcDbArc
 50
145.7391191148
 51
190.1615115183
  0
LINE
  5
26B
330
1F
100
AcDbEntity
  8
0
  6
Continuous
 62
     7
370
    25
100
AcDbLine
 10
63.0708390993
 20
170.3116289382
 30
0.0
 11
86.4092636427
 21
170.3116289382
 31
0.0
  0
ARC
  5
26C
330
1F
100
AcDbEntity
  8
0
  6
Continuous
 62
     7
370
    25
100
AcDbCircle
 10
86.4036596817
 20
167.317212002
 30
0.0
 40
2.994422179999823
100
AcDbArc
 50
359.8931726525
 51
89.8927728023
  0
LINE
  5
26D
330
1F
100
AcDbEntity
  8
0
  6
Continuous
 62
     7
370
    25
100
AcDbLine
 10
62.4304498926
 20
158.3116289382
 30
0.0
 11
89.3980766569
 21
158.3116289382
 31
0.0
  0
LINE
  5
26E
330
1F
100
AcDbEntity
  8
0
  6
Continuous
 62
     7
370
    25
100
AcDbLine
 10
62.4304498926
 20
158.3116289382
 30
0.0
 11
62.4304498926
 21
167.3116289382
 31
0.0
  0
LINE
  5
26F
330
1F
100
AcDbEntity
  8
0
  6
Continuous
 62
     7
370
    25
100
AcDbLine
 10
89.3980766569
 20
158.3116289382
 30
0.0
 11
89.3980766569
 21
167.3116289382
 31
0.0
  0
ARC
  5
270
330
1F
100
AcDbEntity
  8
0
  6
Continuous
 62
     7
370
    25
100
AcDbCircle
 10
86.4036596817
 20
158.3060458743
 30
0.0
 40
2.994422179999624
100
AcDbArc
 50
270.1072271977
 51
0.1068273475
  0
LINE
  5
271
330
1F
100
AcDbEntity
  8
0
  6
Continuous
 62
     7
370
    25
100
AcDbLine
 10
86.4092636427
 20
155.3116289382
 30
0.0
 11
63.0708390993
 21
155.3116289382
 31
0.0
  0
ARC
  5
272
330
1F
100
AcDbEntity
  8
0
  6
Continuous
 62
     7
370
    25
100
AcDbCircle
 10
66.4242301207
 20
157.5958037995
 30
0.0
 40
4.057423583983901
100
AcDbArc
 50
169.8384884817
 51
214.2608808852
  0
LINE
  5
273
330
1F
100
AcDbEntity
  8
0
  6
Continuous
 62
     7
370
    25
100
AcDbLine
 10
62.4304498926
 20
167.3116289382
 30
0.0
 11
36.5050552198
 21
167.3116289382
 31
0.0
  0
LWPOLYLINE
  5
274
330
1F
100
AcDbEntity
  8
0
  6
Continuous
 62
     7
370
    25
100
AcDbPolyline
 90
        9
 70
   128
 43
0.0
 10
36.5050552198
 20
167.3116289382
 10
36.5284902898
 20
167.8968999042
 10
36.5978949032
 20
168.4596792353
 10
36.7106018797
 20
168.9783396372
 10
36.8622799532
 20
169.4329492817
 10
37.0471002206
 20
169.8060377751
 10
37.2579601426
 20
170.0832675357
 10
37.4867564907
 20
170.2539847794
 10
37.7246967495
 20
170.3116289382
  0
LINE
  5
275
330
1F
100
AcDbEntity
  8
0
  6
Continuous
 62
     7
370
    25
100
AcDbLine
 10
37.7246967495
 20
170.3116289382
 30
0.0
 11
63.0708390993
 21
170.3116289382
 31
0.0
  0
LINE
  5
276
330
1F
100
AcDbEntity
  8
0
  6
Continuous
 62
     7
370
    25
100
AcDbLine
 10
36.5050552198
 20
158.3116289382
 30
0.0
 11
62.4304498926
 21
158.3116289382
 31
0.0
  0
LINE
  5
277
330
1F
100
AcDbEntity
  8
0
  6
Continuous
 62
     7
370
    25
100
AcDbLine
 10
36.5050552198
 20
158.3116289382
 30
0.0
 11
36.5050552198
 21
167.3116289382
 31
0.0
  0
LINE
  5
278
330
1F
100
AcDbEntity
  8
0
  6
Continuous
 62
     7
370
    25
100
AcDbLine
 10
63.0708390993
 20
155.3116289382
 30
0.0
 11
37.7246967495
 21
155.3116289382
 31
0.0
  0
LWPOLYLINE
  5
279
330
1F
100
AcDbEntity
  8
0
  6
Continuous
 62
     7
370
    25
100
AcDbPolyline
 90
        9
 70
   128
 43
0.0
 10
36.5050552198
 20
158.3116289382
 10
36.5284902898
 20
157.7263579721
 10
36.5978949032
 20
157.1635786411
 10
36.7106018797
 20
156.6449182391
 10
36.8622799532
 20
156.1903085946
 10
37.0471002206
 20
155.8172201012
 10
37.2579601426
 20
155.5399903406
 10
37.4867564907
 20
155.3692730969
 10
37.7246967495
 20
155.3116289382
  0
LINE
  5
27A
330
1F
100
AcDbEntity
  8
0
  6
Continuous
 62
     7
370
    25
100
AcDbLine
 10
-26.9066933444
 20
155.3116289382
 30
0.0
 11
-31.0392698733
 21
155.3116289382
 31
0.0
  0
LINE
  5
27B
330
1F
100
AcDbEntity
  8
0
  6
Continuous
 62
     7
370
    25
100
AcDbLine
 10
-31.0392698733
 20
170.3116289382
 30
0.0
 11
-26.9066933444
 21
170.3116289382
 31
0.0
  0
LINE
  5
27C
330
1F
100
AcDbEntity
  8
0
  6
Continuous
 62
     7
370
    25
100
AcDbLine
 10
-21.3436362531
 20
158.3116289382
 30
0.0
 11
36.5050552198
 21
158.3116289382
 31
0.0
  0
LINE
  5
27D
330
1F
100
AcDbEntity
  8
0
  6
Continuous
 62
     7
370
    25
100
AcDbLine
 10
36.5050552198
 20
167.3116289382
 30
0.0
 11
-21.3436362531
 21
167.3116289382
 31
0.0
  0
LINE
  5
27E
330
1F
100
AcDbEntity
  8
0
  6
Continuous
 62
     7
370
    25
100
AcDbLine
 10
-28.0392698733
 20
167.3116289382
 30
0.0
 11
-21.3436362531
 21
167.3116289382
 31
0.0
  0
LINE
  5
27F
330
1F
100
AcDbEntity
  8
0
  6
Continuous
 62
     7
370
    25
100
AcDbLine
 10
-28.0392698733
 20
158.3116289382
 30
0.0
 11
-21.3436362531
 21
158.3116289382
 31
0.0
  0
LWPOLYLINE
  5
280
330
1F
100
AcDbEntity
  8
0
  6
Continuous
 62
     7
370
    25
100
AcDbPolyline
 90
        7
 70
   128
 43
0.0
 10
-19.7659951073
 20
155.3116289382
 10
-20.2912480201
 20
155.5414265596
 10
-20.584705899
 20
155.8533702131
 10
-20.8753478875
 20
156.3150814764
 10
-21.1642170463
 20
157.0432862996
 10
-21.3106203893
 20
157.7615189782
 10
-21.3436362531
 20
158.3116289382
  0
LINE
  5
281
330
1F
100
AcDbEntity
  8
0
  6
Continuous
 62
     7
370
    25
100
AcDbLine
 10
37.7246967495
 20
155.3116289382
 30
0.0
 11
-19.7659951073
 21
155.3116289382
 31
0.0
  0
ARC
  5
282
330
1F
100
AcDbEntity
  8
0
  6
Continuous
 62
     7
370
    25
100
AcDbCircle
 10
-18.5480839576
 20
167.7563280935
 30
0.0
 40
2.830701322163042
100
AcDbArc
 50
115.4834695459
 51
189.0385272914
  0
LINE
  5
283
330
1F
100
AcDbEntity
  8
0
  6
Continuous
 62
     7
370
    25
100
AcDbLine
 10
-19.7659951073
 20
170.3116289382
 30
0.0
 11
37.7246967495
 21
170.3116289382
 31
0.0
  0
LINE
  5
284
330
1F
100
AcDbEntity
  8
0
  6
Continuous
 62
     7
370
    25
100
AcDbLine
 10
105.8752594225
 20
155.3116289382
 30
0.0
 11
86.4092636427
 21
155.3116289382
 31
0.0
  0
LINE
  5
285
330
1F
100
AcDbEntity
  8
0
  6
Continuous
 62
     7
370
    25
100
AcDbLine
 10
86.4092636427
 20
170.3116289382
 30
0.0
 11
105.8752594225
 21
170.3116289382
 31
0.0
  0
LINE
  5
286
330
1F
100
AcDbEntity
  8
0
  6
Continuous
 62
     7
370
    25
100
AcDbLine
 10
-19.7659951073
 20
170.3116289382
 30
0.0
 11
-26.9066933444
 21
170.3116289382
 31
0.0
  0
LINE
  5
287
330
1F
100
AcDbEntity
  8
0
  6
Continuous
 62
     7
370
    25
100
AcDbLine
 10
-19.7659951073
 20
155.3116289382
 30
0.0
 11
-26.9066933444
 21
155.3116289382
 31
0.0
  0
LINE
  5
288
330
1F
100
AcDbEntity
  8
0
  6
Continuous
 62
     7
370
    25
100
AcDbLine
 10
108.0581671807
 20
155.3116289382
 30
0.0
 11
105.8752594225
 21
155.3116289382
 31
0.0
  0
LINE
  5
289
330
1F
100
AcDbEntity
  8
0
  6
Continuous
 62
     7
370
    25
100
AcDbLine
 10
105.8752594225
 20
170.3116289382
 30
0.0
 11
108.0581671807
 21
170.3116289382
 31
0.0
  0
LINE
  5
28A
330
1F
100
AcDbEntity
  8
0
  6
Continuous
 62
     7
370
    25
100
AcDbLine
 10
67.5657600933
 20
210.6824638136
 30
0.0
 11
66.6997346896
 21
211.1824638136
 31
0.0
  0
ARC
  5
28B
330
1F
100
AcDbEntity
  8
0
  6
Continuous
 62
     7
370
    25
100
AcDbCircle
 10
70.8157600933
 20
216.3116289382
 30
0.0
 40
6.500000000000038
100
AcDbArc
 50
240.0
 51
60.0
  0
LINE
  5
28C
330
1F
100
AcDbEntity
  8
0
  6
Continuous
 62
     7
370
    25
100
AcDbLine
 10
74.0657600933
 20
221.9407940628
 30
0.0
 11
73.1997346896
 21
222.4407940628
 31
0.0
  0
ARC
  5
28D
330
1F
100
AcDbEntity
  8
0
  6
Continuous
 62
     7
370
    25
100
AcDbCircle
 10
69.9497346896
 20
216.8116289382
 30
0.0
 40
6.500000000000006
100
AcDbArc
 50
60.0
 51
240.0
  0
LINE
  5
28E
330
1F
100
AcDbEntity
  8
0
  6
Continuous
 62
     7
370
    25
100
AcDbLine
 10
103.510623822
 20
204.9407940628
 30
0.0
 11
104.3766492258
 21
204.4407940628
 31
0.0
  0
ARC
  5
28F
330
1F
100
AcDbEntity
  8
0
  6
Continuous
 62
     7
370
    25
100
AcDbCircle
 10
100.260623822
 20
199.3116289382
 30
0.0
 40
6.499999999999992
100
AcDbArc
 50
60.0
 51
240.0
  0
LINE
  5
290
330
1F
100
AcDbEntity
  8
0
  6
Continuous
 62
     7
370
    25
100
AcDbLine
 10
97.010623822
 20
193.6824638136
 30
0.0
 11
97.8766492258
 21
193.1824638136
 31
0.0
  0
ARC
  5
291
330
1F
100
AcDbEntity
  8
0
  6
Continuous
 62
     7
370
    25
100
AcDbCircle
 10
101.1266492258
 20
198.8116289382
 30
0.0
 40
6.499999999999999
100
AcDbArc
 50
240.0
 51
60.0
  0
LINE
  5
292
330
1F
100
AcDbEntity
  8
0
  6
Continuous
 62
     7
370
    25
100
AcDbLine
 10
169.9804782983
 20
55.8116289382
 30
0.0
 11
169.9804782983
 21
54.8116289382
 31
0.0
  0
ARC
  5
293
330
1F
100
AcDbEntity
  8
0
  6
Continuous
 62
     7
370
    25
100
AcDbCircle
 10
163.4804782983
 20
55.8116289382
 30
0.0
 40
6.500000000000028
100
AcDbArc
 50
0.0
 51
180.0
  0
LINE
  5
294
330
1F
100
AcDbEntity
  8
0
  6
Continuous
 62
     7
370
    25
100
AcDbLine
 10
156.9804782983
 20
55.8116289382
 30
0.0
 11
156.9804782983
 21
54.8116289382
 31
0.0
  0
ARC
  5
295
330
1F
100
AcDbEntity
  8
0
  6
Continuous
 62
     7
370
    25
100
AcDbCircle
 10
163.4804782983
 20
54.8116289382
 30
0.0
 40
6.500000000000028
100
AcDbArc
 50
180.0
 51
0.0
  0
LINE
  5
296
330
1F
100
AcDbEntity
  8
0
  6
Continuous
 62
     7
370
    25
100
AcDbLine
 10
156.9804782983
 20
89.8116289382
 30
0.0
 11
156.9804782983
 21
90.8116289382
 31
0.0
  0
ARC
  5
297
330
1F
100
AcDbEntity
  8
0
  6
Continuous
 62
     7
370
    25
100
AcDbCircle
 10
163.4804782983
 20
89.8116289382
 30
0.0
 40
6.5
100
AcDbArc
 50
180.0
 51
0.0
  0
LINE
  5
298
330
1F
100
AcDbEntity
  8
0
  6
Continuous
 62
     7
370
    25
100
AcDbLine
 10
169.9804782983
 20
89.8116289382
 30
0.0
 11
169.9804782983
 21
90.8116289382
 31
0.0
  0
ARC
  5
299
330
1F
100
AcDbEntity
  8
0
  6
Continuous
 62
     7
370
    25
100
AcDbCircle
 10
163.4804782983
 20
90.8116289382
 30
0.0
 40
6.500000000000028
100
AcDbArc
 50
0.0
 51
180.0
  0
ARC
  5
29A
330
1F
100
AcDbEntity
  8
0
  6
Continuous
 62
     7
370
    25
100
AcDbCircle
 10
198.9804782983
 20
300.8188751247
 30
0.0
 40
20.00000000000002
100
AcDbArc
 50
239.8498760943
 51
255.5743894942
  0
ARC
  5
29B
330
1F
100
AcDbEntity
  8
0
  6
Continuous
 62
     7
370
    25
100
AcDbCircle
 10
163.4804782983
 20
162.8116289382
 30
0.0
 40
122.5
100
AcDbArc
 50
62.4309571648
 51
75.5743894942
  0
ARC
  5
29C
330
1F
100
AcDbEntity
  8
0
  6
Continuous
 62
     7
370
    25
100
AcDbCircle
 10
163.4804782983
 20
162.8116289382
 30
0.0
 40
122.5
100
AcDbArc
 50
224.4256105058
 51
297.5690430101
  0
ARC
  5
29D
330
1F
100
AcDbEntity
  8
0
  6
Continuous
 62
     7
370
    25
100
AcDbCircle
 10
61.7126971944
 20
63.0641040105
 30
0.0
 40
19.99999999999996
100
AcDbArc
 50
44.4256105058
 51
60.1501239057
  0
ARC
  5
29E
330
1F
100
AcDbEntity
  8
0
  6
Continuous
 62
     7
370
    25
100
AcDbCircle
 10
163.4804782983
 20
162.8116289382
 30
0.0
 40
122.5
100
AcDbArc
 50
104.4256105058
 51
158.1308853941
  0
ARC
  5
29F
330
1F
100
AcDbEntity
  8
0
  6
Continuous
 62
     7
370
    25
100
AcDbCircle
 10
127.9804782983
 20
300.8188751247
 30
0.0
 40
20.00000000000002
100
AcDbArc
 50
284.4256105058
 51
300.1501239057
  0
LINE
  5
2A0
330
1F
100
AcDbEntity
  8
0
  6
Continuous
 62
     7
370
    25
100
AcDbLine
 10
138.025826361
 20
283.524628038
 30
0.0
 11
188.9351302355
 21
283.524628038
 31
0.0
  0
LINE
  5
2A1
330
1F
100
AcDbEntity
  8
0
  6
Continuous
 62
     7
370
    25
100
AcDbLine
 10
26.4804782983
 20
137.3116289382
 30
0.0
 11
23.4804782983
 21
137.3116289382
 31
0.0
  0
LINE
  5
2A2
330
1F
100
AcDbEntity
  8
0
  6
Continuous
 62
     7
370
    25
100
AcDbLine
 10
23.4804782983
 20
140.3116289382
 30
0.0
 11
23.4804782983
 21
137.3116289382
 31
0.0
  0
LINE
  5
2A3
330
1F
100
AcDbEntity
  8
0
  6
Continuous
 62
     7
370
    25
100
AcDbLine
 10
26.4804782983
 20
140.3116289382
 30
0.0
 11
26.4804782983
 21
137.3116289382
 31
0.0
  0
LINE
  5
2A4
330
1F
100
AcDbEntity
  8
0
  6
Continuous
 62
     7
370
    25
100
AcDbLine
 10
26.4804782983
 20
188.3116289382
 30
0.0
 11
108.0581671807
 21
188.3116289382
 31
0.0
  0
LINE
  5
2A5
330
1F
100
AcDbEntity
  8
0
  6
Continuous
 62
     7
370
    25
100
AcDbLine
 10
26.4804782983
 20
185.3116289382
 30
0.0
 11
26.4804782983
 21
188.3116289382
 31
0.0
  0
LINE
  5
2A6
330
1F
100
AcDbEntity
  8
0
  6
Continuous
 62
     7
370
    25
100
AcDbLine
 10
23.4804782983
 20
188.3116289382
 30
0.0
 11
26.4804782983
 21
188.3116289382
 31
0.0
  0
LINE
  5
2A7
330
1F
100
AcDbEntity
  8
0
  6
Continuous
 62
     7
370
    25
100
AcDbLine
 10
23.4804782983
 20
185.3116289382
 30
0.0
 11
23.4804782983
 21
188.3116289382
 31
0.0
  0
LINE
  5
2A8
330
1F
100
AcDbEntity
  8
0
  6
Continuous
 62
     7
370
    25
100
AcDbLine
 10
26.4804782983
 20
137.3116289382
 30
0.0
 11
108.0581671807
 21
137.3116289382
 31
0.0
  0
ARC
  5
2A9
330
1F
100
AcDbEntity
  8
0
  6
Continuous
 62
     7
370
    25
100
AcDbCircle
 10
163.3536869925
 20
161.6634902429
 30
0.0
 40
81.19852644413359
100
AcDbArc
 50
74.1751346437
 51
160.841350431
  0
LWPOLYLINE
  5
2AA
330
1F
100
AcDbEntity
  8
0
  6
Continuous
 62
     7
370
    25
100
AcDbPolyline
 90
       41
 70
   128
 43
0.0
 10
85.2710890801
 20
137.3116289382
 10
86.6753454687
 20
132.6895918529
 10
89.3090841594
 20
126.0524392957
 10
92.4570752174
 20
119.7029975856
 10
96.1093308914
 20
113.6293024231
 10
100.3524352835
 20
107.7163807768
 10
105.0564287358
 20
102.1627116014
 10
110.2589730638
 20
96.9295984803
 10
115.8499413084
 20
92.1126120784
 10
121.9111656158
 20
87.6263592977
 10
128.2487134787
 20
83.5357669385
 10
133.3400433389
 20
80.531971404
 10
135.0599125522
 20
79.5518684047
 10
136.7469493083
 20
78.5184369452
 10
138.3004738454
 20
77.3125387746
 10
138.7932002887
 20
76.7566072156
 10
138.9207074587
 20
76.4823961672
 10
138.9415000031
 20
76.3160995771
 10
138.9037017677
 20
76.1513866409
 10
138.8229919082
 20
76.0271660238
 10
138.6374617774
 20
75.8766647268
 10
138.086020696
 20
75.6697990112
 10
137.0577931824
 20
75.5379153894
 10
136.000001092
 20
75.5304915519
 10
133.9366636446
 20
75.6936820502
 10
131.8892939923
 20
76.0088362992
 10
127.7924574205
 20
76.9376650992
 10
122.0903635129
 20
78.7651527603
 10
116.5646904162
 20
81.0773546317
 10
111.0908772702
 20
83.8852792481
 10
105.8420494901
 20
87.0950785334
 10
100.7689498151
 20
90.7311027183
 10
95.9689153641
 20
94.7210950901
 10
91.3703127051
 20
99.1298427594
 10
87.0922766388
 20
103.8504778134
 10
82.5625282394
 20
109.6731435665
 10
78.512424957
 20
115.8391464901
 10
74.878734955
 20
122.4827894851
 10
71.7905006013
 20
129.3970793902
 10
69.2171393501
 20
136.6886244676
 10
69.0527024697
 20
137.3116289382
  0
ARC
  5
2AB
330
1F
100
AcDbEntity
  8
0
  6
Continuous
 62
     7
370
    25
100
AcDbCircle
 10
163.5509830901
 20
164.1435535102
 30
0.0
 40
98.63854083745846
100
AcDbArc
 50
67.2300001048
 51
165.8171879436
  0
ARC
  5
2AC
330
1F
100
AcDbEntity
  8
0
  6
Continuous
 62
     7
370
    25
100
AcDbCircle
 10
168.0581671807
 20
162.8116289382
 30
0.0
 40
2.25
100
AcDbArc
 50
300.0
 51
0.0
  0
ARC
  5
2AD
330
1F
100
AcDbEntity
  8
0
  6
Continuous
 62
     7
370
    25
100
AcDbCircle
 10
168.9581671807
 20
161.2527832113
 30
0.0
 40
0.4500000000000002
100
AcDbArc
 50
300.0
 51
16.6582417728
  0
ARC
  5
2AE
330
1F
100
AcDbEntity
  8
0
  6
Continuous
 62
     7
370
    25
100
AcDbCircle
 10
170.1437313774
 20
161.6075278878
 30
0.0
 40
0.7874999999999779
100
AcDbArc
 50
103.3417582272
 51
196.6582417728
  0
ARC
  5
2AF
330
1F
100
AcDbEntity
  8
0
  6
Continuous
 62
     7
370
    25
100
AcDbCircle
 10
169.8581671807
 20
162.8116289382
 30
0.0
 40
0.4499999999999796
100
AcDbArc
 50
283.3417582272
 51
0.0
  0
ARC
  5
2B0
330
1F
100
AcDbEntity
  8
0
  6
Continuous
 62
     7
370
    25
100
AcDbCircle
 10
168.0581671807
 20
162.8116289382
 30
0.0
 40
2.25
100
AcDbArc
 50
120.0
 51
180.0
  0
ARC
  5
2B1
330
1F
100
AcDbEntity
  8
0
  6
Continuous
 62
     7
370
    25
100
AcDbCircle
 10
167.1581671807
 20
164.370474665
 30
0.0
 40
0.449999999999992
100
AcDbArc
 50
120.0
 51
196.6582417728
  0
ARC
  5
2B2
330
1F
100
AcDbEntity
  8
0
  6
Continuous
 62
     7
370
    25
100
AcDbCircle
 10
165.972602984
 20
164.0157299885
 30
0.0
 40
0.7875000000000022
100
AcDbArc
 50
283.3417582272
 51
16.6582417728
  0
ARC
  5
2B3
330
1F
100
AcDbEntity
  8
0
  6
Continuous
 62
     7
370
    25
100
AcDbCircle
 10
166.2581671807
 20
162.8116289382
 30
0.0
 40
0.4499999999999886
100
AcDbArc
 50
103.3417582272
 51
180.0
  0
ARC
  5
2B4
330
1F
100
AcDbEntity
  8
0
  6
Continuous
 62
     7
370
    25
100
AcDbCircle
 10
168.0581671807
 20
162.8116289382
 30
0.0
 40
2.250000000000012
100
AcDbArc
 50
0.0
 51
60.0
  0
ARC
  5
2B5
330
1F
100
AcDbEntity
  8
0
  6
Continuous
 62
     7
370
    25
100
AcDbCircle
 10
170.1437313774
 20
164.0157299885
 30
0.0
 40
0.7875000000000298
100
AcDbArc
 50
163.3417582272
 51
256.6582417728
  0
ARC
  5
2B6
330
1F
100
AcDbEntity
  8
0
  6
Continuous
 62
     7
370
    25
100
AcDbCircle
 10
168.9581671807
 20
164.370474665
 30
0.0
 40
0.449999999999992
100
AcDbArc
 50
343.3417582272
 51
60.0
  0
ARC
  5
2B7
330
1F
100
AcDbEntity
  8
0
  6
Continuous
 62
     7
370
    25
100
AcDbCircle
 10
169.8581671807
 20
162.8116289382
 30
0.0
 40
0.4499999999999796
100
AcDbArc
 50
0.0
 51
76.6582417728
  0
ARC
  5
2B8
330
1F
100
AcDbEntity
  8
0
  6
Continuous
 62
     7
370
    25
100
AcDbCircle
 10
168.0581671807
 20
162.8116289382
 30
0.0
 40
2.250000000000012
100
AcDbArc
 50
60.0
 51
120.0
  0
ARC
  5
2B9
330
1F
100
AcDbEntity
  8
0
  6
Continuous
 62
     7
370
    25
100
AcDbCircle
 10
168.0581671807
 20
165.2198310389
 30
0.0
 40
0.787500000000002
100
AcDbArc
 50
223.3417582272
 51
316.6582417728
  0
ARC
  5
2BA
330
1F
100
AcDbEntity
  8
0
  6
Continuous
 62
     7
370
    25
100
AcDbCircle
 10
168.9581671807
 20
164.370474665
 30
0.0
 40
0.4500000000000068
100
AcDbArc
 50
60.0
 51
136.6582417728
  0
ARC
  5
2BB
330
1F
100
AcDbEntity
  8
0
  6
Continuous
 62
     7
370
    25
100
AcDbCircle
 10
167.1581671807
 20
164.370474665
 30
0.0
 40
0.4500000000000068
100
AcDbArc
 50
43.3417582272
 51
120.0
  0
ARC
  5
2BC
330
1F
100
AcDbEntity
  8
0
  6
Continuous
 62
     7
370
    25
100
AcDbCircle
 10
168.0581671807
 20
162.8116289382
 30
0.0
 40
2.249999999999963
100
AcDbArc
 50
240.0
 51
300.0
  0
ARC
  5
2BD
330
1F
100
AcDbEntity
  8
0
  6
Continuous
 62
     7
370
    25
100
AcDbCircle
 10
168.0581671807
 20
160.4034268374
 30
0.0
 40
0.7875000000000214
100
AcDbArc
 50
43.3417582272
 51
136.6582417728
  0
ARC
  5
2BE
330
1F
100
AcDbEntity
  8
0
  6
Continuous
 62
     7
370
    25
100
AcDbCircle
 10
168.9581671807
 20
161.2527832113
 30
0.0
 40
0.4499999999999873
100
AcDbArc
 50
223.3417582272
 51
300.0
  0
ARC
  5
2BF
330
1F
100
AcDbEntity
  8
0
  6
Continuous
 62
     7
370
    25
100
AcDbCircle
 10
167.1581671807
 20
161.2527832113
 30
0.0
 40
0.4499999999999873
100
AcDbArc
 50
240.0
 51
316.6582417728
  0
ARC
  5
2C0
330
1F
100
AcDbEntity
  8
0
  6
Continuous
 62
     7
370
    25
100
AcDbCircle
 10
168.0581671807
 20
162.8116289382
 30
0.0
 40
2.25
100
AcDbArc
 50
180.0
 51
240.0
  0
ARC
  5
2C1
330
1F
100
AcDbEntity
  8
0
  6
Continuous
 62
     7
370
    25
100
AcDbCircle
 10
167.1581671807
 20
161.2527832113
 30
0.0
 40
0.4500000000000002
100
AcDbArc
 50
163.3417582272
 51
240.0
  0
ARC
  5
2C2
330
1F
100
AcDbEntity
  8
0
  6
Continuous
 62
     7
370
    25
100
AcDbCircle
 10
165.972602984
 20
161.6075278878
 30
0.0
 40
0.7875000000000051
100
AcDbArc
 50
343.3417582272
 51
76.6582417728
  0
ARC
  5
2C3
330
1F
100
AcDbEntity
  8
0
  6
Continuous
 62
     7
370
    25
100
AcDbCircle
 10
166.2581671807
 20
162.8116289382
 30
0.0
 40
0.4499999999999886
100
AcDbArc
 50
180.0
 51
256.6582417728
  0
CIRCLE
  5
2C4
330
1F
100
AcDbEntity
  8
0
  6
Continuous
 62
     7
370
    25
100
AcDbCircle
 10
168.0581671807
 20
162.8116289382
 30
0.0
 40
3.849999999999994
  0
ARC
  5
2C5
330
1F
100
AcDbEntity
  8
0
  6
Continuous
 62
     7
370
    25
100
AcDbCircle
 10
258.0581671807
 20
147.8116289382
 30
0.0
 40
2.250000000000057
100
AcDbArc
 50
0.0
 51
60.0
  0
ARC
  5
2C6
330
1F
100
AcDbEntity
  8
0
  6
Continuous
 62
     7
370
    25
100
AcDbCircle
 10
258.0581671807
 20
147.8116289382
 30
0.0
 40
2.250000000000041
100
AcDbArc
 50
60.0
 51
120.0
  0
ARC
  5
2C7
330
1F
100
AcDbEntity
  8
0
  6
Continuous
 62
     7
370
    25
100
AcDbCircle
 10
258.0581671807
 20
147.8116289382
 30
0.0
 40
2.250000000000012
100
AcDbArc
 50
120.0
 51
180.0
  0
ARC
  5
2C8
330
1F
100
AcDbEntity
  8
0
  6
Continuous
 62
     7
370
    25
100
AcDbCircle
 10
258.0581671807
 20
147.8116289382
 30
0.0
 40
2.249999999999988
100
AcDbArc
 50
180.0
 51
240.0
  0
ARC
  5
2C9
330
1F
100
AcDbEntity
  8
0
  6
Continuous
 62
     7
370
    25
100
AcDbCircle
 10
258.0581671807
 20
147.8116289382
 30
0.0
 40
2.250000000000016
100
AcDbArc
 50
240.0
 51
300.0
  0
ARC
  5
2CA
330
1F
100
AcDbEntity
  8
0
  6
Continuous
 62
     7
370
    25
100
AcDbCircle
 10
258.0581671807
 20
147.8116289382
 30
0.0
 40
2.250000000000057
100
AcDbArc
 50
300.0
 51
0.0
  0
CIRCLE
  5
2CB
330
1F
100
AcDbEntity
  8
0
  6
Continuous
 62
     7
370
    25
100
AcDbCircle
 10
258.0581671807
 20
147.8116289382
 30
0.0
 40
3.850000000000023
  0
ARC
  5
2CC
330
1F
100
AcDbEntity
  8
0
  6
Continuous
 62
     7
370
    25
100
AcDbCircle
 10
258.9581671807
 20
149.370474665
 30
0.0
 40
0.4500000000000275
100
AcDbArc
 50
60.0
 51
136.6582417728
  0
ARC
  5
2CD
330
1F
100
AcDbEntity
  8
0
  6
Continuous
 62
     7
370
    25
100
AcDbCircle
 10
257.1581671807
 20
149.370474665
 30
0.0
 40
0.4499999999999942
100
AcDbArc
 50
43.3417582272
 51
120.0
  0
ARC
  5
2CE
330
1F
100
AcDbEntity
  8
0
  6
Continuous
 62
     7
370
    25
100
AcDbCircle
 10
258.0581671807
 20
150.2198310389
 30
0.0
 40
0.7875000000000008
100
AcDbArc
 50
223.3417582272
 51
316.6582417728
  0
ARC
  5
2CF
330
1F
100
AcDbEntity
  8
0
  6
Continuous
 62
     7
370
    25
100
AcDbCircle
 10
255.972602984
 20
149.0157299885
 30
0.0
 40
0.7875000000000022
100
AcDbArc
 50
283.3417582272
 51
16.6582417728
  0
ARC
  5
2D0
330
1F
100
AcDbEntity
  8
0
  6
Continuous
 62
     7
370
    25
100
AcDbCircle
 10
256.2581671807
 20
147.8116289382
 30
0.0
 40
0.4500000000000204
100
AcDbArc
 50
103.3417582272
 51
180.0
  0
ARC
  5
2D1
330
1F
100
AcDbEntity
  8
0
  6
Continuous
 62
     7
370
    25
100
AcDbCircle
 10
257.1581671807
 20
149.370474665
 30
0.0
 40
0.4500000000000193
100
AcDbArc
 50
120.0
 51
196.6582417728
  0
ARC
  5
2D2
330
1F
100
AcDbEntity
  8
0
  6
Continuous
 62
     7
370
    25
100
AcDbCircle
 10
257.1581671807
 20
146.2527832113
 30
0.0
 40
0.4500000000000188
100
AcDbArc
 50
240.0
 51
316.6582417728
  0
ARC
  5
2D3
330
1F
100
AcDbEntity
  8
0
  6
Continuous
 62
     7
370
    25
100
AcDbCircle
 10
258.0581671807
 20
145.4034268374
 30
0.0
 40
0.7874999999999812
100
AcDbArc
 50
43.3417582272
 51
136.6582417728
  0
ARC
  5
2D4
330
1F
100
AcDbEntity
  8
0
  6
Continuous
 62
     7
370
    25
100
AcDbCircle
 10
258.9581671807
 20
146.2527832113
 30
0.0
 40
0.450000000000047
100
AcDbArc
 50
223.3417582272
 51
300.0
  0
ARC
  5
2D5
330
1F
100
AcDbEntity
  8
0
  6
Continuous
 62
     7
370
    25
100
AcDbCircle
 10
260.1437313774
 20
149.0157299885
 30
0.0
 40
0.7875000000000595
100
AcDbArc
 50
163.3417582272
 51
256.6582417728
  0
ARC
  5
2D6
330
1F
100
AcDbEntity
  8
0
  6
Continuous
 62
     7
370
    25
100
AcDbCircle
 10
258.9581671807
 20
149.370474665
 30
0.0
 40
0.4499999999999942
100
AcDbArc
 50
343.3417582272
 51
60.0
  0
ARC
  5
2D7
330
1F
100
AcDbEntity
  8
0
  6
Continuous
 62
     7
370
    25
100
AcDbCircle
 10
259.8581671807
 20
147.8116289382
 30
0.0
 40
0.4500000000000455
100
AcDbArc
 50
0.0
 51
76.6582417728
  0
ARC
  5
2D8
330
1F
100
AcDbEntity
  8
0
  6
Continuous
 62
     7
370
    25
100
AcDbCircle
 10
260.1437313774
 20
146.6075278878
 30
0.0
 40
0.7875000000000514
100
AcDbArc
 50
103.3417582272
 51
196.6582417728
  0
ARC
  5
2D9
330
1F
100
AcDbEntity
  8
0
  6
Continuous
 62
     7
370
    25
100
AcDbCircle
 10
259.8581671807
 20
147.8116289382
 30
0.0
 40
0.4500000000000455
100
AcDbArc
 50
283.3417582272
 51
0.0
  0
ARC
  5
2DA
330
1F
100
AcDbEntity
  8
0
  6
Continuous
 62
     7
370
    25
100
AcDbCircle
 10
258.9581671807
 20
146.2527832113
 30
0.0
 40
0.4500000000000188
100
AcDbArc
 50
300.0
 51
16.6582417728
  0
ARC
  5
2DB
330
1F
100
AcDbEntity
  8
0
  6
Continuous
 62
     7
370
    25
100
AcDbCircle
 10
255.972602984
 20
146.6075278878
 30
0.0
 40
0.7874999999999779
100
AcDbArc
 50
343.3417582272
 51
76.6582417728
  0
ARC
  5
2DC
330
1F
100
AcDbEntity
  8
0
  6
Continuous
 62
     7
370
    25
100
AcDbCircle
 10
257.1581671807
 20
146.2527832113
 30
0.0
 40
0.4500000000000193
100
AcDbArc
 50
163.3417582272
 51
240.0
  0
ARC
  5
2DD
330
1F
100
AcDbEntity
  8
0
  6
Continuous
 62
     7
370
    25
100
AcDbCircle
 10
256.2581671807
 20
147.8116289382
 30
0.0
 40
0.4500000000000171
100
AcDbArc
 50
180.0
 51
256.6582417728
  0
ARC
  5
2DE
330
1F
100
AcDbEntity
  8
0
  6
Continuous
 62
     7
370
    25
100
AcDbCircle
 10
258.0581671807
 20
177.8116289382
 30
0.0
 40
2.250000000000057
100
AcDbArc
 50
300.0
 51
0.0
  0
ARC
  5
2DF
330
1F
100
AcDbEntity
  8
0
  6
Continuous
 62
     7
370
    25
100
AcDbCircle
 10
260.1437313774
 20
176.6075278878
 30
0.0
 40
0.7875000000000595
100
AcDbArc
 50
103.3417582272
 51
196.6582417728
  0
ARC
  5
2E0
330
1F
100
AcDbEntity
  8
0
  6
Continuous
 62
     7
370
    25
100
AcDbCircle
 10
259.8581671807
 20
177.8116289382
 30
0.0
 40
0.4500000000000455
100
AcDbArc
 50
283.3417582272
 51
0.0
  0
ARC
  5
2E1
330
1F
100
AcDbEntity
  8
0
  6
Continuous
 62
     7
370
    25
100
AcDbCircle
 10
258.9581671807
 20
176.2527832113
 30
0.0
 40
0.4499999999999942
100
AcDbArc
 50
300.0
 51
16.6582417728
  0
ARC
  5
2E2
330
1F
100
AcDbEntity
  8
0
  6
Continuous
 62
     7
370
    25
100
AcDbCircle
 10
258.0581671807
 20
177.8116289382
 30
0.0
 40
2.249999999999988
100
AcDbArc
 50
180.0
 51
240.0
  0
ARC
  5
2E3
330
1F
100
AcDbEntity
  8
0
  6
Continuous
 62
     7
370
    25
100
AcDbCircle
 10
256.2581671807
 20
177.8116289382
 30
0.0
 40
0.4500000000000171
100
AcDbArc
 50
180.0
 51
256.6582417728
  0
ARC
  5
2E4
330
1F
100
AcDbEntity
  8
0
  6
Continuous
 62
     7
370
    25
100
AcDbCircle
 10
257.1581671807
 20
176.2527832113
 30
0.0
 40
0.4500000000000274
100
AcDbArc
 50
163.3417582272
 51
240.0
  0
ARC
  5
2E5
330
1F
100
AcDbEntity
  8
0
  6
Continuous
 62
     7
370
    25
100
AcDbCircle
 10
255.972602984
 20
176.6075278878
 30
0.0
 40
0.7874999999999779
100
AcDbArc
 50
343.3417582272
 51
76.6582417728
  0
ARC
  5
2E6
330
1F
100
AcDbEntity
  8
0
  6
Continuous
 62
     7
370
    25
100
AcDbCircle
 10
258.0581671807
 20
177.8116289382
 30
0.0
 40
2.250000000000057
100
AcDbArc
 50
0.0
 51
60.0
  0
ARC
  5
2E7
330
1F
100
AcDbEntity
  8
0
  6
Continuous
 62
     7
370
    25
100
AcDbCircle
 10
258.0581671807
 20
177.8116289382
 30
0.0
 40
2.250000000000041
100
AcDbArc
 50
60.0
 51
120.0
  0
ARC
  5
2E8
330
1F
100
AcDbEntity
  8
0
  6
Continuous
 62
     7
370
    25
100
AcDbCircle
 10
258.0581671807
 20
177.8116289382
 30
0.0
 40
2.250000000000012
100
AcDbArc
 50
120.0
 51
180.0
  0
ARC
  5
2E9
330
1F
100
AcDbEntity
  8
0
  6
Continuous
 62
     7
370
    25
100
AcDbCircle
 10
258.0581671807
 20
177.8116289382
 30
0.0
 40
2.250000000000016
100
AcDbArc
 50
240.0
 51
300.0
  0
CIRCLE
  5
2EA
330
1F
100
AcDbEntity
  8
0
  6
Continuous
 62
     7
370
    25
100
AcDbCircle
 10
258.0581671807
 20
177.8116289382
 30
0.0
 40
3.850000000000023
  0
ARC
  5
2EB
330
1F
100
AcDbEntity
  8
0
  6
Continuous
 62
     7
370
    25
100
AcDbCircle
 10
257.1581671807
 20
179.370474665
 30
0.0
 40
0.4500000000000193
100
AcDbArc
 50
120.0
 51
196.6582417728
  0
ARC
  5
2EC
330
1F
100
AcDbEntity
  8
0
  6
Continuous
 62
     7
370
    25
100
AcDbCircle
 10
255.972602984
 20
179.0157299885
 30
0.0
 40
0.7875000000000022
100
AcDbArc
 50
283.3417582272
 51
16.6582417728
  0
ARC
  5
2ED
330
1F
100
AcDbEntity
  8
0
  6
Continuous
 62
     7
370
    25
100
AcDbCircle
 10
256.2581671807
 20
177.8116289382
 30
0.0
 40
0.4500000000000171
100
AcDbArc
 50
103.3417582272
 51
180.0
  0
ARC
  5
2EE
330
1F
100
AcDbEntity
  8
0
  6
Continuous
 62
     7
370
    25
100
AcDbCircle
 10
257.1581671807
 20
176.2527832113
 30
0.0
 40
0.4499999999999942
100
AcDbArc
 50
240.0
 51
316.6582417728
  0
ARC
  5
2EF
330
1F
100
AcDbEntity
  8
0
  6
Continuous
 62
     7
370
    25
100
AcDbCircle
 10
258.0581671807
 20
175.4034268374
 30
0.0
 40
0.7875000000000008
100
AcDbArc
 50
43.3417582272
 51
136.6582417728
  0
ARC
  5
2F0
330
1F
100
AcDbEntity
  8
0
  6
Continuous
 62
     7
370
    25
100
AcDbCircle
 10
258.9581671807
 20
176.2527832113
 30
0.0
 40
0.450000000000008
100
AcDbArc
 50
223.3417582272
 51
300.0
  0
ARC
  5
2F1
330
1F
100
AcDbEntity
  8
0
  6
Continuous
 62
     7
370
    25
100
AcDbCircle
 10
259.8581671807
 20
177.8116289382
 30
0.0
 40
0.4500000000000455
100
AcDbArc
 50
0.0
 51
76.6582417728
  0
ARC
  5
2F2
330
1F
100
AcDbEntity
  8
0
  6
Continuous
 62
     7
370
    25
100
AcDbCircle
 10
260.1437313774
 20
179.0157299885
 30
0.0
 40
0.7875000000000595
100
AcDbArc
 50
163.3417582272
 51
256.6582417728
  0
ARC
  5
2F3
330
1F
100
AcDbEntity
  8
0
  6
Continuous
 62
     7
370
    25
100
AcDbCircle
 10
258.9581671807
 20
179.370474665
 30
0.0
 40
0.4499999999999942
100
AcDbArc
 50
343.3417582272
 51
60.0
  0
ARC
  5
2F4
330
1F
100
AcDbEntity
  8
0
  6
Continuous
 62
     7
370
    25
100
AcDbCircle
 10
258.0581671807
 20
180.2198310389
 30
0.0
 40
0.7874999999999812
100
AcDbArc
 50
223.3417582272
 51
316.6582417728
  0
ARC
  5
2F5
330
1F
100
AcDbEntity
  8
0
  6
Continuous
 62
     7
370
    25
100
AcDbCircle
 10
257.1581671807
 20
179.370474665
 30
0.0
 40
0.4499999999999942
100
AcDbArc
 50
43.3417582272
 51
120.0
  0
ARC
  5
2F6
330
1F
100
AcDbEntity
  8
0
  6
Continuous
 62
     7
370
    25
100
AcDbCircle
 10
258.9581671807
 20
179.370474665
 30
0.0
 40
0.4500000000000275
100
AcDbArc
 50
60.0
 51
136.6582417728
  0
LINE
  5
2F7
330
1F
100
AcDbEntity
  8
0
  6
Continuous
 62
     7
370
    25
100
AcDbLine
 10
-36.0232159597
 20
149.3116289382
 30
0.0
 11
-78.0232159597
 21
149.3116289382
 31
0.0
  0
LINE
  5
2F8
330
1F
100
AcDbEntity
  8
0
  6
Continuous
 62
     7
370
    25
100
AcDbLine
 10
-41.0232159597
 20
65.3116289382
 30
0.0
 11
-73.0232159597
 21
65.3116289382
 31
0.0
  0
LINE
  5
2F9
330
1F
100
AcDbEntity
  8
0
  6
Continuous
 62
     7
370
    25
100
AcDbLine
 10
-111.0850582914
 20
191.3116289382
 30
0.0
 11
-107.404651635
 21
191.3116289382
 31
0.0
  0
LINE
  5
2FA
330
1F
100
AcDbEntity
  8
0
  6
Continuous
 62
     7
370
    25
100
AcDbLine
 10
-149.404651635
 20
191.3116289382
 30
0.0
 11
-111.0850582914
 21
191.3116289382
 31
0.0
  0
LINE
  5
2FB
330
1F
100
AcDbEntity
  8
0
  6
Continuous
 62
     7
370
    25
100
AcDbLine
 10
-115.2087709923
 20
275.3116289382
 30
0.0
 11
-112.404651635
 21
275.3116289382
 31
0.0
  0
LINE
  5
2FC
330
1F
100
AcDbEntity
  8
0
  6
Continuous
 62
     7
370
    25
100
AcDbLine
 10
-144.404651635
 20
275.3116289382
 30
0.0
 11
-115.2087709923
 21
275.3116289382
 31
0.0
  0
LINE
  5
2FD
330
1F
100
AcDbEntity
  8
0
  6
Continuous
 62
     7
370
    25
100
AcDbLine
 10
-107.404651635
 20
134.3116289382
 30
0.0
 11
-149.404651635
 21
134.3116289382
 31
0.0
  0
LINE
  5
2FE
330
1F
100
AcDbEntity
  8
0
  6
Continuous
 62
     7
370
    25
100
AcDbLine
 10
-112.404651635
 20
50.3116289382
 30
0.0
 11
-144.404651635
 21
50.3116289382
 31
0.0
  0
LINE
  5
2FF
330
1F
100
AcDbEntity
  8
0
  6
Continuous
 62
     7
370
    25
100
AcDbLine
 10
-39.7036226162
 20
176.3116289382
 30
0.0
 11
-36.0232159597
 21
176.3116289382
 31
0.0
  0
LINE
  5
300
330
1F
100
AcDbEntity
  8
0
  6
Continuous
 62
     7
370
    25
100
AcDbLine
 10
-78.0232159597
 20
176.3116289382
 30
0.0
 11
-39.7036226162
 21
176.3116289382
 31
0.0
  0
LINE
  5
301
330
1F
100
AcDbEntity
  8
0
  6
Continuous
 62
     7
370
    25
100
AcDbLine
 10
-43.827335317
 20
260.3116289382
 30
0.0
 11
-41.0232159597
 21
260.3116289382
 31
0.0
  0
LINE
  5
302
330
1F
100
AcDbEntity
  8
0
  6
Continuous
 62
     7
370
    25
100
AcDbLine
 10
-73.0232159597
 20
260.3116289382
 30
0.0
 11
-43.827335317
 21
260.3116289382
 31
0.0
  0
LINE
  5
303
330
1F
100
AcDbEntity
  8
0
  6
Continuous
 62
     7
370
    25
100
AcDbLine
 10
-71.0232159597
 20
47.3116289382
 30
0.0
 11
-43.0232159597
 21
47.3116289382
 31
0.0
  0
LINE
  5
304
330
1F
100
AcDbEntity
  8
0
  6
Continuous
 62
     7
370
    25
100
AcDbLine
 10
-116.8582560726
 20
293.3116289382
 30
0.0
 11
-142.404651635
 21
293.3116289382
 31
0.0
  0
LINE
  5
305
330
1F
100
AcDbEntity
  8
0
  6
Continuous
 62
     7
370
    25
100
AcDbLine
 10
-114.404651635
 20
293.3116289382
 30
0.0
 11
-116.8582560726
 21
293.3116289382
 31
0.0
  0
LINE
  5
306
330
1F
100
AcDbEntity
  8
0
  6
Continuous
 62
     7
370
    25
100
AcDbLine
 10
-45.4768203974
 20
278.3116289382
 30
0.0
 11
-71.0232159597
 21
278.3116289382
 31
0.0
  0
LINE
  5
307
330
1F
100
AcDbEntity
  8
0
  6
Continuous
 62
     7
370
    25
100
AcDbLine
 10
-43.0232159597
 20
278.3116289382
 30
0.0
 11
-45.4768203974
 21
278.3116289382
 31
0.0
  0
LINE
  5
308
330
1F
100
AcDbEntity
  8
0
  6
Continuous
 62
     7
370
    25
100
AcDbLine
 10
-142.404651635
 20
32.3116289382
 30
0.0
 11
-114.404651635
 21
32.3116289382
 31
0.0
  0
ARC
  5
309
330
1F
100
AcDbEntity
  8
0
  6
Continuous
 62
     7
370
    25
100
AcDbCircle
 10
108.0582031477
 20
337.8115671899
 30
0.0
 40
124.9999307039029
100
AcDbArc
 50
277.9281298636
 51
319.8727244278
  0
LWPOLYLINE
  5
30A
330
1F
100
AcDbEntity
  8
0
  6
Continuous
 62
     7
370
    25
100
AcDbPolyline
 90
        7
 70
   128
 43
0.0
 10
203.6349851807
 20
257.2506497907
 10
203.7648131781
 20
257.1422812231
 10
204.139664943
 20
256.8294011226
 10
204.7172958771
 20
256.3473008953
 10
205.4326071554
 20
255.7503496772
 10
205.8529477919
 20
255.3995922166
 10
205.9382742514
 20
255.3283935062
  0
ARC
  5
30B
330
1F
100
AcDbEntity
  8
0
  6
Continuous
 62
     7
370
    25
100
AcDbCircle
 10
108.0582031477
 20
337.8115671899
 30
0.0
 40
127.9999307039029
100
AcDbArc
 50
277.928130342
 51
319.8792848399
  0
LINE
  5
30C
330
1F
100
AcDbEntity
  8
0
  6
Continuous
 62
     7
370
    25
100
AcDbLine
 10
125.2995471807
 20
214.0064027907
 30
0.0
 11
125.7133407255
 21
211.0350773454
 31
0.0
  0
ARC
  5
30D
330
1F
100
AcDbEntity
  8
0
  6
Continuous
 62
     7
370
    25
100
AcDbCircle
 10
252.5588588795
 20
216.8098332785
 30
0.0
 40
63.47444413198313
100
AcDbArc
 50
67.7246621443
 51
140.422626138
  0
LWPOLYLINE
  5
30E
330
1F
100
AcDbEntity
  8
0
  6
Continuous
 62
     7
370
    25
100
AcDbPolyline
 90
        7
 70
   128
 43
0.0
 10
276.6193471807
 20
275.5473677907
 10
276.5507576446
 20
275.3928312895
 10
276.3527572236
 20
274.9466791833
 10
276.0476760276
 20
274.2591106127
 10
275.6698334951
 20
273.4073292001
 10
275.4203658475
 20
272.8448041586
 10
275.4022390919
 20
272.8039255878
  0
ARC
  5
30F
330
1F
100
AcDbEntity
  8
0
  6
Continuous
 62
     7
370
    25
100
AcDbCircle
 10
252.5588588795
 20
216.8098332785
 30
0.0
 40
60.47444413198318
100
AcDbArc
 50
67.8064786741
 51
140.4360199895
  0
ARC
  5
310
330
1F
100
AcDbEntity
  8
0
  6
Continuous
 62
     7
370
    25
100
AcDbCircle
 10
252.5588595589
 20
108.8134248029
 30
0.0
 40
60.47444433711904
100
AcDbArc
 50
219.5639792539
 51
292.1935205693
  0
LWPOLYLINE
  5
311
330
1F
100
AcDbEntity
  8
0
  6
Continuous
 62
     7
370
    25
100
AcDbPolyline
 90
        7
 70
   128
 43
0.0
 10
276.6193471807
 20
50.0758897907
 10
276.5507576456
 20
50.2304262924
 10
276.3527572275
 20
50.6765783997
 10
276.047676036
 20
51.3641469723
 10
275.669833509
 20
52.2159283874
 10
275.4203658628
 20
52.7784534357
 10
275.4022391094
 20
52.819332002
  0
ARC
  5
312
330
1F
100
AcDbEntity
  8
0
  6
Continuous
 62
     7
370
    25
100
AcDbCircle
 10
252.5588595589
 20
108.8134248029
 30
0.0
 40
63.47444433711905
100
AcDbArc
 50
219.5773731234
 51
292.2753371171
  0
LWPOLYLINE
  5
313
330
1F
100
AcDbEntity
  8
0
  6
Continuous
 62
     7
370
    25
100
AcDbPolyline
 90
        7
 70
   128
 43
0.0
 10
205.9382742641
 20
70.2948650602
 10
205.8529478615
 20
70.2236663982
 10
205.4326071652
 20
69.8729088925
 10
204.7172958829
 20
69.2759576791
 10
204.1396649457
 20
68.7938574556
 10
203.7648131788
 20
68.4809773575
 10
203.6349851807
 20
68.3726087907
  0
ARC
  5
314
330
1F
100
AcDbEntity
  8
0
  6
Continuous
 62
     7
370
    25
100
AcDbCircle
 10
108.0582031477
 20
-12.1883086085
 30
0.0
 40
127.9999307039032
100
AcDbArc
 50
40.1207151513
 51
82.0718701364
  0
ARC
  5
315
330
1F
100
AcDbEntity
  8
0
  6
Continuous
 62
     7
370
    25
100
AcDbCircle
 10
108.0582031477
 20
-12.1883086085
 30
0.0
 40
124.9999307039031
100
AcDbArc
 50
40.1272755722
 51
82.0718701364
  0
LINE
  5
316
330
1F
100
AcDbEntity
  8
0
  6
Continuous
 62
     7
370
    25
100
AcDbLine
 10
125.7133396669
 20
114.5881813835
 30
0.0
 11
125.2995471807
 21
111.6168557907
 31
0.0
  0
ARC
  5
317
330
1F
100
AcDbEntity
  8
0
  6
Continuous
 62
     7
370
    25
100
AcDbCircle
 10
222.6225790534
 20
162.8116287907
 30
0.0
 40
124.9999912642761
100
AcDbArc
 50
295.5929116477
 51
64.4070883523
  0
ARC
  5
318
330
1F
100
AcDbEntity
  8
0
  6
Continuous
 62
     7
370
    25
100
AcDbCircle
 10
222.6225790534
 20
162.8116287907
 30
0.0
 40
121.9999912642761
100
AcDbArc
 50
295.6339596125
 51
64.3660403967
  0
ARC
  5
319
330
1F
100
AcDbEntity
  8
0
  6
Continuous
 62
     7
370
    25
100
AcDbCircle
 10
128.058171394
 20
131.4256962662
 30
0.0
 40
17.00000421330671
100
AcDbArc
 50
180.0000099564
 51
262.0718461204
  0
LINE
  5
31A
330
1F
100
AcDbEntity
  8
0
  6
Continuous
 62
     7
370
    25
100
AcDbLine
 10
111.0581671807
 20
194.1975657907
 30
0.0
 11
111.0581671807
 21
131.425693312
 31
0.0
  0
ARC
  5
31B
330
1F
100
AcDbEntity
  8
0
  6
Continuous
 62
     7
370
    25
100
AcDbCircle
 10
128.058171394
 20
194.1975623153
 30
0.0
 40
17.00000421330671
100
AcDbArc
 50
97.9281502772
 51
179.9999882865
  0
CIRCLE
  5
31C
330
1F
100
AcDbEntity
  8
0
  6
Continuous
 62
     7
370
    25
100
AcDbCircle
 10
258.0581671807
 20
147.8116289382
 30
0.0
 40
4.699999999999989
  0
CIRCLE
  5
31D
330
1F
100
AcDbEntity
  8
0
  6
Continuous
 62
     7
370
    25
100
AcDbCircle
 10
258.0581671807
 20
177.8116289382
 30
0.0
 40
4.700000000000017
  0
CIRCLE
  5
31E
330
1F
100
AcDbEntity
  8
0
  6
Continuous
 62
     7
370
    25
100
AcDbCircle
 10
168.0581671807
 20
162.8116289382
 30
0.0
 40
4.699999999999989
  0
ARC
  5
31F
330
1F
100
AcDbEntity
  8
0
  6
Continuous
 62
     7
370
    25
100
AcDbCircle
 10
128.058171394
 20
131.4256962662
 30
0.0
 40
20.00000421330673
100
AcDbArc
 50
180.0000099564
 51
262.0718497228
  0
LINE
  5
320
330
1F
100
AcDbEntity
  8
0
  6
Continuous
 62
     7
370
    25
100
AcDbLine
 10
111.0581671807
 20
131.425693312
 30
0.0
 11
108.0581671807
 21
131.4256927907
 31
0.0
  0
LINE
  5
321
330
1F
100
AcDbEntity
  8
0
  6
Continuous
 62
     7
370
    25
100
AcDbLine
 10
111.0581671807
 20
194.1975657907
 30
0.0
 11
108.0581671807
 21
194.1975657907
 31
0.0
  0
ARC
  5
322
330
1F
100
AcDbEntity
  8
0
  6
Continuous
 62
     7
370
    25
100
AcDbCircle
 10
128.058171394
 20
194.1975623153
 30
0.0
 40
20.00000421330669
100
AcDbArc
 50
97.9281502772
 51
179.9999900436
  0
LINE
  5
323
330
1F
100
AcDbEntity
  8
0
  6
Continuous
 62
     7
370
    25
100
AcDbLine
 10
108.0581671807
 20
131.4256927907
 30
0.0
 11
108.0581671807
 21
194.1975657907
 31
0.0
  0
LINE
  5
324
330
1F
100
AcDbEntity
  8
0
  6
Continuous
 62
     8
370
    25
100
AcDbLine
 10
36.7958036366
 20
173.3116289382
 30
0.0
 11
0.515232148
 21
173.3116289382
 31
0.0
  0
LINE
  5
325
330
1F
100
AcDbEntity
  8
0
  6
Continuous
 62
     8
370
    25
100
AcDbLine
 10
0.515232148
 20
182.3116289382
 30
0.0
 11
36.7958036366
 21
182.3116289382
 31
0.0
  0
LINE
  5
326
330
1F
100
AcDbEntity
  8
0
  6
Continuous
 62
     8
370
    25
100
AcDbLine
 10
-22.4224189381
 20
173.3116289382
 30
0.0
 11
-33.0232159597
 21
173.3116289382
 31
0.0
  0
ARC
  5
327
330
1F
100
AcDbEntity
  8
0
  6
Continuous
 62
     8
370
    25
100
AcDbCircle
 10
-37.3597697802
 20
182.6009960161
 30
0.0
 40
2.71284355025835
100
AcDbArc
 50
92.3131969321
 51
169.0493883257
  0
LINE
  5
328
330
1F
100
AcDbEntity
  8
0
  6
Continuous
 62
     8
370
    25
100
AcDbLine
 10
-77.256192968
 20
182.3116289382
 30
0.0
 11
-74.0232159597
 21
182.3116289382
 31
0.0
  0
LINE
  5
329
330
1F
100
AcDbEntity
  8
0
  6
Continuous
 62
     8
370
    25
100
AcDbLine
 10
-77.256192968
 20
182.3116289382
 30
0.0
 11
-77.256192968
 21
176.3116289382
 31
0.0
  0
LINE
  5
32A
330
1F
100
AcDbEntity
  8
0
  6
Continuous
 62
     8
370
    25
100
AcDbLine
 10
-81.0232159597
 20
173.3116289382
 30
0.0
 11
-87.7647712088
 21
173.3116289382
 31
0.0
  0
LINE
  5
32B
330
1F
100
AcDbEntity
  8
0
  6
Continuous
 62
     8
370
    25
100
AcDbLine
 10
-155.3127314187
 20
173.3116289382
 30
0.0
 11
-158.2974414636
 21
173.3116289382
 31
0.0
  0
LINE
  5
32C
330
1F
100
AcDbEntity
  8
0
  6
Continuous
 62
     8
370
    25
100
AcDbLine
 10
-158.2974414636
 20
182.3116289382
 30
0.0
 11
-155.3127314187
 21
182.3116289382
 31
0.0
  0
LINE
  5
32D
330
1F
100
AcDbEntity
  8
0
  6
Continuous
 62
     8
370
    25
100
AcDbLine
 10
54.0778525082
 20
173.3116289382
 30
0.0
 11
36.7958036366
 21
173.3116289382
 31
0.0
  0
LINE
  5
32E
330
1F
100
AcDbEntity
  8
0
  6
Continuous
 62
     8
370
    25
100
AcDbLine
 10
36.7958036366
 20
182.3116289382
 30
0.0
 11
54.0778525082
 21
182.3116289382
 31
0.0
  0
LINE
  5
32F
330
1F
100
AcDbEntity
  8
0
  6
Continuous
 62
     8
370
    25
100
AcDbLine
 10
505.9226947899
 20
173.3116289382
 30
0.0
 11
347.1807895936
 21
173.3116289382
 31
0.0
  0
LINE
  5
330
330
1F
100
AcDbEntity
  8
0
  6
Continuous
 62
     8
370
    25
100
AcDbLine
 10
108.0581671807
 20
173.3116289382
 30
0.0
 11
54.1653208057
 21
173.3116289382
 31
0.0
  0
LINE
  5
331
330
1F
100
AcDbEntity
  8
0
  6
Continuous
 62
     8
370
    25
100
AcDbLine
 10
54.1653208057
 20
182.3116289382
 30
0.0
 11
108.0581671807
 21
182.3116289382
 31
0.0
  0
LINE
  5
332
330
1F
100
AcDbEntity
  8
0
  6
Continuous
 62
     8
370
    25
100
AcDbLine
 10
346.09220208
 20
182.3116289382
 30
0.0
 11
505.9226947899
 21
182.3116289382
 31
0.0
  0
LINE
  5
333
330
1F
100
AcDbEntity
  8
0
  6
Continuous
 62
     8
370
    25
100
AcDbLine
 10
533.1366747956
 20
173.3116289382
 30
0.0
 11
505.9226947899
 21
173.3116289382
 31
0.0
  0
LINE
  5
334
330
1F
100
AcDbEntity
  8
0
  6
Continuous
 62
     8
370
    25
100
AcDbLine
 10
505.9226947899
 20
182.3116289382
 30
0.0
 11
533.1366747956
 21
182.3116289382
 31
0.0
  0
LINE
  5
335
330
1F
100
AcDbEntity
  8
0
  6
Continuous
 62
     8
370
    25
100
AcDbLine
 10
342.7672743416
 20
197.3116289382
 30
0.0
 11
423.6477838626
 21
197.3116289382
 31
0.0
  0
LINE
  5
336
330
1F
100
AcDbEntity
  8
0
  6
Continuous
 62
     8
370
    25
100
AcDbLine
 10
423.6477838626
 20
188.3116289382
 30
0.0
 11
344.9939311279
 21
188.3116289382
 31
0.0
  0
LINE
  5
337
330
1F
100
AcDbEntity
  8
0
  6
Continuous
 62
     8
370
    25
100
AcDbLine
 10
437.0506183098
 20
197.3116289382
 30
0.0
 11
444.9078392049
 21
197.3116289382
 31
0.0
  0
LINE
  5
338
330
1F
100
AcDbEntity
  8
0
  6
Continuous
 62
     8
370
    25
100
AcDbLine
 10
444.9078392049
 20
188.3116289382
 30
0.0
 11
437.0506183098
 21
188.3116289382
 31
0.0
  0
LINE
  5
339
330
1F
100
AcDbEntity
  8
0
  6
Continuous
 62
     8
370
    25
100
AcDbLine
 10
444.9078392049
 20
197.3116289382
 30
0.0
 11
477.0245301827
 21
197.3116289382
 31
0.0
  0
LINE
  5
33A
330
1F
100
AcDbEntity
  8
0
  6
Continuous
 62
     8
370
    25
100
AcDbLine
 10
477.0245301827
 20
188.3116289382
 30
0.0
 11
444.9078392049
 21
188.3116289382
 31
0.0
  0
LINE
  5
33B
330
1F
100
AcDbEntity
  8
0
  6
Continuous
 62
     8
370
    25
100
AcDbLine
 10
559.4124838894
 20
188.3116289382
 30
0.0
 11
555.6566040724
 21
188.3116289382
 31
0.0
  0
LINE
  5
33C
330
1F
100
AcDbEntity
  8
0
  6
Continuous
 62
     8
370
    25
100
AcDbLine
 10
555.6566040724
 20
197.3116289382
 30
0.0
 11
559.4124838894
 21
197.3116289382
 31
0.0
  0
LINE
  5
33D
330
1F
100
AcDbEntity
  8
0
  6
Continuous
 62
     8
370
    25
100
AcDbLine
 10
54.0778525082
 20
152.3116289382
 30
0.0
 11
36.7958036366
 21
152.3116289382
 31
0.0
  0
LINE
  5
33E
330
1F
100
AcDbEntity
  8
0
  6
Continuous
 62
     8
370
    25
100
AcDbLine
 10
36.7958036366
 20
143.3116289382
 30
0.0
 11
54.0778525082
 21
143.3116289382
 31
0.0
  0
LINE
  5
33F
330
1F
100
AcDbEntity
  8
0
  6
Continuous
 62
     8
370
    25
100
AcDbLine
 10
505.9226947899
 20
152.3116289382
 30
0.0
 11
347.1807896184
 21
152.3116289382
 31
0.0
  0
LINE
  5
340
330
1F
100
AcDbEntity
  8
0
  6
Continuous
 62
     8
370
    25
100
AcDbLine
 10
108.0581671807
 20
152.3116289382
 30
0.0
 11
54.1653208057
 21
152.3116289382
 31
0.0
  0
LINE
  5
341
330
1F
100
AcDbEntity
  8
0
  6
Continuous
 62
     8
370
    25
100
AcDbLine
 10
54.1653208057
 20
143.3116289382
 30
0.0
 11
108.0581671807
 21
143.3116289382
 31
0.0
  0
LINE
  5
342
330
1F
100
AcDbEntity
  8
0
  6
Continuous
 62
     8
370
    25
100
AcDbLine
 10
346.0922021265
 20
143.3116289382
 30
0.0
 11
505.9226947899
 21
143.3116289382
 31
0.0
  0
LINE
  5
343
330
1F
100
AcDbEntity
  8
0
  6
Continuous
 62
     8
370
    25
100
AcDbLine
 10
533.1366747956
 20
152.3116289382
 30
0.0
 11
505.9226947899
 21
152.3116289382
 31
0.0
  0
LINE
  5
344
330
1F
100
AcDbEntity
  8
0
  6
Continuous
 62
     8
370
    25
100
AcDbLine
 10
505.9226947899
 20
143.3116289382
 30
0.0
 11
533.1366747956
 21
143.3116289382
 31
0.0
  0
LINE
  5
345
330
1F
100
AcDbEntity
  8
0
  6
Continuous
 62
     8
370
    25
100
AcDbLine
 10
342.7672744263
 20
128.3116289382
 30
0.0
 11
423.6477838626
 21
128.3116289382
 31
0.0
  0
LINE
  5
346
330
1F
100
AcDbEntity
  8
0
  6
Continuous
 62
     8
370
    25
100
AcDbLine
 10
423.6477838626
 20
137.3116289382
 30
0.0
 11
344.9939311894
 21
137.3116289382
 31
0.0
  0
LINE
  5
347
330
1F
100
AcDbEntity
  8
0
  6
Continuous
 62
     8
370
    25
100
AcDbLine
 10
437.0506183098
 20
128.3116289382
 30
0.0
 11
444.9078392049
 21
128.3116289382
 31
0.0
  0
LINE
  5
348
330
1F
100
AcDbEntity
  8
0
  6
Continuous
 62
     8
370
    25
100
AcDbLine
 10
444.9078392049
 20
137.3116289382
 30
0.0
 11
437.0506183098
 21
137.3116289382
 31
0.0
  0
LINE
  5
349
330
1F
100
AcDbEntity
  8
0
  6
Continuous
 62
     8
370
    25
100
AcDbLine
 10
444.9078392049
 20
128.3116289382
 30
0.0
 11
477.0245301827
 21
128.3116289382
 31
0.0
  0
LINE
  5
34A
330
1F
100
AcDbEntity
  8
0
  6
Continuous
 62
     8
370
    25
100
AcDbLine
 10
477.0245301827
 20
137.3116289382
 30
0.0
 11
444.9078392049
 21
137.3116289382
 31
0.0
  0
LINE
  5
34B
330
1F
100
AcDbEntity
  8
0
  6
Continuous
 62
     8
370
    25
100
AcDbLine
 10
555.6566040724
 20
128.3116289382
 30
0.0
 11
559.4124838894
 21
128.3116289382
 31
0.0
  0
LINE
  5
34C
330
1F
100
AcDbEntity
  8
0
  6
Continuous
 62
     8
370
    25
100
AcDbLine
 10
559.4124838894
 20
137.3116289382
 30
0.0
 11
555.6566040724
 21
137.3116289382
 31
0.0
  0
LINE
  5
34D
330
1F
100
AcDbEntity
  8
0
  6
Continuous
 62
     8
370
    25
100
AcDbLine
 10
347.5415440563
 20
158.3116289382
 30
0.0
 11
505.9226947899
 21
158.3116289382
 31
0.0
  0
LINE
  5
34E
330
1F
100
AcDbEntity
  8
0
  6
Continuous
 62
     8
370
    25
100
AcDbLine
 10
505.9226947899
 20
167.3116289382
 30
0.0
 11
347.5415440457
 21
167.3116289382
 31
0.0
  0
LINE
  5
34F
330
1F
100
AcDbEntity
  8
0
  6
Continuous
 62
     8
370
    25
100
AcDbLine
 10
505.9226947899
 20
158.3116289382
 30
0.0
 11
533.1366747956
 21
158.3116289382
 31
0.0
  0
LINE
  5
350
330
1F
100
AcDbEntity
  8
0
  6
Continuous
 62
     8
370
    25
100
AcDbLine
 10
533.1366747956
 20
167.3116289382
 30
0.0
 11
505.9226947899
 21
167.3116289382
 31
0.0
  0
LINE
  5
351
330
1F
100
AcDbEntity
  8
0
  6
Continuous
 62
     8
370
    25
100
AcDbLine
 10
533.1366747956
 20
158.3116289382
 30
0.0
 11
538.6209006551
 21
158.3116289382
 31
0.0
  0
LINE
  5
352
330
1F
100
AcDbEntity
  8
0
  6
Continuous
 62
     8
370
    25
100
AcDbLine
 10
538.6209006551
 20
167.3116289382
 30
0.0
 11
533.1366747956
 21
167.3116289382
 31
0.0
  0
LINE
  5
353
330
1F
100
AcDbEntity
  8
0
  6
Continuous
 62
     8
370
    25
100
AcDbLine
 10
36.7958036366
 20
152.3116289382
 30
0.0
 11
0.515232148
 21
152.3116289382
 31
0.0
  0
LINE
  5
354
330
1F
100
AcDbEntity
  8
0
  6
Continuous
 62
     8
370
    25
100
AcDbLine
 10
0.515232148
 20
143.3116289382
 30
0.0
 11
36.7958036366
 21
143.3116289382
 31
0.0
  0
LINE
  5
355
330
1F
100
AcDbEntity
  8
0
  6
Continuous
 62
     8
370
    25
100
AcDbLine
 10
-22.4224189381
 20
152.3116289382
 30
0.0
 11
-33.0232159597
 21
152.3116289382
 31
0.0
  0
ARC
  5
356
330
1F
100
AcDbEntity
  8
0
  6
Continuous
 62
     8
370
    25
100
AcDbCircle
 10
-37.3597697802
 20
143.0222618602
 30
0.0
 40
2.712843550258163
100
AcDbArc
 50
190.9506116743
 51
267.6868030679
  0
LINE
  5
357
330
1F
100
AcDbEntity
  8
0
  6
Continuous
 62
     8
370
    25
100
AcDbLine
 10
-77.256192968
 20
143.3116289382
 30
0.0
 11
-74.0232159597
 21
143.3116289382
 31
0.0
  0
LINE
  5
358
330
1F
100
AcDbEntity
  8
0
  6
Continuous
 62
     8
370
    25
100
AcDbLine
 10
-77.256192968
 20
143.3116289382
 30
0.0
 11
-77.256192968
 21
149.3116289382
 31
0.0
  0
LINE
  5
359
330
1F
100
AcDbEntity
  8
0
  6
Continuous
 62
     8
370
    25
100
AcDbLine
 10
-81.0232159597
 20
152.3116289382
 30
0.0
 11
-87.7647712088
 21
152.3116289382
 31
0.0
  0
LINE
  5
35A
330
1F
100
AcDbEntity
  8
0
  6
Continuous
 62
     8
370
    25
100
AcDbLine
 10
-158.2974414636
 20
143.3116289382
 30
0.0
 11
-155.3127314187
 21
143.3116289382
 31
0.0
  0
LINE
  5
35B
330
1F
100
AcDbEntity
  8
0
  6
Continuous
 62
     8
370
    25
100
AcDbLine
 10
-155.3127314187
 20
152.3116289382
 30
0.0
 11
-158.2974414636
 21
152.3116289382
 31
0.0
  0
LINE
  5
35C
330
1F
100
AcDbEntity
  8
0
  6
Continuous
 62
     8
370
    25
100
AcDbLine
 10
-86.0071620461
 20
158.3116289382
 30
0.0
 11
-28.0392698733
 21
158.3116289382
 31
0.0
  0
LINE
  5
35D
330
1F
100
AcDbEntity
  8
0
  6
Continuous
 62
     8
370
    25
100
AcDbLine
 10
-28.0392698733
 20
167.3116289382
 30
0.0
 11
-86.0071620461
 21
167.3116289382
 31
0.0
  0
LINE
  5
35E
330
1F
100
AcDbEntity
  8
0
  6
Continuous
 62
     8
370
    25
100
AcDbLine
 10
-137.5399001506
 20
158.3116289382
 30
0.0
 11
-117.2359497431
 21
158.3116289382
 31
0.0
  0
LINE
  5
35F
330
1F
100
AcDbEntity
  8
0
  6
Continuous
 62
     8
370
    25
100
AcDbLine
 10
-117.2359497431
 20
167.3116289382
 30
0.0
 11
-137.5399001506
 21
167.3116289382
 31
0.0
  0
LINE
  5
360
330
1F
100
AcDbEntity
  8
0
  6
Continuous
 62
     8
370
    25
100
AcDbLine
 10
-117.0637834518
 20
158.3116289382
 30
0.0
 11
-86.0071620461
 21
158.3116289382
 31
0.0
  0
LINE
  5
361
330
1F
100
AcDbEntity
  8
0
  6
Continuous
 62
     8
370
    25
100
AcDbLine
 10
-86.0071620461
 20
167.3116289382
 30
0.0
 11
-117.0637834518
 21
167.3116289382
 31
0.0
  0
ARC
  5
362
330
1F
100
AcDbEntity
  8
0
  6
Continuous
 62
     8
370
    25
100
AcDbCircle
 10
-106.7893286348
 20
168.8901390686
 30
0.0
 40
1.427178164986608
100
AcDbArc
 50
95.117218477
 51
149.7025322458
  0
ARC
  5
363
330
1F
100
AcDbEntity
  8
0
  6
Continuous
 62
     8
370
    25
100
AcDbCircle
 10
-106.7858667933
 20
156.7428338869
 30
0.0
 40
1.437165615564947
100
AcDbArc
 50
209.3838113267
 51
264.7798634533
  0
LINE
  5
364
330
1F
100
AcDbEntity
  8
0
  6
Continuous
 62
     8
370
    25
100
AcDbLine
 10
-158.0435085082
 20
158.3116289382
 30
0.0
 11
-137.5399001506
 21
158.3116289382
 31
0.0
  0
LINE
  5
365
330
1F
100
AcDbEntity
  8
0
  6
Continuous
 62
     8
370
    25
100
AcDbLine
 10
-137.5399001506
 20
167.3116289382
 30
0.0
 11
-158.0435085082
 21
167.3116289382
 31
0.0
  0
LINE
  5
366
330
1F
100
AcDbEntity
  8
0
  6
Continuous
 62
     8
370
    25
100
AcDbLine
 10
-172.4250623629
 20
158.3116289382
 30
0.0
 11
-158.0435085082
 21
158.3116289382
 31
0.0
  0
LINE
  5
367
330
1F
100
AcDbEntity
  8
0
  6
Continuous
 62
     8
370
    25
100
AcDbLine
 10
-158.0435085082
 20
167.3116289382
 30
0.0
 11
-172.4250623629
 21
167.3116289382
 31
0.0
  0
LINE
  5
368
330
1F
100
AcDbEntity
  8
0
  6
Continuous
 62
     8
370
    25
100
AcDbLine
 10
89.3980766569
 20
158.3116289382
 30
0.0
 11
108.0581671807
 21
158.3116289382
 31
0.0
  0
ARC
  5
369
330
1F
100
AcDbEntity
  8
0
  6
Continuous
 62
     8
370
    25
100
AcDbCircle
 10
105.7825564818
 20
157.8720141251
 30
0.0
 40
2.562062868260194
100
AcDbArc
 50
272.0735817895
 51
332.6472649214
  0
LINE
  5
36A
330
1F
100
AcDbEntity
  8
0
  6
Continuous
 62
     8
370
    25
100
AcDbLine
 10
108.0581671807
 20
167.3116289382
 30
0.0
 11
89.3980766569
 21
167.3116289382
 31
0.0
  0
ARC
  5
36B
330
1F
100
AcDbEntity
  8
0
  6
Continuous
 62
     8
370
    25
100
AcDbCircle
 10
105.7825564818
 20
167.7512437512
 30
0.0
 40
2.562062868260038
100
AcDbArc
 50
27.3527350786
 51
87.9264182105
  0
LINE
  5
36C
330
1F
100
AcDbEntity
  8
0
  6
Continuous
 62
     8
370
    25
100
AcDbLine
 10
71.6672804794
 20
80.4107541661
 30
0.0
 11
50.3637454471
 21
117.309559223
 31
0.0
  0
LINE
  5
36D
330
1F
100
AcDbEntity
  8
0
  6
Continuous
 62
     8
370
    25
100
AcDbLine
 10
57.7191731072
 20
190.3116289382
 30
0.0
 11
23.4804782983
 21
190.3116289382
 31
0.0
  0
LINE
  5
36E
330
1F
100
AcDbEntity
  8
0
  6
Continuous
 62
     8
370
    25
100
AcDbLine
 10
63.4804782983
 20
190.3116289382
 30
0.0
 11
57.7191731072
 21
190.3116289382
 31
0.0
  0
LINE
  5
36F
330
1F
100
AcDbEntity
  8
0
  6
Continuous
 62
     8
370
    25
100
AcDbLine
 10
23.4804782983
 20
135.3116289382
 30
0.0
 11
63.4804782983
 21
135.3116289382
 31
0.0
  0
LINE
  5
370
330
1F
100
AcDbEntity
  8
0
  6
Continuous
 62
     8
370
    25
100
AcDbLine
 10
29.7804782983
 20
120.1812376198
 30
0.0
 11
57.1804782983
 21
120.1812376198
 31
0.0
  0
LINE
  5
371
330
1F
100
AcDbEntity
  8
0
  6
Continuous
 62
     8
370
    25
100
AcDbLine
 10
30.1139280979
 20
119.6436960021
 30
0.0
 11
56.8470284987
 21
119.6436960021
 31
0.0
  0
LINE
  5
372
330
1F
100
AcDbEntity
  8
0
  6
Continuous
 62
     8
370
    25
100
AcDbLine
 10
53.2339842424
 20
205.4420202566
 30
0.0
 11
29.7804782983
 21
205.4420202566
 31
0.0
  0
LINE
  5
373
330
1F
100
AcDbEntity
  8
0
  6
Continuous
 62
     8
370
    25
100
AcDbLine
 10
57.1804782983
 20
205.4420202566
 30
0.0
 11
53.2339842424
 21
205.4420202566
 31
0.0
  0
LINE
  5
374
330
1F
100
AcDbEntity
  8
0
  6
Continuous
 62
     8
370
    25
100
AcDbLine
 10
52.9965897459
 20
205.9795618742
 30
0.0
 11
30.1139280979
 21
205.9795618742
 31
0.0
  0
LINE
  5
375
330
1F
100
AcDbEntity
  8
0
  6
Continuous
 62
     8
370
    25
100
AcDbLine
 10
56.8470284987
 20
205.9795618742
 30
0.0
 11
52.9965897459
 21
205.9795618742
 31
0.0
  0
LINE
  5
376
330
1F
100
AcDbEntity
  8
0
  6
Continuous
 62
     8
370
    25
100
AcDbLine
 10
-81.0232159597
 20
152.3116289382
 30
0.0
 11
-33.0232159597
 21
152.3116289382
 31
0.0
  0
LINE
  5
377
330
1F
100
AcDbEntity
  8
0
  6
Continuous
 62
     8
370
    25
100
AcDbLine
 10
-40.0232159597
 20
146.3116289382
 30
0.0
 11
-74.0232159597
 21
146.3116289382
 31
0.0
  0
LINE
  5
378
330
1F
100
AcDbEntity
  8
0
  6
Continuous
 62
     8
370
    25
100
AcDbLine
 10
-74.0232159597
 20
66.3116289382
 30
0.0
 11
-40.0232159597
 21
66.3116289382
 31
0.0
  0
LINE
  5
379
330
1F
100
AcDbEntity
  8
0
  6
Continuous
 62
     8
370
    25
100
AcDbLine
 10
-108.6108306709
 20
188.3116289382
 30
0.0
 11
-152.404651635
 21
188.3116289382
 31
0.0
  0
LINE
  5
37A
330
1F
100
AcDbEntity
  8
0
  6
Continuous
 62
     8
370
    25
100
AcDbLine
 10
-104.404651635
 20
188.3116289382
 30
0.0
 11
-108.6108306709
 21
188.3116289382
 31
0.0
  0
LINE
  5
37B
330
1F
100
AcDbEntity
  8
0
  6
Continuous
 62
     8
370
    25
100
AcDbLine
 10
-114.3840284521
 20
194.3116289382
 30
0.0
 11
-111.404651635
 21
194.3116289382
 31
0.0
  0
LINE
  5
37C
330
1F
100
AcDbEntity
  8
0
  6
Continuous
 62
     8
370
    25
100
AcDbLine
 10
-145.404651635
 20
194.3116289382
 30
0.0
 11
-114.3840284521
 21
194.3116289382
 31
0.0
  0
LINE
  5
37D
330
1F
100
AcDbEntity
  8
0
  6
Continuous
 62
     8
370
    25
100
AcDbLine
 10
-114.3840284521
 20
274.3116289382
 30
0.0
 11
-145.404651635
 21
274.3116289382
 31
0.0
  0
LINE
  5
37E
330
1F
100
AcDbEntity
  8
0
  6
Continuous
 62
     8
370
    25
100
AcDbLine
 10
-111.404651635
 20
274.3116289382
 30
0.0
 11
-114.3840284521
 21
274.3116289382
 31
0.0
  0
LINE
  5
37F
330
1F
100
AcDbEntity
  8
0
  6
Continuous
 62
     8
370
    25
100
AcDbLine
 10
-152.404651635
 20
137.3116289382
 30
0.0
 11
-104.404651635
 21
137.3116289382
 31
0.0
  0
LINE
  5
380
330
1F
100
AcDbEntity
  8
0
  6
Continuous
 62
     8
370
    25
100
AcDbLine
 10
-111.404651635
 20
131.3116289382
 30
0.0
 11
-145.404651635
 21
131.3116289382
 31
0.0
  0
LINE
  5
381
330
1F
100
AcDbEntity
  8
0
  6
Continuous
 62
     8
370
    25
100
AcDbLine
 10
-145.404651635
 20
51.3116289382
 30
0.0
 11
-111.404651635
 21
51.3116289382
 31
0.0
  0
LINE
  5
382
330
1F
100
AcDbEntity
  8
0
  6
Continuous
 62
     8
370
    25
100
AcDbLine
 10
-37.2293949957
 20
173.3116289382
 30
0.0
 11
-81.0232159597
 21
173.3116289382
 31
0.0
  0
LINE
  5
383
330
1F
100
AcDbEntity
  8
0
  6
Continuous
 62
     8
370
    25
100
AcDbLine
 10
-33.0232159597
 20
173.3116289382
 30
0.0
 11
-37.2293949957
 21
173.3116289382
 31
0.0
  0
LINE
  5
384
330
1F
100
AcDbEntity
  8
0
  6
Continuous
 62
     8
370
    25
100
AcDbLine
 10
-43.0025927769
 20
179.3116289382
 30
0.0
 11
-40.0232159597
 21
179.3116289382
 31
0.0
  0
LINE
  5
385
330
1F
100
AcDbEntity
  8
0
  6
Continuous
 62
     8
370
    25
100
AcDbLine
 10
-74.0232159597
 20
179.3116289382
 30
0.0
 11
-43.0025927769
 21
179.3116289382
 31
0.0
  0
LINE
  5
386
330
1F
100
AcDbEntity
  8
0
  6
Continuous
 62
     8
370
    25
100
AcDbLine
 10
-43.0025927769
 20
259.3116289382
 30
0.0
 11
-74.0232159597
 21
259.3116289382
 31
0.0
  0
LINE
  5
387
330
1F
100
AcDbEntity
  8
0
  6
Continuous
 62
     8
370
    25
100
AcDbLine
 10
-40.0232159597
 20
259.3116289382
 30
0.0
 11
-43.0025927769
 21
259.3116289382
 31
0.0
  0
LINE
  5
388
330
1F
100
AcDbEntity
  8
0
  6
Continuous
 62
     8
370
    25
100
AcDbLine
 10
-36.4046524555
 20
49.1513301142
 30
0.0
 11
-32.0232159597
 21
49.1513301142
 31
0.0
  0
LINE
  5
389
330
1F
100
AcDbEntity
  8
0
  6
Continuous
 62
     8
370
    25
100
AcDbLine
 10
-82.0232159597
 20
49.1513301142
 30
0.0
 11
-36.4046524555
 21
49.1513301142
 31
0.0
  0
LINE
  5
38A
330
1F
100
AcDbEntity
  8
0
  6
Continuous
 62
     8
370
    25
100
AcDbLine
 10
-36.4046524555
 20
51.9314296158
 30
0.0
 11
-82.0232159597
 21
51.9314296158
 31
0.0
  0
LINE
  5
38B
330
1F
100
AcDbEntity
  8
0
  6
Continuous
 62
     8
370
    25
100
AcDbLine
 10
-32.0232159597
 20
51.9314296158
 30
0.0
 11
-36.4046524555
 21
51.9314296158
 31
0.0
  0
LINE
  5
38C
330
1F
100
AcDbEntity
  8
0
  6
Continuous
 62
     8
370
    25
100
AcDbLine
 10
-32.8570825043
 20
48.1652268361
 30
0.0
 11
-81.1893494151
 21
48.1652268361
 31
0.0
  0
LINE
  5
38D
330
1F
100
AcDbEntity
  8
0
  6
Continuous
 62
     8
370
    25
100
AcDbLine
 10
-81.7706252784
 20
52.5957934546
 30
0.0
 11
-32.275806641
 21
52.5957934546
 31
0.0
  0
LINE
  5
38E
330
1F
100
AcDbEntity
  8
0
  6
Continuous
 62
     8
370
    25
100
AcDbLine
 10
-42.7942704967
 20
61.0274644217
 30
0.0
 11
-74.275806641
 21
61.0274644217
 31
0.0
  0
LINE
  5
38F
330
1F
100
AcDbEntity
  8
0
  6
Continuous
 62
     8
370
    25
100
AcDbLine
 10
-39.7706252784
 20
61.0274644217
 30
0.0
 11
-42.7942704967
 21
61.0274644217
 31
0.0
  0
LINE
  5
390
330
1F
100
AcDbEntity
  8
0
  6
Continuous
 62
     8
370
    25
100
AcDbLine
 10
-74.0232159597
 20
61.6918282605
 30
0.0
 11
-40.0232159597
 21
61.6918282605
 31
0.0
  0
LINE
  5
391
330
1F
100
AcDbEntity
  8
0
  6
Continuous
 62
     8
370
    25
100
AcDbLine
 10
-40.0232159597
 20
64.3116289382
 30
0.0
 11
-74.0232159597
 21
64.3116289382
 31
0.0
  0
LINE
  5
392
330
1F
100
AcDbEntity
  8
0
  6
Continuous
 62
     8
370
    25
100
AcDbLine
 10
-103.404651635
 20
291.4719277621
 30
0.0
 11
-153.404651635
 21
291.4719277621
 31
0.0
  0
LINE
  5
393
330
1F
100
AcDbEntity
  8
0
  6
Continuous
 62
     8
370
    25
100
AcDbLine
 10
-108.4738133429
 20
292.4580310402
 30
0.0
 11
-104.2385181796
 21
292.4580310402
 31
0.0
  0
LINE
  5
394
330
1F
100
AcDbEntity
  8
0
  6
Continuous
 62
     8
370
    25
100
AcDbLine
 10
-152.5707850904
 20
292.4580310402
 30
0.0
 11
-108.4738133429
 21
292.4580310402
 31
0.0
  0
LINE
  5
395
330
1F
100
AcDbEntity
  8
0
  6
Continuous
 62
     8
370
    25
100
AcDbLine
 10
-153.404651635
 20
288.6918282605
 30
0.0
 11
-103.404651635
 21
288.6918282605
 31
0.0
  0
LINE
  5
396
330
1F
100
AcDbEntity
  8
0
  6
Continuous
 62
     8
370
    25
100
AcDbLine
 10
-107.9944104109
 20
288.0274644217
 30
0.0
 11
-153.1520609537
 21
288.0274644217
 31
0.0
  0
LINE
  5
397
330
1F
100
AcDbEntity
  8
0
  6
Continuous
 62
     8
370
    25
100
AcDbLine
 10
-103.6572423163
 20
288.0274644217
 30
0.0
 11
-107.9944104109
 21
288.0274644217
 31
0.0
  0
LINE
  5
398
330
1F
100
AcDbEntity
  8
0
  6
Continuous
 62
     8
370
    25
100
AcDbLine
 10
-145.6572423163
 20
279.5957934546
 30
0.0
 11
-111.1520609537
 21
279.5957934546
 31
0.0
  0
LINE
  5
399
330
1F
100
AcDbEntity
  8
0
  6
Continuous
 62
     8
370
    25
100
AcDbLine
 10
-114.3840284521
 20
278.9314296158
 30
0.0
 11
-145.404651635
 21
278.9314296158
 31
0.0
  0
LINE
  5
39A
330
1F
100
AcDbEntity
  8
0
  6
Continuous
 62
     8
370
    25
100
AcDbLine
 10
-111.404651635
 20
278.9314296158
 30
0.0
 11
-114.3840284521
 21
278.9314296158
 31
0.0
  0
LINE
  5
39B
330
1F
100
AcDbEntity
  8
0
  6
Continuous
 62
     8
370
    25
100
AcDbLine
 10
-114.3840284521
 20
276.3116289382
 30
0.0
 11
-111.404651635
 21
276.3116289382
 31
0.0
  0
LINE
  5
39C
330
1F
100
AcDbEntity
  8
0
  6
Continuous
 62
     8
370
    25
100
AcDbLine
 10
-145.404651635
 20
276.3116289382
 30
0.0
 11
-114.3840284521
 21
276.3116289382
 31
0.0
  0
LINE
  5
39D
330
1F
100
AcDbEntity
  8
0
  6
Continuous
 62
     8
370
    25
100
AcDbLine
 10
-36.6129747356
 20
273.0274644217
 30
0.0
 11
-81.7706252784
 21
273.0274644217
 31
0.0
  0
LINE
  5
39E
330
1F
100
AcDbEntity
  8
0
  6
Continuous
 62
     8
370
    25
100
AcDbLine
 10
-32.275806641
 20
273.0274644217
 30
0.0
 11
-36.6129747356
 21
273.0274644217
 31
0.0
  0
LINE
  5
39F
330
1F
100
AcDbEntity
  8
0
  6
Continuous
 62
     8
370
    25
100
AcDbLine
 10
-82.0232159597
 20
273.6918282605
 30
0.0
 11
-32.0232159597
 21
273.6918282605
 31
0.0
  0
LINE
  5
3A0
330
1F
100
AcDbEntity
  8
0
  6
Continuous
 62
     8
370
    25
100
AcDbLine
 10
-32.0232159597
 20
276.4719277621
 30
0.0
 11
-82.0232159597
 21
276.4719277621
 31
0.0
  0
LINE
  5
3A1
330
1F
100
AcDbEntity
  8
0
  6
Continuous
 62
     8
370
    25
100
AcDbLine
 10
-37.0923776677
 20
277.4580310402
 30
0.0
 11
-32.8570825043
 21
277.4580310402
 31
0.0
  0
LINE
  5
3A2
330
1F
100
AcDbEntity
  8
0
  6
Continuous
 62
     8
370
    25
100
AcDbLine
 10
-81.1893494151
 20
277.4580310402
 30
0.0
 11
-37.0923776677
 21
277.4580310402
 31
0.0
  0
LINE
  5
3A3
330
1F
100
AcDbEntity
  8
0
  6
Continuous
 62
     8
370
    25
100
AcDbLine
 10
-74.275806641
 20
264.5957934546
 30
0.0
 11
-39.7706252784
 21
264.5957934546
 31
0.0
  0
LINE
  5
3A4
330
1F
100
AcDbEntity
  8
0
  6
Continuous
 62
     8
370
    25
100
AcDbLine
 10
-43.0025927769
 20
263.9314296158
 30
0.0
 11
-74.0232159597
 21
263.9314296158
 31
0.0
  0
LINE
  5
3A5
330
1F
100
AcDbEntity
  8
0
  6
Continuous
 62
     8
370
    25
100
AcDbLine
 10
-40.0232159597
 20
263.9314296158
 30
0.0
 11
-43.0025927769
 21
263.9314296158
 31
0.0
  0
LINE
  5
3A6
330
1F
100
AcDbEntity
  8
0
  6
Continuous
 62
     8
370
    25
100
AcDbLine
 10
-43.0025927769
 20
261.3116289382
 30
0.0
 11
-40.0232159597
 21
261.3116289382
 31
0.0
  0
LINE
  5
3A7
330
1F
100
AcDbEntity
  8
0
  6
Continuous
 62
     8
370
    25
100
AcDbLine
 10
-74.0232159597
 20
261.3116289382
 30
0.0
 11
-43.0025927769
 21
261.3116289382
 31
0.0
  0
LINE
  5
3A8
330
1F
100
AcDbEntity
  8
0
  6
Continuous
 62
     8
370
    25
100
AcDbLine
 10
-107.7860881308
 20
34.1513301142
 30
0.0
 11
-103.404651635
 21
34.1513301142
 31
0.0
  0
LINE
  5
3A9
330
1F
100
AcDbEntity
  8
0
  6
Continuous
 62
     8
370
    25
100
AcDbLine
 10
-153.404651635
 20
34.1513301142
 30
0.0
 11
-107.7860881308
 21
34.1513301142
 31
0.0
  0
LINE
  5
3AA
330
1F
100
AcDbEntity
  8
0
  6
Continuous
 62
     8
370
    25
100
AcDbLine
 10
-107.7860881308
 20
36.9314296158
 30
0.0
 11
-153.404651635
 21
36.9314296158
 31
0.0
  0
LINE
  5
3AB
330
1F
100
AcDbEntity
  8
0
  6
Continuous
 62
     8
370
    25
100
AcDbLine
 10
-103.404651635
 20
36.9314296158
 30
0.0
 11
-107.7860881308
 21
36.9314296158
 31
0.0
  0
LINE
  5
3AC
330
1F
100
AcDbEntity
  8
0
  6
Continuous
 62
     8
370
    25
100
AcDbLine
 10
-104.2385181796
 20
33.1652268361
 30
0.0
 11
-152.5707850904
 21
33.1652268361
 31
0.0
  0
LINE
  5
3AD
330
1F
100
AcDbEntity
  8
0
  6
Continuous
 62
     8
370
    25
100
AcDbLine
 10
-153.1520609537
 20
37.5957934546
 30
0.0
 11
-103.6572423163
 21
37.5957934546
 31
0.0
  0
LINE
  5
3AE
330
1F
100
AcDbEntity
  8
0
  6
Continuous
 62
     8
370
    25
100
AcDbLine
 10
-114.175706172
 20
46.0274644217
 30
0.0
 11
-145.6572423163
 21
46.0274644217
 31
0.0
  0
LINE
  5
3AF
330
1F
100
AcDbEntity
  8
0
  6
Continuous
 62
     8
370
    25
100
AcDbLine
 10
-111.1520609537
 20
46.0274644217
 30
0.0
 11
-114.175706172
 21
46.0274644217
 31
0.0
  0
LINE
  5
3B0
330
1F
100
AcDbEntity
  8
0
  6
Continuous
 62
     8
370
    25
100
AcDbLine
 10
-145.404651635
 20
46.6918282605
 30
0.0
 11
-111.404651635
 21
46.6918282605
 31
0.0
  0
LINE
  5
3B1
330
1F
100
AcDbEntity
  8
0
  6
Continuous
 62
     8
370
    25
100
AcDbLine
 10
-111.404651635
 20
49.3116289382
 30
0.0
 11
-145.404651635
 21
49.3116289382
 31
0.0
  0
LINE
  5
3B2
330
1F
100
AcDbEntity
  8
0
  6
Continuous
 62
     8
370
    25
100
AcDbLine
 10
-70.7732159597
 20
47.0637745431
 30
0.0
 11
-43.2732159597
 21
47.0637745431
 31
0.0
  0
LINE
  5
3B3
330
1F
100
AcDbEntity
  8
0
  6
Continuous
 62
     8
370
    25
100
AcDbLine
 10
-44.0034638936
 20
46.1008447311
 30
0.0
 11
-70.0429680258
 21
46.1008447311
 31
0.0
  0
LINE
  5
3B4
330
1F
100
AcDbEntity
  8
0
  6
Continuous
 62
     8
370
    25
100
AcDbLine
 10
-117.0644417077
 20
293.5594833332
 30
0.0
 11
-142.154651635
 21
293.5594833332
 31
0.0
  0
LINE
  5
3B5
330
1F
100
AcDbEntity
  8
0
  6
Continuous
 62
     8
370
    25
100
AcDbLine
 10
-114.654651635
 20
293.5594833332
 30
0.0
 11
-117.0644417077
 21
293.5594833332
 31
0.0
  0
LINE
  5
3B6
330
1F
100
AcDbEntity
  8
0
  6
Continuous
 62
     8
370
    25
100
AcDbLine
 10
-117.6667082436
 20
294.5224131452
 30
0.0
 11
-115.3848995689
 21
294.5224131452
 31
0.0
  0
LINE
  5
3B7
330
1F
100
AcDbEntity
  8
0
  6
Continuous
 62
     8
370
    25
100
AcDbLine
 10
-141.4244037011
 20
294.5224131452
 30
0.0
 11
-117.6667082436
 21
294.5224131452
 31
0.0
  0
LINE
  5
3B8
330
1F
100
AcDbEntity
  8
0
  6
Continuous
 62
     8
370
    25
100
AcDbLine
 10
-45.6830060324
 20
278.5594833332
 30
0.0
 11
-70.7732159597
 21
278.5594833332
 31
0.0
  0
LINE
  5
3B9
330
1F
100
AcDbEntity
  8
0
  6
Continuous
 62
     8
370
    25
100
AcDbLine
 10
-43.2732159597
 20
278.5594833332
 30
0.0
 11
-45.6830060324
 21
278.5594833332
 31
0.0
  0
LINE
  5
3BA
330
1F
100
AcDbEntity
  8
0
  6
Continuous
 62
     8
370
    25
100
AcDbLine
 10
-46.2852725683
 20
279.5224131452
 30
0.0
 11
-44.0034638936
 21
279.5224131452
 31
0.0
  0
LINE
  5
3BB
330
1F
100
AcDbEntity
  8
0
  6
Continuous
 62
     8
370
    25
100
AcDbLine
 10
-70.0429680258
 20
279.5224131452
 30
0.0
 11
-46.2852725683
 21
279.5224131452
 31
0.0
  0
LINE
  5
3BC
330
1F
100
AcDbEntity
  8
0
  6
Continuous
 62
     8
370
    25
100
AcDbLine
 10
-142.154651635
 20
32.0637745431
 30
0.0
 11
-114.654651635
 21
32.0637745431
 31
0.0
  0
LINE
  5
3BD
330
1F
100
AcDbEntity
  8
0
  6
Continuous
 62
     8
370
    25
100
AcDbLine
 10
-115.3848995689
 20
31.1008447311
 30
0.0
 11
-141.4244037011
 21
31.1008447311
 31
0.0
  0
ENDSEC
  0
SECTION
  2
OBJECTS
  0
DICTIONARY
  5
C
330
0
100
AcDbDictionary
281
     1
  3
ACAD_GROUP
350
D
  3
ACAD_LAYOUT
350
1A
  3
ACAD_MLINESTYLE
350
17
  3
ACAD_PLOTSETTINGS
350
19
  3
ACAD_PLOTSTYLENAME
350
E
  3
ACAD_SCALELIST
350
47
  3
DWGPROPS
350
3BE
  0
DICTIONARY
  5
D
102
{ACAD_REACTORS
330
C
102
}
330
C
100
AcDbDictionary
281
     1
  0
DICTIONARY
  5
1A
102
{ACAD_REACTORS
330
C
102
}
330
C
100
AcDbDictionary
281
     1
  3
Layout1
350
1E
  3
Layout2
350
26
  3
Model
350
22
  0
DICTIONARY
  5
17
102
{ACAD_REACTORS
330
C
102
}
330
C
100
AcDbDictionary
281
     1
  3
Standard
350
18
  0
DICTIONARY
  5
19
102
{ACAD_REACTORS
330
C
102
}
330
C
100
AcDbDictionary
281
     1
  0
ACDBDICTIONARYWDFLT
  5
E
102
{ACAD_REACTORS
330
C
102
}
330
C
100
AcDbDictionary
281
     1
  3
Normal
350
F
100
AcDbDictionaryWithDefault
340
F
  0
DICTIONARY
  5
47
102
{ACAD_REACTORS
330
C
102
}
330
C
100
AcDbDictionary
281
     1
  3
A0
350
48
  3
A1
350
49
  3
A2
350
4A
  3
A3
350
4B
  3
A4
350
4C
  3
A5
350
4D
  3
A6
350
4E
  3
A7
350
4F
  3
A8
350
50
  3
A9
350
51
  3
B0
350
52
  3
B1
350
53
  3
B2
350
54
  3
B3
350
55
  3
B4
350
56
  3
B5
350
57
  3
B6
350
58
  3
B7
350
59
  3
B8
350
5A
  3
B9
350
5B
  3
C0
350
5C
  3
C1
350
5D
  3
C2
350
5E
  3
C3
350
5F
  3
C4
350
60
  3
C5
350
61
  3
C6
350
62
  3
C7
350
63
  3
C8
350
64
  3
C9
350
65
  3
D0
350
66
  3
D1
350
67
  3
D2
350
68
  0
XRECORD
  5
3BE
102
{ACAD_REACTORS
330
C
102
}
330
C
100
AcDbXrecord
280
     1
  1
DWGPROPS COOKIE
  2

  3

  4

  6

  7

  8
Swing
  9

300
=
301
=
302
=
303
=
304
=
305
=
306
=
307
=
308
=
309
=
 40
0.0
 41
2459683.334496493
 42
2459683.334496956
  1

 90
        0
  0
LAYOUT
  5
1E
102
{ACAD_REACTORS
330
1A
102
}
330
1A
100
AcDbPlotSettings
  1

  2
none_device
  4

  6

 40
0.0
 41
0.0
 42
0.0
 43
0.0
 44
0.0
 45
0.0
 46
0.0
 47
0.0
 48
0.0
 49
0.0
140
0.0
141
0.0
142
1.0
143
1.0
 70
   688
 72
     1
 73
     0
 74
     5
  7

 75
    16
147
1.0
148
0.0
149
0.0
100
AcDbLayout
  1
Layout1
 70
     1
 71
     1
 10
0.0
 20
0.0
 11
420.0
 21
297.0
 12
0.0
 22
0.0
 32
0.0
 14
1.0000000000E+20
 24
1.0000000000E+20
 34
1.0000000000E+20
 15
-1.0000000000E+20
 25
-1.0000000000E+20
 35
-1.0000000000E+20
146
0.0
 13
0.0
 23
0.0
 33
0.0
 16
1.0
 26
0.0
 36
0.0
 17
0.0
 27
1.0
 37
0.0
 76
     0
330
1B
  0
LAYOUT
  5
26
102
{ACAD_REACTORS
330
1A
102
}
330
1A
100
AcDbPlotSettings
  1

  2
none_device
  4

  6

 40
0.0
 41
0.0
 42
0.0
 43
0.0
 44
0.0
 45
0.0
 46
0.0
 47
0.0
 48
0.0
 49
0.0
140
0.0
141
0.0
142
1.0
143
1.0
 70
   688
 72
     1
 73
     0
 74
     5
  7

 75
    16
147
1.0
148
0.0
149
0.0
100
AcDbLayout
  1
Layout2
 70
     1
 71
     2
 10
0.0
 20
0.0
 11
0.0
 21
0.0
 12
0.0
 22
0.0
 32
0.0
 14
0.0
 24
0.0
 34
0.0
 15
0.0
 25
0.0
 35
0.0
146
0.0
 13
0.0
 23
0.0
 33
0.0
 16
1.0
 26
0.0
 36
0.0
 17
0.0
 27
1.0
 37
0.0
 76
     0
330
23
  0
LAYOUT
  5
22
102
{ACAD_REACTORS
330
1A
102
}
330
1A
100
AcDbPlotSettings
  1

  2
none_device
  4
Letter_(8.50_x_11.00_Inches)
  6

 40
6.35
 41
6.35
 42
6.35000508
 43
6.35000508
 44
215.9
 45
279.4
 46
0.0
 47
0.0
 48
0.0
 49
0.0
140
0.0
141
0.0
142
1.0
143
1.0
 70
  1712
 72
     1
 73
     0
 74
     0
  7

 75
     0
147
1.0
148
0.0
149
0.0
100
AcDbLayout
  1
Model
 70
     1
 71
     0
 10
0.0
 20
0.0
 11
431.8
 21
279.4
 12
0.0
 22
0.0
 32
0.0
 14
0.0
 24
0.0
 34
0.0
 15
431.8
 25
279.4
 35
0.0
146
0.0
 13
0.0
 23
0.0
 33
0.0
 16
1.0
 26
0.0
 36
0.0
 17
0.0
 27
1.0
 37
0.0
 76
     0
330
1F
331
29
  0
MLINESTYLE
  5
18
102
{ACAD_REACTORS
330
17
102
}
330
17
100
AcDbMlineStyle
  2
Standard
 70
     0
  3

 62
   256
 51
90.0
 52
90.0
 71
     2
 49
0.5
 62
   256
  6
BYLAYER
 49
-0.5
 62
   256
  6
BYLAYER
  0
ACDBPLACEHOLDER
  5
F
102
{ACAD_REACTORS
330
E
102
}
330
E
  0
SCALE
  5
48
102
{ACAD_REACTORS
330
47
102
}
330
47
100
AcDbScale
 70
     0
300
1:1
140
1.0
141
1.0
290
     1
  0
SCALE
  5
49
102
{ACAD_REACTORS
330
47
102
}
330
47
100
AcDbScale
 70
     0
300
1:2
140
1.0
141
2.0
290
     0
  0
SCALE
  5
4A
102
{ACAD_REACTORS
330
47
102
}
330
47
100
AcDbScale
 70
     0
300
1:4
140
1.0
141
4.0
290
     0
  0
SCALE
  5
4B
102
{ACAD_REACTORS
330
47
102
}
330
47
100
AcDbScale
 70
     0
300
1:5
140
1.0
141
5.0
290
     0
  0
SCALE
  5
4C
102
{ACAD_REACTORS
330
47
102
}
330
47
100
AcDbScale
 70
     0
300
1:8
140
1.0
141
8.0
290
     0
  0
SCALE
  5
4D
102
{ACAD_REACTORS
330
47
102
}
330
47
100
AcDbScale
 70
     0
300
1:10
140
1.0
141
10.0
290
     0
  0
SCALE
  5
4E
102
{ACAD_REACTORS
330
47
102
}
330
47
100
AcDbScale
 70
     0
300
1:16
140
1.0
141
16.0
290
     0
  0
SCALE
  5
4F
102
{ACAD_REACTORS
330
47
102
}
330
47
100
AcDbScale
 70
     0
300
1:20
140
1.0
141
20.0
290
     0
  0
SCALE
  5
50
102
{ACAD_REACTORS
330
47
102
}
330
47
100
AcDbScale
 70
     0
300
1:30
140
1.0
141
30.0
290
     0
  0
SCALE
  5
51
102
{ACAD_REACTORS
330
47
102
}
330
47
100
AcDbScale
 70
     0
300
1:40
140
1.0
141
40.0
290
     0
  0
SCALE
  5
52
102
{ACAD_REACTORS
330
47
102
}
330
47
100
AcDbScale
 70
     0
300
1:50
140
1.0
141
50.0
290
     0
  0
SCALE
  5
53
102
{ACAD_REACTORS
330
47
102
}
330
47
100
AcDbScale
 70
     0
300
1:100
140
1.0
141
100.0
290
     0
  0
SCALE
  5
54
102
{ACAD_REACTORS
330
47
102
}
330
47
100
AcDbScale
 70
     0
300
2:1
140
2.0
141
1.0
290
     0
  0
SCALE
  5
55
102
{ACAD_REACTORS
330
47
102
}
330
47
100
AcDbScale
 70
     0
300
4:1
140
4.0
141
1.0
290
     0
  0
SCALE
  5
56
102
{ACAD_REACTORS
330
47
102
}
330
47
100
AcDbScale
 70
     0
300
8:1
140
8.0
141
1.0
290
     0
  0
SCALE
  5
57
102
{ACAD_REACTORS
330
47
102
}
330
47
100
AcDbScale
 70
     0
300
10:1
140
10.0
141
1.0
290
     0
  0
SCALE
  5
58
102
{ACAD_REACTORS
330
47
102
}
330
47
100
AcDbScale
 70
     0
300
100:1
140
100.0
141
1.0
290
     0
  0
SCALE
  5
59
102
{ACAD_REACTORS
330
47
102
}
330
47
100
AcDbScale
 70
     0
300
1/128" = 1'-0"
140
0.0078125
141
12.0
290
     0
  0
SCALE
  5
5A
102
{ACAD_REACTORS
330
47
102
}
330
47
100
AcDbScale
 70
     0
300
1/64" = 1'-0"
140
0.015625
141
12.0
290
     0
  0
SCALE
  5
5B
102
{ACAD_REACTORS
330
47
102
}
330
47
100
AcDbScale
 70
     0
300
1/32" = 1'-0"
140
0.03125
141
12.0
290
     0
  0
SCALE
  5
5C
102
{ACAD_REACTORS
330
47
102
}
330
47
100
AcDbScale
 70
     0
300
1/16" = 1'-0"
140
0.0625
141
12.0
290
     0
  0
SCALE
  5
5D
102
{ACAD_REACTORS
330
47
102
}
330
47
100
AcDbScale
 70
     0
300
3/32" = 1'-0"
140
0.09375
141
12.0
290
     0
  0
SCALE
  5
5E
102
{ACAD_REACTORS
330
47
102
}
330
47
100
AcDbScale
 70
     0
300
1/8" = 1'-0"
140
0.125
141
12.0
290
     0
  0
SCALE
  5
5F
102
{ACAD_REACTORS
330
47
102
}
330
47
100
AcDbScale
 70
     0
300
3/16" = 1'-0"
140
0.1875
141
12.0
290
     0
  0
SCALE
  5
60
102
{ACAD_REACTORS
330
47
102
}
330
47
100
AcDbScale
 70
     0
300
1/4" = 1'-0"
140
0.25
141
12.0
290
     0
  0
SCALE
  5
61
102
{ACAD_REACTORS
330
47
102
}
330
47
100
AcDbScale
 70
     0
300
3/8" = 1'-0"
140
0.375
141
12.0
290
     0
  0
SCALE
  5
62
102
{ACAD_REACTORS
330
47
102
}
330
47
100
AcDbScale
 70
     0
300
1/2" = 1'-0"
140
0.5
141
12.0
290
     0
  0
SCALE
  5
63
102
{ACAD_REACTORS
330
47
102
}
330
47
100
AcDbScale
 70
     0
300
3/4" = 1'-0"
140
0.75
141
12.0
290
     0
  0
SCALE
  5
64
102
{ACAD_REACTORS
330
47
102
}
330
47
100
AcDbScale
 70
     0
300
1" = 1'-0"
140
1.0
141
12.0
290
     0
  0
SCALE
  5
65
102
{ACAD_REACTORS
330
47
102
}
330
47
100
AcDbScale
 70
     0
300
1-1/2" = 1'-0"
140
1.5
141
12.0
290
     0
  0
SCALE
  5
66
102
{ACAD_REACTORS
330
47
102
}
330
47
100
AcDbScale
 70
     0
300
3" = 1'-0"
140
3.0
141
12.0
290
     0
  0
SCALE
  5
67
102
{ACAD_REACTORS
330
47
102
}
330
47
100
AcDbScale
 70
     0
300
6" = 1'-0"
140
6.0
141
12.0
290
     0
  0
SCALE
  5
68
102
{ACAD_REACTORS
330
47
102
}
330
47
100
AcDbScale
 70
     0
300
1'-0" = 1'-0"
140
12.0
141
12.0
290
     0
  0
ENDSEC
  0
EOF
