  0
SECTION
  2
HEADER
  9
$ACADVER
  1
AC1015
  9
$ACADMAINTVER
 70
     6
  9
$DWGCODEPAGE
  3
ANSI_1250
  9
$INSBASE
 10
0.0
 20
0.0
 30
0.0
  9
$EXTMIN
 10
0.0
 20
0.0
 30
0.0
  9
$EXTMAX
 10
431.8
 20
279.4
 30
0.0
  9
$LIMMIN
 10
0.0
 20
0.0
  9
$LIMMAX
 10
431.8
 20
279.4
  9
$ORTHOMODE
 70
     0
  9
$REGENMODE
 70
     1
  9
$FILLMODE
 70
     1
  9
$QTEXTMODE
 70
     0
  9
$MIRRTEXT
 70
     1
  9
$LTSCALE
 40
1.0
  9
$ATTMODE
 70
     1
  9
$TEXTSIZE
 40
3.8805555556
  9
$TRACEWID
 40
1.0
  9
$TEXTSTYLE
  7
Standard
  9
$CLAYER
  8
0
  9
$CELTYPE
  6
ByLayer
  9
$CECOLOR
 62
   256
  9
$CELTSCALE
 40
1.0
  9
$DISPSILH
 70
     0
  9
$DIMSCALE
 40
1.0
  9
$DIMASZ
 40
3.302
  9
$DIMEXO
 40
1.0
  9
$DIMDLI
 40
3.75
  9
$DIMRND
 40
0.0
  9
$DIMDLE
 40
0.0
  9
$DIMEXE
 40
1.0
  9
$DIMTP
 40
0.0
  9
$DIMTM
 40
0.0
  9
$DIMTXT
 40
3.8805555556
  9
$DIMCEN
 40
2.5
  9
$DIMTSZ
 40
0.0
  9
$DIMTOL
 70
     0
  9
$DIMLIM
 70
     0
  9
$DIMTIH
 70
     1
  9
$DIMTOH
 70
     1
  9
$DIMSE1
 70
     0
  9
$DIMSE2
 70
     0
  9
$DIMTAD
 70
     1
  9
$DIMZIN
 70
     0
  9
$DIMBLK
  1

  9
$DIMASO
 70
     1
  9
$DIMSHO
 70
     1
  9
$DIMPOST
  1

  9
$DIMAPOST
  1

  9
$DIMALT
 70
     0
  9
$DIMALTD
 70
     3
  9
$DIMALTF
 40
0.0393700787
  9
$DIMLFAC
 40
1.0
  9
$DIMTOFL
 70
     1
  9
$DIMTVP
 40
0.0
  9
$DIMTIX
 70
     0
  9
$DIMSOXD
 70
     0
  9
$DIMSAH
 70
     0
  9
$DIMBLK1
  1

  9
$DIMBLK2
  1

  9
$DIMSTYLE
  2
ISO-25
  9
$DIMCLRD
 70
     0
  9
$DIMCLRE
 70
     0
  9
$DIMCLRT
 70
     0
  9
$DIMTFAC
 40
1.0
  9
$DIMGAP
 40
1.524
  9
$DIMJUST
 70
     0
  9
$DIMSD1
 70
     0
  9
$DIMSD2
 70
     0
  9
$DIMTOLJ
 70
     0
  9
$DIMTZIN
 70
     0
  9
$DIMALTZ
 70
     0
  9
$DIMALTTZ
 70
     0
  9
$DIMUPT
 70
     0
  9
$DIMDEC
 70
     1
  9
$DIMTDEC
 70
     1
  9
$DIMALTU
 70
     2
  9
$DIMALTTD
 70
     3
  9
$DIMTXSTY
  7
Standard
  9
$DIMAUNIT
 70
     0
  9
$DIMADEC
 70
     1
  9
$DIMALTRND
 40
0.0
  9
$DIMAZIN
 70
     0
  9
$DIMDSEP
 70
    44
  9
$DIMATFIT
 70
     3
  9
$DIMFRAC
 70
     0
  9
$DIMLDRBLK
  1

  9
$DIMLUNIT
 70
     2
  9
$DIMLWD
 70
    -2
  9
$DIMLWE
 70
    -2
  9
$DIMTMOVE
 70
     0
  9
$LUNITS
 70
     2
  9
$LUPREC
 70
     1
  9
$SKETCHINC
 40
1.0
  9
$FILLETRAD
 40
10.0
  9
$AUNITS
 70
     0
  9
$AUPREC
 70
     1
  9
$MENU
  1
.
  9
$ELEVATION
 40
0.0
  9
$PELEVATION
 40
0.0
  9
$THICKNESS
 40
0.0
  9
$LIMCHECK
 70
     0
  9
$CHAMFERA
 40
0.0
  9
$CHAMFERB
 40
0.0
  9
$CHAMFERC
 40
0.0
  9
$CHAMFERD
 40
0.0
  9
$SKPOLY
 70
     0
  9
$TDCREATE
 40
2459677.373961042
  9
$TDUCREATE
 40
2459677.290627708
  9
$TDUPDATE
 40
2459677.373961562
  9
$TDUUPDATE
 40
2459677.290628229
  9
$TDINDWG
 40
0.0000000116
  9
$TDUSRTIMER
 40
0.0000000116
  9
$USRTIMER
 70
     1
  9
$ANGBASE
 50
0.0
  9
$ANGDIR
 70
     0
  9
$PDMODE
 70
     0
  9
$PDSIZE
 40
-1.0
  9
$PLINEWID
 40
0.0
  9
$SPLFRAME
 70
     0
  9
$SPLINETYPE
 70
     6
  9
$SPLINESEGS
 70
     8
  9
$HANDSEED
  5
586
  9
$SURFTAB1
 70
     6
  9
$SURFTAB2
 70
     6
  9
$SURFTYPE
 70
     6
  9
$SURFU
 70
     6
  9
$SURFV
 70
     6
  9
$UCSBASE
  2

  9
$UCSNAME
  2

  9
$UCSORG
 10
0.0
 20
0.0
 30
0.0
  9
$UCSXDIR
 10
1.0
 20
0.0
 30
0.0
  9
$UCSYDIR
 10
0.0
 20
1.0
 30
0.0
  9
$UCSORTHOREF
  2

  9
$UCSORTHOVIEW
 70
     0
  9
$UCSORGTOP
 10
0.0
 20
0.0
 30
0.0
  9
$UCSORGBOTTOM
 10
0.0
 20
0.0
 30
0.0
  9
$UCSORGLEFT
 10
0.0
 20
0.0
 30
0.0
  9
$UCSORGRIGHT
 10
0.0
 20
0.0
 30
0.0
  9
$UCSORGFRONT
 10
0.0
 20
0.0
 30
0.0
  9
$UCSORGBACK
 10
0.0
 20
0.0
 30
0.0
  9
$PUCSBASE
  2

  9
$PUCSNAME
  2

  9
$PUCSORG
 10
0.0
 20
0.0
 30
0.0
  9
$PUCSXDIR
 10
1.0
 20
0.0
 30
0.0
  9
$PUCSYDIR
 10
0.0
 20
1.0
 30
0.0
  9
$PUCSORTHOREF
  2

  9
$PUCSORTHOVIEW
 70
     0
  9
$PUCSORGTOP
 10
0.0
 20
0.0
 30
0.0
  9
$PUCSORGBOTTOM
 10
0.0
 20
0.0
 30
0.0
  9
$PUCSORGLEFT
 10
0.0
 20
0.0
 30
0.0
  9
$PUCSORGRIGHT
 10
0.0
 20
0.0
 30
0.0
  9
$PUCSORGFRONT
 10
0.0
 20
0.0
 30
0.0
  9
$PUCSORGBACK
 10
0.0
 20
0.0
 30
0.0
  9
$USERI1
 70
     0
  9
$USERI2
 70
     0
  9
$USERI3
 70
     0
  9
$USERI4
 70
     0
  9
$USERI5
 70
     0
  9
$USERR1
 40
0.0
  9
$USERR2
 40
0.0
  9
$USERR3
 40
0.0
  9
$USERR4
 40
0.0
  9
$USERR5
 40
0.0
  9
$WORLDVIEW
 70
     1
  9
$SHADEDGE
 70
     3
  9
$SHADEDIF
 70
    70
  9
$TILEMODE
 70
     1
  9
$MAXACTVP
 70
    64
  9
$PINSBASE
 10
0.0
 20
0.0
 30
0.0
  9
$PLIMCHECK
 70
     0
  9
$PEXTMIN
 10
1.0000000000E+20
 20
1.0000000000E+20
 30
1.0000000000E+20
  9
$PEXTMAX
 10
-1.0000000000E+20
 20
-1.0000000000E+20
 30
-1.0000000000E+20
  9
$PLIMMIN
 10
0.0
 20
0.0
  9
$PLIMMAX
 10
420.0
 20
297.0
  9
$UNITMODE
 70
     0
  9
$VISRETAIN
 70
     1
  9
$PLINEGEN
 70
     0
  9
$PSLTSCALE
 70
     1
  9
$TREEDEPTH
 70
  3020
  9
$CMLSTYLE
  2
Standard
  9
$CMLJUST
 70
     0
  9
$CMLSCALE
 40
20.0
  9
$PROXYGRAPHICS
 70
     1
  9
$MEASUREMENT
 70
     1
  9
$CELWEIGHT
370
    -1
  9
$ENDCAPS
280
     0
  9
$JOINSTYLE
280
     0
  9
$LWDISPLAY
290
     1
  9
$INSUNITS
 70
     4
  9
$HYPERLINKBASE
  1

  9
$STYLESHEET
  1

  9
$XEDIT
290
     1
  9
$CEPSNTYPE
380
     0
  9
$PSTYLEMODE
290
     1
  9
$FINGERPRINTGUID
  2
{3a2e7acd-bfcd-4152-b5ff-dfea11976ef4}
  9
$VERSIONGUID
  2
{FAEB1C32-E019-11D5-929B-00C0DF256EC4}
  9
$EXTNAMES
290
     1
  9
$PSVPSCALE
 40
0.0
  9
$OLESTARTUP
290
     0
  0
ENDSEC
  0
SECTION
  2
CLASSES
  0
CLASS
  1
ACDBDICTIONARYWDFLT
  2
AcDbDictionaryWithDefault
  3
ObjectDBX Classes
 90
        0
280
     0
281
     0
  0
CLASS
  1
VISUALSTYLE
  2
AcDbVisualStyle
  3
ObjectDBX Classes
 90
     4095
280
     0
281
     0
  0
CLASS
  1
MATERIAL
  2
AcDbMaterial
  3
ObjectDBX Classes
 90
     1153
280
     0
281
     0
  0
CLASS
  1
SCALE
  2
AcDbScale
  3
ObjectDBX Classes
 90
     1153
280
     0
281
     0
  0
CLASS
  1
TABLESTYLE
  2
AcDbTableStyle
  3
ObjectDBX Classes
 90
     4095
280
     0
281
     0
  0
CLASS
  1
MLEADERSTYLE
  2
AcDbMLeaderStyle
  3
ACDB_MLEADERSTYLE_CLASS
 90
     4095
280
     0
281
     0
  0
CLASS
  1
SUN
  2
AcDbSun
  3
SCENEOE
 90
     1153
280
     0
281
     0
  0
CLASS
  1
ACDBPLACEHOLDER
  2
AcDbPlaceHolder
  3
ObjectDBX Classes
 90
        0
280
     0
281
     0
  0
CLASS
  1
LAYOUT
  2
AcDbLayout
  3
ObjectDBX Classes
 90
        0
280
     0
281
     0
  0
ENDSEC
  0
SECTION
  2
TABLES
  0
TABLE
  2
VPORT
  5
8
330
0
100
AcDbSymbolTable
 70
     1
  0
VPORT
  5
29
330
8
100
AcDbSymbolTableRecord
100
AcDbViewportTableRecord
  2
*Active
 70
     0
 10
0.0
 20
0.0
 11
1.0
 21
1.0
 12
215.9
 22
139.7
 13
0.0
 23
0.0
 14
10.0
 24
10.0
 15
10.0
 25
10.0
 16
0.0
 26
0.0
 36
1.0
 17
0.0
 27
0.0
 37
0.0
 40
279.4
 41
1.5454545455
 42
50.0
 43
0.0
 44
0.0
 50
0.0
 51
0.0
 71
     0
 72
  2000
 73
     1
 74
     3
 75
     0
 76
     0
 77
     0
 78
     0
281
     0
 65
     1
110
0.0
120
0.0
130
0.0
111
1.0
121
0.0
131
0.0
112
0.0
122
1.0
132
0.0
 79
     0
146
0.0
  0
ENDTAB
  0
TABLE
  2
LTYPE
  5
5
330
0
100
AcDbSymbolTable
 70
     6
  0
LTYPE
  5
14
330
5
100
AcDbSymbolTableRecord
100
AcDbLinetypeTableRecord
  2
ByBlock
 70
     0
  3

 72
    65
 73
     0
 40
0.0
  0
LTYPE
  5
15
330
5
100
AcDbSymbolTableRecord
100
AcDbLinetypeTableRecord
  2
ByLayer
 70
     0
  3

 72
    65
 73
     0
 40
0.0
  0
LTYPE
  5
16
330
5
100
AcDbSymbolTableRecord
100
AcDbLinetypeTableRecord
  2
Continuous
 70
     0
  3
Solid line
 72
    65
 73
     0
 40
0.0
  0
LTYPE
  5
6E
330
5
100
AcDbSymbolTableRecord
100
AcDbLinetypeTableRecord
  2
HIDDEN
 70
     0
  3
Hidden __ __ __ __ __ __ __ __ __ __ __ __ __ __
 72
    65
 73
     2
 40
1.905
 49
1.27
 74
     0
 49
-0.635
 74
     0
  0
LTYPE
  5
6F
330
5
100
AcDbSymbolTableRecord
100
AcDbLinetypeTableRecord
  2
PHANTOM
 70
     0
  3
Phantom ______  __  __  ______  __  __  ______
 72
    65
 73
     6
 40
12.7
 49
6.35
 74
     0
 49
-1.27
 74
     0
 49
1.27
 74
     0
 49
-1.27
 74
     0
 49
1.27
 74
     0
 49
-1.27
 74
     0
  0
LTYPE
  5
70
330
5
100
AcDbSymbolTableRecord
100
AcDbLinetypeTableRecord
  2
CENTER
 70
     0
  3
Center ____ _ ____ _ ____ _ ____ _ ____ _ ____
 72
    65
 73
     4
 40
10.16
 49
6.35
 74
     0
 49
-1.27
 74
     0
 49
1.27
 74
     0
 49
-1.27
 74
     0
  0
LTYPE
  5
71
330
5
100
AcDbSymbolTableRecord
100
AcDbLinetypeTableRecord
  2
CENTERX2
 70
     0
  3
Center (2x) ________  __  ________  __  _____
 72
    65
 73
     4
 40
20.32
 49
12.7
 74
     0
 49
-2.54
 74
     0
 49
2.54
 74
     0
 49
-2.54
 74
     0
  0
LTYPE
  5
72
330
5
100
AcDbSymbolTableRecord
100
AcDbLinetypeTableRecord
  2
DOT2
 70
     0
  3
Dot (.5x) ........................................
 72
    65
 73
     2
 40
0.635
 49
0.0
 74
     0
 49
-0.635
 74
     0
  0
ENDTAB
  0
TABLE
  2
LAYER
  5
2
330
0
100
AcDbSymbolTable
 70
     3
  0
LAYER
  5
10
330
2
100
AcDbSymbolTableRecord
100
AcDbLayerTableRecord
  2
0
 70
     0
 62
     7
  6
Continuous
370
    -3
390
F
  0
LAYER
  5
73
330
2
100
AcDbSymbolTableRecord
100
AcDbLayerTableRecord
  2
FRAME_&_TABLE
 70
     0
 62
     8
  6
Continuous
370
    50
390
F
  0
LAYER
  5
74
330
2
100
AcDbSymbolTableRecord
100
AcDbLayerTableRecord
  2
DIMENSIONS
 70
     0
 62
     7
  6
Continuous
370
    -3
390
F
  0
ENDTAB
  0
TABLE
  2
STYLE
  5
3
330
0
100
AcDbSymbolTable
 70
     1
  0
STYLE
  5
11
330
3
100
AcDbSymbolTableRecord
100
AcDbTextStyleTableRecord
  2
Standard
 70
     0
 40
0.0
 41
1.0
 50
0.0
 71
     0
 42
3.8805555556
  3
txt
  4

  0
ENDTAB
  0
TABLE
  2
VIEW
  5
6
330
0
100
AcDbSymbolTable
 70
     0
  0
ENDTAB
  0
TABLE
  2
UCS
  5
7
330
0
100
AcDbSymbolTable
 70
     0
  0
ENDTAB
  0
TABLE
  2
APPID
  5
9
330
0
100
AcDbSymbolTable
 70
     1
  0
APPID
  5
12
330
9
100
AcDbSymbolTableRecord
100
AcDbRegAppTableRecord
  2
ACAD
 70
     0
  0
ENDTAB
  0
TABLE
  2
DIMSTYLE
  5
A
330
0
100
AcDbSymbolTable
 70
     1
100
AcDbDimStyleTable
  0
DIMSTYLE
105
27
330
A
100
AcDbSymbolTableRecord
100
AcDbDimStyleTableRecord
  2
ISO-25
 70
     0
 41
2.5
 42
0.625
 43
3.75
 44
1.25
 73
     0
 74
     0
 77
     1
 78
     8
140
2.5
141
2.5
143
0.0393700787
147
0.625
171
     3
172
     1
178
     0
271
     2
272
     2
274
     3
278
    44
283
     0
284
     8
340
11
  0
ENDTAB
  0
TABLE
  2
BLOCK_RECORD
  5
1
330
0
100
AcDbSymbolTable
 70
     1
  0
BLOCK_RECORD
  5
1F
330
1
100
AcDbSymbolTableRecord
100
AcDbBlockTableRecord
  2
*Model_Space
340
22
  0
BLOCK_RECORD
  5
1B
330
1
100
AcDbSymbolTableRecord
100
AcDbBlockTableRecord
  2
*Paper_Space
340
1E
  0
BLOCK_RECORD
  5
23
330
1
100
AcDbSymbolTableRecord
100
AcDbBlockTableRecord
  2
*Paper_Space0
340
26
  0
ENDTAB
  0
ENDSEC
  0
SECTION
  2
BLOCKS
  0
BLOCK
  5
20
330
1F
100
AcDbEntity
  8
0
100
AcDbBlockBegin
  2
*Model_Space
 70
     0
 10
0.0
 20
0.0
 30
0.0
  3
*Model_Space
  1

  0
ENDBLK
  5
21
330
1F
100
AcDbEntity
  8
0
100
AcDbBlockEnd
  0
BLOCK
  5
1C
330
1B
100
AcDbEntity
 67
     1
  8
0
100
AcDbBlockBegin
  2
*Paper_Space
 70
     0
 10
0.0
 20
0.0
 30
0.0
  3
*Paper_Space
  1

  0
ENDBLK
  5
1D
330
1B
100
AcDbEntity
 67
     1
  8
0
100
AcDbBlockEnd
  0
BLOCK
  5
24
330
23
100
AcDbEntity
  8
0
100
AcDbBlockBegin
  2
*Paper_Space0
 70
     0
 10
0.0
 20
0.0
 30
0.0
  3
*Paper_Space0
  1

  0
ENDBLK
  5
25
330
23
100
AcDbEntity
  8
0
100
AcDbBlockEnd
  0
ENDSEC
  0
SECTION
  2
ENTITIES
  0
LINE
  5
75
330
1F
100
AcDbEntity
  8
0
  6
Continuous
 62
     7
370
    25
100
AcDbLine
 10
-1043.9196915306
 20
2158.8626548009
 30
0.0
 11
113.1086792907
 21
1595.6584679638
 31
0.0
  0
LINE
  5
76
330
1F
100
AcDbEntity
  8
0
  6
Continuous
 62
     7
370
    25
100
AcDbLine
 10
179.8522194217
 20
1679.6872774774
 30
0.0
 11
-971.3409206325
 21
2240.0510617089
 31
0.0
  0
LINE
  5
77
330
1F
100
AcDbEntity
  8
0
  6
Continuous
 62
     7
370
    25
100
AcDbLine
 10
286.7973304408
 20
1595.6584679638
 30
0.0
 11
1443.825701262
 21
2158.8626548009
 31
0.0
  0
LINE
  5
78
330
1F
100
AcDbEntity
  8
0
  6
Continuous
 62
     7
370
    25
100
AcDbLine
 10
1371.246930364
 20
2240.0510617089
 30
0.0
 11
220.0537903098
 21
1679.6872774774
 31
0.0
  0
LINE
  5
79
330
1F
100
AcDbEntity
  8
0
  6
Continuous
 62
     7
370
    25
100
AcDbLine
 10
1443.825701262
 20
-1934.9305642525
 30
0.0
 11
286.7973304408
 21
-1371.7263774154
 31
0.0
  0
LINE
  5
7A
330
1F
100
AcDbEntity
  8
0
  6
Continuous
 62
     7
370
    25
100
AcDbLine
 10
220.0537903098
 20
-1455.755186929
 30
0.0
 11
1371.246930364
 21
-2016.1189711605
 31
0.0
  0
LINE
  5
7B
330
1F
100
AcDbEntity
  8
0
  6
Continuous
 62
     7
370
    25
100
AcDbLine
 10
113.1086792907
 20
-1371.7263774154
 30
0.0
 11
-1043.9196915306
 21
-1934.9305642525
 31
0.0
  0
LINE
  5
7C
330
1F
100
AcDbEntity
  8
0
  6
Continuous
 62
     7
370
    25
100
AcDbLine
 10
-971.3409206325
 20
-2016.1189711605
 30
0.0
 11
179.8522194217
 21
-1455.755186929
 31
0.0
  0
LWPOLYLINE
  5
7D
330
1F
100
AcDbEntity
  8
0
  6
Continuous
 62
     7
370
    25
100
AcDbPolyline
 90
        3
 70
   128
 43
0.0
 10
284.96783265
 20
-1369.2156562117
 10
284.2055584012
 20
-1369.0013237605
 10
283.61883101
 20
-1369.0189318415
  0
LINE
  5
7E
330
1F
100
AcDbEntity
  8
0
  6
Continuous
 62
     7
370
    25
100
AcDbLine
 10
283.645448555
 20
-1369.0130995047
 30
0.0
 11
216.617528825
 21
-1378.2372490551
 31
0.0
  0
LINE
  5
7F
330
1F
100
AcDbEntity
  8
0
  6
Continuous
 62
     7
370
    25
100
AcDbLine
 10
285.9067757756
 20
-1369.6727035174
 30
0.0
 11
284.96783265
 21
-1369.2156562117
 31
0.0
  0
ARC
  5
80
330
1F
100
AcDbEntity
  8
0
  6
Continuous
 62
     7
370
    25
100
AcDbCircle
 10
217.0083047472
 20
-1453.537343539
 30
0.0
 40
2.118280747346418
100
AcDbArc
 50
176.8689228929
 51
245.0016095535
  0
LINE
  5
81
330
1F
100
AcDbEntity
  8
0
  6
Continuous
 62
     7
370
    25
100
AcDbLine
 10
214.8714226651
 20
-1380.2401048802
 30
0.0
 11
214.8714226651
 21
-1453.424339792
 31
0.0
  0
LINE
  5
82
330
1F
100
AcDbEntity
  8
0
  6
Continuous
 62
     7
370
    25
100
AcDbLine
 10
216.1131345517
 20
-1455.4571830233
 30
0.0
 11
217.0520776773
 21
-1455.914230329
 31
0.0
  0
ARC
  5
83
330
1F
100
AcDbEntity
  8
0
  6
Continuous
 62
     7
370
    25
100
AcDbCircle
 10
216.7316073187
 20
-1380.0943089154
 30
0.0
 40
1.852846300738443
100
AcDbArc
 50
92.1035639901
 51
184.5772265152
  0
LWPOLYLINE
  5
84
330
1F
100
AcDbEntity
  8
0
  6
Continuous
 62
     7
370
    25
100
AcDbPolyline
 90
        3
 70
   128
 43
0.0
 10
114.9381770815
 20
1593.1477467601
 10
115.7004513303
 20
1592.9334143089
 10
116.2871787215
 20
1592.9510223899
  0
LINE
  5
85
330
1F
100
AcDbEntity
  8
0
  6
Continuous
 62
     7
370
    25
100
AcDbLine
 10
116.2605611764
 20
1592.9451900531
 30
0.0
 11
183.2884809065
 21
1602.1693396035
 31
0.0
  0
LINE
  5
86
330
1F
100
AcDbEntity
  8
0
  6
Continuous
 62
     7
370
    25
100
AcDbLine
 10
113.9992339559
 20
1593.6047940658
 30
0.0
 11
114.9381770815
 21
1593.1477467601
 31
0.0
  0
ARC
  5
87
330
1F
100
AcDbEntity
  8
0
  6
Continuous
 62
     7
370
    25
100
AcDbCircle
 10
182.8977049843
 20
1677.4694340874
 30
0.0
 40
2.118280747346393
100
AcDbArc
 50
356.8689228929
 51
65.0016095535
  0
LINE
  5
88
330
1F
100
AcDbEntity
  8
0
  6
Continuous
 62
     7
370
    25
100
AcDbLine
 10
185.0345870664
 20
1604.1721954286
 30
0.0
 11
185.0345870664
 21
1677.3564303404
 31
0.0
  0
LINE
  5
89
330
1F
100
AcDbEntity
  8
0
  6
Continuous
 62
     7
370
    25
100
AcDbLine
 10
183.7928751798
 20
1679.3892735717
 30
0.0
 11
182.8539320542
 21
1679.8463208775
 31
0.0
  0
ARC
  5
8A
330
1F
100
AcDbEntity
  8
0
  6
Continuous
 62
     7
370
    25
100
AcDbCircle
 10
183.1744024128
 20
1604.0263994638
 30
0.0
 40
1.852846300737264
100
AcDbArc
 50
272.1035639901
 51
4.5772265152
  0
ARC
  5
8B
330
1F
100
AcDbEntity
  8
0
  6
Continuous
 62
     7
370
    25
100
AcDbCircle
 10
216.9761717656
 20
-110.1432337076
 30
0.0
 40
2.104314948993887
100
AcDbArc
 50
89.665006629
 51
180.4080633994
  0
LINE
  5
8C
330
1F
100
AcDbEntity
  8
0
  6
Continuous
 62
     7
370
    25
100
AcDbLine
 10
214.8714226651
 20
-110.1560071329
 30
0.0
 11
214.8714226651
 21
-185.9219023187
 31
0.0
  0
ARC
  5
8D
330
1F
100
AcDbEntity
  8
0
  6
Continuous
 62
     7
370
    25
100
AcDbCircle
 10
216.9295363309
 20
-186.0037308542
 30
0.0
 40
2.036077106328287
100
AcDbArc
 50
177.6340585403
 51
271.6587843897
  0
ARC
  5
8E
330
1F
100
AcDbEntity
  8
0
  6
Continuous
 62
     7
370
    25
100
AcDbCircle
 10
284.0605744628
 20
1594.8561282389
 30
0.0
 40
1.934343479150409
100
AcDbArc
 50
256.0945495015
 51
297.9711175629
  0
LINE
  5
8F
330
1F
100
AcDbEntity
  8
0
  6
Continuous
 62
     7
370
    25
100
AcDbLine
 10
216.617528825
 20
1602.1693396035
 30
0.0
 11
283.645448555
 21
1592.9451900531
 31
0.0
  0
LINE
  5
90
330
1F
100
AcDbEntity
  8
0
  6
Continuous
 62
     7
370
    25
100
AcDbLine
 10
284.96783265
 20
1593.1477467601
 30
0.0
 11
285.9067757756
 21
1593.6047940658
 31
0.0
  0
ARC
  5
91
330
1F
100
AcDbEntity
  8
0
  6
Continuous
 62
     7
370
    25
100
AcDbCircle
 10
217.0305455878
 20
1677.4518499087
 30
0.0
 40
2.14365423031846
100
AcDbArc
 50
115.3385438183
 51
182.6409082034
  0
LINE
  5
92
330
1F
100
AcDbEntity
  8
0
  6
Continuous
 62
     7
370
    25
100
AcDbLine
 10
214.8714226651
 20
1677.3564303404
 30
0.0
 11
214.8714226651
 21
1604.1721954286
 31
0.0
  0
LINE
  5
93
330
1F
100
AcDbEntity
  8
0
  6
Continuous
 62
     7
370
    25
100
AcDbLine
 10
217.0520776773
 20
1679.8463208775
 30
0.0
 11
216.1131345517
 21
1679.3892735717
 31
0.0
  0
ARC
  5
94
330
1F
100
AcDbEntity
  8
0
  6
Continuous
 62
     7
370
    25
100
AcDbCircle
 10
216.8056347738
 20
1604.071287872
 30
0.0
 40
1.906824211755646
100
AcDbArc
 50
176.9178541182
 51
264.9196007539
  0
ARC
  5
95
330
1F
100
AcDbEntity
  8
0
  6
Continuous
 62
     7
370
    25
100
AcDbCircle
 10
115.8454352687
 20
-1370.9240376904
 30
0.0
 40
1.934343479145324
100
AcDbArc
 50
76.0945495014
 51
117.9711175629
  0
LINE
  5
96
330
1F
100
AcDbEntity
  8
0
  6
Continuous
 62
     7
370
    25
100
AcDbLine
 10
183.2884809065
 20
-1378.2372490551
 30
0.0
 11
116.2605611764
 21
-1369.0130995047
 31
0.0
  0
LINE
  5
97
330
1F
100
AcDbEntity
  8
0
  6
Continuous
 62
     7
370
    25
100
AcDbLine
 10
114.9381770815
 20
-1369.2156562117
 30
0.0
 11
113.9992339559
 21
-1369.6727035174
 31
0.0
  0
ARC
  5
98
330
1F
100
AcDbEntity
  8
0
  6
Continuous
 62
     7
370
    25
100
AcDbCircle
 10
182.8754641436
 20
-1453.5197593603
 30
0.0
 40
2.143654230317696
100
AcDbArc
 50
295.3385438183
 51
2.6409082034
  0
LINE
  5
99
330
1F
100
AcDbEntity
  8
0
  6
Continuous
 62
     7
370
    25
100
AcDbLine
 10
185.0345870664
 20
-1453.424339792
 30
0.0
 11
185.0345870664
 21
-1380.2401048802
 31
0.0
  0
LINE
  5
9A
330
1F
100
AcDbEntity
  8
0
  6
Continuous
 62
     7
370
    25
100
AcDbLine
 10
182.8539320542
 20
-1455.914230329
 30
0.0
 11
183.7928751798
 21
-1455.4571830233
 31
0.0
  0
ARC
  5
9B
330
1F
100
AcDbEntity
  8
0
  6
Continuous
 62
     7
370
    25
100
AcDbCircle
 10
183.1003749576
 20
-1380.1391973236
 30
0.0
 40
1.906824211755435
100
AcDbArc
 50
356.9178541182
 51
84.9196007539
  0
ARC
  5
9C
330
1F
100
AcDbEntity
  8
0
  6
Continuous
 62
     7
370
    25
100
AcDbCircle
 10
182.9764734006
 20
-110.0741785974
 30
0.0
 40
2.036077106328317
100
AcDbArc
 50
357.6340585403
 51
91.6587843897
  0
LINE
  5
9D
330
1F
100
AcDbEntity
  8
0
  6
Continuous
 62
     7
370
    25
100
AcDbLine
 10
185.0345870664
 20
-185.9219023187
 30
0.0
 11
185.0345870664
 21
-110.1560071329
 31
0.0
  0
ARC
  5
9E
330
1F
100
AcDbEntity
  8
0
  6
Continuous
 62
     7
370
    25
100
AcDbCircle
 10
182.9298379658
 20
-185.934675744
 30
0.0
 40
2.10431494899383
100
AcDbArc
 50
269.665006629
 51
0.4080633994
  0
ARC
  5
9F
330
1F
100
AcDbEntity
  8
0
  6
Continuous
 62
     7
370
    25
100
AcDbCircle
 10
267.0530048657
 20
-101.9389547258
 30
0.0
 40
1.100000000000049
100
AcDbArc
 50
126.4341903956
 51
270.0
  0
ARC
  5
A0
330
1F
100
AcDbEntity
  8
0
  6
Continuous
 62
     7
370
    25
100
AcDbCircle
 10
282.8530048657
 20
-101.9389547258
 30
0.0
 40
1.100000000000049
100
AcDbArc
 50
270.0
 51
53.5658096044
  0
ARC
  5
A1
330
1F
100
AcDbEntity
  8
0
  6
Continuous
 62
     7
370
    25
100
AcDbCircle
 10
274.9530048657
 20
-112.6408778027
 30
0.0
 40
14.40192307692315
100
AcDbArc
 50
53.5658096044
 51
126.4341903956
  0
ARC
  5
A2
330
1F
100
AcDbEntity
  8
0
  6
Continuous
 62
     7
370
    25
100
AcDbCircle
 10
358.599959609
 20
-101.9389547258
 30
0.0
 40
1.100000000000049
100
AcDbArc
 50
126.4341903956
 51
270.0
  0
ARC
  5
A3
330
1F
100
AcDbEntity
  8
0
  6
Continuous
 62
     7
370
    25
100
AcDbCircle
 10
374.399959609
 20
-101.9389547258
 30
0.0
 40
1.100000000000049
100
AcDbArc
 50
270.0
 51
53.5658096044
  0
ARC
  5
A4
330
1F
100
AcDbEntity
  8
0
  6
Continuous
 62
     7
370
    25
100
AcDbCircle
 10
366.499959609
 20
-112.6408778027
 30
0.0
 40
14.40192307692315
100
AcDbArc
 50
53.5658096044
 51
126.4341903956
  0
ARC
  5
A5
330
1F
100
AcDbEntity
  8
0
  6
Continuous
 62
     7
370
    25
100
AcDbCircle
 10
25.5060501225
 20
-101.9389547258
 30
0.0
 40
1.100000000000066
100
AcDbArc
 50
126.4341903956
 51
270.0
  0
ARC
  5
A6
330
1F
100
AcDbEntity
  8
0
  6
Continuous
 62
     7
370
    25
100
AcDbCircle
 10
41.3060501225
 20
-101.9389547258
 30
0.0
 40
1.100000000000049
100
AcDbArc
 50
270.0
 51
53.5658096044
  0
ARC
  5
A7
330
1F
100
AcDbEntity
  8
0
  6
Continuous
 62
     7
370
    25
100
AcDbCircle
 10
33.4060501225
 20
-112.6408778027
 30
0.0
 40
14.40192307692316
100
AcDbArc
 50
53.5658096044
 51
126.4341903956
  0
ARC
  5
A8
330
1F
100
AcDbEntity
  8
0
  6
Continuous
 62
     7
370
    25
100
AcDbCircle
 10
117.0530048657
 20
-101.9389547258
 30
0.0
 40
1.100000000000049
100
AcDbArc
 50
126.4341903956
 51
270.0
  0
ARC
  5
A9
330
1F
100
AcDbEntity
  8
0
  6
Continuous
 62
     7
370
    25
100
AcDbCircle
 10
132.8530048657
 20
-101.9389547258
 30
0.0
 40
1.100000000000049
100
AcDbArc
 50
270.0
 51
53.5658096044
  0
ARC
  5
AA
330
1F
100
AcDbEntity
  8
0
  6
Continuous
 62
     7
370
    25
100
AcDbCircle
 10
124.9530048657
 20
-112.6408778027
 30
0.0
 40
14.40192307692313
100
AcDbArc
 50
53.5658096044
 51
126.4341903956
  0
ARC
  5
AB
330
1F
100
AcDbEntity
  8
0
  6
Continuous
 62
     7
370
    25
100
AcDbCircle
 10
275.2072550841
 20
-1464.005944345
 30
0.0
 40
15.74181946935051
100
AcDbArc
 50
179.3589106536
 51
225.6495146149
  0
ARC
  5
AC
330
1F
100
AcDbEntity
  8
0
  6
Continuous
 62
     7
370
    25
100
AcDbCircle
 10
274.781713863
 20
-1464.0616217348
 30
0.0
 40
15.64139230122575
100
AcDbArc
 50
314.2851770644
 51
0.860631338
  0
LINE
  5
AD
330
1F
100
AcDbEntity
  8
0
  6
Continuous
 62
     7
370
    25
100
AcDbLine
 10
259.4530048657
 20
-1462.8566826177
 30
0.0
 11
259.4530048657
 21
-1463.822608444
 31
0.0
  0
LINE
  5
AE
330
1F
100
AcDbEntity
  8
0
  6
Continuous
 62
     7
370
    25
100
AcDbLine
 10
290.4530048657
 20
-1463.822608444
 30
0.0
 11
290.4530048657
 21
-1462.8566826177
 31
0.0
  0
LINE
  5
AF
330
1F
100
AcDbEntity
  8
0
  6
Continuous
 62
     7
370
    25
100
AcDbLine
 10
109.4530048657
 20
-193.0389547258
 30
0.0
 11
109.4530048657
 21
-194.0389547258
 31
0.0
  0
LINE
  5
B0
330
1F
100
AcDbEntity
  8
0
  6
Continuous
 62
     7
370
    25
100
AcDbLine
 10
140.4530048657
 20
-194.0389547258
 30
0.0
 11
140.4530048657
 21
-193.0389547258
 31
0.0
  0
ARC
  5
B1
330
1F
100
AcDbEntity
  8
0
  6
Continuous
 62
     7
370
    25
100
AcDbCircle
 10
124.1569522342
 20
-194.0389547258
 30
0.0
 40
16.29605263157892
100
AcDbArc
 50
315.1144932694
 51
0.0
  0
ARC
  5
B2
330
1F
100
AcDbEntity
  8
0
  6
Continuous
 62
     7
370
    25
100
AcDbCircle
 10
125.7490574973
 20
-194.0389547258
 30
0.0
 40
16.29605263157895
100
AcDbArc
 50
180.0
 51
224.8855067306
  0
ARC
  5
B3
330
1F
100
AcDbEntity
  8
0
  6
Continuous
 62
     7
370
    25
100
AcDbCircle
 10
124.6987546473
 20
1687.9380348934
 30
0.0
 40
15.74181946934896
100
AcDbArc
 50
359.3589106536
 51
45.6495146149
  0
ARC
  5
B4
330
1F
100
AcDbEntity
  8
0
  6
Continuous
 62
     7
370
    25
100
AcDbCircle
 10
125.1242958685
 20
1687.9937122832
 30
0.0
 40
15.64139230122487
100
AcDbArc
 50
134.2851770644
 51
180.860631338
  0
LINE
  5
B5
330
1F
100
AcDbEntity
  8
0
  6
Continuous
 62
     7
370
    25
100
AcDbLine
 10
140.4530048658
 20
1686.7887731661
 30
0.0
 11
140.4530048658
 21
1687.7546989924
 31
0.0
  0
LINE
  5
B6
330
1F
100
AcDbEntity
  8
0
  6
Continuous
 62
     7
370
    25
100
AcDbLine
 10
109.4530048658
 20
1687.7546989924
 30
0.0
 11
109.4530048658
 21
1686.7887731661
 31
0.0
  0
ARC
  5
B7
330
1F
100
AcDbEntity
  8
0
  6
Continuous
 62
     7
370
    25
100
AcDbCircle
 10
32.6099974909
 20
-194.0389547258
 30
0.0
 40
16.29605263157893
100
AcDbArc
 50
315.1144932694
 51
0.0
  0
ARC
  5
B8
330
1F
100
AcDbEntity
  8
0
  6
Continuous
 62
     7
370
    25
100
AcDbCircle
 10
34.2021027541
 20
-194.0389547258
 30
0.0
 40
16.29605263157893
100
AcDbArc
 50
180.0
 51
224.8855067306
  0
LINE
  5
B9
330
1F
100
AcDbEntity
  8
0
  6
Continuous
 62
     7
370
    25
100
AcDbLine
 10
17.9060501225
 20
-193.0389547258
 30
0.0
 11
17.9060501225
 21
-194.0389547258
 31
0.0
  0
LINE
  5
BA
330
1F
100
AcDbEntity
  8
0
  6
Continuous
 62
     7
370
    25
100
AcDbLine
 10
48.9060501225
 20
-194.0389547258
 30
0.0
 11
48.9060501225
 21
-193.0389547258
 31
0.0
  0
ARC
  5
BB
330
1F
100
AcDbEntity
  8
0
  6
Continuous
 62
     7
370
    25
100
AcDbCircle
 10
124.4931537819
 20
-1463.9302945639
 30
0.0
 40
15.94684879655984
100
AcDbArc
 50
314.6642340191
 51
0.4127892848
  0
ARC
  5
BC
330
1F
100
AcDbEntity
  8
0
  6
Continuous
 62
     7
370
    25
100
AcDbCircle
 10
125.3235349317
 20
-1463.9979911974
 30
0.0
 40
15.83988346166521
100
AcDbArc
 50
179.3508539251
 51
225.4075814245
  0
LINE
  5
BD
330
1F
100
AcDbEntity
  8
0
  6
Continuous
 62
     7
370
    25
100
AcDbLine
 10
109.4530048658
 20
-1462.8566826177
 30
0.0
 11
109.4530048658
 21
-1463.822608444
 31
0.0
  0
LINE
  5
BE
330
1F
100
AcDbEntity
  8
0
  6
Continuous
 62
     7
370
    25
100
AcDbLine
 10
140.4530048658
 20
-1463.822608444
 30
0.0
 11
140.4530048658
 21
-1462.8566826177
 31
0.0
  0
LINE
  5
BF
330
1F
100
AcDbEntity
  8
0
  6
Continuous
 62
     7
370
    25
100
AcDbLine
 10
350.999959609
 20
-193.0389547258
 30
0.0
 11
350.999959609
 21
-194.0389547258
 31
0.0
  0
LINE
  5
C0
330
1F
100
AcDbEntity
  8
0
  6
Continuous
 62
     7
370
    25
100
AcDbLine
 10
381.999959609
 20
-194.0389547258
 30
0.0
 11
381.999959609
 21
-193.0389547258
 31
0.0
  0
ARC
  5
C1
330
1F
100
AcDbEntity
  8
0
  6
Continuous
 62
     7
370
    25
100
AcDbCircle
 10
365.7039069774
 20
-194.0389547258
 30
0.0
 40
16.29605263157896
100
AcDbArc
 50
315.1144932694
 51
0.0
  0
ARC
  5
C2
330
1F
100
AcDbEntity
  8
0
  6
Continuous
 62
     7
370
    25
100
AcDbCircle
 10
367.2960122406
 20
-194.0389547258
 30
0.0
 40
16.29605263157896
100
AcDbArc
 50
180.0
 51
224.8855067306
  0
LINE
  5
C3
330
1F
100
AcDbEntity
  8
0
  6
Continuous
 62
     7
370
    25
100
AcDbLine
 10
259.4530048657
 20
-193.0389547258
 30
0.0
 11
259.4530048657
 21
-194.0389547258
 31
0.0
  0
LINE
  5
C4
330
1F
100
AcDbEntity
  8
0
  6
Continuous
 62
     7
370
    25
100
AcDbLine
 10
290.4530048657
 20
-194.0389547258
 30
0.0
 11
290.4530048657
 21
-193.0389547258
 31
0.0
  0
ARC
  5
C5
330
1F
100
AcDbEntity
  8
0
  6
Continuous
 62
     7
370
    25
100
AcDbCircle
 10
274.1569522342
 20
-194.0389547258
 30
0.0
 40
16.29605263157896
100
AcDbArc
 50
315.1144932694
 51
0.0
  0
ARC
  5
C6
330
1F
100
AcDbEntity
  8
0
  6
Continuous
 62
     7
370
    25
100
AcDbCircle
 10
275.7490574973
 20
-194.0389547258
 30
0.0
 40
16.29605263157896
100
AcDbArc
 50
180.0
 51
224.8855067306
  0
ARC
  5
C7
330
1F
100
AcDbEntity
  8
0
  6
Continuous
 62
     7
370
    25
100
AcDbCircle
 10
366.9598106928
 20
1732.4244974199
 30
0.0
 40
15.94684879655911
100
AcDbArc
 50
134.6642340191
 51
180.4127892848
  0
ARC
  5
C8
330
1F
100
AcDbEntity
  8
0
  6
Continuous
 62
     7
370
    25
100
AcDbCircle
 10
366.129429543
 20
1732.4921940534
 30
0.0
 40
15.83988346166666
100
AcDbArc
 50
359.3508539251
 51
45.4075814245
  0
LINE
  5
C9
330
1F
100
AcDbEntity
  8
0
  6
Continuous
 62
     7
370
    25
100
AcDbLine
 10
381.999959609
 20
1731.3508854737
 30
0.0
 11
381.999959609
 21
1732.3168113
 31
0.0
  0
LINE
  5
CA
330
1F
100
AcDbEntity
  8
0
  6
Continuous
 62
     7
370
    25
100
AcDbLine
 10
350.999959609
 20
1732.3168113
 30
0.0
 11
350.999959609
 21
1731.3508854737
 31
0.0
  0
ARC
  5
CB
330
1F
100
AcDbEntity
  8
0
  6
Continuous
 62
     7
370
    25
100
AcDbCircle
 10
275.4128559496
 20
1687.8623851123
 30
0.0
 40
15.94684879655829
100
AcDbArc
 50
134.6642340191
 51
180.4127892848
  0
ARC
  5
CC
330
1F
100
AcDbEntity
  8
0
  6
Continuous
 62
     7
370
    25
100
AcDbCircle
 10
274.5824747998
 20
1687.9300817458
 30
0.0
 40
15.8398834616663
100
AcDbArc
 50
359.3508539251
 51
45.4075814245
  0
LINE
  5
CD
330
1F
100
AcDbEntity
  8
0
  6
Continuous
 62
     7
370
    25
100
AcDbLine
 10
290.4530048657
 20
1686.7887731661
 30
0.0
 11
290.4530048657
 21
1687.7546989924
 31
0.0
  0
LINE
  5
CE
330
1F
100
AcDbEntity
  8
0
  6
Continuous
 62
     7
370
    25
100
AcDbLine
 10
259.4530048657
 20
1687.7546989924
 30
0.0
 11
259.4530048657
 21
1686.7887731661
 31
0.0
  0
ARC
  5
CF
330
1F
100
AcDbEntity
  8
0
  6
Continuous
 62
     7
370
    25
100
AcDbCircle
 10
33.1517999041
 20
1732.500147201
 30
0.0
 40
15.74181946935007
100
AcDbArc
 50
359.3589106536
 51
45.6495146149
  0
ARC
  5
D0
330
1F
100
AcDbEntity
  8
0
  6
Continuous
 62
     7
370
    25
100
AcDbCircle
 10
33.5773411252
 20
1732.5558245908
 30
0.0
 40
15.64139230122502
100
AcDbArc
 50
134.2851770644
 51
180.860631338
  0
LINE
  5
D1
330
1F
100
AcDbEntity
  8
0
  6
Continuous
 62
     7
370
    25
100
AcDbLine
 10
48.9060501225
 20
1731.3508854737
 30
0.0
 11
48.9060501225
 21
1732.3168113
 31
0.0
  0
LINE
  5
D2
330
1F
100
AcDbEntity
  8
0
  6
Continuous
 62
     7
370
    25
100
AcDbLine
 10
17.9060501225
 20
1732.3168113
 30
0.0
 11
17.9060501225
 21
1731.3508854737
 31
0.0
  0
ARC
  5
D3
330
1F
100
AcDbEntity
  8
0
  6
Continuous
 62
     7
370
    25
100
AcDbCircle
 10
32.9461990386
 20
-1508.4924068715
 30
0.0
 40
15.94684879655988
100
AcDbArc
 50
314.6642340191
 51
0.4127892848
  0
ARC
  5
D4
330
1F
100
AcDbEntity
  8
0
  6
Continuous
 62
     7
370
    25
100
AcDbCircle
 10
33.7765801885
 20
-1508.560103505
 30
0.0
 40
15.83988346166626
100
AcDbArc
 50
179.3508539251
 51
225.4075814245
  0
LINE
  5
D5
330
1F
100
AcDbEntity
  8
0
  6
Continuous
 62
     7
370
    25
100
AcDbLine
 10
17.9060501225
 20
-1507.4187949253
 30
0.0
 11
17.9060501225
 21
-1508.3847207516
 31
0.0
  0
LINE
  5
D6
330
1F
100
AcDbEntity
  8
0
  6
Continuous
 62
     7
370
    25
100
AcDbLine
 10
48.9060501225
 20
-1508.3847207516
 30
0.0
 11
48.9060501225
 21
-1507.4187949253
 31
0.0
  0
ARC
  5
D7
330
1F
100
AcDbEntity
  8
0
  6
Continuous
 62
     7
370
    25
100
AcDbCircle
 10
366.7542098274
 20
-1508.5680566526
 30
0.0
 40
15.74181946935206
100
AcDbArc
 50
179.3589106536
 51
225.6495146149
  0
ARC
  5
D8
330
1F
100
AcDbEntity
  8
0
  6
Continuous
 62
     7
370
    25
100
AcDbCircle
 10
366.3286686063
 20
-1508.6237340424
 30
0.0
 40
15.64139230122508
100
AcDbArc
 50
314.2851770644
 51
0.860631338
  0
LINE
  5
D9
330
1F
100
AcDbEntity
  8
0
  6
Continuous
 62
     7
370
    25
100
AcDbLine
 10
350.999959609
 20
-1507.4187949253
 30
0.0
 11
350.999959609
 21
-1508.3847207516
 31
0.0
  0
LINE
  5
DA
330
1F
100
AcDbEntity
  8
0
  6
Continuous
 62
     7
370
    25
100
AcDbLine
 10
381.999959609
 20
-1508.3847207516
 30
0.0
 11
381.999959609
 21
-1507.4187949253
 31
0.0
  0
ARC
  5
DB
330
1F
100
AcDbEntity
  8
0
  6
Continuous
 62
     7
370
    25
100
AcDbCircle
 10
366.499959609
 20
-1493.5185185814
 30
0.0
 40
29.89062500000024
100
AcDbArc
 50
256.1990602276
 51
283.8009397724
  0
LWPOLYLINE
  5
DC
330
1F
100
AcDbEntity
  8
0
  6
Continuous
 62
     7
370
    25
100
AcDbPolyline
 90
        3
 70
   128
 43
0.0
 10
355.7851093501
 20
-1520.047093096
 10
355.8133177222
 20
-1520.4583351294
 10
356.090785965
 20
-1520.9607812303
  0
ARC
  5
DD
330
1F
100
AcDbEntity
  8
0
  6
Continuous
 62
     7
370
    25
100
AcDbCircle
 10
375.7477367111
 20
-1520.0979434729
 30
0.0
 40
1.472510598367985
100
AcDbArc
 50
295.8563762725
 51
0.1742615185
  0
LINE
  5
DE
330
1F
100
AcDbEntity
  8
0
  6
Continuous
 62
     7
370
    25
100
AcDbLine
 10
355.749959609
 20
-1519.4928677539
 30
0.0
 11
355.749959609
 21
-1520.0580792694
 31
0.0
  0
LINE
  5
DF
330
1F
100
AcDbEntity
  8
0
  6
Continuous
 62
     7
370
    25
100
AcDbLine
 10
377.249959609
 20
-1520.0580792694
 30
0.0
 11
377.249959609
 21
-1519.4928677539
 31
0.0
  0
ARC
  5
E0
330
1F
100
AcDbEntity
  8
0
  6
Continuous
 62
     7
370
    25
100
AcDbCircle
 10
124.9530048658
 20
1672.8884968222
 30
0.0
 40
29.89062499999991
100
AcDbArc
 50
76.1990602276
 51
103.8009397724
  0
LWPOLYLINE
  5
E1
330
1F
100
AcDbEntity
  8
0
  6
Continuous
 62
     7
370
    25
100
AcDbPolyline
 90
        3
 70
   128
 43
0.0
 10
135.6678551246
 20
1699.4170713369
 10
135.6396467526
 20
1699.8283133703
 10
135.3621785097
 20
1700.3307594711
  0
ARC
  5
E2
330
1F
100
AcDbEntity
  8
0
  6
Continuous
 62
     7
370
    25
100
AcDbCircle
 10
115.7052277636
 20
1699.4679217138
 30
0.0
 40
1.472510598367503
100
AcDbArc
 50
115.8563762725
 51
180.1742615185
  0
LINE
  5
E3
330
1F
100
AcDbEntity
  8
0
  6
Continuous
 62
     7
370
    25
100
AcDbLine
 10
135.7030048658
 20
1698.8628459948
 30
0.0
 11
135.7030048658
 21
1699.4280575103
 31
0.0
  0
LINE
  5
E4
330
1F
100
AcDbEntity
  8
0
  6
Continuous
 62
     7
370
    25
100
AcDbLine
 10
114.2030048658
 20
1699.4280575103
 30
0.0
 11
114.2030048658
 21
1698.8628459948
 31
0.0
  0
ARC
  5
E5
330
1F
100
AcDbEntity
  8
0
  6
Continuous
 62
     7
370
    25
100
AcDbCircle
 10
274.9530048657
 20
-1448.9564062738
 30
0.0
 40
29.89062500000018
100
AcDbArc
 50
256.1990602276
 51
283.8009397724
  0
LWPOLYLINE
  5
E6
330
1F
100
AcDbEntity
  8
0
  6
Continuous
 62
     7
370
    25
100
AcDbPolyline
 90
        3
 70
   128
 43
0.0
 10
264.2381546069
 20
-1475.4849807885
 10
264.2663629789
 20
-1475.8962228219
 10
264.5438312217
 20
-1476.3986689227
  0
ARC
  5
E7
330
1F
100
AcDbEntity
  8
0
  6
Continuous
 62
     7
370
    25
100
AcDbCircle
 10
284.2007819679
 20
-1475.5358311653
 30
0.0
 40
1.472510598368562
100
AcDbArc
 50
295.8563762725
 51
0.1742615185
  0
LINE
  5
E8
330
1F
100
AcDbEntity
  8
0
  6
Continuous
 62
     7
370
    25
100
AcDbLine
 10
264.2030048657
 20
-1474.9307554463
 30
0.0
 11
264.2030048657
 21
-1475.4959669619
 31
0.0
  0
LINE
  5
E9
330
1F
100
AcDbEntity
  8
0
  6
Continuous
 62
     7
370
    25
100
AcDbLine
 10
285.7030048657
 20
-1475.4959669619
 30
0.0
 11
285.7030048657
 21
-1474.9307554463
 31
0.0
  0
LINE
  5
EA
330
1F
100
AcDbEntity
  8
0
  6
Continuous
 62
     7
370
    25
100
AcDbLine
 10
22.6560501225
 20
-205.5389547258
 30
0.0
 11
22.6560501225
 21
-206.1241047447
 31
0.0
  0
LINE
  5
EB
330
1F
100
AcDbEntity
  8
0
  6
Continuous
 62
     7
370
    25
100
AcDbLine
 10
44.1560501225
 20
-206.1241047447
 30
0.0
 11
44.1560501225
 21
-205.5389547258
 31
0.0
  0
ARC
  5
EC
330
1F
100
AcDbEntity
  8
0
  6
Continuous
 62
     7
370
    25
100
AcDbCircle
 10
23.2560501225
 20
-206.1241047447
 30
0.0
 40
0.5999999999999908
100
AcDbArc
 50
180.0
 51
249.724946748
  0
ARC
  5
ED
330
1F
100
AcDbEntity
  8
0
  6
Continuous
 62
     7
370
    25
100
AcDbCircle
 10
43.5560501225
 20
-206.1241047447
 30
0.0
 40
0.5999999999999872
100
AcDbArc
 50
290.275053252
 51
0.0
  0
ARC
  5
EE
330
1F
100
AcDbEntity
  8
0
  6
Continuous
 62
     7
370
    25
100
AcDbCircle
 10
33.4060501225
 20
-178.6483297258
 30
0.0
 40
29.89062499999994
100
AcDbArc
 50
249.724946748
 51
270.0
  0
ARC
  5
EF
330
1F
100
AcDbEntity
  8
0
  6
Continuous
 62
     7
370
    25
100
AcDbCircle
 10
33.4060501225
 20
-178.6483297258
 30
0.0
 40
29.89062499999994
100
AcDbArc
 50
270.0
 51
290.275053252
  0
ARC
  5
F0
330
1F
100
AcDbEntity
  8
0
  6
Continuous
 62
     7
370
    25
100
AcDbCircle
 10
124.9530048658
 20
-1448.9564062738
 30
0.0
 40
29.89062500000023
100
AcDbArc
 50
256.1990602276
 51
270.0
  0
ARC
  5
F1
330
1F
100
AcDbEntity
  8
0
  6
Continuous
 62
     7
370
    25
100
AcDbCircle
 10
124.9530048658
 20
-1448.9564062738
 30
0.0
 40
29.89062500000023
100
AcDbArc
 50
270.0
 51
283.8009397724
  0
ARC
  5
F2
330
1F
100
AcDbEntity
  8
0
  6
Continuous
 62
     7
370
    25
100
AcDbCircle
 10
134.2128637946
 20
-1475.550071028
 30
0.0
 40
1.455630077652312
100
AcDbArc
 50
294.8029576669
 51
1.6974331146
  0
ARC
  5
F3
330
1F
100
AcDbEntity
  8
0
  6
Continuous
 62
     7
370
    25
100
AcDbCircle
 10
115.3384410147
 20
-1475.6083318058
 30
0.0
 40
1.115544881217888
100
AcDbArc
 50
172.3889854218
 51
228.0289477856
  0
LINE
  5
F4
330
1F
100
AcDbEntity
  8
0
  6
Continuous
 62
     7
370
    25
100
AcDbLine
 10
114.2030048658
 20
-1474.9307554463
 30
0.0
 11
114.2030048658
 21
-1475.4959669619
 31
0.0
  0
LINE
  5
F5
330
1F
100
AcDbEntity
  8
0
  6
Continuous
 62
     7
370
    25
100
AcDbLine
 10
135.7030048658
 20
-1475.4959669619
 30
0.0
 11
135.7030048658
 21
-1474.9307554463
 31
0.0
  0
LINE
  5
F6
330
1F
100
AcDbEntity
  8
0
  6
Continuous
 62
     7
370
    25
100
AcDbLine
 10
114.2030048657
 20
-205.5389547258
 30
0.0
 11
114.2030048657
 21
-206.1241047447
 31
0.0
  0
LINE
  5
F7
330
1F
100
AcDbEntity
  8
0
  6
Continuous
 62
     7
370
    25
100
AcDbLine
 10
135.7030048657
 20
-206.1241047447
 30
0.0
 11
135.7030048657
 21
-205.5389547258
 31
0.0
  0
ARC
  5
F8
330
1F
100
AcDbEntity
  8
0
  6
Continuous
 62
     7
370
    25
100
AcDbCircle
 10
114.8030048657
 20
-206.1241047447
 30
0.0
 40
0.6000000000000085
100
AcDbArc
 50
180.0
 51
249.724946748
  0
ARC
  5
F9
330
1F
100
AcDbEntity
  8
0
  6
Continuous
 62
     7
370
    25
100
AcDbCircle
 10
135.1030048657
 20
-206.1241047447
 30
0.0
 40
0.5999999999999943
100
AcDbArc
 50
290.275053252
 51
0.0
  0
ARC
  5
FA
330
1F
100
AcDbEntity
  8
0
  6
Continuous
 62
     7
370
    25
100
AcDbCircle
 10
124.9530048657
 20
-178.6483297258
 30
0.0
 40
29.89062499999994
100
AcDbArc
 50
249.724946748
 51
270.0
  0
ARC
  5
FB
330
1F
100
AcDbEntity
  8
0
  6
Continuous
 62
     7
370
    25
100
AcDbCircle
 10
124.9530048657
 20
-178.6483297258
 30
0.0
 40
29.89062499999994
100
AcDbArc
 50
270.0
 51
290.275053252
  0
ARC
  5
FC
330
1F
100
AcDbEntity
  8
0
  6
Continuous
 62
     7
370
    25
100
AcDbCircle
 10
274.9530048657
 20
1672.8884968222
 30
0.0
 40
29.890625
100
AcDbArc
 50
76.1990602276
 51
90.0
  0
ARC
  5
FD
330
1F
100
AcDbEntity
  8
0
  6
Continuous
 62
     7
370
    25
100
AcDbCircle
 10
274.9530048657
 20
1672.8884968222
 30
0.0
 40
29.890625
100
AcDbArc
 50
90.0
 51
103.8009397724
  0
ARC
  5
FE
330
1F
100
AcDbEntity
  8
0
  6
Continuous
 62
     7
370
    25
100
AcDbCircle
 10
265.6931459368
 20
1699.4821615764
 30
0.0
 40
1.45563007765271
100
AcDbArc
 50
114.8029576669
 51
181.6974331146
  0
ARC
  5
FF
330
1F
100
AcDbEntity
  8
0
  6
Continuous
 62
     7
370
    25
100
AcDbCircle
 10
284.5675687168
 20
1699.5404223542
 30
0.0
 40
1.115544881219536
100
AcDbArc
 50
352.3889854218
 51
48.0289477856
  0
LINE
  5
100
330
1F
100
AcDbEntity
  8
0
  6
Continuous
 62
     7
370
    25
100
AcDbLine
 10
285.7030048657
 20
1698.8628459948
 30
0.0
 11
285.7030048657
 21
1699.4280575103
 31
0.0
  0
LINE
  5
101
330
1F
100
AcDbEntity
  8
0
  6
Continuous
 62
     7
370
    25
100
AcDbLine
 10
264.2030048657
 20
1699.4280575103
 30
0.0
 11
264.2030048657
 21
1698.8628459948
 31
0.0
  0
LINE
  5
102
330
1F
100
AcDbEntity
  8
0
  6
Continuous
 62
     7
370
    25
100
AcDbLine
 10
355.749959609
 20
-205.5389547258
 30
0.0
 11
355.749959609
 21
-206.1241047447
 31
0.0
  0
LINE
  5
103
330
1F
100
AcDbEntity
  8
0
  6
Continuous
 62
     7
370
    25
100
AcDbLine
 10
377.249959609
 20
-206.1241047447
 30
0.0
 11
377.249959609
 21
-205.5389547258
 31
0.0
  0
ARC
  5
104
330
1F
100
AcDbEntity
  8
0
  6
Continuous
 62
     7
370
    25
100
AcDbCircle
 10
356.349959609
 20
-206.1241047447
 30
0.0
 40
0.5999999999999659
100
AcDbArc
 50
180.0
 51
249.724946748
  0
ARC
  5
105
330
1F
100
AcDbEntity
  8
0
  6
Continuous
 62
     7
370
    25
100
AcDbCircle
 10
376.649959609
 20
-206.1241047447
 30
0.0
 40
0.5999999999999659
100
AcDbArc
 50
290.275053252
 51
0.0
  0
ARC
  5
106
330
1F
100
AcDbEntity
  8
0
  6
Continuous
 62
     7
370
    25
100
AcDbCircle
 10
366.499959609
 20
-178.6483297258
 30
0.0
 40
29.89062499999994
100
AcDbArc
 50
249.724946748
 51
270.0
  0
ARC
  5
107
330
1F
100
AcDbEntity
  8
0
  6
Continuous
 62
     7
370
    25
100
AcDbCircle
 10
366.499959609
 20
-178.6483297258
 30
0.0
 40
29.89062499999994
100
AcDbArc
 50
270.0
 51
290.275053252
  0
ARC
  5
108
330
1F
100
AcDbEntity
  8
0
  6
Continuous
 62
     7
370
    25
100
AcDbCircle
 10
366.499959609
 20
1717.4506091298
 30
0.0
 40
29.890625
100
AcDbArc
 50
76.1990602276
 51
90.0
  0
ARC
  5
109
330
1F
100
AcDbEntity
  8
0
  6
Continuous
 62
     7
370
    25
100
AcDbCircle
 10
366.499959609
 20
1717.4506091298
 30
0.0
 40
29.890625
100
AcDbArc
 50
90.0
 51
103.8009397724
  0
ARC
  5
10A
330
1F
100
AcDbEntity
  8
0
  6
Continuous
 62
     7
370
    25
100
AcDbCircle
 10
357.2401006801
 20
1744.044273884
 30
0.0
 40
1.455630077653164
100
AcDbArc
 50
114.8029576669
 51
181.6974331146
  0
ARC
  5
10B
330
1F
100
AcDbEntity
  8
0
  6
Continuous
 62
     7
370
    25
100
AcDbCircle
 10
376.11452346
 20
1744.1025346617
 30
0.0
 40
1.115544881219069
100
AcDbArc
 50
352.3889854218
 51
48.0289477856
  0
LINE
  5
10C
330
1F
100
AcDbEntity
  8
0
  6
Continuous
 62
     7
370
    25
100
AcDbLine
 10
377.249959609
 20
1743.4249583023
 30
0.0
 11
377.249959609
 21
1743.9901698179
 31
0.0
  0
LINE
  5
10D
330
1F
100
AcDbEntity
  8
0
  6
Continuous
 62
     7
370
    25
100
AcDbLine
 10
355.749959609
 20
1743.9901698179
 30
0.0
 11
355.749959609
 21
1743.4249583023
 31
0.0
  0
LINE
  5
10E
330
1F
100
AcDbEntity
  8
0
  6
Continuous
 62
     7
370
    25
100
AcDbLine
 10
264.2030048657
 20
-205.5389547258
 30
0.0
 11
264.2030048657
 21
-206.1241047447
 31
0.0
  0
LINE
  5
10F
330
1F
100
AcDbEntity
  8
0
  6
Continuous
 62
     7
370
    25
100
AcDbLine
 10
285.7030048657
 20
-206.1241047447
 30
0.0
 11
285.7030048657
 21
-205.5389547258
 31
0.0
  0
ARC
  5
110
330
1F
100
AcDbEntity
  8
0
  6
Continuous
 62
     7
370
    25
100
AcDbCircle
 10
264.8030048657
 20
-206.1241047447
 30
0.0
 40
0.5999999999999381
100
AcDbArc
 50
180.0
 51
249.724946748
  0
ARC
  5
111
330
1F
100
AcDbEntity
  8
0
  6
Continuous
 62
     7
370
    25
100
AcDbCircle
 10
285.1030048657
 20
-206.1241047447
 30
0.0
 40
0.5999999999999659
100
AcDbArc
 50
290.275053252
 51
0.0
  0
ARC
  5
112
330
1F
100
AcDbEntity
  8
0
  6
Continuous
 62
     7
370
    25
100
AcDbCircle
 10
274.9530048657
 20
-178.6483297258
 30
0.0
 40
29.89062499999994
100
AcDbArc
 50
249.724946748
 51
270.0
  0
ARC
  5
113
330
1F
100
AcDbEntity
  8
0
  6
Continuous
 62
     7
370
    25
100
AcDbCircle
 10
274.9530048657
 20
-178.6483297258
 30
0.0
 40
29.89062499999994
100
AcDbArc
 50
270.0
 51
290.275053252
  0
ARC
  5
114
330
1F
100
AcDbEntity
  8
0
  6
Continuous
 62
     7
370
    25
100
AcDbCircle
 10
33.4060501225
 20
1717.4506091298
 30
0.0
 40
29.89062499999991
100
AcDbArc
 50
76.1990602276
 51
103.8009397724
  0
LWPOLYLINE
  5
115
330
1F
100
AcDbEntity
  8
0
  6
Continuous
 62
     7
370
    25
100
AcDbPolyline
 90
        3
 70
   128
 43
0.0
 10
44.1209003814
 20
1743.9791836445
 10
44.0926920093
 20
1744.3904256779
 10
43.8152237665
 20
1744.8928717787
  0
ARC
  5
116
330
1F
100
AcDbEntity
  8
0
  6
Continuous
 62
     7
370
    25
100
AcDbCircle
 10
24.1582730203
 20
1744.0300340213
 30
0.0
 40
1.472510598367647
100
AcDbArc
 50
115.8563762725
 51
180.1742615185
  0
LINE
  5
117
330
1F
100
AcDbEntity
  8
0
  6
Continuous
 62
     7
370
    25
100
AcDbLine
 10
44.1560501225
 20
1743.4249583023
 30
0.0
 11
44.1560501225
 21
1743.9901698179
 31
0.0
  0
LINE
  5
118
330
1F
100
AcDbEntity
  8
0
  6
Continuous
 62
     7
370
    25
100
AcDbLine
 10
22.6560501225
 20
1743.9901698179
 30
0.0
 11
22.6560501225
 21
1743.4249583023
 31
0.0
  0
ARC
  5
119
330
1F
100
AcDbEntity
  8
0
  6
Continuous
 62
     7
370
    25
100
AcDbCircle
 10
33.4060501225
 20
-1493.5185185814
 30
0.0
 40
29.89062499999991
100
AcDbArc
 50
256.1990602276
 51
270.0
  0
ARC
  5
11A
330
1F
100
AcDbEntity
  8
0
  6
Continuous
 62
     7
370
    25
100
AcDbCircle
 10
33.4060501225
 20
-1493.5185185814
 30
0.0
 40
29.89062499999977
100
AcDbArc
 50
270.0
 51
283.8009397724
  0
ARC
  5
11B
330
1F
100
AcDbEntity
  8
0
  6
Continuous
 62
     7
370
    25
100
AcDbCircle
 10
42.6659090514
 20
-1520.1121833356
 30
0.0
 40
1.455630077653199
100
AcDbArc
 50
294.8029576669
 51
1.6974331146
  0
ARC
  5
11C
330
1F
100
AcDbEntity
  8
0
  6
Continuous
 62
     7
370
    25
100
AcDbCircle
 10
23.7914862715
 20
-1520.1704441133
 30
0.0
 40
1.115544881218168
100
AcDbArc
 50
172.3889854218
 51
228.0289477856
  0
LINE
  5
11D
330
1F
100
AcDbEntity
  8
0
  6
Continuous
 62
     7
370
    25
100
AcDbLine
 10
22.6560501225
 20
-1519.4928677539
 30
0.0
 11
22.6560501225
 21
-1520.0580792694
 31
0.0
  0
LINE
  5
11E
330
1F
100
AcDbEntity
  8
0
  6
Continuous
 62
     7
370
    25
100
AcDbLine
 10
44.1560501225
 20
-1520.0580792694
 30
0.0
 11
44.1560501225
 21
-1519.4928677539
 31
0.0
  0
LINE
  5
11F
330
1F
100
AcDbEntity
  8
0
  6
Continuous
 62
     7
370
    25
100
AcDbLine
 10
234.9530048657
 20
457.8361868133
 30
0.0
 11
448.6070536117
 21
506.7095628042
 31
0.0
  0
LINE
  5
120
330
1F
100
AcDbEntity
  8
0
  6
Continuous
 62
     7
370
    25
100
AcDbLine
 10
445.0353152368
 20
522.3058027657
 30
0.0
 11
234.9530048657
 21
474.2494621344
 31
0.0
  0
LINE
  5
121
330
1F
100
AcDbEntity
  8
0
  6
Continuous
 62
     7
370
    25
100
AcDbLine
 10
-48.3218814419
 20
506.709913056
 30
0.0
 11
164.9530048657
 21
457.8800232008
 31
0.0
  0
LINE
  5
122
330
1F
100
AcDbEntity
  8
0
  6
Continuous
 62
     7
370
    25
100
AcDbLine
 10
164.9530048657
 20
474.2940223043
 30
0.0
 11
-44.7471088671
 21
522.305457844
 31
0.0
  0
ARC
  5
123
330
1F
100
AcDbEntity
  8
0
  6
Continuous
 62
     7
370
    25
100
AcDbCircle
 10
444.3751993507
 20
515.7962129289
 30
0.0
 40
12.41011764189114
100
AcDbArc
 50
100.0047342579
 51
162.9197763432
  0
ARC
  5
124
330
1F
100
AcDbEntity
  8
0
  6
Continuous
 62
     7
370
    25
100
AcDbCircle
 10
444.8681566876
 20
513.5991877239
 30
0.0
 40
12.34732831330096
100
AcDbArc
 50
230.5798091661
 51
288.5441093224
  0
ARC
  5
125
330
1F
100
AcDbEntity
  8
0
  6
Continuous
 62
     7
370
    25
100
AcDbCircle
 10
-44.5506159113
 20
513.3476438586
 30
0.0
 40
12.1107405733322
100
AcDbArc
 50
255.0460845605
 51
309.9645964941
  0
ARC
  5
126
330
1F
100
AcDbEntity
  8
0
  6
Continuous
 62
     7
370
    25
100
AcDbCircle
 10
-44.0804606985
 20
515.8146753949
 30
0.0
 40
12.39847628696603
100
AcDbArc
 50
16.9925061816
 51
82.4369226633
  0
LINE
  5
127
330
1F
100
AcDbEntity
  8
0
  6
Continuous
 62
     7
370
    25
100
AcDbLine
 10
447.9917192806
 20
501.6218856303
 30
0.0
 11
454.5769659042
 21
503.3109966702
 31
0.0
  0
LINE
  5
128
330
1F
100
AcDbEntity
  8
0
  6
Continuous
 62
     7
370
    25
100
AcDbLine
 10
448.6216798334
 20
529.3450275649
 30
0.0
 11
441.9569887572
 21
528.0032145907
 31
0.0
  0
LINE
  5
129
330
1F
100
AcDbEntity
  8
0
  6
Continuous
 62
     7
370
    25
100
AcDbLine
 10
-41.6671498027
 20
528.0027585995
 30
0.0
 11
-48.3259990974
 21
529.3445775766
 31
0.0
  0
LINE
  5
12A
330
1F
100
AcDbEntity
  8
0
  6
Continuous
 62
     7
370
    25
100
AcDbLine
 10
-54.2862979929
 20
503.3117097355
 30
0.0
 11
-47.7069600227
 21
501.6226082079
 31
0.0
  0
LWPOLYLINE
  5
12B
330
1F
100
AcDbEntity
  8
0
  6
Continuous
 62
     7
370
    25
100
AcDbPolyline
 90
       23
 70
   128
 43
0.0
 10
455.1064044929
 20
503.4933981305
 10
456.2223146243
 20
503.8619343744
 10
457.8597915852
 20
504.6954617259
 10
459.3592776855
 20
505.7694984267
 10
460.6902659519
 20
507.0618019978
 10
461.8255182587
 20
508.5459086388
 10
462.7415286544
 20
510.1914838921
 10
463.4190255268
 20
511.9647648299
 10
463.8434615649
 20
513.829139273
 10
464.0054270236
 20
515.7458613469
 10
463.9009385113
 20
517.6748655717
 10
463.5315859083
 20
519.5756284339
 10
462.9045458938
 20
521.4080352785
 10
462.0325610236
 20
523.1330973983
 10
460.9336695708
 20
524.7140432141
 10
459.6308814724
 20
526.1170708132
 10
458.1517743753
 20
527.3121047594
 10
456.5279311708
 20
528.2735657382
 10
454.7942103373
 20
528.9810586244
 10
452.9878557772
 20
529.419910142
 10
451.1474963977
 20
529.5814877213
 10
449.3121260593
 20
529.4632637669
 10
448.3601131107
 20
529.2536161202
  0
LWPOLYLINE
  5
12C
330
1F
100
AcDbEntity
  8
0
  6
Continuous
 62
     7
370
    25
100
AcDbPolyline
 90
       24
 70
   128
 43
0.0
 10
-47.209495223
 20
529.0433362195
 10
-48.6966432258
 20
529.413250721
 10
-50.5240307783
 20
529.580860167
 10
-52.359716726
 20
529.4703176018
 10
-54.1660187155
 20
529.0844330476
 10
-55.9060240248
 20
528.4313330494
 10
-57.5440694185
 20
527.5243403111
 10
-59.0463304155
 20
526.381849072
 10
-60.3814827492
 20
525.0271164393
 10
-61.5213989195
 20
523.4879140251
 10
-62.4418184294
 20
521.7960235942
 10
-63.1229364531
 20
519.9865984316
 10
-63.5498803054
 20
518.0974315649
 10
-63.7130689515
 20
516.1681743509
 10
-63.6084927804
 20
514.2397105202
 10
-63.2379045201
 20
512.3529130692
 10
-62.6088217414
 20
510.5479591762
 10
-61.7344668458
 20
508.8634155555
 10
-60.6335502597
 20
507.3352966312
 10
-59.3298590338
 20
505.9961377466
 10
-57.8516352473
 20
504.8741549151
 10
-56.2307726777
 20
503.9925747198
 10
-54.5019094756
 20
503.3691966779
 10
-53.2349517462
 20
503.1207858349
  0
LINE
  5
12D
330
1F
100
AcDbEntity
  8
0
  6
Continuous
 62
     7
370
    25
100
AcDbLine
 10
462.0395437827
 20
508.930396749
 30
0.0
 11
467.8683090731
 21
509.3638719984
 31
0.0
  0
LINE
  5
12E
330
1F
100
AcDbEntity
  8
0
  6
Continuous
 62
     7
370
    25
100
AcDbLine
 10
466.6816934405
 20
525.3198095559
 30
0.0
 11
460.7788063241
 21
524.8808219938
 31
0.0
  0
LINE
  5
12F
330
1F
100
AcDbEntity
  8
0
  6
Continuous
 62
     7
370
    25
100
AcDbLine
 10
-67.5708048391
 20
509.3638846387
 30
0.0
 11
-61.7702647153
 21
508.9323842008
 31
0.0
  0
LINE
  5
130
330
1F
100
AcDbEntity
  8
0
  6
Continuous
 62
     7
370
    25
100
AcDbLine
 10
-60.4894615393
 20
524.8813151789
 30
0.0
 11
-66.3838493164
 21
525.3197969156
 31
0.0
  0
LWPOLYLINE
  5
131
330
1F
100
AcDbEntity
  8
0
  6
Continuous
 62
     7
370
    25
100
AcDbPolyline
 90
       21
 70
   128
 43
0.0
 10
467.8845921731
 20
509.3651194178
 10
470.9632670117
 20
509.7089271027
 10
473.2875218598
 20
510.2556729954
 10
475.1382375121
 20
511.0909153892
 10
476.6494177357
 20
512.2414978413
 10
477.800805092
 20
513.6248660657
 10
478.5722310962
 20
515.1208628154
 10
479.000788936
 20
516.6541217617
 10
479.1220019425
 20
518.1577721657
 10
478.9225164843
 20
519.8375980712
 10
478.2411901561
 20
521.7105695374
 10
476.9332058442
 20
523.5528322429
 10
475.0742081433
 20
525.0296047393
 10
473.1739487139
 20
525.8851579749
 10
471.5125972911
 20
526.3065013898
 10
470.1159303093
 20
526.5178866393
 10
468.6414482637
 20
526.6711017613
 10
465.1762273105
 20
526.8900815785
 10
463.1940210026
 20
526.9596671496
 10
461.054240534
 20
527.0016298416
 10
459.5023370359
 20
527.009545378
  0
LWPOLYLINE
  5
132
330
1F
100
AcDbEntity
  8
0
  6
Continuous
 62
     7
370
    25
100
AcDbPolyline
 90
       25
 70
   128
 43
0.0
 10
-59.23236737
 20
527.0129253377
 10
-61.4788049512
 20
526.990695384
 10
-63.6832784174
 20
526.9352644833
 10
-65.8639831272
 20
526.8414366924
 10
-67.9374346761
 20
526.7051935663
 10
-69.8089932524
 20
526.5188852703
 10
-71.5464041606
 20
526.2358891355
 10
-73.2627429783
 20
525.7532389172
 10
-74.9702325579
 20
524.9314049706
 10
-76.5947710253
 20
523.6168572963
 10
-77.8889655797
 20
521.8185361446
 10
-78.6173689784
 20
519.8575365827
 10
-78.8212717231
 20
518.1761071528
 10
-78.696005485
 20
516.6297058729
 10
-78.2953170998
 20
515.1814021545
 10
-77.7394441106
 20
514.0095335472
 10
-77.4571739674
 20
513.5551592386
 10
-77.1897565942
 20
513.1787625694
 10
-76.8441983423
 20
512.7571695694
 10
-76.0551137759
 20
512.0071906286
 10
-74.7638216768
 20
511.1664294301
 10
-73.5145166503
 20
510.6006296825
 10
-71.8983963207
 20
510.076807663
 10
-69.9066364417
 20
509.6458030254
 10
-67.587097025
 20
509.3651330991
  0
LINE
  5
133
330
1F
100
AcDbEntity
  8
0
  6
Continuous
 62
     7
370
    25
100
AcDbLine
 10
234.9530048657
 20
1290.8949730057
 30
0.0
 11
445.0353154966
 21
1242.8386323149
 31
0.0
  0
LINE
  5
134
330
1F
100
AcDbEntity
  8
0
  6
Continuous
 62
     7
370
    25
100
AcDbLine
 10
448.6070537884
 20
1258.4348722954
 30
0.0
 11
234.9530048657
 21
1307.3082483267
 31
0.0
  0
LINE
  5
135
330
1F
100
AcDbEntity
  8
0
  6
Continuous
 62
     7
370
    25
100
AcDbLine
 10
-44.7471064769
 20
1242.8389778433
 30
0.0
 11
164.9530048657
 21
1290.8504128358
 31
0.0
  0
LINE
  5
136
330
1F
100
AcDbEntity
  8
0
  6
Continuous
 62
     7
370
    25
100
AcDbLine
 10
164.9530048657
 20
1307.2644119392
 30
0.0
 11
-48.3218933666
 21
1258.4345193539
 31
0.0
  0
ARC
  5
137
330
1F
100
AcDbEntity
  8
0
  6
Continuous
 62
     7
370
    25
100
AcDbCircle
 10
444.8638332518
 20
1251.7377200137
 30
0.0
 40
12.17200072839955
100
AcDbArc
 50
80.1455219202
 51
129.8913735962
  0
ARC
  5
138
330
1F
100
AcDbEntity
  8
0
  6
Continuous
 62
     7
370
    25
100
AcDbCircle
 10
444.4231629934
 20
1249.3897226918
 30
0.0
 40
12.46782648612624
100
AcDbArc
 50
197.1987295015
 51
257.6681599379
  0
ARC
  5
139
330
1F
100
AcDbEntity
  8
0
  6
Continuous
 62
     7
370
    25
100
AcDbCircle
 10
-44.0990170222
 20
1249.3593302523
 30
0.0
 40
12.42549516316013
100
AcDbArc
 50
279.2287389431
 51
342.9037167132
  0
ARC
  5
13A
330
1F
100
AcDbEntity
  8
0
  6
Continuous
 62
     7
370
    25
100
AcDbCircle
 10
-44.5470303668
 20
1251.6543226883
 30
0.0
 40
12.24259476346357
100
AcDbArc
 50
50.3888763131
 51
100.9149190025
  0
LINE
  5
13B
330
1F
100
AcDbEntity
  8
0
  6
Continuous
 62
     7
370
    25
100
AcDbLine
 10
441.9569887572
 20
1237.1412205493
 30
0.0
 11
448.6216798334
 21
1235.7994075752
 31
0.0
  0
LINE
  5
13C
330
1F
100
AcDbEntity
  8
0
  6
Continuous
 62
     7
370
    25
100
AcDbLine
 10
454.5769659042
 20
1261.8334384698
 30
0.0
 11
447.9917192806
 21
1263.5225495098
 31
0.0
  0
LINE
  5
13D
330
1F
100
AcDbEntity
  8
0
  6
Continuous
 62
     7
370
    25
100
AcDbLine
 10
-47.7069600227
 20
1263.5218269322
 30
0.0
 11
-54.2862979929
 21
1261.8327254046
 31
0.0
  0
LINE
  5
13E
330
1F
100
AcDbEntity
  8
0
  6
Continuous
 62
     7
370
    25
100
AcDbLine
 10
-48.3259990974
 20
1235.7998575635
 30
0.0
 11
-41.6671498027
 21
1237.1416765405
 31
0.0
  0
LWPOLYLINE
  5
13F
330
1F
100
AcDbEntity
  8
0
  6
Continuous
 62
     7
370
    25
100
AcDbPolyline
 90
       22
 70
   128
 43
0.0
 10
449.3168612167
 20
1235.7012038727
 10
450.8173286479
 20
1235.5635740774
 10
452.6528454619
 20
1235.6741250375
 10
454.4589828835
 20
1236.0600163869
 10
456.1988334373
 20
1236.7131211015
 10
457.8367386687
 20
1237.6201169246
 10
459.338877922
 20
1238.7626105512
 10
460.6739296772
 20
1240.1173458213
 10
461.8137682438
 20
1241.6565517859
 10
462.734134219
 20
1243.3484470024
 10
463.415223303
 20
1245.157878275
 10
463.8421627843
 20
1247.0470525703
 10
464.0053709786
 20
1248.976318761
 10
463.9008368593
 20
1250.904792494
 10
463.5303112172
 20
1252.7916002674
 10
462.9013092605
 20
1254.5965638949
 10
462.0270509776
 20
1256.2811151046
 10
460.9262447496
 20
1257.809237552
 10
459.6226762372
 20
1259.1483940471
 10
458.1445867654
 20
1260.270367381
 10
456.5238695983
 20
1261.1519309095
 10
455.3484683869
 20
1261.5757693299
  0
LWPOLYLINE
  5
140
330
1F
100
AcDbEntity
  8
0
  6
Continuous
 62
     7
370
    25
100
AcDbPolyline
 90
       23
 70
   128
 43
0.0
 10
-54.2463527366
 20
1261.838147994
 10
-55.9288763075
 20
1261.2825649844
 10
-57.5665372665
 20
1260.4490573306
 10
-59.0662029153
 20
1259.3750363648
 10
-60.3973610413
 20
1258.0827453593
 10
-61.5327693471
 20
1256.5986493668
 10
-62.4489188467
 20
1254.9530839436
 10
-63.126535789
 20
1253.1798125801
 10
-63.5510712898
 20
1251.3154474254
 10
-63.7131143745
 20
1249.3987339119
 10
-63.6086807232
 20
1247.4697369088
 10
-63.2393596781
 20
1245.5689793124
 10
-62.6123278819
 20
1243.7365751718
 10
-61.7403281565
 20
1242.0115121238
 10
-60.6413996654
 20
1240.4305611239
 10
-59.3385533039
 20
1239.0275229796
 10
-57.8593675305
 20
1237.8324719622
 10
-56.2354257339
 20
1236.8709865158
 10
-54.5015866549
 20
1236.1634616325
 10
-52.6950946038
 20
1235.7245715348
 10
-50.8545796223
 20
1235.5629508528
 10
-49.0190379662
 20
1235.6811299801
 10
-48.758289254
 20
1235.7385385623
  0
LINE
  5
141
330
1F
100
AcDbEntity
  8
0
  6
Continuous
 62
     7
370
    25
100
AcDbLine
 10
460.7820664614
 20
1240.2633706954
 30
0.0
 11
466.6816934405
 21
1239.8246255841
 31
0.0
  0
LINE
  5
142
330
1F
100
AcDbEntity
  8
0
  6
Continuous
 62
     7
370
    25
100
AcDbLine
 10
467.8683090731
 20
1255.7805631417
 30
0.0
 11
462.0627588554
 21
1256.2123119261
 31
0.0
  0
LINE
  5
143
330
1F
100
AcDbEntity
  8
0
  6
Continuous
 62
     7
370
    25
100
AcDbLine
 10
-66.3838493164
 20
1239.8246382245
 30
0.0
 11
-60.4861446943
 21
1240.2633667002
 31
0.0
  0
LINE
  5
144
330
1F
100
AcDbEntity
  8
0
  6
Continuous
 62
     7
370
    25
100
AcDbLine
 10
-61.7470417532
 20
1256.2137784884
 30
0.0
 11
-67.5708048391
 21
1255.7805505013
 31
0.0
  0
LWPOLYLINE
  5
145
330
1F
100
AcDbEntity
  8
0
  6
Continuous
 62
     7
370
    25
100
AcDbPolyline
 90
       26
 70
   128
 43
0.0
 10
459.5017111199
 20
1238.1314810393
 10
459.52311691
 20
1238.1313771727
 10
461.782907659
 20
1238.1537406201
 10
463.9872275538
 20
1238.2091740576
 10
466.1677005977
 20
1238.3030101334
 10
468.2408552852
 20
1238.4392735098
 10
470.1119773347
 20
1238.6256146248
 10
471.8487003643
 20
1238.9086284717
 10
473.5642003219
 20
1239.3912191808
 10
475.2709316622
 20
1240.2128601054
 10
476.8951419012
 20
1241.5272129823
 10
478.1892924447
 20
1243.325421927
 10
478.9177437452
 20
1245.2864020786
 10
479.1216874374
 20
1246.9678276739
 10
478.9964582118
 20
1248.5142329765
 10
478.5958035189
 20
1249.9625486887
 10
478.0399557579
 20
1251.1344344335
 10
477.7576942114
 20
1251.5888178548
 10
477.4902813091
 20
1251.9652250074
 10
477.1447084913
 20
1252.3868439761
 10
476.3555143722
 20
1253.136895546
 10
475.0639011739
 20
1253.9777633348
 10
473.814196491
 20
1254.5436445598
 10
472.197495162
 20
1255.0675454813
 10
470.2049875051
 20
1255.4986133706
 10
467.8845921731
 20
1255.7793157222
  0
LWPOLYLINE
  5
146
330
1F
100
AcDbEntity
  8
0
  6
Continuous
 62
     7
370
    25
100
AcDbPolyline
 90
       21
 70
   128
 43
0.0
 10
-67.587097025
 20
1255.779302041
 10
-70.664806898
 20
1255.4354257184
 10
-72.9914172421
 20
1254.8874209807
 10
-74.846163859
 20
1254.0485784308
 10
-76.3585767308
 20
1252.893847915
 10
-77.506915072
 20
1251.5098869437
 10
-78.2742927599
 20
1250.0175171424
 10
-78.7007348169
 20
1248.4885576927
 10
-78.8215820661
 20
1246.9868902822
 10
-78.6221408076
 20
1245.3073320121
 10
-77.940851495
 20
1243.4343335021
 10
-76.6328741691
 20
1241.592019259
 10
-74.7738029495
 20
1240.1151702034
 10
-72.8732945826
 20
1239.2595241756
 10
-71.2114600397
 20
1238.8380904932
 10
-69.8140123367
 20
1238.6266212746
 10
-68.3387087635
 20
1238.4733529413
 10
-64.8724328391
 20
1238.2543492223
 10
-62.8900243779
 20
1238.1847666623
 10
-60.7501134212
 20
1238.1428050348
 10
-59.2329881918
 20
1238.1350673102
  0
ARC
  5
147
330
1F
100
AcDbEntity
  8
0
  6
Continuous
 62
     7
370
    25
100
AcDbCircle
 10
200.1346714764
 20
882.57221757
 30
0.0
 40
390.0000000000002
100
AcDbArc
 50
171.1753804797
 51
179.9885408441
  0
ARC
  5
148
330
1F
100
AcDbEntity
  8
0
  6
Continuous
 62
     7
370
    25
100
AcDbCircle
 10
200.1346714764
 20
882.57221757
 30
0.0
 40
390.0000000000002
100
AcDbArc
 50
151.1753804797
 51
168.8246195203
  0
ARC
  5
149
330
1F
100
AcDbEntity
  8
0
  6
Continuous
 62
     7
370
    25
100
AcDbCircle
 10
200.1346714764
 20
882.57221757
 30
0.0
 40
390.0000000000003
100
AcDbArc
 50
131.1753804797
 51
148.8246195203
  0
ARC
  5
14A
330
1F
100
AcDbEntity
  8
0
  6
Continuous
 62
     7
370
    25
100
AcDbCircle
 10
200.1346714764
 20
882.57221757
 30
0.0
 40
390.0000000000004
100
AcDbArc
 50
111.1753804797
 51
128.8246195203
  0
ARC
  5
14B
330
1F
100
AcDbEntity
  8
0
  6
Continuous
 62
     7
370
    25
100
AcDbCircle
 10
200.1346714764
 20
882.57221757
 30
0.0
 40
390.0000000000006
100
AcDbArc
 50
95.1756539197
 51
108.8246195203
  0
ARC
  5
14C
330
1F
100
AcDbEntity
  8
0
  6
Continuous
 62
     7
370
    25
100
AcDbCircle
 10
200.1346714764
 20
882.57221757
 30
0.0
 40
390.0000000000004
100
AcDbArc
 50
71.1753804797
 51
84.8779404437
  0
ARC
  5
14D
330
1F
100
AcDbEntity
  8
0
  6
Continuous
 62
     7
370
    25
100
AcDbCircle
 10
200.1346714764
 20
882.57221757
 30
0.0
 40
390.0000000000003
100
AcDbArc
 50
51.1753804797
 51
68.8246195203
  0
ARC
  5
14E
330
1F
100
AcDbEntity
  8
0
  6
Continuous
 62
     7
370
    25
100
AcDbCircle
 10
200.1346714764
 20
882.57221757
 30
0.0
 40
390.0000000000003
100
AcDbArc
 50
31.1753804797
 51
48.8246195203
  0
ARC
  5
14F
330
1F
100
AcDbEntity
  8
0
  6
Continuous
 62
     7
370
    25
100
AcDbCircle
 10
200.1346714764
 20
882.57221757
 30
0.0
 40
390.0000000000003
100
AcDbArc
 50
11.1753804797
 51
28.8246195203
  0
ARC
  5
150
330
1F
100
AcDbEntity
  8
0
  6
Continuous
 62
     7
370
    25
100
AcDbCircle
 10
200.1346714764
 20
882.57221757
 30
0.0
 40
390.0000000000003
100
AcDbArc
 50
351.1753804797
 51
8.8246195203
  0
ARC
  5
151
330
1F
100
AcDbEntity
  8
0
  6
Continuous
 62
     7
370
    25
100
AcDbCircle
 10
200.1346714764
 20
882.57221757
 30
0.0
 40
390.0000000000002
100
AcDbArc
 50
331.1753804797
 51
348.8246195203
  0
ARC
  5
152
330
1F
100
AcDbEntity
  8
0
  6
Continuous
 62
     7
370
    25
100
AcDbCircle
 10
200.1346714764
 20
882.57221757
 30
0.0
 40
390.0000000000002
100
AcDbArc
 50
311.1753804797
 51
328.8246195203
  0
ARC
  5
153
330
1F
100
AcDbEntity
  8
0
  6
Continuous
 62
     7
370
    25
100
AcDbCircle
 10
200.1346714764
 20
882.57221757
 30
0.0
 40
390.0000000000002
100
AcDbArc
 50
291.1753804797
 51
308.8246195203
  0
ARC
  5
154
330
1F
100
AcDbEntity
  8
0
  6
Continuous
 62
     7
370
    25
100
AcDbCircle
 10
200.1346714764
 20
882.57221757
 30
0.0
 40
390.0000000000002
100
AcDbArc
 50
275.1220595563
 51
288.8246195203
  0
ARC
  5
155
330
1F
100
AcDbEntity
  8
0
  6
Continuous
 62
     7
370
    25
100
AcDbCircle
 10
200.1346714764
 20
882.57221757
 30
0.0
 40
390.0000000000002
100
AcDbArc
 50
251.1753804797
 51
264.8243460803
  0
ARC
  5
156
330
1F
100
AcDbEntity
  8
0
  6
Continuous
 62
     7
370
    25
100
AcDbCircle
 10
200.1346714764
 20
882.57221757
 30
0.0
 40
390.0000000000002
100
AcDbArc
 50
231.1753804797
 51
248.8246195203
  0
ARC
  5
157
330
1F
100
AcDbEntity
  8
0
  6
Continuous
 62
     7
370
    25
100
AcDbCircle
 10
200.1346714764
 20
882.57221757
 30
0.0
 40
390.0000000000002
100
AcDbArc
 50
211.1753804797
 51
228.8246195203
  0
ARC
  5
158
330
1F
100
AcDbEntity
  8
0
  6
Continuous
 62
     7
370
    25
100
AcDbCircle
 10
200.1346714764
 20
882.57221757
 30
0.0
 40
390.0000000000002
100
AcDbArc
 50
191.1753804797
 51
208.8246195203
  0
ARC
  5
159
330
1F
100
AcDbEntity
  8
0
  6
Continuous
 62
     7
370
    25
100
AcDbCircle
 10
200.1346714764
 20
882.57221757
 30
0.0
 40
390.0000000000002
100
AcDbArc
 50
180.0114591559
 51
188.8246195203
  0
ARC
  5
15A
330
1F
100
AcDbEntity
  8
0
  6
Continuous
 62
     7
370
    25
100
AcDbCircle
 10
200.1346714764
 20
882.57221757
 30
0.0
 40
500.0000000000002
100
AcDbArc
 50
180.0114591559
 51
265.9651438637
  0
ARC
  5
15B
330
1F
100
AcDbEntity
  8
0
  6
Continuous
 62
     7
370
    25
100
AcDbCircle
 10
200.1346714764
 20
882.57221757
 30
0.0
 40
500.0000000000005
100
AcDbArc
 50
273.9931188332
 51
86.0068811668
  0
ARC
  5
15C
330
1F
100
AcDbEntity
  8
0
  6
Continuous
 62
     7
370
    25
100
AcDbCircle
 10
200.1346714764
 20
882.57221757
 30
0.0
 40
500.0000000000004
100
AcDbArc
 50
94.0348561363
 51
179.9885408441
  0
LINE
  5
15D
330
1F
100
AcDbEntity
  8
0
  6
Continuous
 62
     7
370
    25
100
AcDbLine
 10
325.9769202632
 20
1251.7113897264
 30
0.0
 11
296.2131067014
 21
1169.9359840485
 31
0.0
  0
LINE
  5
15E
330
1F
100
AcDbEntity
  8
0
  6
Continuous
 62
     7
370
    25
100
AcDbLine
 10
290.738769584
 20
1154.895366432
 30
0.0
 11
263.7046823644
 21
1080.6198222405
 31
0.0
  0
LINE
  5
15F
330
1F
100
AcDbEntity
  8
0
  6
Continuous
 62
     7
370
    25
100
AcDbLine
 10
258.2279699089
 20
1065.5726784362
 30
0.0
 11
234.9530048657
 21
1001.6252375415
 31
0.0
  0
LINE
  5
160
330
1F
100
AcDbEntity
  8
0
  6
Continuous
 62
     7
370
    25
100
AcDbLine
 10
234.9530048657
 20
954.8443671389
 30
0.0
 11
240.7151424328
 21
970.6757099921
 31
0.0
  0
LINE
  5
161
330
1F
100
AcDbEntity
  8
0
  6
Continuous
 62
     7
370
    25
100
AcDbLine
 10
246.2035117086
 20
985.754880647
 30
0.0
 11
273.2630518415
 21
1060.100356143
 31
0.0
  0
LINE
  5
162
330
1F
100
AcDbEntity
  8
0
  6
Continuous
 62
     7
370
    25
100
AcDbLine
 10
278.739764297
 20
1075.1474999473
 30
0.0
 11
305.7738515166
 21
1149.4230441388
 31
0.0
  0
LINE
  5
163
330
1F
100
AcDbEntity
  8
0
  6
Continuous
 62
     7
370
    25
100
AcDbLine
 10
311.248188634
 20
1164.4636617553
 30
0.0
 11
341.0120021958
 21
1246.2390674332
 31
0.0
  0
ARC
  5
164
330
1F
100
AcDbEntity
  8
0
  6
Continuous
 62
     7
370
    25
100
AcDbCircle
 10
164.9430544356
 20
943.5258862853
 30
0.0
 40
7.999999999999987
100
AcDbArc
 50
89.9287352751
 51
161.8528853669
  0
LINE
  5
165
330
1F
100
AcDbEntity
  8
0
  6
Continuous
 62
     7
370
    25
100
AcDbLine
 10
159.015595712
 20
937.7925459543
 30
0.0
 11
164.5148512053
 21
928.2675560361
 31
0.0
  0
LINE
  5
166
330
1F
100
AcDbEntity
  8
0
  6
Continuous
 62
     7
370
    25
100
AcDbLine
 10
164.5148512053
 20
928.2675560361
 30
0.0
 11
164.9530048657
 21
927.5086516347
 31
0.0
  0
LINE
  5
167
330
1F
100
AcDbEntity
  8
0
  6
Continuous
 62
     7
370
    25
100
AcDbLine
 10
143.4759087064
 20
894.6808985489
 30
0.0
 11
164.9530048657
 21
886.8638748284
 31
0.0
  0
LINE
  5
168
330
1F
100
AcDbEntity
  8
0
  6
Continuous
 62
     7
370
    25
100
AcDbLine
 10
164.9530048657
 20
903.890719188
 30
0.0
 11
148.9482309996
 21
909.7159804814
 31
0.0
  0
ARC
  5
169
330
1F
100
AcDbEntity
  8
0
  6
Continuous
 62
     7
370
    25
100
AcDbCircle
 10
133.9960657828
 20
906.6447013784
 30
0.0
 40
8.000000000000085
100
AcDbArc
 50
118.1471146331
 51
201.8528853669
  0
LINE
  5
16A
330
1F
100
AcDbEntity
  8
0
  6
Continuous
 62
     7
370
    25
100
AcDbLine
 10
148.9482309996
 20
909.7159804814
 30
0.0
 11
138.6130113858
 21
913.4776927855
 31
0.0
  0
LINE
  5
16B
330
1F
100
AcDbEntity
  8
0
  6
Continuous
 62
     7
370
    25
100
AcDbLine
 10
133.1406890926
 20
898.4426108529
 30
0.0
 11
143.4759087064
 21
894.6808985489
 31
0.0
  0
ARC
  5
16C
330
1F
100
AcDbEntity
  8
0
  6
Continuous
 62
     7
370
    25
100
AcDbCircle
 10
133.9960657828
 20
858.4997337617
 30
0.0
 40
8.000000000000002
100
AcDbArc
 50
158.1471146331
 51
241.8528853669
  0
LINE
  5
16D
330
1F
100
AcDbEntity
  8
0
  6
Continuous
 62
     7
370
    25
100
AcDbLine
 10
143.4759087064
 20
870.4635365912
 30
0.0
 11
133.1406890926
 21
866.7018242872
 31
0.0
  0
LINE
  5
16E
330
1F
100
AcDbEntity
  8
0
  6
Continuous
 62
     7
370
    25
100
AcDbLine
 10
138.6130113858
 20
851.6667423546
 30
0.0
 11
148.9482309996
 21
855.4284546586
 31
0.0
  0
LINE
  5
16F
330
1F
100
AcDbEntity
  8
0
  6
Continuous
 62
     7
370
    25
100
AcDbLine
 10
148.9482309996
 20
855.4284546586
 30
0.0
 11
164.9530048657
 21
861.253715952
 31
0.0
  0
LINE
  5
170
330
1F
100
AcDbEntity
  8
0
  6
Continuous
 62
     7
370
    25
100
AcDbLine
 10
164.9530048657
 20
878.2805603117
 30
0.0
 11
143.4759087064
 21
870.4635365912
 31
0.0
  0
LINE
  5
171
330
1F
100
AcDbEntity
  8
0
  6
Continuous
 62
     7
370
    25
100
AcDbLine
 10
164.9530048657
 20
837.6357835054
 30
0.0
 11
164.5148512053
 21
836.876879104
 31
0.0
  0
ARC
  5
172
330
1F
100
AcDbEntity
  8
0
  6
Continuous
 62
     7
370
    25
100
AcDbCircle
 10
164.9430544356
 20
821.6185488548
 30
0.0
 40
8.000000000000016
100
AcDbArc
 50
198.1471146331
 51
270.0712647249
  0
LINE
  5
173
330
1F
100
AcDbEntity
  8
0
  6
Continuous
 62
     7
370
    25
100
AcDbLine
 10
164.5148512053
 20
836.876879104
 30
0.0
 11
159.015595712
 21
827.3518891857
 31
0.0
  0
LINE
  5
174
330
1F
100
AcDbEntity
  8
0
  6
Continuous
 62
     7
370
    25
100
AcDbLine
 10
249.2350799504
 20
851.8153412435
 30
0.0
 11
234.9530048657
 21
863.7994251795
 31
0.0
  0
LINE
  5
175
330
1F
100
AcDbEntity
  8
0
  6
Continuous
 62
     7
370
    25
100
AcDbLine
 10
234.9530048657
 20
842.9129085502
 30
0.0
 11
238.9504781954
 21
839.5586301536
 31
0.0
  0
ARC
  5
176
330
1F
100
AcDbEntity
  8
0
  6
Continuous
 62
     7
370
    25
100
AcDbCircle
 10
254.0513568335
 20
837.3307467726
 30
0.0
 40
7.999999999999951
100
AcDbArc
 50
278.1471146331
 51
1.8528853669
  0
LINE
  5
177
330
1F
100
AcDbEntity
  8
0
  6
Continuous
 62
     7
370
    25
100
AcDbLine
 10
238.9504781954
 20
839.5586301536
 30
0.0
 11
247.3758264193
 21
832.4889235664
 31
0.0
  0
LINE
  5
178
330
1F
100
AcDbEntity
  8
0
  6
Continuous
 62
     7
370
    25
100
AcDbLine
 10
257.6604281743
 20
844.7456346563
 30
0.0
 11
249.2350799504
 21
851.8153412435
 31
0.0
  0
ARC
  5
179
330
1F
100
AcDbEntity
  8
0
  6
Continuous
 62
     7
370
    25
100
AcDbCircle
 10
270.5179055581
 20
882.57221757
 30
0.0
 40
8.000000000000025
100
AcDbArc
 50
318.1471146331
 51
41.8528853669
  0
LINE
  5
17A
330
1F
100
AcDbEntity
  8
0
  6
Continuous
 62
     7
370
    25
100
AcDbLine
 10
257.5179055581
 20
874.57221757
 30
0.0
 11
268.5164165448
 21
874.57221757
 31
0.0
  0
LINE
  5
17B
330
1F
100
AcDbEntity
  8
0
  6
Continuous
 62
     7
370
    25
100
AcDbLine
 10
268.5164165448
 20
890.57221757
 30
0.0
 11
257.5179055581
 21
890.57221757
 31
0.0
  0
LINE
  5
17C
330
1F
100
AcDbEntity
  8
0
  6
Continuous
 62
     7
370
    25
100
AcDbLine
 10
257.5179055581
 20
890.57221757
 30
0.0
 11
234.9530048657
 21
890.57221757
 31
0.0
  0
LINE
  5
17D
330
1F
100
AcDbEntity
  8
0
  6
Continuous
 62
     7
370
    25
100
AcDbLine
 10
234.9530048657
 20
874.57221757
 30
0.0
 11
257.5179055581
 21
874.57221757
 31
0.0
  0
ARC
  5
17E
330
1F
100
AcDbEntity
  8
0
  6
Continuous
 62
     7
370
    25
100
AcDbCircle
 10
254.0513568335
 20
927.8136883674
 30
0.0
 40
8.00000000000007
100
AcDbArc
 50
358.1471146331
 51
81.8528853669
  0
LINE
  5
17F
330
1F
100
AcDbEntity
  8
0
  6
Continuous
 62
     7
370
    25
100
AcDbLine
 10
249.2350799504
 20
913.3290938965
 30
0.0
 11
257.6604281743
 21
920.3988004838
 31
0.0
  0
LINE
  5
180
330
1F
100
AcDbEntity
  8
0
  6
Continuous
 62
     7
370
    25
100
AcDbLine
 10
247.3758264193
 20
932.6555115737
 30
0.0
 11
238.9504781954
 21
925.5858049864
 31
0.0
  0
LINE
  5
181
330
1F
100
AcDbEntity
  8
0
  6
Continuous
 62
     7
370
    25
100
AcDbLine
 10
238.9504781954
 20
925.5858049864
 30
0.0
 11
234.9530048657
 21
922.2315265899
 31
0.0
  0
LINE
  5
182
330
1F
100
AcDbEntity
  8
0
  6
Continuous
 62
     7
370
    25
100
AcDbLine
 10
234.9530048657
 20
901.3450099605
 30
0.0
 11
249.2350799504
 21
913.3290938965
 31
0.0
  0
LINE
  5
183
330
1F
100
AcDbEntity
  8
0
  6
Continuous
 62
     7
370
    25
100
AcDbLine
 10
59.2573407571
 20
1246.2390674332
 30
0.0
 11
89.0211543189
 21
1164.4636617553
 31
0.0
  0
LINE
  5
184
330
1F
100
AcDbEntity
  8
0
  6
Continuous
 62
     7
370
    25
100
AcDbLine
 10
94.4954914363
 20
1149.4230441388
 30
0.0
 11
121.5295786559
 21
1075.1474999473
 31
0.0
  0
LINE
  5
185
330
1F
100
AcDbEntity
  8
0
  6
Continuous
 62
     7
370
    25
100
AcDbLine
 10
127.0062911114
 20
1060.100356143
 30
0.0
 11
154.0658312443
 21
985.754880647
 31
0.0
  0
LINE
  5
186
330
1F
100
AcDbEntity
  8
0
  6
Continuous
 62
     7
370
    25
100
AcDbLine
 10
159.5542005201
 20
970.6757099921
 30
0.0
 11
164.9530048657
 21
955.8426169604
 31
0.0
  0
LINE
  5
187
330
1F
100
AcDbEntity
  8
0
  6
Continuous
 62
     7
370
    25
100
AcDbLine
 10
164.9530048657
 20
1002.623487363
 30
0.0
 11
142.0413730439
 21
1065.5726784362
 31
0.0
  0
LINE
  5
188
330
1F
100
AcDbEntity
  8
0
  6
Continuous
 62
     7
370
    25
100
AcDbLine
 10
136.5646605885
 20
1080.6198222405
 30
0.0
 11
109.5305733688
 21
1154.895366432
 31
0.0
  0
LINE
  5
189
330
1F
100
AcDbEntity
  8
0
  6
Continuous
 62
     7
370
    25
100
AcDbLine
 10
104.0562362514
 20
1169.9359840485
 30
0.0
 11
74.2924226896
 21
1251.7113897264
 31
0.0
  0
LINE
  5
18A
330
1F
100
AcDbEntity
  8
0
  6
Continuous
 62
     7
370
    25
100
AcDbLine
 10
157.3409749207
 20
946.0175497956
 30
0.0
 11
144.125044355
 21
961.7676825268
 31
0.0
  0
LINE
  5
18B
330
1F
100
AcDbEntity
  8
0
  6
Continuous
 62
     7
370
    25
100
AcDbLine
 10
133.8102841377
 20
974.0603350725
 30
0.0
 11
82.9549837682
 21
1034.6673219903
 31
0.0
  0
LINE
  5
18C
330
1F
100
AcDbEntity
  8
0
  6
Continuous
 62
     7
370
    25
100
AcDbLine
 10
72.662131207
 20
1046.9338660081
 30
0.0
 11
21.8546666671
 21
1107.4838444042
 31
0.0
  0
LINE
  5
18D
330
1F
100
AcDbEntity
  8
0
  6
Continuous
 62
     7
370
    25
100
AcDbLine
 10
11.5662782813
 20
1119.745068225
 30
0.0
 11
-44.3713936597
 21
1186.4089897219
 31
0.0
  0
LINE
  5
18E
330
1F
100
AcDbEntity
  8
0
  6
Continuous
 62
     7
370
    25
100
AcDbLine
 10
-56.6281047496
 20
1176.1243879669
 30
0.0
 11
-0.6904328086
 21
1109.46046647
 31
0.0
  0
LINE
  5
18F
330
1F
100
AcDbEntity
  8
0
  6
Continuous
 62
     7
370
    25
100
AcDbLine
 10
9.5979555772
 20
1097.1992426492
 30
0.0
 11
60.4054201171
 21
1036.6492642531
 31
0.0
  0
LINE
  5
190
330
1F
100
AcDbEntity
  8
0
  6
Continuous
 62
     7
370
    25
100
AcDbLine
 10
70.6982726783
 20
1024.3827202353
 30
0.0
 11
121.5535730478
 21
963.7757333175
 31
0.0
  0
LINE
  5
191
330
1F
100
AcDbEntity
  8
0
  6
Continuous
 62
     7
370
    25
100
AcDbLine
 10
131.8683332651
 20
951.4830807718
 30
0.0
 11
153.9065893999
 21
925.2189098486
 31
0.0
  0
ARC
  5
192
330
1F
100
AcDbEntity
  8
0
  6
Continuous
 62
     7
370
    25
100
AcDbCircle
 10
168.4614338191
 20
937.4318744327
 30
0.0
 40
19.00000000000009
100
AcDbArc
 50
220.0
 51
259.35903042
  0
LINE
  5
193
330
1F
100
AcDbEntity
  8
0
  6
Continuous
 62
     7
370
    25
100
AcDbLine
 10
-141.5441700283
 20
1070.6029843822
 30
0.0
 11
-66.1795484965
 21
1027.0911998534
 31
0.0
  0
LINE
  5
194
330
1F
100
AcDbEntity
  8
0
  6
Continuous
 62
     7
370
    25
100
AcDbLine
 10
-52.318040322
 20
1019.0882543775
 30
0.0
 11
16.1346714764
 21
979.5670627939
 31
0.0
  0
LINE
  5
195
330
1F
100
AcDbEntity
  8
0
  6
Continuous
 62
     7
370
    25
100
AcDbLine
 10
30.0021942181
 20
971.560644806
 30
0.0
 11
98.5193550553
 21
932.0022435525
 31
0.0
  0
LINE
  5
196
330
1F
100
AcDbEntity
  8
0
  6
Continuous
 62
     7
370
    25
100
AcDbLine
 10
112.4163939022
 20
923.9787844333
 30
0.0
 11
130.2221689857
 21
913.6986153958
 31
0.0
  0
LINE
  5
197
330
1F
100
AcDbEntity
  8
0
  6
Continuous
 62
     7
370
    25
100
AcDbLine
 10
150.1084560705
 20
920.6924708082
 30
0.0
 11
120.4163939022
 21
937.8351908939
 31
0.0
  0
LINE
  5
198
330
1F
100
AcDbEntity
  8
0
  6
Continuous
 62
     7
370
    25
100
AcDbLine
 10
106.5193550553
 20
945.8586500131
 30
0.0
 11
38.0021942181
 21
985.4170512666
 31
0.0
  0
LINE
  5
199
330
1F
100
AcDbEntity
  8
0
  6
Continuous
 62
     7
370
    25
100
AcDbLine
 10
24.1346714764
 20
993.4234692544
 30
0.0
 11
-44.318040322
 21
1032.944660838
 31
0.0
  0
LINE
  5
19A
330
1F
100
AcDbEntity
  8
0
  6
Continuous
 62
     7
370
    25
100
AcDbLine
 10
-58.1795484965
 20
1040.9476063139
 30
0.0
 11
-133.5441700283
 21
1084.4593908427
 31
0.0
  0
LINE
  5
19B
330
1F
100
AcDbEntity
  8
0
  6
Continuous
 62
     7
370
    25
100
AcDbLine
 10
126.5709245823
 20
903.6669038446
 30
0.0
 11
106.3229442413
 21
907.2371690835
 31
0.0
  0
LINE
  5
19C
330
1F
100
AcDbEntity
  8
0
  6
Continuous
 62
     7
370
    25
100
AcDbLine
 10
90.5198147482
 20
910.0236871928
 30
0.0
 11
12.6049742458
 21
923.762175771
 31
0.0
  0
LINE
  5
19D
330
1F
100
AcDbEntity
  8
0
  6
Continuous
 62
     7
370
    25
100
AcDbLine
 10
-3.1645907708
 20
926.5427755574
 30
0.0
 11
-81.0061425304
 21
940.2683413529
 31
0.0
  0
LINE
  5
19E
330
1F
100
AcDbEntity
  8
0
  6
Continuous
 62
     7
370
    25
100
AcDbLine
 10
-96.7688680336
 20
943.0477351486
 30
0.0
 11
-182.4703535363
 21
958.1592193295
 31
0.0
  0
LINE
  5
19F
330
1F
100
AcDbEntity
  8
0
  6
Continuous
 62
     7
370
    25
100
AcDbLine
 10
-185.248724379
 20
942.4022952813
 30
0.0
 11
-99.5472388763
 21
927.2908111004
 31
0.0
  0
LINE
  5
1A0
330
1F
100
AcDbEntity
  8
0
  6
Continuous
 62
     7
370
    25
100
AcDbLine
 10
-83.7845133731
 20
924.5114173047
 30
0.0
 11
-5.9429616135
 21
910.7858515092
 31
0.0
  0
LINE
  5
1A1
330
1F
100
AcDbEntity
  8
0
  6
Continuous
 62
     7
370
    25
100
AcDbLine
 10
9.8266034031
 20
908.0052517228
 30
0.0
 11
87.7414439055
 21
894.2667631446
 31
0.0
  0
LINE
  5
1A2
330
1F
100
AcDbEntity
  8
0
  6
Continuous
 62
     7
370
    25
100
AcDbLine
 10
103.5445733986
 20
891.4802450353
 30
0.0
 11
137.3091406948
 21
885.5266408291
 31
0.0
  0
ARC
  5
1A3
330
1F
100
AcDbEntity
  8
0
  6
Continuous
 62
     7
370
    25
100
AcDbCircle
 10
140.6084560705
 20
904.2379881363
 30
0.0
 40
18.99999999999995
100
AcDbArc
 50
260.0
 51
315.0989376296
  0
ARC
  5
1A4
330
1F
100
AcDbEntity
  8
0
  6
Continuous
 62
     7
370
    25
100
AcDbCircle
 10
140.6084560705
 20
904.2379881363
 30
0.0
 40
18.99999999999999
100
AcDbArc
 50
4.9010623704
 51
60.0
  0
ARC
  5
1A5
330
1F
100
AcDbEntity
  8
0
  6
Continuous
 62
     7
370
    25
100
AcDbCircle
 10
140.6084560705
 20
860.9064470038
 30
0.0
 40
19.00000000000012
100
AcDbArc
 50
300.0
 51
355.0989376296
  0
ARC
  5
1A6
330
1F
100
AcDbEntity
  8
0
  6
Continuous
 62
     7
370
    25
100
AcDbCircle
 10
140.6084560705
 20
860.9064470038
 30
0.0
 40
18.99999999999995
100
AcDbArc
 50
44.9010623704
 51
100.0
  0
LINE
  5
1A7
330
1F
100
AcDbEntity
  8
0
  6
Continuous
 62
     7
370
    25
100
AcDbLine
 10
-182.4703535363
 20
806.9852158105
 30
0.0
 11
-96.7688680336
 21
822.0966999915
 31
0.0
  0
LINE
  5
1A8
330
1F
100
AcDbEntity
  8
0
  6
Continuous
 62
     7
370
    25
100
AcDbLine
 10
-81.0061425304
 20
824.8760937872
 30
0.0
 11
-3.1645907708
 21
838.6016595826
 31
0.0
  0
LINE
  5
1A9
330
1F
100
AcDbEntity
  8
0
  6
Continuous
 62
     7
370
    25
100
AcDbLine
 10
12.6049742458
 20
841.3822593691
 30
0.0
 11
90.5198147482
 21
855.1207479473
 31
0.0
  0
LINE
  5
1AA
330
1F
100
AcDbEntity
  8
0
  6
Continuous
 62
     7
370
    25
100
AcDbLine
 10
106.3229442413
 20
857.9072660565
 30
0.0
 11
126.5709245823
 21
861.4775312955
 31
0.0
  0
LINE
  5
1AB
330
1F
100
AcDbEntity
  8
0
  6
Continuous
 62
     7
370
    25
100
AcDbLine
 10
137.3091406948
 20
879.617794311
 30
0.0
 11
103.5445733986
 21
873.6641901047
 31
0.0
  0
LINE
  5
1AC
330
1F
100
AcDbEntity
  8
0
  6
Continuous
 62
     7
370
    25
100
AcDbLine
 10
87.7414439055
 20
870.8776719955
 30
0.0
 11
9.8266034031
 21
857.1391834173
 31
0.0
  0
LINE
  5
1AD
330
1F
100
AcDbEntity
  8
0
  6
Continuous
 62
     7
370
    25
100
AcDbLine
 10
-5.9429616135
 20
854.3585836308
 30
0.0
 11
-83.7845133731
 21
840.6330178354
 31
0.0
  0
LINE
  5
1AE
330
1F
100
AcDbEntity
  8
0
  6
Continuous
 62
     7
370
    25
100
AcDbLine
 10
-99.5472388763
 20
837.8536240397
 30
0.0
 11
-185.248724379
 21
822.7421398587
 31
0.0
  0
LINE
  5
1AF
330
1F
100
AcDbEntity
  8
0
  6
Continuous
 62
     7
370
    25
100
AcDbLine
 10
130.2221689857
 20
851.4458197443
 30
0.0
 11
112.4163939022
 21
841.1656507067
 31
0.0
  0
LINE
  5
1B0
330
1F
100
AcDbEntity
  8
0
  6
Continuous
 62
     7
370
    25
100
AcDbLine
 10
98.5193550553
 20
833.1421915875
 30
0.0
 11
30.0021942181
 21
793.583790334
 31
0.0
  0
LINE
  5
1B1
330
1F
100
AcDbEntity
  8
0
  6
Continuous
 62
     7
370
    25
100
AcDbLine
 10
16.1346714764
 20
785.5773723462
 30
0.0
 11
-52.318040322
 21
746.0561807626
 31
0.0
  0
LINE
  5
1B2
330
1F
100
AcDbEntity
  8
0
  6
Continuous
 62
     7
370
    25
100
AcDbLine
 10
-66.1795484965
 20
738.0532352867
 30
0.0
 11
-141.5441700283
 21
694.5414507579
 31
0.0
  0
LINE
  5
1B3
330
1F
100
AcDbEntity
  8
0
  6
Continuous
 62
     7
370
    25
100
AcDbLine
 10
-133.5441700283
 20
680.6850442973
 30
0.0
 11
-58.1795484965
 21
724.1968288261
 31
0.0
  0
LINE
  5
1B4
330
1F
100
AcDbEntity
  8
0
  6
Continuous
 62
     7
370
    25
100
AcDbLine
 10
-44.318040322
 20
732.199774302
 30
0.0
 11
24.1346714764
 21
771.7209658856
 31
0.0
  0
LINE
  5
1B5
330
1F
100
AcDbEntity
  8
0
  6
Continuous
 62
     7
370
    25
100
AcDbLine
 10
38.0021942181
 20
779.7273838735
 30
0.0
 11
106.5193550553
 21
819.285785127
 31
0.0
  0
LINE
  5
1B6
330
1F
100
AcDbEntity
  8
0
  6
Continuous
 62
     7
370
    25
100
AcDbLine
 10
120.4163939022
 20
827.3092442462
 30
0.0
 11
150.1084560705
 21
844.4519643318
 31
0.0
  0
LINE
  5
1B7
330
1F
100
AcDbEntity
  8
0
  6
Continuous
 62
     7
370
    25
100
AcDbLine
 10
-44.3713936596
 20
578.7354454181
 30
0.0
 11
11.5662782813
 21
645.3993669151
 31
0.0
  0
LINE
  5
1B8
330
1F
100
AcDbEntity
  8
0
  6
Continuous
 62
     7
370
    25
100
AcDbLine
 10
21.8546666671
 20
657.6605907359
 30
0.0
 11
72.662131207
 21
718.210569132
 31
0.0
  0
LINE
  5
1B9
330
1F
100
AcDbEntity
  8
0
  6
Continuous
 62
     7
370
    25
100
AcDbLine
 10
82.9549837682
 20
730.4771131498
 30
0.0
 11
133.8102841377
 21
791.0841000676
 31
0.0
  0
LINE
  5
1BA
330
1F
100
AcDbEntity
  8
0
  6
Continuous
 62
     7
370
    25
100
AcDbLine
 10
144.125044355
 20
803.3767526133
 30
0.0
 11
157.3409749207
 21
819.1268853444
 31
0.0
  0
LINE
  5
1BB
330
1F
100
AcDbEntity
  8
0
  6
Continuous
 62
     7
370
    25
100
AcDbLine
 10
153.9065893999
 20
839.9255252914
 30
0.0
 11
131.8683332651
 21
813.6613543683
 31
0.0
  0
LINE
  5
1BC
330
1F
100
AcDbEntity
  8
0
  6
Continuous
 62
     7
370
    25
100
AcDbLine
 10
121.5535730478
 20
801.3687018226
 30
0.0
 11
70.6982726783
 21
740.7617149048
 31
0.0
  0
LINE
  5
1BD
330
1F
100
AcDbEntity
  8
0
  6
Continuous
 62
     7
370
    25
100
AcDbLine
 10
60.4054201171
 20
728.495170887
 30
0.0
 11
9.5979555772
 21
667.9451924909
 31
0.0
  0
LINE
  5
1BE
330
1F
100
AcDbEntity
  8
0
  6
Continuous
 62
     7
370
    25
100
AcDbLine
 10
-0.6904328086
 20
655.6839686701
 30
0.0
 11
-56.6281047495
 21
589.0200471731
 31
0.0
  0
LINE
  5
1BF
330
1F
100
AcDbEntity
  8
0
  6
Continuous
 62
     7
370
    25
100
AcDbLine
 10
164.9530048657
 20
809.3018181797
 30
0.0
 11
159.5542005201
 21
794.468725148
 31
0.0
  0
LINE
  5
1C0
330
1F
100
AcDbEntity
  8
0
  6
Continuous
 62
     7
370
    25
100
AcDbLine
 10
154.0658312443
 20
779.389554493
 30
0.0
 11
127.0062911114
 21
705.0440789971
 31
0.0
  0
LINE
  5
1C1
330
1F
100
AcDbEntity
  8
0
  6
Continuous
 62
     7
370
    25
100
AcDbLine
 10
121.5295786559
 20
689.9969351928
 30
0.0
 11
94.4954914363
 21
615.7213910012
 31
0.0
  0
LINE
  5
1C2
330
1F
100
AcDbEntity
  8
0
  6
Continuous
 62
     7
370
    25
100
AcDbLine
 10
89.0211543189
 20
600.6807733847
 30
0.0
 11
59.2573407571
 21
518.9053677069
 31
0.0
  0
LINE
  5
1C3
330
1F
100
AcDbEntity
  8
0
  6
Continuous
 62
     7
370
    25
100
AcDbLine
 10
74.2924226897
 20
513.4330454137
 30
0.0
 11
104.0562362514
 21
595.2084510915
 31
0.0
  0
LINE
  5
1C4
330
1F
100
AcDbEntity
  8
0
  6
Continuous
 62
     7
370
    25
100
AcDbLine
 10
109.5305733688
 20
610.249068708
 30
0.0
 11
136.5646605885
 21
684.5246128996
 31
0.0
  0
LINE
  5
1C5
330
1F
100
AcDbEntity
  8
0
  6
Continuous
 62
     7
370
    25
100
AcDbLine
 10
142.041373044
 20
699.5717567038
 30
0.0
 11
164.9530048657
 21
762.5209477771
 31
0.0
  0
ARC
  5
1C6
330
1F
100
AcDbEntity
  8
0
  6
Continuous
 62
     7
370
    25
100
AcDbCircle
 10
168.4614338191
 20
827.7125607074
 30
0.0
 40
19.00000000000005
100
AcDbArc
 50
100.64096958
 51
140.0
  0
LINE
  5
1C7
330
1F
100
AcDbEntity
  8
0
  6
Continuous
 62
     7
370
    25
100
AcDbLine
 10
234.9530048657
 20
763.5191975986
 30
0.0
 11
258.2279699089
 21
699.5717567038
 31
0.0
  0
LINE
  5
1C8
330
1F
100
AcDbEntity
  8
0
  6
Continuous
 62
     7
370
    25
100
AcDbLine
 10
263.7046823644
 20
684.5246128996
 30
0.0
 11
290.738769584
 21
610.249068708
 31
0.0
  0
LINE
  5
1C9
330
1F
100
AcDbEntity
  8
0
  6
Continuous
 62
     7
370
    25
100
AcDbLine
 10
296.2131067014
 20
595.2084510915
 30
0.0
 11
325.9769202632
 21
513.4330454137
 31
0.0
  0
LINE
  5
1CA
330
1F
100
AcDbEntity
  8
0
  6
Continuous
 62
     7
370
    25
100
AcDbLine
 10
341.0120021958
 20
518.9053677069
 30
0.0
 11
311.248188634
 21
600.6807733847
 31
0.0
  0
LINE
  5
1CB
330
1F
100
AcDbEntity
  8
0
  6
Continuous
 62
     7
370
    25
100
AcDbLine
 10
305.7738515166
 20
615.7213910012
 30
0.0
 11
278.739764297
 21
689.9969351928
 31
0.0
  0
LINE
  5
1CC
330
1F
100
AcDbEntity
  8
0
  6
Continuous
 62
     7
370
    25
100
AcDbLine
 10
273.2630518415
 20
705.0440789971
 30
0.0
 11
246.2035117086
 21
779.389554493
 31
0.0
  0
LINE
  5
1CD
330
1F
100
AcDbEntity
  8
0
  6
Continuous
 62
     7
370
    25
100
AcDbLine
 10
240.7151424328
 20
794.468725148
 30
0.0
 11
234.9530048657
 21
810.3000680012
 31
0.0
  0
ARC
  5
1CE
330
1F
100
AcDbEntity
  8
0
  6
Continuous
 62
     7
370
    25
100
AcDbCircle
 10
248.6608868823
 20
841.8538881205
 30
0.0
 40
18.99999999999999
100
AcDbArc
 50
60.0
 51
115.0989376296
  0
LINE
  5
1CF
330
1F
100
AcDbEntity
  8
0
  6
Continuous
 62
     7
370
    25
100
AcDbLine
 10
262.0471739672
 20
837.5894132837
 30
0.0
 11
279.8529490507
 21
827.3092442462
 31
0.0
  0
LINE
  5
1D0
330
1F
100
AcDbEntity
  8
0
  6
Continuous
 62
     7
370
    25
100
AcDbLine
 10
293.7499878976
 20
819.285785127
 30
0.0
 11
362.2671487348
 21
779.7273838735
 31
0.0
  0
LINE
  5
1D1
330
1F
100
AcDbEntity
  8
0
  6
Continuous
 62
     7
370
    25
100
AcDbLine
 10
376.1346714764
 20
771.7209658856
 30
0.0
 11
444.5873832749
 21
732.199774302
 31
0.0
  0
LINE
  5
1D2
330
1F
100
AcDbEntity
  8
0
  6
Continuous
 62
     7
370
    25
100
AcDbLine
 10
458.4488914493
 20
724.1968288261
 30
0.0
 11
533.8135129812
 21
680.6850442973
 31
0.0
  0
LINE
  5
1D3
330
1F
100
AcDbEntity
  8
0
  6
Continuous
 62
     7
370
    25
100
AcDbLine
 10
541.8135129812
 20
694.5414507579
 30
0.0
 11
466.4488914493
 21
738.0532352867
 31
0.0
  0
LINE
  5
1D4
330
1F
100
AcDbEntity
  8
0
  6
Continuous
 62
     7
370
    25
100
AcDbLine
 10
452.5873832749
 20
746.0561807626
 30
0.0
 11
384.1346714764
 21
785.5773723462
 31
0.0
  0
LINE
  5
1D5
330
1F
100
AcDbEntity
  8
0
  6
Continuous
 62
     7
370
    25
100
AcDbLine
 10
370.2671487348
 20
793.583790334
 30
0.0
 11
301.7499878976
 21
833.1421915875
 31
0.0
  0
LINE
  5
1D6
330
1F
100
AcDbEntity
  8
0
  6
Continuous
 62
     7
370
    25
100
AcDbLine
 10
287.8529490507
 20
841.1656507067
 30
0.0
 11
258.1608868823
 21
858.3083707924
 31
0.0
  0
LINE
  5
1D7
330
1F
100
AcDbEntity
  8
0
  6
Continuous
 62
     7
370
    25
100
AcDbLine
 10
456.8974477024
 20
589.0200471731
 30
0.0
 11
400.9597757615
 21
655.6839686701
 31
0.0
  0
LINE
  5
1D8
330
1F
100
AcDbEntity
  8
0
  6
Continuous
 62
     7
370
    25
100
AcDbLine
 10
390.6713873757
 20
667.9451924909
 30
0.0
 11
339.8639228357
 21
728.495170887
 31
0.0
  0
LINE
  5
1D9
330
1F
100
AcDbEntity
  8
0
  6
Continuous
 62
     7
370
    25
100
AcDbLine
 10
329.5710702746
 20
740.7617149048
 30
0.0
 11
278.7157699051
 21
801.3687018226
 31
0.0
  0
LINE
  5
1DA
330
1F
100
AcDbEntity
  8
0
  6
Continuous
 62
     7
370
    25
100
AcDbLine
 10
268.4010096878
 20
813.6613543683
 30
0.0
 11
255.1850791221
 21
829.4114870994
 31
0.0
  0
LINE
  5
1DB
330
1F
100
AcDbEntity
  8
0
  6
Continuous
 62
     7
370
    25
100
AcDbLine
 10
234.9530048657
 20
828.6315530503
 30
0.0
 11
256.1442985979
 21
803.3767526133
 31
0.0
  0
LINE
  5
1DC
330
1F
100
AcDbEntity
  8
0
  6
Continuous
 62
     7
370
    25
100
AcDbLine
 10
266.4590588152
 20
791.0841000676
 30
0.0
 11
317.3143591847
 21
730.4771131498
 31
0.0
  0
LINE
  5
1DD
330
1F
100
AcDbEntity
  8
0
  6
Continuous
 62
     7
370
    25
100
AcDbLine
 10
327.6072117458
 20
718.210569132
 30
0.0
 11
378.4146762858
 21
657.6605907359
 31
0.0
  0
LINE
  5
1DE
330
1F
100
AcDbEntity
  8
0
  6
Continuous
 62
     7
370
    25
100
AcDbLine
 10
388.7030646716
 20
645.3993669151
 30
0.0
 11
444.6407366125
 21
578.7354454181
 31
0.0
  0
LINE
  5
1DF
330
1F
100
AcDbEntity
  8
0
  6
Continuous
 62
     7
370
    25
100
AcDbLine
 10
276.4767892132
 20
887.9099797964
 30
0.0
 11
296.7247695542
 21
891.4802450353
 31
0.0
  0
LINE
  5
1E0
330
1F
100
AcDbEntity
  8
0
  6
Continuous
 62
     7
370
    25
100
AcDbLine
 10
312.5278990473
 20
894.2667631446
 30
0.0
 11
390.4427395497
 21
908.0052517228
 31
0.0
  0
LINE
  5
1E1
330
1F
100
AcDbEntity
  8
0
  6
Continuous
 62
     7
370
    25
100
AcDbLine
 10
406.2123045664
 20
910.7858515092
 30
0.0
 11
484.053856326
 21
924.5114173047
 31
0.0
  0
LINE
  5
1E2
330
1F
100
AcDbEntity
  8
0
  6
Continuous
 62
     7
370
    25
100
AcDbLine
 10
499.8165818292
 20
927.2908111004
 30
0.0
 11
585.5180673319
 21
942.4022952813
 31
0.0
  0
LINE
  5
1E3
330
1F
100
AcDbEntity
  8
0
  6
Continuous
 62
     7
370
    25
100
AcDbLine
 10
582.7396964892
 20
958.1592193295
 30
0.0
 11
497.0382109865
 21
943.0477351486
 31
0.0
  0
LINE
  5
1E4
330
1F
100
AcDbEntity
  8
0
  6
Continuous
 62
     7
370
    25
100
AcDbLine
 10
481.2754854833
 20
940.2683413529
 30
0.0
 11
403.4339337237
 21
926.5427755574
 31
0.0
  0
LINE
  5
1E5
330
1F
100
AcDbEntity
  8
0
  6
Continuous
 62
     7
370
    25
100
AcDbLine
 10
387.664368707
 20
923.762175771
 30
0.0
 11
309.7495282047
 21
910.0236871928
 31
0.0
  0
LINE
  5
1E6
330
1F
100
AcDbEntity
  8
0
  6
Continuous
 62
     7
370
    25
100
AcDbLine
 10
293.9463987115
 20
907.2371690835
 30
0.0
 11
260.1818314153
 21
901.2835648773
 31
0.0
  0
ARC
  5
1E7
330
1F
100
AcDbEntity
  8
0
  6
Continuous
 62
     7
370
    25
100
AcDbCircle
 10
263.481146791
 20
882.57221757
 30
0.0
 40
19.0000000000002
100
AcDbArc
 50
100.0
 51
155.0989376296
  0
ARC
  5
1E8
330
1F
100
AcDbEntity
  8
0
  6
Continuous
 62
     7
370
    25
100
AcDbCircle
 10
263.481146791
 20
882.57221757
 30
0.0
 40
19.00000000000001
100
AcDbArc
 50
204.9010623704
 51
260.0
  0
LINE
  5
1E9
330
1F
100
AcDbEntity
  8
0
  6
Continuous
 62
     7
370
    25
100
AcDbLine
 10
585.5180673319
 20
822.7421398588
 30
0.0
 11
499.8165818292
 21
837.8536240397
 31
0.0
  0
LINE
  5
1EA
330
1F
100
AcDbEntity
  8
0
  6
Continuous
 62
     7
370
    25
100
AcDbLine
 10
484.053856326
 20
840.6330178354
 30
0.0
 11
406.2123045664
 21
854.3585836308
 31
0.0
  0
LINE
  5
1EB
330
1F
100
AcDbEntity
  8
0
  6
Continuous
 62
     7
370
    25
100
AcDbLine
 10
390.4427395497
 20
857.1391834173
 30
0.0
 11
312.5278990473
 21
870.8776719955
 31
0.0
  0
LINE
  5
1EC
330
1F
100
AcDbEntity
  8
0
  6
Continuous
 62
     7
370
    25
100
AcDbLine
 10
296.7247695542
 20
873.6641901047
 30
0.0
 11
276.4767892132
 21
877.2344553437
 31
0.0
  0
LINE
  5
1ED
330
1F
100
AcDbEntity
  8
0
  6
Continuous
 62
     7
370
    25
100
AcDbLine
 10
260.1818314153
 20
863.8608702628
 30
0.0
 11
293.9463987116
 21
857.9072660565
 31
0.0
  0
LINE
  5
1EE
330
1F
100
AcDbEntity
  8
0
  6
Continuous
 62
     7
370
    25
100
AcDbLine
 10
309.7495282047
 20
855.1207479473
 30
0.0
 11
387.664368707
 21
841.3822593691
 31
0.0
  0
LINE
  5
1EF
330
1F
100
AcDbEntity
  8
0
  6
Continuous
 62
     7
370
    25
100
AcDbLine
 10
403.4339337237
 20
838.6016595826
 30
0.0
 11
481.2754854833
 21
824.8760937872
 31
0.0
  0
LINE
  5
1F0
330
1F
100
AcDbEntity
  8
0
  6
Continuous
 62
     7
370
    25
100
AcDbLine
 10
497.0382109865
 20
822.0966999915
 30
0.0
 11
582.7396964892
 21
806.9852158106
 31
0.0
  0
LINE
  5
1F1
330
1F
100
AcDbEntity
  8
0
  6
Continuous
 62
     7
370
    25
100
AcDbLine
 10
255.1850791221
 20
935.7329480407
 30
0.0
 11
268.4010096878
 21
951.4830807718
 31
0.0
  0
LINE
  5
1F2
330
1F
100
AcDbEntity
  8
0
  6
Continuous
 62
     7
370
    25
100
AcDbLine
 10
278.7157699051
 20
963.7757333175
 30
0.0
 11
329.5710702746
 21
1024.3827202353
 31
0.0
  0
LINE
  5
1F3
330
1F
100
AcDbEntity
  8
0
  6
Continuous
 62
     7
370
    25
100
AcDbLine
 10
339.8639228357
 20
1036.6492642531
 30
0.0
 11
390.6713873757
 21
1097.1992426492
 31
0.0
  0
LINE
  5
1F4
330
1F
100
AcDbEntity
  8
0
  6
Continuous
 62
     7
370
    25
100
AcDbLine
 10
400.9597757615
 20
1109.46046647
 30
0.0
 11
456.8974477024
 21
1176.1243879669
 31
0.0
  0
LINE
  5
1F5
330
1F
100
AcDbEntity
  8
0
  6
Continuous
 62
     7
370
    25
100
AcDbLine
 10
444.6407366125
 20
1186.4089897219
 30
0.0
 11
388.7030646716
 21
1119.745068225
 31
0.0
  0
LINE
  5
1F6
330
1F
100
AcDbEntity
  8
0
  6
Continuous
 62
     7
370
    25
100
AcDbLine
 10
378.4146762858
 20
1107.4838444042
 30
0.0
 11
327.6072117458
 21
1046.9338660081
 31
0.0
  0
LINE
  5
1F7
330
1F
100
AcDbEntity
  8
0
  6
Continuous
 62
     7
370
    25
100
AcDbLine
 10
317.3143591847
 20
1034.6673219903
 30
0.0
 11
266.4590588152
 21
974.0603350725
 31
0.0
  0
LINE
  5
1F8
330
1F
100
AcDbEntity
  8
0
  6
Continuous
 62
     7
370
    25
100
AcDbLine
 10
256.1442985979
 20
961.7676825268
 30
0.0
 11
234.9530048657
 21
936.5128820898
 31
0.0
  0
LINE
  5
1F9
330
1F
100
AcDbEntity
  8
0
  6
Continuous
 62
     7
370
    25
100
AcDbLine
 10
533.8135129812
 20
1084.4593908427
 30
0.0
 11
458.4488914493
 21
1040.9476063139
 31
0.0
  0
LINE
  5
1FA
330
1F
100
AcDbEntity
  8
0
  6
Continuous
 62
     7
370
    25
100
AcDbLine
 10
444.5873832749
 20
1032.944660838
 30
0.0
 11
376.1346714764
 21
993.4234692544
 31
0.0
  0
LINE
  5
1FB
330
1F
100
AcDbEntity
  8
0
  6
Continuous
 62
     7
370
    25
100
AcDbLine
 10
362.2671487348
 20
985.4170512666
 30
0.0
 11
293.7499878976
 21
945.8586500131
 31
0.0
  0
LINE
  5
1FC
330
1F
100
AcDbEntity
  8
0
  6
Continuous
 62
     7
370
    25
100
AcDbLine
 10
279.8529490507
 20
937.8351908939
 30
0.0
 11
262.0471739672
 21
927.5550218563
 31
0.0
  0
LINE
  5
1FD
330
1F
100
AcDbEntity
  8
0
  6
Continuous
 62
     7
370
    25
100
AcDbLine
 10
258.1608868823
 20
906.8360643476
 30
0.0
 11
287.8529490507
 21
923.9787844333
 31
0.0
  0
LINE
  5
1FE
330
1F
100
AcDbEntity
  8
0
  6
Continuous
 62
     7
370
    25
100
AcDbLine
 10
301.7499878976
 20
932.0022435525
 30
0.0
 11
370.2671487348
 21
971.560644806
 31
0.0
  0
LINE
  5
1FF
330
1F
100
AcDbEntity
  8
0
  6
Continuous
 62
     7
370
    25
100
AcDbLine
 10
384.1346714764
 20
979.5670627939
 30
0.0
 11
452.5873832749
 21
1019.0882543775
 31
0.0
  0
LINE
  5
200
330
1F
100
AcDbEntity
  8
0
  6
Continuous
 62
     7
370
    25
100
AcDbLine
 10
466.4488914493
 20
1027.0911998534
 30
0.0
 11
541.8135129812
 21
1070.6029843822
 31
0.0
  0
ARC
  5
201
330
1F
100
AcDbEntity
  8
0
  6
Continuous
 62
     7
370
    25
100
AcDbCircle
 10
248.6608868823
 20
923.2905470196
 30
0.0
 40
19.00000000000011
100
AcDbArc
 50
244.9010623704
 51
270.0
  0
ARC
  5
202
330
1F
100
AcDbEntity
  8
0
  6
Continuous
 62
     7
370
    25
100
AcDbCircle
 10
248.6608868823
 20
923.2905470196
 30
0.0
 40
19.00000000000011
100
AcDbArc
 50
270.0
 51
300.0
  0
ARC
  5
203
330
1F
100
AcDbEntity
  8
0
  6
Continuous
 62
     7
370
    25
100
AcDbCircle
 10
200.1346714764
 20
882.57221757
 30
0.0
 40
287.0000000000001
100
AcDbArc
 50
251.5973017932
 51
262.9587320728
  0
ARC
  5
204
330
1F
100
AcDbEntity
  8
0
  6
Continuous
 62
     7
370
    25
100
AcDbCircle
 10
200.1346714764
 20
882.57221757
 30
0.0
 40
287.0000000000001
100
AcDbArc
 50
231.5973017932
 51
248.4026982068
  0
ARC
  5
205
330
1F
100
AcDbEntity
  8
0
  6
Continuous
 62
     7
370
    25
100
AcDbCircle
 10
200.1346714764
 20
882.57221757
 30
0.0
 40
287.0
100
AcDbArc
 50
211.5973017932
 51
228.4026982068
  0
ARC
  5
206
330
1F
100
AcDbEntity
  8
0
  6
Continuous
 62
     7
370
    25
100
AcDbCircle
 10
200.1346714764
 20
882.57221757
 30
0.0
 40
287.0000000000001
100
AcDbArc
 50
191.5973017932
 51
208.4026982068
  0
ARC
  5
207
330
1F
100
AcDbEntity
  8
0
  6
Continuous
 62
     7
370
    25
100
AcDbCircle
 10
200.1346714764
 20
882.57221757
 30
0.0
 40
287.0000000000001
100
AcDbArc
 50
171.5973017932
 51
188.4026982068
  0
ARC
  5
208
330
1F
100
AcDbEntity
  8
0
  6
Continuous
 62
     7
370
    25
100
AcDbCircle
 10
200.1346714764
 20
882.57221757
 30
0.0
 40
287.0000000000001
100
AcDbArc
 50
151.5973017932
 51
168.4026982068
  0
ARC
  5
209
330
1F
100
AcDbEntity
  8
0
  6
Continuous
 62
     7
370
    25
100
AcDbCircle
 10
200.1346714764
 20
882.57221757
 30
0.0
 40
287.0
100
AcDbArc
 50
131.5973017932
 51
148.4026982068
  0
ARC
  5
20A
330
1F
100
AcDbEntity
  8
0
  6
Continuous
 62
     7
370
    25
100
AcDbCircle
 10
200.1346714764
 20
882.57221757
 30
0.0
 40
287.0000000000002
100
AcDbArc
 50
111.5973017932
 51
128.4026982068
  0
ARC
  5
20B
330
1F
100
AcDbEntity
  8
0
  6
Continuous
 62
     7
370
    25
100
AcDbCircle
 10
200.1346714764
 20
882.57221757
 30
0.0
 40
287.0000000000003
100
AcDbArc
 50
97.0412679272
 51
108.4026982068
  0
ARC
  5
20C
330
1F
100
AcDbEntity
  8
0
  6
Continuous
 62
     7
370
    25
100
AcDbCircle
 10
200.1346714764
 20
882.57221757
 30
0.0
 40
287.0000000000003
100
AcDbArc
 50
71.5973017932
 51
83.0318122458
  0
ARC
  5
20D
330
1F
100
AcDbEntity
  8
0
  6
Continuous
 62
     7
370
    25
100
AcDbCircle
 10
200.1346714764
 20
882.57221757
 30
0.0
 40
287.0000000000002
100
AcDbArc
 50
51.5973017932
 51
68.4026982068
  0
ARC
  5
20E
330
1F
100
AcDbEntity
  8
0
  6
Continuous
 62
     7
370
    25
100
AcDbCircle
 10
200.1346714764
 20
882.57221757
 30
0.0
 40
287.0000000000002
100
AcDbArc
 50
31.5973017932
 51
48.4026982068
  0
ARC
  5
20F
330
1F
100
AcDbEntity
  8
0
  6
Continuous
 62
     7
370
    25
100
AcDbCircle
 10
200.1346714764
 20
882.57221757
 30
0.0
 40
287.0000000000001
100
AcDbArc
 50
11.5973017932
 51
28.4026982068
  0
ARC
  5
210
330
1F
100
AcDbEntity
  8
0
  6
Continuous
 62
     7
370
    25
100
AcDbCircle
 10
200.1346714764
 20
882.57221757
 30
0.0
 40
287.0000000000001
100
AcDbArc
 50
351.5973017932
 51
8.4026982068
  0
ARC
  5
211
330
1F
100
AcDbEntity
  8
0
  6
Continuous
 62
     7
370
    25
100
AcDbCircle
 10
200.1346714764
 20
882.57221757
 30
0.0
 40
287.0
100
AcDbArc
 50
331.5973017932
 51
348.4026982068
  0
ARC
  5
212
330
1F
100
AcDbEntity
  8
0
  6
Continuous
 62
     7
370
    25
100
AcDbCircle
 10
200.1346714764
 20
882.57221757
 30
0.0
 40
287.0
100
AcDbArc
 50
311.5973017932
 51
328.4026982068
  0
ARC
  5
213
330
1F
100
AcDbEntity
  8
0
  6
Continuous
 62
     7
370
    25
100
AcDbCircle
 10
200.1346714764
 20
882.57221757
 30
0.0
 40
287.0
100
AcDbArc
 50
291.5973017932
 51
308.4026982068
  0
ARC
  5
214
330
1F
100
AcDbEntity
  8
0
  6
Continuous
 62
     7
370
    25
100
AcDbCircle
 10
200.1346714764
 20
882.57221757
 30
0.0
 40
287.0000000000002
100
AcDbArc
 50
276.9681877542
 51
288.4026982068
  0
ARC
  5
215
330
1F
100
AcDbEntity
  8
0
  6
Continuous
 62
     7
370
    25
100
AcDbCircle
 10
200.1346714764
 20
882.57221757
 30
0.0
 40
303.0
100
AcDbArc
 50
276.5985488744
 51
288.4870643324
  0
ARC
  5
216
330
1F
100
AcDbEntity
  8
0
  6
Continuous
 62
     7
370
    25
100
AcDbCircle
 10
200.1346714764
 20
882.57221757
 30
0.0
 40
303.0000000000001
100
AcDbArc
 50
291.5129356676
 51
308.4870643324
  0
ARC
  5
217
330
1F
100
AcDbEntity
  8
0
  6
Continuous
 62
     7
370
    25
100
AcDbCircle
 10
200.1346714764
 20
882.57221757
 30
0.0
 40
303.0
100
AcDbArc
 50
311.5129356676
 51
328.4870643324
  0
ARC
  5
218
330
1F
100
AcDbEntity
  8
0
  6
Continuous
 62
     7
370
    25
100
AcDbCircle
 10
200.1346714764
 20
882.57221757
 30
0.0
 40
303.0
100
AcDbArc
 50
331.5129356676
 51
348.4870643324
  0
ARC
  5
219
330
1F
100
AcDbEntity
  8
0
  6
Continuous
 62
     7
370
    25
100
AcDbCircle
 10
200.1346714764
 20
882.57221757
 30
0.0
 40
303.0000000000001
100
AcDbArc
 50
351.5129356676
 51
8.4870643324
  0
ARC
  5
21A
330
1F
100
AcDbEntity
  8
0
  6
Continuous
 62
     7
370
    25
100
AcDbCircle
 10
200.1346714764
 20
882.57221757
 30
0.0
 40
303.0000000000001
100
AcDbArc
 50
11.5129356676
 51
28.4870643324
  0
ARC
  5
21B
330
1F
100
AcDbEntity
  8
0
  6
Continuous
 62
     7
370
    25
100
AcDbCircle
 10
200.1346714764
 20
882.57221757
 30
0.0
 40
303.0000000000002
100
AcDbArc
 50
31.5129356676
 51
48.4870643324
  0
ARC
  5
21C
330
1F
100
AcDbEntity
  8
0
  6
Continuous
 62
     7
370
    25
100
AcDbCircle
 10
200.1346714764
 20
882.57221757
 30
0.0
 40
303.0000000000003
100
AcDbArc
 50
51.5129356676
 51
68.4870643324
  0
ARC
  5
21D
330
1F
100
AcDbEntity
  8
0
  6
Continuous
 62
     7
370
    25
100
AcDbCircle
 10
200.1346714764
 20
882.57221757
 30
0.0
 40
303.0000000000003
100
AcDbArc
 50
71.5129356676
 51
83.4014511256
  0
ARC
  5
21E
330
1F
100
AcDbEntity
  8
0
  6
Continuous
 62
     7
370
    25
100
AcDbCircle
 10
200.1346714764
 20
882.57221757
 30
0.0
 40
303.0000000000002
100
AcDbArc
 50
96.6677163654
 51
108.4870643324
  0
ARC
  5
21F
330
1F
100
AcDbEntity
  8
0
  6
Continuous
 62
     7
370
    25
100
AcDbCircle
 10
200.1346714764
 20
882.57221757
 30
0.0
 40
303.0000000000001
100
AcDbArc
 50
111.5129356676
 51
128.4870643324
  0
ARC
  5
220
330
1F
100
AcDbEntity
  8
0
  6
Continuous
 62
     7
370
    25
100
AcDbCircle
 10
200.1346714764
 20
882.57221757
 30
0.0
 40
303.0000000000001
100
AcDbArc
 50
131.5129356676
 51
148.4870643324
  0
ARC
  5
221
330
1F
100
AcDbEntity
  8
0
  6
Continuous
 62
     7
370
    25
100
AcDbCircle
 10
200.1346714764
 20
882.57221757
 30
0.0
 40
303.0000000000002
100
AcDbArc
 50
151.5129356676
 51
168.4870643324
  0
ARC
  5
222
330
1F
100
AcDbEntity
  8
0
  6
Continuous
 62
     7
370
    25
100
AcDbCircle
 10
200.1346714764
 20
882.57221757
 30
0.0
 40
303.0000000000001
100
AcDbArc
 50
171.5129356676
 51
188.4870643324
  0
ARC
  5
223
330
1F
100
AcDbEntity
  8
0
  6
Continuous
 62
     7
370
    25
100
AcDbCircle
 10
200.1346714764
 20
882.57221757
 30
0.0
 40
303.0000000000001
100
AcDbArc
 50
191.5129356676
 51
208.4870643324
  0
ARC
  5
224
330
1F
100
AcDbEntity
  8
0
  6
Continuous
 62
     7
370
    25
100
AcDbCircle
 10
200.1346714764
 20
882.57221757
 30
0.0
 40
303.0000000000001
100
AcDbArc
 50
211.5129356676
 51
228.4870643324
  0
ARC
  5
225
330
1F
100
AcDbEntity
  8
0
  6
Continuous
 62
     7
370
    25
100
AcDbCircle
 10
200.1346714764
 20
882.57221757
 30
0.0
 40
303.0000000000001
100
AcDbArc
 50
231.5129356676
 51
248.4870643324
  0
ARC
  5
226
330
1F
100
AcDbEntity
  8
0
  6
Continuous
 62
     7
370
    25
100
AcDbCircle
 10
200.1346714764
 20
882.57221757
 30
0.0
 40
303.0
100
AcDbArc
 50
251.5129356676
 51
263.3322836346
  0
ARC
  5
227
330
1F
100
AcDbEntity
  8
0
  6
Continuous
 62
     7
370
    25
100
AcDbCircle
 10
200.1346714764
 20
882.57221757
 30
0.0
 40
192.0000000000001
100
AcDbArc
 50
252.3880154633
 51
259.4415876557
  0
ARC
  5
228
330
1F
100
AcDbEntity
  8
0
  6
Continuous
 62
     7
370
    25
100
AcDbCircle
 10
200.1346714764
 20
882.57221757
 30
0.0
 40
192.0000000000001
100
AcDbArc
 50
232.3880154633
 51
247.6119845367
  0
ARC
  5
229
330
1F
100
AcDbEntity
  8
0
  6
Continuous
 62
     7
370
    25
100
AcDbCircle
 10
200.1346714764
 20
882.57221757
 30
0.0
 40
192.0000000000001
100
AcDbArc
 50
212.3880154633
 51
227.6119845367
  0
ARC
  5
22A
330
1F
100
AcDbEntity
  8
0
  6
Continuous
 62
     7
370
    25
100
AcDbCircle
 10
200.1346714764
 20
882.57221757
 30
0.0
 40
192.0000000000001
100
AcDbArc
 50
192.3880154633
 51
207.6119845367
  0
ARC
  5
22B
330
1F
100
AcDbEntity
  8
0
  6
Continuous
 62
     7
370
    25
100
AcDbCircle
 10
200.1346714764
 20
882.57221757
 30
0.0
 40
192.0000000000001
100
AcDbArc
 50
172.3880154633
 51
187.6119845367
  0
ARC
  5
22C
330
1F
100
AcDbEntity
  8
0
  6
Continuous
 62
     7
370
    25
100
AcDbCircle
 10
200.1346714764
 20
882.57221757
 30
0.0
 40
192.0000000000001
100
AcDbArc
 50
152.3880154633
 51
167.6119845367
  0
ARC
  5
22D
330
1F
100
AcDbEntity
  8
0
  6
Continuous
 62
     7
370
    25
100
AcDbCircle
 10
200.1346714764
 20
882.57221757
 30
0.0
 40
192.0000000000002
100
AcDbArc
 50
132.3880154633
 51
147.6119845367
  0
ARC
  5
22E
330
1F
100
AcDbEntity
  8
0
  6
Continuous
 62
     7
370
    25
100
AcDbCircle
 10
200.1346714764
 20
882.57221757
 30
0.0
 40
192.0000000000001
100
AcDbArc
 50
112.3880154633
 51
127.6119845367
  0
ARC
  5
22F
330
1F
100
AcDbEntity
  8
0
  6
Continuous
 62
     7
370
    25
100
AcDbCircle
 10
200.1346714764
 20
882.57221757
 30
0.0
 40
192.0000000000004
100
AcDbArc
 50
100.5584123443
 51
107.6119845367
  0
ARC
  5
230
330
1F
100
AcDbEntity
  8
0
  6
Continuous
 62
     7
370
    25
100
AcDbCircle
 10
200.1346714764
 20
882.57221757
 30
0.0
 40
192.0000000000004
100
AcDbArc
 50
72.3880154633
 51
79.5518596073
  0
ARC
  5
231
330
1F
100
AcDbEntity
  8
0
  6
Continuous
 62
     7
370
    25
100
AcDbCircle
 10
200.1346714764
 20
882.57221757
 30
0.0
 40
192.0
100
AcDbArc
 50
52.3880154633
 51
67.6119845367
  0
ARC
  5
232
330
1F
100
AcDbEntity
  8
0
  6
Continuous
 62
     7
370
    25
100
AcDbCircle
 10
200.1346714764
 20
882.57221757
 30
0.0
 40
192.0000000000001
100
AcDbArc
 50
32.3880154633
 51
47.6119845367
  0
ARC
  5
233
330
1F
100
AcDbEntity
  8
0
  6
Continuous
 62
     7
370
    25
100
AcDbCircle
 10
200.1346714764
 20
882.57221757
 30
0.0
 40
192.0000000000001
100
AcDbArc
 50
12.3880154633
 51
27.6119845367
  0
ARC
  5
234
330
1F
100
AcDbEntity
  8
0
  6
Continuous
 62
     7
370
    25
100
AcDbCircle
 10
200.1346714764
 20
882.57221757
 30
0.0
 40
192.0000000000001
100
AcDbArc
 50
352.3880154633
 51
7.6119845367
  0
ARC
  5
235
330
1F
100
AcDbEntity
  8
0
  6
Continuous
 62
     7
370
    25
100
AcDbCircle
 10
200.1346714764
 20
882.57221757
 30
0.0
 40
192.0000000000001
100
AcDbArc
 50
332.3880154633
 51
347.6119845367
  0
ARC
  5
236
330
1F
100
AcDbEntity
  8
0
  6
Continuous
 62
     7
370
    25
100
AcDbCircle
 10
200.1346714764
 20
882.57221757
 30
0.0
 40
192.0
100
AcDbArc
 50
312.3880154633
 51
327.6119845367
  0
ARC
  5
237
330
1F
100
AcDbEntity
  8
0
  6
Continuous
 62
     7
370
    25
100
AcDbCircle
 10
200.1346714764
 20
882.57221757
 30
0.0
 40
192.0000000000002
100
AcDbArc
 50
292.3880154633
 51
307.6119845367
  0
ARC
  5
238
330
1F
100
AcDbEntity
  8
0
  6
Continuous
 62
     7
370
    25
100
AcDbCircle
 10
200.1346714764
 20
882.57221757
 30
0.0
 40
192.0000000000001
100
AcDbArc
 50
280.4481403927
 51
287.6119845367
  0
ARC
  5
239
330
1F
100
AcDbEntity
  8
0
  6
Continuous
 62
     7
370
    25
100
AcDbCircle
 10
200.1346714764
 20
882.57221757
 30
0.0
 40
208.0000000000001
100
AcDbArc
 50
279.6364416952
 51
287.795772496
  0
ARC
  5
23A
330
1F
100
AcDbEntity
  8
0
  6
Continuous
 62
     7
370
    25
100
AcDbCircle
 10
200.1346714764
 20
882.57221757
 30
0.0
 40
208.0
100
AcDbArc
 50
292.204227504
 51
307.795772496
  0
ARC
  5
23B
330
1F
100
AcDbEntity
  8
0
  6
Continuous
 62
     7
370
    25
100
AcDbCircle
 10
200.1346714764
 20
882.57221757
 30
0.0
 40
208.0
100
AcDbArc
 50
312.204227504
 51
327.795772496
  0
ARC
  5
23C
330
1F
100
AcDbEntity
  8
0
  6
Continuous
 62
     7
370
    25
100
AcDbCircle
 10
200.1346714764
 20
882.57221757
 30
0.0
 40
208.0000000000001
100
AcDbArc
 50
332.204227504
 51
347.795772496
  0
ARC
  5
23D
330
1F
100
AcDbEntity
  8
0
  6
Continuous
 62
     7
370
    25
100
AcDbCircle
 10
200.1346714764
 20
882.57221757
 30
0.0
 40
208.0000000000001
100
AcDbArc
 50
352.204227504
 51
7.795772496
  0
ARC
  5
23E
330
1F
100
AcDbEntity
  8
0
  6
Continuous
 62
     7
370
    25
100
AcDbCircle
 10
200.1346714764
 20
882.57221757
 30
0.0
 40
208.0000000000001
100
AcDbArc
 50
12.204227504
 51
27.795772496
  0
ARC
  5
23F
330
1F
100
AcDbEntity
  8
0
  6
Continuous
 62
     7
370
    25
100
AcDbCircle
 10
200.1346714764
 20
882.57221757
 30
0.0
 40
208.0000000000001
100
AcDbArc
 50
32.204227504
 51
47.795772496
  0
ARC
  5
240
330
1F
100
AcDbEntity
  8
0
  6
Continuous
 62
     7
370
    25
100
AcDbCircle
 10
200.1346714764
 20
882.57221757
 30
0.0
 40
208.0000000000001
100
AcDbArc
 50
52.204227504
 51
67.795772496
  0
ARC
  5
241
330
1F
100
AcDbEntity
  8
0
  6
Continuous
 62
     7
370
    25
100
AcDbCircle
 10
200.1346714764
 20
882.57221757
 30
0.0
 40
208.0000000000002
100
AcDbArc
 50
72.204227504
 51
80.3635583048
  0
ARC
  5
242
330
1F
100
AcDbEntity
  8
0
  6
Continuous
 62
     7
370
    25
100
AcDbCircle
 10
200.1346714764
 20
882.57221757
 30
0.0
 40
208.0000000000001
100
AcDbArc
 50
99.7379733853
 51
107.795772496
  0
ARC
  5
243
330
1F
100
AcDbEntity
  8
0
  6
Continuous
 62
     7
370
    25
100
AcDbCircle
 10
200.1346714764
 20
882.57221757
 30
0.0
 40
208.0000000000002
100
AcDbArc
 50
112.204227504
 51
127.795772496
  0
ARC
  5
244
330
1F
100
AcDbEntity
  8
0
  6
Continuous
 62
     7
370
    25
100
AcDbCircle
 10
200.1346714764
 20
882.57221757
 30
0.0
 40
208.0000000000001
100
AcDbArc
 50
132.204227504
 51
147.795772496
  0
ARC
  5
245
330
1F
100
AcDbEntity
  8
0
  6
Continuous
 62
     7
370
    25
100
AcDbCircle
 10
200.1346714764
 20
882.57221757
 30
0.0
 40
208.0000000000001
100
AcDbArc
 50
152.204227504
 51
167.795772496
  0
ARC
  5
246
330
1F
100
AcDbEntity
  8
0
  6
Continuous
 62
     7
370
    25
100
AcDbCircle
 10
200.1346714764
 20
882.57221757
 30
0.0
 40
208.0000000000001
100
AcDbArc
 50
172.204227504
 51
187.795772496
  0
ARC
  5
247
330
1F
100
AcDbEntity
  8
0
  6
Continuous
 62
     7
370
    25
100
AcDbCircle
 10
200.1346714764
 20
882.57221757
 30
0.0
 40
208.0000000000001
100
AcDbArc
 50
192.204227504
 51
207.795772496
  0
ARC
  5
248
330
1F
100
AcDbEntity
  8
0
  6
Continuous
 62
     7
370
    25
100
AcDbCircle
 10
200.1346714764
 20
882.57221757
 30
0.0
 40
208.0000000000001
100
AcDbArc
 50
212.204227504
 51
227.795772496
  0
ARC
  5
249
330
1F
100
AcDbEntity
  8
0
  6
Continuous
 62
     7
370
    25
100
AcDbCircle
 10
200.1346714764
 20
882.57221757
 30
0.0
 40
208.0000000000001
100
AcDbArc
 50
232.204227504
 51
247.795772496
  0
ARC
  5
24A
330
1F
100
AcDbEntity
  8
0
  6
Continuous
 62
     7
370
    25
100
AcDbCircle
 10
200.1346714764
 20
882.57221757
 30
0.0
 40
208.0000000000001
100
AcDbArc
 50
252.204227504
 51
260.2620266147
  0
ARC
  5
24B
330
1F
100
AcDbEntity
  8
0
  6
Continuous
 62
     7
370
    25
100
AcDbCircle
 10
200.1346714764
 20
882.57221757
 30
0.0
 40
97.0000000000001
100
AcDbArc
 50
234.730798634
 51
245.269201366
  0
ARC
  5
24C
330
1F
100
AcDbEntity
  8
0
  6
Continuous
 62
     7
370
    25
100
AcDbCircle
 10
200.1346714764
 20
882.57221757
 30
0.0
 40
97.00000000000009
100
AcDbArc
 50
214.730798634
 51
225.269201366
  0
ARC
  5
24D
330
1F
100
AcDbEntity
  8
0
  6
Continuous
 62
     7
370
    25
100
AcDbCircle
 10
200.1346714764
 20
882.57221757
 30
0.0
 40
97.00000000000004
100
AcDbArc
 50
194.730798634
 51
205.269201366
  0
ARC
  5
24E
330
1F
100
AcDbEntity
  8
0
  6
Continuous
 62
     7
370
    25
100
AcDbCircle
 10
200.1346714764
 20
882.57221757
 30
0.0
 40
97.00000000000004
100
AcDbArc
 50
174.730798634
 51
185.269201366
  0
ARC
  5
24F
330
1F
100
AcDbEntity
  8
0
  6
Continuous
 62
     7
370
    25
100
AcDbCircle
 10
200.1346714764
 20
882.57221757
 30
0.0
 40
97.00000000000006
100
AcDbArc
 50
154.730798634
 51
165.269201366
  0
ARC
  5
250
330
1F
100
AcDbEntity
  8
0
  6
Continuous
 62
     7
370
    25
100
AcDbCircle
 10
200.1346714764
 20
882.57221757
 30
0.0
 40
97.00000000000006
100
AcDbArc
 50
134.730798634
 51
145.269201366
  0
ARC
  5
251
330
1F
100
AcDbEntity
  8
0
  6
Continuous
 62
     7
370
    25
100
AcDbCircle
 10
200.1346714764
 20
882.57221757
 30
0.0
 40
97.00000000000006
100
AcDbArc
 50
114.730798634
 51
125.269201366
  0
ARC
  5
252
330
1F
100
AcDbEntity
  8
0
  6
Continuous
 62
     7
370
    25
100
AcDbCircle
 10
200.1346714764
 20
882.57221757
 30
0.0
 40
97.00000000000011
100
AcDbArc
 50
54.730798634
 51
65.269201366
  0
ARC
  5
253
330
1F
100
AcDbEntity
  8
0
  6
Continuous
 62
     7
370
    25
100
AcDbCircle
 10
200.1346714764
 20
882.57221757
 30
0.0
 40
97.00000000000007
100
AcDbArc
 50
34.730798634
 51
45.269201366
  0
ARC
  5
254
330
1F
100
AcDbEntity
  8
0
  6
Continuous
 62
     7
370
    25
100
AcDbCircle
 10
200.1346714764
 20
882.57221757
 30
0.0
 40
97.00000000000006
100
AcDbArc
 50
14.730798634
 51
25.269201366
  0
ARC
  5
255
330
1F
100
AcDbEntity
  8
0
  6
Continuous
 62
     7
370
    25
100
AcDbCircle
 10
200.1346714764
 20
882.57221757
 30
0.0
 40
97.00000000000003
100
AcDbArc
 50
354.730798634
 51
5.269201366
  0
ARC
  5
256
330
1F
100
AcDbEntity
  8
0
  6
Continuous
 62
     7
370
    25
100
AcDbCircle
 10
200.1346714764
 20
882.57221757
 30
0.0
 40
97.00000000000003
100
AcDbArc
 50
334.730798634
 51
345.269201366
  0
ARC
  5
257
330
1F
100
AcDbEntity
  8
0
  6
Continuous
 62
     7
370
    25
100
AcDbCircle
 10
200.1346714764
 20
882.57221757
 30
0.0
 40
97.00000000000001
100
AcDbArc
 50
314.730798634
 51
325.269201366
  0
ARC
  5
258
330
1F
100
AcDbEntity
  8
0
  6
Continuous
 62
     7
370
    25
100
AcDbCircle
 10
200.1346714764
 20
882.57221757
 30
0.0
 40
97.0000000000001
100
AcDbArc
 50
294.730798634
 51
305.269201366
  0
ARC
  5
259
330
1F
100
AcDbEntity
  8
0
  6
Continuous
 62
     7
370
    25
100
AcDbCircle
 10
200.1346714764
 20
882.57221757
 30
0.0
 40
113.0000000000001
100
AcDbArc
 50
294.0597345266
 51
305.9402654734
  0
ARC
  5
25A
330
1F
100
AcDbEntity
  8
0
  6
Continuous
 62
     7
370
    25
100
AcDbCircle
 10
200.1346714764
 20
882.57221757
 30
0.0
 40
113.0
100
AcDbArc
 50
314.0597345266
 51
325.9402654734
  0
ARC
  5
25B
330
1F
100
AcDbEntity
  8
0
  6
Continuous
 62
     7
370
    25
100
AcDbCircle
 10
200.1346714764
 20
882.57221757
 30
0.0
 40
113.0
100
AcDbArc
 50
334.0597345266
 51
345.9402654734
  0
ARC
  5
25C
330
1F
100
AcDbEntity
  8
0
  6
Continuous
 62
     7
370
    25
100
AcDbCircle
 10
200.1346714764
 20
882.57221757
 30
0.0
 40
113.0000000000001
100
AcDbArc
 50
354.0597345266
 51
5.9402654734
  0
ARC
  5
25D
330
1F
100
AcDbEntity
  8
0
  6
Continuous
 62
     7
370
    25
100
AcDbCircle
 10
200.1346714764
 20
882.57221757
 30
0.0
 40
113.0000000000001
100
AcDbArc
 50
14.0597345266
 51
25.9402654734
  0
ARC
  5
25E
330
1F
100
AcDbEntity
  8
0
  6
Continuous
 62
     7
370
    25
100
AcDbCircle
 10
200.1346714764
 20
882.57221757
 30
0.0
 40
113.0000000000001
100
AcDbArc
 50
34.0597345266
 51
45.9402654734
  0
ARC
  5
25F
330
1F
100
AcDbEntity
  8
0
  6
Continuous
 62
     7
370
    25
100
AcDbCircle
 10
200.1346714764
 20
882.57221757
 30
0.0
 40
113.0000000000001
100
AcDbArc
 50
54.0597345266
 51
65.9402654734
  0
ARC
  5
260
330
1F
100
AcDbEntity
  8
0
  6
Continuous
 62
     7
370
    25
100
AcDbCircle
 10
200.1346714764
 20
882.57221757
 30
0.0
 40
113.0000000000001
100
AcDbArc
 50
114.0597345266
 51
125.9402654734
  0
ARC
  5
261
330
1F
100
AcDbEntity
  8
0
  6
Continuous
 62
     7
370
    25
100
AcDbCircle
 10
200.1346714764
 20
882.57221757
 30
0.0
 40
113.0000000000001
100
AcDbArc
 50
134.0597345266
 51
145.9402654734
  0
ARC
  5
262
330
1F
100
AcDbEntity
  8
0
  6
Continuous
 62
     7
370
    25
100
AcDbCircle
 10
200.1346714764
 20
882.57221757
 30
0.0
 40
113.0000000000001
100
AcDbArc
 50
154.0597345266
 51
165.9402654734
  0
ARC
  5
263
330
1F
100
AcDbEntity
  8
0
  6
Continuous
 62
     7
370
    25
100
AcDbCircle
 10
200.1346714764
 20
882.57221757
 30
0.0
 40
113.0000000000001
100
AcDbArc
 50
174.0597345266
 51
185.9402654734
  0
ARC
  5
264
330
1F
100
AcDbEntity
  8
0
  6
Continuous
 62
     7
370
    25
100
AcDbCircle
 10
200.1346714764
 20
882.57221757
 30
0.0
 40
113.0000000000001
100
AcDbArc
 50
194.0597345266
 51
205.9402654734
  0
ARC
  5
265
330
1F
100
AcDbEntity
  8
0
  6
Continuous
 62
     7
370
    25
100
AcDbCircle
 10
200.1346714764
 20
882.57221757
 30
0.0
 40
113.0
100
AcDbArc
 50
214.0597345266
 51
225.9402654734
  0
ARC
  5
266
330
1F
100
AcDbEntity
  8
0
  6
Continuous
 62
     7
370
    25
100
AcDbCircle
 10
200.1346714764
 20
882.57221757
 30
0.0
 40
113.0000000000001
100
AcDbArc
 50
234.0597345266
 51
245.9402654734
  0
ARC
  5
267
330
1F
100
AcDbEntity
  8
0
  6
Continuous
 62
     7
370
    25
100
AcDbCircle
 10
158.5530048657
 20
423.3610452742
 30
0.0
 40
1.100000000000136
100
AcDbArc
 50
90.0
 51
180.0
  0
ARC
  5
268
330
1F
100
AcDbEntity
  8
0
  6
Continuous
 62
     7
370
    25
100
AcDbCircle
 10
241.3530048657
 20
423.3610452742
 30
0.0
 40
1.100000000000136
100
AcDbArc
 50
0.0
 51
90.0
  0
LINE
  5
269
330
1F
100
AcDbEntity
  8
0
  6
Continuous
 62
     7
370
    25
100
AcDbLine
 10
157.4530048657
 20
423.3610452742
 30
0.0
 11
157.4530048657
 21
406.5610452742
 31
0.0
  0
LINE
  5
26A
330
1F
100
AcDbEntity
  8
0
  6
Continuous
 62
     7
370
    25
100
AcDbLine
 10
242.4530048657
 20
406.5610452742
 30
0.0
 11
242.4530048657
 21
423.3610452742
 31
0.0
  0
ARC
  5
26B
330
1F
100
AcDbEntity
  8
0
  6
Continuous
 62
     7
370
    25
100
AcDbCircle
 10
158.5530048657
 20
406.5610452742
 30
0.0
 40
1.10000000000008
100
AcDbArc
 50
180.0
 51
270.0
  0
ARC
  5
26C
330
1F
100
AcDbEntity
  8
0
  6
Continuous
 62
     7
370
    25
100
AcDbCircle
 10
241.3530048657
 20
406.5610452742
 30
0.0
 40
1.10000000000008
100
AcDbArc
 50
270.0
 51
0.0
  0
ARC
  5
26D
330
1F
100
AcDbEntity
  8
0
  6
Continuous
 62
     7
370
    25
100
AcDbCircle
 10
158.5530048657
 20
1357.3610452742
 30
0.0
 40
1.100000000000136
100
AcDbArc
 50
90.0
 51
180.0
  0
ARC
  5
26E
330
1F
100
AcDbEntity
  8
0
  6
Continuous
 62
     7
370
    25
100
AcDbCircle
 10
241.3530048657
 20
1357.3610452742
 30
0.0
 40
1.100000000000136
100
AcDbArc
 50
0.0
 51
90.0
  0
LINE
  5
26F
330
1F
100
AcDbEntity
  8
0
  6
Continuous
 62
     7
370
    25
100
AcDbLine
 10
157.4530048657
 20
1357.3610452742
 30
0.0
 11
157.4530048657
 21
1340.5610452742
 31
0.0
  0
LINE
  5
270
330
1F
100
AcDbEntity
  8
0
  6
Continuous
 62
     7
370
    25
100
AcDbLine
 10
242.4530048657
 20
1340.5610452742
 30
0.0
 11
242.4530048657
 21
1357.3610452742
 31
0.0
  0
ARC
  5
271
330
1F
100
AcDbEntity
  8
0
  6
Continuous
 62
     7
370
    25
100
AcDbCircle
 10
158.5530048657
 20
1340.5610452742
 30
0.0
 40
1.100000000000136
100
AcDbArc
 50
180.0
 51
270.0
  0
ARC
  5
272
330
1F
100
AcDbEntity
  8
0
  6
Continuous
 62
     7
370
    25
100
AcDbCircle
 10
241.3530048657
 20
1340.5610452742
 30
0.0
 40
1.100000000000136
100
AcDbArc
 50
270.0
 51
0.0
  0
LWPOLYLINE
  5
273
330
1F
100
AcDbEntity
  8
0
  6
Continuous
 62
     7
370
    25
100
AcDbPolyline
 90
       10
 70
   128
 43
0.0
 10
234.9530048657
 20
-1091.2393708771
 10
235.3264848357
 20
-1090.8621551607
 10
235.7081019096
 20
-1090.3077493283
 10
236.0222496888
 20
-1089.6659717659
 10
236.3238943173
 20
-1088.7845649479
 10
236.6107035515
 20
-1087.5461018328
 10
236.817598132
 20
-1086.2465964042
 10
236.9872269229
 20
-1084.7098956694
 10
237.1049228907
 20
-1083.0873814515
 10
237.1083474589
 20
-1083.0052101429
  0
LWPOLYLINE
  5
274
330
1F
100
AcDbEntity
  8
0
  6
Continuous
 62
     7
370
    25
100
AcDbPolyline
 90
        9
 70
   128
 43
0.0
 10
237.0349900705
 20
-1074.9904618041
 10
237.0050319733
 20
-1074.5383519803
 10
236.8526028078
 20
-1072.9899022612
 10
236.6560131007
 20
-1071.5664589509
 10
236.4076287398
 20
-1070.2742386629
 10
236.0725368005
 20
-1069.0726280772
 10
235.7131451078
 20
-1068.2127461852
 10
235.3325824382
 20
-1067.5888366269
 10
234.9530048657
 20
-1067.1616203611
  0
LWPOLYLINE
  5
275
330
1F
100
AcDbEntity
  8
0
  6
Continuous
 62
     7
370
    25
100
AcDbPolyline
 90
        9
 70
   128
 43
0.0
 10
164.9530048657
 20
-1067.1556383974
 10
164.5811997553
 20
-1067.5782174056
 10
164.2239271694
 20
-1068.1528283552
 10
163.911616267
 20
-1068.8552894644
 10
163.5844319548
 20
-1069.9167825096
 10
163.3191180155
 20
-1071.1613101335
 10
163.1142885514
 20
-1072.4975182568
 10
162.9422755902
 20
-1074.0609313262
 10
162.8723653667
 20
-1074.9912786426
  0
LWPOLYLINE
  5
276
330
1F
100
AcDbEntity
  8
0
  6
Continuous
 62
     7
370
    25
100
AcDbPolyline
 90
        9
 70
   128
 43
0.0
 10
162.8011188807
 20
-1083.0056485381
 10
162.8781290603
 20
-1084.2289335926
 10
163.024744998
 20
-1085.7376919553
 10
163.2187968433
 20
-1087.1170836614
 10
163.4732597715
 20
-1088.3721430937
 10
163.849243271
 20
-1089.5808133501
 10
164.1927484974
 20
-1090.2988228359
 10
164.5983809064
 20
-1090.8850362233
 10
164.9530048657
 20
-1091.2303499241
  0
LWPOLYLINE
  5
277
330
1F
100
AcDbEntity
  8
0
  6
Continuous
 62
     7
370
    25
100
AcDbPolyline
 90
        9
 70
   128
 43
0.0
 10
234.9530048657
 20
-720.8402258321
 10
235.3248099762
 20
-720.4176468238
 10
235.6820825621
 20
-719.8430358743
 10
235.9943934645
 20
-719.1405747651
 10
236.3215777767
 20
-718.0790817199
 10
236.5868917159
 20
-716.834554096
 10
236.7917211801
 20
-715.4983459727
 10
236.9637341413
 20
-713.9349329033
 10
237.0336443648
 20
-713.0045855869
  0
LWPOLYLINE
  5
278
330
1F
100
AcDbEntity
  8
0
  6
Continuous
 62
     7
370
    25
100
AcDbPolyline
 90
        9
 70
   128
 43
0.0
 10
237.1048908508
 20
-704.9902156914
 10
237.0278806711
 20
-703.7669306369
 10
236.8812647335
 20
-702.2581722742
 10
236.6872128881
 20
-700.878780568
 10
236.43274996
 20
-699.6237211357
 10
236.0567664604
 20
-698.4150508793
 10
235.7132612341
 20
-697.6970413936
 10
235.3076288251
 20
-697.1108280062
 10
234.9530048657
 20
-696.7655143054
  0
LWPOLYLINE
  5
279
330
1F
100
AcDbEntity
  8
0
  6
Continuous
 62
     7
370
    25
100
AcDbPolyline
 90
       10
 70
   128
 43
0.0
 10
164.9530048657
 20
-696.7564933524
 10
164.5795248957
 20
-697.1337090688
 10
164.1979078219
 20
-697.6881149012
 10
163.8837600426
 20
-698.3298924636
 10
163.5821154141
 20
-699.2112992816
 10
163.29530618
 20
-700.4497623967
 10
163.0884115995
 20
-701.7492678252
 10
162.9187828086
 20
-703.28596856
 10
162.8010868408
 20
-704.908482778
 10
162.7976622726
 20
-704.9906540866
  0
LWPOLYLINE
  5
27A
330
1F
100
AcDbEntity
  8
0
  6
Continuous
 62
     7
370
    25
100
AcDbPolyline
 90
        9
 70
   128
 43
0.0
 10
162.871019661
 20
-713.0054024254
 10
162.9009777582
 20
-713.4575122492
 10
163.0534069237
 20
-715.0059619683
 10
163.2499966308
 20
-716.4294052785
 10
163.4983809917
 20
-717.7216255666
 10
163.8334729309
 20
-718.9232361523
 10
164.1928646237
 20
-719.7831180443
 10
164.5734272933
 20
-720.4070276026
 10
164.9530048657
 20
-720.8342438684
  0
LINE
  5
27B
330
1F
100
AcDbEntity
  8
0
  6
Continuous
 62
     7
370
    25
100
AcDbLine
 10
164.5568532196
 20
-1082.321701074
 30
0.0
 11
164.9530048657
 21
-1082.4297985667
 31
0.0
  0
LINE
  5
27C
330
1F
100
AcDbEntity
  8
0
  6
Continuous
 62
     7
370
    25
100
AcDbLine
 10
164.9530048657
 20
-1077.2469965343
 30
0.0
 11
164.3078735834
 21
-1077.070960224
 31
0.0
  0
LINE
  5
27D
330
1F
100
AcDbEntity
  8
0
  6
Continuous
 62
     7
370
    25
100
AcDbLine
 10
162.9916503753
 20
-1081.8946057818
 30
0.0
 11
164.5042413593
 21
-1082.3073449297
 31
0.0
  0
LWPOLYLINE
  5
27E
330
1F
100
AcDbEntity
  8
0
  6
Continuous
 62
     7
370
    25
100
AcDbPolyline
 90
       17
 70
   128
 43
0.0
 10
164.9530048657
 20
-1076.7247739865
 10
164.9346704536
 20
-1076.7247870753
 10
164.0709539419
 20
-1076.751578456
 10
163.290916272
 20
-1076.825687723
 10
162.9029846921
 20
-1076.9060653898
 10
162.4747378739
 20
-1077.056241502
 10
162.0284801571
 20
-1077.3083556223
 10
161.5563078954
 20
-1077.7366574661
 10
161.1653584316
 20
-1078.3544866891
 10
160.9611100081
 20
-1079.1142659327
 10
161.0179497072
 20
-1079.975049419
 10
161.2785669257
 20
-1080.6313330521
 10
161.639122444
 20
-1081.1181629545
 10
162.0357157913
 20
-1081.4608341781
 10
162.4134475345
 20
-1081.6822628287
 10
162.7475961814
 20
-1081.8195997079
 10
162.9916503753
 20
-1081.8946057818
  0
LINE
  5
27F
330
1F
100
AcDbEntity
  8
0
  6
Continuous
 62
     7
370
    25
100
AcDbLine
 10
234.9530048657
 20
-1082.4297985667
 30
0.0
 11
235.3491565119
 21
-1082.3217010739
 31
0.0
  0
LINE
  5
280
330
1F
100
AcDbEntity
  8
0
  6
Continuous
 62
     7
370
    25
100
AcDbLine
 10
235.4017683722
 20
-1082.3073449297
 30
0.0
 11
236.9143593561
 21
-1081.8946057818
 31
0.0
  0
LINE
  5
281
330
1F
100
AcDbEntity
  8
0
  6
Continuous
 62
     7
370
    25
100
AcDbLine
 10
235.5981361481
 20
-1077.070960224
 30
0.0
 11
234.9530048657
 21
-1077.2469965343
 31
0.0
  0
LWPOLYLINE
  5
282
330
1F
100
AcDbEntity
  8
0
  6
Continuous
 62
     7
370
    25
100
AcDbPolyline
 90
       16
 70
   128
 43
0.0
 10
236.9143593561
 20
-1081.8946057818
 10
237.4148076008
 20
-1081.7184580127
 10
237.8488147486
 20
-1081.4757461103
 10
238.2825303567
 20
-1081.1014392637
 10
238.6753829319
 20
-1080.5432075462
 10
238.9203025664
 20
-1079.8212610149
 10
238.9337375968
 20
-1079.0246411463
 10
238.7000577085
 20
-1078.267831635
 10
238.3327679044
 20
-1077.7171140368
 10
237.9088478356
 20
-1077.3306999602
 10
237.4856091833
 20
-1077.0810838539
 10
237.1075094489
 20
-1076.935902246
 10
236.7718152803
 20
-1076.8530450526
 10
236.3925582195
 20
-1076.7959837643
 10
235.7144222343
 20
-1076.745578761
 10
234.9530048657
 20
-1076.7259881341
  0
LINE
  5
283
330
1F
100
AcDbEntity
  8
0
  6
Continuous
 62
     7
370
    25
100
AcDbLine
 10
164.9530048657
 20
-705.5660656628
 30
0.0
 11
164.5568532196
 21
-705.6741631555
 31
0.0
  0
LINE
  5
284
330
1F
100
AcDbEntity
  8
0
  6
Continuous
 62
     7
370
    25
100
AcDbLine
 10
164.5042413593
 20
-705.6885192998
 30
0.0
 11
162.9916503753
 21
-706.1012584477
 31
0.0
  0
LINE
  5
285
330
1F
100
AcDbEntity
  8
0
  6
Continuous
 62
     7
370
    25
100
AcDbLine
 10
164.3078735834
 20
-710.9249040054
 30
0.0
 11
164.9530048657
 21
-710.7488676951
 31
0.0
  0
LWPOLYLINE
  5
286
330
1F
100
AcDbEntity
  8
0
  6
Continuous
 62
     7
370
    25
100
AcDbPolyline
 90
       16
 70
   128
 43
0.0
 10
162.9916503753
 20
-706.1012584477
 10
162.4912021307
 20
-706.2774062168
 10
162.0571949829
 20
-706.5201181192
 10
161.6234793748
 20
-706.8944249658
 10
161.2306267995
 20
-707.4526566832
 10
160.985707165
 20
-708.1746032146
 10
160.9722721347
 20
-708.9712230832
 10
161.2059520229
 20
-709.7280325945
 10
161.5732418271
 20
-710.2787501926
 10
161.9971618959
 20
-710.6651642693
 10
162.4204005481
 20
-710.9147803756
 10
162.7985002826
 20
-711.0599619835
 10
163.1341944512
 20
-711.1428191769
 10
163.513451512
 20
-711.1998804652
 10
164.1915874971
 20
-711.2502854685
 10
164.9530048657
 20
-711.2698760954
  0
LINE
  5
287
330
1F
100
AcDbEntity
  8
0
  6
Continuous
 62
     7
370
    25
100
AcDbLine
 10
235.3491565119
 20
-705.6741631555
 30
0.0
 11
234.9530048657
 21
-705.5660656628
 31
0.0
  0
LINE
  5
288
330
1F
100
AcDbEntity
  8
0
  6
Continuous
 62
     7
370
    25
100
AcDbLine
 10
234.9530048657
 20
-710.7488676952
 30
0.0
 11
235.5981361481
 21
-710.9249040054
 31
0.0
  0
LINE
  5
289
330
1F
100
AcDbEntity
  8
0
  6
Continuous
 62
     7
370
    25
100
AcDbLine
 10
236.9143593561
 20
-706.1012584477
 30
0.0
 11
235.4017683722
 21
-705.6885192998
 31
0.0
  0
LWPOLYLINE
  5
28A
330
1F
100
AcDbEntity
  8
0
  6
Continuous
 62
     7
370
    25
100
AcDbPolyline
 90
       17
 70
   128
 43
0.0
 10
234.9530048657
 20
-711.271090243
 10
234.9713392778
 20
-711.2710771542
 10
235.8350557896
 20
-711.2442857734
 10
236.6150934594
 20
-711.1701765065
 10
237.0030250394
 20
-711.0897988396
 10
237.4312718576
 20
-710.9396227275
 10
237.8775295744
 20
-710.6875086072
 10
238.3497018361
 20
-710.2592067634
 10
238.7406512999
 20
-709.6413775403
 10
238.9448997233
 20
-708.8815982968
 10
238.8880600243
 20
-708.0208148105
 10
238.6274428058
 20
-707.3645311774
 10
238.2668872875
 20
-706.877701275
 10
237.8702939402
 20
-706.5350300514
 10
237.492562197
 20
-706.3136014007
 10
237.1584135501
 20
-706.1762645216
 10
236.9143593561
 20
-706.1012584477
  0
ARC
  5
28B
330
1F
100
AcDbEntity
  8
0
  6
Continuous
 62
     7
370
    25
100
AcDbCircle
 10
455.3711012914
 20
504.691323983
 30
0.0
 40
4.594951861373978
100
AcDbArc
 50
208.7478019044
 51
353.4608288435
  0
ARC
  5
28C
330
1F
100
AcDbEntity
  8
0
  6
Continuous
 62
     7
370
    25
100
AcDbCircle
 10
465.032748575
 20
505.9903821076
 30
0.0
 40
5.396431658163383
100
AcDbArc
 50
179.4870320764
 51
194.7324825607
  0
ARC
  5
28D
330
1F
100
AcDbEntity
  8
0
  6
Continuous
 62
     7
370
    25
100
AcDbCircle
 10
447.1020663429
 20
506.4180796636
 30
0.0
 40
13.04621414976903
100
AcDbArc
 50
347.5225534321
 51
0.5137555663
  0
ARC
  5
28E
330
1F
100
AcDbEntity
  8
0
  6
Continuous
 62
     7
370
    25
100
AcDbCircle
 10
494.3705409339
 20
526.6210283843
 30
0.0
 40
34.89487154846432
100
AcDbArc
 50
171.9998693102
 51
180.6243306754
  0
ARC
  5
28F
330
1F
100
AcDbEntity
  8
0
  6
Continuous
 62
     7
370
    25
100
AcDbCircle
 10
427.0083445323
 20
527.3002251661
 30
0.0
 40
33.24096846467203
100
AcDbArc
 50
359.4924076861
 51
8.9990950371
  0
ARC
  5
290
330
1F
100
AcDbEntity
  8
0
  6
Continuous
 62
     7
370
    25
100
AcDbCircle
 10
443.9992764234
 20
529.7710392886
 30
0.0
 40
7.14695770593694
100
AcDbArc
 50
358.4782693648
 51
13.8433616572
  0
ARC
  5
291
330
1F
100
AcDbEntity
  8
0
  6
Continuous
 62
     7
370
    25
100
AcDbCircle
 10
463.724129046
 20
529.6678551126
 30
0.0
 40
13.12114276684736
100
AcDbArc
 50
167.5360047884
 51
180.5301456477
  0
ARC
  5
292
330
1F
100
AcDbEntity
  8
0
  6
Continuous
 62
     7
370
    25
100
AcDbCircle
 10
455.3761856526
 20
531.4447437314
 30
0.0
 40
4.585834743747732
100
AcDbArc
 50
6.0877233058
 51
173.9122766942
  0
ARC
  5
293
330
1F
100
AcDbEntity
  8
0
  6
Continuous
 62
     7
370
    25
100
AcDbCircle
 10
-42.109305214
 20
529.5763470655
 30
0.0
 40
8.767071899387807
100
AcDbArc
 50
167.4755927296
 51
180.1091648363
  0
ARC
  5
294
330
1F
100
AcDbEntity
  8
0
  6
Continuous
 62
     7
370
    25
100
AcDbCircle
 10
-65.2036053415
 20
529.513948797
 30
0.0
 40
14.86369848906401
100
AcDbArc
 50
0.1928575356
 51
11.588310309
  0
ARC
  5
295
330
1F
100
AcDbEntity
  8
0
  6
Continuous
 62
     7
370
    25
100
AcDbCircle
 10
-95.6698093898
 20
526.5454044788
 30
0.0
 40
36.4610330230741
100
AcDbArc
 50
359.4815829025
 51
7.7799293378
  0
ARC
  5
296
330
1F
100
AcDbEntity
  8
0
  6
Continuous
 62
     7
370
    25
100
AcDbCircle
 10
-22.7098962364
 20
526.995913256
 30
0.0
 40
37.26953692928009
100
AcDbArc
 50
171.5077126545
 51
179.985211764
  0
ARC
  5
297
330
1F
100
AcDbEntity
  8
0
  6
Continuous
 62
     7
370
    25
100
AcDbCircle
 10
-55.1068426998
 20
531.4447437314
 30
0.0
 40
4.58583474374776
100
AcDbArc
 50
6.0877233058
 51
173.9122766942
  0
LWPOLYLINE
  5
298
330
1F
100
AcDbEntity
  8
0
  6
Continuous
 62
     7
370
    25
100
AcDbPolyline
 90
        3
 70
   128
 43
0.0
 10
-59.3646749516
 20
506.0319008511
 10
-59.4536852058
 20
504.9555747341
 10
-59.5459320012
 20
504.6215810381
  0
ARC
  5
299
330
1F
100
AcDbEntity
  8
0
  6
Continuous
 62
     7
370
    25
100
AcDbCircle
 10
-44.9127336825
 20
506.6002868349
 30
0.0
 40
14.96209859058183
100
AcDbArc
 50
180.1700914911
 51
191.5701473279
  0
ARC
  5
29A
330
1F
100
AcDbEntity
  8
0
  6
Continuous
 62
     7
370
    25
100
AcDbCircle
 10
-55.1222757443
 20
504.6499028994
 30
0.0
 40
4.570015641377766
100
AcDbArc
 50
186.0525285267
 51
331.8250000014
  0
ARC
  5
29B
330
1F
100
AcDbEntity
  8
0
  6
Continuous
 62
     7
370
    25
100
AcDbCircle
 10
-55.1018906307
 20
1260.453325102
 30
0.0
 40
4.594796069531998
100
AcDbArc
 50
28.6773068032
 51
173.4632914539
  0
ARC
  5
29C
330
1F
100
AcDbEntity
  8
0
  6
Continuous
 62
     7
370
    25
100
AcDbCircle
 10
-64.8410636115
 20
1259.1388367553
 30
0.0
 40
5.475408450726848
100
AcDbArc
 50
359.4268114173
 51
14.6798173644
  0
ARC
  5
29D
330
1F
100
AcDbEntity
  8
0
  6
Continuous
 62
     7
370
    25
100
AcDbCircle
 10
-46.7309877548
 20
1258.7081908488
 30
0.0
 40
13.14947215335425
100
AcDbArc
 50
167.5410497017
 51
180.5362901046
  0
ARC
  5
29E
330
1F
100
AcDbEntity
  8
0
  6
Continuous
 62
     7
370
    25
100
AcDbCircle
 10
-94.2110541781
 20
1238.534621698
 30
0.0
 40
35.00521969131463
100
AcDbArc
 50
352.0067167392
 51
0.6341143214
  0
ARC
  5
29F
330
1F
100
AcDbEntity
  8
0
  6
Continuous
 62
     7
370
    25
100
AcDbCircle
 10
-26.7380249535
 20
1237.8443294437
 30
0.0
 40
33.24195175639705
100
AcDbArc
 50
179.4923228461
 51
188.9990351186
  0
ARC
  5
2A0
330
1F
100
AcDbEntity
  8
0
  6
Continuous
 62
     7
370
    25
100
AcDbCircle
 10
-43.7245200526
 20
1235.3744599033
 30
0.0
 40
7.152468481652772
100
AcDbArc
 50
178.4759056963
 51
193.8412619525
  0
ARC
  5
2A1
330
1F
100
AcDbEntity
  8
0
  6
Continuous
 62
     7
370
    25
100
AcDbCircle
 10
-63.4483413452
 20
1235.4754293165
 30
0.0
 40
13.11460155914656
100
AcDbArc
 50
347.5348367588
 51
0.5287228414
  0
ARC
  5
2A2
330
1F
100
AcDbEntity
  8
0
  6
Continuous
 62
     7
370
    25
100
AcDbCircle
 10
-55.1068426998
 20
1233.6996914086
 30
0.0
 40
4.5858347437477
100
AcDbArc
 50
186.0877233058
 51
353.9122766942
  0
LWPOLYLINE
  5
2A3
330
1F
100
AcDbEntity
  8
0
  6
Continuous
 62
     7
370
    25
100
AcDbPolyline
 90
        3
 70
   128
 43
0.0
 10
459.6358631374
 20
1259.1348471388
 10
459.7230281587
 20
1260.1888604059
 10
459.815274954
 20
1260.522854102
  0
ARC
  5
2A4
330
1F
100
AcDbEntity
  8
0
  6
Continuous
 62
     7
370
    25
100
AcDbCircle
 10
445.3018676027
 20
1258.5627539761
 30
0.0
 40
14.84101122939796
100
AcDbArc
 50
0.1981550017
 51
11.5925335273
  0
ARC
  5
2A5
330
1F
100
AcDbEntity
  8
0
  6
Continuous
 62
     7
370
    25
100
AcDbCircle
 10
455.391781019
 20
1260.4947051001
 30
0.0
 40
4.569836000664727
100
AcDbArc
 50
6.0505879152
 51
151.7589412063
  0
ARC
  5
2A6
330
1F
100
AcDbEntity
  8
0
  6
Continuous
 62
     7
370
    25
100
AcDbCircle
 10
442.3848574798
 20
1235.5670760249
 30
0.0
 40
8.76079088386133
100
AcDbArc
 50
347.4732477594
 51
0.1064156783
  0
ARC
  5
2A7
330
1F
100
AcDbEntity
  8
0
  6
Continuous
 62
     7
370
    25
100
AcDbCircle
 10
465.4833110772
 20
1235.6320957816
 30
0.0
 40
14.87417334907432
100
AcDbArc
 50
180.1904178351
 51
191.5863649426
  0
ARC
  5
2A8
330
1F
100
AcDbEntity
  8
0
  6
Continuous
 62
     7
370
    25
100
AcDbCircle
 10
495.7960253895
 20
1238.5841306173
 30
0.0
 40
36.31720680381859
100
AcDbArc
 50
179.492098239
 51
187.7872054329
  0
ARC
  5
2A9
330
1F
100
AcDbEntity
  8
0
  6
Continuous
 62
     7
370
    25
100
AcDbCircle
 10
422.9811992151
 20
1238.1483097458
 30
0.0
 40
37.2675670659003
100
AcDbArc
 50
351.5075902193
 51
359.9850080651
  0
ARC
  5
2AA
330
1F
100
AcDbEntity
  8
0
  6
Continuous
 62
     7
370
    25
100
AcDbCircle
 10
455.3761856526
 20
1233.6996914086
 30
0.0
 40
4.585834743747673
100
AcDbArc
 50
186.0877233058
 51
353.9122766942
  0
ARC
  5
2AB
330
1F
100
AcDbEntity
  8
0
  6
Continuous
 62
     7
370
    25
100
AcDbCircle
 10
237.677710229
 20
-1205.2543864435
 30
0.0
 40
122.2866731993977
100
AcDbArc
 50
84.9787006301
 51
91.2767297845
  0
ARC
  5
2AC
330
1F
100
AcDbEntity
  8
0
  6
Continuous
 62
     7
370
    25
100
AcDbCircle
 10
243.1797435076
 20
-1040.2888567892
 30
0.0
 40
43.61928531279374
100
AcDbArc
 50
269.3222700995
 51
278.2027485414
  0
ARC
  5
2AD
330
1F
100
AcDbEntity
  8
0
  6
Continuous
 62
     7
370
    25
100
AcDbCircle
 10
248.3481907357
 20
-1078.9979321147
 30
0.0
 40
4.585834743747655
100
AcDbArc
 50
276.0877233058
 51
83.9122766942
  0
ARC
  5
2AE
330
1F
100
AcDbEntity
  8
0
  6
Continuous
 62
     7
370
    25
100
AcDbCircle
 10
238.0380006433
 20
-963.2883559098
 30
0.0
 40
111.7520262152827
100
AcDbArc
 50
268.4181074655
 51
275.312319814
  0
ARC
  5
2AF
330
1F
100
AcDbEntity
  8
0
  6
Continuous
 62
     7
370
    25
100
AcDbCircle
 10
243.1078535983
 20
-1118.7086924277
 30
0.0
 40
44.6210371504178
100
AcDbArc
 50
81.889398216
 51
90.562129493
  0
ARC
  5
2B0
330
1F
100
AcDbEntity
  8
0
  6
Continuous
 62
     7
370
    25
100
AcDbCircle
 10
237.677710229
 20
-835.2543864437
 30
0.0
 40
122.2866731995795
100
AcDbArc
 50
84.9787006301
 51
91.2767297845
  0
ARC
  5
2B1
330
1F
100
AcDbEntity
  8
0
  6
Continuous
 62
     7
370
    25
100
AcDbCircle
 10
243.1797435076
 20
-670.2888567891
 30
0.0
 40
43.61928531287595
100
AcDbArc
 50
269.3222700996
 51
278.2027485414
  0
ARC
  5
2B2
330
1F
100
AcDbEntity
  8
0
  6
Continuous
 62
     7
370
    25
100
AcDbCircle
 10
248.3481907357
 20
-708.9979321147
 30
0.0
 40
4.585834743747768
100
AcDbArc
 50
276.0877233058
 51
83.9122766942
  0
ARC
  5
2B3
330
1F
100
AcDbEntity
  8
0
  6
Continuous
 62
     7
370
    25
100
AcDbCircle
 10
238.0380006433
 20
-593.28835591
 30
0.0
 40
111.7520262150964
100
AcDbArc
 50
268.4181074655
 51
275.312319814
  0
ARC
  5
2B4
330
1F
100
AcDbEntity
  8
0
  6
Continuous
 62
     7
370
    25
100
AcDbCircle
 10
243.1078535983
 20
-748.7086924277
 30
0.0
 40
44.6210371503611
100
AcDbArc
 50
81.889398216
 51
90.562129493
  0
ARC
  5
2B5
330
1F
100
AcDbEntity
  8
0
  6
Continuous
 62
     7
370
    25
100
AcDbCircle
 10
162.2282995025
 20
-582.7414777857
 30
0.0
 40
122.2866731996318
100
AcDbArc
 50
264.9787006301
 51
271.2767297845
  0
ARC
  5
2B6
330
1F
100
AcDbEntity
  8
0
  6
Continuous
 62
     7
370
    25
100
AcDbCircle
 10
156.7262662239
 20
-747.7070074402
 30
0.0
 40
43.61928531268592
100
AcDbArc
 50
89.3222700995
 51
98.2027485414
  0
ARC
  5
2B7
330
1F
100
AcDbEntity
  8
0
  6
Continuous
 62
     7
370
    25
100
AcDbCircle
 10
161.8680090881
 20
-824.7075083196
 30
0.0
 40
111.7520262151506
100
AcDbArc
 50
88.4181074655
 51
95.312319814
  0
ARC
  5
2B8
330
1F
100
AcDbEntity
  8
0
  6
Continuous
 62
     7
370
    25
100
AcDbCircle
 10
156.7981561332
 20
-669.2871718018
 30
0.0
 40
44.6210371503803
100
AcDbArc
 50
261.889398216
 51
270.562129493
  0
ARC
  5
2B9
330
1F
100
AcDbEntity
  8
0
  6
Continuous
 62
     7
370
    25
100
AcDbCircle
 10
151.5578189957
 20
-708.9979321147
 30
0.0
 40
4.58583474374778
100
AcDbArc
 50
96.0877233058
 51
263.9122766942
  0
ARC
  5
2BA
330
1F
100
AcDbEntity
  8
0
  6
Continuous
 62
     7
370
    25
100
AcDbCircle
 10
162.2282995025
 20
-952.7414777855
 30
0.0
 40
122.286673199777
100
AcDbArc
 50
264.9787006302
 51
271.2767297845
  0
ARC
  5
2BB
330
1F
100
AcDbEntity
  8
0
  6
Continuous
 62
     7
370
    25
100
AcDbCircle
 10
156.7262662239
 20
-1117.7070074401
 30
0.0
 40
43.61928531261835
100
AcDbArc
 50
89.3222700995
 51
98.2027485414
  0
ARC
  5
2BC
330
1F
100
AcDbEntity
  8
0
  6
Continuous
 62
     7
370
    25
100
AcDbCircle
 10
161.8680090881
 20
-1194.7075083195
 30
0.0
 40
111.7520262150824
100
AcDbArc
 50
88.4181074655
 51
95.312319814
  0
ARC
  5
2BD
330
1F
100
AcDbEntity
  8
0
  6
Continuous
 62
     7
370
    25
100
AcDbCircle
 10
156.7981561332
 20
-1039.2871718018
 30
0.0
 40
44.62103715034329
100
AcDbArc
 50
261.889398216
 51
270.562129493
  0
ARC
  5
2BE
330
1F
100
AcDbEntity
  8
0
  6
Continuous
 62
     7
370
    25
100
AcDbCircle
 10
151.5578189957
 20
-1078.9979321147
 30
0.0
 40
4.585834743747655
100
AcDbArc
 50
96.0877233058
 51
263.9122766942
  0
LINE
  5
2BF
330
1F
100
AcDbEntity
  8
0
  6
Continuous
 62
     7
370
    25
100
AcDbLine
 10
-1.7632990236
 20
-188.0389547258
 30
0.0
 11
-1.7632990236
 21
-193.0389547258
 31
0.0
  0
LINE
  5
2C0
330
1F
100
AcDbEntity
  8
0
  6
Continuous
 62
     7
370
    25
100
AcDbLine
 10
401.6693087551
 20
-193.0389547258
 30
0.0
 11
401.6693087551
 21
-188.0389547258
 31
0.0
  0
LINE
  5
2C1
330
1F
100
AcDbEntity
  8
0
  6
Continuous
 62
     7
370
    25
100
AcDbLine
 10
401.6693087551
 20
-1427.6423607814
 30
0.0
 11
401.6693087551
 21
-1424.7522250506
 31
0.0
  0
LINE
  5
2C2
330
1F
100
AcDbEntity
  8
0
  6
Continuous
 62
     7
370
    25
100
AcDbLine
 10
-1.7632990236
 20
-1424.7522250506
 30
0.0
 11
-1.7632990236
 21
-1427.6423607814
 31
0.0
  0
LINE
  5
2C3
330
1F
100
AcDbEntity
  8
0
  6
Continuous
 62
     7
370
    25
100
AcDbLine
 10
401.6693087551
 20
-108.0389547258
 30
0.0
 11
401.6693087551
 21
-103.0389547258
 31
0.0
  0
LINE
  5
2C4
330
1F
100
AcDbEntity
  8
0
  6
Continuous
 62
     7
370
    25
100
AcDbLine
 10
-1.7632990236
 20
-103.0389547258
 30
0.0
 11
-1.7632990236
 21
-108.0389547258
 31
0.0
  0
LINE
  5
2C5
330
1F
100
AcDbEntity
  8
0
  6
Continuous
 62
     7
370
    25
100
AcDbLine
 10
401.6693087551
 20
1628.674315599
 30
0.0
 11
401.6693087551
 21
1633.5039447305
 31
0.0
  0
LINE
  5
2C6
330
1F
100
AcDbEntity
  8
0
  6
Continuous
 62
     7
370
    25
100
AcDbLine
 10
-1.7632990236
 20
1633.5039447305
 30
0.0
 11
-1.7632990236
 21
1628.674315599
 31
0.0
  0
LINE
  5
2C7
330
1F
100
AcDbEntity
  8
0
  6
Continuous
 62
     7
370
    25
100
AcDbLine
 10
113.1086792907
 20
1664.7067083021
 30
0.0
 11
113.1086792907
 21
1599.0237521145
 31
0.0
  0
LINE
  5
2C8
330
1F
100
AcDbEntity
  8
0
  6
Continuous
 62
     7
370
    25
100
AcDbLine
 10
178.4468011623
 20
1679.493868697
 30
0.0
 11
118.4063648479
 21
1671.2313123494
 31
0.0
  0
LINE
  5
2C9
330
1F
100
AcDbEntity
  8
0
  6
Continuous
 62
     7
370
    25
100
AcDbLine
 10
113.1086792907
 20
1664.7067083021
 30
0.0
 11
-1057.777125945
 21
2234.6562483888
 31
0.0
  0
ELLIPSE
  5
2CA
330
1F
100
AcDbEntity
  8
0
  6
Continuous
 62
     7
370
    25
100
AcDbEllipse
 10
-1050.9817056409
 20
2234.6562483888
 30
0.0
 11
-6.325541598618428
 21
3.079070143997796
 31
0.0
210
0.0
220
0.0
230
1.0
 40
0.8528618832
 41
5.231020672037372
 42
6.801816998832297
  0
LINE
  5
2CB
330
1F
100
AcDbEntity
  8
0
  6
Continuous
 62
     7
370
    25
100
AcDbLine
 10
118.4063648479
 20
1671.2313123494
 30
0.0
 11
-1051.8365323178
 21
2240.8679054713
 31
0.0
  0
LINE
  5
2CC
330
1F
100
AcDbEntity
  8
0
  6
Continuous
 62
     7
370
    25
100
AcDbLine
 10
113.1086792907
 20
1599.0237521145
 30
0.0
 11
-1048.0890902732
 21
2164.2574681209
 31
0.0
  0
LINE
  5
2CD
330
1F
100
AcDbEntity
  8
0
  6
Continuous
 62
     7
370
    25
100
AcDbLine
 10
-1057.777125945
 20
2234.6562483888
 30
0.0
 11
-1048.0890902732
 21
2164.2574681209
 31
0.0
  0
LINE
  5
2CE
330
1F
100
AcDbEntity
  8
0
  6
Continuous
 62
     7
370
    25
100
AcDbLine
 10
-974.821768871
 20
2240.8679054713
 30
0.0
 11
-1051.8365323178
 21
2240.8679054713
 31
0.0
  0
ELLIPSE
  5
2CF
330
1F
100
AcDbEntity
  8
0
  6
Continuous
 62
     7
370
    25
100
AcDbEllipse
 10
-1041.293669969
 20
2164.2574681209
 30
0.0
 11
-6.325541598618655
 21
3.079070143997796
 31
0.0
210
0.0
220
0.0
230
1.0
 40
0.8528618832
 41
0.5186316916527012
 42
1.570796326794885
  0
ELLIPSE
  5
2D0
330
1F
100
AcDbEntity
  8
0
  6
Continuous
 62
     7
370
    25
100
AcDbEllipse
 10
-973.9669421941
 20
2234.6562483888
 30
0.0
 11
-6.325541598618543
 21
3.079070143997797
 31
0.0
210
0.0
220
0.0
230
1.0
 40
0.8528618832
 41
4.712388980384782
 42
5.231020672037394
  0
LINE
  5
2D1
330
1F
100
AcDbEntity
  8
0
  6
Continuous
 62
     7
370
    25
100
AcDbLine
 10
281.4996448836
 20
1671.2313123494
 30
0.0
 11
221.4592085692
 21
1679.493868697
 31
0.0
  0
LINE
  5
2D2
330
1F
100
AcDbEntity
  8
0
  6
Continuous
 62
     7
370
    25
100
AcDbLine
 10
286.7973304408
 20
1599.0237521145
 30
0.0
 11
286.7973304408
 21
1664.7067083021
 31
0.0
  0
LINE
  5
2D3
330
1F
100
AcDbEntity
  8
0
  6
Continuous
 62
     7
370
    25
100
AcDbLine
 10
281.4996448836
 20
1671.2313123494
 30
0.0
 11
1451.7425420493
 21
2240.8679054713
 31
0.0
  0
ELLIPSE
  5
2D4
330
1F
100
AcDbEntity
  8
0
  6
Continuous
 62
     7
370
    25
100
AcDbEllipse
 10
1450.8877153724
 20
2234.6562483888
 30
0.0
 11
6.325541598618428
 21
3.079070143997796
 31
0.0
210
0.0
220
0.0
230
1.0
 40
0.8528618832
 41
5.764553615526898
 42
7.335349942321692
  0
LINE
  5
2D5
330
1F
100
AcDbEntity
  8
0
  6
Continuous
 62
     7
370
    25
100
AcDbLine
 10
286.7973304408
 20
1664.7067083021
 30
0.0
 11
1457.6831356765
 21
2234.6562483888
 31
0.0
  0
LINE
  5
2D6
330
1F
100
AcDbEntity
  8
0
  6
Continuous
 62
     7
370
    25
100
AcDbLine
 10
1447.9951000046
 20
2164.2574681209
 30
0.0
 11
1457.6831356765
 21
2234.6562483888
 31
0.0
  0
LINE
  5
2D7
330
1F
100
AcDbEntity
  8
0
  6
Continuous
 62
     7
370
    25
100
AcDbLine
 10
286.7973304408
 20
1599.0237521145
 30
0.0
 11
1447.9951000046
 21
2164.2574681209
 31
0.0
  0
LINE
  5
2D8
330
1F
100
AcDbEntity
  8
0
  6
Continuous
 62
     7
370
    25
100
AcDbLine
 10
1451.7425420493
 20
2240.8679054713
 30
0.0
 11
1374.7277786025
 21
2240.8679054713
 31
0.0
  0
ELLIPSE
  5
2D9
330
1F
100
AcDbEntity
  8
0
  6
Continuous
 62
     7
370
    25
100
AcDbEllipse
 10
1441.1996797005
 20
2164.2574681209
 30
0.0
 11
6.325541598618655
 21
3.079070143997796
 31
0.0
210
0.0
220
0.0
230
1.0
 40
0.8528618832
 41
4.712388980384714
 42
5.764553615526893
  0
ELLIPSE
  5
2DA
330
1F
100
AcDbEntity
  8
0
  6
Continuous
 62
     7
370
    25
100
AcDbEllipse
 10
1373.8729519255
 20
2234.6562483888
 30
0.0
 11
6.325541598618428
 21
3.079070143997796
 31
0.0
210
0.0
220
0.0
230
1.0
 40
0.8528618832
 41
1.052164635142273
 42
1.570796326794896
  0
LINE
  5
2DB
330
1F
100
AcDbEntity
  8
0
  6
Continuous
 62
     7
370
    25
100
AcDbLine
 10
286.7973304408
 20
-1440.7746177537
 30
0.0
 11
286.7973304408
 21
-1375.0916615661
 31
0.0
  0
LINE
  5
2DC
330
1F
100
AcDbEntity
  8
0
  6
Continuous
 62
     7
370
    25
100
AcDbLine
 10
221.4592085692
 20
-1455.5617781486
 30
0.0
 11
281.4996448836
 21
-1447.2992218009
 31
0.0
  0
LINE
  5
2DD
330
1F
100
AcDbEntity
  8
0
  6
Continuous
 62
     7
370
    25
100
AcDbLine
 10
286.7973304408
 20
-1440.7746177537
 30
0.0
 11
1457.6831356765
 21
-2010.7241578404
 31
0.0
  0
ELLIPSE
  5
2DE
330
1F
100
AcDbEntity
  8
0
  6
Continuous
 62
     7
370
    25
100
AcDbEllipse
 10
1450.8877153724
 20
-2010.7241578404
 30
0.0
 11
6.325541598618428
 21
-3.079070143997796
 31
0.0
210
0.0
220
0.0
230
1.0
 40
0.8528618832
 41
5.231020672037372
 42
6.801816998832297
  0
LINE
  5
2DF
330
1F
100
AcDbEntity
  8
0
  6
Continuous
 62
     7
370
    25
100
AcDbLine
 10
281.4996448836
 20
-1447.2992218009
 30
0.0
 11
1451.7425420493
 21
-2016.9358149229
 31
0.0
  0
LINE
  5
2E0
330
1F
100
AcDbEntity
  8
0
  6
Continuous
 62
     7
370
    25
100
AcDbLine
 10
286.7973304408
 20
-1375.0916615661
 30
0.0
 11
1447.9951000046
 21
-1940.3253775725
 31
0.0
  0
LINE
  5
2E1
330
1F
100
AcDbEntity
  8
0
  6
Continuous
 62
     7
370
    25
100
AcDbLine
 10
1457.6831356765
 20
-2010.7241578404
 30
0.0
 11
1447.9951000046
 21
-1940.3253775725
 31
0.0
  0
LINE
  5
2E2
330
1F
100
AcDbEntity
  8
0
  6
Continuous
 62
     7
370
    25
100
AcDbLine
 10
1374.7277786025
 20
-2016.9358149229
 30
0.0
 11
1451.7425420493
 21
-2016.9358149229
 31
0.0
  0
ELLIPSE
  5
2E3
330
1F
100
AcDbEntity
  8
0
  6
Continuous
 62
     7
370
    25
100
AcDbEllipse
 10
1441.1996797005
 20
-1940.3253775725
 30
0.0
 11
6.325541598618655
 21
-3.079070143997796
 31
0.0
210
0.0
220
0.0
230
1.0
 40
0.8528618832
 41
0.5186316916526279
 42
1.570796326794885
  0
ELLIPSE
  5
2E4
330
1F
100
AcDbEntity
  8
0
  6
Continuous
 62
     7
370
    25
100
AcDbEllipse
 10
1373.8729519255
 20
-2010.7241578404
 30
0.0
 11
6.325541598618428
 21
-3.079070143997796
 31
0.0
210
0.0
220
0.0
230
1.0
 40
0.8528618832
 41
4.712388980384716
 42
5.231020672037304
  0
LINE
  5
2E5
330
1F
100
AcDbEntity
  8
0
  6
Continuous
 62
     7
370
    25
100
AcDbLine
 10
118.4063648478
 20
-1447.2992218009
 30
0.0
 11
178.4468011623
 21
-1455.5617781486
 31
0.0
  0
LINE
  5
2E6
330
1F
100
AcDbEntity
  8
0
  6
Continuous
 62
     7
370
    25
100
AcDbLine
 10
113.1086792907
 20
-1375.0916615661
 30
0.0
 11
113.1086792907
 21
-1440.7746177537
 31
0.0
  0
LINE
  5
2E7
330
1F
100
AcDbEntity
  8
0
  6
Continuous
 62
     7
370
    25
100
AcDbLine
 10
118.4063648478
 20
-1447.2992218009
 30
0.0
 11
-1051.8365323178
 21
-2016.9358149229
 31
0.0
  0
ELLIPSE
  5
2E8
330
1F
100
AcDbEntity
  8
0
  6
Continuous
 62
     7
370
    25
100
AcDbEllipse
 10
-1050.9817056409
 20
-2010.7241578404
 30
0.0
 11
-6.325541598618655
 21
-3.079070143997796
 31
0.0
210
0.0
220
0.0
230
1.0
 40
0.8528618832
 41
5.764553615526907
 42
7.335349942321725
  0
LINE
  5
2E9
330
1F
100
AcDbEntity
  8
0
  6
Continuous
 62
     7
370
    25
100
AcDbLine
 10
113.1086792907
 20
-1440.7746177537
 30
0.0
 11
-1057.777125945
 21
-2010.7241578404
 31
0.0
  0
LINE
  5
2EA
330
1F
100
AcDbEntity
  8
0
  6
Continuous
 62
     7
370
    25
100
AcDbLine
 10
-1048.0890902732
 20
-1940.3253775725
 30
0.0
 11
-1057.777125945
 21
-2010.7241578404
 31
0.0
  0
LINE
  5
2EB
330
1F
100
AcDbEntity
  8
0
  6
Continuous
 62
     7
370
    25
100
AcDbLine
 10
113.1086792907
 20
-1375.0916615661
 30
0.0
 11
-1048.0890902732
 21
-1940.3253775725
 31
0.0
  0
LINE
  5
2EC
330
1F
100
AcDbEntity
  8
0
  6
Continuous
 62
     7
370
    25
100
AcDbLine
 10
-1051.8365323178
 20
-2016.9358149229
 30
0.0
 11
-974.821768871
 21
-2016.9358149229
 31
0.0
  0
ELLIPSE
  5
2ED
330
1F
100
AcDbEntity
  8
0
  6
Continuous
 62
     7
370
    25
100
AcDbEllipse
 10
-1041.293669969
 20
-1940.3253775725
 30
0.0
 11
-6.325541598618428
 21
-3.079070143997796
 31
0.0
210
0.0
220
0.0
230
1.0
 40
0.8528618832
 41
4.712388980384643
 42
5.764553615526839
  0
ELLIPSE
  5
2EE
330
1F
100
AcDbEntity
  8
0
  6
Continuous
 62
     7
370
    25
100
AcDbEllipse
 10
-973.9669421941
 20
-2010.7241578404
 30
0.0
 11
-6.325541598618543
 21
-3.079070143997797
 31
0.0
210
0.0
220
0.0
230
1.0
 40
0.8528618832
 41
1.05216463514229
 42
1.570796326794874
  0
ELLIPSE
  5
2EF
330
1F
100
AcDbEntity
  8
0
  6
Continuous
 62
     7
370
    25
100
AcDbEllipse
 10
283.2095445366
 20
-1443.5798724716
 30
0.0
 11
2.998773681546481
 21
-0.8617472700693725
 31
0.0
210
0.0
220
0.0
230
1.0
 40
0.0995297594
 41
0.5172859195953247
 42
2.088082246388966
  0
ARC
  5
2F0
330
1F
100
AcDbEntity
  8
0
  6
Continuous
 62
     7
370
    25
100
AcDbCircle
 10
283.6733080019
 20
-1444.2114352646
 30
0.0
 40
2.185287469008423
100
AcDbArc
 50
281.0590774566
 51
0.7908260166
  0
ELLIPSE
  5
2F1
330
1F
100
AcDbEntity
  8
0
  6
Continuous
 62
     7
370
    25
100
AcDbEllipse
 10
283.2095445366
 20
-1443.5798724716
 30
0.0
 11
-1.364801465833807
 21
2.822611378187958
 31
0.0
210
0.0
220
0.0
230
1.0
 40
0.3362030933
 41
1.167547367324373
 42
2.738343694119418
  0
LINE
  5
2F2
330
1F
100
AcDbEntity
  8
0
  6
Continuous
 62
     7
370
    25
100
AcDbLine
 10
281.8011298483
 20
-1442.894301513
 30
0.0
 11
281.8011298483
 21
-1371.4157903676
 31
0.0
  0
ELLIPSE
  5
2F3
330
1F
100
AcDbEntity
  8
0
  6
Continuous
 62
     7
370
    25
100
AcDbEllipse
 10
283.2095445366
 20
-1372.1013613262
 30
0.0
 11
2.976584842305499
 21
0.9995732953377683
 31
0.0
210
0.0
220
0.0
230
1.0
 40
0.3742488229
 41
0.3636703773324798
 42
1.934466704127527
  0
LINE
  5
2F4
330
1F
100
AcDbEntity
  8
0
  6
Continuous
 62
     7
370
    25
100
AcDbLine
 10
285.8583873152
 20
-1370.7709109552
 30
0.0
 11
285.8583873152
 21
-1444.1812737532
 31
0.0
  0
LINE
  5
2F5
330
1F
100
AcDbEntity
  8
0
  6
Continuous
 62
     7
370
    25
100
AcDbLine
 10
216.4630079767
 20
-1451.8859069502
 30
0.0
 11
281.8011298483
 21
-1442.894301513
 31
0.0
  0
LINE
  5
2F6
330
1F
100
AcDbEntity
  8
0
  6
Continuous
 62
     7
370
    25
100
AcDbLine
 10
284.0924921295
 20
-1446.3561417689
 30
0.0
 11
216.9884750722
 21
-1455.5907635692
 31
0.0
  0
ELLIPSE
  5
2F7
330
1F
100
AcDbEntity
  8
0
  6
Continuous
 62
     7
370
    25
100
AcDbEllipse
 10
217.8714226651
 20
-1452.5714779088
 30
0.0
 11
0.7240925576324173
 21
3.076041367607104
 31
0.0
210
0.0
220
0.0
230
1.0
 40
0.4864373979
 41
1.461527857977781
 42
3.032324184772655
  0
LINE
  5
2F8
330
1F
100
AcDbEntity
  8
0
  6
Continuous
 62
     7
370
    25
100
AcDbLine
 10
216.4630079767
 20
-1380.4073958048
 30
0.0
 11
216.4630079767
 21
-1451.8859069502
 31
0.0
  0
LINE
  5
2F9
330
1F
100
AcDbEntity
  8
0
  6
Continuous
 62
     7
370
    25
100
AcDbLine
 10
281.8011298483
 20
-1371.4157903676
 30
0.0
 11
216.4630079767
 21
-1380.4073958048
 31
0.0
  0
LWPOLYLINE
  5
2FA
330
1F
100
AcDbEntity
  8
0
  6
Continuous
 62
     7
370
    25
100
AcDbPolyline
 90
       17
 70
   128
 43
0.0
 10
249.1320689125
 20
-1410.6849228326
 10
248.7941794971
 20
-1410.8049487261
 10
248.5077306821
 20
-1411.0537552162
 10
248.3163317032
 20
-1411.3934637703
 10
248.2491213196
 20
-1411.7723568405
 10
248.3163317032
 20
-1412.1327513915
 10
248.5077306821
 20
-1412.41978062
 10
248.7941794971
 20
-1412.5897469277
 10
249.1320689125
 20
-1412.6167744852
 10
249.4699583279
 20
-1412.4967485918
 10
249.7564071428
 20
-1412.2479421016
 10
249.9478061218
 20
-1411.9082335475
 10
250.0150165053
 20
-1411.5293404773
 10
249.9478061218
 20
-1411.1689459263
 10
249.7564071428
 20
-1410.8819166978
 10
249.4699583279
 20
-1410.7119503901
 10
249.1320689125
 20
-1410.6849228326
  0
ARC
  5
2FB
330
1F
100
AcDbEntity
  8
0
  6
Continuous
 62
     7
370
    25
100
AcDbCircle
 10
284.6122511275
 20
-1444.6684825704
 30
0.0
 40
2.18528746900799
100
AcDbArc
 50
281.0590774566
 51
0.7908260166
  0
LINE
  5
2FC
330
1F
100
AcDbEntity
  8
0
  6
Continuous
 62
     7
370
    25
100
AcDbLine
 10
284.0924921295
 20
-1446.3561417689
 30
0.0
 11
285.0314352551
 21
-1446.8131890746
 31
0.0
  0
LINE
  5
2FD
330
1F
100
AcDbEntity
  8
0
  6
Continuous
 62
     7
370
    25
100
AcDbLine
 10
285.8583873152
 20
-1444.1812737532
 30
0.0
 11
286.7973304408
 21
-1444.6383210589
 31
0.0
  0
LINE
  5
2FE
330
1F
100
AcDbEntity
  8
0
  6
Continuous
 62
     7
370
    25
100
AcDbLine
 10
286.7973304408
 20
-1444.6383210589
 30
0.0
 11
286.7973304408
 21
-1371.2279582609
 31
0.0
  0
LINE
  5
2FF
330
1F
100
AcDbEntity
  8
0
  6
Continuous
 62
     7
370
    25
100
AcDbLine
 10
285.8583873152
 20
-1370.7709109552
 30
0.0
 11
286.7973304408
 21
-1371.2279582609
 31
0.0
  0
LINE
  5
300
330
1F
100
AcDbEntity
  8
0
  6
Continuous
 62
     7
370
    25
100
AcDbLine
 10
217.9274181978
 20
-1456.0478108749
 30
0.0
 11
285.0314352551
 21
-1446.8131890746
 31
0.0
  0
LINE
  5
301
330
1F
100
AcDbEntity
  8
0
  6
Continuous
 62
     7
370
    25
100
AcDbLine
 10
216.9884750722
 20
-1455.5907635692
 30
0.0
 11
217.9274181978
 21
-1456.0478108749
 31
0.0
  0
ARC
  5
302
330
1F
100
AcDbEntity
  8
0
  6
Continuous
 62
     7
370
    25
100
AcDbCircle
 10
285.1249309731
 20
-1371.1529934894
 30
0.0
 40
1.674078760489871
100
AcDbArc
 50
357.4334530259
 51
62.1583283125
  0
ARC
  5
303
330
1F
100
AcDbEntity
  8
0
  6
Continuous
 62
     7
370
    25
100
AcDbCircle
 10
217.7080241118
 20
-1454.5506777424
 30
0.0
 40
1.513123055639818
100
AcDbArc
 50
244.3097961816
 51
278.3369440527
  0
ELLIPSE
  5
304
330
1F
100
AcDbEntity
  8
0
  6
Continuous
 62
     7
370
    25
100
AcDbEllipse
 10
116.6964651949
 20
1667.51196302
 30
0.0
 11
2.99877368154641
 21
-0.8617472700693726
 31
0.0
210
0.0
220
0.0
230
1.0
 40
0.0995297594
 41
3.658878573184274
 42
5.22967489997951
  0
ARC
  5
305
330
1F
100
AcDbEntity
  8
0
  6
Continuous
 62
     7
370
    25
100
AcDbCircle
 10
116.2327017296
 20
1668.1435258131
 30
0.0
 40
2.185287469007976
100
AcDbArc
 50
101.0590774565
 51
180.7908260166
  0
ELLIPSE
  5
306
330
1F
100
AcDbEntity
  8
0
  6
Continuous
 62
     7
370
    25
100
AcDbEllipse
 10
116.6964651949
 20
1667.51196302
 30
0.0
 11
-1.364801465833892
 21
2.822611378187958
 31
0.0
210
0.0
220
0.0
230
1.0
 40
0.3362030933
 41
4.309140020914239
 42
5.879936347709181
  0
LINE
  5
307
330
1F
100
AcDbEntity
  8
0
  6
Continuous
 62
     7
370
    25
100
AcDbLine
 10
118.1048798832
 20
1666.8263920614
 30
0.0
 11
118.1048798832
 21
1595.3478809161
 31
0.0
  0
ELLIPSE
  5
308
330
1F
100
AcDbEntity
  8
0
  6
Continuous
 62
     7
370
    25
100
AcDbEllipse
 10
116.6964651949
 20
1596.0334518746
 30
0.0
 11
2.976584842305456
 21
0.9995732953377684
 31
0.0
210
0.0
220
0.0
230
1.0
 40
0.3742488229
 41
3.505263030922281
 42
5.076059357717252
  0
LINE
  5
309
330
1F
100
AcDbEntity
  8
0
  6
Continuous
 62
     7
370
    25
100
AcDbLine
 10
114.0476224163
 20
1594.7030015036
 30
0.0
 11
114.0476224163
 21
1668.1133643016
 31
0.0
  0
LINE
  5
30A
330
1F
100
AcDbEntity
  8
0
  6
Continuous
 62
     7
370
    25
100
AcDbLine
 10
183.4430017548
 20
1675.8179974986
 30
0.0
 11
118.1048798832
 21
1666.8263920614
 31
0.0
  0
LINE
  5
30B
330
1F
100
AcDbEntity
  8
0
  6
Continuous
 62
     7
370
    25
100
AcDbLine
 10
115.813517602
 20
1670.2882323173
 30
0.0
 11
182.9175346593
 21
1679.5228541176
 31
0.0
  0
ELLIPSE
  5
30C
330
1F
100
AcDbEntity
  8
0
  6
Continuous
 62
     7
370
    25
100
AcDbEllipse
 10
182.0345870664
 20
1676.5035684572
 30
0.0
 11
0.7240925576324173
 21
3.076041367607104
 31
0.0
210
0.0
220
0.0
230
1.0
 40
0.4864373979
 41
4.603120511567571
 42
6.173916838362478
  0
LINE
  5
30D
330
1F
100
AcDbEntity
  8
0
  6
Continuous
 62
     7
370
    25
100
AcDbLine
 10
183.4430017548
 20
1604.3394863532
 30
0.0
 11
183.4430017548
 21
1675.8179974986
 31
0.0
  0
LINE
  5
30E
330
1F
100
AcDbEntity
  8
0
  6
Continuous
 62
     7
370
    25
100
AcDbLine
 10
118.1048798832
 20
1595.3478809161
 30
0.0
 11
183.4430017548
 21
1604.3394863532
 31
0.0
  0
LWPOLYLINE
  5
30F
330
1F
100
AcDbEntity
  8
0
  6
Continuous
 62
     7
370
    25
100
AcDbPolyline
 90
       17
 70
   128
 43
0.0
 10
150.773940819
 20
1634.617013381
 10
151.1118302344
 20
1634.7370392745
 10
151.3982790493
 20
1634.9858457646
 10
151.5896780283
 20
1635.3255543187
 10
151.6568884118
 20
1635.7044473889
 10
151.5896780283
 20
1636.0648419399
 10
151.3982790493
 20
1636.3518711684
 10
151.1118302344
 20
1636.5218374761
 10
150.773940819
 20
1636.5488650336
 10
150.4360514036
 20
1636.4288391402
 10
150.1496025886
 20
1636.18003265
 10
149.9582036097
 20
1635.8403240959
 10
149.8909932261
 20
1635.4614310257
 10
149.9582036097
 20
1635.1010364747
 10
150.1496025886
 20
1634.8140072463
 10
150.4360514036
 20
1634.6440409385
 10
150.773940819
 20
1634.617013381
  0
ARC
  5
310
330
1F
100
AcDbEntity
  8
0
  6
Continuous
 62
     7
370
    25
100
AcDbCircle
 10
115.293758604
 20
1668.6005731188
 30
0.0
 40
2.185287469008516
100
AcDbArc
 50
101.0590774566
 51
180.7908260166
  0
LINE
  5
311
330
1F
100
AcDbEntity
  8
0
  6
Continuous
 62
     7
370
    25
100
AcDbLine
 10
115.813517602
 20
1670.2882323173
 30
0.0
 11
114.8745744764
 21
1670.745279623
 31
0.0
  0
LINE
  5
312
330
1F
100
AcDbEntity
  8
0
  6
Continuous
 62
     7
370
    25
100
AcDbLine
 10
114.0476224163
 20
1668.1133643016
 30
0.0
 11
113.1086792907
 21
1668.5704116073
 31
0.0
  0
LINE
  5
313
330
1F
100
AcDbEntity
  8
0
  6
Continuous
 62
     7
370
    25
100
AcDbLine
 10
113.1086792907
 20
1668.5704116073
 30
0.0
 11
113.1086792907
 21
1595.1600488093
 31
0.0
  0
LINE
  5
314
330
1F
100
AcDbEntity
  8
0
  6
Continuous
 62
     7
370
    25
100
AcDbLine
 10
114.0476224163
 20
1594.7030015036
 30
0.0
 11
113.1086792907
 21
1595.1600488093
 31
0.0
  0
LINE
  5
315
330
1F
100
AcDbEntity
  8
0
  6
Continuous
 62
     7
370
    25
100
AcDbLine
 10
181.9785915337
 20
1679.9799014233
 30
0.0
 11
114.8745744764
 21
1670.745279623
 31
0.0
  0
LINE
  5
316
330
1F
100
AcDbEntity
  8
0
  6
Continuous
 62
     7
370
    25
100
AcDbLine
 10
182.9175346593
 20
1679.5228541176
 30
0.0
 11
181.9785915337
 21
1679.9799014233
 31
0.0
  0
ARC
  5
317
330
1F
100
AcDbEntity
  8
0
  6
Continuous
 62
     7
370
    25
100
AcDbCircle
 10
114.7810787583
 20
1595.0850840378
 30
0.0
 40
1.674078760492237
100
AcDbArc
 50
177.4334530259
 51
242.1583283124
  0
ARC
  5
318
330
1F
100
AcDbEntity
  8
0
  6
Continuous
 62
     7
370
    25
100
AcDbCircle
 10
182.1979856197
 20
1678.4827682908
 30
0.0
 40
1.513123055645277
100
AcDbArc
 50
64.3097961816
 51
98.3369440526
  0
ELLIPSE
  5
319
330
1F
100
AcDbEntity
  8
0
  6
Continuous
 62
     7
370
    25
100
AcDbEllipse
 10
283.2095445366
 20
-111.0389547258
 30
0.0
 11
1.089052115812706
 21
2.964307592519475
 31
0.0
210
0.0
220
0.0
230
1.0
 40
0.4236617683
 41
0.1544094292751833
 42
1.725205756070081
  0
ARC
  5
31A
330
1F
100
AcDbEntity
  8
0
  6
Continuous
 62
     7
370
    25
100
AcDbCircle
 10
283.9676809006
 20
-109.9287529517
 30
0.0
 40
1.893915303638518
100
AcDbArc
 50
356.6642304533
 51
86.2214028348
  0
ELLIPSE
  5
31B
330
1F
100
AcDbEntity
  8
0
  6
Continuous
 62
     7
370
    25
100
AcDbEllipse
 10
283.2095445366
 20
-111.0389547258
 30
0.0
 11
2.997193927492958
 21
0.9024224452094385
 31
0.0
210
0.0
220
0.0
230
1.0
 40
0.1437519028
 41
0.4454370555031602
 42
2.016233382298022
  0
LINE
  5
31C
330
1F
100
AcDbEntity
  8
0
  6
Continuous
 62
     7
370
    25
100
AcDbLine
 10
281.8011298483
 20
-185.0389547258
 30
0.0
 11
281.8011298483
 21
-111.0389547258
 31
0.0
  0
LINE
  5
31D
330
1F
100
AcDbEntity
  8
0
  6
Continuous
 62
     7
370
    25
100
AcDbLine
 10
285.8583873152
 20
-110.0389547258
 30
0.0
 11
285.8583873152
 21
-186.0389547258
 31
0.0
  0
ELLIPSE
  5
31E
330
1F
100
AcDbEntity
  8
0
  6
Continuous
 62
     7
370
    25
100
AcDbEllipse
 10
283.2095445366
 20
-185.0389547258
 30
0.0
 11
2.997193927492958
 21
-0.9024224452094529
 31
0.0
210
0.0
220
0.0
230
1.0
 40
0.1437519028
 41
4.266951924881591
 42
5.837748251676532
  0
ARC
  5
31F
330
1F
100
AcDbEntity
  8
0
  6
Continuous
 62
     7
370
    25
100
AcDbCircle
 10
283.9676809006
 20
-186.1491564999
 30
0.0
 40
1.893915303638462
100
AcDbArc
 50
273.7785971652
 51
3.3357695467
  0
ELLIPSE
  5
320
330
1F
100
AcDbEntity
  8
0
  6
Continuous
 62
     7
370
    25
100
AcDbEllipse
 10
283.2095445366
 20
-185.0389547258
 30
0.0
 11
-1.08905211581282
 21
2.964307592519476
 31
0.0
210
0.0
220
0.0
230
1.0
 40
0.4236617683
 41
1.416386897519693
 42
2.987183224314535
  0
LINE
  5
321
330
1F
100
AcDbEntity
  8
0
  6
Continuous
 62
     7
370
    25
100
AcDbLine
 10
281.8011298483
 20
-111.0389547258
 30
0.0
 11
216.4630079767
 21
-111.0389547258
 31
0.0
  0
ELLIPSE
  5
322
330
1F
100
AcDbEntity
  8
0
  6
Continuous
 62
     7
370
    25
100
AcDbEllipse
 10
217.8714226651
 20
-111.0389547258
 30
0.0
 11
-1.089052115812763
 21
2.964307592519475
 31
0.0
210
0.0
220
0.0
230
1.0
 40
0.4236617683
 41
6.128775877904419
 42
7.699572204699288
  0
LINE
  5
323
330
1F
100
AcDbEntity
  8
0
  6
Continuous
 62
     7
370
    25
100
AcDbLine
 10
216.9884750722
 20
-108.0389547258
 30
0.0
 11
284.0924921295
 21
-108.0389547258
 31
0.0
  0
LINE
  5
324
330
1F
100
AcDbEntity
  8
0
  6
Continuous
 62
     7
370
    25
100
AcDbLine
 10
216.4630079767
 20
-185.0389547258
 30
0.0
 11
281.8011298483
 21
-185.0389547258
 31
0.0
  0
LINE
  5
325
330
1F
100
AcDbEntity
  8
0
  6
Continuous
 62
     7
370
    25
100
AcDbLine
 10
284.0924921295
 20
-188.0389547258
 30
0.0
 11
216.9884750722
 21
-188.0389547258
 31
0.0
  0
ELLIPSE
  5
326
330
1F
100
AcDbEntity
  8
0
  6
Continuous
 62
     7
370
    25
100
AcDbEllipse
 10
217.8714226651
 20
-185.0389547258
 30
0.0
 11
1.089052115812763
 21
2.964307592519475
 31
0.0
210
0.0
220
0.0
230
1.0
 40
0.4236617683
 41
1.72520575607009
 42
3.296002082865026
  0
LINE
  5
327
330
1F
100
AcDbEntity
  8
0
  6
Continuous
 62
     7
370
    25
100
AcDbLine
 10
216.4630079767
 20
-111.0389547258
 30
0.0
 11
216.4630079767
 21
-185.0389547258
 31
0.0
  0
LWPOLYLINE
  5
328
330
1F
100
AcDbEntity
  8
0
  6
Continuous
 62
     7
370
    25
100
AcDbPolyline
 90
       17
 70
   128
 43
0.0
 10
249.1320689125
 20
-147.0389547258
 10
248.7941794971
 20
-147.1150751933
 10
248.5077306822
 20
-147.3318479446
 10
248.3163317032
 20
-147.6562712934
 10
248.2491213197
 20
-148.0389547258
 10
248.3163317032
 20
-148.4216381582
 10
248.5077306822
 20
-148.746061507
 10
248.7941794971
 20
-148.9628342583
 10
249.1320689125
 20
-149.0389547258
 10
249.4699583279
 20
-148.9628342583
 10
249.7564071429
 20
-148.746061507
 10
249.9478061218
 20
-148.4216381582
 10
250.0150165054
 20
-148.0389547258
 10
249.9478061218
 20
-147.6562712934
 10
249.7564071429
 20
-147.3318479446
 10
249.4699583279
 20
-147.1150751933
 10
249.1320689125
 20
-147.0389547258
  0
ARC
  5
329
330
1F
100
AcDbEntity
  8
0
  6
Continuous
 62
     7
370
    25
100
AcDbCircle
 10
284.9066240262
 20
-109.9287529517
 30
0.0
 40
1.893915303638516
100
AcDbArc
 50
356.6642304533
 51
86.2214028348
  0
LINE
  5
32A
330
1F
100
AcDbEntity
  8
0
  6
Continuous
 62
     7
370
    25
100
AcDbLine
 10
285.8583873152
 20
-110.0389547258
 30
0.0
 11
286.7973304408
 21
-110.0389547258
 31
0.0
  0
LINE
  5
32B
330
1F
100
AcDbEntity
  8
0
  6
Continuous
 62
     7
370
    25
100
AcDbLine
 10
284.0924921295
 20
-108.0389547258
 30
0.0
 11
285.0314352551
 21
-108.0389547258
 31
0.0
  0
LINE
  5
32C
330
1F
100
AcDbEntity
  8
0
  6
Continuous
 62
     7
370
    25
100
AcDbLine
 10
286.7973304408
 20
-186.0389547258
 30
0.0
 11
286.7973304408
 21
-110.0389547258
 31
0.0
  0
LINE
  5
32D
330
1F
100
AcDbEntity
  8
0
  6
Continuous
 62
     7
370
    25
100
AcDbLine
 10
285.8583873152
 20
-186.0389547258
 30
0.0
 11
286.7973304408
 21
-186.0389547258
 31
0.0
  0
ARC
  5
32E
330
1F
100
AcDbEntity
  8
0
  6
Continuous
 62
     7
370
    25
100
AcDbCircle
 10
284.9066240262
 20
-186.1491564999
 30
0.0
 40
1.893915303638519
100
AcDbArc
 50
273.7785971652
 51
3.3357695467
  0
LINE
  5
32F
330
1F
100
AcDbEntity
  8
0
  6
Continuous
 62
     7
370
    25
100
AcDbLine
 10
284.0924921295
 20
-188.0389547258
 30
0.0
 11
285.0314352551
 21
-188.0389547258
 31
0.0
  0
ELLIPSE
  5
330
330
1F
100
AcDbEntity
  8
0
  6
Continuous
 62
     7
370
    25
100
AcDbEllipse
 10
283.2095445366
 20
1667.51196302
 30
0.0
 11
1.364801465833807
 21
2.822611378187958
 31
0.0
210
0.0
220
0.0
230
1.0
 40
0.3362030933
 41
0.4032489594704238
 42
1.974045286265311
  0
ARC
  5
331
330
1F
100
AcDbEntity
  8
0
  6
Continuous
 62
     7
370
    25
100
AcDbCircle
 10
283.6733080019
 20
1668.1435258131
 30
0.0
 40
2.185287469009267
100
AcDbArc
 50
359.2091739835
 51
78.9409225434
  0
ELLIPSE
  5
332
330
1F
100
AcDbEntity
  8
0
  6
Continuous
 62
     7
370
    25
100
AcDbEllipse
 10
283.2095445366
 20
1667.51196302
 30
0.0
 11
2.998773681546368
 21
0.8617472700693724
 31
0.0
210
0.0
220
0.0
230
1.0
 40
0.0995297594
 41
4.195103060789878
 42
5.765899387585328
  0
LINE
  5
333
330
1F
100
AcDbEntity
  8
0
  6
Continuous
 62
     7
370
    25
100
AcDbLine
 10
281.8011298483
 20
1595.3478809161
 30
0.0
 11
281.8011298483
 21
1666.8263920614
 31
0.0
  0
LINE
  5
334
330
1F
100
AcDbEntity
  8
0
  6
Continuous
 62
     7
370
    25
100
AcDbLine
 10
285.8583873152
 20
1668.1133643016
 30
0.0
 11
285.8583873152
 21
1594.7030015036
 31
0.0
  0
ELLIPSE
  5
335
330
1F
100
AcDbEntity
  8
0
  6
Continuous
 62
     7
370
    25
100
AcDbEllipse
 10
283.2095445366
 20
1596.0334518746
 30
0.0
 11
2.976584842305499
 21
-0.9995732953379958
 31
0.0
210
0.0
220
0.0
230
1.0
 40
0.3742488229
 41
4.348718603052274
 42
5.919514929847305
  0
LINE
  5
336
330
1F
100
AcDbEntity
  8
0
  6
Continuous
 62
     7
370
    25
100
AcDbLine
 10
281.8011298483
 20
1666.8263920614
 30
0.0
 11
216.4630079767
 21
1675.8179974986
 31
0.0
  0
ELLIPSE
  5
337
330
1F
100
AcDbEntity
  8
0
  6
Continuous
 62
     7
370
    25
100
AcDbEllipse
 10
217.8714226651
 20
1676.5035684572
 30
0.0
 11
-0.7240925576323889
 21
3.076041367607104
 31
0.0
210
0.0
220
0.0
230
1.0
 40
0.4864373979
 41
0.1092684688171205
 42
1.680064795612025
  0
LINE
  5
338
330
1F
100
AcDbEntity
  8
0
  6
Continuous
 62
     7
370
    25
100
AcDbLine
 10
216.9884750722
 20
1679.5228541176
 30
0.0
 11
284.0924921295
 21
1670.2882323173
 31
0.0
  0
LINE
  5
339
330
1F
100
AcDbEntity
  8
0
  6
Continuous
 62
     7
370
    25
100
AcDbLine
 10
216.4630079767
 20
1604.3394863532
 30
0.0
 11
281.8011298483
 21
1595.3478809161
 31
0.0
  0
LINE
  5
33A
330
1F
100
AcDbEntity
  8
0
  6
Continuous
 62
     7
370
    25
100
AcDbLine
 10
216.4630079767
 20
1675.8179974986
 30
0.0
 11
216.4630079767
 21
1604.3394863532
 31
0.0
  0
LWPOLYLINE
  5
33B
330
1F
100
AcDbEntity
  8
0
  6
Continuous
 62
     7
370
    25
100
AcDbPolyline
 90
       17
 70
   128
 43
0.0
 10
249.1320689125
 20
1636.5488650336
 10
248.794179497
 20
1636.5218374761
 10
248.5077306821
 20
1636.3518711684
 10
248.3163317032
 20
1636.0648419399
 10
248.2491213196
 20
1635.7044473889
 10
248.3163317032
 20
1635.3255543187
 10
248.5077306821
 20
1634.9858457646
 10
248.794179497
 20
1634.7370392745
 10
249.1320689125
 20
1634.617013381
 10
249.4699583279
 20
1634.6440409385
 10
249.7564071428
 20
1634.8140072463
 10
249.9478061218
 20
1635.1010364747
 10
250.0150165053
 20
1635.4614310257
 10
249.9478061218
 20
1635.8403240959
 10
249.7564071428
 20
1636.18003265
 10
249.4699583279
 20
1636.4288391402
 10
249.1320689125
 20
1636.5488650336
  0
ARC
  5
33C
330
1F
100
AcDbEntity
  8
0
  6
Continuous
 62
     7
370
    25
100
AcDbCircle
 10
284.6122511275
 20
1668.6005731188
 30
0.0
 40
2.185287469008896
100
AcDbArc
 50
359.2091739834
 51
78.9409225434
  0
LINE
  5
33D
330
1F
100
AcDbEntity
  8
0
  6
Continuous
 62
     7
370
    25
100
AcDbLine
 10
285.8583873152
 20
1668.1133643016
 30
0.0
 11
286.7973304408
 21
1668.5704116073
 31
0.0
  0
LINE
  5
33E
330
1F
100
AcDbEntity
  8
0
  6
Continuous
 62
     7
370
    25
100
AcDbLine
 10
284.0924921295
 20
1670.2882323173
 30
0.0
 11
285.031435255
 21
1670.745279623
 31
0.0
  0
LINE
  5
33F
330
1F
100
AcDbEntity
  8
0
  6
Continuous
 62
     7
370
    25
100
AcDbLine
 10
286.7973304408
 20
1595.1600488093
 30
0.0
 11
286.7973304408
 21
1668.5704116073
 31
0.0
  0
LINE
  5
340
330
1F
100
AcDbEntity
  8
0
  6
Continuous
 62
     7
370
    25
100
AcDbLine
 10
285.8583873152
 20
1594.7030015036
 30
0.0
 11
286.7973304408
 21
1595.1600488093
 31
0.0
  0
LINE
  5
341
330
1F
100
AcDbEntity
  8
0
  6
Continuous
 62
     7
370
    25
100
AcDbLine
 10
285.031435255
 20
1670.745279623
 30
0.0
 11
217.9274181978
 21
1679.9799014233
 31
0.0
  0
LINE
  5
342
330
1F
100
AcDbEntity
  8
0
  6
Continuous
 62
     7
370
    25
100
AcDbLine
 10
216.9884750722
 20
1679.5228541176
 30
0.0
 11
217.9274181978
 21
1679.9799014233
 31
0.0
  0
ARC
  5
343
330
1F
100
AcDbEntity
  8
0
  6
Continuous
 62
     7
370
    25
100
AcDbCircle
 10
285.1249309731
 20
1595.0850840378
 30
0.0
 40
1.674078760491652
100
AcDbArc
 50
297.8416716875
 51
2.5665469741
  0
ARC
  5
344
330
1F
100
AcDbEntity
  8
0
  6
Continuous
 62
     7
370
    25
100
AcDbCircle
 10
217.7080241118
 20
1678.4827682908
 30
0.0
 40
1.513123055637154
100
AcDbArc
 50
81.6630559473
 51
115.6902038185
  0
ELLIPSE
  5
345
330
1F
100
AcDbEntity
  8
0
  6
Continuous
 62
     7
370
    25
100
AcDbEllipse
 10
116.6964651948
 20
-1443.5798724716
 30
0.0
 11
1.364801465833892
 21
2.822611378187958
 31
0.0
210
0.0
220
0.0
230
1.0
 40
0.3362030933
 41
3.54484161306027
 42
5.115637939855258
  0
ARC
  5
346
330
1F
100
AcDbEntity
  8
0
  6
Continuous
 62
     7
370
    25
100
AcDbCircle
 10
116.2327017296
 20
-1444.2114352646
 30
0.0
 40
2.185287469008164
100
AcDbArc
 50
179.2091739834
 51
258.9409225434
  0
ELLIPSE
  5
347
330
1F
100
AcDbEntity
  8
0
  6
Continuous
 62
     7
370
    25
100
AcDbEllipse
 10
116.6964651948
 20
-1443.5798724716
 30
0.0
 11
2.99877368154641
 21
0.8617472700693726
 31
0.0
210
0.0
220
0.0
230
1.0
 40
0.0995297594
 41
1.053510407200447
 42
2.624306733994808
  0
LINE
  5
348
330
1F
100
AcDbEntity
  8
0
  6
Continuous
 62
     7
370
    25
100
AcDbLine
 10
118.1048798832
 20
-1371.4157903676
 30
0.0
 11
118.1048798832
 21
-1442.894301513
 31
0.0
  0
LINE
  5
349
330
1F
100
AcDbEntity
  8
0
  6
Continuous
 62
     7
370
    25
100
AcDbLine
 10
114.0476224163
 20
-1444.1812737532
 30
0.0
 11
114.0476224163
 21
-1370.7709109552
 31
0.0
  0
ELLIPSE
  5
34A
330
1F
100
AcDbEntity
  8
0
  6
Continuous
 62
     7
370
    25
100
AcDbEllipse
 10
116.6964651948
 20
-1372.1013613262
 30
0.0
 11
2.97658484230547
 21
-0.9995732953377682
 31
0.0
210
0.0
220
0.0
230
1.0
 40
0.3742488229
 41
1.207125949462254
 42
2.777922276257323
  0
LINE
  5
34B
330
1F
100
AcDbEntity
  8
0
  6
Continuous
 62
     7
370
    25
100
AcDbLine
 10
118.1048798832
 20
-1442.894301513
 30
0.0
 11
183.4430017548
 21
-1451.8859069502
 31
0.0
  0
ELLIPSE
  5
34C
330
1F
100
AcDbEntity
  8
0
  6
Continuous
 62
     7
370
    25
100
AcDbEllipse
 10
182.0345870664
 20
-1452.5714779088
 30
0.0
 11
-0.7240925576324457
 21
3.076041367607104
 31
0.0
210
0.0
220
0.0
230
1.0
 40
0.4864373979
 41
3.250861122406881
 42
4.821657449201814
  0
LINE
  5
34D
330
1F
100
AcDbEntity
  8
0
  6
Continuous
 62
     7
370
    25
100
AcDbLine
 10
182.9175346593
 20
-1455.5907635692
 30
0.0
 11
115.813517602
 21
-1446.3561417689
 31
0.0
  0
LINE
  5
34E
330
1F
100
AcDbEntity
  8
0
  6
Continuous
 62
     7
370
    25
100
AcDbLine
 10
183.4430017548
 20
-1380.4073958048
 30
0.0
 11
118.1048798832
 21
-1371.4157903676
 31
0.0
  0
LINE
  5
34F
330
1F
100
AcDbEntity
  8
0
  6
Continuous
 62
     7
370
    25
100
AcDbLine
 10
183.4430017548
 20
-1451.8859069502
 30
0.0
 11
183.4430017548
 21
-1380.4073958048
 31
0.0
  0
LWPOLYLINE
  5
350
330
1F
100
AcDbEntity
  8
0
  6
Continuous
 62
     7
370
    25
100
AcDbPolyline
 90
       17
 70
   128
 43
0.0
 10
150.773940819
 20
-1412.6167744852
 10
151.1118302344
 20
-1412.5897469277
 10
151.3982790493
 20
-1412.41978062
 10
151.5896780283
 20
-1412.1327513915
 10
151.6568884118
 20
-1411.7723568405
 10
151.5896780283
 20
-1411.3934637703
 10
151.3982790493
 20
-1411.0537552162
 10
151.1118302344
 20
-1410.8049487261
 10
150.773940819
 20
-1410.6849228326
 10
150.4360514035
 20
-1410.7119503901
 10
150.1496025886
 20
-1410.8819166978
 10
149.9582036097
 20
-1411.1689459263
 10
149.8909932261
 20
-1411.5293404773
 10
149.9582036097
 20
-1411.9082335475
 10
150.1496025886
 20
-1412.2479421016
 10
150.4360514035
 20
-1412.4967485918
 10
150.773940819
 20
-1412.6167744852
  0
ARC
  5
351
330
1F
100
AcDbEntity
  8
0
  6
Continuous
 62
     7
370
    25
100
AcDbCircle
 10
115.293758604
 20
-1444.6684825704
 30
0.0
 40
2.185287469007895
100
AcDbArc
 50
179.2091739834
 51
258.9409225435
  0
LINE
  5
352
330
1F
100
AcDbEntity
  8
0
  6
Continuous
 62
     7
370
    25
100
AcDbLine
 10
114.0476224163
 20
-1444.1812737532
 30
0.0
 11
113.1086792907
 21
-1444.6383210589
 31
0.0
  0
LINE
  5
353
330
1F
100
AcDbEntity
  8
0
  6
Continuous
 62
     7
370
    25
100
AcDbLine
 10
115.813517602
 20
-1446.3561417689
 30
0.0
 11
114.8745744764
 21
-1446.8131890746
 31
0.0
  0
LINE
  5
354
330
1F
100
AcDbEntity
  8
0
  6
Continuous
 62
     7
370
    25
100
AcDbLine
 10
113.1086792907
 20
-1371.2279582609
 30
0.0
 11
113.1086792907
 21
-1444.6383210589
 31
0.0
  0
LINE
  5
355
330
1F
100
AcDbEntity
  8
0
  6
Continuous
 62
     7
370
    25
100
AcDbLine
 10
114.0476224163
 20
-1370.7709109552
 30
0.0
 11
113.1086792907
 21
-1371.2279582609
 31
0.0
  0
LINE
  5
356
330
1F
100
AcDbEntity
  8
0
  6
Continuous
 62
     7
370
    25
100
AcDbLine
 10
114.8745744764
 20
-1446.8131890746
 30
0.0
 11
181.9785915337
 21
-1456.0478108749
 31
0.0
  0
LINE
  5
357
330
1F
100
AcDbEntity
  8
0
  6
Continuous
 62
     7
370
    25
100
AcDbLine
 10
182.9175346593
 20
-1455.5907635692
 30
0.0
 11
181.9785915337
 21
-1456.0478108749
 31
0.0
  0
ARC
  5
358
330
1F
100
AcDbEntity
  8
0
  6
Continuous
 62
     7
370
    25
100
AcDbCircle
 10
114.7810787583
 20
-1371.1529934894
 30
0.0
 40
1.674078760490012
100
AcDbArc
 50
117.8416716875
 51
182.5665469741
  0
ARC
  5
359
330
1F
100
AcDbEntity
  8
0
  6
Continuous
 62
     7
370
    25
100
AcDbCircle
 10
182.1979856197
 20
-1454.5506777424
 30
0.0
 40
1.5131230556396
100
AcDbArc
 50
261.6630559473
 51
295.6902038184
  0
LINE
  5
35A
330
1F
100
AcDbEntity
  8
0
  6
Continuous
 62
     7
370
    25
100
AcDbLine
 10
118.1048798832
 20
-111.0389547258
 30
0.0
 11
118.1048798832
 21
-185.0389547258
 31
0.0
  0
ELLIPSE
  5
35B
330
1F
100
AcDbEntity
  8
0
  6
Continuous
 62
     7
370
    25
100
AcDbEllipse
 10
116.6964651948
 20
-185.0389547258
 30
0.0
 11
2.997193927493001
 21
0.9024224452094245
 31
0.0
210
0.0
220
0.0
230
1.0
 40
0.1437519028
 41
3.587029709093071
 42
5.157826035887845
  0
LINE
  5
35C
330
1F
100
AcDbEntity
  8
0
  6
Continuous
 62
     7
370
    25
100
AcDbLine
 10
114.0476224162
 20
-186.0389547258
 30
0.0
 11
114.0476224162
 21
-110.0389547258
 31
0.0
  0
ELLIPSE
  5
35D
330
1F
100
AcDbEntity
  8
0
  6
Continuous
 62
     7
370
    25
100
AcDbEllipse
 10
116.6964651948
 20
-111.0389547258
 30
0.0
 11
2.997193927493001
 21
-0.9024224452094387
 31
0.0
210
0.0
220
0.0
230
1.0
 40
0.1437519028
 41
1.125359271291767
 42
2.696155598086619
  0
ARC
  5
35E
330
1F
100
AcDbEntity
  8
0
  6
Continuous
 62
     7
370
    25
100
AcDbCircle
 10
115.9383288309
 20
-109.9287529517
 30
0.0
 40
1.893915303638462
100
AcDbArc
 50
93.7785971652
 51
183.3357695467
  0
ELLIPSE
  5
35F
330
1F
100
AcDbEntity
  8
0
  6
Continuous
 62
     7
370
    25
100
AcDbEllipse
 10
116.6964651948
 20
-111.0389547258
 30
0.0
 11
-1.089052115812749
 21
2.964307592519476
 31
0.0
210
0.0
220
0.0
230
1.0
 40
0.4236617683
 41
4.557979551109504
 42
6.128775877904429
  0
ELLIPSE
  5
360
330
1F
100
AcDbEntity
  8
0
  6
Continuous
 62
     7
370
    25
100
AcDbEllipse
 10
116.6964651948
 20
-185.0389547258
 30
0.0
 11
1.089052115812749
 21
2.964307592519476
 31
0.0
210
0.0
220
0.0
230
1.0
 40
0.4236617683
 41
3.296002082865016
 42
4.866798409659888
  0
ARC
  5
361
330
1F
100
AcDbEntity
  8
0
  6
Continuous
 62
     7
370
    25
100
AcDbCircle
 10
115.9383288309
 20
-186.1491564999
 30
0.0
 40
1.893915303638421
100
AcDbArc
 50
176.6642304533
 51
266.2214028348
  0
LINE
  5
362
330
1F
100
AcDbEntity
  8
0
  6
Continuous
 62
     7
370
    25
100
AcDbLine
 10
183.4430017547
 20
-111.0389547258
 30
0.0
 11
118.1048798832
 21
-111.0389547258
 31
0.0
  0
LINE
  5
363
330
1F
100
AcDbEntity
  8
0
  6
Continuous
 62
     7
370
    25
100
AcDbLine
 10
115.813517602
 20
-108.0389547258
 30
0.0
 11
182.9175346592
 21
-108.0389547258
 31
0.0
  0
ELLIPSE
  5
364
330
1F
100
AcDbEntity
  8
0
  6
Continuous
 62
     7
370
    25
100
AcDbEllipse
 10
182.0345870664
 20
-111.0389547258
 30
0.0
 11
1.089052115812734
 21
2.964307592519476
 31
0.0
210
0.0
220
0.0
230
1.0
 40
0.4236617683
 41
4.866798409659887
 42
6.437594736454766
  0
LINE
  5
365
330
1F
100
AcDbEntity
  8
0
  6
Continuous
 62
     7
370
    25
100
AcDbLine
 10
118.1048798832
 20
-185.0389547258
 30
0.0
 11
183.4430017547
 21
-185.0389547258
 31
0.0
  0
ELLIPSE
  5
366
330
1F
100
AcDbEntity
  8
0
  6
Continuous
 62
     7
370
    25
100
AcDbEllipse
 10
182.0345870664
 20
-185.0389547258
 30
0.0
 11
-1.089052115812763
 21
2.964307592519475
 31
0.0
210
0.0
220
0.0
230
1.0
 40
0.4236617683
 41
2.987183224314593
 42
4.557979551109502
  0
LINE
  5
367
330
1F
100
AcDbEntity
  8
0
  6
Continuous
 62
     7
370
    25
100
AcDbLine
 10
182.9175346592
 20
-188.0389547258
 30
0.0
 11
115.813517602
 21
-188.0389547258
 31
0.0
  0
LINE
  5
368
330
1F
100
AcDbEntity
  8
0
  6
Continuous
 62
     7
370
    25
100
AcDbLine
 10
183.4430017547
 20
-185.0389547258
 30
0.0
 11
183.4430017547
 21
-111.0389547258
 31
0.0
  0
LWPOLYLINE
  5
369
330
1F
100
AcDbEntity
  8
0
  6
Continuous
 62
     7
370
    25
100
AcDbPolyline
 90
       17
 70
   128
 43
0.0
 10
150.773940819
 20
-149.0389547258
 10
151.1118302344
 20
-148.9628342583
 10
151.3982790493
 20
-148.746061507
 10
151.5896780283
 20
-148.4216381582
 10
151.6568884118
 20
-148.0389547258
 10
151.5896780283
 20
-147.6562712934
 10
151.3982790493
 20
-147.3318479446
 10
151.1118302344
 20
-147.1150751933
 10
150.773940819
 20
-147.0389547258
 10
150.4360514035
 20
-147.1150751933
 10
150.1496025886
 20
-147.3318479446
 10
149.9582036096
 20
-147.6562712934
 10
149.8909932261
 20
-148.0389547258
 10
149.9582036096
 20
-148.4216381582
 10
150.1496025886
 20
-148.746061507
 10
150.4360514035
 20
-148.9628342583
 10
150.773940819
 20
-149.0389547258
  0
ARC
  5
36A
330
1F
100
AcDbEntity
  8
0
  6
Continuous
 62
     7
370
    25
100
AcDbCircle
 10
114.9993857053
 20
-109.9287529517
 30
0.0
 40
1.893915303638492
100
AcDbArc
 50
93.7785971652
 51
183.3357695467
  0
LINE
  5
36B
330
1F
100
AcDbEntity
  8
0
  6
Continuous
 62
     7
370
    25
100
AcDbLine
 10
115.813517602
 20
-108.0389547258
 30
0.0
 11
114.8745744764
 21
-108.0389547258
 31
0.0
  0
LINE
  5
36C
330
1F
100
AcDbEntity
  8
0
  6
Continuous
 62
     7
370
    25
100
AcDbLine
 10
114.0476224162
 20
-110.0389547258
 30
0.0
 11
113.1086792907
 21
-110.0389547258
 31
0.0
  0
LINE
  5
36D
330
1F
100
AcDbEntity
  8
0
  6
Continuous
 62
     7
370
    25
100
AcDbLine
 10
113.1086792907
 20
-110.0389547258
 30
0.0
 11
113.1086792907
 21
-186.0389547258
 31
0.0
  0
LINE
  5
36E
330
1F
100
AcDbEntity
  8
0
  6
Continuous
 62
     7
370
    25
100
AcDbLine
 10
114.0476224162
 20
-186.0389547258
 30
0.0
 11
113.1086792907
 21
-186.0389547258
 31
0.0
  0
ARC
  5
36F
330
1F
100
AcDbEntity
  8
0
  6
Continuous
 62
     7
370
    25
100
AcDbCircle
 10
114.9993857053
 20
-186.1491564999
 30
0.0
 40
1.893915303638476
100
AcDbArc
 50
176.6642304533
 51
266.2214028348
  0
LINE
  5
370
330
1F
100
AcDbEntity
  8
0
  6
Continuous
 62
     7
370
    25
100
AcDbLine
 10
115.813517602
 20
-188.0389547258
 30
0.0
 11
114.8745744764
 21
-188.0389547258
 31
0.0
  0
LWPOLYLINE
  5
371
330
1F
100
AcDbEntity
  8
0
  6
Continuous
 62
     7
370
    25
100
AcDbPolyline
 90
       20
 70
   128
 43
0.0
 10
264.2030048657
 20
-1474.9307554463
 10
264.3663215208
 20
-1474.4476132994
 10
264.8513091923
 20
-1473.9791511822
 10
265.643231775
 20
-1473.5396030789
 10
266.7180271022
 20
-1473.1423244364
 10
268.0430380616
 20
-1472.7993863651
 10
269.5780048657
 20
-1472.5212088649
 10
271.276288325
 20
-1472.3162442182
 10
273.0862869558
 20
-1472.1907201722
 10
274.9530048657
 20
-1472.1484507115
 10
276.8197227756
 20
-1472.1907201722
 10
278.6297214065
 20
-1472.3162442182
 10
280.3280048657
 20
-1472.5212088649
 10
281.8629716698
 20
-1472.7993863651
 10
283.1879826292
 20
-1473.1423244364
 10
284.2627779564
 20
-1473.5396030789
 10
285.0547005392
 20
-1473.9791511822
 10
285.5396882106
 20
-1474.4476132994
 10
285.7030048657
 20
-1474.9307554463
 10
285.7030048657
 20
-1474.9307554463
  0
LWPOLYLINE
  5
372
330
1F
100
AcDbEntity
  8
0
  6
Continuous
 62
     7
370
    25
100
AcDbPolyline
 90
       23
 70
   128
 43
0.0
 10
259.4530048657
 20
-1462.8566826177
 10
259.6107725166
 20
-1462.2857588643
 10
260.0808637747
 20
-1461.726457472
 10
260.8537089377
 20
-1461.1901642044
 10
261.9135751068
 20
-1460.6877964459
 10
263.2388864632
 20
-1460.2295809553
 10
264.8026634896
 20
-1459.8248456786
 10
266.5730721952
 20
-1459.4818298589
 10
268.5140721642
 20
-1459.207516309
 10
270.5861502347
 20
-1459.0074892619
 10
272.7471248725
 20
-1458.8858206914
 10
274.9530048657
 20
-1458.8449874186
 10
277.1588848589
 20
-1458.8858206914
 10
279.3198594968
 20
-1459.0074892619
 10
281.3919375672
 20
-1459.207516309
 10
283.3329375363
 20
-1459.4818298589
 10
285.1033462419
 20
-1459.8248456786
 10
286.6671232682
 20
-1460.2295809553
 10
287.9924346246
 20
-1460.6877964459
 10
289.0523007937
 20
-1461.1901642044
 10
289.8251459567
 20
-1461.726457472
 10
290.2952372149
 20
-1462.2857588643
 10
290.4530048657
 20
-1462.8566826177
  0
LINE
  5
373
330
1F
100
AcDbEntity
  8
0
  6
Continuous
 62
     7
370
    25
100
AcDbLine
 10
124.9530048657
 20
-205.5389547258
 30
0.0
 11
135.7030048657
 21
-205.5389547258
 31
0.0
  0
LINE
  5
374
330
1F
100
AcDbEntity
  8
0
  6
Continuous
 62
     7
370
    25
100
AcDbLine
 10
114.2030048657
 20
-205.5389547258
 30
0.0
 11
124.9530048657
 21
-205.5389547258
 31
0.0
  0
LWPOLYLINE
  5
375
330
1F
100
AcDbEntity
  8
0
  6
Continuous
 62
     7
370
    25
100
AcDbPolyline
 90
       19
 70
   128
 43
0.0
 10
135.7030048658
 20
1698.8628459948
 10
135.5396882106
 20
1698.3797038478
 10
135.0547005392
 20
1697.9112417306
 10
134.2627779564
 20
1697.4716936273
 10
133.1879826293
 20
1697.0744149848
 10
131.8629716699
 20
1696.7314769136
 10
130.3280048658
 20
1696.4532994133
 10
128.6297214065
 20
1696.2483347666
 10
126.8197227757
 20
1696.1228107206
 10
124.9530048658
 20
1696.0805412599
 10
123.0862869558
 20
1696.1228107206
 10
121.276288325
 20
1696.2483347666
 10
119.5780048658
 20
1696.4532994133
 10
118.0430380616
 20
1696.7314769136
 10
116.7180271022
 20
1697.0744149848
 10
115.6432317751
 20
1697.4716936273
 10
114.8513091923
 20
1697.9112417306
 10
114.3663215209
 20
1698.3797038478
 10
114.2030048658
 20
1698.8628459948
  0
LWPOLYLINE
  5
376
330
1F
100
AcDbEntity
  8
0
  6
Continuous
 62
     7
370
    25
100
AcDbPolyline
 90
       23
 70
   128
 43
0.0
 10
140.4530048658
 20
1686.7887731661
 10
140.2952372149
 20
1686.2178494127
 10
139.8251459568
 20
1685.6585480204
 10
139.0523007938
 20
1685.1222547529
 10
137.9924346246
 20
1684.6198869943
 10
136.6671232683
 20
1684.1616715037
 10
135.1033462419
 20
1683.756936227
 10
133.3329375363
 20
1683.4139204073
 10
131.3919375673
 20
1683.1396068574
 10
129.3198594968
 20
1682.9395798103
 10
127.158884859
 20
1682.8179112398
 10
124.9530048658
 20
1682.7770779671
 10
122.7471248725
 20
1682.8179112398
 10
120.5861502347
 20
1682.9395798103
 10
118.5140721642
 20
1683.1396068574
 10
116.5730721952
 20
1683.4139204073
 10
114.8026634896
 20
1683.756936227
 10
113.2388864633
 20
1684.1616715037
 10
111.9135751069
 20
1684.6198869943
 10
110.8537089378
 20
1685.1222547529
 10
110.0808637747
 20
1685.6585480204
 10
109.6107725166
 20
1686.2178494127
 10
109.4530048658
 20
1686.7887731661
  0
LINE
  5
377
330
1F
100
AcDbEntity
  8
0
  6
Continuous
 62
     7
370
    25
100
AcDbLine
 10
33.4060501225
 20
-205.5389547258
 30
0.0
 11
44.1560501225
 21
-205.5389547258
 31
0.0
  0
LINE
  5
378
330
1F
100
AcDbEntity
  8
0
  6
Continuous
 62
     7
370
    25
100
AcDbLine
 10
22.6560501225
 20
-205.5389547258
 30
0.0
 11
33.4060501225
 21
-205.5389547258
 31
0.0
  0
LWPOLYLINE
  5
379
330
1F
100
AcDbEntity
  8
0
  6
Continuous
 62
     7
370
    25
100
AcDbPolyline
 90
       10
 70
   128
 43
0.0
 10
124.9530048658
 20
-1472.1484507115
 10
126.8197227757
 20
-1472.1907201722
 10
128.6297214065
 20
-1472.3162442182
 10
130.3280048658
 20
-1472.5212088649
 10
131.8629716699
 20
-1472.7993863651
 10
133.1879826293
 20
-1473.1423244364
 10
134.2627779564
 20
-1473.5396030789
 10
135.0547005392
 20
-1473.9791511822
 10
135.5396882106
 20
-1474.4476132994
 10
135.7030048658
 20
-1474.9307554463
  0
LWPOLYLINE
  5
37A
330
1F
100
AcDbEntity
  8
0
  6
Continuous
 62
     7
370
    25
100
AcDbPolyline
 90
       10
 70
   128
 43
0.0
 10
114.2030048658
 20
-1474.9307554463
 10
114.3663215209
 20
-1474.4476132994
 10
114.8513091923
 20
-1473.9791511822
 10
115.6432317751
 20
-1473.5396030789
 10
116.7180271022
 20
-1473.1423244364
 10
118.0430380616
 20
-1472.7993863651
 10
119.5780048658
 20
-1472.5212088649
 10
121.276288325
 20
-1472.3162442182
 10
123.0862869558
 20
-1472.1907201722
 10
124.9530048658
 20
-1472.1484507115
  0
LWPOLYLINE
  5
37B
330
1F
100
AcDbEntity
  8
0
  6
Continuous
 62
     7
370
    25
100
AcDbPolyline
 90
       12
 70
   128
 43
0.0
 10
124.9530048658
 20
-1458.8449874186
 10
127.158884859
 20
-1458.8858206914
 10
129.3198594968
 20
-1459.0074892619
 10
131.3919375673
 20
-1459.207516309
 10
133.3329375363
 20
-1459.4818298589
 10
135.1033462419
 20
-1459.8248456786
 10
136.6671232682
 20
-1460.2295809553
 10
137.9924346246
 20
-1460.6877964459
 10
139.0523007938
 20
-1461.1901642044
 10
139.8251459568
 20
-1461.726457472
 10
140.2952372149
 20
-1462.2857588643
 10
140.4530048658
 20
-1462.8566826177
  0
LWPOLYLINE
  5
37C
330
1F
100
AcDbEntity
  8
0
  6
Continuous
 62
     7
370
    25
100
AcDbPolyline
 90
       12
 70
   128
 43
0.0
 10
109.4530048658
 20
-1462.8566826177
 10
109.6107725166
 20
-1462.2857588643
 10
110.0808637747
 20
-1461.726457472
 10
110.8537089378
 20
-1461.1901642044
 10
111.9135751069
 20
-1460.6877964459
 10
113.2388864633
 20
-1460.2295809553
 10
114.8026634896
 20
-1459.8248456786
 10
116.5730721952
 20
-1459.4818298589
 10
118.5140721642
 20
-1459.207516309
 10
120.5861502347
 20
-1459.0074892619
 10
122.7471248725
 20
-1458.8858206914
 10
124.9530048658
 20
-1458.8449874186
  0
LINE
  5
37D
330
1F
100
AcDbEntity
  8
0
  6
Continuous
 62
     7
370
    25
100
AcDbLine
 10
366.499959609
 20
-205.5389547258
 30
0.0
 11
377.249959609
 21
-205.5389547258
 31
0.0
  0
LINE
  5
37E
330
1F
100
AcDbEntity
  8
0
  6
Continuous
 62
     7
370
    25
100
AcDbLine
 10
355.749959609
 20
-205.5389547258
 30
0.0
 11
366.499959609
 21
-205.5389547258
 31
0.0
  0
LINE
  5
37F
330
1F
100
AcDbEntity
  8
0
  6
Continuous
 62
     7
370
    25
100
AcDbLine
 10
274.9530048657
 20
-205.5389547258
 30
0.0
 11
285.7030048657
 21
-205.5389547258
 31
0.0
  0
LINE
  5
380
330
1F
100
AcDbEntity
  8
0
  6
Continuous
 62
     7
370
    25
100
AcDbLine
 10
264.2030048657
 20
-205.5389547258
 30
0.0
 11
274.9530048657
 21
-205.5389547258
 31
0.0
  0
LWPOLYLINE
  5
381
330
1F
100
AcDbEntity
  8
0
  6
Continuous
 62
     7
370
    25
100
AcDbPolyline
 90
       10
 70
   128
 43
0.0
 10
366.499959609
 20
1740.6426535675
 10
364.633241699
 20
1740.6849230282
 10
362.8232430682
 20
1740.8104470742
 10
361.124959609
 20
1741.0154117209
 10
359.5899928048
 20
1741.2935892211
 10
358.2649818454
 20
1741.6365272924
 10
357.1901865183
 20
1742.0338059349
 10
356.3982639355
 20
1742.4733540381
 10
355.9132762641
 20
1742.9418161554
 10
355.749959609
 20
1743.4249583023
  0
LWPOLYLINE
  5
382
330
1F
100
AcDbEntity
  8
0
  6
Continuous
 62
     7
370
    25
100
AcDbPolyline
 90
       10
 70
   128
 43
0.0
 10
377.249959609
 20
1743.4249583023
 10
377.0866429538
 20
1742.9418161554
 10
376.6016552824
 20
1742.4733540381
 10
375.8097326996
 20
1742.0338059349
 10
374.7349373725
 20
1741.6365272924
 10
373.4099264131
 20
1741.2935892211
 10
371.874959609
 20
1741.0154117209
 10
370.1766761497
 20
1740.8104470742
 10
368.3666775189
 20
1740.6849230282
 10
366.499959609
 20
1740.6426535675
  0
LWPOLYLINE
  5
383
330
1F
100
AcDbEntity
  8
0
  6
Continuous
 62
     7
370
    25
100
AcDbPolyline
 90
       12
 70
   128
 43
0.0
 10
366.499959609
 20
1727.3391902746
 10
364.2940796157
 20
1727.3800235474
 10
362.1331049779
 20
1727.5016921179
 10
360.0610269074
 20
1727.701719165
 10
358.1200269384
 20
1727.9760327148
 10
356.3496182328
 20
1728.3190485346
 10
354.7858412065
 20
1728.7237838113
 10
353.4605298501
 20
1729.1819993019
 10
352.400663681
 20
1729.6843670604
 10
351.6278185179
 20
1730.220660328
 10
351.1577272598
 20
1730.7799617203
 10
350.999959609
 20
1731.3508854737
  0
LWPOLYLINE
  5
384
330
1F
100
AcDbEntity
  8
0
  6
Continuous
 62
     7
370
    25
100
AcDbPolyline
 90
       12
 70
   128
 43
0.0
 10
381.999959609
 20
1731.3508854737
 10
381.8421919581
 20
1730.7799617203
 10
381.3721007
 20
1730.220660328
 10
380.5992555369
 20
1729.6843670604
 10
379.5393893678
 20
1729.1819993019
 10
378.2140780114
 20
1728.7237838113
 10
376.6503009851
 20
1728.3190485346
 10
374.8798922795
 20
1727.9760327148
 10
372.9388923105
 20
1727.701719165
 10
370.86681424
 20
1727.5016921179
 10
368.7058396022
 20
1727.3800235474
 10
366.499959609
 20
1727.3391902746
  0
LWPOLYLINE
  5
385
330
1F
100
AcDbEntity
  8
0
  6
Continuous
 62
     7
370
    25
100
AcDbPolyline
 90
       10
 70
   128
 43
0.0
 10
274.9530048657
 20
1696.0805412599
 10
273.0862869558
 20
1696.1228107206
 10
271.276288325
 20
1696.2483347666
 10
269.5780048657
 20
1696.4532994133
 10
268.0430380616
 20
1696.7314769136
 10
266.7180271022
 20
1697.0744149848
 10
265.643231775
 20
1697.4716936273
 10
264.8513091923
 20
1697.9112417306
 10
264.3663215208
 20
1698.3797038478
 10
264.2030048657
 20
1698.8628459948
  0
LWPOLYLINE
  5
386
330
1F
100
AcDbEntity
  8
0
  6
Continuous
 62
     7
370
    25
100
AcDbPolyline
 90
       10
 70
   128
 43
0.0
 10
285.7030048657
 20
1698.8628459948
 10
285.5396882106
 20
1698.3797038478
 10
285.0547005392
 20
1697.9112417306
 10
284.2627779564
 20
1697.4716936273
 10
283.1879826292
 20
1697.0744149848
 10
281.8629716698
 20
1696.7314769136
 10
280.3280048657
 20
1696.4532994133
 10
278.6297214065
 20
1696.2483347666
 10
276.8197227756
 20
1696.1228107206
 10
274.9530048657
 20
1696.0805412599
  0
LWPOLYLINE
  5
387
330
1F
100
AcDbEntity
  8
0
  6
Continuous
 62
     7
370
    25
100
AcDbPolyline
 90
       12
 70
   128
 43
0.0
 10
274.9530048657
 20
1682.7770779671
 10
272.7471248725
 20
1682.8179112398
 10
270.5861502347
 20
1682.9395798103
 10
268.5140721642
 20
1683.1396068574
 10
266.5730721951
 20
1683.4139204073
 10
264.8026634896
 20
1683.756936227
 10
263.2388864632
 20
1684.1616715037
 10
261.9135751068
 20
1684.6198869943
 10
260.8537089377
 20
1685.1222547529
 10
260.0808637747
 20
1685.6585480204
 10
259.6107725166
 20
1686.2178494127
 10
259.4530048657
 20
1686.7887731661
  0
LWPOLYLINE
  5
388
330
1F
100
AcDbEntity
  8
0
  6
Continuous
 62
     7
370
    25
100
AcDbPolyline
 90
       12
 70
   128
 43
0.0
 10
290.4530048657
 20
1686.7887731661
 10
290.2952372149
 20
1686.2178494127
 10
289.8251459567
 20
1685.6585480204
 10
289.0523007937
 20
1685.1222547529
 10
287.9924346246
 20
1684.6198869943
 10
286.6671232682
 20
1684.1616715037
 10
285.1033462419
 20
1683.756936227
 10
283.3329375363
 20
1683.4139204073
 10
281.3919375672
 20
1683.1396068574
 10
279.3198594967
 20
1682.9395798103
 10
277.1588848589
 20
1682.8179112398
 10
274.9530048657
 20
1682.7770779671
  0
LWPOLYLINE
  5
389
330
1F
100
AcDbEntity
  8
0
  6
Continuous
 62
     7
370
    25
100
AcDbPolyline
 90
       19
 70
   128
 43
0.0
 10
44.1560501225
 20
1743.4249583023
 10
43.9927334674
 20
1742.9418161554
 10
43.507745796
 20
1742.4733540381
 10
42.7158232132
 20
1742.0338059349
 10
41.641027886
 20
1741.6365272924
 10
40.3160169266
 20
1741.2935892211
 10
38.7810501225
 20
1741.0154117209
 10
37.0827666633
 20
1740.8104470742
 10
35.2727680324
 20
1740.6849230282
 10
33.4060501225
 20
1740.6426535675
 10
31.5393322126
 20
1740.6849230282
 10
29.7293335818
 20
1740.8104470742
 10
28.0310501225
 20
1741.0154117209
 10
26.4960833184
 20
1741.2935892211
 10
25.171072359
 20
1741.6365272924
 10
24.0962770318
 20
1742.0338059349
 10
23.3043544491
 20
1742.4733540381
 10
22.8193667776
 20
1742.9418161554
 10
22.6560501225
 20
1743.4249583023
  0
LWPOLYLINE
  5
38A
330
1F
100
AcDbEntity
  8
0
  6
Continuous
 62
     7
370
    25
100
AcDbPolyline
 90
       24
 70
   128
 43
0.0
 10
48.9060501225
 20
1731.3508854737
 10
48.7482824717
 20
1730.7799617203
 10
48.2781912135
 20
1730.220660328
 10
47.5053460505
 20
1729.6843670604
 10
46.4454798814
 20
1729.1819993019
 10
45.120168525
 20
1728.7237838113
 10
43.5563914987
 20
1728.3190485346
 10
41.7859827931
 20
1727.9760327148
 10
39.844982824
 20
1727.701719165
 10
37.7729047536
 20
1727.5016921179
 10
35.6119301158
 20
1727.3800235474
 10
33.4060501225
 20
1727.3391902746
 10
31.2001701293
 20
1727.3800235474
 10
29.0391954915
 20
1727.5016921179
 10
26.967117421
 20
1727.701719165
 10
25.026117452
 20
1727.9760327148
 10
23.2557087464
 20
1728.3190485346
 10
21.69193172
 20
1728.7237838113
 10
20.3666203636
 20
1729.1819993019
 10
19.3067541945
 20
1729.6843670604
 10
18.5339090315
 20
1730.220660328
 10
18.0638177734
 20
1730.7799617203
 10
17.9060501225
 20
1731.3508854737
 10
17.9060501225
 20
1731.3508854737
  0
LWPOLYLINE
  5
38B
330
1F
100
AcDbEntity
  8
0
  6
Continuous
 62
     7
370
    25
100
AcDbPolyline
 90
       10
 70
   128
 43
0.0
 10
33.4060501225
 20
-1516.7105630191
 10
35.2727680324
 20
-1516.7528324798
 10
37.0827666633
 20
-1516.8783565258
 10
38.7810501225
 20
-1517.0833211725
 10
40.3160169266
 20
-1517.3614986727
 10
41.641027886
 20
-1517.704436744
 10
42.7158232132
 20
-1518.1017153865
 10
43.507745796
 20
-1518.5412634897
 10
43.9927334674
 20
-1519.009725607
 10
44.1560501225
 20
-1519.4928677539
  0
LWPOLYLINE
  5
38C
330
1F
100
AcDbEntity
  8
0
  6
Continuous
 62
     7
370
    25
100
AcDbPolyline
 90
       10
 70
   128
 43
0.0
 10
22.6560501225
 20
-1519.4928677539
 10
22.8193667776
 20
-1519.009725607
 10
23.3043544491
 20
-1518.5412634897
 10
24.0962770318
 20
-1518.1017153865
 10
25.171072359
 20
-1517.704436744
 10
26.4960833184
 20
-1517.3614986727
 10
28.0310501225
 20
-1517.0833211725
 10
29.7293335818
 20
-1516.8783565258
 10
31.5393322126
 20
-1516.7528324798
 10
33.4060501225
 20
-1516.7105630191
  0
LWPOLYLINE
  5
38D
330
1F
100
AcDbEntity
  8
0
  6
Continuous
 62
     7
370
    25
100
AcDbPolyline
 90
       12
 70
   128
 43
0.0
 10
33.4060501225
 20
-1503.4070997262
 10
35.6119301157
 20
-1503.447932999
 10
37.7729047536
 20
-1503.5696015695
 10
39.844982824
 20
-1503.7696286166
 10
41.7859827931
 20
-1504.0439421664
 10
43.5563914987
 20
-1504.3869579861
 10
45.120168525
 20
-1504.7916932629
 10
46.4454798814
 20
-1505.2499087535
 10
47.5053460505
 20
-1505.752276512
 10
48.2781912135
 20
-1506.2885697796
 10
48.7482824717
 20
-1506.8478711718
 10
48.9060501225
 20
-1507.4187949253
  0
LWPOLYLINE
  5
38E
330
1F
100
AcDbEntity
  8
0
  6
Continuous
 62
     7
370
    25
100
AcDbPolyline
 90
       12
 70
   128
 43
0.0
 10
17.9060501225
 20
-1507.4187949253
 10
18.0638177734
 20
-1506.8478711718
 10
18.5339090315
 20
-1506.2885697796
 10
19.3067541945
 20
-1505.752276512
 10
20.3666203636
 20
-1505.2499087535
 10
21.69193172
 20
-1504.7916932629
 10
23.2557087464
 20
-1504.3869579861
 10
25.0261174519
 20
-1504.0439421664
 10
26.967117421
 20
-1503.7696286166
 10
29.0391954915
 20
-1503.5696015695
 10
31.2001701293
 20
-1503.447932999
 10
33.4060501225
 20
-1503.4070997262
  0
LWPOLYLINE
  5
38F
330
1F
100
AcDbEntity
  8
0
  6
Continuous
 62
     7
370
    25
100
AcDbPolyline
 90
       20
 70
   128
 43
0.0
 10
355.749959609
 20
-1519.4928677539
 10
355.9132762641
 20
-1519.009725607
 10
356.3982639355
 20
-1518.5412634897
 10
357.1901865183
 20
-1518.1017153865
 10
358.2649818454
 20
-1517.704436744
 10
359.5899928048
 20
-1517.3614986727
 10
361.124959609
 20
-1517.0833211725
 10
362.8232430682
 20
-1516.8783565258
 10
364.633241699
 20
-1516.7528324798
 10
366.499959609
 20
-1516.7105630191
 10
368.3666775189
 20
-1516.7528324798
 10
370.1766761497
 20
-1516.8783565258
 10
371.874959609
 20
-1517.0833211725
 10
373.4099264131
 20
-1517.3614986727
 10
374.7349373725
 20
-1517.704436744
 10
375.8097326996
 20
-1518.1017153865
 10
376.6016552824
 20
-1518.5412634897
 10
377.0866429538
 20
-1519.009725607
 10
377.249959609
 20
-1519.4928677539
 10
377.249959609
 20
-1519.4928677539
  0
LWPOLYLINE
  5
390
330
1F
100
AcDbEntity
  8
0
  6
Continuous
 62
     7
370
    25
100
AcDbPolyline
 90
       24
 70
   128
 43
0.0
 10
350.999959609
 20
-1507.4187949253
 10
351.1577272598
 20
-1506.8478711718
 10
351.6278185179
 20
-1506.2885697796
 10
352.400663681
 20
-1505.752276512
 10
353.4605298501
 20
-1505.2499087535
 10
354.7858412065
 20
-1504.7916932629
 10
356.3496182328
 20
-1504.3869579862
 10
358.1200269384
 20
-1504.0439421664
 10
360.0610269074
 20
-1503.7696286166
 10
362.1331049779
 20
-1503.5696015695
 10
364.2940796157
 20
-1503.447932999
 10
366.499959609
 20
-1503.4070997262
 10
368.7058396022
 20
-1503.447932999
 10
370.86681424
 20
-1503.5696015695
 10
372.9388923105
 20
-1503.7696286166
 10
374.8798922795
 20
-1504.0439421664
 10
376.6503009851
 20
-1504.3869579862
 10
378.2140780115
 20
-1504.7916932629
 10
379.5393893678
 20
-1505.2499087535
 10
380.599255537
 20
-1505.752276512
 10
381.3721007
 20
-1506.2885697796
 10
381.8421919581
 20
-1506.8478711718
 10
381.999959609
 20
-1507.4187949253
 10
381.999959609
 20
-1507.4187949253
  0
ARC
  5
391
330
1F
100
AcDbEntity
  8
0
  6
Continuous
 62
     7
370
    25
100
AcDbCircle
 10
360.2736705734
 20
-1516.7098250968
 30
0.0
 40
5.905998105273522
100
AcDbArc
 50
227.9959568963
 51
261.1944323101
  0
ARC
  5
392
330
1F
100
AcDbEntity
  8
0
  6
Continuous
 62
     7
370
    25
100
AcDbCircle
 10
366.4935290317
 20
-1549.7935912529
 30
0.0
 40
31.92132678980726
100
AcDbArc
 50
75.6967810396
 51
104.1500616549
  0
ARC
  5
393
330
1F
100
AcDbEntity
  8
0
  6
Continuous
 62
     7
370
    25
100
AcDbCircle
 10
372.2490563334
 20
-1515.2451279508
 30
0.0
 40
7.430599118563306
100
AcDbArc
 50
280.7131784079
 51
302.5755071162
  0
ARC
  5
394
330
1F
100
AcDbEntity
  8
0
  6
Continuous
 62
     7
370
    25
100
AcDbCircle
 10
131.1792939013
 20
1696.0798033377
 30
0.0
 40
5.905998105262366
100
AcDbArc
 50
47.9959568962
 51
81.1944323101
  0
ARC
  5
395
330
1F
100
AcDbEntity
  8
0
  6
Continuous
 62
     7
370
    25
100
AcDbCircle
 10
124.959435443
 20
1729.1635694937
 30
0.0
 40
31.92132678981715
100
AcDbArc
 50
255.6967810396
 51
284.1500616548
  0
ARC
  5
396
330
1F
100
AcDbEntity
  8
0
  6
Continuous
 62
     7
370
    25
100
AcDbCircle
 10
119.2039081413
 20
1694.6151061918
 30
0.0
 40
7.430599118406086
100
AcDbArc
 50
100.7131784077
 51
122.5755071164
  0
ARC
  5
397
330
1F
100
AcDbEntity
  8
0
  6
Continuous
 62
     7
370
    25
100
AcDbCircle
 10
268.7267158301
 20
-1472.1477127892
 30
0.0
 40
5.905998105268535
100
AcDbArc
 50
227.9959568962
 51
261.1944323101
  0
ARC
  5
398
330
1F
100
AcDbEntity
  8
0
  6
Continuous
 62
     7
370
    25
100
AcDbCircle
 10
274.9465742885
 20
-1505.2314789453
 30
0.0
 40
31.92132678980749
100
AcDbArc
 50
75.6967810396
 51
104.1500616549
  0
ARC
  5
399
330
1F
100
AcDbEntity
  8
0
  6
Continuous
 62
     7
370
    25
100
AcDbCircle
 10
280.7021015901
 20
-1470.6830156433
 30
0.0
 40
7.430599118491658
100
AcDbArc
 50
280.7131784078
 51
302.5755071163
  0
ARC
  5
39A
330
1F
100
AcDbEntity
  8
0
  6
Continuous
 62
     7
370
    25
100
AcDbCircle
 10
130.6910174425
 20
-1470.6490359078
 30
0.0
 40
7.466048452019151
100
AcDbArc
 50
280.7482829341
 51
302.3918643866
  0
ARC
  5
39B
330
1F
100
AcDbEntity
  8
0
  6
Continuous
 62
     7
370
    25
100
AcDbCircle
 10
118.8033677913
 20
-1471.9121734883
 30
0.0
 40
6.150623322192636
100
AcDbArc
 50
229.751535192
 51
260.8246839112
  0
ARC
  5
39C
330
1F
100
AcDbEntity
  8
0
  6
Continuous
 62
     7
370
    25
100
AcDbCircle
 10
269.2149922889
 20
1694.5811264562
 30
0.0
 40
7.466048451959181
100
AcDbArc
 50
100.748282934
 51
122.3918643867
  0
ARC
  5
39D
330
1F
100
AcDbEntity
  8
0
  6
Continuous
 62
     7
370
    25
100
AcDbCircle
 10
281.1026419402
 20
1695.8442640367
 30
0.0
 40
6.150623322185163
100
AcDbArc
 50
49.751535192
 51
80.8246839113
  0
ARC
  5
39E
330
1F
100
AcDbEntity
  8
0
  6
Continuous
 62
     7
370
    25
100
AcDbCircle
 10
360.7619470322
 20
1739.1432387638
 30
0.0
 40
7.466048451962788
100
AcDbArc
 50
100.748282934
 51
122.3918643867
  0
ARC
  5
39F
330
1F
100
AcDbEntity
  8
0
  6
Continuous
 62
     7
370
    25
100
AcDbCircle
 10
372.6495966834
 20
1740.4063763443
 30
0.0
 40
6.150623322186855
100
AcDbArc
 50
49.751535192
 51
80.8246839112
  0
ARC
  5
3A0
330
1F
100
AcDbEntity
  8
0
  6
Continuous
 62
     7
370
    25
100
AcDbCircle
 10
39.6323391581
 20
1740.6419156452
 30
0.0
 40
5.905998105264077
100
AcDbArc
 50
47.9959568962
 51
81.1944323101
  0
ARC
  5
3A1
330
1F
100
AcDbEntity
  8
0
  6
Continuous
 62
     7
370
    25
100
AcDbCircle
 10
33.4124806998
 20
1773.7256818013
 30
0.0
 40
31.92132678981407
100
AcDbArc
 50
255.6967810396
 51
284.1500616548
  0
ARC
  5
3A2
330
1F
100
AcDbEntity
  8
0
  6
Continuous
 62
     7
370
    25
100
AcDbCircle
 10
27.6569533981
 20
1739.1772184993
 30
0.0
 40
7.4305991184156
100
AcDbArc
 50
100.7131784077
 51
122.5755071164
  0
ARC
  5
3A3
330
1F
100
AcDbEntity
  8
0
  6
Continuous
 62
     7
370
    25
100
AcDbCircle
 10
39.1440626992
 20
-1515.2111482151
 30
0.0
 40
7.466048452255515
100
AcDbArc
 50
280.7482829345
 51
302.3918643863
  0
ARC
  5
3A4
330
1F
100
AcDbEntity
  8
0
  6
Continuous
 62
     7
370
    25
100
AcDbCircle
 10
27.2564130481
 20
-1516.4742857959
 30
0.0
 40
6.150623322191768
100
AcDbArc
 50
229.751535192
 51
260.8246839112
  0
LINE
  5
3A5
330
1F
100
AcDbEntity
  8
0
  6
Continuous
 62
     7
370
    25
100
AcDbLine
 10
-3450.0469951343
 20
2007.57221757
 30
0.0
 11
-3450.0469951343
 21
-242.42778243
 31
0.0
  0
LINE
  5
3A6
330
1F
100
AcDbEntity
  8
0
  6
Continuous
 62
     7
370
    25
100
AcDbLine
 10
3849.9530048657
 20
-242.42778243
 30
0.0
 11
3849.9530048657
 21
2007.57221757
 31
0.0
  0
LINE
  5
3A7
330
1F
100
AcDbEntity
  8
0
  6
Continuous
 62
     7
370
    25
100
AcDbLine
 10
3849.9530048657
 20
2007.57221757
 30
0.0
 11
1133.0195456951
 21
2007.57221757
 31
0.0
  0
LINE
  5
3A8
330
1F
100
AcDbEntity
  8
0
  6
Continuous
 62
     7
370
    25
100
AcDbLine
 10
893.6499512026
 20
2007.57221757
 30
0.0
 11
-493.7439414712
 21
2007.57221757
 31
0.0
  0
LINE
  5
3A9
330
1F
100
AcDbEntity
  8
0
  6
Continuous
 62
     7
370
    25
100
AcDbLine
 10
-733.1135359636
 20
2007.57221757
 30
0.0
 11
-3450.0469951343
 21
2007.57221757
 31
0.0
  0
LWPOLYLINE
  5
3AA
330
1F
100
AcDbEntity
  8
0
  6
Continuous
 62
     7
370
    25
100
AcDbPolyline
 90
       11
 70
   128
 43
0.0
 10
445.0412647126
 20
522.2520131327
 10
447.2140084934
 20
522.460076321
 10
449.6894250951
 20
521.8047453557
 10
451.8413039519
 20
520.3266824682
 10
453.4271515883
 20
518.1925612662
 10
454.2682680948
 20
515.6430129944
 10
454.2698769596
 20
512.9654914787
 10
453.4318007845
 20
510.4618637818
 10
451.8484791735
 20
508.4143794462
 10
449.698327679
 20
507.0538536157
 10
448.5837005659
 20
506.8195480966
  0
ARC
  5
3AB
330
1F
100
AcDbEntity
  8
0
  6
Continuous
 62
     7
370
    25
100
AcDbCircle
 10
-46.6122232256
 20
515.3970094223
 30
0.0
 40
7.04239463482656
100
AcDbArc
 50
74.852909937
 51
149.1717149386
  0
LWPOLYLINE
  5
3AC
330
1F
100
AcDbEntity
  8
0
  6
Continuous
 62
     7
370
    25
100
AcDbPolyline
 90
        8
 70
   128
 43
0.0
 10
-48.3137974805
 20
506.7755227984
 10
-48.7573166237
 20
506.8242651187
 10
-51.0224289404
 20
507.9669741877
 10
-52.7814791239
 20
509.8470847701
 10
-53.8362479113
 20
512.2526450851
 10
-54.067882914
 20
514.912457838
 10
-53.4502867417
 20
517.5266543783
 10
-52.6595768895
 20
519.006003168
  0
LINE
  5
3AD
330
1F
100
AcDbEntity
  8
0
  6
Continuous
 62
     7
370
    25
100
AcDbLine
 10
448.7883626815
 20
501.8559389447
 30
0.0
 11
447.9917192806
 21
501.6218856303
 31
0.0
  0
LINE
  5
3AE
330
1F
100
AcDbEntity
  8
0
  6
Continuous
 62
     7
370
    25
100
AcDbLine
 10
441.9569887572
 20
528.0032145907
 30
0.0
 11
442.2054826482
 21
528.050518493
 31
0.0
  0
LWPOLYLINE
  5
3AF
330
1F
100
AcDbEntity
  8
0
  6
Continuous
 62
     7
370
    25
100
AcDbPolyline
 90
        3
 70
   128
 43
0.0
 10
-42.4281631017
 20
528.1307518013
 10
-41.9495220996
 20
528.056141908
 10
-41.6671498027
 20
528.0027585995
  0
LINE
  5
3B0
330
1F
100
AcDbEntity
  8
0
  6
Continuous
 62
     7
370
    25
100
AcDbLine
 10
454.5769659042
 20
503.3109966702
 30
0.0
 11
455.1051903349
 21
503.4596393367
 31
0.0
  0
LWPOLYLINE
  5
3B1
330
1F
100
AcDbEntity
  8
0
  6
Continuous
 62
     7
370
    25
100
AcDbPolyline
 90
       11
 70
   128
 43
0.0
 10
448.5838652857
 20
1258.3250272325
 10
449.6896107507
 20
1258.0941196425
 10
451.8414539255
 20
1256.7364602888
 10
453.4272489715
 20
1254.6911140159
 10
454.2683019085
 20
1252.1886629686
 10
454.2698433916
 20
1249.5112296639
 10
453.4317036195
 20
1246.960671397
 10
451.8483293659
 20
1244.8245504723
 10
449.6981421185
 20
1243.3437154924
 10
447.2234386441
 20
1242.6851466428
 10
445.0410685182
 20
1242.8912125589
  0
ARC
  5
3B2
330
1F
100
AcDbEntity
  8
0
  6
Continuous
 62
     7
370
    25
100
AcDbCircle
 10
-47.443883716
 20
1252.4066990598
 30
0.0
 40
6.052487026050275
100
AcDbArc
 50
98.3051534745
 51
149.5107515377
  0
LWPOLYLINE
  5
3B3
330
1F
100
AcDbEntity
  8
0
  6
Continuous
 62
     7
370
    25
100
AcDbPolyline
 90
        9
 70
   128
 43
0.0
 10
-44.7684131344
 20
1242.9465066996
 10
-46.241600655
 20
1242.6604132236
 10
-48.7575084226
 20
1243.0775286081
 10
-51.0225903874
 20
1244.3469416129
 10
-52.7815920171
 20
1246.3255018259
 10
-53.8362995229
 20
1248.7901134105
 10
-54.0678674254
 20
1251.4628945431
 10
-53.450205899
 20
1254.0425087435
 10
-52.6594593744
 20
1255.4775897696
  0
LINE
  5
3B4
330
1F
100
AcDbEntity
  8
0
  6
Continuous
 62
     7
370
    25
100
AcDbLine
 10
441.9569887572
 20
1237.1412205493
 30
0.0
 11
441.7605700245
 21
1237.1824820594
 31
0.0
  0
LWPOLYLINE
  5
3B5
330
1F
100
AcDbEntity
  8
0
  6
Continuous
 62
     7
370
    25
100
AcDbPolyline
 90
        3
 70
   128
 43
0.0
 10
446.9672506746
 20
1263.7380682676
 10
447.1001018622
 20
1263.7153669262
 10
447.9917192806
 20
1263.5225495098
  0
LWPOLYLINE
  5
3B6
330
1F
100
AcDbEntity
  8
0
  6
Continuous
 62
     7
370
    25
100
AcDbPolyline
 90
        3
 70
   128
 43
0.0
 10
-41.6671498027
 20
1237.1416765405
 10
-41.9495220996
 20
1237.0882932321
 10
-42.0930373994
 20
1237.0638389551
  0
LINE
  5
3B7
330
1F
100
AcDbEntity
  8
0
  6
Continuous
 62
     7
370
    25
100
AcDbLine
 10
-47.7069600227
 20
1263.5218269322
 30
0.0
 11
-46.888364741
 21
1263.7016992286
 31
0.0
  0
LINE
  5
3B8
330
1F
100
AcDbEntity
  8
0
  6
Continuous
 62
     7
370
    25
100
AcDbLine
 10
455.3410792782
 20
1261.6097571619
 30
0.0
 11
454.5769659042
 21
1261.8334384698
 31
0.0
  0
LINE
  5
3B9
330
1F
100
AcDbEntity
  8
0
  6
Continuous
 62
     7
370
    25
100
AcDbLine
 10
448.6216798334
 20
1235.7994075752
 30
0.0
 11
449.2993078819
 21
1235.6833782726
 31
0.0
  0
LWPOLYLINE
  5
3BA
330
1F
100
AcDbEntity
  8
0
  6
Continuous
 62
     7
370
    25
100
AcDbPolyline
 90
        3
 70
   128
 43
0.0
 10
-48.7463415375
 20
1235.7230345861
 10
-48.6046540929
 20
1235.7471770217
 10
-48.3259990974
 20
1235.7998575635
  0
LINE
  5
3BB
330
1F
100
AcDbEntity
  8
0
  6
Continuous
 62
     7
370
    25
100
AcDbLine
 10
-189.8653207236
 20
882.4942175704
 30
0.0
 11
-299.8653185236
 21
882.4722175705
 31
0.0
  0
LINE
  5
3BC
330
1F
100
AcDbEntity
  8
0
  6
Continuous
 62
     7
370
    25
100
AcDbLine
 10
-189.8653207236
 20
882.6502175696
 30
0.0
 11
-299.8653185236
 21
882.6722175695
 31
0.0
  0
LINE
  5
3BD
330
1F
100
AcDbEntity
  8
0
  6
Continuous
 62
     7
370
    25
100
AcDbLine
 10
-60.3684655642
 20
527.0016829108
 30
0.0
 11
-59.9308365114
 21
527.3071649315
 31
0.0
  0
LINE
  5
3BE
330
1F
100
AcDbEntity
  8
0
  6
Continuous
 62
     7
370
    25
100
AcDbLine
 10
460.1582575489
 20
527.3546473223
 30
0.0
 11
460.8518321427
 21
527.0026622325
 31
0.0
  0
LINE
  5
3BF
330
1F
100
AcDbEntity
  8
0
  6
Continuous
 62
     7
370
    25
100
AcDbLine
 10
460.8166924964
 20
1238.1441787162
 30
0.0
 11
460.2460982341
 21
1237.9059193176
 31
0.0
  0
LINE
  5
3C0
330
1F
100
AcDbEntity
  8
0
  6
Continuous
 62
     7
370
    25
100
AcDbLine
 10
-59.879726804
 20
1237.7758434555
 30
0.0
 11
-60.5283142149
 21
1238.1416738024
 31
0.0
  0
ARC
  5
3C1
330
1F
100
AcDbEntity
  8
0
  6
Continuous
 62
     7
370
    25
100
AcDbCircle
 10
200.1346714764
 20
882.57221757
 30
0.0
 40
45.00000000000004
100
AcDbArc
 50
210.2403483212
 51
218.572960339
  0
ARC
  5
3C2
330
1F
100
AcDbEntity
  8
0
  6
Continuous
 62
     7
370
    25
100
AcDbCircle
 10
200.1346714764
 20
882.57221757
 30
0.0
 40
45.00000000000005
100
AcDbArc
 50
170.2403483212
 51
189.7596516788
  0
LWPOLYLINE
  5
3C3
330
1F
100
AcDbEntity
  8
0
  6
Continuous
 62
     7
370
    25
100
AcDbPolyline
 90
        3
 70
   128
 43
0.0
 10
161.2582554801
 20
905.2354979875
 10
163.1829570654
 20
908.2543281158
 10
164.9530048657
 20
910.630199224
  0
ARC
  5
3C4
330
1F
100
AcDbEntity
  8
0
  6
Continuous
 62
     7
370
    25
100
AcDbCircle
 10
200.1346714764
 20
882.57221757
 30
0.0
 40
45.00000000000003
100
AcDbArc
 50
10.2403483212
 51
29.7596516788
  0
ARC
  5
3C5
330
1F
100
AcDbEntity
  8
0
  6
Continuous
 62
     7
370
    25
100
AcDbCircle
 10
200.1346714764
 20
882.57221757
 30
0.0
 40
44.99999999999998
100
AcDbArc
 50
330.2403483212
 51
349.7596516788
  0
LINE
  5
3C6
330
1F
100
AcDbEntity
  8
0
  6
Continuous
 62
     7
370
    25
100
AcDbLine
 10
340.5605088565
 20
1246.4907239074
 30
0.0
 11
326.4845458904
 21
1251.6139554457
 31
0.0
  0
LINE
  5
3C7
330
1F
100
AcDbEntity
  8
0
  6
Continuous
 62
     7
370
    25
100
AcDbLine
 10
73.7847970625
 20
1251.6139554457
 30
0.0
 11
59.7088340964
 21
1246.4907239074
 31
0.0
  0
LINE
  5
3C8
330
1F
100
AcDbEntity
  8
0
  6
Continuous
 62
     7
370
    25
100
AcDbLine
 10
-56.2899113737
 20
1176.5152875153
 30
0.0
 11
-44.815081229
 21
1186.1438132575
 31
0.0
  0
LINE
  5
3C9
330
1F
100
AcDbEntity
  8
0
  6
Continuous
 62
     7
370
    25
100
AcDbLine
 10
-133.8704042708
 20
1084.0584563899
 30
0.0
 11
-141.3600677282
 21
1071.0859787501
 31
0.0
  0
LINE
  5
3CA
330
1F
100
AcDbEntity
  8
0
  6
Continuous
 62
     7
370
    25
100
AcDbLine
 10
-185.240918609
 20
942.9191282198
 30
0.0
 11
-182.6397857876
 21
957.6708855004
 31
0.0
  0
LINE
  5
3CB
330
1F
100
AcDbEntity
  8
0
  6
Continuous
 62
     7
370
    25
100
AcDbLine
 10
-185.240918609
 20
822.2253069202
 30
0.0
 11
-182.6397857876
 21
807.4735496396
 31
0.0
  0
LINE
  5
3CC
330
1F
100
AcDbEntity
  8
0
  6
Continuous
 62
     7
370
    25
100
AcDbLine
 10
-133.8704042708
 20
681.0859787501
 30
0.0
 11
-141.3600677282
 21
694.0584563899
 31
0.0
  0
LINE
  5
3CD
330
1F
100
AcDbEntity
  8
0
  6
Continuous
 62
     7
370
    25
100
AcDbLine
 10
-56.2899113737
 20
588.6291476247
 30
0.0
 11
-44.815081229
 21
579.0006218825
 31
0.0
  0
LINE
  5
3CE
330
1F
100
AcDbEntity
  8
0
  6
Continuous
 62
     7
370
    25
100
AcDbLine
 10
73.7847970625
 20
513.5304796944
 30
0.0
 11
59.7088340964
 21
518.6537112327
 31
0.0
  0
LINE
  5
3CF
330
1F
100
AcDbEntity
  8
0
  6
Continuous
 62
     7
370
    25
100
AcDbLine
 10
340.5605088565
 20
518.6537112327
 30
0.0
 11
326.4845458904
 21
513.5304796944
 31
0.0
  0
LINE
  5
3D0
330
1F
100
AcDbEntity
  8
0
  6
Continuous
 62
     7
370
    25
100
AcDbLine
 10
541.629410681
 20
694.0584563899
 30
0.0
 11
534.1397472237
 21
681.0859787501
 31
0.0
  0
LINE
  5
3D1
330
1F
100
AcDbEntity
  8
0
  6
Continuous
 62
     7
370
    25
100
AcDbLine
 10
445.0844241818
 20
579.0006218825
 30
0.0
 11
456.5592543265
 21
588.6291476247
 31
0.0
  0
LINE
  5
3D2
330
1F
100
AcDbEntity
  8
0
  6
Continuous
 62
     7
370
    25
100
AcDbLine
 10
582.9091287405
 20
957.6708855004
 30
0.0
 11
585.5102615619
 21
942.9191282199
 31
0.0
  0
LINE
  5
3D3
330
1F
100
AcDbEntity
  8
0
  6
Continuous
 62
     7
370
    25
100
AcDbLine
 10
582.9091287405
 20
807.4735496397
 30
0.0
 11
585.5102615619
 21
822.2253069202
 31
0.0
  0
LINE
  5
3D4
330
1F
100
AcDbEntity
  8
0
  6
Continuous
 62
     7
370
    25
100
AcDbLine
 10
445.0844241818
 20
1186.1438132576
 30
0.0
 11
456.5592543265
 21
1176.5152875153
 31
0.0
  0
LINE
  5
3D5
330
1F
100
AcDbEntity
  8
0
  6
Continuous
 62
     7
370
    25
100
AcDbLine
 10
541.629410681
 20
1071.0859787501
 30
0.0
 11
534.1397472237
 21
1084.0584563899
 31
0.0
  0
LINE
  5
3D6
330
1F
100
AcDbEntity
  8
0
  6
Continuous
 62
     7
370
    25
100
AcDbLine
 10
158.9365465342
 20
424.4610452742
 30
0.0
 11
164.9530048657
 21
424.4610452742
 31
0.0
  0
LINE
  5
3D7
330
1F
100
AcDbEntity
  8
0
  6
Continuous
 62
     7
370
    25
100
AcDbLine
 10
234.9530048657
 20
424.4610452742
 30
0.0
 11
241.3530048657
 21
424.4610452742
 31
0.0
  0
LINE
  5
3D8
330
1F
100
AcDbEntity
  8
0
  6
Continuous
 62
     7
370
    25
100
AcDbLine
 10
158.5530048657
 20
424.4610452742
 30
0.0
 11
158.9365465342
 21
424.4610452742
 31
0.0
  0
LINE
  5
3D9
330
1F
100
AcDbEntity
  8
0
  6
Continuous
 62
     7
370
    25
100
AcDbLine
 10
158.9365465342
 20
405.4610452742
 30
0.0
 11
164.9530048657
 21
405.4610452742
 31
0.0
  0
LINE
  5
3DA
330
1F
100
AcDbEntity
  8
0
  6
Continuous
 62
     7
370
    25
100
AcDbLine
 10
234.9530048657
 20
405.4610452742
 30
0.0
 11
241.3530048657
 21
405.4610452742
 31
0.0
  0
LINE
  5
3DB
330
1F
100
AcDbEntity
  8
0
  6
Continuous
 62
     7
370
    25
100
AcDbLine
 10
158.5530048657
 20
405.4610452742
 30
0.0
 11
158.9365465342
 21
405.4610452742
 31
0.0
  0
LINE
  5
3DC
330
1F
100
AcDbEntity
  8
0
  6
Continuous
 62
     7
370
    25
100
AcDbLine
 10
158.9365465342
 20
1358.4610452742
 30
0.0
 11
164.9530048657
 21
1358.4610452742
 31
0.0
  0
LINE
  5
3DD
330
1F
100
AcDbEntity
  8
0
  6
Continuous
 62
     7
370
    25
100
AcDbLine
 10
234.9530048657
 20
1358.4610452742
 30
0.0
 11
241.3530048657
 21
1358.4610452742
 31
0.0
  0
LINE
  5
3DE
330
1F
100
AcDbEntity
  8
0
  6
Continuous
 62
     7
370
    25
100
AcDbLine
 10
158.5530048657
 20
1358.4610452742
 30
0.0
 11
158.9365465342
 21
1358.4610452742
 31
0.0
  0
LINE
  5
3DF
330
1F
100
AcDbEntity
  8
0
  6
Continuous
 62
     7
370
    25
100
AcDbLine
 10
158.9365465342
 20
1339.4610452742
 30
0.0
 11
164.9530048657
 21
1339.4610452742
 31
0.0
  0
LINE
  5
3E0
330
1F
100
AcDbEntity
  8
0
  6
Continuous
 62
     7
370
    25
100
AcDbLine
 10
234.9530048657
 20
1339.4610452742
 30
0.0
 11
241.3530048657
 21
1339.4610452742
 31
0.0
  0
LINE
  5
3E1
330
1F
100
AcDbEntity
  8
0
  6
Continuous
 62
     7
370
    25
100
AcDbLine
 10
158.5530048657
 20
1339.4610452742
 30
0.0
 11
158.9365465342
 21
1339.4610452742
 31
0.0
  0
LINE
  5
3E2
330
1F
100
AcDbEntity
  8
0
  6
Continuous
 62
     7
370
    25
100
AcDbLine
 10
230.9530048657
 20
1578.204601804
 30
0.0
 11
168.9530048657
 21
1578.204601804
 31
0.0
  0
LINE
  5
3E3
330
1F
100
AcDbEntity
  8
0
  6
Continuous
 62
     7
370
    25
100
AcDbLine
 10
230.9530048657
 20
1578.204601804
 30
0.0
 11
230.9530048657
 21
-103.0389547258
 31
0.0
  0
LINE
  5
3E4
330
1F
100
AcDbEntity
  8
0
  6
Continuous
 62
     7
370
    25
100
AcDbLine
 10
234.9530048657
 20
1578.204601804
 30
0.0
 11
234.9530048657
 21
-103.0389547258
 31
0.0
  0
LINE
  5
3E5
330
1F
100
AcDbEntity
  8
0
  6
Continuous
 62
     7
370
    25
100
AcDbLine
 10
168.9530048657
 20
1578.204601804
 30
0.0
 11
168.9530048657
 21
-103.0389547258
 31
0.0
  0
LINE
  5
3E6
330
1F
100
AcDbEntity
  8
0
  6
Continuous
 62
     7
370
    25
100
AcDbLine
 10
164.9530048657
 20
1578.204601804
 30
0.0
 11
164.9530048657
 21
-103.0389547258
 31
0.0
  0
LINE
  5
3E7
330
1F
100
AcDbEntity
  8
0
  6
Continuous
 62
     7
370
    25
100
AcDbLine
 10
286.7973304408
 20
-182.0389547258
 30
0.0
 11
286.7973304408
 21
-114.0389547258
 31
0.0
  0
LINE
  5
3E8
330
1F
100
AcDbEntity
  8
0
  6
Continuous
 62
     7
370
    25
100
AcDbLine
 10
285.0314352551
 20
-108.0389547258
 30
0.0
 11
304.1831466617
 21
-108.0389547258
 31
0.0
  0
LINE
  5
3E9
330
1F
100
AcDbEntity
  8
0
  6
Continuous
 62
     7
370
    25
100
AcDbLine
 10
401.1463519232
 20
-108.0389547258
 30
0.0
 11
1403.4647214952
 21
-108.0389547258
 31
0.0
  0
LINE
  5
3EA
330
1F
100
AcDbEntity
  8
0
  6
Continuous
 62
     7
370
    25
100
AcDbLine
 10
285.0314352551
 20
-188.0389547258
 30
0.0
 11
304.1831466617
 21
-188.0389547258
 31
0.0
  0
LINE
  5
3EB
330
1F
100
AcDbEntity
  8
0
  6
Continuous
 62
     7
370
    25
100
AcDbLine
 10
401.1463519232
 20
-188.0389547258
 30
0.0
 11
1403.4647214952
 21
-188.0389547258
 31
0.0
  0
LINE
  5
3EC
330
1F
100
AcDbEntity
  8
0
  6
Continuous
 62
     7
370
    25
100
AcDbLine
 10
113.1086792907
 20
-114.0389547258
 30
0.0
 11
113.1086792907
 21
-182.0389547258
 31
0.0
  0
LINE
  5
3ED
330
1F
100
AcDbEntity
  8
0
  6
Continuous
 62
     7
370
    25
100
AcDbLine
 10
114.8745744764
 20
-108.0389547258
 30
0.0
 11
95.7228630697
 21
-108.0389547258
 31
0.0
  0
LINE
  5
3EE
330
1F
100
AcDbEntity
  8
0
  6
Continuous
 62
     7
370
    25
100
AcDbLine
 10
-1.2403421917
 20
-108.0389547258
 30
0.0
 11
-1003.5587117637
 21
-108.0389547258
 31
0.0
  0
LINE
  5
3EF
330
1F
100
AcDbEntity
  8
0
  6
Continuous
 62
     7
370
    25
100
AcDbLine
 10
114.8745744764
 20
-188.0389547258
 30
0.0
 11
95.7228630697
 21
-188.0389547258
 31
0.0
  0
LINE
  5
3F0
330
1F
100
AcDbEntity
  8
0
  6
Continuous
 62
     7
370
    25
100
AcDbLine
 10
-1.2403421917
 20
-188.0389547258
 30
0.0
 11
-1003.5587117637
 21
-188.0389547258
 31
0.0
  0
LINE
  5
3F1
330
1F
100
AcDbEntity
  8
0
  6
Continuous
 62
     7
370
    25
100
AcDbLine
 10
-3450.0469951343
 20
-1803.6501270216
 30
0.0
 11
-774.2214294083
 21
-1803.6501270216
 31
0.0
  0
LINE
  5
3F2
330
1F
100
AcDbEntity
  8
0
  6
Continuous
 62
     7
370
    25
100
AcDbLine
 10
-534.8518349159
 20
-1803.6501270216
 30
0.0
 11
934.7578446474
 21
-1803.6501270216
 31
0.0
  0
LINE
  5
3F3
330
1F
100
AcDbEntity
  8
0
  6
Continuous
 62
     7
370
    25
100
AcDbLine
 10
1174.1274391398
 20
-1803.6501270216
 30
0.0
 11
3849.9530048657
 21
-1803.6501270216
 31
0.0
  0
LINE
  5
3F4
330
1F
100
AcDbEntity
  8
0
  6
Continuous
 62
     7
370
    25
100
AcDbLine
 10
-3450.0469951343
 20
-53.6501270216
 30
0.0
 11
-3450.0469951343
 21
-1803.6501270216
 31
0.0
  0
LINE
  5
3F5
330
1F
100
AcDbEntity
  8
0
  6
Continuous
 62
     7
370
    25
100
AcDbLine
 10
3849.9530048657
 20
-1803.6501270216
 30
0.0
 11
3849.9530048657
 21
-53.6501270216
 31
0.0
  0
ARC
  5
3F6
330
1F
100
AcDbEntity
  8
0
  6
Continuous
 62
     7
370
    25
100
AcDbCircle
 10
165.2962195167
 20
-1079.9231829091
 30
0.0
 40
2.509890816099749
100
AcDbArc
 50
97.8595284122
 51
252.8675823963
  0
ARC
  5
3F7
330
1F
100
AcDbEntity
  8
0
  6
Continuous
 62
     7
370
    25
100
AcDbCircle
 10
165.2430066357
 20
-1079.9089197164
 30
0.0
 40
2.509624999312096
100
AcDbArc
 50
96.635684815
 51
252.8800699367
  0
ARC
  5
3F8
330
1F
100
AcDbEntity
  8
0
  6
Continuous
 62
     7
370
    25
100
AcDbCircle
 10
234.5991137298
 20
-1079.924048754
 30
0.0
 40
2.512230248659734
100
AcDbArc
 50
287.3709264581
 51
81.9019627333
  0
ARC
  5
3F9
330
1F
100
AcDbEntity
  8
0
  6
Continuous
 62
     7
370
    25
100
AcDbCircle
 10
234.6523642963
 20
-1079.9098958098
 30
0.0
 40
2.511845686252302
100
AcDbArc
 50
287.3584057083
 51
83.1258395399
  0
ARC
  5
3FA
330
1F
100
AcDbEntity
  8
0
  6
Continuous
 62
     7
370
    25
100
AcDbCircle
 10
165.3068960017
 20
-708.0718154755
 30
0.0
 40
2.512230248659606
100
AcDbArc
 50
107.3709264581
 51
261.9019627334
  0
ARC
  5
3FB
330
1F
100
AcDbEntity
  8
0
  6
Continuous
 62
     7
370
    25
100
AcDbCircle
 10
165.2536454351
 20
-708.0859684197
 30
0.0
 40
2.5118456862521
100
AcDbArc
 50
107.3584057083
 51
263.1258395399
  0
ARC
  5
3FC
330
1F
100
AcDbEntity
  8
0
  6
Continuous
 62
     7
370
    25
100
AcDbCircle
 10
234.6097902148
 20
-708.0726813204
 30
0.0
 40
2.509890816099621
100
AcDbArc
 50
277.8595284122
 51
72.8675823963
  0
ARC
  5
3FD
330
1F
100
AcDbEntity
  8
0
  6
Continuous
 62
     7
370
    25
100
AcDbCircle
 10
234.6630030958
 20
-708.086944513
 30
0.0
 40
2.509624999312193
100
AcDbArc
 50
276.6356848151
 51
72.8800699367
  0
LINE
  5
3FE
330
1F
100
AcDbEntity
  8
0
  6
Continuous
 62
     7
370
    25
100
AcDbLine
 10
460.4695793105
 20
527.004611926
 30
0.0
 11
460.239650241
 21
527.2452405426
 31
0.0
  0
LWPOLYLINE
  5
3FF
330
1F
100
AcDbEntity
  8
0
  6
Continuous
 62
     7
370
    25
100
AcDbPolyline
 90
        3
 70
   128
 43
0.0
 10
-59.972568811
 20
527.2447746455
 10
-60.0474668532
 20
527.1328011782
 10
-60.1744796845
 20
527.0036025266
  0
LINE
  5
400
330
1F
100
AcDbEntity
  8
0
  6
Continuous
 62
     7
370
    25
100
AcDbLine
 10
-60.2004066112
 20
1238.1400013902
 30
0.0
 11
-59.9703072881
 21
1237.8991945975
 31
0.0
  0
LWPOLYLINE
  5
401
330
1F
100
AcDbEntity
  8
0
  6
Continuous
 62
     7
370
    25
100
AcDbPolyline
 90
        3
 70
   128
 43
0.0
 10
460.2419117639
 20
1237.8996604946
 10
460.3168098061
 20
1238.0116339619
 10
460.4434812248
 20
1238.1404853253
  0
ARC
  5
402
330
1F
100
AcDbEntity
  8
0
  6
Continuous
 62
     7
370
    25
100
AcDbCircle
 10
242.1250265611
 20
-1079.3208063755
 30
0.0
 40
4.601805981025416
100
AcDbArc
 50
233.6547886288
 51
276.7070774901
  0
ARC
  5
403
330
1F
100
AcDbEntity
  8
0
  6
Continuous
 62
     7
370
    25
100
AcDbCircle
 10
241.945131333
 20
-1078.4528472248
 30
0.0
 40
4.351147675893628
100
AcDbArc
 50
80.4651028919
 51
126.8019409279
  0
LINE
  5
404
330
1F
100
AcDbEntity
  8
0
  6
Continuous
 62
     7
370
    25
100
AcDbLine
 10
242.9370169129
 20
-1085.0191904243
 30
0.0
 11
244.1486875469
 21
-1083.8613967031
 31
0.0
  0
ARC
  5
405
330
1F
100
AcDbEntity
  8
0
  6
Continuous
 62
     7
370
    25
100
AcDbCircle
 10
234.9530048657
 20
-1078.9979321147
 30
0.0
 40
10.00000000000002
100
AcDbArc
 50
277.6400056831
 51
322.9776987282
  0
ARC
  5
406
330
1F
100
AcDbEntity
  8
0
  6
Continuous
 62
     7
370
    25
100
AcDbCircle
 10
234.9530048657
 20
-1078.9979321147
 30
0.0
 40
10.00000000000022
100
AcDbArc
 50
37.0223012718
 51
83.3265828759
  0
LWPOLYLINE
  5
407
330
1F
100
AcDbEntity
  8
0
  6
Continuous
 62
     7
370
    25
100
AcDbPolyline
 90
        3
 70
   128
 43
0.0
 10
244.1482216498
 20
-1074.1322060035
 10
244.0362481825
 20
-1074.0573079613
 10
242.9370169129
 20
-1072.9766738052
  0
ARC
  5
408
330
1F
100
AcDbEntity
  8
0
  6
Continuous
 62
     7
370
    25
100
AcDbCircle
 10
242.1250265611
 20
-709.3208063755
 30
0.0
 40
4.60180598102346
100
AcDbArc
 50
233.6547886287
 51
276.7070774901
  0
ARC
  5
409
330
1F
100
AcDbEntity
  8
0
  6
Continuous
 62
     7
370
    25
100
AcDbCircle
 10
241.945131333
 20
-708.4528472248
 30
0.0
 40
4.351147675893707
100
AcDbArc
 50
80.4651028919
 51
126.8019409279
  0
ARC
  5
40A
330
1F
100
AcDbEntity
  8
0
  6
Continuous
 62
     7
370
    25
100
AcDbCircle
 10
234.9530048657
 20
-708.9979321147
 30
0.0
 40
10.00000000000002
100
AcDbArc
 50
37.0223012718
 51
82.2003306945
  0
LWPOLYLINE
  5
40B
330
1F
100
AcDbEntity
  8
0
  6
Continuous
 62
     7
370
    25
100
AcDbPolyline
 90
        3
 70
   128
 43
0.0
 10
244.1482216498
 20
-704.1322060035
 10
244.0362481825
 20
-704.0573079613
 10
242.9370169129
 20
-702.9766738052
  0
LINE
  5
40C
330
1F
100
AcDbEntity
  8
0
  6
Continuous
 62
     7
370
    25
100
AcDbLine
 10
242.9370169129
 20
-715.0191904243
 30
0.0
 11
244.1486875469
 21
-713.8613967031
 31
0.0
  0
ARC
  5
40D
330
1F
100
AcDbEntity
  8
0
  6
Continuous
 62
     7
370
    25
100
AcDbCircle
 10
234.9530048657
 20
-708.9979321147
 30
0.0
 40
9.999999999999954
100
AcDbArc
 50
276.4031449468
 51
322.9776987282
  0
ARC
  5
40E
330
1F
100
AcDbEntity
  8
0
  6
Continuous
 62
     7
370
    25
100
AcDbCircle
 10
157.7809831704
 20
-708.675057854
 30
0.0
 40
4.601805981026097
100
AcDbArc
 50
53.6547886288
 51
96.7070774901
  0
ARC
  5
40F
330
1F
100
AcDbEntity
  8
0
  6
Continuous
 62
     7
370
    25
100
AcDbCircle
 10
157.9608783985
 20
-709.5430170047
 30
0.0
 40
4.351147675893264
100
AcDbArc
 50
260.4651028918
 51
306.8019409279
  0
ARC
  5
410
330
1F
100
AcDbEntity
  8
0
  6
Continuous
 62
     7
370
    25
100
AcDbCircle
 10
164.9530048657
 20
-708.9979321147
 30
0.0
 40
9.999999999999954
100
AcDbArc
 50
217.0223012718
 51
263.3265828759
  0
LWPOLYLINE
  5
411
330
1F
100
AcDbEntity
  8
0
  6
Continuous
 62
     7
370
    25
100
AcDbPolyline
 90
        3
 70
   128
 43
0.0
 10
155.7577880817
 20
-713.8636582259
 10
155.869761549
 20
-713.9385562682
 10
156.9689928185
 20
-715.0191904243
  0
LINE
  5
412
330
1F
100
AcDbEntity
  8
0
  6
Continuous
 62
     7
370
    25
100
AcDbLine
 10
156.9689928185
 20
-702.9766738052
 30
0.0
 11
155.7573221846
 21
-704.1344675264
 31
0.0
  0
ARC
  5
413
330
1F
100
AcDbEntity
  8
0
  6
Continuous
 62
     7
370
    25
100
AcDbCircle
 10
164.9530048657
 20
-708.9979321147
 30
0.0
 40
10.00000000000009
100
AcDbArc
 50
97.6400056831
 51
142.9776987282
  0
ARC
  5
414
330
1F
100
AcDbEntity
  8
0
  6
Continuous
 62
     7
370
    25
100
AcDbCircle
 10
157.7809831704
 20
-1078.675057854
 30
0.0
 40
4.601805981018673
100
AcDbArc
 50
53.6547886287
 51
96.7070774901
  0
ARC
  5
415
330
1F
100
AcDbEntity
  8
0
  6
Continuous
 62
     7
370
    25
100
AcDbCircle
 10
157.9608783985
 20
-1079.5430170047
 30
0.0
 40
4.351147675895029
100
AcDbArc
 50
260.4651028919
 51
306.8019409279
  0
LINE
  5
416
330
1F
100
AcDbEntity
  8
0
  6
Continuous
 62
     7
370
    25
100
AcDbLine
 10
156.9689928185
 20
-1072.9766738052
 30
0.0
 11
155.7573221846
 21
-1074.1344675264
 31
0.0
  0
ARC
  5
417
330
1F
100
AcDbEntity
  8
0
  6
Continuous
 62
     7
370
    25
100
AcDbCircle
 10
164.9530048657
 20
-1078.9979321147
 30
0.0
 40
10.00000000000017
100
AcDbArc
 50
96.4031449468
 51
142.9776987282
  0
ARC
  5
418
330
1F
100
AcDbEntity
  8
0
  6
Continuous
 62
     7
370
    25
100
AcDbCircle
 10
164.9530048657
 20
-1078.9979321147
 30
0.0
 40
10.00000000000002
100
AcDbArc
 50
217.0223012718
 51
262.2003306945
  0
LWPOLYLINE
  5
419
330
1F
100
AcDbEntity
  8
0
  6
Continuous
 62
     7
370
    25
100
AcDbPolyline
 90
        3
 70
   128
 43
0.0
 10
155.7577880817
 20
-1083.8636582259
 10
155.869761549
 20
-1083.9385562682
 10
156.9689928185
 20
-1085.0191904243
  0
ARC
  5
41A
330
1F
100
AcDbEntity
  8
0
  6
Continuous
 62
     7
370
    25
100
AcDbCircle
 10
151.5245696564
 20
-1071.2728673076
 30
0.0
 40
34.22602239360063
100
AcDbArc
 50
180.3767705273
 51
270.4285972927
  0
LINE
  5
41B
330
1F
100
AcDbEntity
  8
0
  6
Continuous
 62
     7
370
    25
100
AcDbLine
 10
117.2992872657
 20
-716.4979321147
 30
0.0
 11
117.2992872657
 21
-1071.4979321147
 31
0.0
  0
ARC
  5
41C
330
1F
100
AcDbEntity
  8
0
  6
Continuous
 62
     7
370
    25
100
AcDbCircle
 10
151.5592094348
 20
-716.7581270625
 30
0.0
 40
34.26091021034525
100
AcDbArc
 50
89.6297699385
 51
179.5648622416
  0
ARC
  5
41D
330
1F
100
AcDbEntity
  8
0
  6
Continuous
 62
     7
370
    25
100
AcDbCircle
 10
248.3814400751
 20
-716.7229969219
 30
0.0
 40
34.22602239360029
100
AcDbArc
 50
0.3767705273
 51
90.4285972927
  0
LINE
  5
41E
330
1F
100
AcDbEntity
  8
0
  6
Continuous
 62
     7
370
    25
100
AcDbLine
 10
282.6067224658
 20
-1071.4979321147
 30
0.0
 11
282.6067224658
 21
-716.4979321147
 31
0.0
  0
ARC
  5
41F
330
1F
100
AcDbEntity
  8
0
  6
Continuous
 62
     7
370
    25
100
AcDbCircle
 10
248.3468002967
 20
-1071.2377371669
 30
0.0
 40
34.26091021034537
100
AcDbArc
 50
269.6297699385
 51
359.5648622416
  0
ARC
  5
420
330
1F
100
AcDbEntity
  8
0
  6
Continuous
 62
     7
370
    25
100
AcDbCircle
 10
243.9530048657
 20
-699.9979321147
 30
0.0
 40
6.0
100
AcDbArc
 50
0.0
 51
90.0
  0
LINE
  5
421
330
1F
100
AcDbEntity
  8
0
  6
Continuous
 62
     7
370
    25
100
AcDbLine
 10
249.9530048657
 20
-717.9979321147
 30
0.0
 11
249.9530048657
 21
-713.3201364657
 31
0.0
  0
LINE
  5
422
330
1F
100
AcDbEntity
  8
0
  6
Continuous
 62
     7
370
    25
100
AcDbLine
 10
249.9530048657
 20
-704.6750623886
 30
0.0
 11
249.9530048657
 21
-699.9979321147
 31
0.0
  0
ARC
  5
423
330
1F
100
AcDbEntity
  8
0
  6
Continuous
 62
     7
370
    25
100
AcDbCircle
 10
243.9530048657
 20
-717.9979321147
 30
0.0
 40
6.0
100
AcDbArc
 50
270.0
 51
0.0
  0
LINE
  5
424
330
1F
100
AcDbEntity
  8
0
  6
Continuous
 62
     7
370
    25
100
AcDbLine
 10
234.9530048657
 20
-723.9979321147
 30
0.0
 11
243.9530048657
 21
-723.9979321147
 31
0.0
  0
LINE
  5
425
330
1F
100
AcDbEntity
  8
0
  6
Continuous
 62
     7
370
    25
100
AcDbLine
 10
155.9530048657
 20
-723.9979321147
 30
0.0
 11
164.9530048657
 21
-723.9979321147
 31
0.0
  0
ARC
  5
426
330
1F
100
AcDbEntity
  8
0
  6
Continuous
 62
     7
370
    25
100
AcDbCircle
 10
155.9530048657
 20
-717.9979321147
 30
0.0
 40
6.0
100
AcDbArc
 50
180.0
 51
270.0
  0
LINE
  5
427
330
1F
100
AcDbEntity
  8
0
  6
Continuous
 62
     7
370
    25
100
AcDbLine
 10
149.9530048657
 20
-699.9979321147
 30
0.0
 11
149.9530048657
 21
-704.6757277638
 31
0.0
  0
LINE
  5
428
330
1F
100
AcDbEntity
  8
0
  6
Continuous
 62
     7
370
    25
100
AcDbLine
 10
149.9530048657
 20
-713.3208018408
 30
0.0
 11
149.9530048657
 21
-717.9979321147
 31
0.0
  0
ARC
  5
429
330
1F
100
AcDbEntity
  8
0
  6
Continuous
 62
     7
370
    25
100
AcDbCircle
 10
155.9530048657
 20
-699.9979321147
 30
0.0
 40
6.0
100
AcDbArc
 50
90.0
 51
180.0
  0
LINE
  5
42A
330
1F
100
AcDbEntity
  8
0
  6
Continuous
 62
     7
370
    25
100
AcDbLine
 10
164.9530048657
 20
-693.9979321147
 30
0.0
 11
155.9530048657
 21
-693.9979321147
 31
0.0
  0
LINE
  5
42B
330
1F
100
AcDbEntity
  8
0
  6
Continuous
 62
     7
370
    25
100
AcDbLine
 10
243.9530048657
 20
-693.9979321147
 30
0.0
 11
234.9530048657
 21
-693.9979321147
 31
0.0
  0
ARC
  5
42C
330
1F
100
AcDbEntity
  8
0
  6
Continuous
 62
     7
370
    25
100
AcDbCircle
 10
234.9530048657
 20
-708.9979321147
 30
0.0
 40
10.50000000000007
100
AcDbArc
 50
28.4781346849
 51
83.4834867021
  0
ARC
  5
42D
330
1F
100
AcDbEntity
  8
0
  6
Continuous
 62
     7
370
    25
100
AcDbCircle
 10
234.9530048657
 20
-708.9979321147
 30
0.0
 40
10.50000000000004
100
AcDbArc
 50
274.9708596805
 51
332.5221916361
  0
ARC
  5
42E
330
1F
100
AcDbEntity
  8
0
  6
Continuous
 62
     7
370
    25
100
AcDbCircle
 10
164.9530048657
 20
-708.9979321147
 30
0.0
 40
10.50000000000001
100
AcDbArc
 50
96.3995166202
 51
151.5217666208
  0
ARC
  5
42F
330
1F
100
AcDbEntity
  8
0
  6
Continuous
 62
     7
370
    25
100
AcDbCircle
 10
164.9530048657
 20
-708.9979321147
 30
0.0
 40
10.49999999999998
100
AcDbArc
 50
208.4261819904
 51
264.6788582923
  0
LINE
  5
430
330
1F
100
AcDbEntity
  8
0
  6
Continuous
 62
     7
370
    25
100
AcDbLine
 10
152.4530048657
 20
-676.4979321147
 30
0.0
 11
164.9530048657
 21
-676.4979321147
 31
0.0
  0
LINE
  5
431
330
1F
100
AcDbEntity
  8
0
  6
Continuous
 62
     7
370
    25
100
AcDbLine
 10
234.9530048657
 20
-676.4979321147
 30
0.0
 11
247.4530048657
 21
-676.4979321147
 31
0.0
  0
LWPOLYLINE
  5
432
330
1F
100
AcDbEntity
  8
0
  6
Continuous
 62
     7
370
    25
100
AcDbPolyline
 90
        9
 70
   128
 43
0.0
 10
247.4530048657
 20
-676.4979321147
 10
247.5841859585
 20
-676.6132204323
 10
247.7103258354
 20
-676.9546549197
 10
247.8265770118
 20
-677.5091144409
 10
247.9284720201
 20
-678.2552914276
 10
248.0120950923
 20
-679.1645107166
 10
248.0742326407
 20
-680.2018315205
 10
248.112496754
 20
-681.3273901826
 10
248.1254169639
 20
-682.4979321147
  0
LWPOLYLINE
  5
433
330
1F
100
AcDbEntity
  8
0
  6
Continuous
 62
     7
370
    25
100
AcDbPolyline
 90
        9
 70
   128
 43
0.0
 10
152.4530048657
 20
-676.4979321147
 10
152.321823773
 20
-676.6132204323
 10
152.195683896
 20
-676.9546549197
 10
152.0794327197
 20
-677.5091144409
 10
151.9775377114
 20
-678.2552914276
 10
151.8939146392
 20
-679.1645107166
 10
151.8317770908
 20
-680.2018315205
 10
151.7935129775
 20
-681.3273901826
 10
151.7805927676
 20
-682.4979321147
  0
ARC
  5
434
330
1F
100
AcDbEntity
  8
0
  6
Continuous
 62
     7
370
    25
100
AcDbCircle
 10
155.9530048657
 20
-1087.9979321147
 30
0.0
 40
6.0
100
AcDbArc
 50
180.0
 51
270.0
  0
LINE
  5
435
330
1F
100
AcDbEntity
  8
0
  6
Continuous
 62
     7
370
    25
100
AcDbLine
 10
149.9530048657
 20
-1087.9979321147
 30
0.0
 11
149.9530048657
 21
-1083.3208018408
 31
0.0
  0
LINE
  5
436
330
1F
100
AcDbEntity
  8
0
  6
Continuous
 62
     7
370
    25
100
AcDbLine
 10
149.9530048657
 20
-1074.6757277638
 30
0.0
 11
149.9530048657
 21
-1069.9979321147
 31
0.0
  0
ARC
  5
437
330
1F
100
AcDbEntity
  8
0
  6
Continuous
 62
     7
370
    25
100
AcDbCircle
 10
155.9530048657
 20
-1069.9979321147
 30
0.0
 40
6.0
100
AcDbArc
 50
90.0
 51
180.0
  0
ARC
  5
438
330
1F
100
AcDbEntity
  8
0
  6
Continuous
 62
     7
370
    25
100
AcDbCircle
 10
164.9530048657
 20
-1078.9979321147
 30
0.0
 40
10.49999999999999
100
AcDbArc
 50
95.1426295935
 51
151.5217666208
  0
ARC
  5
439
330
1F
100
AcDbEntity
  8
0
  6
Continuous
 62
     7
370
    25
100
AcDbCircle
 10
164.9530048657
 20
-1078.9979321147
 30
0.0
 40
10.50000000000008
100
AcDbArc
 50
208.4261819905
 51
263.3902399557
  0
LINE
  5
43A
330
1F
100
AcDbEntity
  8
0
  6
Continuous
 62
     7
370
    25
100
AcDbLine
 10
249.9530048657
 20
-1069.9979321147
 30
0.0
 11
249.9530048657
 21
-1074.6750623886
 31
0.0
  0
LINE
  5
43B
330
1F
100
AcDbEntity
  8
0
  6
Continuous
 62
     7
370
    25
100
AcDbLine
 10
249.9530048657
 20
-1083.3201364657
 30
0.0
 11
249.9530048657
 21
-1087.9979321147
 31
0.0
  0
LINE
  5
43C
330
1F
100
AcDbEntity
  8
0
  6
Continuous
 62
     7
370
    25
100
AcDbLine
 10
243.9530048657
 20
-1093.9979321147
 30
0.0
 11
234.9530048657
 21
-1093.9979321147
 31
0.0
  0
ARC
  5
43D
330
1F
100
AcDbEntity
  8
0
  6
Continuous
 62
     7
370
    25
100
AcDbCircle
 10
243.9530048657
 20
-1087.9979321147
 30
0.0
 40
6.0
100
AcDbArc
 50
270.0
 51
0.0
  0
ARC
  5
43E
330
1F
100
AcDbEntity
  8
0
  6
Continuous
 62
     7
370
    25
100
AcDbCircle
 10
243.9530048657
 20
-1069.9979321147
 30
0.0
 40
6.0
100
AcDbArc
 50
0.0
 51
90.0
  0
LINE
  5
43F
330
1F
100
AcDbEntity
  8
0
  6
Continuous
 62
     7
370
    25
100
AcDbLine
 10
164.9530048657
 20
-1093.9979321147
 30
0.0
 11
155.9530048657
 21
-1093.9979321147
 31
0.0
  0
ARC
  5
440
330
1F
100
AcDbEntity
  8
0
  6
Continuous
 62
     7
370
    25
100
AcDbCircle
 10
234.9530048657
 20
-1078.9979321147
 30
0.0
 40
10.50000000000003
100
AcDbArc
 50
28.478134685
 51
84.7631516337
  0
ARC
  5
441
330
1F
100
AcDbEntity
  8
0
  6
Continuous
 62
     7
370
    25
100
AcDbCircle
 10
234.9530048657
 20
-1078.9979321147
 30
0.0
 40
10.49999999999999
100
AcDbArc
 50
276.336577193
 51
332.5221916361
  0
LINE
  5
442
330
1F
100
AcDbEntity
  8
0
  6
Continuous
 62
     7
370
    25
100
AcDbLine
 10
234.9530048657
 20
-1063.9979321147
 30
0.0
 11
243.9530048657
 21
-1063.9979321147
 31
0.0
  0
LINE
  5
443
330
1F
100
AcDbEntity
  8
0
  6
Continuous
 62
     7
370
    25
100
AcDbLine
 10
155.9530048657
 20
-1063.9979321147
 30
0.0
 11
164.9530048657
 21
-1063.9979321147
 31
0.0
  0
LWPOLYLINE
  5
444
330
1F
100
AcDbEntity
  8
0
  6
Continuous
 62
     7
370
    25
100
AcDbPolyline
 90
        9
 70
   128
 43
0.0
 10
248.1254169639
 20
-1105.4979321147
 10
248.112496754
 20
-1106.6684740468
 10
248.0742326407
 20
-1107.7940327089
 10
248.0120950923
 20
-1108.8313535129
 10
247.9284720201
 20
-1109.7405728019
 10
247.8265770118
 20
-1110.4867497886
 10
247.7103258354
 20
-1111.0412093098
 10
247.5841859585
 20
-1111.3826437972
 10
247.4530048657
 20
-1111.4979321147
  0
LINE
  5
445
330
1F
100
AcDbEntity
  8
0
  6
Continuous
 62
     7
370
    25
100
AcDbLine
 10
247.4530048657
 20
-1111.4979321147
 30
0.0
 11
234.9530048657
 21
-1111.4979321147
 31
0.0
  0
LINE
  5
446
330
1F
100
AcDbEntity
  8
0
  6
Continuous
 62
     7
370
    25
100
AcDbLine
 10
164.9530048657
 20
-1111.4979321147
 30
0.0
 11
152.4530048657
 21
-1111.4979321147
 31
0.0
  0
LWPOLYLINE
  5
447
330
1F
100
AcDbEntity
  8
0
  6
Continuous
 62
     7
370
    25
100
AcDbPolyline
 90
        9
 70
   128
 43
0.0
 10
151.7805927676
 20
-1105.4979321147
 10
151.7935129775
 20
-1106.6684740468
 10
151.8317770908
 20
-1107.7940327089
 10
151.8939146392
 20
-1108.8313535129
 10
151.9775377114
 20
-1109.7405728019
 10
152.0794327197
 20
-1110.4867497886
 10
152.195683896
 20
-1111.0412093098
 10
152.321823773
 20
-1111.3826437972
 10
152.4530048657
 20
-1111.4979321147
  0
ARC
  5
448
330
1F
100
AcDbEntity
  8
0
  6
Continuous
 62
     7
370
    25
100
AcDbCircle
 10
247.4530048657
 20
-716.4979321147
 30
0.0
 40
40.00000000000003
100
AcDbArc
 50
0.0
 51
90.0
  0
LINE
  5
449
330
1F
100
AcDbEntity
  8
0
  6
Continuous
 62
     7
370
    25
100
AcDbLine
 10
287.4530048657
 20
-716.4979321147
 30
0.0
 11
282.6067224658
 21
-716.4979321147
 31
0.0
  0
ARC
  5
44A
330
1F
100
AcDbEntity
  8
0
  6
Continuous
 62
     7
370
    25
100
AcDbCircle
 10
152.4530048657
 20
-1071.4979321147
 30
0.0
 40
39.99999999999966
100
AcDbArc
 50
180.0
 51
270.0
  0
LINE
  5
44B
330
1F
100
AcDbEntity
  8
0
  6
Continuous
 62
     7
370
    25
100
AcDbLine
 10
117.2992872657
 20
-1071.4979321147
 30
0.0
 11
112.4530048657
 21
-1071.4979321147
 31
0.0
  0
LINE
  5
44C
330
1F
100
AcDbEntity
  8
0
  6
Continuous
 62
     7
370
    25
100
AcDbLine
 10
117.2992872657
 20
-716.4979321147
 30
0.0
 11
112.4530048657
 21
-716.4979321147
 31
0.0
  0
ARC
  5
44D
330
1F
100
AcDbEntity
  8
0
  6
Continuous
 62
     7
370
    25
100
AcDbCircle
 10
152.4560355642
 20
-716.5009628132
 30
0.0
 40
40.00303081322293
100
AcDbArc
 50
90.0043408268
 51
179.9956591732
  0
LINE
  5
44E
330
1F
100
AcDbEntity
  8
0
  6
Continuous
 62
     7
370
    25
100
AcDbLine
 10
287.4530048657
 20
-1071.4979321147
 30
0.0
 11
282.6067224658
 21
-1071.4979321147
 31
0.0
  0
ARC
  5
44F
330
1F
100
AcDbEntity
  8
0
  6
Continuous
 62
     7
370
    25
100
AcDbCircle
 10
247.4499741673
 20
-1071.4949014163
 30
0.0
 40
40.00303081322262
100
AcDbArc
 50
270.0043408268
 51
359.9956591732
  0
LINE
  5
450
330
1F
100
AcDbEntity
  8
0
  6
Continuous
 62
     7
370
    25
100
AcDbLine
 10
287.4530048657
 20
-716.4979321147
 30
0.0
 11
287.4530048657
 21
-1071.4979321147
 31
0.0
  0
LINE
  5
451
330
1F
100
AcDbEntity
  8
0
  6
Continuous
 62
     7
370
    25
100
AcDbLine
 10
112.4530048657
 20
-1071.4979321147
 30
0.0
 11
112.4530048657
 21
-716.4979321147
 31
0.0
  0
LINE
  5
452
330
1F
100
AcDbEntity
  8
0
  6
Continuous
 62
     7
370
    25
100
AcDbLine
 10
234.9530048657
 20
-1374.2825112556
 30
0.0
 11
234.9530048657
 21
-193.0389547258
 31
0.0
  0
LINE
  5
453
330
1F
100
AcDbEntity
  8
0
  6
Continuous
 62
     7
370
    25
100
AcDbLine
 10
230.9530048657
 20
-1374.2825112556
 30
0.0
 11
230.9530048657
 21
-193.0389547258
 31
0.0
  0
LINE
  5
454
330
1F
100
AcDbEntity
  8
0
  6
Continuous
 62
     7
370
    25
100
AcDbLine
 10
168.9530048657
 20
-1374.2825112556
 30
0.0
 11
168.9530048657
 21
-193.0389547258
 31
0.0
  0
LINE
  5
455
330
1F
100
AcDbEntity
  8
0
  6
Continuous
 62
     7
370
    25
100
AcDbLine
 10
164.9530048657
 20
-1374.2825112556
 30
0.0
 11
164.9530048657
 21
-193.0389547258
 31
0.0
  0
LINE
  5
456
330
1F
100
AcDbEntity
  8
0
  6
Continuous
 62
     7
370
    25
100
AcDbLine
 10
168.9530048657
 20
-1374.2825112556
 30
0.0
 11
230.9530048657
 21
-1374.2825112556
 31
0.0
  0
LINE
  5
457
330
1F
100
AcDbEntity
  8
0
  6
Continuous
 62
     7
370
    25
100
AcDbLine
 10
308.3523951941
 20
-193.0389547258
 30
0.0
 11
308.3523951941
 21
-188.0389547258
 31
0.0
  0
LINE
  5
458
330
1F
100
AcDbEntity
  8
0
  6
Continuous
 62
     7
370
    25
100
AcDbLine
 10
308.3523951941
 20
-193.0389547258
 30
0.0
 11
286.2787053726
 21
-193.0389547258
 31
0.0
  0
LINE
  5
459
330
1F
100
AcDbEntity
  8
0
  6
Continuous
 62
     7
370
    25
100
AcDbLine
 10
286.2787053726
 20
-193.0389547258
 30
0.0
 11
286.2787053726
 21
-188.0389547258
 31
0.0
  0
LINE
  5
45A
330
1F
100
AcDbEntity
  8
0
  6
Continuous
 62
     7
370
    25
100
AcDbLine
 10
308.3523951941
 20
-188.0389547258
 30
0.0
 11
304.1831466617
 21
-188.0389547258
 31
0.0
  0
LINE
  5
45B
330
1F
100
AcDbEntity
  8
0
  6
Continuous
 62
     7
370
    25
100
AcDbLine
 10
113.6273043588
 20
-193.0389547258
 30
0.0
 11
113.6273043588
 21
-188.0389547258
 31
0.0
  0
LINE
  5
45C
330
1F
100
AcDbEntity
  8
0
  6
Continuous
 62
     7
370
    25
100
AcDbLine
 10
113.6273043588
 20
-193.0389547258
 30
0.0
 11
91.5536145374
 21
-193.0389547258
 31
0.0
  0
LINE
  5
45D
330
1F
100
AcDbEntity
  8
0
  6
Continuous
 62
     7
370
    25
100
AcDbLine
 10
91.5536145374
 20
-193.0389547258
 30
0.0
 11
91.5536145374
 21
-188.0389547258
 31
0.0
  0
LINE
  5
45E
330
1F
100
AcDbEntity
  8
0
  6
Continuous
 62
     7
370
    25
100
AcDbLine
 10
95.7228630697
 20
-188.0389547258
 30
0.0
 11
91.5536145374
 21
-188.0389547258
 31
0.0
  0
LINE
  5
45F
330
1F
100
AcDbEntity
  8
0
  6
Continuous
 62
     7
370
    25
100
AcDbLine
 10
286.2787053726
 20
-193.0389547258
 30
0.0
 11
113.6273043588
 21
-193.0389547258
 31
0.0
  0
LINE
  5
460
330
1F
100
AcDbEntity
  8
0
  6
Continuous
 62
     7
370
    25
100
AcDbLine
 10
216.9884750722
 20
-188.0389547258
 30
0.0
 11
182.9175346592
 21
-188.0389547258
 31
0.0
  0
LINE
  5
461
330
1F
100
AcDbEntity
  8
0
  6
Continuous
 62
     7
370
    25
100
AcDbLine
 10
1.1630111549
 20
-193.0389547258
 30
0.0
 11
1.1630111549
 21
-188.0389547258
 31
0.0
  0
LINE
  5
462
330
1F
100
AcDbEntity
  8
0
  6
Continuous
 62
     7
370
    25
100
AcDbLine
 10
91.5536145374
 20
-193.0389547258
 30
0.0
 11
1.1630111549
 21
-193.0389547258
 31
0.0
  0
LINE
  5
463
330
1F
100
AcDbEntity
  8
0
  6
Continuous
 62
     7
370
    25
100
AcDbLine
 10
91.5536145374
 20
-188.0389547258
 30
0.0
 11
1.1630111549
 21
-188.0389547258
 31
0.0
  0
LINE
  5
464
330
1F
100
AcDbEntity
  8
0
  6
Continuous
 62
     7
370
    25
100
AcDbLine
 10
398.7429985765
 20
-193.0389547258
 30
0.0
 11
398.7429985765
 21
-188.0389547258
 31
0.0
  0
LINE
  5
465
330
1F
100
AcDbEntity
  8
0
  6
Continuous
 62
     7
370
    25
100
AcDbLine
 10
308.3523951941
 20
-193.0389547258
 30
0.0
 11
398.7429985765
 21
-193.0389547258
 31
0.0
  0
LINE
  5
466
330
1F
100
AcDbEntity
  8
0
  6
Continuous
 62
     7
370
    25
100
AcDbLine
 10
308.3523951941
 20
-188.0389547258
 30
0.0
 11
398.7429985765
 21
-188.0389547258
 31
0.0
  0
LINE
  5
467
330
1F
100
AcDbEntity
  8
0
  6
Continuous
 62
     7
370
    25
100
AcDbLine
 10
1.1630111549
 20
-193.0389547258
 30
0.0
 11
-1.7632990236
 21
-193.0389547258
 31
0.0
  0
LINE
  5
468
330
1F
100
AcDbEntity
  8
0
  6
Continuous
 62
     7
370
    25
100
AcDbLine
 10
1.1630111549
 20
-188.0389547258
 30
0.0
 11
-1.2403421917
 21
-188.0389547258
 31
0.0
  0
LINE
  5
469
330
1F
100
AcDbEntity
  8
0
  6
Continuous
 62
     7
370
    25
100
AcDbLine
 10
398.7429985765
 20
-193.0389547258
 30
0.0
 11
401.6693087551
 21
-193.0389547258
 31
0.0
  0
LINE
  5
46A
330
1F
100
AcDbEntity
  8
0
  6
Continuous
 62
     7
370
    25
100
AcDbLine
 10
398.7429985765
 20
-188.0389547258
 30
0.0
 11
401.1463519232
 21
-188.0389547258
 31
0.0
  0
LINE
  5
46B
330
1F
100
AcDbEntity
  8
0
  6
Continuous
 62
     7
370
    25
100
AcDbLine
 10
185.0345870664
 20
-1436.0523303096
 30
0.0
 11
214.8714226651
 21
-1436.0523303096
 31
0.0
  0
LINE
  5
46C
330
1F
100
AcDbEntity
  8
0
  6
Continuous
 62
     7
370
    25
100
AcDbLine
 10
215.2563449718
 20
-1379.1121403871
 30
0.0
 11
184.6582497515
 21
-1379.1121403871
 31
0.0
  0
LINE
  5
46D
330
1F
100
AcDbEntity
  8
0
  6
Continuous
 62
     7
370
    25
100
AcDbLine
 10
195.4947619926
 20
-1393.2177783452
 30
0.0
 11
195.4947619926
 21
-1396.3236068864
 31
0.0
  0
LWPOLYLINE
  5
46E
330
1F
100
AcDbEntity
  8
0
  6
Continuous
 62
     7
370
    25
100
AcDbPolyline
 90
       11
 70
   128
 43
0.0
 10
195.4947619926
 20
-1396.3236068864
 10
195.6660641856
 20
-1396.6035350783
 10
196.1632025123
 20
-1396.8560619484
 10
196.9375136096
 20
-1397.0564684072
 10
197.9132025123
 20
-1397.1851372742
 10
198.9947619926
 20
-1397.2294735442
 10
200.0763214729
 20
-1397.1851372742
 10
201.0520103756
 20
-1397.0564684072
 10
201.8263214729
 20
-1396.8560619484
 10
202.3234597996
 20
-1396.6035350783
 10
202.4947619926
 20
-1396.3236068864
  0
LINE
  5
46F
330
1F
100
AcDbEntity
  8
0
  6
Continuous
 62
     7
370
    25
100
AcDbLine
 10
202.4947619926
 20
-1396.3236068864
 30
0.0
 11
202.4947619926
 21
-1393.2177783452
 31
0.0
  0
LWPOLYLINE
  5
470
330
1F
100
AcDbEntity
  8
0
  6
Continuous
 62
     7
370
    25
100
AcDbPolyline
 90
       11
 70
   128
 43
0.0
 10
202.4947619926
 20
-1393.2177783452
 10
202.3234597996
 20
-1392.9378501532
 10
201.8263214729
 20
-1392.6853232831
 10
201.0520103756
 20
-1392.4849168243
 10
200.0763214729
 20
-1392.3562479573
 10
198.9947619926
 20
-1392.3119116873
 10
197.9132025123
 20
-1392.3562479573
 10
196.9375136096
 20
-1392.4849168243
 10
196.1632025123
 20
-1392.6853232831
 10
195.6660641856
 20
-1392.9378501532
 10
195.4947619926
 20
-1393.2177783452
  0
LINE
  5
471
330
1F
100
AcDbEntity
  8
0
  6
Continuous
 62
     7
370
    25
100
AcDbLine
 10
195.4947619926
 20
-1380.7944641802
 30
0.0
 11
195.4947619926
 21
-1383.9002927215
 31
0.0
  0
LWPOLYLINE
  5
472
330
1F
100
AcDbEntity
  8
0
  6
Continuous
 62
     7
370
    25
100
AcDbPolyline
 90
       11
 70
   128
 43
0.0
 10
195.4947619926
 20
-1383.9002927215
 10
195.6660641856
 20
-1384.1802209134
 10
196.1632025123
 20
-1384.4327477835
 10
196.9375136096
 20
-1384.6331542423
 10
197.9132025123
 20
-1384.7618231093
 10
198.9947619926
 20
-1384.8061593793
 10
200.0763214729
 20
-1384.7618231093
 10
201.0520103756
 20
-1384.6331542423
 10
201.8263214729
 20
-1384.4327477835
 10
202.3234597996
 20
-1384.1802209134
 10
202.4947619926
 20
-1383.9002927215
  0
LINE
  5
473
330
1F
100
AcDbEntity
  8
0
  6
Continuous
 62
     7
370
    25
100
AcDbLine
 10
202.4947619926
 20
-1383.9002927215
 30
0.0
 11
202.4947619926
 21
-1380.7944641802
 31
0.0
  0
LWPOLYLINE
  5
474
330
1F
100
AcDbEntity
  8
0
  6
Continuous
 62
     7
370
    25
100
AcDbPolyline
 90
       11
 70
   128
 43
0.0
 10
202.4947619926
 20
-1380.7944641802
 10
202.3234597996
 20
-1380.5145359883
 10
201.8263214729
 20
-1380.2620091182
 10
201.0520103756
 20
-1380.0616026594
 10
200.0763214729
 20
-1379.9329337924
 10
198.9947619926
 20
-1379.8885975224
 10
197.9132025123
 20
-1379.9329337924
 10
196.9375136096
 20
-1380.0616026594
 10
196.1632025123
 20
-1380.2620091182
 10
195.6660641856
 20
-1380.5145359883
 10
195.4947619926
 20
-1380.7944641802
  0
LWPOLYLINE
  5
475
330
1F
100
AcDbEntity
  8
0
  6
Continuous
 62
     7
370
    25
100
AcDbPolyline
 90
        8
 70
   128
 43
0.0
 10
107.4445156691
 20
-1374.4835100381
 10
104.804040241
 20
-1374.6988895272
 10
102.0620927085
 20
-1375.0165046478
 10
99.4871324717
 20
-1375.4169474561
 10
97.1163387589
 20
-1375.8944360551
 10
94.9839428875
 20
-1376.4420761024
 10
93.1207340061
 20
-1377.0519603557
 10
91.5536145374
 20
-1377.7152828436
  0
ARC
  5
476
330
1F
100
AcDbEntity
  8
0
  6
Continuous
 62
     7
370
    25
100
AcDbCircle
 10
290.7565690851
 20
-1423.5511119142
 30
0.0
 40
49.09721298655169
100
AcDbArc
 50
68.9988017807
 51
88.0099756645
  0
LINE
  5
477
330
1F
100
AcDbEntity
  8
0
  6
Continuous
 62
     7
370
    25
100
AcDbLine
 10
245.3549041597
 20
-1374.2825112556
 30
0.0
 11
154.5511055717
 21
-1374.2825112556
 31
0.0
  0
LINE
  5
478
330
1F
100
AcDbEntity
  8
0
  6
Continuous
 62
     7
370
    25
100
AcDbLine
 10
91.5536145374
 20
-1377.7152828436
 30
0.0
 11
1.1630111549
 21
-1421.714520511
 31
0.0
  0
LINE
  5
479
330
1F
100
AcDbEntity
  8
0
  6
Continuous
 62
     7
370
    25
100
AcDbLine
 10
308.3523951941
 20
-1377.7152828436
 30
0.0
 11
398.7429985765
 21
-1421.714520511
 31
0.0
  0
LWPOLYLINE
  5
47A
330
1F
100
AcDbEntity
  8
0
  6
Continuous
 62
     7
370
    25
100
AcDbPolyline
 90
        3
 70
   128
 43
0.0
 10
197.9176111034
 20
-1379.9325638851
 10
198.9947619926
 20
-1379.9765302479
 10
200.0719128818
 20
-1379.9325638851
  0
LWPOLYLINE
  5
47B
330
1F
100
AcDbEntity
  8
0
  6
Continuous
 62
     7
370
    25
100
AcDbPolyline
 90
        3
 70
   128
 43
0.0
 10
197.9176111035
 20
-1392.35587805
 10
198.9947619926
 20
-1392.3998444128
 10
200.0719128817
 20
-1392.35587805
  0
LWPOLYLINE
  5
47C
330
1F
100
AcDbEntity
  8
0
  6
Continuous
 62
     7
370
    25
100
AcDbPolyline
 90
        6
 70
   128
 43
0.0
 10
398.7429985765
 20
-1421.714520511
 10
399.9386212592
 20
-1422.3866261202
 10
400.8299568988
 20
-1423.0896660813
 10
401.4053497196
 20
-1423.8144469148
 10
401.6572754521
 20
-1424.551490841
 10
401.6693087551
 20
-1424.7522250506
  0
LWPOLYLINE
  5
47D
330
1F
100
AcDbEntity
  8
0
  6
Continuous
 62
     7
370
    25
100
AcDbPolyline
 90
        6
 70
   128
 43
0.0
 10
1.1630111549
 20
-1421.714520511
 10
-0.0326115277
 20
-1422.3866261202
 10
-0.9239471673
 20
-1423.0896660813
 10
-1.4993399881
 20
-1423.8144469148
 10
-1.7512657206
 20
-1424.551490841
 10
-1.7632990236
 20
-1424.7522250506
  0
LINE
  5
47E
330
1F
100
AcDbEntity
  8
0
  6
Continuous
 62
     7
370
    25
100
AcDbLine
 10
286.2787053726
 20
-103.0389547258
 30
0.0
 11
286.2787053726
 21
-108.0389547258
 31
0.0
  0
LINE
  5
47F
330
1F
100
AcDbEntity
  8
0
  6
Continuous
 62
     7
370
    25
100
AcDbLine
 10
308.3523951941
 20
-103.0389547258
 30
0.0
 11
308.3523951941
 21
-108.0389547258
 31
0.0
  0
LINE
  5
480
330
1F
100
AcDbEntity
  8
0
  6
Continuous
 62
     7
370
    25
100
AcDbLine
 10
304.1831466617
 20
-108.0389547258
 30
0.0
 11
308.3523951941
 21
-108.0389547258
 31
0.0
  0
LINE
  5
481
330
1F
100
AcDbEntity
  8
0
  6
Continuous
 62
     7
370
    25
100
AcDbLine
 10
286.2787053726
 20
-103.0389547258
 30
0.0
 11
308.3523951941
 21
-103.0389547258
 31
0.0
  0
LINE
  5
482
330
1F
100
AcDbEntity
  8
0
  6
Continuous
 62
     7
370
    25
100
AcDbLine
 10
113.6273043588
 20
-103.0389547258
 30
0.0
 11
113.6273043588
 21
-108.0389547258
 31
0.0
  0
LINE
  5
483
330
1F
100
AcDbEntity
  8
0
  6
Continuous
 62
     7
370
    25
100
AcDbLine
 10
182.9175346591
 20
-108.0389547258
 30
0.0
 11
216.9884750722
 21
-108.0389547258
 31
0.0
  0
LINE
  5
484
330
1F
100
AcDbEntity
  8
0
  6
Continuous
 62
     7
370
    25
100
AcDbLine
 10
113.6273043588
 20
-103.0389547258
 30
0.0
 11
286.2787053726
 21
-103.0389547258
 31
0.0
  0
LINE
  5
485
330
1F
100
AcDbEntity
  8
0
  6
Continuous
 62
     7
370
    25
100
AcDbLine
 10
91.5536145374
 20
-103.0389547258
 30
0.0
 11
91.5536145374
 21
-108.0389547258
 31
0.0
  0
LINE
  5
486
330
1F
100
AcDbEntity
  8
0
  6
Continuous
 62
     7
370
    25
100
AcDbLine
 10
91.5536145374
 20
-108.0389547258
 30
0.0
 11
95.7228630697
 21
-108.0389547258
 31
0.0
  0
LINE
  5
487
330
1F
100
AcDbEntity
  8
0
  6
Continuous
 62
     7
370
    25
100
AcDbLine
 10
91.5536145374
 20
-103.0389547258
 30
0.0
 11
113.6273043588
 21
-103.0389547258
 31
0.0
  0
LINE
  5
488
330
1F
100
AcDbEntity
  8
0
  6
Continuous
 62
     7
370
    25
100
AcDbLine
 10
398.7429985766
 20
-103.0389547258
 30
0.0
 11
398.7429985766
 21
-108.0389547258
 31
0.0
  0
LINE
  5
489
330
1F
100
AcDbEntity
  8
0
  6
Continuous
 62
     7
370
    25
100
AcDbLine
 10
308.3523951941
 20
-108.0389547258
 30
0.0
 11
398.7429985766
 21
-108.0389547258
 31
0.0
  0
LINE
  5
48A
330
1F
100
AcDbEntity
  8
0
  6
Continuous
 62
     7
370
    25
100
AcDbLine
 10
308.3523951941
 20
-103.0389547258
 30
0.0
 11
398.7429985766
 21
-103.0389547258
 31
0.0
  0
LINE
  5
48B
330
1F
100
AcDbEntity
  8
0
  6
Continuous
 62
     7
370
    25
100
AcDbLine
 10
1.1630111549
 20
-103.0389547258
 30
0.0
 11
1.1630111549
 21
-108.0389547258
 31
0.0
  0
LINE
  5
48C
330
1F
100
AcDbEntity
  8
0
  6
Continuous
 62
     7
370
    25
100
AcDbLine
 10
91.5536145374
 20
-108.0389547258
 30
0.0
 11
1.1630111549
 21
-108.0389547258
 31
0.0
  0
LINE
  5
48D
330
1F
100
AcDbEntity
  8
0
  6
Continuous
 62
     7
370
    25
100
AcDbLine
 10
91.5536145374
 20
-103.0389547258
 30
0.0
 11
1.1630111549
 21
-103.0389547258
 31
0.0
  0
LINE
  5
48E
330
1F
100
AcDbEntity
  8
0
  6
Continuous
 62
     7
370
    25
100
AcDbLine
 10
398.7429985766
 20
-108.0389547258
 30
0.0
 11
401.1463519232
 21
-108.0389547258
 31
0.0
  0
LINE
  5
48F
330
1F
100
AcDbEntity
  8
0
  6
Continuous
 62
     7
370
    25
100
AcDbLine
 10
398.7429985766
 20
-103.0389547258
 30
0.0
 11
401.6693087551
 21
-103.0389547258
 31
0.0
  0
LINE
  5
490
330
1F
100
AcDbEntity
  8
0
  6
Continuous
 62
     7
370
    25
100
AcDbLine
 10
1.1630111549
 20
-108.0389547258
 30
0.0
 11
-1.2403421917
 21
-108.0389547258
 31
0.0
  0
LINE
  5
491
330
1F
100
AcDbEntity
  8
0
  6
Continuous
 62
     7
370
    25
100
AcDbLine
 10
1.1630111549
 20
-103.0389547258
 30
0.0
 11
-1.7632990236
 21
-103.0389547258
 31
0.0
  0
LWPOLYLINE
  5
492
330
1F
100
AcDbEntity
  8
0
  6
Continuous
 62
     7
370
    25
100
AcDbPolyline
 90
       10
 70
   128
 43
0.0
 10
91.5536145374
 20
1586.4670025235
 10
93.1207340061
 20
1585.8036800355
 10
94.9839428875
 20
1585.1937957822
 10
97.1163387589
 20
1584.646155735
 10
99.4871324717
 20
1584.168667136
 10
102.0620927085
 20
1583.7682243277
 10
104.804040241
 20
1583.450609207
 10
107.6733847514
 20
1583.220407742
 10
110.6286964678
 20
1583.0809437559
 10
113.6273043588
 20
1583.0342309355
  0
LINE
  5
493
330
1F
100
AcDbEntity
  8
0
  6
Continuous
 62
     7
370
    25
100
AcDbLine
 10
91.5536145374
 20
1586.4670025235
 30
0.0
 11
1.1630111549
 21
1630.4662401909
 31
0.0
  0
LWPOLYLINE
  5
494
330
1F
100
AcDbEntity
  8
0
  6
Continuous
 62
     7
370
    25
100
AcDbPolyline
 90
       19
 70
   128
 43
0.0
 10
1.1630111549
 20
1630.4662401909
 10
-0.0326115277
 20
1631.1383458
 10
-0.9239471673
 20
1631.8413857612
 10
-1.4993399881
 20
1632.5661665947
 10
-1.7512657206
 20
1633.3032105209
 10
-1.6764299943
 20
1634.0428793987
 10
-1.2758114175
 20
1634.7755007611
 10
-0.5546487802
 20
1635.4914942999
 10
0.4776274522
 20
1636.1814971447
 10
1.8075184588
 20
1636.836486299
 10
3.4176335839
 20
1637.4478966315
 10
5.2869177503
 20
1638.0077328808
 10
7.3909267914
 20
1638.5086742066
 10
9.7021471015
 20
1638.9441699231
 10
12.1903554243
 20
1639.3085251607
 10
14.8230140752
 20
1639.5969753359
 10
17.5656964283
 20
1639.8057484572
 10
20.3825371049
 20
1639.9321144502
 10
22.0816222313
 20
1639.9675108051
  0
LINE
  5
495
330
1F
100
AcDbEntity
  8
0
  6
Continuous
 62
     7
370
    25
100
AcDbLine
 10
214.8714226651
 20
1639.974420858
 30
0.0
 11
185.0345870664
 21
1639.974420858
 31
0.0
  0
LWPOLYLINE
  5
496
330
1F
100
AcDbEntity
  8
0
  6
Continuous
 62
     7
370
    25
100
AcDbPolyline
 90
       19
 70
   128
 43
0.0
 10
398.7429985766
 20
1630.4662401909
 10
399.9386212592
 20
1631.1383458
 10
400.8299568988
 20
1631.8413857612
 10
401.4053497196
 20
1632.5661665947
 10
401.6572754521
 20
1633.3032105209
 10
401.5824397258
 20
1634.0428793987
 10
401.181821149
 20
1634.7755007611
 10
400.4606585117
 20
1635.4914942999
 10
399.4283822792
 20
1636.1814971447
 10
398.0984912726
 20
1636.836486299
 10
396.4883761475
 20
1637.4478966315
 10
394.6190919811
 20
1638.0077328808
 10
392.51508294
 20
1638.5086742066
 10
390.20386263
 20
1638.9441699231
 10
387.7156543071
 20
1639.3085251607
 10
385.0829956562
 20
1639.5969753359
 10
382.3403133032
 20
1639.8057484572
 10
379.5234726266
 20
1639.9321144502
 10
377.8243875002
 20
1639.9675108051
  0
LINE
  5
497
330
1F
100
AcDbEntity
  8
0
  6
Continuous
 62
     7
370
    25
100
AcDbLine
 10
308.3523951941
 20
1586.4670025235
 30
0.0
 11
398.7429985766
 21
1630.4662401909
 31
0.0
  0
LWPOLYLINE
  5
498
330
1F
100
AcDbEntity
  8
0
  6
Continuous
 62
     7
370
    25
100
AcDbPolyline
 90
       10
 70
   128
 43
0.0
 10
286.2787053726
 20
1583.0342309355
 10
289.2773132636
 20
1583.0809437559
 10
292.2326249801
 20
1583.220407742
 10
295.1019694905
 20
1583.450609207
 10
297.8439170229
 20
1583.7682243277
 10
300.4188772598
 20
1584.168667136
 10
302.7896709726
 20
1584.646155735
 10
304.922066844
 20
1585.1937957822
 10
306.7852757254
 20
1585.8036800355
 10
308.3523951941
 20
1586.4670025235
  0
LINE
  5
499
330
1F
100
AcDbEntity
  8
0
  6
Continuous
 62
     7
370
    25
100
AcDbLine
 10
113.6273043588
 20
1583.0342309355
 30
0.0
 11
286.2787053726
 21
1583.0342309355
 31
0.0
  0
LINE
  5
49A
330
1F
100
AcDbEntity
  8
0
  6
Continuous
 62
     7
370
    25
100
AcDbLine
 10
36.5965033165
 20
1632.9021336676
 30
0.0
 11
28.9060501225
 21
1632.9021336676
 31
0.0
  0
LINE
  5
49B
330
1F
100
AcDbEntity
  8
0
  6
Continuous
 62
     7
370
    25
100
AcDbLine
 10
31.8111184315
 20
1635.2315050736
 30
0.0
 11
28.9060501225
 21
1635.2315050736
 31
0.0
  0
LINE
  5
49C
330
1F
100
AcDbEntity
  8
0
  6
Continuous
 62
     7
370
    25
100
AcDbLine
 10
28.9060501225
 20
1635.2315050736
 30
0.0
 11
28.9060501225
 21
1632.9021336676
 31
0.0
  0
LINE
  5
49D
330
1F
100
AcDbEntity
  8
0
  6
Continuous
 62
     7
370
    25
100
AcDbLine
 10
129.4530048657
 20
1588.3400213601
 30
0.0
 11
120.4530048657
 21
1588.3400213601
 31
0.0
  0
LINE
  5
49E
330
1F
100
AcDbEntity
  8
0
  6
Continuous
 62
     7
370
    25
100
AcDbLine
 10
129.4530048657
 20
1590.669392766
 30
0.0
 11
129.4530048657
 21
1588.3400213601
 31
0.0
  0
LINE
  5
49F
330
1F
100
AcDbEntity
  8
0
  6
Continuous
 62
     7
370
    25
100
AcDbLine
 10
129.4530048657
 20
1590.669392766
 30
0.0
 11
120.4530048657
 21
1590.669392766
 31
0.0
  0
LINE
  5
4A0
330
1F
100
AcDbEntity
  8
0
  6
Continuous
 62
     7
370
    25
100
AcDbLine
 10
120.4530048657
 20
1590.669392766
 30
0.0
 11
120.4530048657
 21
1588.3400213601
 31
0.0
  0
LINE
  5
4A1
330
1F
100
AcDbEntity
  8
0
  6
Continuous
 62
     7
370
    25
100
AcDbLine
 10
270.4530048657
 20
1590.669392766
 30
0.0
 11
270.4530048657
 21
1588.3400213601
 31
0.0
  0
LINE
  5
4A2
330
1F
100
AcDbEntity
  8
0
  6
Continuous
 62
     7
370
    25
100
AcDbLine
 10
270.4530048657
 20
1588.3400213601
 30
0.0
 11
279.4530048657
 21
1588.3400213601
 31
0.0
  0
LINE
  5
4A3
330
1F
100
AcDbEntity
  8
0
  6
Continuous
 62
     7
370
    25
100
AcDbLine
 10
279.4530048657
 20
1590.669392766
 30
0.0
 11
279.4530048657
 21
1588.3400213601
 31
0.0
  0
LINE
  5
4A4
330
1F
100
AcDbEntity
  8
0
  6
Continuous
 62
     7
370
    25
100
AcDbLine
 10
270.4530048657
 20
1590.669392766
 30
0.0
 11
279.4530048657
 21
1590.669392766
 31
0.0
  0
LINE
  5
4A5
330
1F
100
AcDbEntity
  8
0
  6
Continuous
 62
     7
370
    25
100
AcDbLine
 10
363.309506415
 20
1632.9021336676
 30
0.0
 11
370.999959609
 21
1632.9021336676
 31
0.0
  0
LINE
  5
4A6
330
1F
100
AcDbEntity
  8
0
  6
Continuous
 62
     7
370
    25
100
AcDbLine
 10
370.999959609
 20
1635.2315050736
 30
0.0
 11
370.999959609
 21
1632.9021336676
 31
0.0
  0
LINE
  5
4A7
330
1F
100
AcDbEntity
  8
0
  6
Continuous
 62
     7
370
    25
100
AcDbLine
 10
368.0948913
 20
1635.2315050736
 30
0.0
 11
370.999959609
 21
1635.2315050736
 31
0.0
  0
LINE
  5
4A8
330
1F
100
AcDbEntity
  8
0
  6
Continuous
 62
     7
370
    25
100
AcDbLine
 10
204.4112477389
 20
1597.1398688936
 30
0.0
 11
204.4112477389
 21
1600.2456974348
 31
0.0
  0
LWPOLYLINE
  5
4A9
330
1F
100
AcDbEntity
  8
0
  6
Continuous
 62
     7
370
    25
100
AcDbPolyline
 90
       11
 70
   128
 43
0.0
 10
204.4112477389
 20
1600.2456974348
 10
204.2399455459
 20
1600.5256256267
 10
203.7428072192
 20
1600.7781524968
 10
202.9684961219
 20
1600.9785589556
 10
201.9928072192
 20
1601.1072278226
 10
200.9112477389
 20
1601.1515640927
 10
199.8296882585
 20
1601.1072278226
 10
198.8539993558
 20
1600.9785589556
 10
198.0796882585
 20
1600.7781524968
 10
197.5825499318
 20
1600.5256256267
 10
197.4112477389
 20
1600.2456974348
  0
LINE
  5
4AA
330
1F
100
AcDbEntity
  8
0
  6
Continuous
 62
     7
370
    25
100
AcDbLine
 10
197.4112477389
 20
1600.2456974348
 30
0.0
 11
197.4112477389
 21
1597.1398688936
 31
0.0
  0
LWPOLYLINE
  5
4AB
330
1F
100
AcDbEntity
  8
0
  6
Continuous
 62
     7
370
    25
100
AcDbPolyline
 90
       11
 70
   128
 43
0.0
 10
197.4112477389
 20
1597.1398688936
 10
197.5825499318
 20
1596.8599407016
 10
198.0796882585
 20
1596.6074138315
 10
198.8539993558
 20
1596.4070073727
 10
199.8296882585
 20
1596.2783385057
 10
200.9112477389
 20
1596.2340022357
 10
201.9928072192
 20
1596.2783385057
 10
202.9684961219
 20
1596.4070073727
 10
203.7428072192
 20
1596.6074138315
 10
204.2399455459
 20
1596.8599407016
 10
204.4112477389
 20
1597.1398688936
  0
LINE
  5
4AC
330
1F
100
AcDbEntity
  8
0
  6
Continuous
 62
     7
370
    25
100
AcDbLine
 10
204.4112477389
 20
1584.7165547286
 30
0.0
 11
204.4112477389
 21
1587.8223832699
 31
0.0
  0
LWPOLYLINE
  5
4AD
330
1F
100
AcDbEntity
  8
0
  6
Continuous
 62
     7
370
    25
100
AcDbPolyline
 90
       11
 70
   128
 43
0.0
 10
204.4112477389
 20
1587.8223832699
 10
204.2399455459
 20
1588.1023114618
 10
203.7428072192
 20
1588.3548383319
 10
202.9684961219
 20
1588.5552447907
 10
201.9928072192
 20
1588.6839136577
 10
200.9112477389
 20
1588.7282499277
 10
199.8296882585
 20
1588.6839136577
 10
198.8539993558
 20
1588.5552447907
 10
198.0796882585
 20
1588.3548383319
 10
197.5825499318
 20
1588.1023114618
 10
197.4112477389
 20
1587.8223832699
  0
LINE
  5
4AE
330
1F
100
AcDbEntity
  8
0
  6
Continuous
 62
     7
370
    25
100
AcDbLine
 10
197.4112477389
 20
1587.8223832699
 30
0.0
 11
197.4112477389
 21
1584.7165547286
 31
0.0
  0
LWPOLYLINE
  5
4AF
330
1F
100
AcDbEntity
  8
0
  6
Continuous
 62
     7
370
    25
100
AcDbPolyline
 90
       11
 70
   128
 43
0.0
 10
197.4112477389
 20
1584.7165547286
 10
197.5825499318
 20
1584.4366265367
 10
198.0796882585
 20
1584.1840996666
 10
198.8539993558
 20
1583.9836932078
 10
199.8296882585
 20
1583.8550243408
 10
200.9112477389
 20
1583.8106880708
 10
201.9928072192
 20
1583.8550243408
 10
202.9684961219
 20
1583.9836932078
 10
203.7428072192
 20
1584.1840996666
 10
204.2399455459
 20
1584.4366265367
 10
204.4112477389
 20
1584.7165547286
  0
LINE
  5
4B0
330
1F
100
AcDbEntity
  8
0
  6
Continuous
 62
     7
370
    25
100
AcDbLine
 10
286.2787053726
 20
1583.0342309355
 30
0.0
 11
286.2787053726
 21
1578.204601804
 31
0.0
  0
LINE
  5
4B1
330
1F
100
AcDbEntity
  8
0
  6
Continuous
 62
     7
370
    25
100
AcDbLine
 10
308.3523951941
 20
1586.4670025235
 30
0.0
 11
308.3523951941
 21
1581.637373392
 31
0.0
  0
LWPOLYLINE
  5
4B2
330
1F
100
AcDbEntity
  8
0
  6
Continuous
 62
     7
370
    25
100
AcDbPolyline
 90
       10
 70
   128
 43
0.0
 10
286.2787053726
 20
1578.204601804
 10
289.2773132636
 20
1578.2513146244
 10
292.2326249801
 20
1578.3907786106
 10
295.1019694905
 20
1578.6209800756
 10
297.8439170229
 20
1578.9385951962
 10
300.4188772598
 20
1579.3390380045
 10
302.7896709726
 20
1579.8165266035
 10
304.922066844
 20
1580.3641666508
 10
306.7852757254
 20
1580.9740509041
 10
308.3523951941
 20
1581.637373392
  0
LINE
  5
4B3
330
1F
100
AcDbEntity
  8
0
  6
Continuous
 62
     7
370
    25
100
AcDbLine
 10
113.6273043588
 20
1583.0342309355
 30
0.0
 11
113.6273043588
 21
1578.204601804
 31
0.0
  0
LINE
  5
4B4
330
1F
100
AcDbEntity
  8
0
  6
Continuous
 62
     7
370
    25
100
AcDbLine
 10
113.6273043588
 20
1578.204601804
 30
0.0
 11
286.2787053726
 21
1578.204601804
 31
0.0
  0
LINE
  5
4B5
330
1F
100
AcDbEntity
  8
0
  6
Continuous
 62
     7
370
    25
100
AcDbLine
 10
91.5536145374
 20
1586.4670025235
 30
0.0
 11
91.5536145374
 21
1581.637373392
 31
0.0
  0
LWPOLYLINE
  5
4B6
330
1F
100
AcDbEntity
  8
0
  6
Continuous
 62
     7
370
    25
100
AcDbPolyline
 90
       10
 70
   128
 43
0.0
 10
91.5536145374
 20
1581.637373392
 10
93.1207340061
 20
1580.9740509041
 10
94.9839428875
 20
1580.3641666508
 10
97.1163387589
 20
1579.8165266035
 10
99.4871324717
 20
1579.3390380045
 10
102.0620927085
 20
1578.9385951962
 10
104.804040241
 20
1578.6209800756
 10
107.6733847514
 20
1578.3907786106
 10
110.6286964678
 20
1578.2513146244
 10
113.6273043588
 20
1578.204601804
  0
LINE
  5
4B7
330
1F
100
AcDbEntity
  8
0
  6
Continuous
 62
     7
370
    25
100
AcDbLine
 10
398.7429985766
 20
1630.4662401909
 30
0.0
 11
398.7429985766
 21
1625.6366110594
 31
0.0
  0
LINE
  5
4B8
330
1F
100
AcDbEntity
  8
0
  6
Continuous
 62
     7
370
    25
100
AcDbLine
 10
308.3523951941
 20
1581.637373392
 30
0.0
 11
398.7429985766
 21
1625.6366110594
 31
0.0
  0
LINE
  5
4B9
330
1F
100
AcDbEntity
  8
0
  6
Continuous
 62
     7
370
    25
100
AcDbLine
 10
1.1630111549
 20
1630.4662401909
 30
0.0
 11
1.1630111549
 21
1625.6366110594
 31
0.0
  0
LINE
  5
4BA
330
1F
100
AcDbEntity
  8
0
  6
Continuous
 62
     7
370
    25
100
AcDbLine
 10
91.5536145374
 20
1581.637373392
 30
0.0
 11
1.1630111549
 21
1625.6366110594
 31
0.0
  0
LWPOLYLINE
  5
4BB
330
1F
100
AcDbEntity
  8
0
  6
Continuous
 62
     7
370
    25
100
AcDbPolyline
 90
        3
 70
   128
 43
0.0
 10
201.9883986245
 20
1583.8546544338
 10
200.9112477389
 20
1583.8986207963
 10
199.8340968533
 20
1583.8546544338
  0
LWPOLYLINE
  5
4BC
330
1F
100
AcDbEntity
  8
0
  6
Continuous
 62
     7
370
    25
100
AcDbPolyline
 90
        3
 70
   128
 43
0.0
 10
201.9883986318
 20
1596.2779685981
 10
200.9112477389
 20
1596.3219349612
 10
199.834096846
 20
1596.2779685981
  0
LWPOLYLINE
  5
4BD
330
1F
100
AcDbEntity
  8
0
  6
Continuous
 62
     7
370
    25
100
AcDbPolyline
 90
        6
 70
   128
 43
0.0
 10
398.7429985766
 20
1625.6366110594
 10
399.9386212592
 20
1626.3087166686
 10
400.8299568988
 20
1627.0117566298
 10
401.4053497196
 20
1627.7365374632
 10
401.6572754521
 20
1628.4735813894
 10
401.6693087551
 20
1628.674315599
  0
LWPOLYLINE
  5
4BE
330
1F
100
AcDbEntity
  8
0
  6
Continuous
 62
     7
370
    25
100
AcDbPolyline
 90
        6
 70
   128
 43
0.0
 10
1.1630111549
 20
1625.6366110594
 10
-0.0326115277
 20
1626.3087166686
 10
-0.9239471673
 20
1627.0117566298
 10
-1.4993399881
 20
1627.7365374632
 10
-1.7512657206
 20
1628.4735813894
 10
-1.7632990236
 20
1628.674315599
  0
LINE
  5
4BF
330
1F
100
AcDbEntity
  8
0
  6
Continuous
 62
     8
370
    25
100
AcDbLine
 10
178.4468011623
 20
1679.493868697
 30
0.0
 11
134.9636260286
 21
1700.6600794053
 31
0.0
  0
LINE
  5
4C0
330
1F
100
AcDbEntity
  8
0
  6
Continuous
 62
     8
370
    25
100
AcDbLine
 10
132.7558474343
 20
1701.734754996
 30
0.0
 11
43.4166712854
 21
1745.2221917128
 31
0.0
  0
LINE
  5
4C1
330
1F
100
AcDbEntity
  8
0
  6
Continuous
 62
     8
370
    25
100
AcDbLine
 10
41.208892691
 20
1746.2968673036
 30
0.0
 11
-974.821768871
 21
2240.8679054713
 31
0.0
  0
LINE
  5
4C2
330
1F
100
AcDbEntity
  8
0
  6
Continuous
 62
     8
370
    25
100
AcDbLine
 10
221.4592085692
 20
1679.493868697
 30
0.0
 11
264.82085428
 21
1700.6009227921
 31
0.0
  0
LINE
  5
4C3
330
1F
100
AcDbEntity
  8
0
  6
Continuous
 62
     8
370
    25
100
AcDbLine
 10
267.1501622972
 20
1701.734754996
 30
0.0
 11
356.3678090232
 21
1745.1630350996
 31
0.0
  0
LINE
  5
4C4
330
1F
100
AcDbEntity
  8
0
  6
Continuous
 62
     8
370
    25
100
AcDbLine
 10
358.6971170404
 20
1746.2968673036
 30
0.0
 11
1374.7277786025
 21
2240.8679054713
 31
0.0
  0
LINE
  5
4C5
330
1F
100
AcDbEntity
  8
0
  6
Continuous
 62
     8
370
    25
100
AcDbLine
 10
221.4592085692
 20
-1455.5617781486
 30
0.0
 11
264.9423837029
 21
-1476.7279888568
 31
0.0
  0
LINE
  5
4C6
330
1F
100
AcDbEntity
  8
0
  6
Continuous
 62
     8
370
    25
100
AcDbLine
 10
267.1501622972
 20
-1477.8026644476
 30
0.0
 11
356.4893384461
 21
-1521.2901011644
 31
0.0
  0
LINE
  5
4C7
330
1F
100
AcDbEntity
  8
0
  6
Continuous
 62
     8
370
    25
100
AcDbLine
 10
358.6971170405
 20
-1522.3647767552
 30
0.0
 11
1374.7277786025
 21
-2016.9358149229
 31
0.0
  0
LINE
  5
4C8
330
1F
100
AcDbEntity
  8
0
  6
Continuous
 62
     8
370
    25
100
AcDbLine
 10
178.4468011623
 20
-1455.5617781486
 30
0.0
 11
135.0851554515
 21
-1476.6688322437
 31
0.0
  0
LINE
  5
4C9
330
1F
100
AcDbEntity
  8
0
  6
Continuous
 62
     8
370
    25
100
AcDbLine
 10
132.7558474342
 20
-1477.8026644476
 30
0.0
 11
43.5382007082
 21
-1521.2309445512
 31
0.0
  0
LINE
  5
4CA
330
1F
100
AcDbEntity
  8
0
  6
Continuous
 62
     8
370
    25
100
AcDbLine
 10
41.208892691
 20
-1522.3647767552
 30
0.0
 11
-974.821768871
 21
-2016.9358149229
 31
0.0
  0
ELLIPSE
  5
4CB
330
1F
100
AcDbEntity
  8
0
  6
Continuous
 62
     8
370
    25
100
AcDbEllipse
 10
283.2095445366
 20
-1372.1013613262
 30
0.0
 11
0.7240925576323889
 21
3.076041367607104
 31
0.0
210
0.0
220
0.0
230
1.0
 40
0.4864373979
 41
0.1915290867582317
 42
1.461527857977842
  0
ARC
  5
4CC
330
1F
100
AcDbEntity
  8
0
  6
Continuous
 62
     8
370
    25
100
AcDbCircle
 10
284.187250004
 20
-1370.6956195849
 30
0.0
 40
1.672832538955285
100
AcDbArc
 50
357.4203421738
 51
62.5750665299
  0
ELLIPSE
  5
4CD
330
1F
100
AcDbEntity
  8
0
  6
Continuous
 62
     8
370
    25
100
AcDbEllipse
 10
217.8714226651
 20
-1381.0929667634
 30
0.0
 11
-1.364801465833892
 21
2.822611378187958
 31
0.0
210
0.0
220
0.0
230
1.0
 40
0.3362030933
 41
6.174574706919211
 42
7.450732674504028
  0
ELLIPSE
  5
4CE
330
1F
100
AcDbEntity
  8
0
  6
Continuous
 62
     8
370
    25
100
AcDbEllipse
 10
217.8714226651
 20
-1452.5714779088
 30
0.0
 11
2.976584842305443
 21
0.9995732953377684
 31
0.0
210
0.0
220
0.0
230
1.0
 40
0.3742488229
 41
1.934466704127458
 42
3.016053799637417
  0
ARC
  5
4CF
330
1F
100
AcDbEntity
  8
0
  6
Continuous
 62
     8
370
    25
100
AcDbCircle
 10
216.7690758709
 20
-1454.0939193094
 30
0.0
 40
1.512837977999909
100
AcDbArc
 50
244.1200839387
 51
278.3387220473
  0
ELLIPSE
  5
4D0
330
1F
100
AcDbEntity
  8
0
  6
Continuous
 62
     8
370
    25
100
AcDbEllipse
 10
217.8714226651
 20
-1381.0929667634
 30
0.0
 11
2.998773681546396
 21
-0.8617472700693725
 31
0.0
210
0.0
220
0.0
230
1.0
 40
0.0995297594
 41
2.088082246390043
 42
3.170186382626466
  0
ELLIPSE
  5
4D1
330
1F
100
AcDbEntity
  8
0
  6
Continuous
 62
     8
370
    25
100
AcDbEllipse
 10
116.6964651949
 20
1596.0334518746
 30
0.0
 11
0.7240925576324173
 21
3.076041367607104
 31
0.0
210
0.0
220
0.0
230
1.0
 40
0.4864373979
 41
3.333121740348138
 42
4.603120511567572
  0
ARC
  5
4D2
330
1F
100
AcDbEntity
  8
0
  6
Continuous
 62
     8
370
    25
100
AcDbCircle
 10
115.7187597275
 20
1594.6277101333
 30
0.0
 40
1.672832538955299
100
AcDbArc
 50
177.4203421738
 51
242.5750665299
  0
ELLIPSE
  5
4D3
330
1F
100
AcDbEntity
  8
0
  6
Continuous
 62
     8
370
    25
100
AcDbEllipse
 10
182.0345870664
 20
1605.0250573118
 30
0.0
 11
-1.364801465833864
 21
2.822611378187958
 31
0.0
210
0.0
220
0.0
230
1.0
 40
0.3362030933
 41
3.032982053329477
 42
4.309140020914278
  0
ELLIPSE
  5
4D4
330
1F
100
AcDbEntity
  8
0
  6
Continuous
 62
     8
370
    25
100
AcDbEllipse
 10
182.0345870664
 20
1676.5035684572
 30
0.0
 11
2.97658484230547
 21
0.9995732953377682
 31
0.0
210
0.0
220
0.0
230
1.0
 40
0.3742488229
 41
5.076059357717243
 42
6.157646453227261
  0
ARC
  5
4D5
330
1F
100
AcDbEntity
  8
0
  6
Continuous
 62
     8
370
    25
100
AcDbCircle
 10
183.1369338606
 20
1678.0260098578
 30
0.0
 40
1.512837977994274
100
AcDbArc
 50
64.1200839386
 51
98.3387220474
  0
ELLIPSE
  5
4D6
330
1F
100
AcDbEntity
  8
0
  6
Continuous
 62
     8
370
    25
100
AcDbEllipse
 10
182.0345870664
 20
1605.0250573118
 30
0.0
 11
2.998773681546396
 21
-0.8617472700693725
 31
0.0
210
0.0
220
0.0
230
1.0
 40
0.0995297594
 41
5.229674899979209
 42
6.311779036216132
  0
ELLIPSE
  5
4D7
330
1F
100
AcDbEntity
  8
0
  6
Continuous
 62
     8
370
    25
100
AcDbEllipse
 10
217.8714226651
 20
-111.0389547258
 30
0.0
 11
2.997193927493015
 21
-0.9024224452094388
 31
0.0
210
0.0
220
0.0
230
1.0
 40
0.1437519028
 41
3.185221460292411
 42
4.266951924881583
  0
ELLIPSE
  5
4D8
330
1F
100
AcDbEntity
  8
0
  6
Continuous
 62
     8
370
    25
100
AcDbEllipse
 10
217.8714226651
 20
-185.0389547258
 30
0.0
 11
2.997193927493015
 21
0.9024224452094247
 31
0.0
210
0.0
220
0.0
230
1.0
 40
0.1437519028
 41
2.016233382298029
 42
3.09833751853453
  0
ARC
  5
4D9
330
1F
100
AcDbEntity
  8
0
  6
Continuous
 62
     8
370
    25
100
AcDbCircle
 10
284.186916815
 20
1594.627796303
 30
0.0
 40
1.673161515003823
100
AcDbArc
 50
297.5352527758
 51
2.5761964886
  0
ELLIPSE
  5
4DA
330
1F
100
AcDbEntity
  8
0
  6
Continuous
 62
     8
370
    25
100
AcDbEllipse
 10
283.2095445366
 20
1596.0334518746
 30
0.0
 11
-0.7240925576323889
 21
3.076041367607104
 31
0.0
210
0.0
220
0.0
230
1.0
 40
0.4864373979
 41
1.680064795612091
 42
2.942928098153271
  0
ELLIPSE
  5
4DB
330
1F
100
AcDbEntity
  8
0
  6
Continuous
 62
     8
370
    25
100
AcDbEllipse
 10
217.8714226651
 20
1605.0250573118
 30
0.0
 11
1.36480146583392
 21
2.822611378187957
 31
0.0
210
0.0
220
0.0
230
1.0
 40
0.3362030933
 41
1.974045286265343
 42
3.250203253850222
  0
ELLIPSE
  5
4DC
330
1F
100
AcDbEntity
  8
0
  6
Continuous
 62
     8
370
    25
100
AcDbEllipse
 10
217.8714226651
 20
1676.5035684572
 30
0.0
 11
2.976584842305499
 21
-0.9995732953377683
 31
0.0
210
0.0
220
0.0
230
1.0
 40
0.3742488229
 41
3.267245176515036
 42
4.34871860305215
  0
ARC
  5
4DD
330
1F
100
AcDbEntity
  8
0
  6
Continuous
 62
     8
370
    25
100
AcDbCircle
 10
216.7690734037
 20
1678.0261495317
 30
0.0
 40
1.512700138721323
100
AcDbArc
 50
81.6604182588
 51
115.9721635346
  0
ELLIPSE
  5
4DE
330
1F
100
AcDbEntity
  8
0
  6
Continuous
 62
     8
370
    25
100
AcDbEllipse
 10
217.8714226651
 20
1605.0250573118
 30
0.0
 11
2.998773681546453
 21
0.8617472700693725
 31
0.0
210
0.0
220
0.0
230
1.0
 40
0.0995297594
 41
3.112998924553313
 42
4.195103060789981
  0
ARC
  5
4DF
330
1F
100
AcDbEntity
  8
0
  6
Continuous
 62
     8
370
    25
100
AcDbCircle
 10
115.7190929165
 20
-1370.6957057546
 30
0.0
 40
1.67316151500347
100
AcDbArc
 50
117.5352527758
 51
182.5761964886
  0
ELLIPSE
  5
4E0
330
1F
100
AcDbEntity
  8
0
  6
Continuous
 62
     8
370
    25
100
AcDbEllipse
 10
116.6964651948
 20
-1372.1013613262
 30
0.0
 11
-0.7240925576324173
 21
3.076041367607104
 31
0.0
210
0.0
220
0.0
230
1.0
 40
0.4864373979
 41
4.82165744920175
 42
6.084520751743113
  0
ELLIPSE
  5
4E1
330
1F
100
AcDbEntity
  8
0
  6
Continuous
 62
     8
370
    25
100
AcDbEllipse
 10
182.0345870664
 20
-1381.0929667634
 30
0.0
 11
1.364801465833864
 21
2.822611378187958
 31
0.0
210
0.0
220
0.0
230
1.0
 40
0.3362030933
 41
5.115637939855157
 42
6.391795907440004
  0
ELLIPSE
  5
4E2
330
1F
100
AcDbEntity
  8
0
  6
Continuous
 62
     8
370
    25
100
AcDbEllipse
 10
182.0345870664
 20
-1452.5714779088
 30
0.0
 11
2.976584842305442
 21
-0.9995732953379958
 31
0.0
210
0.0
220
0.0
230
1.0
 40
0.3742488229
 41
0.125652522925412
 42
1.207125949462394
  0
ARC
  5
4E3
330
1F
100
AcDbEntity
  8
0
  6
Continuous
 62
     8
370
    25
100
AcDbCircle
 10
183.1369363278
 20
-1454.0940589833
 30
0.0
 40
1.512700138718248
100
AcDbArc
 50
261.6604182587
 51
295.9721635347
  0
ELLIPSE
  5
4E4
330
1F
100
AcDbEntity
  8
0
  6
Continuous
 62
     8
370
    25
100
AcDbEllipse
 10
182.0345870664
 20
-1381.0929667634
 30
0.0
 11
2.998773681546425
 21
0.8617472700693726
 31
0.0
210
0.0
220
0.0
230
1.0
 40
0.0995297594
 41
6.254591578143217
 42
7.336695714379365
  0
ELLIPSE
  5
4E5
330
1F
100
AcDbEntity
  8
0
  6
Continuous
 62
     8
370
    25
100
AcDbEllipse
 10
182.0345870664
 20
-111.0389547258
 30
0.0
 11
2.997193927492987
 21
0.9024224452094388
 31
0.0
210
0.0
220
0.0
230
1.0
 40
0.1437519028
 41
5.157826035887835
 42
6.238936020992059
  0
ELLIPSE
  5
4E6
330
1F
100
AcDbEntity
  8
0
  6
Continuous
 62
     8
370
    25
100
AcDbEllipse
 10
182.0345870664
 20
-185.0389547258
 30
0.0
 11
2.997193927492987
 21
-0.902422445209453
 31
0.0
210
0.0
220
0.0
230
1.0
 40
0.1437519028
 41
0.0432551350553594
 42
1.125359271291778
  0
LINE
  5
4E7
330
1F
100
AcDbEntity
  8
0
  6
Continuous
 62
     8
370
    25
100
AcDbLine
 10
266.3997158676
 20
-101.0539612315
 30
0.0
 11
283.5062938639
 21
-101.0539612315
 31
0.0
  0
LINE
  5
4E8
330
1F
100
AcDbEntity
  8
0
  6
Continuous
 62
     8
370
    25
100
AcDbLine
 10
357.9466706109
 20
-101.0539612315
 30
0.0
 11
375.0532486071
 21
-101.0539612315
 31
0.0
  0
LINE
  5
4E9
330
1F
100
AcDbEntity
  8
0
  6
Continuous
 62
     8
370
    25
100
AcDbLine
 10
39.4541387745
 20
-101.0539612315
 30
0.0
 11
41.9593391206
 21
-101.0539612315
 31
0.0
  0
LINE
  5
4EA
330
1F
100
AcDbEntity
  8
0
  6
Continuous
 62
     8
370
    25
100
AcDbLine
 10
24.8527611244
 20
-101.0539612315
 30
0.0
 11
39.4541387745
 21
-101.0539612315
 31
0.0
  0
LINE
  5
4EB
330
1F
100
AcDbEntity
  8
0
  6
Continuous
 62
     8
370
    25
100
AcDbLine
 10
131.0010935178
 20
-101.0539612315
 30
0.0
 11
133.5062938639
 21
-101.0539612315
 31
0.0
  0
LINE
  5
4EC
330
1F
100
AcDbEntity
  8
0
  6
Continuous
 62
     8
370
    25
100
AcDbLine
 10
116.3997158676
 20
-101.0539612315
 30
0.0
 11
131.0010935178
 21
-101.0539612315
 31
0.0
  0
LWPOLYLINE
  5
4ED
330
1F
100
AcDbEntity
  8
0
  6
Continuous
 62
     8
370
    25
100
AcDbPolyline
 90
       25
 70
   128
 43
0.0
 10
259.4530049114
 20
-1463.822916363
 10
259.4530048657
 20
-1463.822608444
 10
259.6107725166
 20
-1463.2516846906
 10
260.0808637747
 20
-1462.6923832983
 10
260.8537089377
 20
-1462.1560900307
 10
261.9135751068
 20
-1461.6537222722
 10
263.2388864632
 20
-1461.1955067816
 10
264.8026634896
 20
-1460.7907715049
 10
266.5730721952
 20
-1460.4477556851
 10
268.5140721642
 20
-1460.1734421353
 10
270.5861502347
 20
-1459.9734150882
 10
272.7471248725
 20
-1459.8517465177
 10
274.9530048657
 20
-1459.8109132449
 10
277.1588848589
 20
-1459.8517465177
 10
279.3198594968
 20
-1459.9734150882
 10
281.3919375672
 20
-1460.1734421353
 10
283.3329375363
 20
-1460.4477556851
 10
285.1033462419
 20
-1460.7907715049
 10
286.6671232682
 20
-1461.1955067816
 10
287.9924346246
 20
-1461.6537222722
 10
289.0523007937
 20
-1462.1560900307
 10
289.8251459567
 20
-1462.6923832983
 10
290.2952372149
 20
-1463.2516846906
 10
290.4530048657
 20
-1463.822608444
 10
290.4530047768
 20
-1463.8230381178
  0
LINE
  5
4EE
330
1F
100
AcDbEntity
  8
0
  6
Continuous
 62
     8
370
    25
100
AcDbLine
 10
124.9530048657
 20
-194.0389547258
 30
0.0
 11
140.4530048657
 21
-194.0389547258
 31
0.0
  0
LINE
  5
4EF
330
1F
100
AcDbEntity
  8
0
  6
Continuous
 62
     8
370
    25
100
AcDbLine
 10
109.4530048657
 20
-194.0389547258
 30
0.0
 11
124.9530048657
 21
-194.0389547258
 31
0.0
  0
LWPOLYLINE
  5
4F0
330
1F
100
AcDbEntity
  8
0
  6
Continuous
 62
     8
370
    25
100
AcDbPolyline
 90
       25
 70
   128
 43
0.0
 10
140.4530048201
 20
1687.7550069115
 10
140.4530048658
 20
1687.7546989924
 10
140.2952372149
 20
1687.183775239
 10
139.8251459568
 20
1686.6244738467
 10
139.0523007938
 20
1686.0881805791
 10
137.9924346246
 20
1685.5858128206
 10
136.6671232683
 20
1685.12759733
 10
135.1033462419
 20
1684.7228620533
 10
133.3329375363
 20
1684.3798462336
 10
131.3919375673
 20
1684.1055326837
 10
129.3198594968
 20
1683.9055056366
 10
127.158884859
 20
1683.7838370661
 10
124.9530048658
 20
1683.7430037933
 10
122.7471248725
 20
1683.7838370661
 10
120.5861502347
 20
1683.9055056366
 10
118.5140721642
 20
1684.1055326837
 10
116.5730721952
 20
1684.3798462336
 10
114.8026634896
 20
1684.7228620533
 10
113.2388864633
 20
1685.12759733
 10
111.9135751069
 20
1685.5858128206
 10
110.8537089378
 20
1686.0881805791
 10
110.0808637747
 20
1686.6244738467
 10
109.6107725166
 20
1687.183775239
 10
109.4530048658
 20
1687.7546989924
 10
109.4530049547
 20
1687.7551286662
  0
LINE
  5
4F1
330
1F
100
AcDbEntity
  8
0
  6
Continuous
 62
     8
370
    25
100
AcDbLine
 10
33.4060501225
 20
-194.0389547258
 30
0.0
 11
48.9060501225
 21
-194.0389547258
 31
0.0
  0
LINE
  5
4F2
330
1F
100
AcDbEntity
  8
0
  6
Continuous
 62
     8
370
    25
100
AcDbLine
 10
17.9060501225
 20
-194.0389547258
 30
0.0
 11
33.4060501225
 21
-194.0389547258
 31
0.0
  0
LWPOLYLINE
  5
4F3
330
1F
100
AcDbEntity
  8
0
  6
Continuous
 62
     8
370
    25
100
AcDbPolyline
 90
       12
 70
   128
 43
0.0
 10
124.9530048658
 20
-1459.8109132449
 10
127.158884859
 20
-1459.8517465177
 10
129.3198594968
 20
-1459.9734150882
 10
131.3919375673
 20
-1460.1734421353
 10
133.3329375363
 20
-1460.4477556851
 10
135.1033462419
 20
-1460.7907715049
 10
136.6671232682
 20
-1461.1955067816
 10
137.9924346246
 20
-1461.6537222722
 10
139.0523007938
 20
-1462.1560900307
 10
139.8251459568
 20
-1462.6923832983
 10
140.2952372149
 20
-1463.2516846906
 10
140.4530048201
 20
-1463.822300525
  0
LWPOLYLINE
  5
4F4
330
1F
100
AcDbEntity
  8
0
  6
Continuous
 62
     8
370
    25
100
AcDbPolyline
 90
       12
 70
   128
 43
0.0
 10
109.4530049547
 20
-1463.8221787703
 10
109.6107725166
 20
-1463.2516846906
 10
110.0808637747
 20
-1462.6923832983
 10
110.8537089378
 20
-1462.1560900307
 10
111.9135751069
 20
-1461.6537222722
 10
113.2388864633
 20
-1461.1955067816
 10
114.8026634896
 20
-1460.7907715049
 10
116.5730721952
 20
-1460.4477556851
 10
118.5140721642
 20
-1460.1734421353
 10
120.5861502347
 20
-1459.9734150882
 10
122.7471248725
 20
-1459.8517465177
 10
124.9530048658
 20
-1459.8109132449
  0
LINE
  5
4F5
330
1F
100
AcDbEntity
  8
0
  6
Continuous
 62
     8
370
    25
100
AcDbLine
 10
366.499959609
 20
-194.0389547258
 30
0.0
 11
381.999959609
 21
-194.0389547258
 31
0.0
  0
LINE
  5
4F6
330
1F
100
AcDbEntity
  8
0
  6
Continuous
 62
     8
370
    25
100
AcDbLine
 10
350.999959609
 20
-194.0389547258
 30
0.0
 11
366.499959609
 21
-194.0389547258
 31
0.0
  0
LINE
  5
4F7
330
1F
100
AcDbEntity
  8
0
  6
Continuous
 62
     8
370
    25
100
AcDbLine
 10
274.9530048657
 20
-194.0389547258
 30
0.0
 11
290.4530048657
 21
-194.0389547258
 31
0.0
  0
LINE
  5
4F8
330
1F
100
AcDbEntity
  8
0
  6
Continuous
 62
     8
370
    25
100
AcDbLine
 10
259.4530048657
 20
-194.0389547258
 30
0.0
 11
274.9530048657
 21
-194.0389547258
 31
0.0
  0
LWPOLYLINE
  5
4F9
330
1F
100
AcDbEntity
  8
0
  6
Continuous
 62
     8
370
    25
100
AcDbPolyline
 90
       12
 70
   128
 43
0.0
 10
366.499959609
 20
1728.3051161009
 10
364.2940796157
 20
1728.3459493737
 10
362.1331049779
 20
1728.4676179442
 10
360.0610269074
 20
1728.6676449913
 10
358.1200269384
 20
1728.9419585411
 10
356.3496182328
 20
1729.2849743609
 10
354.7858412065
 20
1729.6897096376
 10
353.4605298501
 20
1730.1479251282
 10
352.400663681
 20
1730.6502928867
 10
351.6278185179
 20
1731.1865861543
 10
351.1577272598
 20
1731.7458875465
 10
350.9999596546
 20
1732.316503381
  0
LWPOLYLINE
  5
4FA
330
1F
100
AcDbEntity
  8
0
  6
Continuous
 62
     8
370
    25
100
AcDbPolyline
 90
       12
 70
   128
 43
0.0
 10
381.99995952
 20
1732.3163816262
 10
381.8421919581
 20
1731.7458875465
 10
381.3721007
 20
1731.1865861543
 10
380.5992555369
 20
1730.6502928867
 10
379.5393893678
 20
1730.1479251282
 10
378.2140780114
 20
1729.6897096376
 10
376.6503009851
 20
1729.2849743609
 10
374.8798922795
 20
1728.9419585411
 10
372.9388923105
 20
1728.6676449913
 10
370.86681424
 20
1728.4676179442
 10
368.7058396022
 20
1728.3459493737
 10
366.499959609
 20
1728.3051161009
  0
LWPOLYLINE
  5
4FB
330
1F
100
AcDbEntity
  8
0
  6
Continuous
 62
     8
370
    25
100
AcDbPolyline
 90
       12
 70
   128
 43
0.0
 10
274.9530048657
 20
1683.7430037933
 10
272.7471248725
 20
1683.7838370661
 10
270.5861502347
 20
1683.9055056366
 10
268.5140721642
 20
1684.1055326837
 10
266.5730721951
 20
1684.3798462336
 10
264.8026634896
 20
1684.7228620533
 10
263.2388864632
 20
1685.12759733
 10
261.9135751068
 20
1685.5858128206
 10
260.8537089377
 20
1686.0881805791
 10
260.0808637747
 20
1686.6244738467
 10
259.6107725166
 20
1687.183775239
 10
259.4530049114
 20
1687.7543910734
  0
LWPOLYLINE
  5
4FC
330
1F
100
AcDbEntity
  8
0
  6
Continuous
 62
     8
370
    25
100
AcDbPolyline
 90
       12
 70
   128
 43
0.0
 10
290.4530047768
 20
1687.7542693187
 10
290.2952372149
 20
1687.183775239
 10
289.8251459567
 20
1686.6244738467
 10
289.0523007937
 20
1686.0881805791
 10
287.9924346246
 20
1685.5858128206
 10
286.6671232682
 20
1685.12759733
 10
285.1033462419
 20
1684.7228620533
 10
283.3329375363
 20
1684.3798462336
 10
281.3919375672
 20
1684.1055326837
 10
279.3198594967
 20
1683.9055056366
 10
277.1588848589
 20
1683.7838370661
 10
274.9530048657
 20
1683.7430037933
  0
LWPOLYLINE
  5
4FD
330
1F
100
AcDbEntity
  8
0
  6
Continuous
 62
     8
370
    25
100
AcDbPolyline
 90
       25
 70
   128
 43
0.0
 10
48.9060500769
 20
1732.317119219
 10
48.9060501225
 20
1732.3168113
 10
48.7482824717
 20
1731.7458875465
 10
48.2781912135
 20
1731.1865861543
 10
47.5053460505
 20
1730.6502928867
 10
46.4454798814
 20
1730.1479251282
 10
45.120168525
 20
1729.6897096376
 10
43.5563914987
 20
1729.2849743609
 10
41.7859827931
 20
1728.9419585411
 10
39.844982824
 20
1728.6676449913
 10
37.7729047536
 20
1728.4676179442
 10
35.6119301158
 20
1728.3459493737
 10
33.4060501225
 20
1728.3051161009
 10
31.2001701293
 20
1728.3459493737
 10
29.0391954915
 20
1728.4676179442
 10
26.967117421
 20
1728.6676449913
 10
25.026117452
 20
1728.9419585411
 10
23.2557087464
 20
1729.2849743609
 10
21.69193172
 20
1729.6897096376
 10
20.3666203636
 20
1730.1479251282
 10
19.3067541945
 20
1730.6502928867
 10
18.5339090315
 20
1731.1865861543
 10
18.0638177734
 20
1731.7458875465
 10
17.9060501225
 20
1732.3168113
 10
17.9060502114
 20
1732.3172409738
  0
LWPOLYLINE
  5
4FE
330
1F
100
AcDbEntity
  8
0
  6
Continuous
 62
     8
370
    25
100
AcDbPolyline
 90
       12
 70
   128
 43
0.0
 10
33.4060501225
 20
-1504.3730255525
 10
35.6119301157
 20
-1504.4138588252
 10
37.7729047536
 20
-1504.5355273958
 10
39.844982824
 20
-1504.7355544429
 10
41.7859827931
 20
-1505.0098679927
 10
43.5563914987
 20
-1505.3528838124
 10
45.120168525
 20
-1505.7576190891
 10
46.4454798814
 20
-1506.2158345798
 10
47.5053460505
 20
-1506.7182023383
 10
48.2781912135
 20
-1507.2544956059
 10
48.7482824717
 20
-1507.8137969981
 10
48.9060500769
 20
-1508.3844128326
  0
LWPOLYLINE
  5
4FF
330
1F
100
AcDbEntity
  8
0
  6
Continuous
 62
     8
370
    25
100
AcDbPolyline
 90
       12
 70
   128
 43
0.0
 10
17.9060502114
 20
-1508.3842910778
 10
18.0638177734
 20
-1507.8137969981
 10
18.5339090315
 20
-1507.2544956059
 10
19.3067541945
 20
-1506.7182023383
 10
20.3666203636
 20
-1506.2158345798
 10
21.69193172
 20
-1505.7576190891
 10
23.2557087464
 20
-1505.3528838124
 10
25.0261174519
 20
-1505.0098679927
 10
26.967117421
 20
-1504.7355544429
 10
29.0391954915
 20
-1504.5355273958
 10
31.2001701293
 20
-1504.4138588252
 10
33.4060501225
 20
-1504.3730255525
  0
LWPOLYLINE
  5
500
330
1F
100
AcDbEntity
  8
0
  6
Continuous
 62
     8
370
    25
100
AcDbPolyline
 90
       25
 70
   128
 43
0.0
 10
350.9999596546
 20
-1508.3850286706
 10
350.999959609
 20
-1508.3847207516
 10
351.1577272598
 20
-1507.8137969981
 10
351.6278185179
 20
-1507.2544956059
 10
352.400663681
 20
-1506.7182023383
 10
353.4605298501
 20
-1506.2158345798
 10
354.7858412065
 20
-1505.7576190891
 10
356.3496182328
 20
-1505.3528838124
 10
358.1200269384
 20
-1505.0098679927
 10
360.0610269074
 20
-1504.7355544429
 10
362.1331049779
 20
-1504.5355273958
 10
364.2940796157
 20
-1504.4138588252
 10
366.499959609
 20
-1504.3730255525
 10
368.7058396022
 20
-1504.4138588252
 10
370.86681424
 20
-1504.5355273958
 10
372.9388923105
 20
-1504.7355544429
 10
374.8798922795
 20
-1505.0098679927
 10
376.6503009851
 20
-1505.3528838124
 10
378.2140780115
 20
-1505.7576190891
 10
379.5393893678
 20
-1506.2158345798
 10
380.599255537
 20
-1506.7182023383
 10
381.3721007
 20
-1507.2544956059
 10
381.8421919581
 20
-1507.8137969981
 10
381.999959609
 20
-1508.3847207516
 10
381.9999595201
 20
-1508.3851504253
  0
LWPOLYLINE
  5
501
330
1F
100
AcDbEntity
  8
0
  6
Continuous
 62
     8
370
    25
100
AcDbPolyline
 90
        8
 70
   128
 43
0.0
 10
356.3214767772
 20
-1521.0985581505
 10
356.299403277
 20
-1521.0672460033
 10
356.1420432535
 20
-1520.6017254502
 10
356.299403277
 20
-1520.1362048971
 10
356.766702043
 20
-1519.6848289505
 10
357.5297409148
 20
-1519.26131244
 10
358.5653353425
 20
-1518.8785237006
 10
358.6899669373
 20
-1518.8407961826
  0
LWPOLYLINE
  5
502
330
1F
100
AcDbEntity
  8
0
  6
Continuous
 62
     8
370
    25
100
AcDbPolyline
 90
        8
 70
   128
 43
0.0
 10
374.379803041
 20
-1518.8617664397
 10
374.4345838754
 20
-1518.8785237006
 10
375.4701783031
 20
-1519.26131244
 10
376.2332171749
 20
-1519.6848289505
 10
376.7005159409
 20
-1520.1362048971
 10
376.8578759644
 20
-1520.6017254502
 10
376.7005159409
 20
-1521.0672460033
 10
376.2497696855
 20
-1521.5067647923
  0
LWPOLYLINE
  5
503
330
1F
100
AcDbEntity
  8
0
  6
Continuous
 62
     8
370
    25
100
AcDbPolyline
 90
       20
 70
   128
 43
0.0
 10
355.7499798657
 20
-1520.0526779462
 10
355.9132762641
 20
-1519.5749371225
 10
356.3982639355
 20
-1519.1064750053
 10
357.1901865183
 20
-1518.666926902
 10
358.2649818454
 20
-1518.2696482595
 10
359.5899928048
 20
-1517.9267101883
 10
361.124959609
 20
-1517.648532688
 10
362.8232430682
 20
-1517.4435680413
 10
364.633241699
 20
-1517.3180439953
 10
366.499959609
 20
-1517.2757745346
 10
368.3666775189
 20
-1517.3180439953
 10
370.1766761497
 20
-1517.4435680413
 10
371.874959609
 20
-1517.648532688
 10
373.4099264131
 20
-1517.9267101883
 10
374.7349373725
 20
-1518.2696482595
 10
375.8097326996
 20
-1518.666926902
 10
376.6016552824
 20
-1519.1064750053
 10
377.0866429538
 20
-1519.5749371225
 10
377.249959609
 20
-1520.0580792694
 10
377.2496988848
 20
-1520.0774570261
  0
LWPOLYLINE
  5
504
330
1F
100
AcDbEntity
  8
0
  6
Continuous
 62
     8
370
    25
100
AcDbPolyline
 90
        8
 70
   128
 43
0.0
 10
135.1314876975
 20
1700.4685363914
 10
135.1535611977
 20
1700.4372242441
 10
135.3109212213
 20
1699.971703691
 10
135.1535611977
 20
1699.506183138
 10
134.6862624317
 20
1699.0548071913
 10
133.9232235599
 20
1698.6312906809
 10
132.8876291322
 20
1698.2485019414
 10
132.7629975374
 20
1698.2107744235
  0
LWPOLYLINE
  5
505
330
1F
100
AcDbEntity
  8
0
  6
Continuous
 62
     8
370
    25
100
AcDbPolyline
 90
        8
 70
   128
 43
0.0
 10
117.0731614337
 20
1698.2317446806
 10
117.0183805994
 20
1698.2485019414
 10
115.9827861716
 20
1698.6312906809
 10
115.2197472998
 20
1699.0548071913
 10
114.7524485338
 20
1699.506183138
 10
114.5950885103
 20
1699.971703691
 10
114.7524485338
 20
1700.4372242441
 10
115.2031947893
 20
1700.8767430331
  0
LWPOLYLINE
  5
506
330
1F
100
AcDbEntity
  8
0
  6
Continuous
 62
     8
370
    25
100
AcDbPolyline
 90
       20
 70
   128
 43
0.0
 10
135.702984609
 20
1699.4226561871
 10
135.5396882106
 20
1698.9449153634
 10
135.0547005392
 20
1698.4764532461
 10
134.2627779564
 20
1698.0369051429
 10
133.1879826293
 20
1697.6396265004
 10
131.8629716699
 20
1697.2966884291
 10
130.3280048658
 20
1697.0185109288
 10
128.6297214065
 20
1696.8135462822
 10
126.8197227757
 20
1696.6880222362
 10
124.9530048658
 20
1696.6457527754
 10
123.0862869558
 20
1696.6880222362
 10
121.276288325
 20
1696.8135462822
 10
119.5780048658
 20
1697.0185109288
 10
118.0430380616
 20
1697.2966884291
 10
116.7180271022
 20
1697.6396265004
 10
115.6432317751
 20
1698.0369051429
 10
114.8513091923
 20
1698.4764532461
 10
114.3663215209
 20
1698.9449153634
 10
114.2030048658
 20
1699.4280575103
 10
114.20326559
 20
1699.4474352669
  0
LWPOLYLINE
  5
507
330
1F
100
AcDbEntity
  8
0
  6
Continuous
 62
     8
370
    25
100
AcDbPolyline
 90
        8
 70
   128
 43
0.0
 10
264.774522034
 20
-1476.536445843
 10
264.7524485338
 20
-1476.5051336957
 10
264.5950885102
 20
-1476.0396131426
 10
264.7524485338
 20
-1475.5740925895
 10
265.2197472997
 20
-1475.1227166429
 10
265.9827861716
 20
-1474.6992001324
 10
267.0183805993
 20
-1474.316411393
 10
267.143012194
 20
-1474.2786838751
  0
LWPOLYLINE
  5
508
330
1F
100
AcDbEntity
  8
0
  6
Continuous
 62
     8
370
    25
100
AcDbPolyline
 90
        8
 70
   128
 43
0.0
 10
282.8328482978
 20
-1474.2996541322
 10
282.8876291321
 20
-1474.316411393
 10
283.9232235598
 20
-1474.6992001324
 10
284.6862624317
 20
-1475.1227166429
 10
285.1535611976
 20
-1475.5740925895
 10
285.3109212212
 20
-1476.0396131426
 10
285.1535611976
 20
-1476.5051336957
 10
284.7028149422
 20
-1476.9446524847
  0
LWPOLYLINE
  5
509
330
1F
100
AcDbEntity
  8
0
  6
Continuous
 62
     8
370
    25
100
AcDbPolyline
 90
       20
 70
   128
 43
0.0
 10
264.2030251225
 20
-1475.4905656386
 10
264.3663215208
 20
-1475.012824815
 10
264.8513091923
 20
-1474.5443626977
 10
265.643231775
 20
-1474.1048145945
 10
266.7180271022
 20
-1473.7075359519
 10
268.0430380616
 20
-1473.3645978807
 10
269.5780048657
 20
-1473.0864203804
 10
271.276288325
 20
-1472.8814557338
 10
273.0862869558
 20
-1472.7559316878
 10
274.9530048657
 20
-1472.713662227
 10
276.8197227756
 20
-1472.7559316878
 10
278.6297214065
 20
-1472.8814557338
 10
280.3280048657
 20
-1473.0864203804
 10
281.8629716698
 20
-1473.3645978807
 10
283.1879826292
 20
-1473.7075359519
 10
284.2627779564
 20
-1474.1048145945
 10
285.0547005392
 20
-1474.5443626977
 10
285.5396882106
 20
-1475.012824815
 10
285.7030048657
 20
-1475.4959669619
 10
285.7027441415
 20
-1475.5153447185
  0
LINE
  5
50A
330
1F
100
AcDbEntity
  8
0
  6
Continuous
 62
     8
370
    25
100
AcDbLine
 10
33.4060501225
 20
-206.1241047447
 30
0.0
 11
44.1560501225
 21
-206.1241047447
 31
0.0
  0
LINE
  5
50B
330
1F
100
AcDbEntity
  8
0
  6
Continuous
 62
     8
370
    25
100
AcDbLine
 10
22.6560501225
 20
-206.1241047447
 30
0.0
 11
33.4060501225
 21
-206.1241047447
 31
0.0
  0
LINE
  5
50C
330
1F
100
AcDbEntity
  8
0
  6
Continuous
 62
     8
370
    25
100
AcDbLine
 10
33.4060501225
 20
-206.6869286862
 30
0.0
 11
43.763966478
 21
-206.6869286862
 31
0.0
  0
LINE
  5
50D
330
1F
100
AcDbEntity
  8
0
  6
Continuous
 62
     8
370
    25
100
AcDbLine
 10
23.048133767
 20
-206.6869286862
 30
0.0
 11
33.4060501225
 21
-206.6869286862
 31
0.0
  0
LWPOLYLINE
  5
50E
330
1F
100
AcDbEntity
  8
0
  6
Continuous
 62
     8
370
    25
100
AcDbPolyline
 90
       12
 70
   128
 43
0.0
 10
124.9530048658
 20
-1473.3587871222
 10
126.7516381653
 20
-1473.3995148933
 10
128.4956209022
 20
-1473.5204607137
 10
130.1319630435
 20
-1473.7179497058
 10
131.6109451612
 20
-1473.9859812667
 10
132.8876291322
 20
-1474.316411393
 10
133.9232235599
 20
-1474.6992001324
 10
134.6862624317
 20
-1475.1227166429
 10
135.1535611977
 20
-1475.5740925895
 10
135.3109212212
 20
-1476.0396131426
 10
135.1535611977
 20
-1476.5051336957
 10
134.6906311194
 20
-1476.9533970906
  0
LWPOLYLINE
  5
50F
330
1F
100
AcDbEntity
  8
0
  6
Continuous
 62
     8
370
    25
100
AcDbPolyline
 90
       12
 70
   128
 43
0.0
 10
114.8294283558
 20
-1476.6066353972
 10
114.7524485338
 20
-1476.5051336957
 10
114.5950885103
 20
-1476.0396131426
 10
114.7524485338
 20
-1475.5740925895
 10
115.2197472998
 20
-1475.1227166429
 10
115.9827861716
 20
-1474.6992001324
 10
117.0183805993
 20
-1474.316411393
 10
118.2950645703
 20
-1473.9859812667
 10
119.774046688
 20
-1473.7179497058
 10
121.4103888293
 20
-1473.5204607137
 10
123.1543715662
 20
-1473.3995148933
 10
124.9530048658
 20
-1473.3587871222
  0
LWPOLYLINE
  5
510
330
1F
100
AcDbEntity
  8
0
  6
Continuous
 62
     8
370
    25
100
AcDbPolyline
 90
       11
 70
   128
 43
0.0
 10
124.9530048658
 20
-1472.713662227
 10
126.8197227757
 20
-1472.7559316878
 10
128.6297214065
 20
-1472.8814557338
 10
130.3280048658
 20
-1473.0864203804
 10
131.8629716699
 20
-1473.3645978807
 10
133.1879826293
 20
-1473.7075359519
 10
134.2627779564
 20
-1474.1048145945
 10
135.0547005392
 20
-1474.5443626977
 10
135.5396882106
 20
-1475.012824815
 10
135.7030048658
 20
-1475.4959669619
 10
135.702984609
 20
-1475.5013682851
  0
LWPOLYLINE
  5
511
330
1F
100
AcDbEntity
  8
0
  6
Continuous
 62
     8
370
    25
100
AcDbPolyline
 90
       10
 70
   128
 43
0.0
 10
114.20326559
 20
-1475.4765892052
 10
114.3663215209
 20
-1475.012824815
 10
114.8513091923
 20
-1474.5443626977
 10
115.6432317751
 20
-1474.1048145945
 10
116.7180271022
 20
-1473.7075359519
 10
118.0430380616
 20
-1473.3645978807
 10
119.5780048658
 20
-1473.0864203804
 10
121.276288325
 20
-1472.8814557338
 10
123.0862869558
 20
-1472.7559316878
 10
124.9530048658
 20
-1472.713662227
  0
LINE
  5
512
330
1F
100
AcDbEntity
  8
0
  6
Continuous
 62
     8
370
    25
100
AcDbLine
 10
124.9530048657
 20
-206.1241047447
 30
0.0
 11
135.7030048657
 21
-206.1241047447
 31
0.0
  0
LINE
  5
513
330
1F
100
AcDbEntity
  8
0
  6
Continuous
 62
     8
370
    25
100
AcDbLine
 10
114.2030048657
 20
-206.1241047447
 30
0.0
 11
124.9530048657
 21
-206.1241047447
 31
0.0
  0
LINE
  5
514
330
1F
100
AcDbEntity
  8
0
  6
Continuous
 62
     8
370
    25
100
AcDbLine
 10
124.9530048657
 20
-206.6869286862
 30
0.0
 11
135.3109212212
 21
-206.6869286862
 31
0.0
  0
LINE
  5
515
330
1F
100
AcDbEntity
  8
0
  6
Continuous
 62
     8
370
    25
100
AcDbLine
 10
114.5950885102
 20
-206.6869286862
 30
0.0
 11
124.9530048657
 21
-206.6869286862
 31
0.0
  0
LWPOLYLINE
  5
516
330
1F
100
AcDbEntity
  8
0
  6
Continuous
 62
     8
370
    25
100
AcDbPolyline
 90
       12
 70
   128
 43
0.0
 10
274.9530048657
 20
1697.2908776707
 10
273.1543715661
 20
1697.3316054417
 10
271.4103888292
 20
1697.4525512621
 10
269.774046688
 20
1697.6500402543
 10
268.2950645702
 20
1697.9180718152
 10
267.0183805993
 20
1698.2485019414
 10
265.9827861716
 20
1698.6312906809
 10
265.2197472997
 20
1699.0548071913
 10
264.7524485338
 20
1699.506183138
 10
264.5950885102
 20
1699.971703691
 10
264.7524485338
 20
1700.4372242441
 10
265.2153786121
 20
1700.885487639
  0
LWPOLYLINE
  5
517
330
1F
100
AcDbEntity
  8
0
  6
Continuous
 62
     8
370
    25
100
AcDbPolyline
 90
       12
 70
   128
 43
0.0
 10
285.0765813757
 20
1700.5387259456
 10
285.1535611976
 20
1700.4372242441
 10
285.3109212212
 20
1699.971703691
 10
285.1535611976
 20
1699.506183138
 10
284.6862624317
 20
1699.0548071913
 10
283.9232235598
 20
1698.6312906809
 10
282.8876291321
 20
1698.2485019414
 10
281.6109451612
 20
1697.9180718152
 10
280.1319630435
 20
1697.6500402543
 10
278.4956209022
 20
1697.4525512621
 10
276.7516381653
 20
1697.3316054417
 10
274.9530048657
 20
1697.2908776707
  0
LWPOLYLINE
  5
518
330
1F
100
AcDbEntity
  8
0
  6
Continuous
 62
     8
370
    25
100
AcDbPolyline
 90
       11
 70
   128
 43
0.0
 10
274.9530048657
 20
1696.6457527754
 10
273.0862869558
 20
1696.6880222362
 10
271.276288325
 20
1696.8135462822
 10
269.5780048657
 20
1697.0185109288
 10
268.0430380616
 20
1697.2966884291
 10
266.7180271022
 20
1697.6396265004
 10
265.643231775
 20
1698.0369051429
 10
264.8513091923
 20
1698.4764532461
 10
264.3663215208
 20
1698.9449153634
 10
264.2030048657
 20
1699.4280575103
 10
264.2030251225
 20
1699.4334588335
  0
LWPOLYLINE
  5
519
330
1F
100
AcDbEntity
  8
0
  6
Continuous
 62
     8
370
    25
100
AcDbPolyline
 90
       10
 70
   128
 43
0.0
 10
285.7027441415
 20
1699.4086797537
 10
285.5396882106
 20
1698.9449153634
 10
285.0547005392
 20
1698.4764532461
 10
284.2627779564
 20
1698.0369051429
 10
283.1879826292
 20
1697.6396265004
 10
281.8629716698
 20
1697.2966884291
 10
280.3280048657
 20
1697.0185109288
 10
278.6297214065
 20
1696.8135462822
 10
276.8197227756
 20
1696.6880222362
 10
274.9530048657
 20
1696.6457527754
  0
LINE
  5
51A
330
1F
100
AcDbEntity
  8
0
  6
Continuous
 62
     8
370
    25
100
AcDbLine
 10
366.499959609
 20
-206.1241047447
 30
0.0
 11
377.249959609
 21
-206.1241047447
 31
0.0
  0
LINE
  5
51B
330
1F
100
AcDbEntity
  8
0
  6
Continuous
 62
     8
370
    25
100
AcDbLine
 10
355.749959609
 20
-206.1241047447
 30
0.0
 11
366.499959609
 21
-206.1241047447
 31
0.0
  0
LINE
  5
51C
330
1F
100
AcDbEntity
  8
0
  6
Continuous
 62
     8
370
    25
100
AcDbLine
 10
366.499959609
 20
-206.6869286862
 30
0.0
 11
376.8578759645
 21
-206.6869286862
 31
0.0
  0
LINE
  5
51D
330
1F
100
AcDbEntity
  8
0
  6
Continuous
 62
     8
370
    25
100
AcDbLine
 10
356.1420432535
 20
-206.6869286862
 30
0.0
 11
366.499959609
 21
-206.6869286862
 31
0.0
  0
LWPOLYLINE
  5
51E
330
1F
100
AcDbEntity
  8
0
  6
Continuous
 62
     8
370
    25
100
AcDbPolyline
 90
       12
 70
   128
 43
0.0
 10
366.499959609
 20
1741.8529899782
 10
364.7013263094
 20
1741.8937177493
 10
362.9573435725
 20
1742.0146635696
 10
361.3210014312
 20
1742.2121525618
 10
359.8420193135
 20
1742.4801841227
 10
358.5653353425
 20
1742.810614249
 10
357.5297409148
 20
1743.1934029884
 10
356.766702043
 20
1743.6169194989
 10
356.299403277
 20
1744.0682954455
 10
356.1420432535
 20
1744.5338159986
 10
356.299403277
 20
1744.9993365517
 10
356.7623333553
 20
1745.4475999466
  0
LWPOLYLINE
  5
51F
330
1F
100
AcDbEntity
  8
0
  6
Continuous
 62
     8
370
    25
100
AcDbPolyline
 90
       12
 70
   128
 43
0.0
 10
376.6235361189
 20
1745.1008382532
 10
376.7005159409
 20
1744.9993365517
 10
376.8578759644
 20
1744.5338159986
 10
376.7005159409
 20
1744.0682954455
 10
376.2332171749
 20
1743.6169194989
 10
375.4701783031
 20
1743.1934029884
 10
374.4345838754
 20
1742.810614249
 10
373.1578999044
 20
1742.4801841227
 10
371.6789177867
 20
1742.2121525618
 10
370.0425756454
 20
1742.0146635696
 10
368.2985929085
 20
1741.8937177493
 10
366.499959609
 20
1741.8529899782
  0
LWPOLYLINE
  5
520
330
1F
100
AcDbEntity
  8
0
  6
Continuous
 62
     8
370
    25
100
AcDbPolyline
 90
       11
 70
   128
 43
0.0
 10
366.499959609
 20
1741.207865083
 10
364.633241699
 20
1741.2501345437
 10
362.8232430682
 20
1741.3756585897
 10
361.124959609
 20
1741.5806232364
 10
359.5899928048
 20
1741.8588007367
 10
358.2649818454
 20
1742.2017388079
 10
357.1901865183
 20
1742.5990174504
 10
356.3982639355
 20
1743.0385655537
 10
355.9132762641
 20
1743.5070276709
 10
355.749959609
 20
1743.9901698179
 10
355.7499798657
 20
1743.9955711411
  0
LWPOLYLINE
  5
521
330
1F
100
AcDbEntity
  8
0
  6
Continuous
 62
     8
370
    25
100
AcDbPolyline
 90
       10
 70
   128
 43
0.0
 10
377.2496988848
 20
1743.9707920612
 10
377.0866429538
 20
1743.5070276709
 10
376.6016552824
 20
1743.0385655537
 10
375.8097326996
 20
1742.5990174504
 10
374.7349373725
 20
1742.2017388079
 10
373.4099264131
 20
1741.8588007367
 10
371.874959609
 20
1741.5806232364
 10
370.1766761497
 20
1741.3756585897
 10
368.3666775189
 20
1741.2501345437
 10
366.499959609
 20
1741.207865083
  0
LINE
  5
522
330
1F
100
AcDbEntity
  8
0
  6
Continuous
 62
     8
370
    25
100
AcDbLine
 10
274.9530048657
 20
-206.1241047447
 30
0.0
 11
285.7030048657
 21
-206.1241047447
 31
0.0
  0
LINE
  5
523
330
1F
100
AcDbEntity
  8
0
  6
Continuous
 62
     8
370
    25
100
AcDbLine
 10
264.2030048657
 20
-206.1241047447
 30
0.0
 11
274.9530048657
 21
-206.1241047447
 31
0.0
  0
LINE
  5
524
330
1F
100
AcDbEntity
  8
0
  6
Continuous
 62
     8
370
    25
100
AcDbLine
 10
274.9530048657
 20
-206.6869286862
 30
0.0
 11
285.3109212212
 21
-206.6869286862
 31
0.0
  0
LINE
  5
525
330
1F
100
AcDbEntity
  8
0
  6
Continuous
 62
     8
370
    25
100
AcDbLine
 10
264.5950885102
 20
-206.6869286862
 30
0.0
 11
274.9530048657
 21
-206.6869286862
 31
0.0
  0
LWPOLYLINE
  5
526
330
1F
100
AcDbEntity
  8
0
  6
Continuous
 62
     8
370
    25
100
AcDbPolyline
 90
        8
 70
   128
 43
0.0
 10
43.5845329543
 20
1745.0306486989
 10
43.6066064545
 20
1744.9993365517
 10
43.763966478
 20
1744.5338159986
 10
43.6066064545
 20
1744.0682954455
 10
43.1393076885
 20
1743.6169194989
 10
42.3762688166
 20
1743.1934029884
 10
41.3406743889
 20
1742.810614249
 10
41.2160427942
 20
1742.772886731
  0
LWPOLYLINE
  5
527
330
1F
100
AcDbEntity
  8
0
  6
Continuous
 62
     8
370
    25
100
AcDbPolyline
 90
        8
 70
   128
 43
0.0
 10
25.5262066904
 20
1742.7938569881
 10
25.4714258561
 20
1742.810614249
 10
24.4358314284
 20
1743.1934029884
 10
23.6727925565
 20
1743.6169194989
 10
23.2054937906
 20
1744.0682954455
 10
23.048133767
 20
1744.5338159986
 10
23.2054937906
 20
1744.9993365517
 10
23.656240046
 20
1745.4388553407
  0
LWPOLYLINE
  5
528
330
1F
100
AcDbEntity
  8
0
  6
Continuous
 62
     8
370
    25
100
AcDbPolyline
 90
       20
 70
   128
 43
0.0
 10
44.1560298658
 20
1743.9847684946
 10
43.9927334674
 20
1743.5070276709
 10
43.507745796
 20
1743.0385655537
 10
42.7158232132
 20
1742.5990174504
 10
41.641027886
 20
1742.2017388079
 10
40.3160169266
 20
1741.8588007367
 10
38.7810501225
 20
1741.5806232364
 10
37.0827666633
 20
1741.3756585897
 10
35.2727680324
 20
1741.2501345437
 10
33.4060501225
 20
1741.207865083
 10
31.5393322126
 20
1741.2501345437
 10
29.7293335818
 20
1741.3756585897
 10
28.0310501225
 20
1741.5806232364
 10
26.4960833184
 20
1741.8588007367
 10
25.171072359
 20
1742.2017388079
 10
24.0962770318
 20
1742.5990174504
 10
23.3043544491
 20
1743.0385655537
 10
22.8193667776
 20
1743.5070276709
 10
22.6560501225
 20
1743.9901698179
 10
22.6563108467
 20
1744.0095475745
  0
LWPOLYLINE
  5
529
330
1F
100
AcDbEntity
  8
0
  6
Continuous
 62
     8
370
    25
100
AcDbPolyline
 90
       12
 70
   128
 43
0.0
 10
33.4060501225
 20
-1517.9208994298
 10
35.2046834221
 20
-1517.9616272008
 10
36.948666159
 20
-1518.0825730212
 10
38.5850083003
 20
-1518.2800620134
 10
40.063990418
 20
-1518.5480935743
 10
41.3406743889
 20
-1518.8785237006
 10
42.3762688166
 20
-1519.26131244
 10
43.1393076885
 20
-1519.6848289505
 10
43.6066064544
 20
-1520.1362048971
 10
43.763966478
 20
-1520.6017254502
 10
43.6066064544
 20
-1521.0672460033
 10
43.1436763761
 20
-1521.5155093982
  0
LWPOLYLINE
  5
52A
330
1F
100
AcDbEntity
  8
0
  6
Continuous
 62
     8
370
    25
100
AcDbPolyline
 90
       12
 70
   128
 43
0.0
 10
23.2824736126
 20
-1521.1687477048
 10
23.2054937906
 20
-1521.0672460033
 10
23.048133767
 20
-1520.6017254502
 10
23.2054937906
 20
-1520.1362048971
 10
23.6727925565
 20
-1519.6848289505
 10
24.4358314284
 20
-1519.26131244
 10
25.4714258561
 20
-1518.8785237006
 10
26.748109827
 20
-1518.5480935743
 10
28.2270919448
 20
-1518.2800620134
 10
29.8634340861
 20
-1518.0825730212
 10
31.607416823
 20
-1517.9616272008
 10
33.4060501225
 20
-1517.9208994298
  0
LWPOLYLINE
  5
52B
330
1F
100
AcDbEntity
  8
0
  6
Continuous
 62
     8
370
    25
100
AcDbPolyline
 90
       11
 70
   128
 43
0.0
 10
33.4060501225
 20
-1517.2757745346
 10
35.2727680324
 20
-1517.3180439953
 10
37.0827666633
 20
-1517.4435680413
 10
38.7810501225
 20
-1517.648532688
 10
40.3160169266
 20
-1517.9267101883
 10
41.641027886
 20
-1518.2696482595
 10
42.7158232132
 20
-1518.666926902
 10
43.507745796
 20
-1519.1064750053
 10
43.9927334674
 20
-1519.5749371225
 10
44.1560501225
 20
-1520.0580792694
 10
44.1560298658
 20
-1520.0634805927
  0
LWPOLYLINE
  5
52C
330
1F
100
AcDbEntity
  8
0
  6
Continuous
 62
     8
370
    25
100
AcDbPolyline
 90
       10
 70
   128
 43
0.0
 10
22.6563108467
 20
-1520.0387015128
 10
22.8193667776
 20
-1519.5749371225
 10
23.3043544491
 20
-1519.1064750053
 10
24.0962770318
 20
-1518.666926902
 10
25.171072359
 20
-1518.2696482595
 10
26.4960833184
 20
-1517.9267101883
 10
28.0310501225
 20
-1517.648532688
 10
29.7293335818
 20
-1517.4435680413
 10
31.5393322126
 20
-1517.3180439953
 10
33.4060501225
 20
-1517.2757745346
  0
ARC
  5
52D
330
1F
100
AcDbEntity
  8
0
  6
Continuous
 62
     8
370
    25
100
AcDbCircle
 10
444.4976351965
 20
514.0691933182
 30
0.0
 40
12.94503475243235
100
AcDbArc
 50
289.3572572657
 51
1.3856363387
  0
ARC
  5
52E
330
1F
100
AcDbEntity
  8
0
  6
Continuous
 62
     8
370
    25
100
AcDbCircle
 10
444.0666143894
 20
514.8017523968
 30
0.0
 40
13.3788495182061
100
AcDbArc
 50
358.2030500993
 51
97.9963490009
  0
LWPOLYLINE
  5
52F
330
1F
100
AcDbEntity
  8
0
  6
Continuous
 62
     8
370
    25
100
AcDbPolyline
 90
       31
 70
   128
 43
0.0
 10
438.9822189662
 20
504.5078813231
 10
439.6213293947
 20
504.1671178209
 10
441.3240647075
 20
503.501497673
 10
443.0997864953
 20
503.1383324808
 10
444.9000576965
 20
503.0875284441
 10
446.675771606
 20
503.3504713644
 10
448.378491377
 20
503.9199888444
 10
449.9617712529
 20
504.7805459319
 10
451.382423486
 20
505.9086688728
 10
452.6016963868
 20
507.2735854141
 10
453.5863313689
 20
508.8380641907
 10
454.3094701568
 20
510.5594302997
 10
454.7513874094
 20
512.3907293609
 10
454.900028776
 20
514.28200831
 10
454.7513397077
 20
516.1816779872
 10
454.3093760546
 20
518.0379203559
 10
453.5861934331
 20
519.8001019632
 10
452.6015183799
 20
521.4201550884
 10
451.3822102635
 20
522.8538889054
 10
449.961528631
 20
524.0621948933
 10
448.3782259738
 20
525.0121136144
 10
446.675490661
 20
525.6777337623
 10
444.8997688732
 20
526.0408989545
 10
443.0994976719
 20
526.0917029912
 10
441.3237837625
 20
525.8287600709
 10
439.6210639915
 20
525.2592425909
 10
438.0377841155
 20
524.3986855034
 10
436.6171318824
 20
523.2705625625
 10
435.3978589816
 20
521.9056460212
 10
434.4132239995
 20
520.3411672446
 10
434.1579123275
 20
519.8175962219
  0
ARC
  5
530
330
1F
100
AcDbEntity
  8
0
  6
Continuous
 62
     8
370
    25
100
AcDbCircle
 10
-43.9469070273
 20
513.8046344499
 30
0.0
 40
10.67797077909939
100
AcDbArc
 50
177.4376567157
 51
299.4487381483
  0
LWPOLYLINE
  5
531
330
1F
100
AcDbEntity
  8
0
  6
Continuous
 62
     8
370
    25
100
AcDbPolyline
 90
       18
 70
   128
 43
0.0
 10
-33.8686714021
 20
519.8148087459
 10
-34.1252963523
 20
520.3411672446
 10
-35.1100789917
 20
521.9056460211
 10
-36.3295203311
 20
523.2705625625
 10
-37.7503571897
 20
524.3986855034
 10
-39.3338328417
 20
525.2592425909
 10
-41.0367541993
 20
525.8287600709
 10
-42.8126700069
 20
526.0917029912
 10
-44.6131379108
 20
526.0408989545
 10
-46.3890458401
 20
525.6777337623
 10
-48.0919516559
 20
525.0121136144
 10
-49.6754045267
 20
524.0621948933
 10
-51.0962119858
 20
522.8538889054
 10
-52.3156181097
 20
521.4201550884
 10
-53.3003606779
 20
519.8001019632
 10
-54.0235784804
 20
518.0379203559
 10
-54.4655440206
 20
516.1816779872
 10
-54.6142016308
 20
514.28200831
  0
LWPOLYLINE
  5
532
330
1F
100
AcDbEntity
  8
0
  6
Continuous
 62
     8
370
    25
100
AcDbPolyline
 90
       22
 70
   128
 43
0.0
 10
-47.6863886828
 20
501.6173464016
 10
-47.7650725431
 20
501.6376827058
 10
-49.6053184913
 20
502.2839508345
 10
-51.3231102068
 20
503.2222392588
 10
-52.878184108
 20
504.4305552933
 10
-54.2340905805
 20
505.8805770343
 10
-55.3590483259
 20
507.538317201
 10
-56.2266892881
 20
509.3649197692
 10
-56.8166766983
 20
511.3175707227
 10
-57.1151817516
 20
513.3505015781
 10
-57.1152077427
 20
515.4160621593
 10
-56.8167540622
 20
517.4658374769
 10
-56.2268162116
 20
519.4517825348
 10
-55.359221834
 20
521.327348464
 10
-54.2343066063
 20
523.0485735888
 10
-52.8784375879
 20
524.5751138511
 10
-51.3233951996
 20
525.871188441
 10
-49.6056283169
 20
526.9064184686
 10
-47.7653999396
 20
527.6565390196
 10
-45.8458434612
 20
528.1039679039
 10
-43.8919516586
 20
528.2382177677
 10
-42.4281631017
 20
528.1307518013
  0
ARC
  5
533
330
1F
100
AcDbEntity
  8
0
  6
Continuous
 62
     8
370
    25
100
AcDbCircle
 10
450.7175855854
 20
516.3237476618
 30
0.0
 40
13.18887983243011
100
AcDbArc
 50
358.1733848886
 51
99.1439021802
  0
ARC
  5
534
330
1F
100
AcDbEntity
  8
0
  6
Continuous
 62
     8
370
    25
100
AcDbCircle
 10
451.1106314219
 20
515.6124186053
 30
0.0
 40
12.79244092664084
100
AcDbArc
 50
288.1954405161
 51
1.3031651759
  0
LWPOLYLINE
  5
535
330
1F
100
AcDbEntity
  8
0
  6
Continuous
 62
     8
370
    25
100
AcDbPolyline
 90
       23
 70
   128
 43
0.0
 10
-48.3259990974
 20
529.3445775766
 10
-48.6046540929
 20
529.3972581183
 10
-50.5215124599
 20
529.576937033
 10
-52.4496821753
 20
529.4444545069
 10
-54.3439685753
 20
529.0029158182
 10
-56.1599711921
 20
528.2626702594
 10
-57.8551244636
 20
527.2410685591
 10
-59.3896954339
 20
525.9620561952
 10
-60.72771506
 20
524.4556121336
 10
-61.8378212959
 20
522.7570461461
 10
-62.6939941925
 20
520.90617118
 10
-63.2761657826
 20
518.9463701757
 10
-63.5706904575
 20
516.9235792077
 10
-63.5706648087
 20
514.8852107819
 10
-63.2760894371
 20
512.8790425264
 10
-62.6938689399
 20
510.9520973249
 10
-61.8376500721
 20
509.1495411397
 10
-60.7275018781
 20
507.51362436
 10
-59.3894452909
 20
506.0826914886
 10
-57.8548432226
 20
504.8902823791
 10
-56.1596654451
 20
503.9643460905
 10
-54.3436454888
 20
503.3265857846
 10
-54.2862979929
 20
503.3117097355
  0
LWPOLYLINE
  5
536
330
1F
100
AcDbEntity
  8
0
  6
Continuous
 62
     8
370
    25
100
AcDbPolyline
 90
        9
 70
   128
 43
0.0
 10
472.7081994268
 20
516.8700293876
 10
472.5970017392
 20
515.2745075046
 10
472.2679207264
 20
513.7636224887
 10
471.734429004
 20
512.3992301499
 10
471.0183677856
 20
511.237188871
 10
470.1490527017
 20
510.3250727583
 10
469.162073614
 20
509.7002239528
 10
468.0978375622
 20
509.3882238379
 10
467.8683090731
 20
509.3638719984
  0
LWPOLYLINE
  5
537
330
1F
100
AcDbEntity
  8
0
  6
Continuous
 62
     8
370
    25
100
AcDbPolyline
 90
       10
 70
   128
 43
0.0
 10
466.6816934405
 20
525.3198095559
 10
466.9997140754
 20
525.3296295287
 10
468.0976391987
 20
525.1525670161
 10
469.1618854281
 20
524.6557324536
 10
470.1488823978
 20
523.8594663065
 10
471.0182223359
 20
522.7963678045
 10
471.7343143632
 20
521.509960325
 10
472.267841588
 20
520.0529095416
 10
472.5969613431
 20
518.4848672843
 10
472.7081994268
 20
516.8700293876
  0
LWPOLYLINE
  5
538
330
1F
100
AcDbEntity
  8
0
  6
Continuous
 62
     8
370
    25
100
AcDbPolyline
 90
        9
 70
   128
 43
0.0
 10
-72.4123520032
 20
516.8700293876
 10
-72.3010765256
 20
515.2745075046
 10
-71.9718461201
 20
513.7636224887
 10
-71.4381395182
 20
512.3992301499
 10
-70.7218067309
 20
511.237188871
 10
-69.8521745066
 20
510.3250727583
 10
-68.8648456908
 20
509.7002239528
 10
-67.8002416412
 20
509.3882238379
 10
-67.5708048391
 20
509.3638846387
  0
LWPOLYLINE
  5
539
330
1F
100
AcDbEntity
  8
0
  6
Continuous
 62
     8
370
    25
100
AcDbPolyline
 90
       10
 70
   128
 43
0.0
 10
-66.3838493164
 20
525.3197969156
 10
-66.7021477927
 20
525.3296295287
 10
-67.8004400046
 20
525.1525670161
 10
-68.8650338766
 20
524.6557324536
 10
-69.8523448105
 20
523.8594663065
 10
-70.7219521806
 20
522.7963678045
 10
-71.438254159
 20
521.509960325
 10
-71.9719252585
 20
520.0529095416
 10
-72.3011169217
 20
518.4848672843
 10
-72.4123520032
 20
516.8700293876
  0
ARC
  5
53A
330
1F
100
AcDbEntity
  8
0
  6
Continuous
 62
     8
370
    25
100
AcDbCircle
 10
444.0808542215
 20
1250.3362063738
 30
0.0
 40
13.36482156327915
100
AcDbArc
 50
260.8560978198
 51
1.8266151114
  0
ARC
  5
53B
330
1F
100
AcDbEntity
  8
0
  6
Continuous
 62
     8
370
    25
100
AcDbCircle
 10
444.5079726425
 20
1251.0660526711
 30
0.0
 40
12.93448120841422
100
AcDbArc
 50
358.6539495625
 51
74.3751252418
  0
LWPOLYLINE
  5
53C
330
1F
100
AcDbEntity
  8
0
  6
Continuous
 62
     8
370
    25
100
AcDbPolyline
 90
       31
 70
   128
 43
0.0
 10
434.1579123275
 20
1245.3268389181
 10
434.4132239995
 20
1244.8032678954
 10
435.3978589816
 20
1243.2387891189
 10
436.6171318824
 20
1241.8738725776
 10
438.0377841155
 20
1240.7457496367
 10
439.6210639915
 20
1239.8851925492
 10
441.3237837625
 20
1239.3156750691
 10
443.0994976719
 20
1239.0527321488
 10
444.8997688732
 20
1239.1035361856
 10
446.6754906609
 20
1239.4667013778
 10
448.3782259738
 20
1240.1323215257
 10
449.961528631
 20
1241.0822402468
 10
451.3822102635
 20
1242.2905462346
 10
452.6015183799
 20
1243.7242800517
 10
453.5861934331
 20
1245.3443331769
 10
454.3093760546
 20
1247.1065147841
 10
454.7513397077
 20
1248.9627571528
 10
454.900028776
 20
1250.8624268301
 10
454.7513874094
 20
1252.7537057791
 10
454.3094701568
 20
1254.5850048404
 10
453.5863313689
 20
1256.3063709494
 10
452.6016963868
 20
1257.8708497259
 10
451.382423486
 20
1259.2357662672
 10
449.9617712529
 20
1260.3638892081
 10
448.378491377
 20
1261.2244462956
 10
446.6757716059
 20
1261.7939637757
 10
444.9000576965
 20
1262.056906696
 10
443.0997864953
 20
1262.0061026592
 10
441.3240647075
 20
1261.642937467
 10
439.6213293947
 20
1260.9773173191
 10
438.9822189662
 20
1260.6365538169
  0
LWPOLYLINE
  5
53D
330
1F
100
AcDbEntity
  8
0
  6
Continuous
 62
     8
370
    25
100
AcDbPolyline
 90
       18
 70
   128
 43
0.0
 10
-54.6142016308
 20
1250.8624268301
 10
-54.4655440206
 20
1248.9627571528
 10
-54.0235784804
 20
1247.1065147841
 10
-53.300360678
 20
1245.3443331769
 10
-52.3156181097
 20
1243.7242800517
 10
-51.0962119858
 20
1242.2905462346
 10
-49.6754045267
 20
1241.0822402468
 10
-48.0919516559
 20
1240.1323215257
 10
-46.3890458401
 20
1239.4667013778
 10
-44.6131379109
 20
1239.1035361856
 10
-42.8126700069
 20
1239.0527321488
 10
-41.0367541993
 20
1239.3156750691
 10
-39.3338328417
 20
1239.8851925492
 10
-37.7503571897
 20
1240.7457496367
 10
-36.3295203311
 20
1241.8738725776
 10
-35.1100789917
 20
1243.2387891189
 10
-34.1252963523
 20
1244.8032678954
 10
-33.8686714021
 20
1245.3296263941
  0
ARC
  5
53E
330
1F
100
AcDbEntity
  8
0
  6
Continuous
 62
     8
370
    25
100
AcDbCircle
 10
-43.9365635035
 20
1251.3229590943
 30
0.0
 40
10.68756501468413
100
AcDbArc
 50
60.6439380439
 51
182.4696670921
  0
LWPOLYLINE
  5
53F
330
1F
100
AcDbEntity
  8
0
  6
Continuous
 62
     8
370
    25
100
AcDbPolyline
 90
       22
 70
   128
 43
0.0
 10
-42.0930373994
 20
1237.0638389551
 10
-43.8919516586
 20
1236.9062173724
 10
-45.8458434612
 20
1237.0404672362
 10
-47.7653999397
 20
1237.4878961205
 10
-49.6056283169
 20
1238.2380166714
 10
-51.3233951996
 20
1239.2732466991
 10
-52.878437588
 20
1240.569321289
 10
-54.2343066063
 20
1242.0958615513
 10
-55.359221834
 20
1243.8170866761
 10
-56.2268162116
 20
1245.6926526053
 10
-56.8167540622
 20
1247.6785976632
 10
-57.1152077427
 20
1249.7283729807
 10
-57.1151817516
 20
1251.7939335619
 10
-56.8166766983
 20
1253.8268644174
 10
-56.2266892881
 20
1255.7795153709
 10
-55.3590483259
 20
1257.606117939
 10
-54.2340905806
 20
1259.2638581058
 10
-52.878184108
 20
1260.7138798468
 10
-51.3231102068
 20
1261.9221958812
 10
-49.6053184913
 20
1262.8604843055
 10
-47.7650725432
 20
1263.5067524342
 10
-47.7069600227
 20
1263.5218269322
  0
ARC
  5
540
330
1F
100
AcDbEntity
  8
0
  6
Continuous
 62
     8
370
    25
100
AcDbCircle
 10
451.1300814481
 20
1249.5504055775
 30
0.0
 40
12.77342801915939
100
AcDbArc
 50
358.6123871077
 51
70.7513393346
  0
ARC
  5
541
330
1F
100
AcDbEntity
  8
0
  6
Continuous
 62
     8
370
    25
100
AcDbCircle
 10
450.6787781872
 20
1248.8383659059
 30
0.0
 40
13.22711752253699
100
AcDbArc
 50
264.0136760959
 51
1.7447182701
  0
LWPOLYLINE
  5
542
330
1F
100
AcDbEntity
  8
0
  6
Continuous
 62
     8
370
    25
100
AcDbPolyline
 90
       22
 70
   128
 43
0.0
 10
-54.2862979929
 20
1261.8327254046
 10
-54.3436454888
 20
1261.8178493555
 10
-56.1596654451
 20
1261.1800890496
 10
-57.8548432226
 20
1260.2541527609
 10
-59.3894452909
 20
1259.0617436515
 10
-60.7275018781
 20
1257.63081078
 10
-61.8376500721
 20
1255.9948940003
 10
-62.6938689399
 20
1254.1923378151
 10
-63.2760894371
 20
1252.2653926136
 10
-63.5706648087
 20
1250.2592243582
 10
-63.5706904576
 20
1248.2208559323
 10
-63.2761657826
 20
1246.1980649643
 10
-62.6939941925
 20
1244.23826396
 10
-61.837821296
 20
1242.3873889939
 10
-60.72771506
 20
1240.6888230065
 10
-59.3896954339
 20
1239.1823789448
 10
-57.8551244636
 20
1237.903366581
 10
-56.1599711921
 20
1236.8817648806
 10
-54.3439685753
 20
1236.1415193219
 10
-52.4496821753
 20
1235.6999806331
 10
-50.5215124599
 20
1235.567498107
 10
-48.7463415375
 20
1235.7230345861
  0
LWPOLYLINE
  5
543
330
1F
100
AcDbEntity
  8
0
  6
Continuous
 62
     8
370
    25
100
AcDbPolyline
 90
       10
 70
   128
 43
0.0
 10
472.7081994268
 20
1248.2744057524
 10
472.596961343
 20
1246.6595678557
 10
472.267841588
 20
1245.0915255985
 10
471.7343143632
 20
1243.634474815
 10
471.0182223359
 20
1242.3480673356
 10
470.1488823978
 20
1241.2849688335
 10
469.1618854281
 20
1240.4887026864
 10
468.0976391987
 20
1239.9918681239
 10
466.9997140754
 20
1239.8148056113
 10
466.6816934405
 20
1239.8246255841
  0
LWPOLYLINE
  5
544
330
1F
100
AcDbEntity
  8
0
  6
Continuous
 62
     8
370
    25
100
AcDbPolyline
 90
        9
 70
   128
 43
0.0
 10
467.8683090731
 20
1255.7805631417
 10
468.0978375622
 20
1255.7562113021
 10
469.162073614
 20
1255.4442111873
 10
470.1490527017
 20
1254.8193623817
 10
471.0183677856
 20
1253.9072462691
 10
471.734429004
 20
1252.7452049901
 10
472.2679207264
 20
1251.3808126513
 10
472.5970017392
 20
1249.8699276354
 10
472.7081994268
 20
1248.2744057524
  0
LWPOLYLINE
  5
545
330
1F
100
AcDbEntity
  8
0
  6
Continuous
 62
     8
370
    25
100
AcDbPolyline
 90
       10
 70
   128
 43
0.0
 10
-72.4123520032
 20
1248.2744057524
 10
-72.3011169217
 20
1246.6595678557
 10
-71.9719252585
 20
1245.0915255985
 10
-71.438254159
 20
1243.634474815
 10
-70.7219521806
 20
1242.3480673356
 10
-69.8523448105
 20
1241.2849688335
 10
-68.8650338766
 20
1240.4887026864
 10
-67.8004400046
 20
1239.9918681239
 10
-66.7021477927
 20
1239.8148056113
 10
-66.3838493164
 20
1239.8246382245
  0
LWPOLYLINE
  5
546
330
1F
100
AcDbEntity
  8
0
  6
Continuous
 62
     8
370
    25
100
AcDbPolyline
 90
        9
 70
   128
 43
0.0
 10
-67.5708048391
 20
1255.7805505013
 10
-67.8002416412
 20
1255.7562113022
 10
-68.8648456908
 20
1255.4442111873
 10
-69.8521745066
 20
1254.8193623817
 10
-70.7218067309
 20
1253.9072462691
 10
-71.4381395182
 20
1252.7452049901
 10
-71.9718461201
 20
1251.3808126513
 10
-72.3010765256
 20
1249.8699276354
 10
-72.4123520032
 20
1248.2744057524
  0
ARC
  5
547
330
1F
100
AcDbEntity
  8
0
  6
Continuous
 62
     8
370
    25
100
AcDbCircle
 10
200.1346714764
 20
882.57221757
 30
0.0
 40
42.00000000000001
100
AcDbArc
 50
330.9805754276
 51
349.0194245724
  0
ARC
  5
548
330
1F
100
AcDbEntity
  8
0
  6
Continuous
 62
     8
370
    25
100
AcDbCircle
 10
200.1346714764
 20
882.57221757
 30
0.0
 40
42.00000000000001
100
AcDbArc
 50
10.9805754276
 51
29.0194245724
  0
LINE
  5
549
330
1F
100
AcDbEntity
  8
0
  6
Continuous
 62
     8
370
    25
100
AcDbLine
 10
164.9530048657
 20
905.5123643545
 30
0.0
 11
164.1263133119
 21
904.1916103065
 31
0.0
  0
ARC
  5
54A
330
1F
100
AcDbEntity
  8
0
  6
Continuous
 62
     8
370
    25
100
AcDbCircle
 10
200.1346714764
 20
882.57221757
 30
0.0
 40
42.00000000000002
100
AcDbArc
 50
170.9805754276
 51
189.0194245724
  0
LINE
  5
54B
330
1F
100
AcDbEntity
  8
0
  6
Continuous
 62
     8
370
    25
100
AcDbLine
 10
164.1263133119
 20
860.9528248335
 30
0.0
 11
164.9530048657
 21
859.6320707855
 31
0.0
  0
LINE
  5
54C
330
1F
100
AcDbEntity
  8
0
  6
Continuous
 62
     8
370
    25
100
AcDbLine
 10
164.9530048657
 20
928.5205241699
 30
0.0
 11
164.5148512053
 21
928.2675560361
 31
0.0
  0
LINE
  5
54D
330
1F
100
AcDbEntity
  8
0
  6
Continuous
 62
     8
370
    25
100
AcDbLine
 10
148.9482309996
 20
909.7159804814
 30
0.0
 11
143.4759087064
 21
894.6808985489
 31
0.0
  0
LINE
  5
54E
330
1F
100
AcDbEntity
  8
0
  6
Continuous
 62
     8
370
    25
100
AcDbLine
 10
143.4759087064
 20
870.4635365912
 30
0.0
 11
148.9482309996
 21
855.4284546586
 31
0.0
  0
LINE
  5
54F
330
1F
100
AcDbEntity
  8
0
  6
Continuous
 62
     8
370
    25
100
AcDbLine
 10
164.5148512053
 20
836.876879104
 30
0.0
 11
164.9530048657
 21
836.6239109702
 31
0.0
  0
LINE
  5
550
330
1F
100
AcDbEntity
  8
0
  6
Continuous
 62
     8
370
    25
100
AcDbLine
 10
238.9504781954
 20
839.5586301536
 30
0.0
 11
249.2350799504
 21
851.8153412435
 31
0.0
  0
LINE
  5
551
330
1F
100
AcDbEntity
  8
0
  6
Continuous
 62
     8
370
    25
100
AcDbLine
 10
257.5179055581
 20
874.57221757
 30
0.0
 11
257.5179055581
 21
890.57221757
 31
0.0
  0
LINE
  5
552
330
1F
100
AcDbEntity
  8
0
  6
Continuous
 62
     8
370
    25
100
AcDbLine
 10
249.2350799504
 20
913.3290938965
 30
0.0
 11
238.9504781954
 21
925.5858049864
 31
0.0
  0
LINE
  5
553
330
1F
100
AcDbEntity
  8
0
  6
Continuous
 62
     8
370
    25
100
AcDbLine
 10
153.9065893999
 20
925.2189098486
 30
0.0
 11
162.2385385117
 21
932.2102452753
 31
0.0
  0
LINE
  5
554
330
1F
100
AcDbEntity
  8
0
  6
Continuous
 62
     8
370
    25
100
AcDbLine
 10
150.1084560705
 20
920.6924708082
 30
0.0
 11
144.6701625181
 21
911.2730700689
 31
0.0
  0
LINE
  5
555
330
1F
100
AcDbEntity
  8
0
  6
Continuous
 62
     8
370
    25
100
AcDbLine
 10
137.3091406948
 20
885.5266408291
 30
0.0
 11
139.1978402249
 21
896.2379881363
 31
0.0
  0
LINE
  5
556
330
1F
100
AcDbEntity
  8
0
  6
Continuous
 62
     8
370
    25
100
AcDbLine
 10
150.1084560705
 20
844.4519643318
 30
0.0
 11
144.6701625181
 21
853.8713650712
 31
0.0
  0
LINE
  5
557
330
1F
100
AcDbEntity
  8
0
  6
Continuous
 62
     8
370
    25
100
AcDbLine
 10
137.3091406948
 20
879.617794311
 30
0.0
 11
139.1978402249
 21
868.9064470038
 31
0.0
  0
LINE
  5
558
330
1F
100
AcDbEntity
  8
0
  6
Continuous
 62
     8
370
    25
100
AcDbLine
 10
153.9065893998
 20
839.9255252915
 30
0.0
 11
162.2385385117
 21
832.9341898647
 31
0.0
  0
LINE
  5
559
330
1F
100
AcDbEntity
  8
0
  6
Continuous
 62
     8
370
    25
100
AcDbLine
 10
258.1608868823
 20
858.3083707924
 30
0.0
 11
252.7225933299
 21
848.8889700531
 31
0.0
  0
LINE
  5
55A
330
1F
100
AcDbEntity
  8
0
  6
Continuous
 62
     8
370
    25
100
AcDbLine
 10
234.9530048657
 20
830.3516093761
 30
0.0
 11
242.4379915749
 21
836.6322589632
 31
0.0
  0
LINE
  5
55B
330
1F
100
AcDbEntity
  8
0
  6
Continuous
 62
     8
370
    25
100
AcDbLine
 10
260.1818314153
 20
901.2835648773
 30
0.0
 11
262.0705309453
 21
890.57221757
 31
0.0
  0
LINE
  5
55C
330
1F
100
AcDbEntity
  8
0
  6
Continuous
 62
     8
370
    25
100
AcDbLine
 10
260.1818314153
 20
863.8608702627
 30
0.0
 11
262.0705309453
 21
874.57221757
 31
0.0
  0
LINE
  5
55D
330
1F
100
AcDbEntity
  8
0
  6
Continuous
 62
     8
370
    25
100
AcDbLine
 10
234.9530048657
 20
934.7928257639
 30
0.0
 11
242.4379915749
 21
928.5121761769
 31
0.0
  0
LINE
  5
55E
330
1F
100
AcDbEntity
  8
0
  6
Continuous
 62
     8
370
    25
100
AcDbLine
 10
258.1608868824
 20
906.8360643476
 30
0.0
 11
252.7225933299
 21
916.255465087
 31
0.0
  0
LINE
  5
55F
330
1F
100
AcDbEntity
  8
0
  6
Continuous
 62
     8
370
    25
100
AcDbLine
 10
157.8467372549
 20
423.3610452742
 30
0.0
 11
164.9530048657
 21
423.3610452742
 31
0.0
  0
LINE
  5
560
330
1F
100
AcDbEntity
  8
0
  6
Continuous
 62
     8
370
    25
100
AcDbLine
 10
234.9530048657
 20
423.3610452742
 30
0.0
 11
242.4530048657
 21
423.3610452742
 31
0.0
  0
LINE
  5
561
330
1F
100
AcDbEntity
  8
0
  6
Continuous
 62
     8
370
    25
100
AcDbLine
 10
157.4530048657
 20
423.3610452742
 30
0.0
 11
157.8467372549
 21
423.3610452742
 31
0.0
  0
LINE
  5
562
330
1F
100
AcDbEntity
  8
0
  6
Continuous
 62
     8
370
    25
100
AcDbLine
 10
157.8467372549
 20
406.5610452742
 30
0.0
 11
164.9530048657
 21
406.5610452742
 31
0.0
  0
LINE
  5
563
330
1F
100
AcDbEntity
  8
0
  6
Continuous
 62
     8
370
    25
100
AcDbLine
 10
234.9530048657
 20
406.5610452742
 30
0.0
 11
242.4530048657
 21
406.5610452742
 31
0.0
  0
LINE
  5
564
330
1F
100
AcDbEntity
  8
0
  6
Continuous
 62
     8
370
    25
100
AcDbLine
 10
157.4530048657
 20
406.5610452742
 30
0.0
 11
157.8467372549
 21
406.5610452742
 31
0.0
  0
LINE
  5
565
330
1F
100
AcDbEntity
  8
0
  6
Continuous
 62
     8
370
    25
100
AcDbLine
 10
157.8467372549
 20
1357.3610452742
 30
0.0
 11
164.9530048657
 21
1357.3610452742
 31
0.0
  0
LINE
  5
566
330
1F
100
AcDbEntity
  8
0
  6
Continuous
 62
     8
370
    25
100
AcDbLine
 10
234.9530048657
 20
1357.3610452742
 30
0.0
 11
242.4530048657
 21
1357.3610452742
 31
0.0
  0
LINE
  5
567
330
1F
100
AcDbEntity
  8
0
  6
Continuous
 62
     8
370
    25
100
AcDbLine
 10
157.4530048657
 20
1357.3610452742
 30
0.0
 11
157.8467372549
 21
1357.3610452742
 31
0.0
  0
LINE
  5
568
330
1F
100
AcDbEntity
  8
0
  6
Continuous
 62
     8
370
    25
100
AcDbLine
 10
157.8467372549
 20
1340.5610452742
 30
0.0
 11
164.9530048657
 21
1340.5610452742
 31
0.0
  0
LINE
  5
569
330
1F
100
AcDbEntity
  8
0
  6
Continuous
 62
     8
370
    25
100
AcDbLine
 10
234.9530048657
 20
1340.5610452742
 30
0.0
 11
242.4530048657
 21
1340.5610452742
 31
0.0
  0
LINE
  5
56A
330
1F
100
AcDbEntity
  8
0
  6
Continuous
 62
     8
370
    25
100
AcDbLine
 10
157.4530048657
 20
1340.5610452742
 30
0.0
 11
157.8467372549
 21
1340.5610452742
 31
0.0
  0
LINE
  5
56B
330
1F
100
AcDbEntity
  8
0
  6
Continuous
 62
     8
370
    25
100
AcDbLine
 10
286.7973304408
 20
-114.0389547258
 30
0.0
 11
1410.2601417993
 21
-114.0389547258
 31
0.0
  0
LINE
  5
56C
330
1F
100
AcDbEntity
  8
0
  6
Continuous
 62
     8
370
    25
100
AcDbLine
 10
286.7973304408
 20
-182.0389547258
 30
0.0
 11
1410.2601417993
 21
-182.0389547258
 31
0.0
  0
LINE
  5
56D
330
1F
100
AcDbEntity
  8
0
  6
Continuous
 62
     8
370
    25
100
AcDbLine
 10
113.1086792907
 20
-114.0389547258
 30
0.0
 11
-1010.3541320678
 21
-114.0389547258
 31
0.0
  0
LINE
  5
56E
330
1F
100
AcDbEntity
  8
0
  6
Continuous
 62
     8
370
    25
100
AcDbLine
 10
113.1086792907
 20
-182.0389547258
 30
0.0
 11
-1010.3541320678
 21
-182.0389547258
 31
0.0
  0
ARC
  5
56F
330
1F
100
AcDbEntity
  8
0
  6
Continuous
 62
     8
370
    25
100
AcDbCircle
 10
232.4576778678
 20
-1069.1620505853
 30
0.0
 40
3.021964594566033
100
AcDbArc
 50
325.6625778762
 51
34.3374221238
  0
ARC
  5
570
330
1F
100
AcDbEntity
  8
0
  6
Continuous
 62
     8
370
    25
100
AcDbCircle
 10
167.445788439
 20
-1069.1620505853
 30
0.0
 40
3.0198647531504
100
AcDbArc
 50
145.6353581618
 51
214.3646418382
  0
ARC
  5
571
330
1F
100
AcDbEntity
  8
0
  6
Continuous
 62
     8
370
    25
100
AcDbCircle
 10
232.4602212925
 20
-718.8338136442
 30
0.0
 40
3.019864753151174
100
AcDbArc
 50
325.6353581618
 51
34.3646418381
  0
ARC
  5
572
330
1F
100
AcDbEntity
  8
0
  6
Continuous
 62
     8
370
    25
100
AcDbCircle
 10
167.4483318636
 20
-718.8338136442
 30
0.0
 40
3.021964594563539
100
AcDbArc
 50
145.6625778762
 51
214.3374221238
  0
ARC
  5
573
330
1F
100
AcDbEntity
  8
0
  6
Continuous
 62
     8
370
    25
100
AcDbCircle
 10
166.8109935141
 20
-1080.3431932609
 30
0.0
 40
2.549440325538352
100
AcDbArc
 50
136.7844614955
 51
223.2155385045
  0
ARC
  5
574
330
1F
100
AcDbEntity
  8
0
  6
Continuous
 62
     8
370
    25
100
AcDbCircle
 10
163.7084329725
 20
-1079.4987924965
 30
0.0
 40
2.500739608460735
100
AcDbArc
 50
76.1308506929
 51
253.3437989663
  0
ARC
  5
575
330
1F
100
AcDbEntity
  8
0
  6
Continuous
 62
     8
370
    25
100
AcDbCircle
 10
233.0970026465
 20
-1080.3431932609
 30
0.0
 40
2.547993012908457
100
AcDbArc
 50
316.7538752463
 51
43.2461247538
  0
LINE
  5
576
330
1F
100
AcDbEntity
  8
0
  6
Continuous
 62
     8
370
    25
100
AcDbLine
 10
236.1268670366
 20
-1076.990676736
 30
0.0
 11
235.5981361481
 21
-1077.070960224
 31
0.0
  0
ARC
  5
577
330
1F
100
AcDbEntity
  8
0
  6
Continuous
 62
     8
370
    25
100
AcDbCircle
 10
236.1697985387
 20
-1079.498976464
 30
0.0
 40
2.508667104113649
100
AcDbArc
 50
287.2652277537
 51
90.9805661155
  0
ARC
  5
578
330
1F
100
AcDbEntity
  8
0
  6
Continuous
 62
     8
370
    25
100
AcDbCircle
 10
166.809007085
 20
-707.6526709686
 30
0.0
 40
2.547993012909135
100
AcDbArc
 50
136.7538752463
 51
223.2461247537
  0
LINE
  5
579
330
1F
100
AcDbEntity
  8
0
  6
Continuous
 62
     8
370
    25
100
AcDbLine
 10
163.7791426949
 20
-711.0051874935
 30
0.0
 11
164.3078735834
 21
-710.9249040054
 31
0.0
  0
ARC
  5
57A
330
1F
100
AcDbEntity
  8
0
  6
Continuous
 62
     8
370
    25
100
AcDbCircle
 10
163.7362111928
 20
-708.4968877655
 30
0.0
 40
2.508667104113616
100
AcDbArc
 50
107.2652277537
 51
270.9805661155
  0
ARC
  5
57B
330
1F
100
AcDbEntity
  8
0
  6
Continuous
 62
     8
370
    25
100
AcDbCircle
 10
233.0950162174
 20
-707.6526709686
 30
0.0
 40
2.549440325538446
100
AcDbArc
 50
316.7844614955
 51
43.2155385045
  0
ARC
  5
57C
330
1F
100
AcDbEntity
  8
0
  6
Continuous
 62
     8
370
    25
100
AcDbCircle
 10
236.197576759
 20
-708.4970717329
 30
0.0
 40
2.500739608460802
100
AcDbArc
 50
256.1308506929
 51
73.3437989663
  0
LINE
  5
57D
330
1F
100
AcDbEntity
  8
0
  6
Continuous
 62
     8
370
    25
100
AcDbLine
 10
248.1254169639
 20
-682.4979321147
 30
0.0
 11
234.9530048657
 21
-682.4979321147
 31
0.0
  0
LINE
  5
57E
330
1F
100
AcDbEntity
  8
0
  6
Continuous
 62
     8
370
    25
100
AcDbLine
 10
164.9530048657
 20
-682.4979321147
 30
0.0
 11
151.7805927676
 21
-682.4979321147
 31
0.0
  0
LINE
  5
57F
330
1F
100
AcDbEntity
  8
0
  6
Continuous
 62
     8
370
    25
100
AcDbLine
 10
151.7805927676
 20
-1105.4979321147
 30
0.0
 11
164.9530048657
 21
-1105.4979321147
 31
0.0
  0
LINE
  5
580
330
1F
100
AcDbEntity
  8
0
  6
Continuous
 62
     8
370
    25
100
AcDbLine
 10
234.9530048657
 20
-1105.4979321147
 30
0.0
 11
248.1254169639
 21
-1105.4979321147
 31
0.0
  0
LINE
  5
581
330
1F
100
AcDbEntity
  8
0
  6
Continuous
 62
     8
370
    25
100
AcDbLine
 10
91.5536145374
 20
-1382.2186894648
 30
0.0
 11
91.5536145374
 21
-1377.7152828436
 31
0.0
  0
LINE
  5
582
330
1F
100
AcDbEntity
  8
0
  6
Continuous
 62
     8
370
    25
100
AcDbLine
 10
308.3523951941
 20
-1382.2186894648
 30
0.0
 11
308.3523951941
 21
-1377.7152828436
 31
0.0
  0
LINE
  5
583
330
1F
100
AcDbEntity
  8
0
  6
Continuous
 62
     8
370
    25
100
AcDbLine
 10
1.1630111549
 20
-1426.2179271322
 30
0.0
 11
1.1630111549
 21
-1421.714520511
 31
0.0
  0
LINE
  5
584
330
1F
100
AcDbEntity
  8
0
  6
Continuous
 62
     8
370
    25
100
AcDbLine
 10
398.7429985765
 20
-1426.2179271322
 30
0.0
 11
398.7429985765
 21
-1421.714520511
 31
0.0
  0
ENDSEC
  0
SECTION
  2
OBJECTS
  0
DICTIONARY
  5
C
330
0
100
AcDbDictionary
281
     1
  3
ACAD_GROUP
350
D
  3
ACAD_LAYOUT
350
1A
  3
ACAD_MLINESTYLE
350
17
  3
ACAD_PLOTSETTINGS
350
19
  3
ACAD_PLOTSTYLENAME
350
E
  3
ACAD_SCALELIST
350
47
  3
DWGPROPS
350
585
  0
DICTIONARY
  5
D
102
{ACAD_REACTORS
330
C
102
}
330
C
100
AcDbDictionary
281
     1
  0
DICTIONARY
  5
1A
102
{ACAD_REACTORS
330
C
102
}
330
C
100
AcDbDictionary
281
     1
  3
Layout1
350
1E
  3
Layout2
350
26
  3
Model
350
22
  0
DICTIONARY
  5
17
102
{ACAD_REACTORS
330
C
102
}
330
C
100
AcDbDictionary
281
     1
  3
Standard
350
18
  0
DICTIONARY
  5
19
102
{ACAD_REACTORS
330
C
102
}
330
C
100
AcDbDictionary
281
     1
  0
ACDBDICTIONARYWDFLT
  5
E
102
{ACAD_REACTORS
330
C
102
}
330
C
100
AcDbDictionary
281
     1
  3
Normal
350
F
100
AcDbDictionaryWithDefault
340
F
  0
DICTIONARY
  5
47
102
{ACAD_REACTORS
330
C
102
}
330
C
100
AcDbDictionary
281
     1
  3
A0
350
48
  3
A1
350
49
  3
A2
350
4A
  3
A3
350
4B
  3
A4
350
4C
  3
A5
350
4D
  3
A6
350
4E
  3
A7
350
4F
  3
A8
350
50
  3
A9
350
51
  3
B0
350
52
  3
B1
350
53
  3
B2
350
54
  3
B3
350
55
  3
B4
350
56
  3
B5
350
57
  3
B6
350
58
  3
B7
350
59
  3
B8
350
5A
  3
B9
350
5B
  3
C0
350
5C
  3
C1
350
5D
  3
C2
350
5E
  3
C3
350
5F
  3
C4
350
60
  3
C5
350
61
  3
C6
350
62
  3
C7
350
63
  3
C8
350
64
  3
C9
350
65
  3
D0
350
66
  3
D1
350
67
  3
D2
350
68
  0
XRECORD
  5
585
102
{ACAD_REACTORS
330
C
102
}
330
C
100
AcDbXrecord
280
     1
  1
DWGPROPS COOKIE
  2

  3

  4

  6

  7

  8
Swing
  9

300
=
301
=
302
=
303
=
304
=
305
=
306
=
307
=
308
=
309
=
 40
0.0
 41
2459677.290627708
 42
2459677.290628229
  1

 90
        0
  0
LAYOUT
  5
1E
102
{ACAD_REACTORS
330
1A
102
}
330
1A
100
AcDbPlotSettings
  1

  2
none_device
  4

  6

 40
0.0
 41
0.0
 42
0.0
 43
0.0
 44
0.0
 45
0.0
 46
0.0
 47
0.0
 48
0.0
 49
0.0
140
0.0
141
0.0
142
1.0
143
1.0
 70
   688
 72
     1
 73
     0
 74
     5
  7

 75
    16
147
1.0
148
0.0
149
0.0
100
AcDbLayout
  1
Layout1
 70
     1
 71
     1
 10
0.0
 20
0.0
 11
420.0
 21
297.0
 12
0.0
 22
0.0
 32
0.0
 14
1.0000000000E+20
 24
1.0000000000E+20
 34
1.0000000000E+20
 15
-1.0000000000E+20
 25
-1.0000000000E+20
 35
-1.0000000000E+20
146
0.0
 13
0.0
 23
0.0
 33
0.0
 16
1.0
 26
0.0
 36
0.0
 17
0.0
 27
1.0
 37
0.0
 76
     0
330
1B
  0
LAYOUT
  5
26
102
{ACAD_REACTORS
330
1A
102
}
330
1A
100
AcDbPlotSettings
  1

  2
none_device
  4

  6

 40
0.0
 41
0.0
 42
0.0
 43
0.0
 44
0.0
 45
0.0
 46
0.0
 47
0.0
 48
0.0
 49
0.0
140
0.0
141
0.0
142
1.0
143
1.0
 70
   688
 72
     1
 73
     0
 74
     5
  7

 75
    16
147
1.0
148
0.0
149
0.0
100
AcDbLayout
  1
Layout2
 70
     1
 71
     2
 10
0.0
 20
0.0
 11
0.0
 21
0.0
 12
0.0
 22
0.0
 32
0.0
 14
0.0
 24
0.0
 34
0.0
 15
0.0
 25
0.0
 35
0.0
146
0.0
 13
0.0
 23
0.0
 33
0.0
 16
1.0
 26
0.0
 36
0.0
 17
0.0
 27
1.0
 37
0.0
 76
     0
330
23
  0
LAYOUT
  5
22
102
{ACAD_REACTORS
330
1A
102
}
330
1A
100
AcDbPlotSettings
  1

  2
none_device
  4
Letter_(8.50_x_11.00_Inches)
  6

 40
6.35
 41
6.35
 42
6.35000508
 43
6.35000508
 44
215.9
 45
279.4
 46
0.0
 47
0.0
 48
0.0
 49
0.0
140
0.0
141
0.0
142
1.0
143
1.0
 70
  1712
 72
     1
 73
     0
 74
     0
  7

 75
     0
147
1.0
148
0.0
149
0.0
100
AcDbLayout
  1
Model
 70
     1
 71
     0
 10
0.0
 20
0.0
 11
431.8
 21
279.4
 12
0.0
 22
0.0
 32
0.0
 14
0.0
 24
0.0
 34
0.0
 15
431.8
 25
279.4
 35
0.0
146
0.0
 13
0.0
 23
0.0
 33
0.0
 16
1.0
 26
0.0
 36
0.0
 17
0.0
 27
1.0
 37
0.0
 76
     0
330
1F
331
29
  0
MLINESTYLE
  5
18
102
{ACAD_REACTORS
330
17
102
}
330
17
100
AcDbMlineStyle
  2
Standard
 70
     0
  3

 62
   256
 51
90.0
 52
90.0
 71
     2
 49
0.5
 62
   256
  6
BYLAYER
 49
-0.5
 62
   256
  6
BYLAYER
  0
ACDBPLACEHOLDER
  5
F
102
{ACAD_REACTORS
330
E
102
}
330
E
  0
SCALE
  5
48
102
{ACAD_REACTORS
330
47
102
}
330
47
100
AcDbScale
 70
     0
300
1:1
140
1.0
141
1.0
290
     1
  0
SCALE
  5
49
102
{ACAD_REACTORS
330
47
102
}
330
47
100
AcDbScale
 70
     0
300
1:2
140
1.0
141
2.0
290
     0
  0
SCALE
  5
4A
102
{ACAD_REACTORS
330
47
102
}
330
47
100
AcDbScale
 70
     0
300
1:4
140
1.0
141
4.0
290
     0
  0
SCALE
  5
4B
102
{ACAD_REACTORS
330
47
102
}
330
47
100
AcDbScale
 70
     0
300
1:5
140
1.0
141
5.0
290
     0
  0
SCALE
  5
4C
102
{ACAD_REACTORS
330
47
102
}
330
47
100
AcDbScale
 70
     0
300
1:8
140
1.0
141
8.0
290
     0
  0
SCALE
  5
4D
102
{ACAD_REACTORS
330
47
102
}
330
47
100
AcDbScale
 70
     0
300
1:10
140
1.0
141
10.0
290
     0
  0
SCALE
  5
4E
102
{ACAD_REACTORS
330
47
102
}
330
47
100
AcDbScale
 70
     0
300
1:16
140
1.0
141
16.0
290
     0
  0
SCALE
  5
4F
102
{ACAD_REACTORS
330
47
102
}
330
47
100
AcDbScale
 70
     0
300
1:20
140
1.0
141
20.0
290
     0
  0
SCALE
  5
50
102
{ACAD_REACTORS
330
47
102
}
330
47
100
AcDbScale
 70
     0
300
1:30
140
1.0
141
30.0
290
     0
  0
SCALE
  5
51
102
{ACAD_REACTORS
330
47
102
}
330
47
100
AcDbScale
 70
     0
300
1:40
140
1.0
141
40.0
290
     0
  0
SCALE
  5
52
102
{ACAD_REACTORS
330
47
102
}
330
47
100
AcDbScale
 70
     0
300
1:50
140
1.0
141
50.0
290
     0
  0
SCALE
  5
53
102
{ACAD_REACTORS
330
47
102
}
330
47
100
AcDbScale
 70
     0
300
1:100
140
1.0
141
100.0
290
     0
  0
SCALE
  5
54
102
{ACAD_REACTORS
330
47
102
}
330
47
100
AcDbScale
 70
     0
300
2:1
140
2.0
141
1.0
290
     0
  0
SCALE
  5
55
102
{ACAD_REACTORS
330
47
102
}
330
47
100
AcDbScale
 70
     0
300
4:1
140
4.0
141
1.0
290
     0
  0
SCALE
  5
56
102
{ACAD_REACTORS
330
47
102
}
330
47
100
AcDbScale
 70
     0
300
8:1
140
8.0
141
1.0
290
     0
  0
SCALE
  5
57
102
{ACAD_REACTORS
330
47
102
}
330
47
100
AcDbScale
 70
     0
300
10:1
140
10.0
141
1.0
290
     0
  0
SCALE
  5
58
102
{ACAD_REACTORS
330
47
102
}
330
47
100
AcDbScale
 70
     0
300
100:1
140
100.0
141
1.0
290
     0
  0
SCALE
  5
59
102
{ACAD_REACTORS
330
47
102
}
330
47
100
AcDbScale
 70
     0
300
1/128" = 1'-0"
140
0.0078125
141
12.0
290
     0
  0
SCALE
  5
5A
102
{ACAD_REACTORS
330
47
102
}
330
47
100
AcDbScale
 70
     0
300
1/64" = 1'-0"
140
0.015625
141
12.0
290
     0
  0
SCALE
  5
5B
102
{ACAD_REACTORS
330
47
102
}
330
47
100
AcDbScale
 70
     0
300
1/32" = 1'-0"
140
0.03125
141
12.0
290
     0
  0
SCALE
  5
5C
102
{ACAD_REACTORS
330
47
102
}
330
47
100
AcDbScale
 70
     0
300
1/16" = 1'-0"
140
0.0625
141
12.0
290
     0
  0
SCALE
  5
5D
102
{ACAD_REACTORS
330
47
102
}
330
47
100
AcDbScale
 70
     0
300
3/32" = 1'-0"
140
0.09375
141
12.0
290
     0
  0
SCALE
  5
5E
102
{ACAD_REACTORS
330
47
102
}
330
47
100
AcDbScale
 70
     0
300
1/8" = 1'-0"
140
0.125
141
12.0
290
     0
  0
SCALE
  5
5F
102
{ACAD_REACTORS
330
47
102
}
330
47
100
AcDbScale
 70
     0
300
3/16" = 1'-0"
140
0.1875
141
12.0
290
     0
  0
SCALE
  5
60
102
{ACAD_REACTORS
330
47
102
}
330
47
100
AcDbScale
 70
     0
300
1/4" = 1'-0"
140
0.25
141
12.0
290
     0
  0
SCALE
  5
61
102
{ACAD_REACTORS
330
47
102
}
330
47
100
AcDbScale
 70
     0
300
3/8" = 1'-0"
140
0.375
141
12.0
290
     0
  0
SCALE
  5
62
102
{ACAD_REACTORS
330
47
102
}
330
47
100
AcDbScale
 70
     0
300
1/2" = 1'-0"
140
0.5
141
12.0
290
     0
  0
SCALE
  5
63
102
{ACAD_REACTORS
330
47
102
}
330
47
100
AcDbScale
 70
     0
300
3/4" = 1'-0"
140
0.75
141
12.0
290
     0
  0
SCALE
  5
64
102
{ACAD_REACTORS
330
47
102
}
330
47
100
AcDbScale
 70
     0
300
1" = 1'-0"
140
1.0
141
12.0
290
     0
  0
SCALE
  5
65
102
{ACAD_REACTORS
330
47
102
}
330
47
100
AcDbScale
 70
     0
300
1-1/2" = 1'-0"
140
1.5
141
12.0
290
     0
  0
SCALE
  5
66
102
{ACAD_REACTORS
330
47
102
}
330
47
100
AcDbScale
 70
     0
300
3" = 1'-0"
140
3.0
141
12.0
290
     0
  0
SCALE
  5
67
102
{ACAD_REACTORS
330
47
102
}
330
47
100
AcDbScale
 70
     0
300
6" = 1'-0"
140
6.0
141
12.0
290
     0
  0
SCALE
  5
68
102
{ACAD_REACTORS
330
47
102
}
330
47
100
AcDbScale
 70
     0
300
1'-0" = 1'-0"
140
12.0
141
12.0
290
     0
  0
ENDSEC
  0
EOF
