  0
SECTION
  2
HEADER
  9
$ACADVER
  1
AC1015
  9
$ACADMAINTVER
 70
     6
  9
$DWGCODEPAGE
  3
ANSI_1250
  9
$INSBASE
 10
0.0
 20
0.0
 30
0.0
  9
$EXTMIN
 10
0.0
 20
0.0
 30
0.0
  9
$EXTMAX
 10
431.8
 20
279.4
 30
0.0
  9
$LIMMIN
 10
0.0
 20
0.0
  9
$LIMMAX
 10
431.8
 20
279.4
  9
$ORTHOMODE
 70
     0
  9
$REGENMODE
 70
     1
  9
$FILLMODE
 70
     1
  9
$QTEXTMODE
 70
     0
  9
$MIRRTEXT
 70
     1
  9
$LTSCALE
 40
1.0
  9
$ATTMODE
 70
     1
  9
$TEXTSIZE
 40
3.8805555556
  9
$TRACEWID
 40
1.0
  9
$TEXTSTYLE
  7
Standard
  9
$CLAYER
  8
0
  9
$CELTYPE
  6
ByLayer
  9
$CECOLOR
 62
   256
  9
$CELTSCALE
 40
1.0
  9
$DISPSILH
 70
     0
  9
$DIMSCALE
 40
1.0
  9
$DIMASZ
 40
3.302
  9
$DIMEXO
 40
1.0
  9
$DIMDLI
 40
3.75
  9
$DIMRND
 40
0.0
  9
$DIMDLE
 40
0.0
  9
$DIMEXE
 40
1.0
  9
$DIMTP
 40
0.0
  9
$DIMTM
 40
0.0
  9
$DIMTXT
 40
3.8805555556
  9
$DIMCEN
 40
2.5
  9
$DIMTSZ
 40
0.0
  9
$DIMTOL
 70
     0
  9
$DIMLIM
 70
     0
  9
$DIMTIH
 70
     1
  9
$DIMTOH
 70
     1
  9
$DIMSE1
 70
     0
  9
$DIMSE2
 70
     0
  9
$DIMTAD
 70
     1
  9
$DIMZIN
 70
     0
  9
$DIMBLK
  1

  9
$DIMASO
 70
     1
  9
$DIMSHO
 70
     1
  9
$DIMPOST
  1

  9
$DIMAPOST
  1

  9
$DIMALT
 70
     0
  9
$DIMALTD
 70
     3
  9
$DIMALTF
 40
0.0393700787
  9
$DIMLFAC
 40
1.0
  9
$DIMTOFL
 70
     1
  9
$DIMTVP
 40
0.0
  9
$DIMTIX
 70
     0
  9
$DIMSOXD
 70
     0
  9
$DIMSAH
 70
     0
  9
$DIMBLK1
  1

  9
$DIMBLK2
  1

  9
$DIMSTYLE
  2
ISO-25
  9
$DIMCLRD
 70
     0
  9
$DIMCLRE
 70
     0
  9
$DIMCLRT
 70
     0
  9
$DIMTFAC
 40
1.0
  9
$DIMGAP
 40
1.524
  9
$DIMJUST
 70
     0
  9
$DIMSD1
 70
     0
  9
$DIMSD2
 70
     0
  9
$DIMTOLJ
 70
     0
  9
$DIMTZIN
 70
     0
  9
$DIMALTZ
 70
     0
  9
$DIMALTTZ
 70
     0
  9
$DIMUPT
 70
     0
  9
$DIMDEC
 70
     1
  9
$DIMTDEC
 70
     1
  9
$DIMALTU
 70
     2
  9
$DIMALTTD
 70
     3
  9
$DIMTXSTY
  7
Standard
  9
$DIMAUNIT
 70
     0
  9
$DIMADEC
 70
     1
  9
$DIMALTRND
 40
0.0
  9
$DIMAZIN
 70
     0
  9
$DIMDSEP
 70
    44
  9
$DIMATFIT
 70
     3
  9
$DIMFRAC
 70
     0
  9
$DIMLDRBLK
  1

  9
$DIMLUNIT
 70
     2
  9
$DIMLWD
 70
    -2
  9
$DIMLWE
 70
    -2
  9
$DIMTMOVE
 70
     0
  9
$LUNITS
 70
     2
  9
$LUPREC
 70
     1
  9
$SKETCHINC
 40
1.0
  9
$FILLETRAD
 40
10.0
  9
$AUNITS
 70
     0
  9
$AUPREC
 70
     1
  9
$MENU
  1
.
  9
$ELEVATION
 40
0.0
  9
$PELEVATION
 40
0.0
  9
$THICKNESS
 40
0.0
  9
$LIMCHECK
 70
     0
  9
$CHAMFERA
 40
0.0
  9
$CHAMFERB
 40
0.0
  9
$CHAMFERC
 40
0.0
  9
$CHAMFERD
 40
0.0
  9
$SKPOLY
 70
     0
  9
$TDCREATE
 40
2459563.526240926
  9
$TDUCREATE
 40
2459563.484574259
  9
$TDUPDATE
 40
2459563.526241076
  9
$TDUUPDATE
 40
2459563.48457441
  9
$TDINDWG
 40
0.0000000116
  9
$TDUSRTIMER
 40
0.0000000116
  9
$USRTIMER
 70
     1
  9
$ANGBASE
 50
0.0
  9
$ANGDIR
 70
     0
  9
$PDMODE
 70
     0
  9
$PDSIZE
 40
-1.0
  9
$PLINEWID
 40
0.0
  9
$SPLFRAME
 70
     0
  9
$SPLINETYPE
 70
     6
  9
$SPLINESEGS
 70
     8
  9
$HANDSEED
  5
2BE
  9
$SURFTAB1
 70
     6
  9
$SURFTAB2
 70
     6
  9
$SURFTYPE
 70
     6
  9
$SURFU
 70
     6
  9
$SURFV
 70
     6
  9
$UCSBASE
  2

  9
$UCSNAME
  2

  9
$UCSORG
 10
0.0
 20
0.0
 30
0.0
  9
$UCSXDIR
 10
1.0
 20
0.0
 30
0.0
  9
$UCSYDIR
 10
0.0
 20
1.0
 30
0.0
  9
$UCSORTHOREF
  2

  9
$UCSORTHOVIEW
 70
     0
  9
$UCSORGTOP
 10
0.0
 20
0.0
 30
0.0
  9
$UCSORGBOTTOM
 10
0.0
 20
0.0
 30
0.0
  9
$UCSORGLEFT
 10
0.0
 20
0.0
 30
0.0
  9
$UCSORGRIGHT
 10
0.0
 20
0.0
 30
0.0
  9
$UCSORGFRONT
 10
0.0
 20
0.0
 30
0.0
  9
$UCSORGBACK
 10
0.0
 20
0.0
 30
0.0
  9
$PUCSBASE
  2

  9
$PUCSNAME
  2

  9
$PUCSORG
 10
0.0
 20
0.0
 30
0.0
  9
$PUCSXDIR
 10
1.0
 20
0.0
 30
0.0
  9
$PUCSYDIR
 10
0.0
 20
1.0
 30
0.0
  9
$PUCSORTHOREF
  2

  9
$PUCSORTHOVIEW
 70
     0
  9
$PUCSORGTOP
 10
0.0
 20
0.0
 30
0.0
  9
$PUCSORGBOTTOM
 10
0.0
 20
0.0
 30
0.0
  9
$PUCSORGLEFT
 10
0.0
 20
0.0
 30
0.0
  9
$PUCSORGRIGHT
 10
0.0
 20
0.0
 30
0.0
  9
$PUCSORGFRONT
 10
0.0
 20
0.0
 30
0.0
  9
$PUCSORGBACK
 10
0.0
 20
0.0
 30
0.0
  9
$USERI1
 70
     0
  9
$USERI2
 70
     0
  9
$USERI3
 70
     0
  9
$USERI4
 70
     0
  9
$USERI5
 70
     0
  9
$USERR1
 40
0.0
  9
$USERR2
 40
0.0
  9
$USERR3
 40
0.0
  9
$USERR4
 40
0.0
  9
$USERR5
 40
0.0
  9
$WORLDVIEW
 70
     1
  9
$SHADEDGE
 70
     3
  9
$SHADEDIF
 70
    70
  9
$TILEMODE
 70
     1
  9
$MAXACTVP
 70
    64
  9
$PINSBASE
 10
0.0
 20
0.0
 30
0.0
  9
$PLIMCHECK
 70
     0
  9
$PEXTMIN
 10
1.0000000000E+20
 20
1.0000000000E+20
 30
1.0000000000E+20
  9
$PEXTMAX
 10
-1.0000000000E+20
 20
-1.0000000000E+20
 30
-1.0000000000E+20
  9
$PLIMMIN
 10
0.0
 20
0.0
  9
$PLIMMAX
 10
420.0
 20
297.0
  9
$UNITMODE
 70
     0
  9
$VISRETAIN
 70
     1
  9
$PLINEGEN
 70
     0
  9
$PSLTSCALE
 70
     1
  9
$TREEDEPTH
 70
  3020
  9
$CMLSTYLE
  2
Standard
  9
$CMLJUST
 70
     0
  9
$CMLSCALE
 40
20.0
  9
$PROXYGRAPHICS
 70
     1
  9
$MEASUREMENT
 70
     1
  9
$CELWEIGHT
370
    -1
  9
$ENDCAPS
280
     0
  9
$JOINSTYLE
280
     0
  9
$LWDISPLAY
290
     1
  9
$INSUNITS
 70
     4
  9
$HYPERLINKBASE
  1

  9
$STYLESHEET
  1

  9
$XEDIT
290
     1
  9
$CEPSNTYPE
380
     0
  9
$PSTYLEMODE
290
     1
  9
$FINGERPRINTGUID
  2
{838dccc6-7645-4070-834b-0fed7b1531d6}
  9
$VERSIONGUID
  2
{FAEB1C32-E019-11D5-929B-00C0DF256EC4}
  9
$EXTNAMES
290
     1
  9
$PSVPSCALE
 40
0.0
  9
$OLESTARTUP
290
     0
  0
ENDSEC
  0
SECTION
  2
CLASSES
  0
CLASS
  1
ACDBDICTIONARYWDFLT
  2
AcDbDictionaryWithDefault
  3
ObjectDBX Classes
 90
        0
280
     0
281
     0
  0
CLASS
  1
VISUALSTYLE
  2
AcDbVisualStyle
  3
ObjectDBX Classes
 90
     4095
280
     0
281
     0
  0
CLASS
  1
MATERIAL
  2
AcDbMaterial
  3
ObjectDBX Classes
 90
     1153
280
     0
281
     0
  0
CLASS
  1
SCALE
  2
AcDbScale
  3
ObjectDBX Classes
 90
     1153
280
     0
281
     0
  0
CLASS
  1
TABLESTYLE
  2
AcDbTableStyle
  3
ObjectDBX Classes
 90
     4095
280
     0
281
     0
  0
CLASS
  1
MLEADERSTYLE
  2
AcDbMLeaderStyle
  3
ACDB_MLEADERSTYLE_CLASS
 90
     4095
280
     0
281
     0
  0
CLASS
  1
SUN
  2
AcDbSun
  3
SCENEOE
 90
     1153
280
     0
281
     0
  0
CLASS
  1
ACDBPLACEHOLDER
  2
AcDbPlaceHolder
  3
ObjectDBX Classes
 90
        0
280
     0
281
     0
  0
CLASS
  1
LAYOUT
  2
AcDbLayout
  3
ObjectDBX Classes
 90
        0
280
     0
281
     0
  0
ENDSEC
  0
SECTION
  2
TABLES
  0
TABLE
  2
VPORT
  5
8
330
0
100
AcDbSymbolTable
 70
     1
  0
VPORT
  5
29
330
8
100
AcDbSymbolTableRecord
100
AcDbViewportTableRecord
  2
*Active
 70
     0
 10
0.0
 20
0.0
 11
1.0
 21
1.0
 12
215.9
 22
139.7
 13
0.0
 23
0.0
 14
10.0
 24
10.0
 15
10.0
 25
10.0
 16
0.0
 26
0.0
 36
1.0
 17
0.0
 27
0.0
 37
0.0
 40
279.4
 41
1.5454545455
 42
50.0
 43
0.0
 44
0.0
 50
0.0
 51
0.0
 71
     0
 72
  2000
 73
     1
 74
     3
 75
     0
 76
     0
 77
     0
 78
     0
281
     0
 65
     1
110
0.0
120
0.0
130
0.0
111
1.0
121
0.0
131
0.0
112
0.0
122
1.0
132
0.0
 79
     0
146
0.0
  0
ENDTAB
  0
TABLE
  2
LTYPE
  5
5
330
0
100
AcDbSymbolTable
 70
     6
  0
LTYPE
  5
14
330
5
100
AcDbSymbolTableRecord
100
AcDbLinetypeTableRecord
  2
ByBlock
 70
     0
  3

 72
    65
 73
     0
 40
0.0
  0
LTYPE
  5
15
330
5
100
AcDbSymbolTableRecord
100
AcDbLinetypeTableRecord
  2
ByLayer
 70
     0
  3

 72
    65
 73
     0
 40
0.0
  0
LTYPE
  5
16
330
5
100
AcDbSymbolTableRecord
100
AcDbLinetypeTableRecord
  2
Continuous
 70
     0
  3
Solid line
 72
    65
 73
     0
 40
0.0
  0
LTYPE
  5
6E
330
5
100
AcDbSymbolTableRecord
100
AcDbLinetypeTableRecord
  2
HIDDEN
 70
     0
  3
Hidden __ __ __ __ __ __ __ __ __ __ __ __ __ __
 72
    65
 73
     2
 40
1.905
 49
1.27
 74
     0
 49
-0.635
 74
     0
  0
LTYPE
  5
6F
330
5
100
AcDbSymbolTableRecord
100
AcDbLinetypeTableRecord
  2
PHANTOM
 70
     0
  3
Phantom ______  __  __  ______  __  __  ______
 72
    65
 73
     6
 40
12.7
 49
6.35
 74
     0
 49
-1.27
 74
     0
 49
1.27
 74
     0
 49
-1.27
 74
     0
 49
1.27
 74
     0
 49
-1.27
 74
     0
  0
LTYPE
  5
70
330
5
100
AcDbSymbolTableRecord
100
AcDbLinetypeTableRecord
  2
CENTER
 70
     0
  3
Center ____ _ ____ _ ____ _ ____ _ ____ _ ____
 72
    65
 73
     4
 40
10.16
 49
6.35
 74
     0
 49
-1.27
 74
     0
 49
1.27
 74
     0
 49
-1.27
 74
     0
  0
LTYPE
  5
71
330
5
100
AcDbSymbolTableRecord
100
AcDbLinetypeTableRecord
  2
CENTERX2
 70
     0
  3
Center (2x) ________  __  ________  __  _____
 72
    65
 73
     4
 40
20.32
 49
12.7
 74
     0
 49
-2.54
 74
     0
 49
2.54
 74
     0
 49
-2.54
 74
     0
  0
LTYPE
  5
72
330
5
100
AcDbSymbolTableRecord
100
AcDbLinetypeTableRecord
  2
DOT2
 70
     0
  3
Dot (.5x) ........................................
 72
    65
 73
     2
 40
0.635
 49
0.0
 74
     0
 49
-0.635
 74
     0
  0
ENDTAB
  0
TABLE
  2
LAYER
  5
2
330
0
100
AcDbSymbolTable
 70
     3
  0
LAYER
  5
10
330
2
100
AcDbSymbolTableRecord
100
AcDbLayerTableRecord
  2
0
 70
     0
 62
     7
  6
Continuous
370
    -3
390
F
  0
LAYER
  5
73
330
2
100
AcDbSymbolTableRecord
100
AcDbLayerTableRecord
  2
FRAME_&_TABLE
 70
     0
 62
     8
  6
Continuous
370
    50
390
F
  0
LAYER
  5
74
330
2
100
AcDbSymbolTableRecord
100
AcDbLayerTableRecord
  2
DIMENSIONS
 70
     0
 62
     7
  6
Continuous
370
    -3
390
F
  0
ENDTAB
  0
TABLE
  2
STYLE
  5
3
330
0
100
AcDbSymbolTable
 70
     1
  0
STYLE
  5
11
330
3
100
AcDbSymbolTableRecord
100
AcDbTextStyleTableRecord
  2
Standard
 70
     0
 40
0.0
 41
1.0
 50
0.0
 71
     0
 42
3.8805555556
  3
txt
  4

  0
ENDTAB
  0
TABLE
  2
VIEW
  5
6
330
0
100
AcDbSymbolTable
 70
     0
  0
ENDTAB
  0
TABLE
  2
UCS
  5
7
330
0
100
AcDbSymbolTable
 70
     0
  0
ENDTAB
  0
TABLE
  2
APPID
  5
9
330
0
100
AcDbSymbolTable
 70
     1
  0
APPID
  5
12
330
9
100
AcDbSymbolTableRecord
100
AcDbRegAppTableRecord
  2
ACAD
 70
     0
  0
ENDTAB
  0
TABLE
  2
DIMSTYLE
  5
A
330
0
100
AcDbSymbolTable
 70
     1
100
AcDbDimStyleTable
  0
DIMSTYLE
105
27
330
A
100
AcDbSymbolTableRecord
100
AcDbDimStyleTableRecord
  2
ISO-25
 70
     0
 41
2.5
 42
0.625
 43
3.75
 44
1.25
 73
     0
 74
     0
 77
     1
 78
     8
140
2.5
141
2.5
143
0.0393700787
147
0.625
171
     3
172
     1
178
     0
271
     2
272
     2
274
     3
278
    44
283
     0
284
     8
340
11
  0
ENDTAB
  0
TABLE
  2
BLOCK_RECORD
  5
1
330
0
100
AcDbSymbolTable
 70
     1
  0
BLOCK_RECORD
  5
1F
330
1
100
AcDbSymbolTableRecord
100
AcDbBlockTableRecord
  2
*Model_Space
340
22
  0
BLOCK_RECORD
  5
1B
330
1
100
AcDbSymbolTableRecord
100
AcDbBlockTableRecord
  2
*Paper_Space
340
1E
  0
BLOCK_RECORD
  5
23
330
1
100
AcDbSymbolTableRecord
100
AcDbBlockTableRecord
  2
*Paper_Space0
340
26
  0
ENDTAB
  0
ENDSEC
  0
SECTION
  2
BLOCKS
  0
BLOCK
  5
20
330
1F
100
AcDbEntity
  8
0
100
AcDbBlockBegin
  2
*Model_Space
 70
     0
 10
0.0
 20
0.0
 30
0.0
  3
*Model_Space
  1

  0
ENDBLK
  5
21
330
1F
100
AcDbEntity
  8
0
100
AcDbBlockEnd
  0
BLOCK
  5
1C
330
1B
100
AcDbEntity
 67
     1
  8
0
100
AcDbBlockBegin
  2
*Paper_Space
 70
     0
 10
0.0
 20
0.0
 30
0.0
  3
*Paper_Space
  1

  0
ENDBLK
  5
1D
330
1B
100
AcDbEntity
 67
     1
  8
0
100
AcDbBlockEnd
  0
BLOCK
  5
24
330
23
100
AcDbEntity
  8
0
100
AcDbBlockBegin
  2
*Paper_Space0
 70
     0
 10
0.0
 20
0.0
 30
0.0
  3
*Paper_Space0
  1

  0
ENDBLK
  5
25
330
23
100
AcDbEntity
  8
0
100
AcDbBlockEnd
  0
ENDSEC
  0
SECTION
  2
ENTITIES
  0
LINE
  5
75
330
1F
100
AcDbEntity
  8
0
  6
Continuous
 62
     7
370
    25
100
AcDbLine
 10
1410.9041003286
 20
-944.5906410319
 30
0.0
 11
253.8757295073
 21
-381.3864541949
 31
0.0
  0
LINE
  5
76
330
1F
100
AcDbEntity
  8
0
  6
Continuous
 62
     7
370
    25
100
AcDbLine
 10
187.1321893763
 20
-465.4152637084
 30
0.0
 11
1338.3253294305
 21
-1025.77904794
 31
0.0
  0
LINE
  5
77
330
1F
100
AcDbEntity
  8
0
  6
Continuous
 62
     7
370
    25
100
AcDbLine
 10
80.1870783572
 20
-381.3864541949
 30
0.0
 11
-1076.8412924641
 21
-944.5906410319
 31
0.0
  0
LINE
  5
78
330
1F
100
AcDbEntity
  8
0
  6
Continuous
 62
     7
370
    25
100
AcDbLine
 10
-1004.262521566
 20
-1025.77904794
 30
0.0
 11
146.9306184882
 21
-465.4152637084
 31
0.0
  0
LINE
  5
79
330
1F
100
AcDbEntity
  8
0
  6
Continuous
 62
     7
370
    25
100
AcDbLine
 10
253.8757295073
 20
575.9883911844
 30
0.0
 11
1410.9041003286
 21
1139.1925780214
 31
0.0
  0
LINE
  5
7A
330
1F
100
AcDbEntity
  8
0
  6
Continuous
 62
     7
370
    25
100
AcDbLine
 10
1338.3253294305
 20
1220.3809849295
 30
0.0
 11
187.1321893763
 21
660.0172006979
 31
0.0
  0
LINE
  5
7B
330
1F
100
AcDbEntity
  8
0
  6
Continuous
 62
     7
370
    25
100
AcDbLine
 10
-1076.8412924641
 20
1139.1925780214
 30
0.0
 11
80.1870783572
 21
575.9883911844
 31
0.0
  0
LINE
  5
7C
330
1F
100
AcDbEntity
  8
0
  6
Continuous
 62
     7
370
    25
100
AcDbLine
 10
146.9306184882
 20
660.0172006979
 30
0.0
 11
-1004.262521566
 21
1220.3809849295
 31
0.0
  0
ARC
  5
7D
330
1F
100
AcDbEntity
  8
0
  6
Continuous
 62
     7
370
    25
100
AcDbCircle
 10
251.1036102211
 20
-380.6485392173
 30
0.0
 40
2.007828976540449
100
AcDbArc
 50
61.9999066638
 51
102.6382622048
  0
LINE
  5
7E
330
1F
100
AcDbEntity
  8
0
  6
Continuous
 62
     7
370
    25
100
AcDbLine
 10
250.7238476216
 20
-378.6731762841
 30
0.0
 11
183.6959278915
 21
-387.8973258345
 31
0.0
  0
LINE
  5
7F
330
1F
100
AcDbEntity
  8
0
  6
Continuous
 62
     7
370
    25
100
AcDbLine
 10
252.9851748421
 20
-379.3327802969
 30
0.0
 11
252.0462317165
 21
-378.8757329911
 31
0.0
  0
ARC
  5
80
330
1F
100
AcDbEntity
  8
0
  6
Continuous
 62
     7
370
    25
100
AcDbCircle
 10
184.0969170075
 20
-463.189875179
 30
0.0
 40
2.129443723054213
100
AcDbArc
 50
177.0844764244
 51
244.8383437498
  0
LINE
  5
81
330
1F
100
AcDbEntity
  8
0
  6
Continuous
 62
     7
370
    25
100
AcDbLine
 10
181.9498217316
 20
-389.9001816596
 30
0.0
 11
181.9498217316
 21
-463.0844165714
 31
0.0
  0
LINE
  5
82
330
1F
100
AcDbEntity
  8
0
  6
Continuous
 62
     7
370
    25
100
AcDbLine
 10
183.1915336182
 20
-465.1172598028
 30
0.0
 11
184.1304767438
 21
-465.5743071085
 31
0.0
  0
ARC
  5
83
330
1F
100
AcDbEntity
  8
0
  6
Continuous
 62
     7
370
    25
100
AcDbCircle
 10
183.8443670783
 20
-389.7760374944
 30
0.0
 40
1.88441305814264
100
AcDbArc
 50
93.0382750296
 51
183.8580166206
  0
ARC
  5
84
330
1F
100
AcDbEntity
  8
0
  6
Continuous
 62
     7
370
    25
100
AcDbCircle
 10
82.9591976434
 20
575.2504762068
 30
0.0
 40
2.00782897653768
100
AcDbArc
 50
241.9999066637
 51
282.6382622048
  0
LINE
  5
85
330
1F
100
AcDbEntity
  8
0
  6
Continuous
 62
     7
370
    25
100
AcDbLine
 10
83.3389602429
 20
573.2751132736
 30
0.0
 11
150.366879973
 21
582.499262824
 31
0.0
  0
LINE
  5
86
330
1F
100
AcDbEntity
  8
0
  6
Continuous
 62
     7
370
    25
100
AcDbLine
 10
81.0776330224
 20
573.9347172863
 30
0.0
 11
82.016576148
 21
573.4776699806
 31
0.0
  0
ARC
  5
87
330
1F
100
AcDbEntity
  8
0
  6
Continuous
 62
     7
370
    25
100
AcDbCircle
 10
149.965890857
 20
657.7918121685
 30
0.0
 40
2.129443723054074
100
AcDbArc
 50
357.0844764244
 51
64.8383437498
  0
LINE
  5
88
330
1F
100
AcDbEntity
  8
0
  6
Continuous
 62
     7
370
    25
100
AcDbLine
 10
152.1129861329
 20
584.5021186491
 30
0.0
 11
152.1129861329
 21
657.6863535609
 31
0.0
  0
LINE
  5
89
330
1F
100
AcDbEntity
  8
0
  6
Continuous
 62
     7
370
    25
100
AcDbLine
 10
150.8712742463
 20
659.7191967923
 30
0.0
 11
149.9323311207
 21
660.176244098
 31
0.0
  0
ARC
  5
8A
330
1F
100
AcDbEntity
  8
0
  6
Continuous
 62
     7
370
    25
100
AcDbCircle
 10
150.2184407862
 20
584.3779744839
 30
0.0
 40
1.884413058141091
100
AcDbArc
 50
273.0382750295
 51
3.8580166207
  0
ARC
  5
8B
330
1F
100
AcDbEntity
  8
0
  6
Continuous
 62
     7
370
    25
100
AcDbCircle
 10
82.9569396666
 20
-380.6279145878
 30
0.0
 40
1.98857333149391
100
AcDbArc
 50
77.1094691249
 51
118.2216342001
  0
LINE
  5
8C
330
1F
100
AcDbEntity
  8
0
  6
Continuous
 62
     7
370
    25
100
AcDbLine
 10
150.366879973
 20
-387.8973258345
 30
0.0
 11
83.3389602429
 21
-378.6731762841
 31
0.0
  0
LINE
  5
8D
330
1F
100
AcDbEntity
  8
0
  6
Continuous
 62
     7
370
    25
100
AcDbLine
 10
82.016576148
 20
-378.8757329911
 30
0.0
 11
81.0776330224
 21
-379.3327802969
 31
0.0
  0
ARC
  5
8E
330
1F
100
AcDbEntity
  8
0
  6
Continuous
 62
     7
370
    25
100
AcDbCircle
 10
149.927569837
 20
-463.159006514
 30
0.0
 40
2.173783327578651
100
AcDbArc
 50
295.7299430497
 51
2.0672693022
  0
LINE
  5
8F
330
1F
100
AcDbEntity
  8
0
  6
Continuous
 62
     7
370
    25
100
AcDbLine
 10
152.1129861329
 20
-463.0844165714
 30
0.0
 11
152.1129861329
 21
-389.9001816596
 31
0.0
  0
LINE
  5
90
330
1F
100
AcDbEntity
  8
0
  6
Continuous
 62
     7
370
    25
100
AcDbLine
 10
149.9323311207
 20
-465.5743071085
 30
0.0
 11
150.8712742463
 21
-465.1172598028
 31
0.0
  0
ARC
  5
91
330
1F
100
AcDbEntity
  8
0
  6
Continuous
 62
     7
370
    25
100
AcDbCircle
 10
150.233298514
 20
-389.7557212767
 30
0.0
 40
1.858214187383266
100
AcDbArc
 50
355.4857891225
 51
87.1823100973
  0
ARC
  5
92
330
1F
100
AcDbEntity
  8
0
  6
Continuous
 62
     7
370
    25
100
AcDbCircle
 10
251.1058681979
 20
575.2298515773
 30
0.0
 40
1.988573331496217
100
AcDbArc
 50
257.1094691249
 51
298.2216342001
  0
LINE
  5
93
330
1F
100
AcDbEntity
  8
0
  6
Continuous
 62
     7
370
    25
100
AcDbLine
 10
183.6959278915
 20
582.499262824
 30
0.0
 11
250.7238476216
 21
573.2751132736
 31
0.0
  0
LINE
  5
94
330
1F
100
AcDbEntity
  8
0
  6
Continuous
 62
     7
370
    25
100
AcDbLine
 10
252.0462317165
 20
573.4776699806
 30
0.0
 11
252.9851748421
 21
573.9347172863
 31
0.0
  0
ARC
  5
95
330
1F
100
AcDbEntity
  8
0
  6
Continuous
 62
     7
370
    25
100
AcDbCircle
 10
184.1352380276
 20
657.7609435035
 30
0.0
 40
2.173783327579013
100
AcDbArc
 50
115.7299430497
 51
182.0672693022
  0
LINE
  5
96
330
1F
100
AcDbEntity
  8
0
  6
Continuous
 62
     7
370
    25
100
AcDbLine
 10
181.9498217316
 20
657.6863535609
 30
0.0
 11
181.9498217316
 21
584.5021186491
 31
0.0
  0
LINE
  5
97
330
1F
100
AcDbEntity
  8
0
  6
Continuous
 62
     7
370
    25
100
AcDbLine
 10
184.1304767438
 20
660.176244098
 30
0.0
 11
183.1915336182
 21
659.7191967923
 31
0.0
  0
ARC
  5
98
330
1F
100
AcDbEntity
  8
0
  6
Continuous
 62
     7
370
    25
100
AcDbCircle
 10
183.8295093506
 20
584.3576582662
 30
0.0
 40
1.858214187383313
100
AcDbArc
 50
175.4857891225
 51
267.1823100973
  0
ARC
  5
99
330
1F
100
AcDbEntity
  8
0
  6
Continuous
 62
     7
370
    25
100
AcDbCircle
 10
242.2980791948
 20
668.3013225235
 30
0.0
 40
15.73800392325743
100
AcDbArc
 50
134.4273736796
 51
180.7801925335
  0
ARC
  5
9A
330
1F
100
AcDbEntity
  8
0
  6
Continuous
 62
     7
370
    25
100
AcDbCircle
 10
241.4823592559
 20
668.1790615677
 30
0.0
 40
16.03077509347064
100
AcDbArc
 50
359.6833624467
 51
45.1838181982
  0
LINE
  5
9B
330
1F
100
AcDbEntity
  8
0
  6
Continuous
 62
     7
370
    25
100
AcDbLine
 10
257.5314039322
 20
667.1186963867
 30
0.0
 11
257.5314039322
 21
668.084622213
 31
0.0
  0
LINE
  5
9C
330
1F
100
AcDbEntity
  8
0
  6
Continuous
 62
     7
370
    25
100
AcDbLine
 10
226.5314039322
 20
668.084622213
 30
0.0
 11
226.5314039322
 21
667.1186963867
 31
0.0
  0
ARC
  5
9D
330
1F
100
AcDbEntity
  8
0
  6
Continuous
 62
     7
370
    25
100
AcDbCircle
 10
91.7647286698
 20
-473.699385534
 30
0.0
 40
15.7380039232575
100
AcDbArc
 50
314.4273736796
 51
0.7801925335
  0
ARC
  5
9E
330
1F
100
AcDbEntity
  8
0
  6
Continuous
 62
     7
370
    25
100
AcDbCircle
 10
92.5804486086
 20
-473.5771245782
 30
0.0
 40
16.03077509347041
100
AcDbArc
 50
179.6833624467
 51
225.1838181982
  0
LINE
  5
9F
330
1F
100
AcDbEntity
  8
0
  6
Continuous
 62
     7
370
    25
100
AcDbLine
 10
76.5314039323
 20
-472.5167593972
 30
0.0
 11
76.5314039323
 21
-473.4826852235
 31
0.0
  0
LINE
  5
A0
330
1F
100
AcDbEntity
  8
0
  6
Continuous
 62
     7
370
    25
100
AcDbLine
 10
107.5314039323
 20
-473.4826852235
 30
0.0
 11
107.5314039323
 21
-472.5167593972
 31
0.0
  0
ARC
  5
A1
330
1F
100
AcDbEntity
  8
0
  6
Continuous
 62
     7
370
    25
100
AcDbCircle
 10
333.8892626872
 20
-518.2305325268
 30
0.0
 40
15.78189507506737
100
AcDbArc
 50
179.3169510912
 51
225.5039316946
  0
ARC
  5
A2
330
1F
100
AcDbEntity
  8
0
  6
Continuous
 62
     7
370
    25
100
AcDbCircle
 10
333.2164008928
 20
-518.1884213391
 30
0.0
 40
15.84414846840252
100
AcDbArc
 50
314.5337120313
 51
0.540529014
  0
LINE
  5
A3
330
1F
100
AcDbEntity
  8
0
  6
Continuous
 62
     7
370
    25
100
AcDbLine
 10
318.0783586755
 20
-517.0788717048
 30
0.0
 11
318.0783586755
 21
-518.0447975311
 31
0.0
  0
LINE
  5
A4
330
1F
100
AcDbEntity
  8
0
  6
Continuous
 62
     7
370
    25
100
AcDbLine
 10
349.0783586755
 20
-518.0447975311
 30
0.0
 11
349.0783586755
 21
-517.0788717048
 31
0.0
  0
ARC
  5
A5
330
1F
100
AcDbEntity
  8
0
  6
Continuous
 62
     7
370
    25
100
AcDbCircle
 10
242.3423079439
 20
-473.6684202192
 30
0.0
 40
15.78189507506735
100
AcDbArc
 50
179.3169510912
 51
225.5039316946
  0
ARC
  5
A6
330
1F
100
AcDbEntity
  8
0
  6
Continuous
 62
     7
370
    25
100
AcDbCircle
 10
241.6694461496
 20
-473.6263090315
 30
0.0
 40
15.84414846840244
100
AcDbArc
 50
314.5337120313
 51
0.540529014
  0
LINE
  5
A7
330
1F
100
AcDbEntity
  8
0
  6
Continuous
 62
     7
370
    25
100
AcDbLine
 10
226.5314039322
 20
-472.5167593972
 30
0.0
 11
226.5314039322
 21
-473.4826852235
 31
0.0
  0
LINE
  5
A8
330
1F
100
AcDbEntity
  8
0
  6
Continuous
 62
     7
370
    25
100
AcDbLine
 10
257.5314039322
 20
-473.4826852235
 30
0.0
 11
257.5314039322
 21
-472.5167593972
 31
0.0
  0
ARC
  5
A9
330
1F
100
AcDbEntity
  8
0
  6
Continuous
 62
     7
370
    25
100
AcDbCircle
 10
333.845033938
 20
712.8634348311
 30
0.0
 40
15.73800392325767
100
AcDbArc
 50
134.4273736796
 51
180.7801925335
  0
ARC
  5
AA
330
1F
100
AcDbEntity
  8
0
  6
Continuous
 62
     7
370
    25
100
AcDbCircle
 10
333.0293139992
 20
712.7411738752
 30
0.0
 40
16.03077509347006
100
AcDbArc
 50
359.6833624467
 51
45.1838181982
  0
LINE
  5
AB
330
1F
100
AcDbEntity
  8
0
  6
Continuous
 62
     7
370
    25
100
AcDbLine
 10
349.0783586755
 20
711.6808086943
 30
0.0
 11
349.0783586755
 21
712.6467345206
 31
0.0
  0
LINE
  5
AC
330
1F
100
AcDbEntity
  8
0
  6
Continuous
 62
     7
370
    25
100
AcDbLine
 10
318.0783586755
 20
712.6467345206
 30
0.0
 11
318.0783586755
 21
711.6808086943
 31
0.0
  0
ARC
  5
AD
330
1F
100
AcDbEntity
  8
0
  6
Continuous
 62
     7
370
    25
100
AcDbCircle
 10
0.1735451773
 20
712.8324695163
 30
0.0
 40
15.78189507506688
100
AcDbArc
 50
359.3169510912
 51
45.5039316946
  0
ARC
  5
AE
330
1F
100
AcDbEntity
  8
0
  6
Continuous
 62
     7
370
    25
100
AcDbCircle
 10
0.8464069717
 20
712.7903583285
 30
0.0
 40
15.84414846840303
100
AcDbArc
 50
134.5337120313
 51
180.540529014
  0
LINE
  5
AF
330
1F
100
AcDbEntity
  8
0
  6
Continuous
 62
     7
370
    25
100
AcDbLine
 10
15.984449189
 20
711.6808086943
 30
0.0
 11
15.984449189
 21
712.6467345206
 31
0.0
  0
LINE
  5
B0
330
1F
100
AcDbEntity
  8
0
  6
Continuous
 62
     7
370
    25
100
AcDbLine
 10
-15.015550811
 20
712.6467345206
 30
0.0
 11
-15.015550811
 21
711.6808086943
 31
0.0
  0
ARC
  5
B1
330
1F
100
AcDbEntity
  8
0
  6
Continuous
 62
     7
370
    25
100
AcDbCircle
 10
91.7204999206
 20
668.2703572087
 30
0.0
 40
15.7818950750669
100
AcDbArc
 50
359.3169510912
 51
45.5039316946
  0
ARC
  5
B2
330
1F
100
AcDbEntity
  8
0
  6
Continuous
 62
     7
370
    25
100
AcDbCircle
 10
92.393361715
 20
668.228246021
 30
0.0
 40
15.84414846840286
100
AcDbArc
 50
134.5337120312
 51
180.540529014
  0
LINE
  5
B3
330
1F
100
AcDbEntity
  8
0
  6
Continuous
 62
     7
370
    25
100
AcDbLine
 10
107.5314039323
 20
667.1186963867
 30
0.0
 11
107.5314039323
 21
668.084622213
 31
0.0
  0
LINE
  5
B4
330
1F
100
AcDbEntity
  8
0
  6
Continuous
 62
     7
370
    25
100
AcDbLine
 10
76.5314039323
 20
668.084622213
 30
0.0
 11
76.5314039323
 21
667.1186963867
 31
0.0
  0
ARC
  5
B5
330
1F
100
AcDbEntity
  8
0
  6
Continuous
 62
     7
370
    25
100
AcDbCircle
 10
0.2177739265
 20
-518.2614978416
 30
0.0
 40
15.73800392325694
100
AcDbArc
 50
314.4273736796
 51
0.7801925335
  0
ARC
  5
B6
330
1F
100
AcDbEntity
  8
0
  6
Continuous
 62
     7
370
    25
100
AcDbCircle
 10
1.0334938654
 20
-518.1392368858
 30
0.0
 40
16.0307750934703
100
AcDbArc
 50
179.6833624467
 51
225.1838181982
  0
LINE
  5
B7
330
1F
100
AcDbEntity
  8
0
  6
Continuous
 62
     7
370
    25
100
AcDbLine
 10
-15.015550811
 20
-517.0788717048
 30
0.0
 11
-15.015550811
 21
-518.0447975311
 31
0.0
  0
LINE
  5
B8
330
1F
100
AcDbEntity
  8
0
  6
Continuous
 62
     7
370
    25
100
AcDbLine
 10
15.984449189
 20
-518.0447975311
 30
0.0
 11
15.984449189
 21
-517.0788717048
 31
0.0
  0
ARC
  5
B9
330
1F
100
AcDbEntity
  8
0
  6
Continuous
 62
     7
370
    25
100
AcDbCircle
 10
92.0314039323
 20
653.2184200428
 30
0.0
 40
29.89062499999994
100
AcDbArc
 50
76.1990602276
 51
103.8009397724
  0
ARC
  5
BA
330
1F
100
AcDbEntity
  8
0
  6
Continuous
 62
     7
370
    25
100
AcDbCircle
 10
101.6324000699
 20
679.8619048393
 30
0.0
 40
1.13369492864646
100
AcDbArc
 50
351.5713713626
 51
50.0601016431
  0
ARC
  5
BB
330
1F
100
AcDbEntity
  8
0
  6
Continuous
 62
     7
370
    25
100
AcDbCircle
 10
82.462154628
 20
679.8848068452
 30
0.0
 40
1.15237936611933
100
AcDbArc
 50
132.1719861222
 51
181.0321538244
  0
LINE
  5
BC
330
1F
100
AcDbEntity
  8
0
  6
Continuous
 62
     7
370
    25
100
AcDbLine
 10
102.7814039323
 20
679.1927692153
 30
0.0
 11
102.7814039323
 21
679.7579807308
 31
0.0
  0
LINE
  5
BD
330
1F
100
AcDbEntity
  8
0
  6
Continuous
 62
     7
370
    25
100
AcDbLine
 10
81.2814039323
 20
679.7579807308
 30
0.0
 11
81.2814039323
 21
679.1927692153
 31
0.0
  0
ARC
  5
BE
330
1F
100
AcDbEntity
  8
0
  6
Continuous
 62
     7
370
    25
100
AcDbCircle
 10
242.0314039322
 20
653.2184200428
 30
0.0
 40
29.89062499999989
100
AcDbArc
 50
76.1990602276
 51
90.0
  0
ARC
  5
BF
330
1F
100
AcDbEntity
  8
0
  6
Continuous
 62
     7
370
    25
100
AcDbCircle
 10
242.0314039322
 20
653.2184200428
 30
0.0
 40
29.89062499999994
100
AcDbArc
 50
90.0
 51
103.8009397724
  0
ARC
  5
C0
330
1F
100
AcDbEntity
  8
0
  6
Continuous
 62
     7
370
    25
100
AcDbCircle
 10
232.8327194483
 20
679.7631471119
 30
0.0
 40
1.524830650750909
100
AcDbArc
 50
118.916467388
 51
177.8545773461
  0
ARC
  5
C1
330
1F
100
AcDbEntity
  8
0
  6
Continuous
 62
     7
370
    25
100
AcDbCircle
 10
251.3332746553
 20
679.8032980833
 30
0.0
 40
1.427620106550489
100
AcDbArc
 50
353.9129017879
 51
63.1180827448
  0
LINE
  5
C2
330
1F
100
AcDbEntity
  8
0
  6
Continuous
 62
     7
370
    25
100
AcDbLine
 10
252.7814039322
 20
679.1927692153
 30
0.0
 11
252.7814039322
 21
679.7579807308
 31
0.0
  0
LINE
  5
C3
330
1F
100
AcDbEntity
  8
0
  6
Continuous
 62
     7
370
    25
100
AcDbLine
 10
231.2814039322
 20
679.7579807308
 30
0.0
 11
231.2814039322
 21
679.1927692153
 31
0.0
  0
ARC
  5
C4
330
1F
100
AcDbEntity
  8
0
  6
Continuous
 62
     7
370
    25
100
AcDbCircle
 10
333.5783586755
 20
-503.1785953608
 30
0.0
 40
29.89062499999998
100
AcDbArc
 50
256.1990602276
 51
283.8009397724
  0
ARC
  5
C5
330
1F
100
AcDbEntity
  8
0
  6
Continuous
 62
     7
370
    25
100
AcDbCircle
 10
323.9773625379
 20
-529.8220801574
 30
0.0
 40
1.133694928646358
100
AcDbArc
 50
171.5713713626
 51
230.0601016431
  0
ARC
  5
C6
330
1F
100
AcDbEntity
  8
0
  6
Continuous
 62
     7
370
    25
100
AcDbCircle
 10
343.1476079798
 20
-529.8449821633
 30
0.0
 40
1.152379366118085
100
AcDbArc
 50
312.1719861221
 51
1.0321538245
  0
LINE
  5
C7
330
1F
100
AcDbEntity
  8
0
  6
Continuous
 62
     7
370
    25
100
AcDbLine
 10
322.8283586755
 20
-529.1529445334
 30
0.0
 11
322.8283586755
 21
-529.7181560489
 31
0.0
  0
LINE
  5
C8
330
1F
100
AcDbEntity
  8
0
  6
Continuous
 62
     7
370
    25
100
AcDbLine
 10
344.3283586755
 20
-529.7181560489
 30
0.0
 11
344.3283586755
 21
-529.1529445334
 31
0.0
  0
ARC
  5
C9
330
1F
100
AcDbEntity
  8
0
  6
Continuous
 62
     7
370
    25
100
AcDbCircle
 10
333.5783586755
 20
697.7805323503
 30
0.0
 40
29.89062499999989
100
AcDbArc
 50
76.1990602276
 51
90.0
  0
ARC
  5
CA
330
1F
100
AcDbEntity
  8
0
  6
Continuous
 62
     7
370
    25
100
AcDbCircle
 10
333.5783586755
 20
697.7805323503
 30
0.0
 40
29.89062499999994
100
AcDbArc
 50
90.0
 51
103.8009397724
  0
ARC
  5
CB
330
1F
100
AcDbEntity
  8
0
  6
Continuous
 62
     7
370
    25
100
AcDbCircle
 10
324.3796741916
 20
724.3252594195
 30
0.0
 40
1.524830650750854
100
AcDbArc
 50
118.916467388
 51
177.8545773461
  0
ARC
  5
CC
330
1F
100
AcDbEntity
  8
0
  6
Continuous
 62
     7
370
    25
100
AcDbCircle
 10
342.8802293986
 20
724.3654103909
 30
0.0
 40
1.427620106550789
100
AcDbArc
 50
353.9129017879
 51
63.1180827448
  0
LINE
  5
CD
330
1F
100
AcDbEntity
  8
0
  6
Continuous
 62
     7
370
    25
100
AcDbLine
 10
344.3283586755
 20
723.7548815229
 30
0.0
 11
344.3283586755
 21
724.3200930384
 31
0.0
  0
LINE
  5
CE
330
1F
100
AcDbEntity
  8
0
  6
Continuous
 62
     7
370
    25
100
AcDbLine
 10
322.8283586755
 20
724.3200930384
 30
0.0
 11
322.8283586755
 21
723.7548815229
 31
0.0
  0
ARC
  5
CF
330
1F
100
AcDbEntity
  8
0
  6
Continuous
 62
     7
370
    25
100
AcDbCircle
 10
242.0314039322
 20
-458.6164830533
 30
0.0
 40
29.89062499999999
100
AcDbArc
 50
256.1990602276
 51
283.8009397724
  0
ARC
  5
D0
330
1F
100
AcDbEntity
  8
0
  6
Continuous
 62
     7
370
    25
100
AcDbCircle
 10
232.4304077946
 20
-485.2599678499
 30
0.0
 40
1.133694928646388
100
AcDbArc
 50
171.5713713626
 51
230.0601016431
  0
ARC
  5
D1
330
1F
100
AcDbEntity
  8
0
  6
Continuous
 62
     7
370
    25
100
AcDbCircle
 10
251.6006532366
 20
-485.2828698557
 30
0.0
 40
1.152379366119973
100
AcDbArc
 50
312.1719861222
 51
1.0321538244
  0
LINE
  5
D2
330
1F
100
AcDbEntity
  8
0
  6
Continuous
 62
     7
370
    25
100
AcDbLine
 10
231.2814039322
 20
-484.5908322258
 30
0.0
 11
231.2814039322
 21
-485.1560437414
 31
0.0
  0
LINE
  5
D3
330
1F
100
AcDbEntity
  8
0
  6
Continuous
 62
     7
370
    25
100
AcDbLine
 10
252.7814039322
 20
-485.1560437414
 30
0.0
 11
252.7814039322
 21
-484.5908322258
 31
0.0
  0
ARC
  5
D4
330
1F
100
AcDbEntity
  8
0
  6
Continuous
 62
     7
370
    25
100
AcDbCircle
 10
92.0314039323
 20
-458.6164830533
 30
0.0
 40
29.89062499999999
100
AcDbArc
 50
256.1990602276
 51
270.0
  0
ARC
  5
D5
330
1F
100
AcDbEntity
  8
0
  6
Continuous
 62
     7
370
    25
100
AcDbCircle
 10
92.0314039323
 20
-458.6164830533
 30
0.0
 40
29.89062499999994
100
AcDbArc
 50
270.0
 51
283.8009397724
  0
ARC
  5
D6
330
1F
100
AcDbEntity
  8
0
  6
Continuous
 62
     7
370
    25
100
AcDbCircle
 10
101.2300884162
 20
-485.1612101224
 30
0.0
 40
1.52483065075032
100
AcDbArc
 50
298.916467388
 51
357.8545773461
  0
ARC
  5
D7
330
1F
100
AcDbEntity
  8
0
  6
Continuous
 62
     7
370
    25
100
AcDbCircle
 10
82.7295332092
 20
-485.2013610938
 30
0.0
 40
1.427620106550518
100
AcDbArc
 50
173.9129017879
 51
243.1180827448
  0
LINE
  5
D8
330
1F
100
AcDbEntity
  8
0
  6
Continuous
 62
     7
370
    25
100
AcDbLine
 10
81.2814039323
 20
-484.5908322258
 30
0.0
 11
81.2814039323
 21
-485.1560437414
 31
0.0
  0
LINE
  5
D9
330
1F
100
AcDbEntity
  8
0
  6
Continuous
 62
     7
370
    25
100
AcDbLine
 10
102.7814039323
 20
-485.1560437414
 30
0.0
 11
102.7814039323
 21
-484.5908322258
 31
0.0
  0
ARC
  5
DA
330
1F
100
AcDbEntity
  8
0
  6
Continuous
 62
     7
370
    25
100
AcDbCircle
 10
0.484449189
 20
697.7805323503
 30
0.0
 40
29.89062499999994
100
AcDbArc
 50
76.1990602276
 51
103.8009397724
  0
ARC
  5
DB
330
1F
100
AcDbEntity
  8
0
  6
Continuous
 62
     7
370
    25
100
AcDbCircle
 10
10.0854453266
 20
724.4240171469
 30
0.0
 40
1.133694928646544
100
AcDbArc
 50
351.5713713626
 51
50.0601016431
  0
ARC
  5
DC
330
1F
100
AcDbEntity
  8
0
  6
Continuous
 62
     7
370
    25
100
AcDbCircle
 10
-9.0848001153
 20
724.4469191528
 30
0.0
 40
1.152379366119368
100
AcDbArc
 50
132.1719861222
 51
181.0321538244
  0
LINE
  5
DD
330
1F
100
AcDbEntity
  8
0
  6
Continuous
 62
     7
370
    25
100
AcDbLine
 10
11.234449189
 20
723.7548815229
 30
0.0
 11
11.234449189
 21
724.3200930384
 31
0.0
  0
LINE
  5
DE
330
1F
100
AcDbEntity
  8
0
  6
Continuous
 62
     7
370
    25
100
AcDbLine
 10
-10.265550811
 20
724.3200930384
 30
0.0
 11
-10.265550811
 21
723.7548815229
 31
0.0
  0
ARC
  5
DF
330
1F
100
AcDbEntity
  8
0
  6
Continuous
 62
     7
370
    25
100
AcDbCircle
 10
0.484449189
 20
-503.1785953608
 30
0.0
 40
29.89062499999999
100
AcDbArc
 50
256.1990602276
 51
270.0
  0
ARC
  5
E0
330
1F
100
AcDbEntity
  8
0
  6
Continuous
 62
     7
370
    25
100
AcDbCircle
 10
0.484449189
 20
-503.1785953608
 30
0.0
 40
29.89062499999994
100
AcDbArc
 50
270.0
 51
283.8009397724
  0
ARC
  5
E1
330
1F
100
AcDbEntity
  8
0
  6
Continuous
 62
     7
370
    25
100
AcDbCircle
 10
9.6831336729
 20
-529.72332243
 30
0.0
 40
1.524830650750642
100
AcDbArc
 50
298.916467388
 51
357.8545773461
  0
ARC
  5
E2
330
1F
100
AcDbEntity
  8
0
  6
Continuous
 62
     7
370
    25
100
AcDbCircle
 10
-8.8174215341
 20
-529.7634734014
 30
0.0
 40
1.427620106550636
100
AcDbArc
 50
173.9129017879
 51
243.1180827448
  0
LINE
  5
E3
330
1F
100
AcDbEntity
  8
0
  6
Continuous
 62
     7
370
    25
100
AcDbLine
 10
-10.265550811
 20
-529.1529445334
 30
0.0
 11
-10.265550811
 21
-529.7181560489
 31
0.0
  0
LINE
  5
E4
330
1F
100
AcDbEntity
  8
0
  6
Continuous
 62
     7
370
    25
100
AcDbLine
 10
11.234449189
 20
-529.7181560489
 30
0.0
 11
11.234449189
 21
-529.1529445334
 31
0.0
  0
LWPOLYLINE
  5
E5
330
1F
100
AcDbEntity
  8
0
  6
Continuous
 62
     7
370
    25
100
AcDbPolyline
 90
       10
 70
   128
 43
0.0
 10
128.5718349368
 20
-80.5705918171
 10
128.566798636
 20
-80.5608279807
 10
128.6146242219
 20
-80.6999539972
 10
128.7079673677
 20
-81.049189465
 10
128.8288257294
 20
-81.6403634456
 10
128.9581791772
 20
-82.4792926869
 10
129.0789907097
 20
-83.5435237664
 10
129.1785582864
 20
-84.7930846209
 10
129.2485487732
 20
-86.1809949571
 10
129.2714368164
 20
-87.1345451326
  0
LWPOLYLINE
  5
E6
330
1F
100
AcDbEntity
  8
0
  6
Continuous
 62
     7
370
    25
100
AcDbPolyline
 90
        8
 70
   128
 43
0.0
 10
129.1568038595
 20
-92.2860673878
 10
129.0609238518
 20
-93.4862970926
 10
128.9263453637
 20
-94.6818973041
 10
128.7741830237
 20
-95.6786971103
 10
128.6362890715
 20
-96.3612298387
 10
128.5218126906
 20
-96.7958511464
 10
128.4561426232
 20
-96.9879838607
 10
128.4596921397
 20
-96.9822921803
  0
LWPOLYLINE
  5
E7
330
1F
100
AcDbEntity
  8
0
  6
Continuous
 62
     7
370
    25
100
AcDbPolyline
 90
       14
 70
   128
 43
0.0
 10
131.7028439934
 20
-75.921342502
 10
130.8438871575
 20
-75.795490926
 10
129.9447782434
 20
-75.9120605118
 10
129.2025649857
 20
-76.2179928314
 10
128.6116690278
 20
-76.6384746025
 10
128.1515333504
 20
-77.1259699694
 10
127.7899204888
 20
-77.6648047927
 10
127.4818745921
 20
-78.2988541441
 10
127.174828972
 20
-79.1876259923
 10
126.8906634103
 20
-80.3655511746
 10
126.675948353
 20
-81.6057706749
 10
126.4917617033
 20
-83.0662927691
 10
126.3540588095
 20
-84.6070635247
 10
126.3514323553
 20
-84.6513074766
  0
LWPOLYLINE
  5
E8
330
1F
100
AcDbEntity
  8
0
  6
Continuous
 62
     7
370
    25
100
AcDbPolyline
 90
       15
 70
   128
 43
0.0
 10
126.2830396704
 20
-92.665735461
 10
126.288791532
 20
-92.7984787944
 10
126.3988494917
 20
-94.3170190514
 10
126.5500589716
 20
-95.7291339276
 10
126.7460964421
 20
-97.0218418013
 10
127.0023571348
 20
-98.2074152396
 10
127.3897110129
 20
-99.3765606596
 10
127.746294377
 20
-100.074221342
 10
128.1601269509
 20
-100.6348929249
 10
128.7173321344
 20
-101.1461687678
 10
129.4234333239
 20
-101.5456821323
 10
130.2425817287
 20
-101.7663602609
 10
131.1959823672
 20
-101.7520123497
 10
132.0026506895
 20
-101.5096021242
 10
132.0314039323
 20
-101.4926466868
  0
LINE
  5
E9
330
1F
100
AcDbEntity
  8
0
  6
Continuous
 62
     7
370
    25
100
AcDbLine
 10
132.0314039323
 20
-76.0616600727
 30
0.0
 11
131.7028439934
 21
-75.921342502
 31
0.0
  0
LINE
  5
EA
330
1F
100
AcDbEntity
  8
0
  6
Continuous
 62
     7
370
    25
100
AcDbLine
 10
131.7028439934
 20
268.6053247136
 30
0.0
 11
132.0314039323
 21
268.7505883954
 31
0.0
  0
LWPOLYLINE
  5
EB
330
1F
100
AcDbEntity
  8
0
  6
Continuous
 62
     7
370
    25
100
AcDbPolyline
 90
       15
 70
   128
 43
0.0
 10
132.0314039323
 20
294.1538570533
 10
131.7380740109
 20
294.2984385538
 10
130.9030052329
 20
294.4704740661
 10
129.9704660993
 20
294.4021951921
 10
129.1924170439
 20
294.1233080435
 10
128.5718597302
 20
293.7168509926
 10
128.0888496425
 20
293.2359023756
 10
127.7143158197
 20
292.7055156189
 10
127.4062050535
 20
292.0990920432
 10
127.1154203507
 20
291.2939526196
 10
126.7973493829
 20
289.9799851088
 10
126.5943978114
 20
288.7462973011
 10
126.4255060212
 20
287.2899869692
 10
126.3051106712
 20
285.7547922311
 10
126.2856405375
 20
285.3492425766
  0
LWPOLYLINE
  5
EC
330
1F
100
AcDbEntity
  8
0
  6
Continuous
 62
     7
370
    25
100
AcDbPolyline
 90
       13
 70
   128
 43
0.0
 10
126.3537940696
 20
277.3345136571
 10
126.4622806743
 20
276.0365103953
 10
126.629376862
 20
274.6157063893
 10
126.839007062
 20
273.3144285096
 10
127.1047667667
 20
272.1241586925
 10
127.4880729687
 20
270.9679229662
 10
127.8287179665
 20
270.2820604826
 10
128.225229889
 20
269.7194092702
 10
128.7577688034
 20
269.2004099942
 10
129.4398182112
 20
268.7807824292
 10
130.2435256909
 20
268.5286818899
 10
131.1047417669
 20
268.4929441928
 10
131.7028439934
 20
268.6053247136
  0
LWPOLYLINE
  5
ED
330
1F
100
AcDbEntity
  8
0
  6
Continuous
 62
     7
370
    25
100
AcDbPolyline
 90
        9
 70
   128
 43
0.0
 10
128.4581587142
 20
289.6689935634
 10
128.4572847566
 20
289.6691159806
 10
128.5181251362
 20
289.4918571869
 10
128.6240178784
 20
289.0973686556
 10
128.7570475207
 20
288.4576834178
 10
128.8983057177
 20
287.5728234268
 10
129.0311426685
 20
286.4695547646
 10
129.1432018924
 20
285.1897651118
 10
129.1561643571
 20
284.9698750991
  0
LWPOLYLINE
  5
EE
330
1F
100
AcDbEntity
  8
0
  6
Continuous
 62
     7
370
    25
100
AcDbPolyline
 90
       10
 70
   128
 43
0.0
 10
129.2712992828
 20
279.8184898156
 10
129.262017083
 20
279.2687962197
 10
129.2001971265
 20
277.8326094854
 10
129.105051301
 20
276.5104706578
 10
128.9822447972
 20
275.3492041666
 10
128.84147866
 20
274.396064706
 10
128.7155297004
 20
273.7654806196
 10
128.614978823
 20
273.3850833903
 10
128.5655271124
 20
273.2416926692
 10
128.5713480923
 20
273.2529100979
  0
ARC
  5
EF
330
1F
100
AcDbEntity
  8
0
  6
Continuous
 62
     7
370
    25
100
AcDbCircle
 10
200.1581731474
 20
281.7348949565
 30
0.0
 40
2.307666463141445
100
AcDbArc
 50
324.2665226563
 51
37.5778171842
  0
ARC
  5
F0
330
1F
100
AcDbEntity
  8
0
  6
Continuous
 62
     7
370
    25
100
AcDbCircle
 10
132.9928999757
 20
269.041618793
 30
0.0
 40
11.40832791455877
100
AcDbArc
 50
94.8346342633
 51
100.9400600287
  0
ARC
  5
F1
330
1F
100
AcDbEntity
  8
0
  6
Continuous
 62
     7
370
    25
100
AcDbCircle
 10
133.2003738595
 20
268.6190020305
 30
0.0
 40
16.85595858117245
100
AcDbArc
 50
93.9766855785
 51
102.6756845244
  0
LINE
  5
F2
330
1F
100
AcDbEntity
  8
0
  6
Continuous
 62
     7
370
    25
100
AcDbLine
 10
129.5016340844
 20
285.0641430686
 30
0.0
 11
128.0416549608
 21
284.665760065
 31
0.0
  0
LINE
  5
F3
330
1F
100
AcDbEntity
  8
0
  6
Continuous
 62
     7
370
    25
100
AcDbLine
 10
129.3578781688
 20
279.8421145073
 30
0.0
 11
130.8178572925
 21
280.2404975109
 31
0.0
  0
LINE
  5
F4
330
1F
100
AcDbEntity
  8
0
  6
Continuous
 62
     7
370
    25
100
AcDbLine
 10
127.9890431005
 20
284.6514039208
 30
0.0
 11
126.4764521165
 21
284.2386647728
 31
0.0
  0
LINE
  5
F5
330
1F
100
AcDbEntity
  8
0
  6
Continuous
 62
     7
370
    25
100
AcDbLine
 10
127.7926753246
 20
279.4150192151
 30
0.0
 11
129.3052663085
 21
279.827758363
 31
0.0
  0
LWPOLYLINE
  5
F6
330
1F
100
AcDbEntity
  8
0
  6
Continuous
 62
     7
370
    25
100
AcDbPolyline
 90
       18
 70
   128
 43
0.0
 10
126.4764521165
 20
284.2386647728
 10
126.0053554427
 20
284.0754639047
 10
125.6037738832
 20
283.86098098
 10
125.1880406182
 20
283.5277691264
 10
124.792110682
 20
283.0245316008
 10
124.5141349609
 20
282.3642493592
 10
124.4342849493
 20
281.6123293777
 10
124.5969278456
 20
280.8274887192
 10
124.9168363272
 20
280.2377517264
 10
125.3122190294
 20
279.8090096537
 10
125.7280683135
 20
279.5167322913
 10
126.1160135391
 20
279.3365162463
 10
126.4589322309
 20
279.2320060102
 10
126.7938072302
 20
279.1669651803
 10
127.2417769191
 20
279.1165493998
 10
128.0078862387
 20
279.077423569
 10
128.8813640372
 20
279.0655128841
 10
129.2534170196
 20
279.0690015638
  0
ARC
  5
F7
330
1F
100
AcDbEntity
  8
0
  6
Continuous
 62
     7
370
    25
100
AcDbCircle
 10
133.2214161055
 20
-75.7782176473
 30
0.0
 40
17.01356213804659
100
AcDbArc
 50
257.3710519204
 51
265.989176622
  0
ARC
  5
F8
330
1F
100
AcDbEntity
  8
0
  6
Continuous
 62
     7
370
    25
100
AcDbCircle
 10
132.9376287883
 20
-76.7190835209
 30
0.0
 40
11.04294403933414
100
AcDbArc
 50
258.9717610164
 51
265.292802776
  0
LINE
  5
F9
330
1F
100
AcDbEntity
  8
0
  6
Continuous
 62
     7
370
    25
100
AcDbLine
 10
130.8178572925
 20
-87.5565152993
 30
0.0
 11
129.3578781688
 21
-87.1581322957
 31
0.0
  0
LINE
  5
FA
330
1F
100
AcDbEntity
  8
0
  6
Continuous
 62
     7
370
    25
100
AcDbLine
 10
128.0416549608
 20
-91.9817778534
 30
0.0
 11
129.5016340844
 21
-92.3801608571
 31
0.0
  0
LINE
  5
FB
330
1F
100
AcDbEntity
  8
0
  6
Continuous
 62
     7
370
    25
100
AcDbLine
 10
129.3052663085
 20
-87.1437761514
 30
0.0
 11
127.7926753246
 21
-86.7310370035
 31
0.0
  0
LINE
  5
FC
330
1F
100
AcDbEntity
  8
0
  6
Continuous
 62
     7
370
    25
100
AcDbLine
 10
126.4764521165
 20
-91.5546825612
 30
0.0
 11
127.9890431005
 21
-91.9674217091
 31
0.0
  0
LWPOLYLINE
  5
FD
330
1F
100
AcDbEntity
  8
0
  6
Continuous
 62
     7
370
    25
100
AcDbPolyline
 90
       18
 70
   128
 43
0.0
 10
129.2534468685
 20
-86.3850569471
 10
128.8142788503
 20
-86.3816716534
 10
127.92422889
 20
-86.3960068687
 10
127.1640501869
 20
-86.4392361515
 10
126.739725028
 20
-86.4915178607
 10
126.3465384714
 20
-86.577447228
 10
125.9471696993
 20
-86.7218466335
 10
125.5091306006
 20
-86.9713539296
 10
125.0521375387
 20
-87.3839614255
 10
124.670795457
 20
-87.9694466402
 10
124.4566782834
 20
-88.6874997062
 10
124.4791978125
 20
-89.5277976016
 10
124.7064370581
 20
-90.1857804451
 10
125.0401918787
 20
-90.6850550557
 10
125.4204661147
 20
-91.0471209245
 10
125.7949767968
 20
-91.2897257318
 10
126.1317687832
 20
-91.4430672895
 10
126.4764521165
 20
-91.5546825612
  0
ARC
  5
FE
330
1F
100
AcDbEntity
  8
0
  6
Continuous
 62
     7
370
    25
100
AcDbCircle
 10
200.1464932294
 20
-89.0472111647
 30
0.0
 40
2.324066139545398
100
AcDbArc
 50
324.1976712874
 51
35.8023287126
  0
ARC
  5
FF
330
1F
100
AcDbEntity
  8
0
  6
Continuous
 62
     7
370
    25
100
AcDbCircle
 10
125.7131012437
 20
407.5984454349
 30
0.0
 40
122.2866731996661
100
AcDbArc
 50
264.9787006301
 51
271.2767297845
  0
ARC
  5
100
330
1F
100
AcDbEntity
  8
0
  6
Continuous
 62
     7
370
    25
100
AcDbCircle
 10
120.0176063237
 20
245.5747284668
 30
0.0
 40
40.68060706470698
100
AcDbArc
 50
89.0008015279
 51
98.524217113
  0
ARC
  5
101
330
1F
100
AcDbEntity
  8
0
  6
Continuous
 62
     7
370
    25
100
AcDbCircle
 10
125.3528108293
 20
165.632414901
 30
0.0
 40
111.7520262151427
100
AcDbArc
 50
88.4181074655
 51
95.312319814
  0
ARC
  5
102
330
1F
100
AcDbEntity
  8
0
  6
Continuous
 62
     7
370
    25
100
AcDbCircle
 10
120.2829578744
 20
321.0527514187
 30
0.0
 40
44.62103715037031
100
AcDbArc
 50
261.889398216
 51
270.562129493
  0
ARC
  5
103
330
1F
100
AcDbEntity
  8
0
  6
Continuous
 62
     7
370
    25
100
AcDbCircle
 10
115.0426207369
 20
281.3419911058
 30
0.0
 40
4.585834743747716
100
AcDbArc
 50
96.0877233058
 51
263.9122766942
  0
LINE
  5
104
330
1F
100
AcDbEntity
  8
0
  6
Continuous
 62
     7
370
    25
100
AcDbLine
 10
128.437806607
 20
277.3418512268
 30
0.0
 11
129.1647408876
 21
277.3399124086
 31
0.0
  0
LINE
  5
105
330
1F
100
AcDbEntity
  8
0
  6
Continuous
 62
     7
370
    25
100
AcDbLine
 10
129.129647348
 20
285.3445668769
 30
0.0
 11
128.437806607
 21
285.3421309848
 31
0.0
  0
ARC
  5
106
330
1F
100
AcDbEntity
  8
0
  6
Continuous
 62
     7
370
    25
100
AcDbCircle
 10
125.7131012437
 20
37.5984454348
 30
0.0
 40
122.2866731996053
100
AcDbArc
 50
264.9787006301
 51
271.2767297845
  0
ARC
  5
107
330
1F
100
AcDbEntity
  8
0
  6
Continuous
 62
     7
370
    25
100
AcDbCircle
 10
120.0176063237
 20
-124.4252715331
 30
0.0
 40
40.68060706468818
100
AcDbArc
 50
89.0008015279
 51
98.524217113
  0
ARC
  5
108
330
1F
100
AcDbEntity
  8
0
  6
Continuous
 62
     7
370
    25
100
AcDbCircle
 10
125.3528108293
 20
-204.367585099
 30
0.0
 40
111.7520262151276
100
AcDbArc
 50
88.4181074655
 51
95.312319814
  0
ARC
  5
109
330
1F
100
AcDbEntity
  8
0
  6
Continuous
 62
     7
370
    25
100
AcDbCircle
 10
120.2829578744
 20
-48.9472485813
 30
0.0
 40
44.62103715035668
100
AcDbArc
 50
261.889398216
 51
270.562129493
  0
ARC
  5
10A
330
1F
100
AcDbEntity
  8
0
  6
Continuous
 62
     7
370
    25
100
AcDbCircle
 10
115.0426207369
 20
-88.6580088942
 30
0.0
 40
4.585834743747764
100
AcDbArc
 50
96.0877233058
 51
263.9122766942
  0
LINE
  5
10B
330
1F
100
AcDbEntity
  8
0
  6
Continuous
 62
     7
370
    25
100
AcDbLine
 10
128.437806607
 20
-92.6581487732
 30
0.0
 11
129.1269334175
 21
-92.6599867545
 31
0.0
  0
LINE
  5
10C
330
1F
100
AcDbEntity
  8
0
  6
Continuous
 62
     7
370
    25
100
AcDbLine
 10
129.1675792904
 20
-84.6552995691
 30
0.0
 11
128.437806607
 21
-84.6578690152
 31
0.0
  0
ARC
  5
10D
330
1F
100
AcDbEntity
  8
0
  6
Continuous
 62
     7
370
    25
100
AcDbCircle
 10
203.7368517143
 20
-168.128957623
 30
0.0
 40
75.4709179749336
100
AcDbArc
 50
83.816707339
 51
91.2948468214
  0
ARC
  5
10E
330
1F
100
AcDbEntity
  8
0
  6
Continuous
 62
     7
370
    25
100
AcDbCircle
 10
206.8580068902
 20
-52.8907462552
 30
0.0
 40
40.68060706470097
100
AcDbArc
 50
269.0008015279
 51
278.524217113
  0
ARC
  5
10F
330
1F
100
AcDbEntity
  8
0
  6
Continuous
 62
     7
370
    25
100
AcDbCircle
 10
211.832992477
 20
-88.6580088942
 30
0.0
 40
4.585834743747763
100
AcDbArc
 50
276.0877233058
 51
83.9122766942
  0
ARC
  5
110
330
1F
100
AcDbEntity
  8
0
  6
Continuous
 62
     7
370
    25
100
AcDbCircle
 10
203.1593554028
 20
5.0171953885
 30
0.0
 40
89.66171608427983
100
AcDbArc
 50
269.279195555
 51
275.5746530038
  0
ARC
  5
111
330
1F
100
AcDbEntity
  8
0
  6
Continuous
 62
     7
370
    25
100
AcDbCircle
 10
206.5926553395
 20
-128.3687692071
 30
0.0
 40
44.62103715035779
100
AcDbArc
 50
81.889398216
 51
90.562129493
  0
ARC
  5
112
330
1F
100
AcDbEntity
  8
0
  6
Continuous
 62
     7
370
    25
100
AcDbCircle
 10
203.7368517143
 20
201.8710423771
 30
0.0
 40
75.47091797488423
100
AcDbArc
 50
83.816707339
 51
91.2948468214
  0
ARC
  5
113
330
1F
100
AcDbEntity
  8
0
  6
Continuous
 62
     7
370
    25
100
AcDbCircle
 10
206.8580068902
 20
317.1092537447
 30
0.0
 40
40.68060706467616
100
AcDbArc
 50
269.0008015279
 51
278.524217113
  0
ARC
  5
114
330
1F
100
AcDbEntity
  8
0
  6
Continuous
 62
     7
370
    25
100
AcDbCircle
 10
211.832992477
 20
281.3419911058
 30
0.0
 40
4.585834743747774
100
AcDbArc
 50
276.0877233058
 51
83.9122766942
  0
ARC
  5
115
330
1F
100
AcDbEntity
  8
0
  6
Continuous
 62
     7
370
    25
100
AcDbCircle
 10
203.1593554028
 20
375.0171953885
 30
0.0
 40
89.66171608430747
100
AcDbArc
 50
269.279195555
 51
275.5746530038
  0
ARC
  5
116
330
1F
100
AcDbEntity
  8
0
  6
Continuous
 62
     7
370
    25
100
AcDbCircle
 10
206.5926553395
 20
241.6312307929
 30
0.0
 40
44.62103715037189
100
AcDbArc
 50
81.889398216
 51
90.562129493
  0
LINE
  5
117
330
1F
100
AcDbEntity
  8
0
  6
Continuous
 62
     7
370
    25
100
AcDbLine
 10
368.7477078216
 20
629.0142388196
 30
0.0
 11
368.7477078216
 21
631.9043745504
 31
0.0
  0
LINE
  5
118
330
1F
100
AcDbEntity
  8
0
  6
Continuous
 62
     7
370
    25
100
AcDbLine
 10
-34.6848999571
 20
631.9043745504
 30
0.0
 11
-34.6848999571
 21
629.0142388196
 31
0.0
  0
LINE
  5
119
330
1F
100
AcDbEntity
  8
0
  6
Continuous
 62
     7
370
    25
100
AcDbLine
 10
368.7477078216
 20
-437.3024375609
 30
0.0
 11
368.7477078216
 21
-434.4123018301
 31
0.0
  0
LINE
  5
11A
330
1F
100
AcDbEntity
  8
0
  6
Continuous
 62
     7
370
    25
100
AcDbLine
 10
-34.6848999571
 20
-434.4123018301
 30
0.0
 11
-34.6848999571
 21
-437.3024375609
 31
0.0
  0
LINE
  5
11B
330
1F
100
AcDbEntity
  8
0
  6
Continuous
 62
     7
370
    25
100
AcDbLine
 10
253.8757295073
 20
-450.4346945332
 30
0.0
 11
1424.761534743
 21
-1020.3842346199
 31
0.0
  0
ELLIPSE
  5
11C
330
1F
100
AcDbEntity
  8
0
  6
Continuous
 62
     7
370
    25
100
AcDbEllipse
 10
1417.9661144389
 20
-1020.3842346199
 30
0.0
 11
6.325541598618429
 21
-3.079070143997342
 31
0.0
210
0.0
220
0.0
230
1.0
 40
0.8528618832
 41
5.231020672037017
 42
6.801816998832192
  0
LINE
  5
11D
330
1F
100
AcDbEntity
  8
0
  6
Continuous
 62
     7
370
    25
100
AcDbLine
 10
248.5780439501
 20
-456.9592985804
 30
0.0
 11
1418.8209411158
 21
-1026.5958917024
 31
0.0
  0
LINE
  5
11E
330
1F
100
AcDbEntity
  8
0
  6
Continuous
 62
     7
370
    25
100
AcDbLine
 10
253.8757295073
 20
-450.4346945332
 30
0.0
 11
253.8757295073
 21
-384.7517383455
 31
0.0
  0
LINE
  5
11F
330
1F
100
AcDbEntity
  8
0
  6
Continuous
 62
     7
370
    25
100
AcDbLine
 10
188.5376076357
 20
-465.2218549281
 30
0.0
 11
248.5780439501
 21
-456.9592985804
 31
0.0
  0
LINE
  5
120
330
1F
100
AcDbEntity
  8
0
  6
Continuous
 62
     7
370
    25
100
AcDbLine
 10
253.8757295073
 20
-384.7517383455
 30
0.0
 11
1415.0734990712
 21
-949.985454352
 31
0.0
  0
LINE
  5
121
330
1F
100
AcDbEntity
  8
0
  6
Continuous
 62
     7
370
    25
100
AcDbLine
 10
1424.761534743
 20
-1020.3842346199
 30
0.0
 11
1415.0734990712
 21
-949.985454352
 31
0.0
  0
LINE
  5
122
330
1F
100
AcDbEntity
  8
0
  6
Continuous
 62
     7
370
    25
100
AcDbLine
 10
1341.806177669
 20
-1026.5958917024
 30
0.0
 11
1418.8209411158
 21
-1026.5958917024
 31
0.0
  0
ELLIPSE
  5
123
330
1F
100
AcDbEntity
  8
0
  6
Continuous
 62
     7
370
    25
100
AcDbEllipse
 10
1408.278078767
 20
-949.985454352
 30
0.0
 11
6.325541598618657
 21
-3.079070143997569
 31
0.0
210
0.0
220
0.0
230
1.0
 40
0.8528618832
 41
0.5186316916527876
 42
1.570796326794881
  0
ELLIPSE
  5
124
330
1F
100
AcDbEntity
  8
0
  6
Continuous
 62
     7
370
    25
100
AcDbEllipse
 10
1340.9513509921
 20
-1020.3842346199
 30
0.0
 11
6.325541598618203
 21
-3.079070143997343
 31
0.0
210
0.0
220
0.0
230
1.0
 40
0.8528618832
 41
4.712388980384729
 42
5.231020672037143
  0
LINE
  5
125
330
1F
100
AcDbEntity
  8
0
  6
Continuous
 62
     7
370
    25
100
AcDbLine
 10
85.4847639144
 20
-456.9592985804
 30
0.0
 11
145.5252002288
 21
-465.2218549281
 31
0.0
  0
LINE
  5
126
330
1F
100
AcDbEntity
  8
0
  6
Continuous
 62
     7
370
    25
100
AcDbLine
 10
80.1870783572
 20
-384.7517383455
 30
0.0
 11
80.1870783572
 21
-450.4346945332
 31
0.0
  0
LINE
  5
127
330
1F
100
AcDbEntity
  8
0
  6
Continuous
 62
     7
370
    25
100
AcDbLine
 10
85.4847639144
 20
-456.9592985804
 30
0.0
 11
-1084.7581332513
 21
-1026.5958917024
 31
0.0
  0
ELLIPSE
  5
128
330
1F
100
AcDbEntity
  8
0
  6
Continuous
 62
     7
370
    25
100
AcDbEllipse
 10
-1083.9033065744
 20
-1020.3842346199
 30
0.0
 11
-6.325541598618203
 21
-3.079070143997343
 31
0.0
210
0.0
220
0.0
230
1.0
 40
0.8528618832
 41
5.76455361552705
 42
7.335349942322068
  0
LINE
  5
129
330
1F
100
AcDbEntity
  8
0
  6
Continuous
 62
     7
370
    25
100
AcDbLine
 10
80.1870783572
 20
-450.4346945332
 30
0.0
 11
-1090.6987268785
 21
-1020.3842346199
 31
0.0
  0
LINE
  5
12A
330
1F
100
AcDbEntity
  8
0
  6
Continuous
 62
     7
370
    25
100
AcDbLine
 10
-1081.0106912067
 20
-949.985454352
 30
0.0
 11
-1090.6987268785
 21
-1020.3842346199
 31
0.0
  0
LINE
  5
12B
330
1F
100
AcDbEntity
  8
0
  6
Continuous
 62
     7
370
    25
100
AcDbLine
 10
80.1870783572
 20
-384.7517383455
 30
0.0
 11
-1081.0106912067
 21
-949.985454352
 31
0.0
  0
LINE
  5
12C
330
1F
100
AcDbEntity
  8
0
  6
Continuous
 62
     7
370
    25
100
AcDbLine
 10
-1084.7581332513
 20
-1026.5958917024
 30
0.0
 11
-1007.7433698045
 21
-1026.5958917024
 31
0.0
  0
ELLIPSE
  5
12D
330
1F
100
AcDbEntity
  8
0
  6
Continuous
 62
     7
370
    25
100
AcDbEllipse
 10
-1074.2152709025
 20
-949.985454352
 30
0.0
 11
-6.32554159861843
 21
-3.079070143997569
 31
0.0
210
0.0
220
0.0
230
1.0
 40
0.8528618832
 41
4.712388980384675
 42
5.764553615526921
  0
ELLIPSE
  5
12E
330
1F
100
AcDbEntity
  8
0
  6
Continuous
 62
     7
370
    25
100
AcDbEllipse
 10
-1006.8885431276
 20
-1020.3842346199
 30
0.0
 11
-6.325541598618769
 21
-3.079070143997797
 31
0.0
210
0.0
220
0.0
230
1.0
 40
0.8528618832
 41
1.052164635142324
 42
1.570796326794835
  0
LINE
  5
12F
330
1F
100
AcDbEntity
  8
0
  6
Continuous
 62
     7
370
    25
100
AcDbLine
 10
248.5780439501
 20
651.5612355699
 30
0.0
 11
188.5376076357
 21
659.8237919176
 31
0.0
  0
LINE
  5
130
330
1F
100
AcDbEntity
  8
0
  6
Continuous
 62
     7
370
    25
100
AcDbLine
 10
253.8757295073
 20
579.353675335
 30
0.0
 11
253.8757295073
 21
645.0366315227
 31
0.0
  0
LINE
  5
131
330
1F
100
AcDbEntity
  8
0
  6
Continuous
 62
     7
370
    25
100
AcDbLine
 10
248.5780439501
 20
651.5612355699
 30
0.0
 11
1418.8209411158
 21
1221.1978286918
 31
0.0
  0
ELLIPSE
  5
132
330
1F
100
AcDbEntity
  8
0
  6
Continuous
 62
     7
370
    25
100
AcDbEllipse
 10
1417.9661144389
 20
1214.9861716094
 30
0.0
 11
6.325541598618884
 21
3.079070143997342
 31
0.0
210
0.0
220
0.0
230
1.0
 40
0.8528618832
 41
5.764553615527038
 42
7.335349942321997
  0
LINE
  5
133
330
1F
100
AcDbEntity
  8
0
  6
Continuous
 62
     7
370
    25
100
AcDbLine
 10
253.8757295073
 20
645.0366315227
 30
0.0
 11
1424.7615347431
 21
1214.9861716094
 31
0.0
  0
LINE
  5
134
330
1F
100
AcDbEntity
  8
0
  6
Continuous
 62
     7
370
    25
100
AcDbLine
 10
1415.0734990712
 20
1144.5873913415
 30
0.0
 11
1424.7615347431
 21
1214.9861716094
 31
0.0
  0
LINE
  5
135
330
1F
100
AcDbEntity
  8
0
  6
Continuous
 62
     7
370
    25
100
AcDbLine
 10
253.8757295073
 20
579.353675335
 30
0.0
 11
1415.0734990712
 21
1144.5873913415
 31
0.0
  0
LINE
  5
136
330
1F
100
AcDbEntity
  8
0
  6
Continuous
 62
     7
370
    25
100
AcDbLine
 10
1418.8209411158
 20
1221.1978286918
 30
0.0
 11
1341.806177669
 21
1221.1978286918
 31
0.0
  0
ELLIPSE
  5
137
330
1F
100
AcDbEntity
  8
0
  6
Continuous
 62
     7
370
    25
100
AcDbEllipse
 10
1408.278078767
 20
1144.5873913415
 30
0.0
 11
6.325541598618429
 21
3.079070143997342
 31
0.0
210
0.0
220
0.0
230
1.0
 40
0.8528618832
 41
4.712388980384722
 42
5.764553615526988
  0
ELLIPSE
  5
138
330
1F
100
AcDbEntity
  8
0
  6
Continuous
 62
     7
370
    25
100
AcDbEllipse
 10
1340.9513509921
 20
1214.9861716094
 30
0.0
 11
6.325541598618655
 21
3.079070143997796
 31
0.0
210
0.0
220
0.0
230
1.0
 40
0.8528618832
 41
1.052164635142262
 42
1.570796326794909
  0
LINE
  5
139
330
1F
100
AcDbEntity
  8
0
  6
Continuous
 62
     7
370
    25
100
AcDbLine
 10
80.1870783572
 20
645.0366315227
 30
0.0
 11
-1090.6987268785
 21
1214.9861716094
 31
0.0
  0
ELLIPSE
  5
13A
330
1F
100
AcDbEntity
  8
0
  6
Continuous
 62
     7
370
    25
100
AcDbEllipse
 10
-1083.9033065744
 20
1214.9861716094
 30
0.0
 11
-6.325541598618203
 21
3.079070143997343
 31
0.0
210
0.0
220
0.0
230
1.0
 40
0.8528618832
 41
5.23102067203701
 42
6.801816998832202
  0
LINE
  5
13B
330
1F
100
AcDbEntity
  8
0
  6
Continuous
 62
     7
370
    25
100
AcDbLine
 10
85.4847639144
 20
651.5612355699
 30
0.0
 11
-1084.7581332513
 21
1221.1978286918
 31
0.0
  0
LINE
  5
13C
330
1F
100
AcDbEntity
  8
0
  6
Continuous
 62
     7
370
    25
100
AcDbLine
 10
80.1870783572
 20
645.0366315227
 30
0.0
 11
80.1870783572
 21
579.353675335
 31
0.0
  0
LINE
  5
13D
330
1F
100
AcDbEntity
  8
0
  6
Continuous
 62
     7
370
    25
100
AcDbLine
 10
145.5252002288
 20
659.8237919176
 30
0.0
 11
85.4847639144
 21
651.5612355699
 31
0.0
  0
LINE
  5
13E
330
1F
100
AcDbEntity
  8
0
  6
Continuous
 62
     7
370
    25
100
AcDbLine
 10
80.1870783572
 20
579.353675335
 30
0.0
 11
-1081.0106912067
 21
1144.5873913415
 31
0.0
  0
LINE
  5
13F
330
1F
100
AcDbEntity
  8
0
  6
Continuous
 62
     7
370
    25
100
AcDbLine
 10
-1090.6987268785
 20
1214.9861716094
 30
0.0
 11
-1081.0106912067
 21
1144.5873913415
 31
0.0
  0
LINE
  5
140
330
1F
100
AcDbEntity
  8
0
  6
Continuous
 62
     7
370
    25
100
AcDbLine
 10
-1007.7433698045
 20
1221.1978286918
 30
0.0
 11
-1084.7581332513
 21
1221.1978286918
 31
0.0
  0
ELLIPSE
  5
141
330
1F
100
AcDbEntity
  8
0
  6
Continuous
 62
     7
370
    25
100
AcDbEllipse
 10
-1074.2152709025
 20
1144.5873913415
 30
0.0
 11
-6.325541598618884
 21
3.079070143997342
 31
0.0
210
0.0
220
0.0
230
1.0
 40
0.8528618832
 41
0.5186316916527324
 42
1.570796326794823
  0
ELLIPSE
  5
142
330
1F
100
AcDbEntity
  8
0
  6
Continuous
 62
     7
370
    25
100
AcDbEllipse
 10
-1006.8885431276
 20
1214.9861716094
 30
0.0
 11
-6.32554159861877
 21
3.079070143997342
 31
0.0
210
0.0
220
0.0
230
1.0
 40
0.8528618832
 41
4.712388980384691
 42
5.231020672037172
  0
ELLIPSE
  5
143
330
1F
100
AcDbEntity
  8
0
  6
Continuous
 62
     7
370
    25
100
AcDbEllipse
 10
250.2879436032
 20
-453.2399492511
 30
0.0
 11
2.998773681546424
 21
-0.8617472700692588
 31
0.0
210
0.0
220
0.0
230
1.0
 40
0.0995297594
 41
0.5172859195946171
 42
2.088082246389346
  0
ARC
  5
144
330
1F
100
AcDbEntity
  8
0
  6
Continuous
 62
     7
370
    25
100
AcDbCircle
 10
250.7517070684
 20
-453.8715120441
 30
0.0
 40
2.185287469008499
100
AcDbArc
 50
281.0590774566
 51
0.7908260166
  0
ELLIPSE
  5
145
330
1F
100
AcDbEntity
  8
0
  6
Continuous
 62
     7
370
    25
100
AcDbEllipse
 10
250.2879436032
 20
-453.2399492511
 30
0.0
 11
-1.364801465833892
 21
2.822611378187958
 31
0.0
210
0.0
220
0.0
230
1.0
 40
0.3362030933
 41
1.167547367324379
 42
2.738343694119307
  0
LINE
  5
146
330
1F
100
AcDbEntity
  8
0
  6
Continuous
 62
     7
370
    25
100
AcDbLine
 10
248.8795289148
 20
-452.5543782925
 30
0.0
 11
248.8795289148
 21
-381.0758671471
 31
0.0
  0
ELLIPSE
  5
147
330
1F
100
AcDbEntity
  8
0
  6
Continuous
 62
     7
370
    25
100
AcDbEllipse
 10
250.2879436032
 20
-381.7614381057
 30
0.0
 11
2.976584842305442
 21
0.9995732953378819
 31
0.0
210
0.0
220
0.0
230
1.0
 40
0.3742488229
 41
0.3636703773325149
 42
1.934466704127359
  0
LINE
  5
148
330
1F
100
AcDbEntity
  8
0
  6
Continuous
 62
     7
370
    25
100
AcDbLine
 10
252.9367863817
 20
-380.4309877347
 30
0.0
 11
252.9367863817
 21
-453.8413505326
 31
0.0
  0
LINE
  5
149
330
1F
100
AcDbEntity
  8
0
  6
Continuous
 62
     7
370
    25
100
AcDbLine
 10
183.5414070432
 20
-461.5459837297
 30
0.0
 11
248.8795289148
 21
-452.5543782925
 31
0.0
  0
LINE
  5
14A
330
1F
100
AcDbEntity
  8
0
  6
Continuous
 62
     7
370
    25
100
AcDbLine
 10
251.170891196
 20
-456.0162185484
 30
0.0
 11
184.0668741387
 21
-465.2508403487
 31
0.0
  0
ELLIPSE
  5
14B
330
1F
100
AcDbEntity
  8
0
  6
Continuous
 62
     7
370
    25
100
AcDbEllipse
 10
184.9498217316
 20
-462.2315546882
 30
0.0
 11
0.7240925576323889
 21
3.076041367607161
 31
0.0
210
0.0
220
0.0
230
1.0
 40
0.4864373979
 41
1.461527857977793
 42
3.032324184772636
  0
LINE
  5
14C
330
1F
100
AcDbEntity
  8
0
  6
Continuous
 62
     7
370
    25
100
AcDbLine
 10
183.5414070432
 20
-390.0674725843
 30
0.0
 11
183.5414070432
 21
-461.5459837297
 31
0.0
  0
LINE
  5
14D
330
1F
100
AcDbEntity
  8
0
  6
Continuous
 62
     7
370
    25
100
AcDbLine
 10
248.8795289148
 20
-381.0758671471
 30
0.0
 11
183.5414070432
 21
-390.0674725843
 31
0.0
  0
LWPOLYLINE
  5
14E
330
1F
100
AcDbEntity
  8
0
  6
Continuous
 62
     7
370
    25
100
AcDbPolyline
 90
       17
 70
   128
 43
0.0
 10
216.210467979
 20
-420.3449996121
 10
215.8725785636
 20
-420.4650255055
 10
215.5861297487
 20
-420.7138319957
 10
215.3947307697
 20
-421.0535405498
 10
215.3275203862
 20
-421.43243362
 10
215.3947307697
 20
-421.792828171
 10
215.5861297487
 20
-422.0798573994
 10
215.8725785636
 20
-422.2498237072
 10
216.210467979
 20
-422.2768512647
 10
216.5483573944
 20
-422.1568253712
 10
216.8348062094
 20
-421.9080188811
 10
217.0262051883
 20
-421.568310327
 10
217.0934155719
 20
-421.1894172568
 10
217.0262051883
 20
-420.8290227058
 10
216.8348062094
 20
-420.5419934773
 10
216.5483573944
 20
-420.3720271696
 10
216.210467979
 20
-420.3449996121
  0
ARC
  5
14F
330
1F
100
AcDbEntity
  8
0
  6
Continuous
 62
     7
370
    25
100
AcDbCircle
 10
251.690650194
 20
-454.3285593498
 30
0.0
 40
2.185287469008641
100
AcDbArc
 50
281.0590774566
 51
0.7908260166
  0
LINE
  5
150
330
1F
100
AcDbEntity
  8
0
  6
Continuous
 62
     7
370
    25
100
AcDbLine
 10
251.170891196
 20
-456.0162185484
 30
0.0
 11
252.1098343216
 21
-456.4732658541
 31
0.0
  0
LINE
  5
151
330
1F
100
AcDbEntity
  8
0
  6
Continuous
 62
     7
370
    25
100
AcDbLine
 10
252.9367863817
 20
-453.8413505326
 30
0.0
 11
253.8757295073
 21
-454.2983978383
 31
0.0
  0
LINE
  5
152
330
1F
100
AcDbEntity
  8
0
  6
Continuous
 62
     7
370
    25
100
AcDbLine
 10
253.8757295073
 20
-454.2983978383
 30
0.0
 11
253.8757295073
 21
-380.8880350404
 31
0.0
  0
LINE
  5
153
330
1F
100
AcDbEntity
  8
0
  6
Continuous
 62
     7
370
    25
100
AcDbLine
 10
252.9367863817
 20
-380.4309877347
 30
0.0
 11
253.8757295073
 21
-380.8880350404
 31
0.0
  0
LINE
  5
154
330
1F
100
AcDbEntity
  8
0
  6
Continuous
 62
     7
370
    25
100
AcDbLine
 10
185.0058172643
 20
-465.7078876544
 30
0.0
 11
252.1098343216
 21
-456.4732658541
 31
0.0
  0
LINE
  5
155
330
1F
100
AcDbEntity
  8
0
  6
Continuous
 62
     7
370
    25
100
AcDbLine
 10
184.0668741387
 20
-465.2508403487
 30
0.0
 11
185.0058172643
 21
-465.7078876544
 31
0.0
  0
ARC
  5
156
330
1F
100
AcDbEntity
  8
0
  6
Continuous
 62
     7
370
    25
100
AcDbCircle
 10
252.2033300397
 20
-380.8130702689
 30
0.0
 40
1.674078760490963
100
AcDbArc
 50
357.4334530259
 51
62.1583283125
  0
LINE
  5
157
330
1F
100
AcDbEntity
  8
0
  6
Continuous
 62
     7
370
    25
100
AcDbLine
 10
183.1915336182
 20
-465.1172598028
 30
0.0
 11
183.1604356182
 21
-465.1016596092
 31
0.0
  0
ARC
  5
158
330
1F
100
AcDbEntity
  8
0
  6
Continuous
 62
     7
370
    25
100
AcDbCircle
 10
184.7864231783
 20
-464.2107545219
 30
0.0
 40
1.513123055643499
100
AcDbArc
 50
244.3097961816
 51
278.3369440526
  0
ELLIPSE
  5
159
330
1F
100
AcDbEntity
  8
0
  6
Continuous
 62
     7
370
    25
100
AcDbEllipse
 10
83.7748642614
 20
647.8418862406
 30
0.0
 11
2.99877368154641
 21
-0.8617472700692587
 31
0.0
210
0.0
220
0.0
230
1.0
 40
0.0995297594
 41
3.658878573184453
 42
5.229674899979279
  0
ARC
  5
15A
330
1F
100
AcDbEntity
  8
0
  6
Continuous
 62
     7
370
    25
100
AcDbCircle
 10
83.3111007961
 20
648.4734490336
 30
0.0
 40
2.185287469008755
100
AcDbArc
 50
101.0590774566
 51
180.7908260166
  0
ELLIPSE
  5
15B
330
1F
100
AcDbEntity
  8
0
  6
Continuous
 62
     7
370
    25
100
AcDbEllipse
 10
83.7748642614
 20
647.8418862406
 30
0.0
 11
-1.364801465833878
 21
2.822611378187958
 31
0.0
210
0.0
220
0.0
230
1.0
 40
0.3362030933
 41
4.309140020914231
 42
5.879936347709144
  0
LINE
  5
15C
330
1F
100
AcDbEntity
  8
0
  6
Continuous
 62
     7
370
    25
100
AcDbLine
 10
85.1832789497
 20
647.156315282
 30
0.0
 11
85.1832789497
 21
575.6778041366
 31
0.0
  0
ELLIPSE
  5
15D
330
1F
100
AcDbEntity
  8
0
  6
Continuous
 62
     7
370
    25
100
AcDbEllipse
 10
83.7748642614
 20
576.3633750952
 30
0.0
 11
2.976584842305471
 21
0.9995732953378821
 31
0.0
210
0.0
220
0.0
230
1.0
 40
0.3742488229
 41
3.505263030922249
 42
5.076059357717243
  0
LINE
  5
15E
330
1F
100
AcDbEntity
  8
0
  6
Continuous
 62
     7
370
    25
100
AcDbLine
 10
81.1260214828
 20
575.0329247241
 30
0.0
 11
81.1260214828
 21
648.4432875221
 31
0.0
  0
LINE
  5
15F
330
1F
100
AcDbEntity
  8
0
  6
Continuous
 62
     7
370
    25
100
AcDbLine
 10
150.5214008213
 20
656.1479207191
 30
0.0
 11
85.1832789497
 21
647.156315282
 31
0.0
  0
LINE
  5
160
330
1F
100
AcDbEntity
  8
0
  6
Continuous
 62
     7
370
    25
100
AcDbLine
 10
82.8919166685
 20
650.6181555379
 30
0.0
 11
149.9959337258
 21
659.8527773382
 31
0.0
  0
ELLIPSE
  5
161
330
1F
100
AcDbEntity
  8
0
  6
Continuous
 62
     7
370
    25
100
AcDbEllipse
 10
149.1129861329
 20
656.8334916777
 30
0.0
 11
0.7240925576324457
 21
3.076041367607104
 31
0.0
210
0.0
220
0.0
230
1.0
 40
0.4864373979
 41
4.603120511567582
 42
6.173916838362532
  0
LINE
  5
162
330
1F
100
AcDbEntity
  8
0
  6
Continuous
 62
     7
370
    25
100
AcDbLine
 10
150.5214008213
 20
584.6694095738
 30
0.0
 11
150.5214008213
 21
656.1479207191
 31
0.0
  0
LINE
  5
163
330
1F
100
AcDbEntity
  8
0
  6
Continuous
 62
     7
370
    25
100
AcDbLine
 10
85.1832789497
 20
575.6778041366
 30
0.0
 11
150.5214008213
 21
584.6694095738
 31
0.0
  0
LWPOLYLINE
  5
164
330
1F
100
AcDbEntity
  8
0
  6
Continuous
 62
     7
370
    25
100
AcDbPolyline
 90
       17
 70
   128
 43
0.0
 10
117.8523398855
 20
614.9469366016
 10
118.1902293009
 20
615.066962495
 10
118.4766781158
 20
615.3157689852
 10
118.6680770948
 20
615.6554775393
 10
118.7352874784
 20
616.0343706095
 10
118.6680770948
 20
616.3947651605
 10
118.4766781158
 20
616.6817943889
 10
118.1902293009
 20
616.8517606967
 10
117.8523398855
 20
616.8787882542
 10
117.5144504701
 20
616.7587623607
 10
117.2280016552
 20
616.5099558706
 10
117.0366026762
 20
616.1702473165
 10
116.9693922926
 20
615.7913542463
 10
117.0366026762
 20
615.4309596953
 10
117.2280016552
 20
615.1439304668
 10
117.5144504701
 20
614.9739641591
 10
117.8523398855
 20
614.9469366016
  0
ARC
  5
165
330
1F
100
AcDbEntity
  8
0
  6
Continuous
 62
     7
370
    25
100
AcDbCircle
 10
82.3721576705
 20
648.9304963393
 30
0.0
 40
2.185287469008459
100
AcDbArc
 50
101.0590774566
 51
180.7908260166
  0
LINE
  5
166
330
1F
100
AcDbEntity
  8
0
  6
Continuous
 62
     7
370
    25
100
AcDbLine
 10
82.8919166685
 20
650.6181555379
 30
0.0
 11
81.9529735429
 21
651.0752028436
 31
0.0
  0
LINE
  5
167
330
1F
100
AcDbEntity
  8
0
  6
Continuous
 62
     7
370
    25
100
AcDbLine
 10
81.1260214828
 20
648.4432875221
 30
0.0
 11
80.1870783572
 21
648.9003348278
 31
0.0
  0
LINE
  5
168
330
1F
100
AcDbEntity
  8
0
  6
Continuous
 62
     7
370
    25
100
AcDbLine
 10
80.1870783572
 20
648.9003348278
 30
0.0
 11
80.1870783572
 21
575.4899720299
 31
0.0
  0
LINE
  5
169
330
1F
100
AcDbEntity
  8
0
  6
Continuous
 62
     7
370
    25
100
AcDbLine
 10
81.1260214828
 20
575.0329247241
 30
0.0
 11
80.1870783572
 21
575.4899720299
 31
0.0
  0
LINE
  5
16A
330
1F
100
AcDbEntity
  8
0
  6
Continuous
 62
     7
370
    25
100
AcDbLine
 10
149.0569906002
 20
660.3098246439
 30
0.0
 11
81.9529735429
 21
651.0752028436
 31
0.0
  0
LINE
  5
16B
330
1F
100
AcDbEntity
  8
0
  6
Continuous
 62
     7
370
    25
100
AcDbLine
 10
149.9959337258
 20
659.8527773382
 30
0.0
 11
149.0569906002
 21
660.3098246439
 31
0.0
  0
ARC
  5
16C
330
1F
100
AcDbEntity
  8
0
  6
Continuous
 62
     7
370
    25
100
AcDbCircle
 10
81.8594778249
 20
575.4150072584
 30
0.0
 40
1.674078760491289
100
AcDbArc
 50
177.4334530259
 51
242.1583283125
  0
LINE
  5
16D
330
1F
100
AcDbEntity
  8
0
  6
Continuous
 62
     7
370
    25
100
AcDbLine
 10
150.8712742463
 20
659.7191967923
 30
0.0
 11
150.9023722463
 21
659.7035965987
 31
0.0
  0
ARC
  5
16E
330
1F
100
AcDbEntity
  8
0
  6
Continuous
 62
     7
370
    25
100
AcDbCircle
 10
149.2763846862
 20
658.8126915114
 30
0.0
 40
1.51312305564158
100
AcDbArc
 50
64.3097961816
 51
98.3369440526
  0
ELLIPSE
  5
16F
330
1F
100
AcDbEntity
  8
0
  6
Continuous
 62
     7
370
    25
100
AcDbEllipse
 10
83.7748642614
 20
-453.2399492511
 30
0.0
 11
1.364801465833878
 21
2.822611378187958
 31
0.0
210
0.0
220
0.0
230
1.0
 40
0.3362030933
 41
3.544841613060285
 42
5.115637939855166
  0
ARC
  5
170
330
1F
100
AcDbEntity
  8
0
  6
Continuous
 62
     7
370
    25
100
AcDbCircle
 10
83.3111007961
 20
-453.8715120441
 30
0.0
 40
2.185287469008331
100
AcDbArc
 50
179.2091739834
 51
258.9409225434
  0
ELLIPSE
  5
171
330
1F
100
AcDbEntity
  8
0
  6
Continuous
 62
     7
370
    25
100
AcDbEllipse
 10
83.7748642614
 20
-453.2399492511
 30
0.0
 11
2.99877368154641
 21
0.8617472700693156
 31
0.0
210
0.0
220
0.0
230
1.0
 40
0.0995297594
 41
1.053510407200169
 42
2.624306733995091
  0
LINE
  5
172
330
1F
100
AcDbEntity
  8
0
  6
Continuous
 62
     7
370
    25
100
AcDbLine
 10
85.1832789497
 20
-381.0758671471
 30
0.0
 11
85.1832789497
 21
-452.5543782925
 31
0.0
  0
LINE
  5
173
330
1F
100
AcDbEntity
  8
0
  6
Continuous
 62
     7
370
    25
100
AcDbLine
 10
81.1260214828
 20
-453.8413505326
 30
0.0
 11
81.1260214828
 21
-380.4309877347
 31
0.0
  0
ELLIPSE
  5
174
330
1F
100
AcDbEntity
  8
0
  6
Continuous
 62
     7
370
    25
100
AcDbEllipse
 10
83.7748642614
 20
-381.7614381057
 30
0.0
 11
2.976584842305456
 21
-0.999573295337825
 31
0.0
210
0.0
220
0.0
230
1.0
 40
0.3742488229
 41
1.207125949462409
 42
2.777922276257301
  0
LINE
  5
175
330
1F
100
AcDbEntity
  8
0
  6
Continuous
 62
     7
370
    25
100
AcDbLine
 10
85.1832789497
 20
-452.5543782925
 30
0.0
 11
150.5214008213
 21
-461.5459837297
 31
0.0
  0
ELLIPSE
  5
176
330
1F
100
AcDbEntity
  8
0
  6
Continuous
 62
     7
370
    25
100
AcDbEllipse
 10
149.1129861329
 20
-462.2315546882
 30
0.0
 11
-0.7240925576323889
 21
3.076041367607161
 31
0.0
210
0.0
220
0.0
230
1.0
 40
0.4864373979
 41
3.250861122406957
 42
4.821657449201804
  0
LINE
  5
177
330
1F
100
AcDbEntity
  8
0
  6
Continuous
 62
     7
370
    25
100
AcDbLine
 10
149.9959337258
 20
-465.2508403487
 30
0.0
 11
82.8919166685
 21
-456.0162185484
 31
0.0
  0
LINE
  5
178
330
1F
100
AcDbEntity
  8
0
  6
Continuous
 62
     7
370
    25
100
AcDbLine
 10
150.5214008213
 20
-390.0674725843
 30
0.0
 11
85.1832789497
 21
-381.0758671471
 31
0.0
  0
LINE
  5
179
330
1F
100
AcDbEntity
  8
0
  6
Continuous
 62
     7
370
    25
100
AcDbLine
 10
150.5214008213
 20
-461.5459837297
 30
0.0
 11
150.5214008213
 21
-390.0674725843
 31
0.0
  0
LWPOLYLINE
  5
17A
330
1F
100
AcDbEntity
  8
0
  6
Continuous
 62
     7
370
    25
100
AcDbPolyline
 90
       17
 70
   128
 43
0.0
 10
117.8523398855
 20
-422.2768512647
 10
118.1902293009
 20
-422.2498237072
 10
118.4766781158
 20
-422.0798573994
 10
118.6680770948
 20
-421.792828171
 10
118.7352874784
 20
-421.43243362
 10
118.6680770948
 20
-421.0535405498
 10
118.4766781158
 20
-420.7138319957
 10
118.1902293009
 20
-420.4650255055
 10
117.8523398855
 20
-420.3449996121
 10
117.5144504701
 20
-420.3720271696
 10
117.2280016552
 20
-420.5419934773
 10
117.0366026762
 20
-420.8290227058
 10
116.9693922926
 20
-421.1894172568
 10
117.0366026762
 20
-421.568310327
 10
117.2280016552
 20
-421.9080188811
 10
117.5144504701
 20
-422.1568253712
 10
117.8523398855
 20
-422.2768512647
  0
ARC
  5
17B
330
1F
100
AcDbEntity
  8
0
  6
Continuous
 62
     7
370
    25
100
AcDbCircle
 10
82.3721576705
 20
-454.3285593498
 30
0.0
 40
2.185287469008444
100
AcDbArc
 50
179.2091739834
 51
258.9409225434
  0
LINE
  5
17C
330
1F
100
AcDbEntity
  8
0
  6
Continuous
 62
     7
370
    25
100
AcDbLine
 10
81.1260214828
 20
-453.8413505326
 30
0.0
 11
80.1870783572
 21
-454.2983978383
 31
0.0
  0
LINE
  5
17D
330
1F
100
AcDbEntity
  8
0
  6
Continuous
 62
     7
370
    25
100
AcDbLine
 10
82.8919166685
 20
-456.0162185484
 30
0.0
 11
81.9529735429
 21
-456.4732658541
 31
0.0
  0
LINE
  5
17E
330
1F
100
AcDbEntity
  8
0
  6
Continuous
 62
     7
370
    25
100
AcDbLine
 10
80.1870783572
 20
-380.8880350404
 30
0.0
 11
80.1870783572
 21
-454.2983978383
 31
0.0
  0
LINE
  5
17F
330
1F
100
AcDbEntity
  8
0
  6
Continuous
 62
     7
370
    25
100
AcDbLine
 10
81.1260214828
 20
-380.4309877347
 30
0.0
 11
80.1870783572
 21
-380.8880350404
 31
0.0
  0
LINE
  5
180
330
1F
100
AcDbEntity
  8
0
  6
Continuous
 62
     7
370
    25
100
AcDbLine
 10
81.9529735429
 20
-456.4732658541
 30
0.0
 11
149.0569906002
 21
-465.7078876544
 31
0.0
  0
LINE
  5
181
330
1F
100
AcDbEntity
  8
0
  6
Continuous
 62
     7
370
    25
100
AcDbLine
 10
149.9959337258
 20
-465.2508403487
 30
0.0
 11
149.0569906002
 21
-465.7078876544
 31
0.0
  0
ARC
  5
182
330
1F
100
AcDbEntity
  8
0
  6
Continuous
 62
     7
370
    25
100
AcDbCircle
 10
81.8594778249
 20
-380.8130702689
 30
0.0
 40
1.674078760490587
100
AcDbArc
 50
117.8416716875
 51
182.5665469741
  0
ARC
  5
183
330
1F
100
AcDbEntity
  8
0
  6
Continuous
 62
     7
370
    25
100
AcDbCircle
 10
149.2763846862
 20
-464.2107545219
 30
0.0
 40
1.513123055643674
100
AcDbArc
 50
261.6630559474
 51
295.6902038184
  0
ELLIPSE
  5
184
330
1F
100
AcDbEntity
  8
0
  6
Continuous
 62
     7
370
    25
100
AcDbEllipse
 10
250.2879436032
 20
647.8418862406
 30
0.0
 11
1.364801465833892
 21
2.822611378187958
 31
0.0
210
0.0
220
0.0
230
1.0
 40
0.3362030933
 41
0.4032489594704608
 42
1.974045286265326
  0
ARC
  5
185
330
1F
100
AcDbEntity
  8
0
  6
Continuous
 62
     7
370
    25
100
AcDbCircle
 10
250.7517070684
 20
648.4734490336
 30
0.0
 40
2.185287469008616
100
AcDbArc
 50
359.2091739834
 51
78.9409225434
  0
ELLIPSE
  5
186
330
1F
100
AcDbEntity
  8
0
  6
Continuous
 62
     7
370
    25
100
AcDbEllipse
 10
250.2879436032
 20
647.8418862406
 30
0.0
 11
2.998773681546424
 21
0.8617472700692588
 31
0.0
210
0.0
220
0.0
230
1.0
 40
0.0995297594
 41
4.195103060789869
 42
5.765899387585292
  0
LINE
  5
187
330
1F
100
AcDbEntity
  8
0
  6
Continuous
 62
     7
370
    25
100
AcDbLine
 10
248.8795289148
 20
575.6778041366
 30
0.0
 11
248.8795289148
 21
647.156315282
 31
0.0
  0
LINE
  5
188
330
1F
100
AcDbEntity
  8
0
  6
Continuous
 62
     7
370
    25
100
AcDbLine
 10
252.9367863817
 20
648.4432875221
 30
0.0
 11
252.9367863817
 21
575.0329247241
 31
0.0
  0
ELLIPSE
  5
189
330
1F
100
AcDbEntity
  8
0
  6
Continuous
 62
     7
370
    25
100
AcDbEllipse
 10
250.2879436032
 20
576.3633750952
 30
0.0
 11
2.976584842305443
 21
-0.9995732953377684
 31
0.0
210
0.0
220
0.0
230
1.0
 40
0.3742488229
 41
4.34871860305213
 42
5.919514929847133
  0
LINE
  5
18A
330
1F
100
AcDbEntity
  8
0
  6
Continuous
 62
     7
370
    25
100
AcDbLine
 10
248.8795289148
 20
647.156315282
 30
0.0
 11
183.5414070432
 21
656.1479207191
 31
0.0
  0
ELLIPSE
  5
18B
330
1F
100
AcDbEntity
  8
0
  6
Continuous
 62
     7
370
    25
100
AcDbEllipse
 10
184.9498217316
 20
656.8334916777
 30
0.0
 11
-0.7240925576324173
 21
3.076041367607104
 31
0.0
210
0.0
220
0.0
230
1.0
 40
0.4864373979
 41
0.1092684688171157
 42
1.680064795612018
  0
LINE
  5
18C
330
1F
100
AcDbEntity
  8
0
  6
Continuous
 62
     7
370
    25
100
AcDbLine
 10
184.0668741387
 20
659.8527773382
 30
0.0
 11
251.170891196
 21
650.6181555379
 31
0.0
  0
LINE
  5
18D
330
1F
100
AcDbEntity
  8
0
  6
Continuous
 62
     7
370
    25
100
AcDbLine
 10
183.5414070432
 20
584.6694095738
 30
0.0
 11
248.8795289148
 21
575.6778041366
 31
0.0
  0
LINE
  5
18E
330
1F
100
AcDbEntity
  8
0
  6
Continuous
 62
     7
370
    25
100
AcDbLine
 10
183.5414070432
 20
656.1479207191
 30
0.0
 11
183.5414070432
 21
584.6694095738
 31
0.0
  0
LWPOLYLINE
  5
18F
330
1F
100
AcDbEntity
  8
0
  6
Continuous
 62
     7
370
    25
100
AcDbPolyline
 90
       17
 70
   128
 43
0.0
 10
216.210467979
 20
616.8787882542
 10
215.8725785636
 20
616.8517606967
 10
215.5861297487
 20
616.6817943889
 10
215.3947307697
 20
616.3947651605
 10
215.3275203862
 20
616.0343706095
 10
215.3947307697
 20
615.6554775393
 10
215.5861297487
 20
615.3157689852
 10
215.8725785636
 20
615.066962495
 10
216.210467979
 20
614.9469366016
 10
216.5483573944
 20
614.9739641591
 10
216.8348062094
 20
615.1439304668
 10
217.0262051883
 20
615.4309596953
 10
217.0934155719
 20
615.7913542463
 10
217.0262051883
 20
616.1702473165
 10
216.8348062094
 20
616.5099558706
 10
216.5483573944
 20
616.7587623607
 10
216.210467979
 20
616.8787882542
  0
ARC
  5
190
330
1F
100
AcDbEntity
  8
0
  6
Continuous
 62
     7
370
    25
100
AcDbCircle
 10
251.690650194
 20
648.9304963393
 30
0.0
 40
2.185287469008361
100
AcDbArc
 50
359.2091739834
 51
78.9409225434
  0
LINE
  5
191
330
1F
100
AcDbEntity
  8
0
  6
Continuous
 62
     7
370
    25
100
AcDbLine
 10
252.9367863817
 20
648.4432875221
 30
0.0
 11
253.8757295073
 21
648.9003348278
 31
0.0
  0
LINE
  5
192
330
1F
100
AcDbEntity
  8
0
  6
Continuous
 62
     7
370
    25
100
AcDbLine
 10
251.170891196
 20
650.6181555379
 30
0.0
 11
252.1098343216
 21
651.0752028436
 31
0.0
  0
LINE
  5
193
330
1F
100
AcDbEntity
  8
0
  6
Continuous
 62
     7
370
    25
100
AcDbLine
 10
253.8757295073
 20
575.4899720299
 30
0.0
 11
253.8757295073
 21
648.9003348278
 31
0.0
  0
LINE
  5
194
330
1F
100
AcDbEntity
  8
0
  6
Continuous
 62
     7
370
    25
100
AcDbLine
 10
252.9367863817
 20
575.0329247241
 30
0.0
 11
253.8757295073
 21
575.4899720299
 31
0.0
  0
LINE
  5
195
330
1F
100
AcDbEntity
  8
0
  6
Continuous
 62
     7
370
    25
100
AcDbLine
 10
252.1098343216
 20
651.0752028436
 30
0.0
 11
185.0058172643
 21
660.3098246439
 31
0.0
  0
LINE
  5
196
330
1F
100
AcDbEntity
  8
0
  6
Continuous
 62
     7
370
    25
100
AcDbLine
 10
184.0668741387
 20
659.8527773382
 30
0.0
 11
185.0058172643
 21
660.3098246439
 31
0.0
  0
ARC
  5
197
330
1F
100
AcDbEntity
  8
0
  6
Continuous
 62
     7
370
    25
100
AcDbCircle
 10
252.2033300397
 20
575.4150072584
 30
0.0
 40
1.674078760491565
100
AcDbArc
 50
297.8416716875
 51
2.5665469741
  0
ARC
  5
198
330
1F
100
AcDbEntity
  8
0
  6
Continuous
 62
     7
370
    25
100
AcDbCircle
 10
184.7864231783
 20
658.8126915114
 30
0.0
 40
1.51312305564158
100
AcDbArc
 50
81.6630559474
 51
115.6902038184
  0
LWPOLYLINE
  5
199
330
1F
100
AcDbEntity
  8
0
  6
Continuous
 62
     7
370
    25
100
AcDbPolyline
 90
       11
 70
   128
 43
0.0
 10
242.0314039322
 20
676.4104644805
 10
240.2620120867
 20
676.4484114906
 10
238.5408846383
 20
676.5612174254
 10
236.9149694571
 20
676.7458052332
 10
235.4286172708
 20
676.9971398396
 10
234.1223718925
 20
677.3083654918
 10
233.0318642909
 20
677.6709927653
 10
232.1868406707
 20
678.0751301333
 10
231.6103510734
 20
678.5097537821
 10
231.3181206324
 20
678.9630083114
 10
231.2814039322
 20
679.1927692153
  0
LWPOLYLINE
  5
19A
330
1F
100
AcDbEntity
  8
0
  6
Continuous
 62
     7
370
    25
100
AcDbPolyline
 90
       11
 70
   128
 43
0.0
 10
252.7814039322
 20
679.1927692153
 10
252.7446872321
 20
678.9630083114
 10
252.4524567911
 20
678.5097537821
 10
251.8759671938
 20
678.0751301333
 10
251.0309435736
 20
677.6709927653
 10
249.940435972
 20
677.3083654918
 10
248.6341905937
 20
676.9971398396
 10
247.1478384074
 20
676.7458052332
 10
245.5219232262
 20
676.5612174254
 10
243.8007957778
 20
676.4484114906
 10
242.0314039322
 20
676.4104644805
  0
LWPOLYLINE
  5
19B
330
1F
100
AcDbEntity
  8
0
  6
Continuous
 62
     7
370
    25
100
AcDbPolyline
 90
       13
 70
   128
 43
0.0
 10
242.0314039322
 20
663.1070011876
 10
239.9208208712
 20
663.1443663332
 10
237.8495539793
 20
663.2557657279
 10
235.8561870396
 20
663.4391242119
 10
233.9778527067
 20
663.6910261635
 10
232.2495407952
 20
664.0067791259
 10
230.7034464859
 20
664.3805012189
 10
229.3683705906
 20
664.8052307071
 10
228.269183047
 20
665.2730556836
 10
227.4263596394
 20
665.7752614543
 10
226.8556005732
 20
666.3024928759
 10
226.5675380098
 20
666.8449286246
 10
226.5314039322
 20
667.1186963867
  0
LWPOLYLINE
  5
19C
330
1F
100
AcDbEntity
  8
0
  6
Continuous
 62
     7
370
    25
100
AcDbPolyline
 90
       13
 70
   128
 43
0.0
 10
257.5314039322
 20
667.1186963867
 10
257.4952698547
 20
666.8449286246
 10
257.2072072913
 20
666.3024928759
 10
256.6364482251
 20
665.7752614543
 10
255.7936248175
 20
665.2730556836
 10
254.6944372739
 20
664.8052307071
 10
253.3593613785
 20
664.3805012189
 10
251.8132670693
 20
664.0067791259
 10
250.0849551578
 20
663.6910261635
 10
248.2066208249
 20
663.4391242119
 10
246.2132538852
 20
663.2557657279
 10
244.1419869932
 20
663.1443663332
 10
242.0314039322
 20
663.1070011876
  0
LWPOLYLINE
  5
19D
330
1F
100
AcDbEntity
  8
0
  6
Continuous
 62
     7
370
    25
100
AcDbPolyline
 90
       11
 70
   128
 43
0.0
 10
92.0314039323
 20
-481.808527491
 10
93.8007957778
 20
-481.8464745011
 10
95.5219232262
 20
-481.9592804359
 10
97.1478384074
 20
-482.1438682437
 10
98.6341905937
 20
-482.3952028501
 10
99.940435972
 20
-482.7064285023
 10
101.0309435736
 20
-483.0690557758
 10
101.8759671938
 20
-483.4731931438
 10
102.4524567911
 20
-483.9078167926
 10
102.7446872321
 20
-484.3610713219
 10
102.7814039323
 20
-484.5908322258
  0
LWPOLYLINE
  5
19E
330
1F
100
AcDbEntity
  8
0
  6
Continuous
 62
     7
370
    25
100
AcDbPolyline
 90
       11
 70
   128
 43
0.0
 10
81.2814039323
 20
-484.5908322258
 10
81.3181206325
 20
-484.3610713219
 10
81.6103510734
 20
-483.9078167926
 10
82.1868406707
 20
-483.4731931438
 10
83.031864291
 20
-483.0690557758
 10
84.1223718925
 20
-482.7064285023
 10
85.4286172709
 20
-482.3952028501
 10
86.9149694571
 20
-482.1438682437
 10
88.5408846383
 20
-481.9592804359
 10
90.2620120868
 20
-481.8464745011
 10
92.0314039323
 20
-481.808527491
  0
LWPOLYLINE
  5
19F
330
1F
100
AcDbEntity
  8
0
  6
Continuous
 62
     7
370
    25
100
AcDbPolyline
 90
       13
 70
   128
 43
0.0
 10
92.0314039323
 20
-468.5050641981
 10
94.1419869933
 20
-468.5424293437
 10
96.2132538852
 20
-468.6538287384
 10
98.2066208249
 20
-468.8371872224
 10
100.0849551578
 20
-469.089089174
 10
101.8132670693
 20
-469.4048421364
 10
103.3593613786
 20
-469.7785642294
 10
104.6944372739
 20
-470.2032937176
 10
105.7936248175
 20
-470.6711186941
 10
106.6364482251
 20
-471.1733244648
 10
107.2072072913
 20
-471.7005558864
 10
107.4952698547
 20
-472.2429916351
 10
107.5314039323
 20
-472.5167593972
  0
LWPOLYLINE
  5
1A0
330
1F
100
AcDbEntity
  8
0
  6
Continuous
 62
     7
370
    25
100
AcDbPolyline
 90
       13
 70
   128
 43
0.0
 10
76.5314039323
 20
-472.5167593972
 10
76.5675380098
 20
-472.2429916351
 10
76.8556005732
 20
-471.7005558864
 10
77.4263596394
 20
-471.1733244648
 10
78.269183047
 20
-470.6711186941
 10
79.3683705906
 20
-470.2032937176
 10
80.703446486
 20
-469.7785642294
 10
82.2495407952
 20
-469.4048421364
 10
83.9778527067
 20
-469.089089174
 10
85.8561870397
 20
-468.8371872224
 10
87.8495539793
 20
-468.6538287384
 10
89.9208208713
 20
-468.5424293437
 10
92.0314039323
 20
-468.5050641981
  0
LWPOLYLINE
  5
1A1
330
1F
100
AcDbEntity
  8
0
  6
Continuous
 62
     7
370
    25
100
AcDbPolyline
 90
       21
 70
   128
 43
0.0
 10
322.8283586755
 20
-529.1529445334
 10
322.8650753757
 20
-528.9231836295
 10
323.1573058166
 20
-528.4699291002
 10
323.7337954139
 20
-528.0353054514
 10
324.5788190342
 20
-527.6311680833
 10
325.6693266357
 20
-527.2685408098
 10
326.9755720141
 20
-526.9573151576
 10
328.4619242003
 20
-526.7059805512
 10
330.0878393815
 20
-526.5213927435
 10
331.80896683
 20
-526.4085868087
 10
333.5783586755
 20
-526.3706397985
 10
335.347750521
 20
-526.4085868087
 10
337.0688779694
 20
-526.5213927435
 10
338.6947931506
 20
-526.7059805512
 10
340.1811453369
 20
-526.9573151576
 10
341.4873907152
 20
-527.2685408098
 10
342.5778983168
 20
-527.6311680833
 10
343.422921937
 20
-528.0353054514
 10
343.9994115343
 20
-528.4699291002
 10
344.2916419753
 20
-528.9231836295
 10
344.3283586755
 20
-529.1529445334
  0
LWPOLYLINE
  5
1A2
330
1F
100
AcDbEntity
  8
0
  6
Continuous
 62
     7
370
    25
100
AcDbPolyline
 90
       25
 70
   128
 43
0.0
 10
318.0783586755
 20
-517.0788717048
 10
318.114492753
 20
-516.8051039427
 10
318.4025553164
 20
-516.262668194
 10
318.9733143826
 20
-515.7354367724
 10
319.8161377902
 20
-515.2332310016
 10
320.9153253338
 20
-514.7654060251
 10
322.2504012292
 20
-514.340676537
 10
323.7964955384
 20
-513.966954444
 10
325.5248074499
 20
-513.6512014816
 10
327.4031417829
 20
-513.39929953
 10
329.3965087226
 20
-513.215941046
 10
331.4677756145
 20
-513.1045416513
 10
333.5783586755
 20
-513.0671765057
 10
335.6889417365
 20
-513.1045416513
 10
337.7602086284
 20
-513.215941046
 10
339.7535755681
 20
-513.39929953
 10
341.631909901
 20
-513.6512014816
 10
343.3602218125
 20
-513.966954444
 10
344.9063161218
 20
-514.340676537
 10
346.2413920171
 20
-514.7654060251
 10
347.3405795607
 20
-515.2332310016
 10
348.1834029683
 20
-515.7354367724
 10
348.7541620346
 20
-516.262668194
 10
349.0422245979
 20
-516.8051039427
 10
349.0783586755
 20
-517.0788717048
  0
LWPOLYLINE
  5
1A3
330
1F
100
AcDbEntity
  8
0
  6
Continuous
 62
     7
370
    25
100
AcDbPolyline
 90
       21
 70
   128
 43
0.0
 10
231.2814039322
 20
-484.5908322258
 10
231.3181206324
 20
-484.3610713219
 10
231.6103510734
 20
-483.9078167926
 10
232.1868406707
 20
-483.4731931438
 10
233.0318642909
 20
-483.0690557758
 10
234.1223718925
 20
-482.7064285023
 10
235.4286172708
 20
-482.3952028501
 10
236.9149694571
 20
-482.1438682437
 10
238.5408846383
 20
-481.9592804359
 10
240.2620120867
 20
-481.8464745011
 10
242.0314039322
 20
-481.808527491
 10
243.8007957778
 20
-481.8464745011
 10
245.5219232262
 20
-481.9592804359
 10
247.1478384074
 20
-482.1438682437
 10
248.6341905937
 20
-482.3952028501
 10
249.940435972
 20
-482.7064285023
 10
251.0309435736
 20
-483.0690557758
 10
251.8759671938
 20
-483.4731931438
 10
252.4524567911
 20
-483.9078167926
 10
252.7446872321
 20
-484.3610713219
 10
252.7814039322
 20
-484.5908322258
  0
LWPOLYLINE
  5
1A4
330
1F
100
AcDbEntity
  8
0
  6
Continuous
 62
     7
370
    25
100
AcDbPolyline
 90
       25
 70
   128
 43
0.0
 10
226.5314039322
 20
-472.5167593972
 10
226.5675380098
 20
-472.2429916351
 10
226.8556005732
 20
-471.7005558864
 10
227.4263596394
 20
-471.1733244648
 10
228.269183047
 20
-470.6711186941
 10
229.3683705906
 20
-470.2032937176
 10
230.7034464859
 20
-469.7785642294
 10
232.2495407952
 20
-469.4048421364
 10
233.9778527067
 20
-469.089089174
 10
235.8561870396
 20
-468.8371872224
 10
237.8495539793
 20
-468.6538287384
 10
239.9208208712
 20
-468.5424293437
 10
242.0314039322
 20
-468.5050641981
 10
244.1419869932
 20
-468.5424293437
 10
246.2132538852
 20
-468.6538287384
 10
248.2066208249
 20
-468.8371872224
 10
250.0849551578
 20
-469.089089174
 10
251.8132670693
 20
-469.4048421364
 10
253.3593613785
 20
-469.7785642294
 10
254.6944372739
 20
-470.2032937176
 10
255.7936248175
 20
-470.6711186941
 10
256.6364482251
 20
-471.1733244648
 10
257.2072072913
 20
-471.7005558864
 10
257.4952698547
 20
-472.2429916351
 10
257.5314039322
 20
-472.5167593972
  0
LWPOLYLINE
  5
1A5
330
1F
100
AcDbEntity
  8
0
  6
Continuous
 62
     7
370
    25
100
AcDbPolyline
 90
       11
 70
   128
 43
0.0
 10
333.5783586755
 20
720.972576788
 10
331.80896683
 20
721.0105237981
 10
330.0878393815
 20
721.123329733
 10
328.4619242003
 20
721.3079175407
 10
326.9755720141
 20
721.5592521471
 10
325.6693266357
 20
721.8704777993
 10
324.5788190342
 20
722.2331050728
 10
323.7337954139
 20
722.6372424409
 10
323.1573058166
 20
723.0718660897
 10
322.8650753757
 20
723.525120619
 10
322.8283586755
 20
723.7548815229
  0
LWPOLYLINE
  5
1A6
330
1F
100
AcDbEntity
  8
0
  6
Continuous
 62
     7
370
    25
100
AcDbPolyline
 90
       11
 70
   128
 43
0.0
 10
344.3283586755
 20
723.7548815229
 10
344.2916419753
 20
723.525120619
 10
343.9994115343
 20
723.0718660897
 10
343.422921937
 20
722.6372424409
 10
342.5778983168
 20
722.2331050728
 10
341.4873907152
 20
721.8704777993
 10
340.1811453369
 20
721.5592521471
 10
338.6947931506
 20
721.3079175407
 10
337.0688779694
 20
721.123329733
 10
335.347750521
 20
721.0105237981
 10
333.5783586755
 20
720.972576788
  0
LWPOLYLINE
  5
1A7
330
1F
100
AcDbEntity
  8
0
  6
Continuous
 62
     7
370
    25
100
AcDbPolyline
 90
       13
 70
   128
 43
0.0
 10
333.5783586755
 20
707.6691134952
 10
331.4677756145
 20
707.7064786407
 10
329.3965087226
 20
707.8178780355
 10
327.4031417829
 20
708.0012365195
 10
325.5248074499
 20
708.253138471
 10
323.7964955384
 20
708.5688914335
 10
322.2504012292
 20
708.9426135265
 10
320.9153253338
 20
709.3673430146
 10
319.8161377902
 20
709.8351679911
 10
318.9733143826
 20
710.3373737618
 10
318.4025553164
 20
710.8646051835
 10
318.114492753
 20
711.4070409322
 10
318.0783586755
 20
711.6808086943
  0
LWPOLYLINE
  5
1A8
330
1F
100
AcDbEntity
  8
0
  6
Continuous
 62
     7
370
    25
100
AcDbPolyline
 90
       13
 70
   128
 43
0.0
 10
349.0783586755
 20
711.6808086943
 10
349.0422245979
 20
711.4070409322
 10
348.7541620346
 20
710.8646051835
 10
348.1834029683
 20
710.3373737618
 10
347.3405795607
 20
709.8351679911
 10
346.2413920171
 20
709.3673430146
 10
344.9063161218
 20
708.9426135265
 10
343.3602218125
 20
708.5688914335
 10
341.631909901
 20
708.253138471
 10
339.7535755681
 20
708.0012365195
 10
337.7602086284
 20
707.8178780355
 10
335.6889417365
 20
707.7064786407
 10
333.5783586755
 20
707.6691134952
  0
LWPOLYLINE
  5
1A9
330
1F
100
AcDbEntity
  8
0
  6
Continuous
 62
     7
370
    25
100
AcDbPolyline
 90
       21
 70
   128
 43
0.0
 10
11.234449189
 20
723.7548815229
 10
11.1977324888
 20
723.525120619
 10
10.9055020479
 20
723.0718660897
 10
10.3290124506
 20
722.6372424409
 10
9.4839888303
 20
722.2331050728
 10
8.3934812288
 20
721.8704777993
 10
7.0872358504
 20
721.5592521471
 10
5.6008836642
 20
721.3079175407
 10
3.974968483
 20
721.123329733
 10
2.2538410345
 20
721.0105237981
 10
0.484449189
 20
720.972576788
 10
-1.2849426565
 20
721.0105237981
 10
-3.0060701049
 20
721.123329733
 10
-4.6319852861
 20
721.3079175407
 10
-6.1183374724
 20
721.5592521471
 10
-7.4245828507
 20
721.8704777993
 10
-8.5150904523
 20
722.2331050728
 10
-9.3601140725
 20
722.6372424409
 10
-9.9366036698
 20
723.0718660897
 10
-10.2288341108
 20
723.525120619
 10
-10.265550811
 20
723.7548815229
  0
LWPOLYLINE
  5
1AA
330
1F
100
AcDbEntity
  8
0
  6
Continuous
 62
     7
370
    25
100
AcDbPolyline
 90
       25
 70
   128
 43
0.0
 10
15.984449189
 20
711.6808086943
 10
15.9483151115
 20
711.4070409322
 10
15.6602525481
 20
710.8646051835
 10
15.0894934819
 20
710.3373737618
 10
14.2466700743
 20
709.8351679911
 10
13.1474825307
 20
709.3673430146
 10
11.8124066353
 20
708.9426135265
 10
10.2663123261
 20
708.5688914335
 10
8.5380004146
 20
708.253138471
 10
6.6596660816
 20
708.0012365195
 10
4.666299142
 20
707.8178780355
 10
2.59503225
 20
707.7064786407
 10
0.484449189
 20
707.6691134952
 10
-1.626133872
 20
707.7064786407
 10
-3.6974007639
 20
707.8178780355
 10
-5.6907677036
 20
708.0012365195
 10
-7.5691020365
 20
708.253138471
 10
-9.297413948
 20
708.5688914335
 10
-10.8435082573
 20
708.9426135265
 10
-12.1785841526
 20
709.3673430146
 10
-13.2777716962
 20
709.8351679911
 10
-14.1205951038
 20
710.3373737618
 10
-14.69135417
 20
710.8646051835
 10
-14.9794167334
 20
711.4070409322
 10
-15.015550811
 20
711.6808086943
  0
LWPOLYLINE
  5
1AB
330
1F
100
AcDbEntity
  8
0
  6
Continuous
 62
     7
370
    25
100
AcDbPolyline
 90
       21
 70
   128
 43
0.0
 10
102.7814039323
 20
679.1927692153
 10
102.7446872321
 20
678.9630083114
 10
102.4524567911
 20
678.5097537821
 10
101.8759671938
 20
678.0751301333
 10
101.0309435736
 20
677.6709927653
 10
99.940435972
 20
677.3083654918
 10
98.6341905937
 20
676.9971398396
 10
97.1478384074
 20
676.7458052332
 10
95.5219232262
 20
676.5612174254
 10
93.8007957778
 20
676.4484114906
 10
92.0314039323
 20
676.4104644805
 10
90.2620120868
 20
676.4484114906
 10
88.5408846383
 20
676.5612174254
 10
86.9149694571
 20
676.7458052332
 10
85.4286172709
 20
676.9971398396
 10
84.1223718925
 20
677.3083654918
 10
83.031864291
 20
677.6709927653
 10
82.1868406707
 20
678.0751301333
 10
81.6103510734
 20
678.5097537821
 10
81.3181206325
 20
678.9630083114
 10
81.2814039323
 20
679.1927692153
  0
LWPOLYLINE
  5
1AC
330
1F
100
AcDbEntity
  8
0
  6
Continuous
 62
     7
370
    25
100
AcDbPolyline
 90
       25
 70
   128
 43
0.0
 10
107.5314039323
 20
667.1186963867
 10
107.4952698547
 20
666.8449286246
 10
107.2072072913
 20
666.3024928759
 10
106.6364482251
 20
665.7752614543
 10
105.7936248175
 20
665.2730556836
 10
104.6944372739
 20
664.8052307071
 10
103.3593613786
 20
664.3805012189
 10
101.8132670693
 20
664.0067791259
 10
100.0849551578
 20
663.6910261635
 10
98.2066208249
 20
663.4391242119
 10
96.2132538852
 20
663.2557657279
 10
94.1419869933
 20
663.1443663332
 10
92.0314039323
 20
663.1070011876
 10
89.9208208713
 20
663.1443663332
 10
87.8495539793
 20
663.2557657279
 10
85.8561870397
 20
663.4391242119
 10
83.9778527067
 20
663.6910261635
 10
82.2495407952
 20
664.0067791259
 10
80.703446486
 20
664.3805012189
 10
79.3683705906
 20
664.8052307071
 10
78.269183047
 20
665.2730556836
 10
77.4263596394
 20
665.7752614543
 10
76.8556005732
 20
666.3024928759
 10
76.5675380098
 20
666.8449286246
 10
76.5314039323
 20
667.1186963867
  0
LWPOLYLINE
  5
1AD
330
1F
100
AcDbEntity
  8
0
  6
Continuous
 62
     7
370
    25
100
AcDbPolyline
 90
       11
 70
   128
 43
0.0
 10
0.484449189
 20
-526.3706397985
 10
2.2538410345
 20
-526.4085868087
 10
3.974968483
 20
-526.5213927435
 10
5.6008836642
 20
-526.7059805512
 10
7.0872358504
 20
-526.9573151576
 10
8.3934812288
 20
-527.2685408098
 10
9.4839888303
 20
-527.6311680833
 10
10.3290124506
 20
-528.0353054514
 10
10.9055020479
 20
-528.4699291002
 10
11.1977324888
 20
-528.9231836295
 10
11.234449189
 20
-529.1529445334
  0
LWPOLYLINE
  5
1AE
330
1F
100
AcDbEntity
  8
0
  6
Continuous
 62
     7
370
    25
100
AcDbPolyline
 90
       11
 70
   128
 43
0.0
 10
-10.265550811
 20
-529.1529445334
 10
-10.2288341108
 20
-528.9231836295
 10
-9.9366036698
 20
-528.4699291002
 10
-9.3601140725
 20
-528.0353054514
 10
-8.5150904523
 20
-527.6311680833
 10
-7.4245828507
 20
-527.2685408098
 10
-6.1183374724
 20
-526.9573151576
 10
-4.6319852861
 20
-526.7059805512
 10
-3.0060701049
 20
-526.5213927435
 10
-1.2849426565
 20
-526.4085868087
 10
0.484449189
 20
-526.3706397985
  0
LWPOLYLINE
  5
1AF
330
1F
100
AcDbEntity
  8
0
  6
Continuous
 62
     7
370
    25
100
AcDbPolyline
 90
       13
 70
   128
 43
0.0
 10
0.484449189
 20
-513.0671765057
 10
2.59503225
 20
-513.1045416513
 10
4.666299142
 20
-513.215941046
 10
6.6596660816
 20
-513.39929953
 10
8.5380004146
 20
-513.6512014816
 10
10.2663123261
 20
-513.966954444
 10
11.8124066353
 20
-514.340676537
 10
13.1474825307
 20
-514.7654060251
 10
14.2466700743
 20
-515.2332310016
 10
15.0894934819
 20
-515.7354367724
 10
15.6602525481
 20
-516.262668194
 10
15.9483151115
 20
-516.8051039427
 10
15.984449189
 20
-517.0788717048
  0
LWPOLYLINE
  5
1B0
330
1F
100
AcDbEntity
  8
0
  6
Continuous
 62
     7
370
    25
100
AcDbPolyline
 90
       13
 70
   128
 43
0.0
 10
-15.015550811
 20
-517.0788717048
 10
-14.9794167334
 20
-516.8051039427
 10
-14.6913541701
 20
-516.262668194
 10
-14.1205951038
 20
-515.7354367724
 10
-13.2777716962
 20
-515.2332310016
 10
-12.1785841526
 20
-514.7654060251
 10
-10.8435082573
 20
-514.340676537
 10
-9.297413948
 20
-513.966954444
 10
-7.5691020365
 20
-513.6512014816
 10
-5.6907677036
 20
-513.39929953
 10
-3.6974007639
 20
-513.215941046
 10
-1.626133872
 20
-513.1045416513
 10
0.484449189
 20
-513.0671765057
  0
ARC
  5
1B1
330
1F
100
AcDbEntity
  8
0
  6
Continuous
 62
     7
370
    25
100
AcDbCircle
 10
97.8792317177
 20
675.4079544268
 30
0.0
 40
6.95739810705796
100
AcDbArc
 50
52.939980398
 51
79.3770455193
  0
ARC
  5
1B2
330
1F
100
AcDbEntity
  8
0
  6
Continuous
 62
     7
370
    25
100
AcDbCircle
 10
92.030393561
 20
712.1358170678
 30
0.0
 40
34.54000028780835
100
AcDbArc
 50
259.3277359275
 51
280.7184912194
  0
ARC
  5
1B3
330
1F
100
AcDbEntity
  8
0
  6
Continuous
 62
     7
370
    25
100
AcDbCircle
 10
86.0076775261
 20
675.8075466474
 30
0.0
 40
6.532981729006805
100
AcDbArc
 50
99.7527286095
 51
127.9608438796
  0
LINE
  5
1B4
330
1F
100
AcDbEntity
  8
0
  6
Continuous
 62
     7
370
    25
100
AcDbLine
 10
81.2814039323
 20
679.7579807308
 30
0.0
 11
81.284085889
 21
679.8201268846
 31
0.0
  0
ARC
  5
1B5
330
1F
100
AcDbEntity
  8
0
  6
Continuous
 62
     7
370
    25
100
AcDbCircle
 10
236.4549326863
 20
674.5282118134
 30
0.0
 40
7.872780542046901
100
AcDbArc
 50
101.3837128482
 51
122.2489910794
  0
ARC
  5
1B6
330
1F
100
AcDbEntity
  8
0
  6
Continuous
 62
     7
370
    25
100
AcDbCircle
 10
247.6257868936
 20
674.5862508092
 30
0.0
 40
7.81235032238827
100
AcDbArc
 50
57.4593974811
 51
78.661051575
  0
LINE
  5
1B7
330
1F
100
AcDbEntity
  8
0
  6
Continuous
 62
     7
370
    25
100
AcDbLine
 10
252.7814039322
 20
679.7579807308
 30
0.0
 11
252.7787219755
 21
679.6958345771
 31
0.0
  0
ARC
  5
1B8
330
1F
100
AcDbEntity
  8
0
  6
Continuous
 62
     7
370
    25
100
AcDbCircle
 10
327.7305308901
 20
-525.3681297449
 30
0.0
 40
6.957398107054876
100
AcDbArc
 50
232.939980398
 51
259.3770455193
  0
ARC
  5
1B9
330
1F
100
AcDbEntity
  8
0
  6
Continuous
 62
     7
370
    25
100
AcDbCircle
 10
333.5793690467
 20
-562.0959923859
 30
0.0
 40
34.54000028780892
100
AcDbArc
 50
79.3277359275
 51
100.7184912194
  0
ARC
  5
1BA
330
1F
100
AcDbEntity
  8
0
  6
Continuous
 62
     7
370
    25
100
AcDbCircle
 10
339.6020850817
 20
-525.7677219656
 30
0.0
 40
6.53298172889404
100
AcDbArc
 50
279.7527286093
 51
307.9608438799
  0
LINE
  5
1BB
330
1F
100
AcDbEntity
  8
0
  6
Continuous
 62
     7
370
    25
100
AcDbLine
 10
344.3283586755
 20
-529.7181560489
 30
0.0
 11
344.3256767187
 21
-529.7803022027
 31
0.0
  0
ARC
  5
1BC
330
1F
100
AcDbEntity
  8
0
  6
Continuous
 62
     7
370
    25
100
AcDbCircle
 10
328.0018874295
 20
719.0903241209
 30
0.0
 40
7.872780542047842
100
AcDbArc
 50
101.3837128482
 51
122.2489910794
  0
ARC
  5
1BD
330
1F
100
AcDbEntity
  8
0
  6
Continuous
 62
     7
370
    25
100
AcDbCircle
 10
339.1727416368
 20
719.1483631168
 30
0.0
 40
7.8123503223896
100
AcDbArc
 50
57.4593974811
 51
78.6610515749
  0
LINE
  5
1BE
330
1F
100
AcDbEntity
  8
0
  6
Continuous
 62
     7
370
    25
100
AcDbLine
 10
344.3283586755
 20
724.3200930384
 30
0.0
 11
344.3256767187
 21
724.2579468846
 31
0.0
  0
ARC
  5
1BF
330
1F
100
AcDbEntity
  8
0
  6
Continuous
 62
     7
370
    25
100
AcDbCircle
 10
236.1835761469
 20
-480.8060174374
 30
0.0
 40
6.957398107056501
100
AcDbArc
 50
232.939980398
 51
259.3770455193
  0
ARC
  5
1C0
330
1F
100
AcDbEntity
  8
0
  6
Continuous
 62
     7
370
    25
100
AcDbCircle
 10
242.0324143035
 20
-517.5338800783
 30
0.0
 40
34.5400002878049
100
AcDbArc
 50
79.3277359275
 51
100.7184912194
  0
ARC
  5
1C1
330
1F
100
AcDbEntity
  8
0
  6
Continuous
 62
     7
370
    25
100
AcDbCircle
 10
248.0551303384
 20
-481.205609658
 30
0.0
 40
6.532981728970407
100
AcDbArc
 50
279.7527286095
 51
307.9608438797
  0
LINE
  5
1C2
330
1F
100
AcDbEntity
  8
0
  6
Continuous
 62
     7
370
    25
100
AcDbLine
 10
252.7814039322
 20
-485.1560437414
 30
0.0
 11
252.7787219755
 21
-485.2181898952
 31
0.0
  0
ARC
  5
1C3
330
1F
100
AcDbEntity
  8
0
  6
Continuous
 62
     7
370
    25
100
AcDbCircle
 10
97.6078751782
 20
-479.9262748239
 30
0.0
 40
7.872780542046897
100
AcDbArc
 50
281.3837128482
 51
302.2489910794
  0
ARC
  5
1C4
330
1F
100
AcDbEntity
  8
0
  6
Continuous
 62
     7
370
    25
100
AcDbCircle
 10
86.437020971
 20
-479.9843138197
 30
0.0
 40
7.812350322390035
100
AcDbArc
 50
237.4593974811
 51
258.6610515749
  0
LINE
  5
1C5
330
1F
100
AcDbEntity
  8
0
  6
Continuous
 62
     7
370
    25
100
AcDbLine
 10
81.2814039323
 20
-485.1560437414
 30
0.0
 11
81.284085889
 21
-485.0938975876
 31
0.0
  0
ARC
  5
1C6
330
1F
100
AcDbEntity
  8
0
  6
Continuous
 62
     7
370
    25
100
AcDbCircle
 10
6.3322769744
 20
719.9700667344
 30
0.0
 40
6.95739810705948
100
AcDbArc
 50
52.939980398
 51
79.3770455193
  0
ARC
  5
1C7
330
1F
100
AcDbEntity
  8
0
  6
Continuous
 62
     7
370
    25
100
AcDbCircle
 10
0.4834388178
 20
756.6979293754
 30
0.0
 40
34.54000028779874
100
AcDbArc
 50
259.3277359275
 51
280.7184912195
  0
ARC
  5
1C8
330
1F
100
AcDbEntity
  8
0
  6
Continuous
 62
     7
370
    25
100
AcDbCircle
 10
-5.5392772171
 20
720.369658955
 30
0.0
 40
6.532981729016382
100
AcDbArc
 50
99.7527286096
 51
127.9608438796
  0
LINE
  5
1C9
330
1F
100
AcDbEntity
  8
0
  6
Continuous
 62
     7
370
    25
100
AcDbLine
 10
-10.265550811
 20
724.3200930384
 30
0.0
 11
-10.2628688542
 21
724.3822391922
 31
0.0
  0
ARC
  5
1CA
330
1F
100
AcDbEntity
  8
0
  6
Continuous
 62
     7
370
    25
100
AcDbCircle
 10
6.060920435
 20
-524.4883871314
 30
0.0
 40
7.872780542044726
100
AcDbArc
 50
281.3837128482
 51
302.2489910794
  0
ARC
  5
1CB
330
1F
100
AcDbEntity
  8
0
  6
Continuous
 62
     7
370
    25
100
AcDbCircle
 10
-5.1099337723
 20
-524.5464261273
 30
0.0
 40
7.812350322391666
100
AcDbArc
 50
237.4593974811
 51
258.6610515749
  0
LINE
  5
1CC
330
1F
100
AcDbEntity
  8
0
  6
Continuous
 62
     7
370
    25
100
AcDbLine
 10
-10.265550811
 20
-529.7181560489
 30
0.0
 11
-10.2628688542
 21
-529.6560098951
 31
0.0
  0
LINE
  5
1CD
330
1F
100
AcDbEntity
  8
0
  6
Continuous
 62
     7
370
    25
100
AcDbLine
 10
-3482.9685960677
 20
-778.6580088939
 30
0.0
 11
-735.9546877195
 21
-778.6580088939
 31
0.0
  0
LINE
  5
1CE
330
1F
100
AcDbEntity
  8
0
  6
Continuous
 62
     7
370
    25
100
AcDbLine
 10
-496.5850932271
 20
-778.6580088939
 30
0.0
 11
830.6479010916
 21
-778.6580088939
 31
0.0
  0
LINE
  5
1CF
330
1F
100
AcDbEntity
  8
0
  6
Continuous
 62
     7
370
    25
100
AcDbLine
 10
1070.017495584
 20
-778.6580088939
 30
0.0
 11
3817.0314039323
 21
-778.6580088939
 31
0.0
  0
LINE
  5
1D0
330
1F
100
AcDbEntity
  8
0
  6
Continuous
 62
     7
370
    25
100
AcDbLine
 10
-3482.9685960677
 20
971.3419911061
 30
0.0
 11
-3482.9685960677
 21
-778.6580088939
 31
0.0
  0
LINE
  5
1D1
330
1F
100
AcDbEntity
  8
0
  6
Continuous
 62
     7
370
    25
100
AcDbLine
 10
3817.0314039323
 20
971.3419911061
 30
0.0
 11
1066.0773116453
 21
971.3419911061
 31
0.0
  0
LINE
  5
1D2
330
1F
100
AcDbEntity
  8
0
  6
Continuous
 62
     7
370
    25
100
AcDbLine
 10
826.7077171529
 20
971.3419911061
 30
0.0
 11
-492.6449092884
 21
971.3419911061
 31
0.0
  0
LINE
  5
1D3
330
1F
100
AcDbEntity
  8
0
  6
Continuous
 62
     7
370
    25
100
AcDbLine
 10
-732.0145037808
 20
971.3419911061
 30
0.0
 11
-3482.9685960677
 21
971.3419911061
 31
0.0
  0
LINE
  5
1D4
330
1F
100
AcDbEntity
  8
0
  6
Continuous
 62
     7
370
    25
100
AcDbLine
 10
3817.0314039323
 20
-778.6580088939
 30
0.0
 11
3817.0314039323
 21
971.3419911061
 31
0.0
  0
LINE
  5
1D5
330
1F
100
AcDbEntity
  8
0
  6
Continuous
 62
     7
370
    25
100
AcDbLine
 10
128.8291472803
 20
279.7618310192
 30
0.0
 11
129.3578781688
 21
279.8421145073
 31
0.0
  0
ARC
  5
1D6
330
1F
100
AcDbEntity
  8
0
  6
Continuous
 62
     7
370
    25
100
AcDbCircle
 10
128.7797265258
 20
282.2690886774
 30
0.0
 40
2.507744679063436
100
AcDbArc
 50
107.1165784436
 51
271.1292154256
  0
LINE
  5
1D7
330
1F
100
AcDbEntity
  8
0
  6
Continuous
 62
     7
370
    25
100
AcDbLine
 10
128.77653542
 20
279.747474875
 30
0.0
 11
129.3052663085
 21
279.827758363
 31
0.0
  0
ARC
  5
1D8
330
1F
100
AcDbEntity
  8
0
  6
Continuous
 62
     7
370
    25
100
AcDbCircle
 10
128.7271146655
 20
282.2547325331
 30
0.0
 40
2.507744679063386
100
AcDbArc
 50
107.1165784435
 51
271.1292154256
  0
ARC
  5
1D9
330
1F
100
AcDbEntity
  8
0
  6
Continuous
 62
     7
370
    25
100
AcDbCircle
 10
128.7618240397
 20
-89.586888634
 30
0.0
 40
2.500827438194891
100
AcDbArc
 50
76.211250303
 51
253.2633993562
  0
ARC
  5
1DA
330
1F
100
AcDbEntity
  8
0
  6
Continuous
 62
     7
370
    25
100
AcDbCircle
 10
128.7092121794
 20
-89.5725324897
 30
0.0
 40
2.500827438194897
100
AcDbArc
 50
76.211250303
 51
253.2633993562
  0
ARC
  5
1DB
330
1F
100
AcDbEntity
  8
0
  6
Continuous
 62
     7
370
    25
100
AcDbCircle
 10
121.2657849116
 20
281.6648653665
 30
0.0
 40
4.601805981026587
100
AcDbArc
 50
53.6547886288
 51
96.7070774901
  0
ARC
  5
1DC
330
1F
100
AcDbEntity
  8
0
  6
Continuous
 62
     7
370
    25
100
AcDbCircle
 10
121.3263296709
 20
281.5560422578
 30
0.0
 40
5.085856109081478
100
AcDbArc
 50
263.208802173
 51
303.4740062744
  0
LINE
  5
1DD
330
1F
100
AcDbEntity
  8
0
  6
Continuous
 62
     7
370
    25
100
AcDbLine
 10
120.4537945597
 20
287.3632494153
 30
0.0
 11
119.2421239258
 21
286.2054556942
 31
0.0
  0
ARC
  5
1DE
330
1F
100
AcDbEntity
  8
0
  6
Continuous
 62
     7
370
    25
100
AcDbCircle
 10
128.437806607
 20
281.3419911058
 30
0.0
 40
10.00000000000002
100
AcDbArc
 50
97.85504277
 51
142.9776987282
  0
ARC
  5
1DF
330
1F
100
AcDbEntity
  8
0
  6
Continuous
 62
     7
370
    25
100
AcDbCircle
 10
128.437806607
 20
281.3419911058
 30
0.0
 40
10.00000000000003
100
AcDbArc
 50
217.0223012718
 51
263.3759476331
  0
LWPOLYLINE
  5
1E0
330
1F
100
AcDbEntity
  8
0
  6
Continuous
 62
     7
370
    25
100
AcDbPolyline
 90
        3
 70
   128
 43
0.0
 10
119.2425898229
 20
276.4762649946
 10
119.3545632902
 20
276.4013669524
 10
120.4537945597
 20
275.3207327963
  0
ARC
  5
1E1
330
1F
100
AcDbEntity
  8
0
  6
Continuous
 62
     7
370
    25
100
AcDbCircle
 10
121.2657849116
 20
-88.3351346335
 30
0.0
 40
4.601805981024834
100
AcDbArc
 50
53.6547886288
 51
96.7070774901
  0
ARC
  5
1E2
330
1F
100
AcDbEntity
  8
0
  6
Continuous
 62
     7
370
    25
100
AcDbCircle
 10
121.3263296709
 20
-88.4439577422
 30
0.0
 40
5.085856109082691
100
AcDbArc
 50
263.208802173
 51
303.4740062744
  0
ARC
  5
1E3
330
1F
100
AcDbEntity
  8
0
  6
Continuous
 62
     7
370
    25
100
AcDbCircle
 10
128.437806607
 20
-88.6580088942
 30
0.0
 40
10.00000000000001
100
AcDbArc
 50
217.0223012718
 51
262.1142011942
  0
LWPOLYLINE
  5
1E4
330
1F
100
AcDbEntity
  8
0
  6
Continuous
 62
     7
370
    25
100
AcDbPolyline
 90
        3
 70
   128
 43
0.0
 10
119.2425898229
 20
-93.5237350054
 10
119.3545632902
 20
-93.5986330476
 10
120.4537945597
 20
-94.6792672037
  0
LINE
  5
1E5
330
1F
100
AcDbEntity
  8
0
  6
Continuous
 62
     7
370
    25
100
AcDbLine
 10
120.4537945597
 20
-82.6367505847
 30
0.0
 11
119.2421239258
 21
-83.7945443058
 31
0.0
  0
ARC
  5
1E6
330
1F
100
AcDbEntity
  8
0
  6
Continuous
 62
     7
370
    25
100
AcDbCircle
 10
128.437806607
 20
-88.6580088942
 30
0.0
 40
10.00000000000001
100
AcDbArc
 50
96.4602733799
 51
142.9776987282
  0
ARC
  5
1E7
330
1F
100
AcDbEntity
  8
0
  6
Continuous
 62
     7
370
    25
100
AcDbCircle
 10
205.6098283023
 20
-88.9808831549
 30
0.0
 40
4.601805981024464
100
AcDbArc
 50
233.6547886288
 51
276.7070774901
  0
ARC
  5
1E8
330
1F
100
AcDbEntity
  8
0
  6
Continuous
 62
     7
370
    25
100
AcDbCircle
 10
205.549283543
 20
-88.8720600462
 30
0.0
 40
5.085856109083191
100
AcDbArc
 50
83.208802173
 51
123.4740062744
  0
ARC
  5
1E9
330
1F
100
AcDbEntity
  8
0
  6
Continuous
 62
     7
370
    25
100
AcDbCircle
 10
198.437806607
 20
-88.6580088942
 30
0.0
 40
10.00000000000001
100
AcDbArc
 50
37.0223012718
 51
68.9391197807
  0
LWPOLYLINE
  5
1EA
330
1F
100
AcDbEntity
  8
0
  6
Continuous
 62
     7
370
    25
100
AcDbPolyline
 90
        3
 70
   128
 43
0.0
 10
207.633023391
 20
-83.792282783
 10
207.5210499237
 20
-83.7173847408
 10
206.4218186542
 20
-82.6367505847
  0
LINE
  5
1EB
330
1F
100
AcDbEntity
  8
0
  6
Continuous
 62
     7
370
    25
100
AcDbLine
 10
206.4218186542
 20
-94.6792672037
 30
0.0
 11
207.6334892881
 21
-93.5214734826
 31
0.0
  0
ARC
  5
1EC
330
1F
100
AcDbEntity
  8
0
  6
Continuous
 62
     7
370
    25
100
AcDbCircle
 10
198.437806607
 20
-88.6580088942
 30
0.0
 40
10.00000000000001
100
AcDbArc
 50
291.0608802193
 51
322.9776987282
  0
ARC
  5
1ED
330
1F
100
AcDbEntity
  8
0
  6
Continuous
 62
     7
370
    25
100
AcDbCircle
 10
205.6098283023
 20
281.0191168451
 30
0.0
 40
4.601805981025347
100
AcDbArc
 50
233.6547886288
 51
276.7070774901
  0
ARC
  5
1EE
330
1F
100
AcDbEntity
  8
0
  6
Continuous
 62
     7
370
    25
100
AcDbCircle
 10
205.549283543
 20
281.1279399538
 30
0.0
 40
5.085856109084069
100
AcDbArc
 50
83.208802173
 51
123.4740062744
  0
ARC
  5
1EF
330
1F
100
AcDbEntity
  8
0
  6
Continuous
 62
     7
370
    25
100
AcDbCircle
 10
198.437806607
 20
281.3419911058
 30
0.0
 40
10.00000000000001
100
AcDbArc
 50
37.0223012718
 51
68.9391197807
  0
LWPOLYLINE
  5
1F0
330
1F
100
AcDbEntity
  8
0
  6
Continuous
 62
     7
370
    25
100
AcDbPolyline
 90
        3
 70
   128
 43
0.0
 10
207.633023391
 20
286.207717217
 10
207.5210499237
 20
286.2826152592
 10
206.4218186542
 20
287.3632494153
  0
LINE
  5
1F1
330
1F
100
AcDbEntity
  8
0
  6
Continuous
 62
     7
370
    25
100
AcDbLine
 10
206.4218186542
 20
275.3207327963
 30
0.0
 11
207.6334892881
 21
276.4785265174
 31
0.0
  0
ARC
  5
1F2
330
1F
100
AcDbEntity
  8
0
  6
Continuous
 62
     7
370
    25
100
AcDbCircle
 10
198.437806607
 20
281.3419911058
 30
0.0
 40
10.00000000000001
100
AcDbArc
 50
291.0608802193
 51
322.9776987282
  0
ARC
  5
1F3
330
1F
100
AcDbEntity
  8
0
  6
Continuous
 62
     7
370
    25
100
AcDbCircle
 10
207.437806607
 20
290.3419911058
 30
0.0
 40
6.0
100
AcDbArc
 50
0.0
 51
90.0
  0
LINE
  5
1F4
330
1F
100
AcDbEntity
  8
0
  6
Continuous
 62
     7
370
    25
100
AcDbLine
 10
213.437806607
 20
272.3419911058
 30
0.0
 11
213.437806607
 21
277.0197867549
 31
0.0
  0
LINE
  5
1F5
330
1F
100
AcDbEntity
  8
0
  6
Continuous
 62
     7
370
    25
100
AcDbLine
 10
213.437806607
 20
285.6648608319
 30
0.0
 11
213.437806607
 21
290.3419911058
 31
0.0
  0
ARC
  5
1F6
330
1F
100
AcDbEntity
  8
0
  6
Continuous
 62
     7
370
    25
100
AcDbCircle
 10
207.437806607
 20
272.3419911058
 30
0.0
 40
6.0
100
AcDbArc
 50
270.0
 51
0.0
  0
LINE
  5
1F7
330
1F
100
AcDbEntity
  8
0
  6
Continuous
 62
     7
370
    25
100
AcDbLine
 10
202.0314039323
 20
266.3419911058
 30
0.0
 11
207.437806607
 21
266.3419911058
 31
0.0
  0
LINE
  5
1F8
330
1F
100
AcDbEntity
  8
0
  6
Continuous
 62
     7
370
    25
100
AcDbLine
 10
119.437806607
 20
266.3419911058
 30
0.0
 11
132.0314039323
 21
266.3419911058
 31
0.0
  0
ARC
  5
1F9
330
1F
100
AcDbEntity
  8
0
  6
Continuous
 62
     7
370
    25
100
AcDbCircle
 10
119.437806607
 20
272.3419911058
 30
0.0
 40
6.000000000000014
100
AcDbArc
 50
180.0
 51
270.0
  0
LINE
  5
1FA
330
1F
100
AcDbEntity
  8
0
  6
Continuous
 62
     7
370
    25
100
AcDbLine
 10
113.437806607
 20
290.3419911058
 30
0.0
 11
113.437806607
 21
285.6641954567
 31
0.0
  0
LINE
  5
1FB
330
1F
100
AcDbEntity
  8
0
  6
Continuous
 62
     7
370
    25
100
AcDbLine
 10
113.437806607
 20
277.0191213797
 30
0.0
 11
113.437806607
 21
272.3419911058
 31
0.0
  0
ARC
  5
1FC
330
1F
100
AcDbEntity
  8
0
  6
Continuous
 62
     7
370
    25
100
AcDbCircle
 10
119.437806607
 20
290.3419911058
 30
0.0
 40
6.000000000000014
100
AcDbArc
 50
90.0
 51
180.0
  0
LINE
  5
1FD
330
1F
100
AcDbEntity
  8
0
  6
Continuous
 62
     7
370
    25
100
AcDbLine
 10
132.0314039323
 20
296.3419911058
 30
0.0
 11
119.437806607
 21
296.3419911058
 31
0.0
  0
LINE
  5
1FE
330
1F
100
AcDbEntity
  8
0
  6
Continuous
 62
     7
370
    25
100
AcDbLine
 10
207.437806607
 20
296.3419911058
 30
0.0
 11
202.0314039323
 21
296.3419911058
 31
0.0
  0
ARC
  5
1FF
330
1F
100
AcDbEntity
  8
0
  6
Continuous
 62
     7
370
    25
100
AcDbCircle
 10
198.437806607
 20
281.3419911058
 30
0.0
 40
10.50000000000003
100
AcDbArc
 50
28.3442980064
 51
69.9861450687
  0
ARC
  5
200
330
1F
100
AcDbEntity
  8
0
  6
Continuous
 62
     7
370
    25
100
AcDbCircle
 10
198.437806607
 20
281.3419911058
 30
0.0
 40
10.50000000000001
100
AcDbArc
 50
290.0138549313
 51
331.4997281903
  0
ARC
  5
201
330
1F
100
AcDbEntity
  8
0
  6
Continuous
 62
     7
370
    25
100
AcDbCircle
 10
128.437806607
 20
281.3419911058
 30
0.0
 40
10.50000000000007
100
AcDbArc
 50
96.4679857749
 51
152.6501953625
  0
ARC
  5
202
330
1F
100
AcDbEntity
  8
0
  6
Continuous
 62
     7
370
    25
100
AcDbCircle
 10
128.437806607
 20
281.3419911058
 30
0.0
 40
10.49999999999999
100
AcDbArc
 50
206.9357479594
 51
264.9300018848
  0
ARC
  5
203
330
1F
100
AcDbEntity
  8
0
  6
Continuous
 62
     7
370
    25
100
AcDbCircle
 10
115.0093713976
 20
-80.932944087
 30
0.0
 40
34.2260223936003
100
AcDbArc
 50
180.3767705273
 51
270.4285972927
  0
LINE
  5
204
330
1F
100
AcDbEntity
  8
0
  6
Continuous
 62
     7
370
    25
100
AcDbLine
 10
80.7840890069
 20
273.8419911058
 30
0.0
 11
80.7840890069
 21
-81.1580088942
 31
0.0
  0
ARC
  5
205
330
1F
100
AcDbEntity
  8
0
  6
Continuous
 62
     7
370
    25
100
AcDbCircle
 10
115.044011176
 20
273.581796158
 30
0.0
 40
34.26091021034524
100
AcDbArc
 50
89.6297699385
 51
179.5648622416
  0
ARC
  5
206
330
1F
100
AcDbEntity
  8
0
  6
Continuous
 62
     7
370
    25
100
AcDbCircle
 10
211.8662418163
 20
273.6169262987
 30
0.0
 40
34.22602239360029
100
AcDbArc
 50
0.3767705273
 51
90.4285972927
  0
LINE
  5
207
330
1F
100
AcDbEntity
  8
0
  6
Continuous
 62
     7
370
    25
100
AcDbLine
 10
246.091524207
 20
-81.1580088942
 30
0.0
 11
246.091524207
 21
273.8419911058
 31
0.0
  0
ARC
  5
208
330
1F
100
AcDbEntity
  8
0
  6
Continuous
 62
     7
370
    25
100
AcDbCircle
 10
211.8316020379
 20
-80.8978139464
 30
0.0
 40
34.26091021034509
100
AcDbArc
 50
269.6297699385
 51
359.5648622416
  0
LINE
  5
209
330
1F
100
AcDbEntity
  8
0
  6
Continuous
 62
     7
370
    25
100
AcDbLine
 10
115.937806607
 20
313.8419911058
 30
0.0
 11
132.0314039323
 21
313.8419911058
 31
0.0
  0
LINE
  5
20A
330
1F
100
AcDbEntity
  8
0
  6
Continuous
 62
     7
370
    25
100
AcDbLine
 10
202.0314039323
 20
313.8419911058
 30
0.0
 11
210.937806607
 21
313.8419911058
 31
0.0
  0
LWPOLYLINE
  5
20B
330
1F
100
AcDbEntity
  8
0
  6
Continuous
 62
     7
370
    25
100
AcDbPolyline
 90
        9
 70
   128
 43
0.0
 10
210.937806607
 20
313.8419911058
 10
211.0689876997
 20
313.7267027882
 10
211.1951275767
 20
313.3852683009
 10
211.311378753
 20
312.8308087796
 10
211.4132737613
 20
312.0846317929
 10
211.4968968335
 20
311.1754125039
 10
211.5590343819
 20
310.1380917
 10
211.5972984952
 20
309.0125330379
 10
211.6102187051
 20
307.8419911058
  0
LWPOLYLINE
  5
20C
330
1F
100
AcDbEntity
  8
0
  6
Continuous
 62
     7
370
    25
100
AcDbPolyline
 90
        9
 70
   128
 43
0.0
 10
115.937806607
 20
313.8419911058
 10
115.8066255142
 20
313.7267027882
 10
115.6804856373
 20
313.3852683009
 10
115.5642344609
 20
312.8308087796
 10
115.4623394526
 20
312.0846317929
 10
115.3787163804
 20
311.1754125039
 10
115.316578832
 20
310.1380917
 10
115.2783147187
 20
309.0125330379
 10
115.2653945088
 20
307.8419911058
  0
ARC
  5
20D
330
1F
100
AcDbEntity
  8
0
  6
Continuous
 62
     7
370
    25
100
AcDbCircle
 10
207.437806607
 20
-79.6580088942
 30
0.0
 40
6.000000000000014
100
AcDbArc
 50
0.0
 51
90.0
  0
ARC
  5
20E
330
1F
100
AcDbEntity
  8
0
  6
Continuous
 62
     7
370
    25
100
AcDbCircle
 10
207.437806607
 20
-97.6580088942
 30
0.0
 40
6.0
100
AcDbArc
 50
270.0
 51
0.0
  0
LINE
  5
20F
330
1F
100
AcDbEntity
  8
0
  6
Continuous
 62
     7
370
    25
100
AcDbLine
 10
207.437806607
 20
-103.6580088942
 30
0.0
 11
202.0314039323
 21
-103.6580088942
 31
0.0
  0
LINE
  5
210
330
1F
100
AcDbEntity
  8
0
  6
Continuous
 62
     7
370
    25
100
AcDbLine
 10
132.0314039323
 20
-103.6580088942
 30
0.0
 11
119.437806607
 21
-103.6580088942
 31
0.0
  0
ARC
  5
211
330
1F
100
AcDbEntity
  8
0
  6
Continuous
 62
     7
370
    25
100
AcDbCircle
 10
119.437806607
 20
-97.6580088942
 30
0.0
 40
6.000000000000014
100
AcDbArc
 50
180.0
 51
270.0
  0
LINE
  5
212
330
1F
100
AcDbEntity
  8
0
  6
Continuous
 62
     7
370
    25
100
AcDbLine
 10
113.437806607
 20
-97.6580088942
 30
0.0
 11
113.437806607
 21
-92.9808786203
 31
0.0
  0
LINE
  5
213
330
1F
100
AcDbEntity
  8
0
  6
Continuous
 62
     7
370
    25
100
AcDbLine
 10
113.437806607
 20
-84.3358045433
 30
0.0
 11
113.437806607
 21
-79.6580088942
 31
0.0
  0
ARC
  5
214
330
1F
100
AcDbEntity
  8
0
  6
Continuous
 62
     7
370
    25
100
AcDbCircle
 10
119.437806607
 20
-79.6580088942
 30
0.0
 40
6.000000000000014
100
AcDbArc
 50
90.0
 51
180.0
  0
ARC
  5
215
330
1F
100
AcDbEntity
  8
0
  6
Continuous
 62
     7
370
    25
100
AcDbCircle
 10
198.437806607
 20
-88.6580088942
 30
0.0
 40
10.5
100
AcDbArc
 50
28.3442980064
 51
69.9861450687
  0
ARC
  5
216
330
1F
100
AcDbEntity
  8
0
  6
Continuous
 62
     7
370
    25
100
AcDbCircle
 10
198.437806607
 20
-88.6580088942
 30
0.0
 40
10.50000000000002
100
AcDbArc
 50
290.0138549313
 51
331.4997281903
  0
ARC
  5
217
330
1F
100
AcDbEntity
  8
0
  6
Continuous
 62
     7
370
    25
100
AcDbCircle
 10
128.437806607
 20
-88.6580088942
 30
0.0
 40
10.50000000000002
100
AcDbArc
 50
95.0579523333
 51
152.6501953625
  0
ARC
  5
218
330
1F
100
AcDbEntity
  8
0
  6
Continuous
 62
     7
370
    25
100
AcDbCircle
 10
128.437806607
 20
-88.6580088942
 30
0.0
 40
10.50000000000002
100
AcDbArc
 50
206.9357479594
 51
263.7437562055
  0
LINE
  5
219
330
1F
100
AcDbEntity
  8
0
  6
Continuous
 62
     7
370
    25
100
AcDbLine
 10
213.437806607
 20
-79.6580088942
 30
0.0
 11
213.437806607
 21
-84.3351391681
 31
0.0
  0
LINE
  5
21A
330
1F
100
AcDbEntity
  8
0
  6
Continuous
 62
     7
370
    25
100
AcDbLine
 10
213.437806607
 20
-92.9802132451
 30
0.0
 11
213.437806607
 21
-97.6580088942
 31
0.0
  0
LINE
  5
21B
330
1F
100
AcDbEntity
  8
0
  6
Continuous
 62
     7
370
    25
100
AcDbLine
 10
119.437806607
 20
-73.6580088942
 30
0.0
 11
132.0314039323
 21
-73.6580088942
 31
0.0
  0
LINE
  5
21C
330
1F
100
AcDbEntity
  8
0
  6
Continuous
 62
     7
370
    25
100
AcDbLine
 10
202.0314039323
 20
-73.6580088942
 30
0.0
 11
207.437806607
 21
-73.6580088942
 31
0.0
  0
LWPOLYLINE
  5
21D
330
1F
100
AcDbEntity
  8
0
  6
Continuous
 62
     7
370
    25
100
AcDbPolyline
 90
        9
 70
   128
 43
0.0
 10
211.6102187051
 20
-115.1580088942
 10
211.5972984952
 20
-116.3285508263
 10
211.5590343819
 20
-117.4541094884
 10
211.4968968335
 20
-118.4914302923
 10
211.4132737613
 20
-119.4006495813
 10
211.311378753
 20
-120.146826568
 10
211.1951275767
 20
-120.7012860893
 10
211.0689876997
 20
-121.0427205766
 10
210.937806607
 20
-121.1580088942
  0
LINE
  5
21E
330
1F
100
AcDbEntity
  8
0
  6
Continuous
 62
     7
370
    25
100
AcDbLine
 10
210.937806607
 20
-121.1580088942
 30
0.0
 11
202.0314039323
 21
-121.1580088942
 31
0.0
  0
LINE
  5
21F
330
1F
100
AcDbEntity
  8
0
  6
Continuous
 62
     7
370
    25
100
AcDbLine
 10
132.0314039323
 20
-121.1580088942
 30
0.0
 11
115.937806607
 21
-121.1580088942
 31
0.0
  0
LWPOLYLINE
  5
220
330
1F
100
AcDbEntity
  8
0
  6
Continuous
 62
     7
370
    25
100
AcDbPolyline
 90
        9
 70
   128
 43
0.0
 10
115.2653945088
 20
-115.1580088942
 10
115.2783147187
 20
-116.3285508263
 10
115.316578832
 20
-117.4541094884
 10
115.3787163804
 20
-118.4914302923
 10
115.4623394526
 20
-119.4006495813
 10
115.5642344609
 20
-120.146826568
 10
115.6804856373
 20
-120.7012860893
 10
115.8066255142
 20
-121.0427205766
 10
115.937806607
 20
-121.1580088942
  0
ARC
  5
221
330
1F
100
AcDbEntity
  8
0
  6
Continuous
 62
     7
370
    25
100
AcDbCircle
 10
210.937806607
 20
273.8419911058
 30
0.0
 40
39.99999999999994
100
AcDbArc
 50
0.0
 51
90.0
  0
LINE
  5
222
330
1F
100
AcDbEntity
  8
0
  6
Continuous
 62
     7
370
    25
100
AcDbLine
 10
250.937806607
 20
273.8419911058
 30
0.0
 11
246.091524207
 21
273.8419911058
 31
0.0
  0
ARC
  5
223
330
1F
100
AcDbEntity
  8
0
  6
Continuous
 62
     7
370
    25
100
AcDbCircle
 10
115.937806607
 20
-81.1580088942
 30
0.0
 40
40.00000000000001
100
AcDbArc
 50
180.0
 51
270.0
  0
LINE
  5
224
330
1F
100
AcDbEntity
  8
0
  6
Continuous
 62
     7
370
    25
100
AcDbLine
 10
80.7840890069
 20
-81.1580088942
 30
0.0
 11
75.937806607
 21
-81.1580088942
 31
0.0
  0
LINE
  5
225
330
1F
100
AcDbEntity
  8
0
  6
Continuous
 62
     7
370
    25
100
AcDbLine
 10
80.7840890069
 20
273.8419911058
 30
0.0
 11
75.937806607
 21
273.8419911058
 31
0.0
  0
ARC
  5
226
330
1F
100
AcDbEntity
  8
0
  6
Continuous
 62
     7
370
    25
100
AcDbCircle
 10
115.9438979765
 20
273.8358997363
 30
0.0
 40
40.00609183324414
100
AcDbArc
 50
90.0087239155
 51
179.9912760845
  0
LINE
  5
227
330
1F
100
AcDbEntity
  8
0
  6
Continuous
 62
     7
370
    25
100
AcDbLine
 10
250.937806607
 20
-81.1580088942
 30
0.0
 11
246.091524207
 21
-81.1580088942
 31
0.0
  0
ARC
  5
228
330
1F
100
AcDbEntity
  8
0
  6
Continuous
 62
     7
370
    25
100
AcDbCircle
 10
210.9317152375
 20
-81.1519175247
 30
0.0
 40
40.0060918332442
100
AcDbArc
 50
270.0087239155
 51
359.9912760845
  0
LINE
  5
229
330
1F
100
AcDbEntity
  8
0
  6
Continuous
 62
     7
370
    25
100
AcDbLine
 10
250.937806607
 20
273.8419911058
 30
0.0
 11
250.937806607
 21
-81.1580088942
 31
0.0
  0
LINE
  5
22A
330
1F
100
AcDbEntity
  8
0
  6
Continuous
 62
     7
370
    25
100
AcDbLine
 10
75.937806607
 20
-81.1580088942
 30
0.0
 11
75.937806607
 21
273.8419911058
 31
0.0
  0
LINE
  5
22B
330
1F
100
AcDbEntity
  8
0
  6
Continuous
 62
     7
370
    25
100
AcDbLine
 10
136.0314039323
 20
578.5445250246
 30
0.0
 11
198.0314039323
 21
578.5445250246
 31
0.0
  0
LINE
  5
22C
330
1F
100
AcDbEntity
  8
0
  6
Continuous
 62
     7
370
    25
100
AcDbLine
 10
202.0314039323
 20
-383.9425880351
 30
0.0
 11
202.0314039323
 21
578.5445250246
 31
0.0
  0
LINE
  5
22D
330
1F
100
AcDbEntity
  8
0
  6
Continuous
 62
     7
370
    25
100
AcDbLine
 10
198.0314039323
 20
-383.9425880351
 30
0.0
 11
198.0314039323
 21
578.5445250246
 31
0.0
  0
LINE
  5
22E
330
1F
100
AcDbEntity
  8
0
  6
Continuous
 62
     7
370
    25
100
AcDbLine
 10
136.0314039323
 20
-383.9425880351
 30
0.0
 11
136.0314039323
 21
578.5445250246
 31
0.0
  0
LINE
  5
22F
330
1F
100
AcDbEntity
  8
0
  6
Continuous
 62
     7
370
    25
100
AcDbLine
 10
132.0314039323
 20
-383.9425880351
 30
0.0
 11
132.0314039323
 21
578.5445250246
 31
0.0
  0
LINE
  5
230
330
1F
100
AcDbEntity
  8
0
  6
Continuous
 62
     7
370
    25
100
AcDbLine
 10
136.0314039323
 20
-383.9425880351
 30
0.0
 11
198.0314039323
 21
-383.9425880351
 31
0.0
  0
LINE
  5
231
330
1F
100
AcDbEntity
  8
0
  6
Continuous
 62
     7
370
    25
100
AcDbLine
 10
152.1129861329
 20
640.3143440786
 30
0.0
 11
181.9498217316
 21
640.3143440786
 31
0.0
  0
LINE
  5
232
330
1F
100
AcDbEntity
  8
0
  6
Continuous
 62
     7
370
    25
100
AcDbLine
 10
182.3262445611
 20
583.374154156
 30
0.0
 11
151.737888291
 21
583.374154156
 31
0.0
  0
LWPOLYLINE
  5
233
330
1F
100
AcDbEntity
  8
0
  6
Continuous
 62
     7
370
    25
100
AcDbPolyline
 90
       12
 70
   128
 43
0.0
 10
162.5731610591
 20
600.5856206553
 10
162.7149356515
 20
600.840832785
 10
163.1287736942
 20
601.0753691457
 10
163.7811484903
 20
601.2702289964
 10
164.6192085136
 20
601.4096259508
 10
165.5750591252
 20
601.4822668968
 10
166.5712629931
 20
601.4822668968
 10
167.5271136046
 20
601.4096259508
 10
168.3651736279
 20
601.2702289964
 10
169.017548424
 20
601.0753691457
 10
169.4313864668
 20
600.840832785
 10
169.5731610591
 20
600.5856206553
  0
LINE
  5
234
330
1F
100
AcDbEntity
  8
0
  6
Continuous
 62
     7
370
    25
100
AcDbLine
 10
162.5731610591
 20
597.4797921141
 30
0.0
 11
162.5731610591
 21
600.5856206553
 31
0.0
  0
LWPOLYLINE
  5
235
330
1F
100
AcDbEntity
  8
0
  6
Continuous
 62
     7
370
    25
100
AcDbPolyline
 90
       12
 70
   128
 43
0.0
 10
169.5731610591
 20
597.4797921141
 10
169.4313864668
 20
597.2245799844
 10
169.017548424
 20
596.9900436237
 10
168.3651736279
 20
596.795183773
 10
167.5271136046
 20
596.6557868186
 10
166.5712629931
 20
596.5831458727
 10
165.5750591252
 20
596.5831458727
 10
164.6192085136
 20
596.6557868186
 10
163.7811484903
 20
596.795183773
 10
163.1287736942
 20
596.9900436237
 10
162.7149356515
 20
597.2245799844
 10
162.5731610591
 20
597.4797921141
  0
LINE
  5
236
330
1F
100
AcDbEntity
  8
0
  6
Continuous
 62
     7
370
    25
100
AcDbLine
 10
169.5731610591
 20
600.5856206553
 30
0.0
 11
169.5731610591
 21
597.4797921141
 31
0.0
  0
LWPOLYLINE
  5
237
330
1F
100
AcDbEntity
  8
0
  6
Continuous
 62
     7
370
    25
100
AcDbPolyline
 90
       12
 70
   128
 43
0.0
 10
162.5731610591
 20
588.1623064904
 10
162.7149356515
 20
588.4175186201
 10
163.1287736942
 20
588.6520549808
 10
163.7811484903
 20
588.8469148315
 10
164.6192085136
 20
588.9863117859
 10
165.5750591252
 20
589.0589527318
 10
166.5712629931
 20
589.0589527318
 10
167.5271136046
 20
588.9863117859
 10
168.3651736279
 20
588.8469148315
 10
169.017548424
 20
588.6520549808
 10
169.4313864668
 20
588.4175186201
 10
169.5731610591
 20
588.1623064904
  0
LINE
  5
238
330
1F
100
AcDbEntity
  8
0
  6
Continuous
 62
     7
370
    25
100
AcDbLine
 10
162.5731610591
 20
585.0564779492
 30
0.0
 11
162.5731610591
 21
588.1623064904
 31
0.0
  0
LWPOLYLINE
  5
239
330
1F
100
AcDbEntity
  8
0
  6
Continuous
 62
     7
370
    25
100
AcDbPolyline
 90
       12
 70
   128
 43
0.0
 10
169.5731610591
 20
585.0564779492
 10
169.4313864668
 20
584.8012658195
 10
169.017548424
 20
584.5667294588
 10
168.3651736279
 20
584.3718696081
 10
167.5271136046
 20
584.2324726537
 10
166.5712629931
 20
584.1598317077
 10
165.5750591252
 20
584.1598317077
 10
164.6192085136
 20
584.2324726537
 10
163.7811484903
 20
584.3718696081
 10
163.1287736942
 20
584.5667294588
 10
162.7149356515
 20
584.8012658195
 10
162.5731610591
 20
585.0564779492
  0
LINE
  5
23A
330
1F
100
AcDbEntity
  8
0
  6
Continuous
 62
     7
370
    25
100
AcDbLine
 10
169.5731610591
 20
588.1623064904
 30
0.0
 11
169.5731610591
 21
585.0564779492
 31
0.0
  0
ARC
  5
23B
330
1F
100
AcDbEntity
  8
0
  6
Continuous
 62
     7
370
    25
100
AcDbCircle
 10
75.9077778828
 20
626.2393545039
 30
0.0
 40
47.51401688129451
100
AcDbArc
 50
248.6789804169
 51
268.3297970284
  0
ARC
  5
23C
330
1F
100
AcDbEntity
  8
0
  6
Continuous
 62
     7
370
    25
100
AcDbCircle
 10
258.1550299818
 20
626.2393545039
 30
0.0
 40
47.51401688129017
100
AcDbArc
 50
271.6702029716
 51
291.3210195831
  0
LINE
  5
23D
330
1F
100
AcDbEntity
  8
0
  6
Continuous
 62
     7
370
    25
100
AcDbLine
 10
212.4333032264
 20
578.5445250246
 30
0.0
 11
121.6295046381
 21
578.5445250246
 31
0.0
  0
LINE
  5
23E
330
1F
100
AcDbEntity
  8
0
  6
Continuous
 62
     7
370
    25
100
AcDbLine
 10
275.4307942606
 20
581.9772966126
 30
0.0
 11
365.8213976431
 21
625.97653428
 31
0.0
  0
LINE
  5
23F
330
1F
100
AcDbEntity
  8
0
  6
Continuous
 62
     7
370
    25
100
AcDbLine
 10
58.6320136039
 20
581.9772966126
 30
0.0
 11
-31.7585897786
 21
625.97653428
 31
0.0
  0
ARC
  5
240
330
1F
100
AcDbEntity
  8
0
  6
Continuous
 62
     7
370
    25
100
AcDbCircle
 10
166.0731610591
 20
571.0859805836
 30
0.0
 40
13.15277807892466
100
AcDbArc
 50
85.3024832227
 51
94.6975167773
  0
ARC
  5
241
330
1F
100
AcDbEntity
  8
0
  6
Continuous
 62
     7
370
    25
100
AcDbCircle
 10
166.0731610591
 20
583.5092947484
 30
0.0
 40
13.15277807906246
100
AcDbArc
 50
85.3024832237
 51
94.6975167765
  0
LWPOLYLINE
  5
242
330
1F
100
AcDbEntity
  8
0
  6
Continuous
 62
     7
370
    25
100
AcDbPolyline
 90
        6
 70
   128
 43
0.0
 10
365.8213976431
 20
625.97653428
 10
366.9615587838
 20
626.6124158818
 10
367.8292406483
 20
627.2764895737
 10
368.41425857
 20
627.9609605989
 10
368.7097457324
 20
628.6577947813
 10
368.7477078216
 20
629.0142388196
  0
LWPOLYLINE
  5
243
330
1F
100
AcDbEntity
  8
0
  6
Continuous
 62
     7
370
    25
100
AcDbPolyline
 90
        6
 70
   128
 43
0.0
 10
-31.7585897786
 20
625.97653428
 10
-32.8987509193
 20
626.6124158818
 10
-33.7664327838
 20
627.2764895737
 10
-34.3514507055
 20
627.9609605989
 10
-34.6469378679
 20
628.6577947813
 10
-34.6848999571
 20
629.0142388196
  0
LINE
  5
244
330
1F
100
AcDbEntity
  8
0
  6
Continuous
 62
     7
370
    25
100
AcDbLine
 10
152.1129861329
 20
-445.7124070891
 30
0.0
 11
181.9498217316
 21
-445.7124070891
 31
0.0
  0
LINE
  5
245
330
1F
100
AcDbEntity
  8
0
  6
Continuous
 62
     7
370
    25
100
AcDbLine
 10
182.3249195735
 20
-388.7722171665
 30
0.0
 11
151.7365633034
 21
-388.7722171665
 31
0.0
  0
LINE
  5
246
330
1F
100
AcDbEntity
  8
0
  6
Continuous
 62
     7
370
    25
100
AcDbLine
 10
162.5731610591
 20
-402.8778551246
 30
0.0
 11
162.5731610591
 21
-405.9836836658
 31
0.0
  0
LWPOLYLINE
  5
247
330
1F
100
AcDbEntity
  8
0
  6
Continuous
 62
     7
370
    25
100
AcDbPolyline
 90
       12
 70
   128
 43
0.0
 10
162.5731610591
 20
-405.9836836658
 10
162.7149356515
 20
-406.2388957955
 10
163.1287736942
 20
-406.4734321563
 10
163.7811484903
 20
-406.6682920069
 10
164.6192085136
 20
-406.8076889614
 10
165.5750591252
 20
-406.8803299073
 10
166.5712629931
 20
-406.8803299073
 10
167.5271136046
 20
-406.8076889614
 10
168.3651736279
 20
-406.6682920069
 10
169.017548424
 20
-406.4734321563
 10
169.4313864668
 20
-406.2388957955
 10
169.5731610591
 20
-405.9836836658
  0
LINE
  5
248
330
1F
100
AcDbEntity
  8
0
  6
Continuous
 62
     7
370
    25
100
AcDbLine
 10
169.5731610591
 20
-405.9836836658
 30
0.0
 11
169.5731610591
 21
-402.8778551246
 31
0.0
  0
LWPOLYLINE
  5
249
330
1F
100
AcDbEntity
  8
0
  6
Continuous
 62
     7
370
    25
100
AcDbPolyline
 90
       12
 70
   128
 43
0.0
 10
169.5731610591
 20
-402.8778551246
 10
169.4313864668
 20
-402.6226429949
 10
169.017548424
 20
-402.3881066342
 10
168.3651736279
 20
-402.1932467835
 10
167.5271136046
 20
-402.0538498291
 10
166.5712629931
 20
-401.9812088832
 10
165.5750591252
 20
-401.9812088832
 10
164.6192085136
 20
-402.0538498291
 10
163.7811484903
 20
-402.1932467835
 10
163.1287736942
 20
-402.3881066342
 10
162.7149356515
 20
-402.6226429949
 10
162.5731610591
 20
-402.8778551246
  0
LINE
  5
24A
330
1F
100
AcDbEntity
  8
0
  6
Continuous
 62
     7
370
    25
100
AcDbLine
 10
162.5731610591
 20
-390.4545409597
 30
0.0
 11
162.5731610591
 21
-393.5603695009
 31
0.0
  0
LWPOLYLINE
  5
24B
330
1F
100
AcDbEntity
  8
0
  6
Continuous
 62
     7
370
    25
100
AcDbPolyline
 90
       12
 70
   128
 43
0.0
 10
162.5731610591
 20
-393.5603695009
 10
162.7149356515
 20
-393.8155816306
 10
163.1287736942
 20
-394.0501179913
 10
163.7811484903
 20
-394.244977842
 10
164.6192085136
 20
-394.3843747964
 10
165.5750591252
 20
-394.4570157424
 10
166.5712629931
 20
-394.4570157424
 10
167.5271136046
 20
-394.3843747964
 10
168.3651736279
 20
-394.244977842
 10
169.017548424
 20
-394.0501179913
 10
169.4313864668
 20
-393.8155816306
 10
169.5731610591
 20
-393.5603695009
  0
LINE
  5
24C
330
1F
100
AcDbEntity
  8
0
  6
Continuous
 62
     7
370
    25
100
AcDbLine
 10
169.5731610591
 20
-393.5603695009
 30
0.0
 11
169.5731610591
 21
-390.4545409597
 31
0.0
  0
LWPOLYLINE
  5
24D
330
1F
100
AcDbEntity
  8
0
  6
Continuous
 62
     7
370
    25
100
AcDbPolyline
 90
       12
 70
   128
 43
0.0
 10
169.5731610591
 20
-390.4545409597
 10
169.4313864668
 20
-390.19932883
 10
169.017548424
 20
-389.9647924693
 10
168.3651736279
 20
-389.7699326186
 10
167.5271136046
 20
-389.6305356642
 10
166.5712629931
 20
-389.5578947183
 10
165.5750591252
 20
-389.5578947183
 10
164.6192085136
 20
-389.6305356642
 10
163.7811484903
 20
-389.7699326186
 10
163.1287736942
 20
-389.9647924693
 10
162.7149356515
 20
-390.19932883
 10
162.5731610591
 20
-390.4545409597
  0
ARC
  5
24E
330
1F
100
AcDbEntity
  8
0
  6
Continuous
 62
     7
370
    25
100
AcDbCircle
 10
258.1550299818
 20
-431.6374175144
 30
0.0
 40
47.51401688128693
100
AcDbArc
 50
68.6789804169
 51
88.3297970284
  0
ARC
  5
24F
330
1F
100
AcDbEntity
  8
0
  6
Continuous
 62
     7
370
    25
100
AcDbCircle
 10
75.9077778828
 20
-431.6374175144
 30
0.0
 40
47.51401688128272
100
AcDbArc
 50
91.6702029716
 51
111.3210195831
  0
LINE
  5
250
330
1F
100
AcDbEntity
  8
0
  6
Continuous
 62
     7
370
    25
100
AcDbLine
 10
212.4333032264
 20
-383.9425880351
 30
0.0
 11
121.6295046381
 21
-383.9425880351
 31
0.0
  0
LINE
  5
251
330
1F
100
AcDbEntity
  8
0
  6
Continuous
 62
     7
370
    25
100
AcDbLine
 10
275.4307942606
 20
-387.3753596231
 30
0.0
 11
365.8213976431
 21
-431.3745972905
 31
0.0
  0
LINE
  5
252
330
1F
100
AcDbEntity
  8
0
  6
Continuous
 62
     7
370
    25
100
AcDbLine
 10
58.6320136039
 20
-387.3753596231
 30
0.0
 11
-31.7585897786
 21
-431.3745972905
 31
0.0
  0
ARC
  5
253
330
1F
100
AcDbEntity
  8
0
  6
Continuous
 62
     7
370
    25
100
AcDbCircle
 10
166.0731610591
 20
-376.4840435941
 30
0.0
 40
13.15277807894204
100
AcDbArc
 50
265.3024832224
 51
274.6975167776
  0
ARC
  5
254
330
1F
100
AcDbEntity
  8
0
  6
Continuous
 62
     7
370
    25
100
AcDbCircle
 10
166.0731610591
 20
-388.9073577591
 30
0.0
 40
13.15277807888104
100
AcDbArc
 50
265.3024832221
 51
274.6975167779
  0
LWPOLYLINE
  5
255
330
1F
100
AcDbEntity
  8
0
  6
Continuous
 62
     7
370
    25
100
AcDbPolyline
 90
        6
 70
   128
 43
0.0
 10
365.8213976431
 20
-431.3745972905
 10
366.9615587838
 20
-432.0104788923
 10
367.8292406483
 20
-432.6745525842
 10
368.41425857
 20
-433.3590236094
 10
368.7097457324
 20
-434.0558577918
 10
368.7477078216
 20
-434.4123018301
  0
LWPOLYLINE
  5
256
330
1F
100
AcDbEntity
  8
0
  6
Continuous
 62
     7
370
    25
100
AcDbPolyline
 90
        6
 70
   128
 43
0.0
 10
-31.7585897786
 20
-431.3745972905
 10
-32.8987509193
 20
-432.0104788923
 10
-33.7664327838
 20
-432.6745525842
 10
-34.3514507055
 20
-433.3590236094
 10
-34.6469378679
 20
-434.0558577918
 10
-34.6848999571
 20
-434.4123018301
  0
LINE
  5
257
330
1F
100
AcDbEntity
  8
0
  6
Continuous
 62
     8
370
    25
100
AcDbLine
 10
188.5376076357
 20
-465.2218549281
 30
0.0
 11
232.0207827694
 21
-486.3880656363
 31
0.0
  0
LINE
  5
258
330
1F
100
AcDbEntity
  8
0
  6
Continuous
 62
     8
370
    25
100
AcDbLine
 10
234.2285613637
 20
-487.4627412271
 30
0.0
 11
323.5677375126
 21
-530.9501779439
 31
0.0
  0
LINE
  5
259
330
1F
100
AcDbEntity
  8
0
  6
Continuous
 62
     8
370
    25
100
AcDbLine
 10
325.775516107
 20
-532.0248535347
 30
0.0
 11
1341.806177669
 21
-1026.5958917024
 31
0.0
  0
LINE
  5
25A
330
1F
100
AcDbEntity
  8
0
  6
Continuous
 62
     8
370
    25
100
AcDbLine
 10
145.5252002288
 20
-465.2218549281
 30
0.0
 11
102.1345217647
 21
-486.3430412334
 31
0.0
  0
LINE
  5
25B
330
1F
100
AcDbEntity
  8
0
  6
Continuous
 62
     8
370
    25
100
AcDbLine
 10
99.8342465008
 20
-487.4627412271
 30
0.0
 11
10.5875670215
 21
-530.905153541
 31
0.0
  0
LINE
  5
25C
330
1F
100
AcDbEntity
  8
0
  6
Continuous
 62
     8
370
    25
100
AcDbLine
 10
8.2872917575
 20
-532.0248535347
 30
0.0
 11
-1007.7433698045
 21
-1026.5958917024
 31
0.0
  0
LINE
  5
25D
330
1F
100
AcDbEntity
  8
0
  6
Continuous
 62
     8
370
    25
100
AcDbLine
 10
188.5376076357
 20
659.8237919176
 30
0.0
 11
231.9282860998
 21
680.9449782229
 31
0.0
  0
LINE
  5
25E
330
1F
100
AcDbEntity
  8
0
  6
Continuous
 62
     8
370
    25
100
AcDbLine
 10
234.2285613637
 20
682.0646782166
 30
0.0
 11
323.475240843
 21
725.5070905304
 31
0.0
  0
LINE
  5
25F
330
1F
100
AcDbEntity
  8
0
  6
Continuous
 62
     8
370
    25
100
AcDbLine
 10
325.775516107
 20
726.6267905242
 30
0.0
 11
1341.806177669
 21
1221.1978286918
 31
0.0
  0
LINE
  5
260
330
1F
100
AcDbEntity
  8
0
  6
Continuous
 62
     8
370
    25
100
AcDbLine
 10
145.5252002288
 20
659.8237919176
 30
0.0
 11
102.0420250951
 21
680.9900026258
 31
0.0
  0
LINE
  5
261
330
1F
100
AcDbEntity
  8
0
  6
Continuous
 62
     8
370
    25
100
AcDbLine
 10
99.8342465008
 20
682.0646782166
 30
0.0
 11
10.4950703519
 21
725.5521149334
 31
0.0
  0
LINE
  5
262
330
1F
100
AcDbEntity
  8
0
  6
Continuous
 62
     8
370
    25
100
AcDbLine
 10
8.2872917575
 20
726.6267905242
 30
0.0
 11
-1007.7433698045
 21
1221.1978286918
 31
0.0
  0
ELLIPSE
  5
263
330
1F
100
AcDbEntity
  8
0
  6
Continuous
 62
     8
370
    25
100
AcDbEllipse
 10
250.2879436032
 20
-381.7614381057
 30
0.0
 11
0.7240925576324457
 21
3.076041367607161
 31
0.0
210
0.0
220
0.0
230
1.0
 40
0.4864373979
 41
0.19982180162582
 42
1.461527857977765
  0
ARC
  5
264
330
1F
100
AcDbEntity
  8
0
  6
Continuous
 62
     8
370
    25
100
AcDbCircle
 10
251.2656232002
 20
-380.3557030538
 30
0.0
 40
1.672858082016452
100
AcDbArc
 50
357.4206109351
 51
62.5664928725
  0
ELLIPSE
  5
265
330
1F
100
AcDbEntity
  8
0
  6
Continuous
 62
     8
370
    25
100
AcDbEllipse
 10
184.9498217316
 20
-390.7530435428
 30
0.0
 11
-1.364801465833892
 21
2.822611378187958
 31
0.0
210
0.0
220
0.0
230
1.0
 40
0.3362030933
 41
6.174574706919284
 42
7.450732674504001
  0
ELLIPSE
  5
266
330
1F
100
AcDbEntity
  8
0
  6
Continuous
 62
     8
370
    25
100
AcDbEllipse
 10
184.9498217316
 20
-462.2315546882
 30
0.0
 11
2.976584842305442
 21
0.9995732953378251
 31
0.0
210
0.0
220
0.0
230
1.0
 40
0.3742488229
 41
1.934466704127436
 42
3.016017943098996
  0
ARC
  5
267
330
1F
100
AcDbEntity
  8
0
  6
Continuous
 62
     8
370
    25
100
AcDbCircle
 10
183.8474800527
 20
-463.7537072161
 30
0.0
 40
1.513123055641302
100
AcDbArc
 50
244.3097961816
 51
278.3369440526
  0
ELLIPSE
  5
268
330
1F
100
AcDbEntity
  8
0
  6
Continuous
 62
     8
370
    25
100
AcDbEllipse
 10
184.9498217316
 20
-390.7530435428
 30
0.0
 11
2.998773681546396
 21
-0.8617472700693156
 31
0.0
210
0.0
220
0.0
230
1.0
 40
0.0995297594
 41
2.088082246389595
 42
3.170186382626292
  0
ELLIPSE
  5
269
330
1F
100
AcDbEntity
  8
0
  6
Continuous
 62
     8
370
    25
100
AcDbEllipse
 10
83.7748642614
 20
576.3633750952
 30
0.0
 11
0.7240925576324314
 21
3.076041367607103
 31
0.0
210
0.0
220
0.0
230
1.0
 40
0.4864373979
 41
3.341414455215647
 42
4.603120511567615
  0
ARC
  5
26A
330
1F
100
AcDbEntity
  8
0
  6
Continuous
 62
     8
370
    25
100
AcDbCircle
 10
82.7971846643
 20
574.9576400433
 30
0.0
 40
1.672858082016837
100
AcDbArc
 50
177.4206109351
 51
242.5664928725
  0
ELLIPSE
  5
26B
330
1F
100
AcDbEntity
  8
0
  6
Continuous
 62
     8
370
    25
100
AcDbEllipse
 10
149.1129861329
 20
585.3549805323
 30
0.0
 11
-1.36480146583392
 21
2.822611378187957
 31
0.0
210
0.0
220
0.0
230
1.0
 40
0.3362030933
 41
3.032982053329357
 42
4.309140020914169
  0
ELLIPSE
  5
26C
330
1F
100
AcDbEntity
  8
0
  6
Continuous
 62
     8
370
    25
100
AcDbEllipse
 10
149.1129861329
 20
656.8334916777
 30
0.0
 11
2.97658484230547
 21
0.9995732953377682
 31
0.0
210
0.0
220
0.0
230
1.0
 40
0.3742488229
 41
5.076059357717226
 42
6.15761059668888
  0
ARC
  5
26D
330
1F
100
AcDbEntity
  8
0
  6
Continuous
 62
     8
370
    25
100
AcDbCircle
 10
150.2153278118
 20
658.3556442056
 30
0.0
 40
1.513123055642547
100
AcDbArc
 50
64.3097961816
 51
98.3369440526
  0
ELLIPSE
  5
26E
330
1F
100
AcDbEntity
  8
0
  6
Continuous
 62
     8
370
    25
100
AcDbEllipse
 10
149.1129861329
 20
585.3549805323
 30
0.0
 11
2.998773681546396
 21
-0.8617472700693725
 31
0.0
210
0.0
220
0.0
230
1.0
 40
0.0995297594
 41
5.229674899979491
 42
6.311779036215763
  0
ARC
  5
26F
330
1F
100
AcDbEntity
  8
0
  6
Continuous
 62
     8
370
    25
100
AcDbCircle
 10
82.797201028
 20
-380.3557072851
 30
0.0
 40
1.672874238693112
100
AcDbArc
 50
117.4389294999
 51
182.5792190669
  0
ELLIPSE
  5
270
330
1F
100
AcDbEntity
  8
0
  6
Continuous
 62
     8
370
    25
100
AcDbEllipse
 10
83.7748642614
 20
-381.7614381057
 30
0.0
 11
-0.7240925576324315
 21
3.076041367607161
 31
0.0
210
0.0
220
0.0
230
1.0
 40
0.4864373979
 41
4.821657449201831
 42
6.082884293588362
  0
ELLIPSE
  5
271
330
1F
100
AcDbEntity
  8
0
  6
Continuous
 62
     8
370
    25
100
AcDbEllipse
 10
149.1129861329
 20
-390.7530435428
 30
0.0
 11
1.364801465833892
 21
2.822611378187958
 31
0.0
210
0.0
220
0.0
230
1.0
 40
0.3362030933
 41
5.115637939855162
 42
6.391795907439953
  0
ELLIPSE
  5
272
330
1F
100
AcDbEntity
  8
0
  6
Continuous
 62
     8
370
    25
100
AcDbEllipse
 10
149.1129861329
 20
-462.2315546882
 30
0.0
 11
2.976584842305471
 21
-0.9995732953378821
 31
0.0
210
0.0
220
0.0
230
1.0
 40
0.3742488229
 41
0.1257356057572532
 42
1.207125949462389
  0
ARC
  5
273
330
1F
100
AcDbEntity
  8
0
  6
Continuous
 62
     8
370
    25
100
AcDbCircle
 10
150.215334924
 20
-463.7541091175
 30
0.0
 40
1.512726434064904
100
AcDbArc
 50
261.6605822612
 51
295.9545392697
  0
ELLIPSE
  5
274
330
1F
100
AcDbEntity
  8
0
  6
Continuous
 62
     8
370
    25
100
AcDbEllipse
 10
149.1129861329
 20
-390.7530435428
 30
0.0
 11
2.998773681546425
 21
0.8617472700693157
 31
0.0
210
0.0
220
0.0
230
1.0
 40
0.0995297594
 41
6.254591578143385
 42
7.336695714379901
  0
ARC
  5
275
330
1F
100
AcDbEntity
  8
0
  6
Continuous
 62
     8
370
    25
100
AcDbCircle
 10
251.2656068365
 20
574.9576442746
 30
0.0
 40
1.672874238692849
100
AcDbArc
 50
297.4389294999
 51
2.5792190669
  0
ELLIPSE
  5
276
330
1F
100
AcDbEntity
  8
0
  6
Continuous
 62
     8
370
    25
100
AcDbEllipse
 10
250.2879436032
 20
576.3633750952
 30
0.0
 11
-0.7240925576324173
 21
3.076041367607217
 31
0.0
210
0.0
220
0.0
230
1.0
 40
0.4864373979
 41
1.680064795611984
 42
2.941291639998545
  0
ELLIPSE
  5
277
330
1F
100
AcDbEntity
  8
0
  6
Continuous
 62
     8
370
    25
100
AcDbEllipse
 10
184.9498217316
 20
585.3549805323
 30
0.0
 11
1.364801465833864
 21
2.822611378187958
 31
0.0
210
0.0
220
0.0
230
1.0
 40
0.3362030933
 41
1.974045286265412
 42
3.250203253850222
  0
ELLIPSE
  5
278
330
1F
100
AcDbEntity
  8
0
  6
Continuous
 62
     8
370
    25
100
AcDbEllipse
 10
184.9498217316
 20
656.8334916777
 30
0.0
 11
2.976584842305442
 21
-0.9995732953378819
 31
0.0
210
0.0
220
0.0
230
1.0
 40
0.3742488229
 41
3.267328259347142
 42
4.348718603052225
  0
ARC
  5
279
330
1F
100
AcDbEntity
  8
0
  6
Continuous
 62
     8
370
    25
100
AcDbCircle
 10
183.8474729405
 20
658.3560461069
 30
0.0
 40
1.512726434065668
100
AcDbArc
 50
81.6605822612
 51
115.9545392697
  0
ELLIPSE
  5
27A
330
1F
100
AcDbEntity
  8
0
  6
Continuous
 62
     8
370
    25
100
AcDbEllipse
 10
184.9498217316
 20
585.3549805323
 30
0.0
 11
2.998773681546424
 21
0.8617472700692588
 31
0.0
210
0.0
220
0.0
230
1.0
 40
0.0995297594
 41
3.112998924553971
 42
4.195103060790316
  0
LWPOLYLINE
  5
27B
330
1F
100
AcDbEntity
  8
0
  6
Continuous
 62
     8
370
    25
100
AcDbPolyline
 90
       13
 70
   128
 43
0.0
 10
242.0314039322
 20
664.0729270139
 10
239.9208208712
 20
664.1102921595
 10
237.8495539793
 20
664.2216915542
 10
235.8561870396
 20
664.4050500382
 10
233.9778527067
 20
664.6569519898
 10
232.2495407952
 20
664.9727049522
 10
230.7034464859
 20
665.3464270452
 10
229.3683705906
 20
665.7711565334
 10
228.269183047
 20
666.2389815099
 10
227.4263596394
 20
666.7411872806
 10
226.8556005732
 20
667.2684187022
 10
226.5675380098
 20
667.8108544509
 10
226.5314039389
 20
668.0847396597
  0
LWPOLYLINE
  5
27C
330
1F
100
AcDbEntity
  8
0
  6
Continuous
 62
     8
370
    25
100
AcDbPolyline
 90
       13
 70
   128
 43
0.0
 10
257.5314038174
 20
668.085110528
 10
257.4952698547
 20
667.8108544509
 10
257.2072072913
 20
667.2684187022
 10
256.6364482251
 20
666.7411872806
 10
255.7936248175
 20
666.2389815099
 10
254.6944372739
 20
665.7711565334
 10
253.3593613785
 20
665.3464270452
 10
251.8132670693
 20
664.9727049522
 10
250.0849551578
 20
664.6569519898
 10
248.2066208249
 20
664.4050500382
 10
246.2132538852
 20
664.2216915542
 10
244.1419869932
 20
664.1102921595
 10
242.0314039322
 20
664.0729270139
  0
LWPOLYLINE
  5
27D
330
1F
100
AcDbEntity
  8
0
  6
Continuous
 62
     8
370
    25
100
AcDbPolyline
 90
       13
 70
   128
 43
0.0
 10
92.0314039323
 20
-469.4709900244
 10
94.1419869933
 20
-469.50835517
 10
96.2132538852
 20
-469.6197545647
 10
98.2066208249
 20
-469.8031130487
 10
100.0849551578
 20
-470.0550150003
 10
101.8132670693
 20
-470.3707679627
 10
103.3593613786
 20
-470.7444900557
 10
104.6944372739
 20
-471.1692195439
 10
105.7936248175
 20
-471.6370445204
 10
106.6364482251
 20
-472.1392502911
 10
107.2072072913
 20
-472.6664817127
 10
107.4952698547
 20
-473.2089174614
 10
107.5314039256
 20
-473.4828026702
  0
LWPOLYLINE
  5
27E
330
1F
100
AcDbEntity
  8
0
  6
Continuous
 62
     8
370
    25
100
AcDbPolyline
 90
       13
 70
   128
 43
0.0
 10
76.5314040471
 20
-473.4831735385
 10
76.5675380098
 20
-473.2089174614
 10
76.8556005732
 20
-472.6664817127
 10
77.4263596394
 20
-472.1392502911
 10
78.269183047
 20
-471.6370445204
 10
79.3683705906
 20
-471.1692195439
 10
80.703446486
 20
-470.7444900557
 10
82.2495407952
 20
-470.3707679627
 10
83.9778527067
 20
-470.0550150003
 10
85.8561870397
 20
-469.8031130487
 10
87.8495539793
 20
-469.6197545647
 10
89.9208208713
 20
-469.50835517
 10
92.0314039323
 20
-469.4709900244
  0
LWPOLYLINE
  5
27F
330
1F
100
AcDbEntity
  8
0
  6
Continuous
 62
     8
370
    25
100
AcDbPolyline
 90
       25
 70
   128
 43
0.0
 10
318.0783586821
 20
-518.0446800843
 10
318.114492753
 20
-517.771029769
 10
318.4025553164
 20
-517.2285940203
 10
318.9733143826
 20
-516.7013625987
 10
319.8161377902
 20
-516.1991568279
 10
320.9153253338
 20
-515.7313318514
 10
322.2504012292
 20
-515.3066023633
 10
323.7964955384
 20
-514.9328802703
 10
325.5248074499
 20
-514.6171273078
 10
327.4031417829
 20
-514.3652253563
 10
329.3965087226
 20
-514.1818668723
 10
331.4677756145
 20
-514.0704674776
 10
333.5783586755
 20
-514.033102332
 10
335.6889417365
 20
-514.0704674776
 10
337.7602086284
 20
-514.1818668723
 10
339.7535755681
 20
-514.3652253563
 10
341.631909901
 20
-514.6171273078
 10
343.3602218125
 20
-514.9328802703
 10
344.9063161218
 20
-515.3066023633
 10
346.2413920171
 20
-515.7313318514
 10
347.3405795607
 20
-516.1991568279
 10
348.1834029683
 20
-516.7013625987
 10
348.7541620346
 20
-517.2285940203
 10
349.0422245979
 20
-517.771029769
 10
349.0783585607
 20
-518.044309216
  0
LWPOLYLINE
  5
280
330
1F
100
AcDbEntity
  8
0
  6
Continuous
 62
     8
370
    25
100
AcDbPolyline
 90
       25
 70
   128
 43
0.0
 10
226.5314039389
 20
-473.4825677768
 10
226.5675380098
 20
-473.2089174614
 10
226.8556005732
 20
-472.6664817127
 10
227.4263596394
 20
-472.1392502911
 10
228.269183047
 20
-471.6370445204
 10
229.3683705906
 20
-471.1692195439
 10
230.7034464859
 20
-470.7444900557
 10
232.2495407952
 20
-470.3707679627
 10
233.9778527067
 20
-470.0550150003
 10
235.8561870396
 20
-469.8031130487
 10
237.8495539793
 20
-469.6197545647
 10
239.9208208712
 20
-469.50835517
 10
242.0314039322
 20
-469.4709900244
 10
244.1419869932
 20
-469.50835517
 10
246.2132538852
 20
-469.6197545647
 10
248.2066208249
 20
-469.8031130487
 10
250.0849551578
 20
-470.0550150003
 10
251.8132670693
 20
-470.3707679627
 10
253.3593613785
 20
-470.7444900557
 10
254.6944372739
 20
-471.1692195439
 10
255.7936248175
 20
-471.6370445204
 10
256.6364482251
 20
-472.1392502911
 10
257.2072072913
 20
-472.6664817127
 10
257.4952698547
 20
-473.2089174614
 10
257.5314038174
 20
-473.4821969085
  0
LWPOLYLINE
  5
281
330
1F
100
AcDbEntity
  8
0
  6
Continuous
 62
     8
370
    25
100
AcDbPolyline
 90
       13
 70
   128
 43
0.0
 10
333.5783586755
 20
708.6350393215
 10
331.4677756145
 20
708.672404467
 10
329.3965087226
 20
708.7838038618
 10
327.4031417829
 20
708.9671623458
 10
325.5248074499
 20
709.2190642973
 10
323.7964955384
 20
709.5348172598
 10
322.2504012292
 20
709.9085393528
 10
320.9153253338
 20
710.3332688409
 10
319.8161377902
 20
710.8010938174
 10
318.9733143826
 20
711.3032995881
 10
318.4025553164
 20
711.8305310098
 10
318.114492753
 20
712.3729667585
 10
318.0783586821
 20
712.6468519673
  0
LWPOLYLINE
  5
282
330
1F
100
AcDbEntity
  8
0
  6
Continuous
 62
     8
370
    25
100
AcDbPolyline
 90
       13
 70
   128
 43
0.0
 10
349.0783585607
 20
712.6472228356
 10
349.0422245979
 20
712.3729667585
 10
348.7541620346
 20
711.8305310098
 10
348.1834029683
 20
711.3032995881
 10
347.3405795607
 20
710.8010938174
 10
346.2413920171
 20
710.3332688409
 10
344.9063161218
 20
709.9085393528
 10
343.3602218125
 20
709.5348172598
 10
341.631909901
 20
709.2190642973
 10
339.7535755681
 20
708.9671623458
 10
337.7602086284
 20
708.7838038618
 10
335.6889417365
 20
708.672404467
 10
333.5783586755
 20
708.6350393215
  0
LWPOLYLINE
  5
283
330
1F
100
AcDbEntity
  8
0
  6
Continuous
 62
     8
370
    25
100
AcDbPolyline
 90
       25
 70
   128
 43
0.0
 10
15.9844491824
 20
712.6466170738
 10
15.9483151115
 20
712.3729667585
 10
15.6602525481
 20
711.8305310098
 10
15.0894934819
 20
711.3032995881
 10
14.2466700743
 20
710.8010938174
 10
13.1474825307
 20
710.3332688409
 10
11.8124066353
 20
709.9085393528
 10
10.2663123261
 20
709.5348172598
 10
8.5380004146
 20
709.2190642973
 10
6.6596660816
 20
708.9671623458
 10
4.666299142
 20
708.7838038618
 10
2.59503225
 20
708.672404467
 10
0.484449189
 20
708.6350393215
 10
-1.626133872
 20
708.672404467
 10
-3.6974007639
 20
708.7838038618
 10
-5.6907677036
 20
708.9671623458
 10
-7.5691020365
 20
709.2190642973
 10
-9.297413948
 20
709.5348172598
 10
-10.8435082573
 20
709.9085393528
 10
-12.1785841526
 20
710.3332688409
 10
-13.2777716962
 20
710.8010938174
 10
-14.1205951038
 20
711.3032995881
 10
-14.69135417
 20
711.8305310098
 10
-14.9794167334
 20
712.3729667585
 10
-15.0155506961
 20
712.6462462055
  0
LWPOLYLINE
  5
284
330
1F
100
AcDbEntity
  8
0
  6
Continuous
 62
     8
370
    25
100
AcDbPolyline
 90
       25
 70
   128
 43
0.0
 10
107.5314039256
 20
668.0845047662
 10
107.4952698547
 20
667.8108544509
 10
107.2072072913
 20
667.2684187022
 10
106.6364482251
 20
666.7411872806
 10
105.7936248175
 20
666.2389815099
 10
104.6944372739
 20
665.7711565334
 10
103.3593613786
 20
665.3464270452
 10
101.8132670693
 20
664.9727049522
 10
100.0849551578
 20
664.6569519898
 10
98.2066208249
 20
664.4050500382
 10
96.2132538852
 20
664.2216915542
 10
94.1419869933
 20
664.1102921595
 10
92.0314039323
 20
664.0729270139
 10
89.9208208713
 20
664.1102921595
 10
87.8495539793
 20
664.2216915542
 10
85.8561870397
 20
664.4050500382
 10
83.9778527067
 20
664.6569519898
 10
82.2495407952
 20
664.9727049522
 10
80.703446486
 20
665.3464270452
 10
79.3683705906
 20
665.7711565334
 10
78.269183047
 20
666.2389815099
 10
77.4263596394
 20
666.7411872806
 10
76.8556005732
 20
667.2684187022
 10
76.5675380098
 20
667.8108544509
 10
76.5314040471
 20
668.0841338979
  0
LWPOLYLINE
  5
285
330
1F
100
AcDbEntity
  8
0
  6
Continuous
 62
     8
370
    25
100
AcDbPolyline
 90
       13
 70
   128
 43
0.0
 10
0.484449189
 20
-514.033102332
 10
2.59503225
 20
-514.0704674776
 10
4.666299142
 20
-514.1818668723
 10
6.6596660816
 20
-514.3652253563
 10
8.5380004146
 20
-514.6171273078
 10
10.2663123261
 20
-514.9328802703
 10
11.8124066353
 20
-515.3066023633
 10
13.1474825307
 20
-515.7313318514
 10
14.2466700743
 20
-516.1991568279
 10
15.0894934819
 20
-516.7013625987
 10
15.6602525481
 20
-517.2285940203
 10
15.9483151115
 20
-517.771029769
 10
15.9844491824
 20
-518.0449149778
  0
LWPOLYLINE
  5
286
330
1F
100
AcDbEntity
  8
0
  6
Continuous
 62
     8
370
    25
100
AcDbPolyline
 90
       13
 70
   128
 43
0.0
 10
-15.0155506961
 20
-518.0452858461
 10
-14.9794167334
 20
-517.771029769
 10
-14.6913541701
 20
-517.2285940203
 10
-14.1205951038
 20
-516.7013625987
 10
-13.2777716962
 20
-516.1991568279
 10
-12.1785841526
 20
-515.7313318514
 10
-10.8435082573
 20
-515.3066023633
 10
-9.297413948
 20
-514.9328802703
 10
-7.5691020365
 20
-514.6171273078
 10
-5.6907677036
 20
-514.3652253563
 10
-3.6974007639
 20
-514.1818668723
 10
-1.626133872
 20
-514.0704674776
 10
0.484449189
 20
-514.033102332
  0
LWPOLYLINE
  5
287
330
1F
100
AcDbEntity
  8
0
  6
Continuous
 62
     8
370
    25
100
AcDbPolyline
 90
        9
 70
   128
 43
0.0
 10
102.072116698
 20
680.9599904464
 10
102.0723708019
 20
680.9597307931
 10
102.353942752
 20
680.5230077697
 10
102.353942752
 20
680.0802460535
 10
102.0723708019
 20
679.64352303
 10
101.5169074504
 20
679.2247513649
 10
100.7027042897
 20
678.8353540575
 10
99.6519706598
 20
678.4859528513
 10
98.4542715436
 20
678.1984422202
  0
LWPOLYLINE
  5
288
330
1F
100
AcDbEntity
  8
0
  6
Continuous
 62
     8
370
    25
100
AcDbPolyline
 90
        8
 70
   128
 43
0.0
 10
85.6338988806
 20
678.1932703796
 10
84.4108372048
 20
678.4859528513
 10
83.3601035748
 20
678.8353540575
 10
82.5459004142
 20
679.2247513649
 10
81.9904370627
 20
679.64352303
 10
81.7088651125
 20
680.0802460535
 10
81.7088651125
 20
680.5230077697
 10
81.9890914962
 20
680.9583540202
  0
LWPOLYLINE
  5
289
330
1F
100
AcDbEntity
  8
0
  6
Continuous
 62
     8
370
    25
100
AcDbPolyline
 90
       21
 70
   128
 43
0.0
 10
102.7804821
 20
679.7215446116
 10
102.7446872321
 20
679.5282198269
 10
102.4524567911
 20
679.0749652976
 10
101.8759671938
 20
678.6403416489
 10
101.0309435736
 20
678.2362042808
 10
99.940435972
 20
677.8735770073
 10
98.6341905937
 20
677.5623513551
 10
97.1478384074
 20
677.3110167487
 10
95.5219232262
 20
677.126428941
 10
93.8007957778
 20
677.0136230061
 10
92.0314039323
 20
676.975675996
 10
90.2620120868
 20
677.0136230061
 10
88.5408846383
 20
677.126428941
 10
86.9149694571
 20
677.3110167487
 10
85.4286172709
 20
677.5623513551
 10
84.1223718925
 20
677.8735770073
 10
83.031864291
 20
678.2362042808
 10
82.1868406707
 20
678.6403416489
 10
81.6103510734
 20
679.0749652976
 10
81.3181206325
 20
679.5282198269
 10
81.2814039323
 20
679.7579807308
  0
LWPOLYLINE
  5
28A
330
1F
100
AcDbEntity
  8
0
  6
Continuous
 62
     8
370
    25
100
AcDbPolyline
 90
       13
 70
   128
 43
0.0
 10
242.0314039322
 20
677.6208008912
 10
240.3265469335
 20
677.6573638639
 10
238.6681939895
 20
677.7660554395
 10
237.1015806455
 20
677.9439107951
 10
235.6694400297
 20
678.1860785003
 10
234.4108372048
 20
678.4859528513
 10
233.3601035748
 20
678.8353540575
 10
232.5459004142
 20
679.2247513649
 10
231.9904370626
 20
679.64352303
 10
231.7088651125
 20
680.0802460535
 10
231.7088651125
 20
680.5230077697
 10
231.9904370626
 20
680.9597307931
 10
232.2540199537
 20
681.1865153268
  0
LWPOLYLINE
  5
28B
330
1F
100
AcDbEntity
  8
0
  6
Continuous
 62
     8
370
    25
100
AcDbPolyline
 90
       13
 70
   128
 43
0.0
 10
251.8280277945
 20
681.1721439886
 10
252.0723708018
 20
680.9597307931
 10
252.353942752
 20
680.5230077697
 10
252.353942752
 20
680.0802460535
 10
252.0723708018
 20
679.64352303
 10
251.5169074503
 20
679.2247513649
 10
250.7027042897
 20
678.8353540575
 10
249.6519706597
 20
678.4859528513
 10
248.3933678348
 20
678.1860785003
 10
246.9612272189
 20
677.9439107951
 10
245.3946138749
 20
677.7660554395
 10
243.7362609309
 20
677.6573638639
 10
242.0314039322
 20
677.6208008912
  0
LWPOLYLINE
  5
28C
330
1F
100
AcDbEntity
  8
0
  6
Continuous
 62
     8
370
    25
100
AcDbPolyline
 90
       11
 70
   128
 43
0.0
 10
242.0314039322
 20
676.975675996
 10
240.2620120867
 20
677.0136230061
 10
238.5408846383
 20
677.126428941
 10
236.9149694571
 20
677.3110167487
 10
235.4286172708
 20
677.5623513551
 10
234.1223718925
 20
677.8735770073
 10
233.0318642909
 20
678.2362042808
 10
232.1868406707
 20
678.6403416489
 10
231.6103510734
 20
679.0749652976
 10
231.3181206324
 20
679.5282198269
 10
231.2823257646
 20
679.7944168501
  0
LWPOLYLINE
  5
28D
330
1F
100
AcDbEntity
  8
0
  6
Continuous
 62
     8
370
    25
100
AcDbPolyline
 90
       11
 70
   128
 43
0.0
 10
252.7787219755
 20
679.6958345771
 10
252.7446872321
 20
679.5282198269
 10
252.4524567911
 20
679.0749652976
 10
251.8759671938
 20
678.6403416489
 10
251.0309435736
 20
678.2362042808
 10
249.940435972
 20
677.8735770073
 10
248.6341905937
 20
677.5623513551
 10
247.1478384074
 20
677.3110167487
 10
245.5219232262
 20
677.126428941
 10
243.8007957778
 20
677.0136230061
 10
242.0314039322
 20
676.975675996
  0
LWPOLYLINE
  5
28E
330
1F
100
AcDbEntity
  8
0
  6
Continuous
 62
     8
370
    25
100
AcDbPolyline
 90
        9
 70
   128
 43
0.0
 10
323.5376459098
 20
-530.9201657644
 10
323.5373918059
 20
-530.9199061112
 10
323.2558198557
 20
-530.4831830878
 10
323.2558198557
 20
-530.0404213716
 10
323.5373918059
 20
-529.6036983481
 10
324.0928551574
 20
-529.184926683
 10
324.907058318
 20
-528.7955293756
 10
325.957791948
 20
-528.4461281693
 10
327.1554910642
 20
-528.1586175383
  0
LWPOLYLINE
  5
28F
330
1F
100
AcDbEntity
  8
0
  6
Continuous
 62
     8
370
    25
100
AcDbPolyline
 90
        8
 70
   128
 43
0.0
 10
339.9758637272
 20
-528.1534456977
 10
341.198925403
 20
-528.4461281693
 10
342.2496590329
 20
-528.7955293756
 10
343.0638621936
 20
-529.184926683
 10
343.6193255451
 20
-529.6036983481
 10
343.9008974952
 20
-530.0404213716
 10
343.9008974952
 20
-530.4831830878
 10
343.6206711115
 20
-530.9185293383
  0
LWPOLYLINE
  5
290
330
1F
100
AcDbEntity
  8
0
  6
Continuous
 62
     8
370
    25
100
AcDbPolyline
 90
       21
 70
   128
 43
0.0
 10
322.8292805078
 20
-529.6817199297
 10
322.8650753757
 20
-529.488395145
 10
323.1573058166
 20
-529.0351406157
 10
323.7337954139
 20
-528.6005169669
 10
324.5788190342
 20
-528.1963795989
 10
325.6693266357
 20
-527.8337523254
 10
326.9755720141
 20
-527.5225266732
 10
328.4619242003
 20
-527.2711920668
 10
330.0878393815
 20
-527.086604259
 10
331.80896683
 20
-526.9737983242
 10
333.5783586755
 20
-526.9358513141
 10
335.347750521
 20
-526.9737983242
 10
337.0688779694
 20
-527.086604259
 10
338.6947931506
 20
-527.2711920668
 10
340.1811453369
 20
-527.5225266732
 10
341.4873907152
 20
-527.8337523254
 10
342.5778983168
 20
-528.1963795989
 10
343.422921937
 20
-528.6005169669
 10
343.9994115343
 20
-529.0351406157
 10
344.2916419753
 20
-529.488395145
 10
344.3283586755
 20
-529.7181560489
  0
LWPOLYLINE
  5
291
330
1F
100
AcDbEntity
  8
0
  6
Continuous
 62
     8
370
    25
100
AcDbPolyline
 90
       13
 70
   128
 43
0.0
 10
333.5783586755
 20
722.1829131988
 10
331.8735016768
 20
722.2194761715
 10
330.2151487328
 20
722.3281677471
 10
328.6485353888
 20
722.5060231027
 10
327.216394773
 20
722.7481908078
 10
325.957791948
 20
723.0480651588
 10
324.907058318
 20
723.3974663651
 10
324.0928551574
 20
723.7868636725
 10
323.5373918059
 20
724.2056353376
 10
323.2558198557
 20
724.6423583611
 10
323.2558198557
 20
725.0851200772
 10
323.5373918059
 20
725.5218431007
 10
323.800974697
 20
725.7486276343
  0
LWPOLYLINE
  5
292
330
1F
100
AcDbEntity
  8
0
  6
Continuous
 62
     8
370
    25
100
AcDbPolyline
 90
       13
 70
   128
 43
0.0
 10
343.3749825377
 20
725.7342562962
 10
343.6193255451
 20
725.5218431007
 10
343.9008974952
 20
725.0851200772
 10
343.9008974952
 20
724.6423583611
 10
343.6193255451
 20
724.2056353376
 10
343.0638621936
 20
723.7868636725
 10
342.2496590329
 20
723.3974663651
 10
341.198925403
 20
723.0480651588
 10
339.940322578
 20
722.7481908078
 10
338.5081819622
 20
722.5060231027
 10
336.9415686182
 20
722.3281677471
 10
335.2832156742
 20
722.2194761715
 10
333.5783586755
 20
722.1829131988
  0
LWPOLYLINE
  5
293
330
1F
100
AcDbEntity
  8
0
  6
Continuous
 62
     8
370
    25
100
AcDbPolyline
 90
       11
 70
   128
 43
0.0
 10
333.5783586755
 20
721.5377883036
 10
331.80896683
 20
721.5757353137
 10
330.0878393815
 20
721.6885412485
 10
328.4619242003
 20
721.8731290563
 10
326.9755720141
 20
722.1244636627
 10
325.6693266357
 20
722.4356893149
 10
324.5788190342
 20
722.7983165884
 10
323.7337954139
 20
723.2024539564
 10
323.1573058166
 20
723.6370776052
 10
322.8650753757
 20
724.0903321345
 10
322.8292805078
 20
724.3565291577
  0
LWPOLYLINE
  5
294
330
1F
100
AcDbEntity
  8
0
  6
Continuous
 62
     8
370
    25
100
AcDbPolyline
 90
       11
 70
   128
 43
0.0
 10
344.3256767187
 20
724.2579468846
 10
344.2916419753
 20
724.0903321345
 10
343.9994115343
 20
723.6370776052
 10
343.422921937
 20
723.2024539564
 10
342.5778983168
 20
722.7983165884
 10
341.4873907152
 20
722.4356893149
 10
340.1811453369
 20
722.1244636627
 10
338.6947931506
 20
721.8731290563
 10
337.0688779694
 20
721.6885412485
 10
335.347750521
 20
721.5757353137
 10
333.5783586755
 20
721.5377883036
  0
LWPOLYLINE
  5
295
330
1F
100
AcDbEntity
  8
0
  6
Continuous
 62
     8
370
    25
100
AcDbPolyline
 90
        9
 70
   128
 43
0.0
 10
231.9906911666
 20
-486.3580534569
 10
231.9904370626
 20
-486.3577938037
 10
231.7088651125
 20
-485.9210707802
 10
231.7088651125
 20
-485.478309064
 10
231.9904370626
 20
-485.0415860406
 10
232.5459004142
 20
-484.6228143754
 10
233.3601035748
 20
-484.233417068
 10
234.4108372048
 20
-483.8840158618
 10
235.6085363209
 20
-483.5965052307
  0
LWPOLYLINE
  5
296
330
1F
100
AcDbEntity
  8
0
  6
Continuous
 62
     8
370
    25
100
AcDbPolyline
 90
        8
 70
   128
 43
0.0
 10
248.4289089839
 20
-483.5913333901
 10
249.6519706597
 20
-483.8840158618
 10
250.7027042897
 20
-484.233417068
 10
251.5169074503
 20
-484.6228143754
 10
252.0723708018
 20
-485.0415860406
 10
252.353942752
 20
-485.478309064
 10
252.353942752
 20
-485.9210707802
 10
252.0737163683
 20
-486.3564170307
  0
LWPOLYLINE
  5
297
330
1F
100
AcDbEntity
  8
0
  6
Continuous
 62
     8
370
    25
100
AcDbPolyline
 90
       21
 70
   128
 43
0.0
 10
231.2823257646
 20
-485.1196076221
 10
231.3181206324
 20
-484.9262828375
 10
231.6103510734
 20
-484.4730283082
 10
232.1868406707
 20
-484.0384046594
 10
233.0318642909
 20
-483.6342672913
 10
234.1223718925
 20
-483.2716400178
 10
235.4286172708
 20
-482.9604143656
 10
236.9149694571
 20
-482.7090797592
 10
238.5408846383
 20
-482.5244919515
 10
240.2620120867
 20
-482.4116860166
 10
242.0314039322
 20
-482.3737390065
 10
243.8007957778
 20
-482.4116860166
 10
245.5219232262
 20
-482.5244919515
 10
247.1478384074
 20
-482.7090797592
 10
248.6341905937
 20
-482.9604143656
 10
249.940435972
 20
-483.2716400178
 10
251.0309435736
 20
-483.6342672913
 10
251.8759671938
 20
-484.0384046594
 10
252.4524567911
 20
-484.4730283082
 10
252.7446872321
 20
-484.9262828375
 10
252.7814039322
 20
-485.1560437414
  0
LWPOLYLINE
  5
298
330
1F
100
AcDbEntity
  8
0
  6
Continuous
 62
     8
370
    25
100
AcDbPolyline
 90
       13
 70
   128
 43
0.0
 10
92.0314039323
 20
-483.0188639017
 10
93.736260931
 20
-483.0554268744
 10
95.394613875
 20
-483.16411845
 10
96.961227219
 20
-483.3419738056
 10
98.3933678348
 20
-483.5841415108
 10
99.6519706598
 20
-483.8840158618
 10
100.7027042897
 20
-484.233417068
 10
101.5169074504
 20
-484.6228143754
 10
102.0723708019
 20
-485.0415860406
 10
102.353942752
 20
-485.478309064
 10
102.353942752
 20
-485.9210707802
 10
102.0723708019
 20
-486.3577938037
 10
101.8087879108
 20
-486.5845783373
  0
LWPOLYLINE
  5
299
330
1F
100
AcDbEntity
  8
0
  6
Continuous
 62
     8
370
    25
100
AcDbPolyline
 90
       13
 70
   128
 43
0.0
 10
82.2347800701
 20
-486.5702069991
 10
81.9904370627
 20
-486.3577938037
 10
81.7088651125
 20
-485.9210707802
 10
81.7088651125
 20
-485.478309064
 10
81.9904370627
 20
-485.0415860406
 10
82.5459004142
 20
-484.6228143754
 10
83.3601035748
 20
-484.233417068
 10
84.4108372048
 20
-483.8840158618
 10
85.6694400298
 20
-483.5841415108
 10
87.1015806456
 20
-483.3419738056
 10
88.6681939896
 20
-483.16411845
 10
90.3265469336
 20
-483.0554268744
 10
92.0314039323
 20
-483.0188639017
  0
LWPOLYLINE
  5
29A
330
1F
100
AcDbEntity
  8
0
  6
Continuous
 62
     8
370
    25
100
AcDbPolyline
 90
       11
 70
   128
 43
0.0
 10
92.0314039323
 20
-482.3737390065
 10
93.8007957778
 20
-482.4116860166
 10
95.5219232262
 20
-482.5244919515
 10
97.1478384074
 20
-482.7090797592
 10
98.6341905937
 20
-482.9604143656
 10
99.940435972
 20
-483.2716400178
 10
101.0309435736
 20
-483.6342672913
 10
101.8759671938
 20
-484.0384046594
 10
102.4524567911
 20
-484.4730283082
 10
102.7446872321
 20
-484.9262828375
 10
102.7804821
 20
-485.1924798606
  0
LWPOLYLINE
  5
29B
330
1F
100
AcDbEntity
  8
0
  6
Continuous
 62
     8
370
    25
100
AcDbPolyline
 90
       11
 70
   128
 43
0.0
 10
81.284085889
 20
-485.0938975876
 10
81.3181206325
 20
-484.9262828375
 10
81.6103510734
 20
-484.4730283082
 10
82.1868406707
 20
-484.0384046594
 10
83.031864291
 20
-483.6342672913
 10
84.1223718925
 20
-483.2716400178
 10
85.4286172709
 20
-482.9604143656
 10
86.9149694571
 20
-482.7090797592
 10
88.5408846383
 20
-482.5244919515
 10
90.2620120868
 20
-482.4116860166
 10
92.0314039323
 20
-482.3737390065
  0
LWPOLYLINE
  5
29C
330
1F
100
AcDbEntity
  8
0
  6
Continuous
 62
     8
370
    25
100
AcDbPolyline
 90
        9
 70
   128
 43
0.0
 10
10.5251619547
 20
725.5221027539
 10
10.5254160586
 20
725.5218431007
 10
10.8069880088
 20
725.0851200772
 10
10.8069880088
 20
724.6423583611
 10
10.5254160586
 20
724.2056353376
 10
9.9699527071
 20
723.7868636725
 10
9.1557495465
 20
723.3974663651
 10
8.1050159165
 20
723.0480651588
 10
6.9073168003
 20
722.7605545278
  0
LWPOLYLINE
  5
29D
330
1F
100
AcDbEntity
  8
0
  6
Continuous
 62
     8
370
    25
100
AcDbPolyline
 90
        8
 70
   128
 43
0.0
 10
-5.9130558627
 20
722.7553826871
 10
-7.1361175385
 20
723.0480651588
 10
-8.1868511684
 20
723.3974663651
 10
-9.0010543291
 20
723.7868636725
 10
-9.5565176806
 20
724.2056353376
 10
-9.8380896307
 20
724.6423583611
 10
-9.8380896307
 20
725.0851200772
 10
-9.557863247
 20
725.5204663278
  0
LWPOLYLINE
  5
29E
330
1F
100
AcDbEntity
  8
0
  6
Continuous
 62
     8
370
    25
100
AcDbPolyline
 90
       21
 70
   128
 43
0.0
 10
11.2335273567
 20
724.2836569192
 10
11.1977324888
 20
724.0903321345
 10
10.9055020479
 20
723.6370776052
 10
10.3290124506
 20
723.2024539564
 10
9.4839888303
 20
722.7983165884
 10
8.3934812288
 20
722.4356893149
 10
7.0872358504
 20
722.1244636627
 10
5.6008836642
 20
721.8731290563
 10
3.974968483
 20
721.6885412485
 10
2.2538410345
 20
721.5757353137
 10
0.484449189
 20
721.5377883036
 10
-1.2849426565
 20
721.5757353137
 10
-3.0060701049
 20
721.6885412485
 10
-4.6319852861
 20
721.8731290563
 10
-6.1183374724
 20
722.1244636627
 10
-7.4245828507
 20
722.4356893149
 10
-8.5150904523
 20
722.7983165884
 10
-9.3601140725
 20
723.2024539564
 10
-9.9366036698
 20
723.6370776052
 10
-10.2288341108
 20
724.0903321345
 10
-10.265550811
 20
724.3200930384
  0
LWPOLYLINE
  5
29F
330
1F
100
AcDbEntity
  8
0
  6
Continuous
 62
     8
370
    25
100
AcDbPolyline
 90
       13
 70
   128
 43
0.0
 10
0.484449189
 20
-527.5809762093
 10
2.1893061877
 20
-527.617539182
 10
3.8476591317
 20
-527.7262307576
 10
5.4142724757
 20
-527.9040861132
 10
6.8464130915
 20
-528.1462538183
 10
8.1050159165
 20
-528.4461281693
 10
9.1557495465
 20
-528.7955293756
 10
9.9699527071
 20
-529.184926683
 10
10.5254160586
 20
-529.6036983481
 10
10.8069880088
 20
-530.0404213716
 10
10.8069880088
 20
-530.4831830878
 10
10.5254160586
 20
-530.9199061112
 10
10.2618331675
 20
-531.1466906449
  0
LWPOLYLINE
  5
2A0
330
1F
100
AcDbEntity
  8
0
  6
Continuous
 62
     8
370
    25
100
AcDbPolyline
 90
       13
 70
   128
 43
0.0
 10
-9.3121746732
 20
-531.1323193067
 10
-9.5565176806
 20
-530.9199061112
 10
-9.8380896307
 20
-530.4831830878
 10
-9.8380896307
 20
-530.0404213716
 10
-9.5565176806
 20
-529.6036983481
 10
-9.0010543291
 20
-529.184926683
 10
-8.1868511684
 20
-528.7955293756
 10
-7.1361175385
 20
-528.4461281693
 10
-5.8775147135
 20
-528.1462538183
 10
-4.4453740977
 20
-527.9040861132
 10
-2.8787607537
 20
-527.7262307576
 10
-1.2204078097
 20
-527.617539182
 10
0.484449189
 20
-527.5809762093
  0
LWPOLYLINE
  5
2A1
330
1F
100
AcDbEntity
  8
0
  6
Continuous
 62
     8
370
    25
100
AcDbPolyline
 90
       11
 70
   128
 43
0.0
 10
0.484449189
 20
-526.9358513141
 10
2.2538410345
 20
-526.9737983242
 10
3.974968483
 20
-527.086604259
 10
5.6008836642
 20
-527.2711920668
 10
7.0872358504
 20
-527.5225266732
 10
8.3934812288
 20
-527.8337523254
 10
9.4839888303
 20
-528.1963795989
 10
10.3290124506
 20
-528.6005169669
 10
10.9055020479
 20
-529.0351406157
 10
11.1977324888
 20
-529.488395145
 10
11.2335273567
 20
-529.7545921682
  0
LWPOLYLINE
  5
2A2
330
1F
100
AcDbEntity
  8
0
  6
Continuous
 62
     8
370
    25
100
AcDbPolyline
 90
       11
 70
   128
 43
0.0
 10
-10.2628688542
 20
-529.6560098951
 10
-10.2288341108
 20
-529.488395145
 10
-9.9366036698
 20
-529.0351406157
 10
-9.3601140725
 20
-528.6005169669
 10
-8.5150904523
 20
-528.1963795989
 10
-7.4245828507
 20
-527.8337523254
 10
-6.1183374724
 20
-527.5225266732
 10
-4.6319852861
 20
-527.2711920668
 10
-3.0060701049
 20
-527.086604259
 10
-1.2849426565
 20
-526.9737983242
 10
0.484449189
 20
-526.9358513141
  0
ARC
  5
2A3
330
1F
100
AcDbEntity
  8
0
  6
Continuous
 62
     8
370
    25
100
AcDbCircle
 10
130.9112247849
 20
-78.8204272195
 30
0.0
 40
3.005037011928601
100
AcDbArc
 50
74.4536036794
 51
216.7046678082
  0
ARC
  5
2A4
330
1F
100
AcDbEntity
  8
0
  6
Continuous
 62
     8
370
    25
100
AcDbCircle
 10
130.9098335844
 20
271.5032426318
 30
0.0
 40
3.004600634894139
100
AcDbArc
 50
143.44817136
 51
285.0871091924
  0
ARC
  5
2A5
330
1F
100
AcDbEntity
  8
0
  6
Continuous
 62
     8
370
    25
100
AcDbCircle
 10
199.5789510174
 20
281.8733050631
 30
0.0
 40
2.57398694545262
100
AcDbArc
 50
342.3230549577
 51
17.6769450423
  0
LINE
  5
2A6
330
1F
100
AcDbEntity
  8
0
  6
Continuous
 62
     8
370
    25
100
AcDbLine
 10
130.289126404
 20
280.1602140229
 30
0.0
 11
130.8003620789
 21
280.2357971097
 31
0.0
  0
ARC
  5
2A7
330
1F
100
AcDbEntity
  8
0
  6
Continuous
 62
     8
370
    25
100
AcDbCircle
 10
130.2396841063
 20
282.6674513104
 30
0.0
 40
2.507724736995411
100
AcDbArc
 50
107.0926326273
 51
271.1297167129
  0
LINE
  5
2A8
330
1F
100
AcDbEntity
  8
0
  6
Continuous
 62
     8
370
    25
100
AcDbLine
 10
127.2639444361
 20
279.3347357271
 30
0.0
 11
127.7926753246
 21
279.4150192151
 31
0.0
  0
ARC
  5
2A9
330
1F
100
AcDbEntity
  8
0
  6
Continuous
 62
     8
370
    25
100
AcDbCircle
 10
127.2145236816
 20
281.8419933852
 30
0.0
 40
2.507744679063478
100
AcDbArc
 50
107.1165784436
 51
271.1292154256
  0
ARC
  5
2AA
330
1F
100
AcDbEntity
  8
0
  6
Continuous
 62
     8
370
    25
100
AcDbCircle
 10
130.2217998809
 20
-89.9846740577
 30
0.0
 40
2.500734619074075
100
AcDbArc
 50
76.6476839216
 51
253.8509257838
  0
ARC
  5
2AB
330
1F
100
AcDbEntity
  8
0
  6
Continuous
 62
     8
370
    25
100
AcDbCircle
 10
127.1966211955
 20
-89.1597933418
 30
0.0
 40
2.500827438194915
100
AcDbArc
 50
76.211250303
 51
253.2633993562
  0
ARC
  5
2AC
330
1F
100
AcDbEntity
  8
0
  6
Continuous
 62
     8
370
    25
100
AcDbCircle
 10
199.5789510174
 20
-89.1893228515
 30
0.0
 40
2.573986945453259
100
AcDbArc
 50
342.3230549576
 51
17.6769450424
  0
LINE
  5
2AD
330
1F
100
AcDbEntity
  8
0
  6
Continuous
 62
     8
370
    25
100
AcDbLine
 10
128.437806607
 20
284.7134381106
 30
0.0
 11
128.437806607
 21
285.3421309848
 31
0.0
  0
LINE
  5
2AE
330
1F
100
AcDbEntity
  8
0
  6
Continuous
 62
     8
370
    25
100
AcDbLine
 10
128.437806607
 20
277.3418512268
 30
0.0
 11
128.437806607
 21
279.0715612036
 31
0.0
  0
LINE
  5
2AF
330
1F
100
AcDbEntity
  8
0
  6
Continuous
 62
     8
370
    25
100
AcDbLine
 10
128.437806607
 20
-86.3877351452
 30
0.0
 11
128.437806607
 21
-84.6578690152
 31
0.0
  0
LINE
  5
2B0
330
1F
100
AcDbEntity
  8
0
  6
Continuous
 62
     8
370
    25
100
AcDbLine
 10
128.437806607
 20
-92.6581487732
 30
0.0
 11
128.437806607
 21
-92.0334105332
 31
0.0
  0
LINE
  5
2B1
330
1F
100
AcDbEntity
  8
0
  6
Continuous
 62
     8
370
    25
100
AcDbLine
 10
211.6102187051
 20
307.8419911058
 30
0.0
 11
202.0314039323
 21
307.8419911058
 31
0.0
  0
LINE
  5
2B2
330
1F
100
AcDbEntity
  8
0
  6
Continuous
 62
     8
370
    25
100
AcDbLine
 10
132.0314039323
 20
307.8419911058
 30
0.0
 11
115.2653945088
 21
307.8419911058
 31
0.0
  0
LINE
  5
2B3
330
1F
100
AcDbEntity
  8
0
  6
Continuous
 62
     8
370
    25
100
AcDbLine
 10
115.2653945088
 20
-115.1580088942
 30
0.0
 11
132.0314039323
 21
-115.1580088942
 31
0.0
  0
LINE
  5
2B4
330
1F
100
AcDbEntity
  8
0
  6
Continuous
 62
     8
370
    25
100
AcDbLine
 10
202.0314039323
 20
-115.1580088942
 30
0.0
 11
211.6102187051
 21
-115.1580088942
 31
0.0
  0
LINE
  5
2B5
330
1F
100
AcDbEntity
  8
0
  6
Continuous
 62
     8
370
    25
100
AcDbLine
 10
58.6320136039
 20
581.9772966126
 30
0.0
 11
58.6320136039
 21
586.4807032337
 31
0.0
  0
LINE
  5
2B6
330
1F
100
AcDbEntity
  8
0
  6
Continuous
 62
     8
370
    25
100
AcDbLine
 10
275.4307942606
 20
581.9772966126
 30
0.0
 11
275.4307942606
 21
586.4807032337
 31
0.0
  0
LINE
  5
2B7
330
1F
100
AcDbEntity
  8
0
  6
Continuous
 62
     8
370
    25
100
AcDbLine
 10
365.8213976431
 20
625.97653428
 30
0.0
 11
365.8213976431
 21
630.4799409012
 31
0.0
  0
LINE
  5
2B8
330
1F
100
AcDbEntity
  8
0
  6
Continuous
 62
     8
370
    25
100
AcDbLine
 10
-31.7585897786
 20
625.97653428
 30
0.0
 11
-31.7585897786
 21
630.4799409012
 31
0.0
  0
LINE
  5
2B9
330
1F
100
AcDbEntity
  8
0
  6
Continuous
 62
     8
370
    25
100
AcDbLine
 10
275.4307942606
 20
-391.8787662442
 30
0.0
 11
275.4307942606
 21
-387.3753596231
 31
0.0
  0
LINE
  5
2BA
330
1F
100
AcDbEntity
  8
0
  6
Continuous
 62
     8
370
    25
100
AcDbLine
 10
58.6320136039
 20
-391.8787662442
 30
0.0
 11
58.6320136039
 21
-387.3753596231
 31
0.0
  0
LINE
  5
2BB
330
1F
100
AcDbEntity
  8
0
  6
Continuous
 62
     8
370
    25
100
AcDbLine
 10
365.8213976431
 20
-435.8780039117
 30
0.0
 11
365.8213976431
 21
-431.3745972905
 31
0.0
  0
LINE
  5
2BC
330
1F
100
AcDbEntity
  8
0
  6
Continuous
 62
     8
370
    25
100
AcDbLine
 10
-31.7585897786
 20
-435.8780039117
 30
0.0
 11
-31.7585897786
 21
-431.3745972905
 31
0.0
  0
ENDSEC
  0
SECTION
  2
OBJECTS
  0
DICTIONARY
  5
C
330
0
100
AcDbDictionary
281
     1
  3
ACAD_GROUP
350
D
  3
ACAD_LAYOUT
350
1A
  3
ACAD_MLINESTYLE
350
17
  3
ACAD_PLOTSETTINGS
350
19
  3
ACAD_PLOTSTYLENAME
350
E
  3
ACAD_SCALELIST
350
47
  3
DWGPROPS
350
2BD
  0
DICTIONARY
  5
D
102
{ACAD_REACTORS
330
C
102
}
330
C
100
AcDbDictionary
281
     1
  0
DICTIONARY
  5
1A
102
{ACAD_REACTORS
330
C
102
}
330
C
100
AcDbDictionary
281
     1
  3
Layout1
350
1E
  3
Layout2
350
26
  3
Model
350
22
  0
DICTIONARY
  5
17
102
{ACAD_REACTORS
330
C
102
}
330
C
100
AcDbDictionary
281
     1
  3
Standard
350
18
  0
DICTIONARY
  5
19
102
{ACAD_REACTORS
330
C
102
}
330
C
100
AcDbDictionary
281
     1
  0
ACDBDICTIONARYWDFLT
  5
E
102
{ACAD_REACTORS
330
C
102
}
330
C
100
AcDbDictionary
281
     1
  3
Normal
350
F
100
AcDbDictionaryWithDefault
340
F
  0
DICTIONARY
  5
47
102
{ACAD_REACTORS
330
C
102
}
330
C
100
AcDbDictionary
281
     1
  3
A0
350
48
  3
A1
350
49
  3
A2
350
4A
  3
A3
350
4B
  3
A4
350
4C
  3
A5
350
4D
  3
A6
350
4E
  3
A7
350
4F
  3
A8
350
50
  3
A9
350
51
  3
B0
350
52
  3
B1
350
53
  3
B2
350
54
  3
B3
350
55
  3
B4
350
56
  3
B5
350
57
  3
B6
350
58
  3
B7
350
59
  3
B8
350
5A
  3
B9
350
5B
  3
C0
350
5C
  3
C1
350
5D
  3
C2
350
5E
  3
C3
350
5F
  3
C4
350
60
  3
C5
350
61
  3
C6
350
62
  3
C7
350
63
  3
C8
350
64
  3
C9
350
65
  3
D0
350
66
  3
D1
350
67
  3
D2
350
68
  0
XRECORD
  5
2BD
102
{ACAD_REACTORS
330
C
102
}
330
C
100
AcDbXrecord
280
     1
  1
DWGPROPS COOKIE
  2

  3

  4

  6

  7

  8
Swing
  9

300
=
301
=
302
=
303
=
304
=
305
=
306
=
307
=
308
=
309
=
 40
0.0
 41
2459563.484574259
 42
2459563.48457441
  1

 90
        0
  0
LAYOUT
  5
1E
102
{ACAD_REACTORS
330
1A
102
}
330
1A
100
AcDbPlotSettings
  1

  2
none_device
  4

  6

 40
0.0
 41
0.0
 42
0.0
 43
0.0
 44
0.0
 45
0.0
 46
0.0
 47
0.0
 48
0.0
 49
0.0
140
0.0
141
0.0
142
1.0
143
1.0
 70
   688
 72
     1
 73
     0
 74
     5
  7

 75
    16
147
1.0
148
0.0
149
0.0
100
AcDbLayout
  1
Layout1
 70
     1
 71
     1
 10
0.0
 20
0.0
 11
420.0
 21
297.0
 12
0.0
 22
0.0
 32
0.0
 14
1.0000000000E+20
 24
1.0000000000E+20
 34
1.0000000000E+20
 15
-1.0000000000E+20
 25
-1.0000000000E+20
 35
-1.0000000000E+20
146
0.0
 13
0.0
 23
0.0
 33
0.0
 16
1.0
 26
0.0
 36
0.0
 17
0.0
 27
1.0
 37
0.0
 76
     0
330
1B
  0
LAYOUT
  5
26
102
{ACAD_REACTORS
330
1A
102
}
330
1A
100
AcDbPlotSettings
  1

  2
none_device
  4

  6

 40
0.0
 41
0.0
 42
0.0
 43
0.0
 44
0.0
 45
0.0
 46
0.0
 47
0.0
 48
0.0
 49
0.0
140
0.0
141
0.0
142
1.0
143
1.0
 70
   688
 72
     1
 73
     0
 74
     5
  7

 75
    16
147
1.0
148
0.0
149
0.0
100
AcDbLayout
  1
Layout2
 70
     1
 71
     2
 10
0.0
 20
0.0
 11
0.0
 21
0.0
 12
0.0
 22
0.0
 32
0.0
 14
0.0
 24
0.0
 34
0.0
 15
0.0
 25
0.0
 35
0.0
146
0.0
 13
0.0
 23
0.0
 33
0.0
 16
1.0
 26
0.0
 36
0.0
 17
0.0
 27
1.0
 37
0.0
 76
     0
330
23
  0
LAYOUT
  5
22
102
{ACAD_REACTORS
330
1A
102
}
330
1A
100
AcDbPlotSettings
  1

  2
none_device
  4
Letter_(8.50_x_11.00_Inches)
  6

 40
6.35
 41
6.35
 42
6.35000508
 43
6.35000508
 44
215.9
 45
279.4
 46
0.0
 47
0.0
 48
0.0
 49
0.0
140
0.0
141
0.0
142
1.0
143
1.0
 70
  1712
 72
     1
 73
     0
 74
     0
  7

 75
     0
147
1.0
148
0.0
149
0.0
100
AcDbLayout
  1
Model
 70
     1
 71
     0
 10
0.0
 20
0.0
 11
431.8
 21
279.4
 12
0.0
 22
0.0
 32
0.0
 14
0.0
 24
0.0
 34
0.0
 15
431.8
 25
279.4
 35
0.0
146
0.0
 13
0.0
 23
0.0
 33
0.0
 16
1.0
 26
0.0
 36
0.0
 17
0.0
 27
1.0
 37
0.0
 76
     0
330
1F
331
29
  0
MLINESTYLE
  5
18
102
{ACAD_REACTORS
330
17
102
}
330
17
100
AcDbMlineStyle
  2
Standard
 70
     0
  3

 62
   256
 51
90.0
 52
90.0
 71
     2
 49
0.5
 62
   256
  6
BYLAYER
 49
-0.5
 62
   256
  6
BYLAYER
  0
ACDBPLACEHOLDER
  5
F
102
{ACAD_REACTORS
330
E
102
}
330
E
  0
SCALE
  5
48
102
{ACAD_REACTORS
330
47
102
}
330
47
100
AcDbScale
 70
     0
300
1:1
140
1.0
141
1.0
290
     1
  0
SCALE
  5
49
102
{ACAD_REACTORS
330
47
102
}
330
47
100
AcDbScale
 70
     0
300
1:2
140
1.0
141
2.0
290
     0
  0
SCALE
  5
4A
102
{ACAD_REACTORS
330
47
102
}
330
47
100
AcDbScale
 70
     0
300
1:4
140
1.0
141
4.0
290
     0
  0
SCALE
  5
4B
102
{ACAD_REACTORS
330
47
102
}
330
47
100
AcDbScale
 70
     0
300
1:5
140
1.0
141
5.0
290
     0
  0
SCALE
  5
4C
102
{ACAD_REACTORS
330
47
102
}
330
47
100
AcDbScale
 70
     0
300
1:8
140
1.0
141
8.0
290
     0
  0
SCALE
  5
4D
102
{ACAD_REACTORS
330
47
102
}
330
47
100
AcDbScale
 70
     0
300
1:10
140
1.0
141
10.0
290
     0
  0
SCALE
  5
4E
102
{ACAD_REACTORS
330
47
102
}
330
47
100
AcDbScale
 70
     0
300
1:16
140
1.0
141
16.0
290
     0
  0
SCALE
  5
4F
102
{ACAD_REACTORS
330
47
102
}
330
47
100
AcDbScale
 70
     0
300
1:20
140
1.0
141
20.0
290
     0
  0
SCALE
  5
50
102
{ACAD_REACTORS
330
47
102
}
330
47
100
AcDbScale
 70
     0
300
1:30
140
1.0
141
30.0
290
     0
  0
SCALE
  5
51
102
{ACAD_REACTORS
330
47
102
}
330
47
100
AcDbScale
 70
     0
300
1:40
140
1.0
141
40.0
290
     0
  0
SCALE
  5
52
102
{ACAD_REACTORS
330
47
102
}
330
47
100
AcDbScale
 70
     0
300
1:50
140
1.0
141
50.0
290
     0
  0
SCALE
  5
53
102
{ACAD_REACTORS
330
47
102
}
330
47
100
AcDbScale
 70
     0
300
1:100
140
1.0
141
100.0
290
     0
  0
SCALE
  5
54
102
{ACAD_REACTORS
330
47
102
}
330
47
100
AcDbScale
 70
     0
300
2:1
140
2.0
141
1.0
290
     0
  0
SCALE
  5
55
102
{ACAD_REACTORS
330
47
102
}
330
47
100
AcDbScale
 70
     0
300
4:1
140
4.0
141
1.0
290
     0
  0
SCALE
  5
56
102
{ACAD_REACTORS
330
47
102
}
330
47
100
AcDbScale
 70
     0
300
8:1
140
8.0
141
1.0
290
     0
  0
SCALE
  5
57
102
{ACAD_REACTORS
330
47
102
}
330
47
100
AcDbScale
 70
     0
300
10:1
140
10.0
141
1.0
290
     0
  0
SCALE
  5
58
102
{ACAD_REACTORS
330
47
102
}
330
47
100
AcDbScale
 70
     0
300
100:1
140
100.0
141
1.0
290
     0
  0
SCALE
  5
59
102
{ACAD_REACTORS
330
47
102
}
330
47
100
AcDbScale
 70
     0
300
1/128" = 1'-0"
140
0.0078125
141
12.0
290
     0
  0
SCALE
  5
5A
102
{ACAD_REACTORS
330
47
102
}
330
47
100
AcDbScale
 70
     0
300
1/64" = 1'-0"
140
0.015625
141
12.0
290
     0
  0
SCALE
  5
5B
102
{ACAD_REACTORS
330
47
102
}
330
47
100
AcDbScale
 70
     0
300
1/32" = 1'-0"
140
0.03125
141
12.0
290
     0
  0
SCALE
  5
5C
102
{ACAD_REACTORS
330
47
102
}
330
47
100
AcDbScale
 70
     0
300
1/16" = 1'-0"
140
0.0625
141
12.0
290
     0
  0
SCALE
  5
5D
102
{ACAD_REACTORS
330
47
102
}
330
47
100
AcDbScale
 70
     0
300
3/32" = 1'-0"
140
0.09375
141
12.0
290
     0
  0
SCALE
  5
5E
102
{ACAD_REACTORS
330
47
102
}
330
47
100
AcDbScale
 70
     0
300
1/8" = 1'-0"
140
0.125
141
12.0
290
     0
  0
SCALE
  5
5F
102
{ACAD_REACTORS
330
47
102
}
330
47
100
AcDbScale
 70
     0
300
3/16" = 1'-0"
140
0.1875
141
12.0
290
     0
  0
SCALE
  5
60
102
{ACAD_REACTORS
330
47
102
}
330
47
100
AcDbScale
 70
     0
300
1/4" = 1'-0"
140
0.25
141
12.0
290
     0
  0
SCALE
  5
61
102
{ACAD_REACTORS
330
47
102
}
330
47
100
AcDbScale
 70
     0
300
3/8" = 1'-0"
140
0.375
141
12.0
290
     0
  0
SCALE
  5
62
102
{ACAD_REACTORS
330
47
102
}
330
47
100
AcDbScale
 70
     0
300
1/2" = 1'-0"
140
0.5
141
12.0
290
     0
  0
SCALE
  5
63
102
{ACAD_REACTORS
330
47
102
}
330
47
100
AcDbScale
 70
     0
300
3/4" = 1'-0"
140
0.75
141
12.0
290
     0
  0
SCALE
  5
64
102
{ACAD_REACTORS
330
47
102
}
330
47
100
AcDbScale
 70
     0
300
1" = 1'-0"
140
1.0
141
12.0
290
     0
  0
SCALE
  5
65
102
{ACAD_REACTORS
330
47
102
}
330
47
100
AcDbScale
 70
     0
300
1-1/2" = 1'-0"
140
1.5
141
12.0
290
     0
  0
SCALE
  5
66
102
{ACAD_REACTORS
330
47
102
}
330
47
100
AcDbScale
 70
     0
300
3" = 1'-0"
140
3.0
141
12.0
290
     0
  0
SCALE
  5
67
102
{ACAD_REACTORS
330
47
102
}
330
47
100
AcDbScale
 70
     0
300
6" = 1'-0"
140
6.0
141
12.0
290
     0
  0
SCALE
  5
68
102
{ACAD_REACTORS
330
47
102
}
330
47
100
AcDbScale
 70
     0
300
1'-0" = 1'-0"
140
12.0
141
12.0
290
     0
  0
ENDSEC
  0
EOF
