  0
SECTION
  2
HEADER
  9
$ACADVER
  1
AC1015
  9
$ACADMAINTVER
 70
     6
  9
$DWGCODEPAGE
  3
ANSI_1250
  9
$INSBASE
 10
0.0
 20
0.0
 30
0.0
  9
$EXTMIN
 10
0.0
 20
0.0
 30
0.0
  9
$EXTMAX
 10
431.8
 20
279.4
 30
0.0
  9
$LIMMIN
 10
0.0
 20
0.0
  9
$LIMMAX
 10
431.8
 20
279.4
  9
$ORTHOMODE
 70
     0
  9
$REGENMODE
 70
     1
  9
$FILLMODE
 70
     1
  9
$QTEXTMODE
 70
     0
  9
$MIRRTEXT
 70
     1
  9
$LTSCALE
 40
1.0
  9
$ATTMODE
 70
     1
  9
$TEXTSIZE
 40
3.8805555556
  9
$TRACEWID
 40
1.0
  9
$TEXTSTYLE
  7
Standard
  9
$CLAYER
  8
0
  9
$CELTYPE
  6
ByLayer
  9
$CECOLOR
 62
   256
  9
$CELTSCALE
 40
1.0
  9
$DISPSILH
 70
     0
  9
$DIMSCALE
 40
1.0
  9
$DIMASZ
 40
3.302
  9
$DIMEXO
 40
1.0
  9
$DIMDLI
 40
3.75
  9
$DIMRND
 40
0.0
  9
$DIMDLE
 40
0.0
  9
$DIMEXE
 40
1.0
  9
$DIMTP
 40
0.0
  9
$DIMTM
 40
0.0
  9
$DIMTXT
 40
3.8805555556
  9
$DIMCEN
 40
2.5
  9
$DIMTSZ
 40
0.0
  9
$DIMTOL
 70
     0
  9
$DIMLIM
 70
     0
  9
$DIMTIH
 70
     1
  9
$DIMTOH
 70
     1
  9
$DIMSE1
 70
     0
  9
$DIMSE2
 70
     0
  9
$DIMTAD
 70
     1
  9
$DIMZIN
 70
     0
  9
$DIMBLK
  1

  9
$DIMASO
 70
     1
  9
$DIMSHO
 70
     1
  9
$DIMPOST
  1

  9
$DIMAPOST
  1

  9
$DIMALT
 70
     0
  9
$DIMALTD
 70
     3
  9
$DIMALTF
 40
0.0393700787
  9
$DIMLFAC
 40
1.0
  9
$DIMTOFL
 70
     1
  9
$DIMTVP
 40
0.0
  9
$DIMTIX
 70
     0
  9
$DIMSOXD
 70
     0
  9
$DIMSAH
 70
     0
  9
$DIMBLK1
  1

  9
$DIMBLK2
  1

  9
$DIMSTYLE
  2
ISO-25
  9
$DIMCLRD
 70
     0
  9
$DIMCLRE
 70
     0
  9
$DIMCLRT
 70
     0
  9
$DIMTFAC
 40
1.0
  9
$DIMGAP
 40
1.524
  9
$DIMJUST
 70
     0
  9
$DIMSD1
 70
     0
  9
$DIMSD2
 70
     0
  9
$DIMTOLJ
 70
     0
  9
$DIMTZIN
 70
     0
  9
$DIMALTZ
 70
     0
  9
$DIMALTTZ
 70
     0
  9
$DIMUPT
 70
     0
  9
$DIMDEC
 70
     1
  9
$DIMTDEC
 70
     1
  9
$DIMALTU
 70
     2
  9
$DIMALTTD
 70
     3
  9
$DIMTXSTY
  7
Standard
  9
$DIMAUNIT
 70
     0
  9
$DIMADEC
 70
     1
  9
$DIMALTRND
 40
0.0
  9
$DIMAZIN
 70
     0
  9
$DIMDSEP
 70
    44
  9
$DIMATFIT
 70
     3
  9
$DIMFRAC
 70
     0
  9
$DIMLDRBLK
  1

  9
$DIMLUNIT
 70
     2
  9
$DIMLWD
 70
    -2
  9
$DIMLWE
 70
    -2
  9
$DIMTMOVE
 70
     0
  9
$LUNITS
 70
     2
  9
$LUPREC
 70
     1
  9
$SKETCHINC
 40
1.0
  9
$FILLETRAD
 40
10.0
  9
$AUNITS
 70
     0
  9
$AUPREC
 70
     1
  9
$MENU
  1
.
  9
$ELEVATION
 40
0.0
  9
$PELEVATION
 40
0.0
  9
$THICKNESS
 40
0.0
  9
$LIMCHECK
 70
     0
  9
$CHAMFERA
 40
0.0
  9
$CHAMFERB
 40
0.0
  9
$CHAMFERC
 40
0.0
  9
$CHAMFERD
 40
0.0
  9
$SKPOLY
 70
     0
  9
$TDCREATE
 40
2459563.499940035
  9
$TDUCREATE
 40
2459563.458273368
  9
$TDUPDATE
 40
2459563.499940208
  9
$TDUUPDATE
 40
2459563.458273542
  9
$TDINDWG
 40
0.0000000116
  9
$TDUSRTIMER
 40
0.0000000116
  9
$USRTIMER
 70
     1
  9
$ANGBASE
 50
0.0
  9
$ANGDIR
 70
     0
  9
$PDMODE
 70
     0
  9
$PDSIZE
 40
-1.0
  9
$PLINEWID
 40
0.0
  9
$SPLFRAME
 70
     0
  9
$SPLINETYPE
 70
     6
  9
$SPLINESEGS
 70
     8
  9
$HANDSEED
  5
3C4
  9
$SURFTAB1
 70
     6
  9
$SURFTAB2
 70
     6
  9
$SURFTYPE
 70
     6
  9
$SURFU
 70
     6
  9
$SURFV
 70
     6
  9
$UCSBASE
  2

  9
$UCSNAME
  2

  9
$UCSORG
 10
0.0
 20
0.0
 30
0.0
  9
$UCSXDIR
 10
1.0
 20
0.0
 30
0.0
  9
$UCSYDIR
 10
0.0
 20
1.0
 30
0.0
  9
$UCSORTHOREF
  2

  9
$UCSORTHOVIEW
 70
     0
  9
$UCSORGTOP
 10
0.0
 20
0.0
 30
0.0
  9
$UCSORGBOTTOM
 10
0.0
 20
0.0
 30
0.0
  9
$UCSORGLEFT
 10
0.0
 20
0.0
 30
0.0
  9
$UCSORGRIGHT
 10
0.0
 20
0.0
 30
0.0
  9
$UCSORGFRONT
 10
0.0
 20
0.0
 30
0.0
  9
$UCSORGBACK
 10
0.0
 20
0.0
 30
0.0
  9
$PUCSBASE
  2

  9
$PUCSNAME
  2

  9
$PUCSORG
 10
0.0
 20
0.0
 30
0.0
  9
$PUCSXDIR
 10
1.0
 20
0.0
 30
0.0
  9
$PUCSYDIR
 10
0.0
 20
1.0
 30
0.0
  9
$PUCSORTHOREF
  2

  9
$PUCSORTHOVIEW
 70
     0
  9
$PUCSORGTOP
 10
0.0
 20
0.0
 30
0.0
  9
$PUCSORGBOTTOM
 10
0.0
 20
0.0
 30
0.0
  9
$PUCSORGLEFT
 10
0.0
 20
0.0
 30
0.0
  9
$PUCSORGRIGHT
 10
0.0
 20
0.0
 30
0.0
  9
$PUCSORGFRONT
 10
0.0
 20
0.0
 30
0.0
  9
$PUCSORGBACK
 10
0.0
 20
0.0
 30
0.0
  9
$USERI1
 70
     0
  9
$USERI2
 70
     0
  9
$USERI3
 70
     0
  9
$USERI4
 70
     0
  9
$USERI5
 70
     0
  9
$USERR1
 40
0.0
  9
$USERR2
 40
0.0
  9
$USERR3
 40
0.0
  9
$USERR4
 40
0.0
  9
$USERR5
 40
0.0
  9
$WORLDVIEW
 70
     1
  9
$SHADEDGE
 70
     3
  9
$SHADEDIF
 70
    70
  9
$TILEMODE
 70
     1
  9
$MAXACTVP
 70
    64
  9
$PINSBASE
 10
0.0
 20
0.0
 30
0.0
  9
$PLIMCHECK
 70
     0
  9
$PEXTMIN
 10
1.0000000000E+20
 20
1.0000000000E+20
 30
1.0000000000E+20
  9
$PEXTMAX
 10
-1.0000000000E+20
 20
-1.0000000000E+20
 30
-1.0000000000E+20
  9
$PLIMMIN
 10
0.0
 20
0.0
  9
$PLIMMAX
 10
420.0
 20
297.0
  9
$UNITMODE
 70
     0
  9
$VISRETAIN
 70
     1
  9
$PLINEGEN
 70
     0
  9
$PSLTSCALE
 70
     1
  9
$TREEDEPTH
 70
  3020
  9
$CMLSTYLE
  2
Standard
  9
$CMLJUST
 70
     0
  9
$CMLSCALE
 40
20.0
  9
$PROXYGRAPHICS
 70
     1
  9
$MEASUREMENT
 70
     1
  9
$CELWEIGHT
370
    -1
  9
$ENDCAPS
280
     0
  9
$JOINSTYLE
280
     0
  9
$LWDISPLAY
290
     1
  9
$INSUNITS
 70
     4
  9
$HYPERLINKBASE
  1

  9
$STYLESHEET
  1

  9
$XEDIT
290
     1
  9
$CEPSNTYPE
380
     0
  9
$PSTYLEMODE
290
     1
  9
$FINGERPRINTGUID
  2
{6efb5321-9ca7-4fee-8ee0-f6447282eec4}
  9
$VERSIONGUID
  2
{FAEB1C32-E019-11D5-929B-00C0DF256EC4}
  9
$EXTNAMES
290
     1
  9
$PSVPSCALE
 40
0.0
  9
$OLESTARTUP
290
     0
  0
ENDSEC
  0
SECTION
  2
CLASSES
  0
CLASS
  1
ACDBDICTIONARYWDFLT
  2
AcDbDictionaryWithDefault
  3
ObjectDBX Classes
 90
        0
280
     0
281
     0
  0
CLASS
  1
VISUALSTYLE
  2
AcDbVisualStyle
  3
ObjectDBX Classes
 90
     4095
280
     0
281
     0
  0
CLASS
  1
MATERIAL
  2
AcDbMaterial
  3
ObjectDBX Classes
 90
     1153
280
     0
281
     0
  0
CLASS
  1
SCALE
  2
AcDbScale
  3
ObjectDBX Classes
 90
     1153
280
     0
281
     0
  0
CLASS
  1
TABLESTYLE
  2
AcDbTableStyle
  3
ObjectDBX Classes
 90
     4095
280
     0
281
     0
  0
CLASS
  1
MLEADERSTYLE
  2
AcDbMLeaderStyle
  3
ACDB_MLEADERSTYLE_CLASS
 90
     4095
280
     0
281
     0
  0
CLASS
  1
SUN
  2
AcDbSun
  3
SCENEOE
 90
     1153
280
     0
281
     0
  0
CLASS
  1
ACDBPLACEHOLDER
  2
AcDbPlaceHolder
  3
ObjectDBX Classes
 90
        0
280
     0
281
     0
  0
CLASS
  1
LAYOUT
  2
AcDbLayout
  3
ObjectDBX Classes
 90
        0
280
     0
281
     0
  0
ENDSEC
  0
SECTION
  2
TABLES
  0
TABLE
  2
VPORT
  5
8
330
0
100
AcDbSymbolTable
 70
     1
  0
VPORT
  5
29
330
8
100
AcDbSymbolTableRecord
100
AcDbViewportTableRecord
  2
*Active
 70
     0
 10
0.0
 20
0.0
 11
1.0
 21
1.0
 12
215.9
 22
139.7
 13
0.0
 23
0.0
 14
10.0
 24
10.0
 15
10.0
 25
10.0
 16
0.0
 26
0.0
 36
1.0
 17
0.0
 27
0.0
 37
0.0
 40
279.4
 41
1.5454545455
 42
50.0
 43
0.0
 44
0.0
 50
0.0
 51
0.0
 71
     0
 72
  2000
 73
     1
 74
     3
 75
     0
 76
     0
 77
     0
 78
     0
281
     0
 65
     1
110
0.0
120
0.0
130
0.0
111
1.0
121
0.0
131
0.0
112
0.0
122
1.0
132
0.0
 79
     0
146
0.0
  0
ENDTAB
  0
TABLE
  2
LTYPE
  5
5
330
0
100
AcDbSymbolTable
 70
     6
  0
LTYPE
  5
14
330
5
100
AcDbSymbolTableRecord
100
AcDbLinetypeTableRecord
  2
ByBlock
 70
     0
  3

 72
    65
 73
     0
 40
0.0
  0
LTYPE
  5
15
330
5
100
AcDbSymbolTableRecord
100
AcDbLinetypeTableRecord
  2
ByLayer
 70
     0
  3

 72
    65
 73
     0
 40
0.0
  0
LTYPE
  5
16
330
5
100
AcDbSymbolTableRecord
100
AcDbLinetypeTableRecord
  2
Continuous
 70
     0
  3
Solid line
 72
    65
 73
     0
 40
0.0
  0
LTYPE
  5
6E
330
5
100
AcDbSymbolTableRecord
100
AcDbLinetypeTableRecord
  2
HIDDEN
 70
     0
  3
Hidden __ __ __ __ __ __ __ __ __ __ __ __ __ __
 72
    65
 73
     2
 40
1.905
 49
1.27
 74
     0
 49
-0.635
 74
     0
  0
LTYPE
  5
6F
330
5
100
AcDbSymbolTableRecord
100
AcDbLinetypeTableRecord
  2
PHANTOM
 70
     0
  3
Phantom ______  __  __  ______  __  __  ______
 72
    65
 73
     6
 40
12.7
 49
6.35
 74
     0
 49
-1.27
 74
     0
 49
1.27
 74
     0
 49
-1.27
 74
     0
 49
1.27
 74
     0
 49
-1.27
 74
     0
  0
LTYPE
  5
70
330
5
100
AcDbSymbolTableRecord
100
AcDbLinetypeTableRecord
  2
CENTER
 70
     0
  3
Center ____ _ ____ _ ____ _ ____ _ ____ _ ____
 72
    65
 73
     4
 40
10.16
 49
6.35
 74
     0
 49
-1.27
 74
     0
 49
1.27
 74
     0
 49
-1.27
 74
     0
  0
LTYPE
  5
71
330
5
100
AcDbSymbolTableRecord
100
AcDbLinetypeTableRecord
  2
CENTERX2
 70
     0
  3
Center (2x) ________  __  ________  __  _____
 72
    65
 73
     4
 40
20.32
 49
12.7
 74
     0
 49
-2.54
 74
     0
 49
2.54
 74
     0
 49
-2.54
 74
     0
  0
LTYPE
  5
72
330
5
100
AcDbSymbolTableRecord
100
AcDbLinetypeTableRecord
  2
DOT2
 70
     0
  3
Dot (.5x) ........................................
 72
    65
 73
     2
 40
0.635
 49
0.0
 74
     0
 49
-0.635
 74
     0
  0
ENDTAB
  0
TABLE
  2
LAYER
  5
2
330
0
100
AcDbSymbolTable
 70
     3
  0
LAYER
  5
10
330
2
100
AcDbSymbolTableRecord
100
AcDbLayerTableRecord
  2
0
 70
     0
 62
     7
  6
Continuous
370
    -3
390
F
  0
LAYER
  5
73
330
2
100
AcDbSymbolTableRecord
100
AcDbLayerTableRecord
  2
FRAME_&_TABLE
 70
     0
 62
     8
  6
Continuous
370
    50
390
F
  0
LAYER
  5
74
330
2
100
AcDbSymbolTableRecord
100
AcDbLayerTableRecord
  2
DIMENSIONS
 70
     0
 62
     7
  6
Continuous
370
    -3
390
F
  0
ENDTAB
  0
TABLE
  2
STYLE
  5
3
330
0
100
AcDbSymbolTable
 70
     1
  0
STYLE
  5
11
330
3
100
AcDbSymbolTableRecord
100
AcDbTextStyleTableRecord
  2
Standard
 70
     0
 40
0.0
 41
1.0
 50
0.0
 71
     0
 42
3.8805555556
  3
txt
  4

  0
ENDTAB
  0
TABLE
  2
VIEW
  5
6
330
0
100
AcDbSymbolTable
 70
     0
  0
ENDTAB
  0
TABLE
  2
UCS
  5
7
330
0
100
AcDbSymbolTable
 70
     0
  0
ENDTAB
  0
TABLE
  2
APPID
  5
9
330
0
100
AcDbSymbolTable
 70
     1
  0
APPID
  5
12
330
9
100
AcDbSymbolTableRecord
100
AcDbRegAppTableRecord
  2
ACAD
 70
     0
  0
ENDTAB
  0
TABLE
  2
DIMSTYLE
  5
A
330
0
100
AcDbSymbolTable
 70
     1
100
AcDbDimStyleTable
  0
DIMSTYLE
105
27
330
A
100
AcDbSymbolTableRecord
100
AcDbDimStyleTableRecord
  2
ISO-25
 70
     0
 41
2.5
 42
0.625
 43
3.75
 44
1.25
 73
     0
 74
     0
 77
     1
 78
     8
140
2.5
141
2.5
143
0.0393700787
147
0.625
171
     3
172
     1
178
     0
271
     2
272
     2
274
     3
278
    44
283
     0
284
     8
340
11
  0
ENDTAB
  0
TABLE
  2
BLOCK_RECORD
  5
1
330
0
100
AcDbSymbolTable
 70
     1
  0
BLOCK_RECORD
  5
1F
330
1
100
AcDbSymbolTableRecord
100
AcDbBlockTableRecord
  2
*Model_Space
340
22
  0
BLOCK_RECORD
  5
1B
330
1
100
AcDbSymbolTableRecord
100
AcDbBlockTableRecord
  2
*Paper_Space
340
1E
  0
BLOCK_RECORD
  5
23
330
1
100
AcDbSymbolTableRecord
100
AcDbBlockTableRecord
  2
*Paper_Space0
340
26
  0
ENDTAB
  0
ENDSEC
  0
SECTION
  2
BLOCKS
  0
BLOCK
  5
20
330
1F
100
AcDbEntity
  8
0
100
AcDbBlockBegin
  2
*Model_Space
 70
     0
 10
0.0
 20
0.0
 30
0.0
  3
*Model_Space
  1

  0
ENDBLK
  5
21
330
1F
100
AcDbEntity
  8
0
100
AcDbBlockEnd
  0
BLOCK
  5
1C
330
1B
100
AcDbEntity
 67
     1
  8
0
100
AcDbBlockBegin
  2
*Paper_Space
 70
     0
 10
0.0
 20
0.0
 30
0.0
  3
*Paper_Space
  1

  0
ENDBLK
  5
1D
330
1B
100
AcDbEntity
 67
     1
  8
0
100
AcDbBlockEnd
  0
BLOCK
  5
24
330
23
100
AcDbEntity
  8
0
100
AcDbBlockBegin
  2
*Paper_Space0
 70
     0
 10
0.0
 20
0.0
 30
0.0
  3
*Paper_Space0
  1

  0
ENDBLK
  5
25
330
23
100
AcDbEntity
  8
0
100
AcDbBlockEnd
  0
ENDSEC
  0
SECTION
  2
ENTITIES
  0
LINE
  5
75
330
1F
100
AcDbEntity
  8
0
  6
Continuous
 62
     7
370
    25
100
AcDbLine
 10
-835.6543702816
 20
141.016311207
 30
0.0
 11
-990.5817257684
 21
216.4299635134
 31
0.0
  0
LINE
  5
76
330
1F
100
AcDbEntity
  8
0
  6
Continuous
 62
     7
370
    25
100
AcDbLine
 10
-1076.649893849
 20
118.1864240467
 30
0.0
 11
-913.2929018744
 21
38.6694958974
 31
0.0
  0
LINE
  5
77
330
1F
100
AcDbEntity
  8
0
  6
Continuous
 62
     7
370
    25
100
AcDbLine
 10
1339.9414391739
 20
216.4299635134
 30
0.0
 11
1185.014083687
 21
141.016311207
 31
0.0
  0
LINE
  5
78
330
1F
100
AcDbEntity
  8
0
  6
Continuous
 62
     7
370
    25
100
AcDbLine
 10
1262.6526152798
 20
38.6694958974
 30
0.0
 11
1426.0096072545
 21
118.1864240467
 31
0.0
  0
LINE
  5
79
330
1F
100
AcDbEntity
  8
0
  6
Continuous
 62
     7
370
    25
100
AcDbLine
 10
1185.0140836871
 20
-1981.7243114124
 30
0.0
 11
1339.9414391739
 21
-2057.1379637188
 31
0.0
  0
LINE
  5
7A
330
1F
100
AcDbEntity
  8
0
  6
Continuous
 62
     7
370
    25
100
AcDbLine
 10
1426.0096072545
 20
-1958.8944242521
 30
0.0
 11
1262.6526152798
 21
-1879.3774961028
 31
0.0
  0
LINE
  5
7B
330
1F
100
AcDbEntity
  8
0
  6
Continuous
 62
     7
370
    25
100
AcDbLine
 10
-913.2929018744
 20
-1879.3774961028
 30
0.0
 11
-1076.649893849
 21
-1958.8944242521
 31
0.0
  0
LINE
  5
7C
330
1F
100
AcDbEntity
  8
0
  6
Continuous
 62
     7
370
    25
100
AcDbLine
 10
-990.5817257684
 20
-2057.1379637188
 30
0.0
 11
-835.6543702816
 21
-1981.7243114124
 31
0.0
  0
ARC
  5
7D
330
1F
100
AcDbEntity
  8
0
  6
Continuous
 62
     7
370
    25
100
AcDbCircle
 10
1342.4227336965
 20
120.6051366121
 30
0.0
 40
15.65177019816784
100
AcDbArc
 50
261.4801816322
 51
308.4757453181
  0
ARC
  5
7E
330
1F
100
AcDbEntity
  8
0
  6
Continuous
 62
     7
370
    25
100
AcDbCircle
 10
1342.3448847676
 20
120.2052256057
 30
0.0
 40
15.70607654501968
100
AcDbArc
 50
35.868959596
 51
82.7396651834
  0
LINE
  5
7F
330
1F
100
AcDbEntity
  8
0
  6
Continuous
 62
     7
370
    25
100
AcDbLine
 10
1339.2171436137
 20
105.2190148416
 30
0.0
 11
1340.1000912066
 21
105.09750666
 31
0.0
  0
LINE
  5
80
330
1F
100
AcDbEntity
  8
0
  6
Continuous
 62
     7
370
    25
100
AcDbLine
 10
1344.326371952
 20
135.8080675643
 30
0.0
 11
1343.4434243591
 21
135.9295757459
 31
0.0
  0
ARC
  5
81
330
1F
100
AcDbEntity
  8
0
  6
Continuous
 62
     7
370
    25
100
AcDbCircle
 10
-932.0317171288
 20
-1931.6050619458
 30
0.0
 40
15.65177019816892
100
AcDbArc
 50
81.4801816322
 51
128.4757453181
  0
ARC
  5
82
330
1F
100
AcDbEntity
  8
0
  6
Continuous
 62
     7
370
    25
100
AcDbCircle
 10
-931.9538682
 20
-1931.2051509393
 30
0.0
 40
15.7060765450178
100
AcDbArc
 50
215.868959596
 51
262.7396651834
  0
LINE
  5
83
330
1F
100
AcDbEntity
  8
0
  6
Continuous
 62
     7
370
    25
100
AcDbLine
 10
-928.8261270461
 20
-1916.2189401752
 30
0.0
 11
-929.709074639
 21
-1916.0974319936
 31
0.0
  0
LINE
  5
84
330
1F
100
AcDbEntity
  8
0
  6
Continuous
 62
     7
370
    25
100
AcDbLine
 10
-933.9353553844
 20
-1946.807992898
 30
0.0
 11
-933.0524077915
 21
-1946.9295010796
 31
0.0
  0
ARC
  5
85
330
1F
100
AcDbEntity
  8
0
  6
Continuous
 62
     7
370
    25
100
AcDbCircle
 10
1281.3455968818
 20
-1931.2524838324
 30
0.0
 40
15.64763785759102
100
AcDbArc
 50
277.1249456093
 51
324.0666196495
  0
ARC
  5
86
330
1F
100
AcDbEntity
  8
0
  6
Continuous
 62
     7
370
    25
100
AcDbCircle
 10
1281.3449302343
 20
-1931.7039352642
 30
0.0
 40
15.75729598147641
100
AcDbArc
 50
51.6696012701
 51
98.2796502486
  0
LINE
  5
87
330
1F
100
AcDbEntity
  8
0
  6
Continuous
 62
     7
370
    25
100
AcDbLine
 10
1282.4121211969
 20
-1946.9295010796
 30
0.0
 11
1283.2950687898
 21
-1946.807992898
 31
0.0
  0
LINE
  5
88
330
1F
100
AcDbEntity
  8
0
  6
Continuous
 62
     7
370
    25
100
AcDbLine
 10
1279.0687880444
 20
-1916.0974319936
 30
0.0
 11
1278.1858404515
 21
-1916.2189401752
 31
0.0
  0
ARC
  5
89
330
1F
100
AcDbEntity
  8
0
  6
Continuous
 62
     7
370
    25
100
AcDbCircle
 10
-993.063020291
 20
-1961.3131368175
 30
0.0
 40
15.6517701981706
100
AcDbArc
 50
81.4801816322
 51
128.4757453181
  0
ARC
  5
8A
330
1F
100
AcDbEntity
  8
0
  6
Continuous
 62
     7
370
    25
100
AcDbCircle
 10
-992.9851713622
 20
-1960.913225811
 30
0.0
 40
15.70607654502136
100
AcDbArc
 50
215.868959596
 51
262.7396651834
  0
LINE
  5
8B
330
1F
100
AcDbEntity
  8
0
  6
Continuous
 62
     7
370
    25
100
AcDbLine
 10
-989.8574302083
 20
-1945.9270150469
 30
0.0
 11
-990.7403778011
 21
-1945.8055068654
 31
0.0
  0
LINE
  5
8C
330
1F
100
AcDbEntity
  8
0
  6
Continuous
 62
     7
370
    25
100
AcDbLine
 10
-994.9666585465
 20
-1976.5160677697
 30
0.0
 11
-994.0837109537
 21
-1976.6375759513
 31
0.0
  0
ARC
  5
8D
330
1F
100
AcDbEntity
  8
0
  6
Continuous
 62
     7
370
    25
100
AcDbCircle
 10
7.8792639505
 20
-1545.5878765555
 30
0.0
 40
15.72367189754751
100
AcDbArc
 50
314.4120437363
 51
0.8262976254
  0
ARC
  5
8E
330
1F
100
AcDbEntity
  8
0
  6
Continuous
 62
     7
370
    25
100
AcDbCircle
 10
8.6673518086
 20
-1545.4557361475
 30
0.0
 40
16.01723683407533
100
AcDbArc
 50
179.6762869986
 51
225.2092911727
  0
LINE
  5
8F
330
1F
100
AcDbEntity
  8
0
  6
Continuous
 62
     7
370
    25
100
AcDbLine
 10
-7.3670980405
 20
-1544.3930985651
 30
0.0
 11
-7.3670980405
 21
-1545.3590243914
 31
0.0
  0
LINE
  5
90
330
1F
100
AcDbEntity
  8
0
  6
Continuous
 62
     7
370
    25
100
AcDbLine
 10
23.6329019595
 20
-1545.3590243914
 30
0.0
 11
23.6329019595
 21
-1544.3930985651
 31
0.0
  0
ARC
  5
91
330
1F
100
AcDbEntity
  8
0
  6
Continuous
 62
     7
370
    25
100
AcDbCircle
 10
1281.3914305343
 20
90.8970617404
 30
0.0
 40
15.65177019816971
100
AcDbArc
 50
261.4801816322
 51
308.4757453181
  0
ARC
  5
92
330
1F
100
AcDbEntity
  8
0
  6
Continuous
 62
     7
370
    25
100
AcDbCircle
 10
1281.3135816055
 20
90.4971507339
 30
0.0
 40
15.70607654502252
100
AcDbArc
 50
35.868959596
 51
82.7396651834
  0
LINE
  5
93
330
1F
100
AcDbEntity
  8
0
  6
Continuous
 62
     7
370
    25
100
AcDbLine
 10
1278.1858404515
 20
75.5109399698
 30
0.0
 11
1279.0687880444
 21
75.3894317883
 31
0.0
  0
LINE
  5
94
330
1F
100
AcDbEntity
  8
0
  6
Continuous
 62
     7
370
    25
100
AcDbLine
 10
1283.2950687898
 20
106.0999926926
 30
0.0
 11
1282.4121211969
 21
106.2215008742
 31
0.0
  0
ARC
  5
95
330
1F
100
AcDbEntity
  8
0
  6
Continuous
 62
     7
370
    25
100
AcDbCircle
 10
99.4262186938
 20
-1501.0257642479
 30
0.0
 40
15.72367189754728
100
AcDbArc
 50
314.4120437363
 51
0.8262976254
  0
ARC
  5
96
330
1F
100
AcDbEntity
  8
0
  6
Continuous
 62
     7
370
    25
100
AcDbCircle
 10
100.2143065518
 20
-1500.8936238399
 30
0.0
 40
16.0172368340753
100
AcDbArc
 50
179.6762869986
 51
225.2092911727
  0
LINE
  5
97
330
1F
100
AcDbEntity
  8
0
  6
Continuous
 62
     7
370
    25
100
AcDbLine
 10
84.1798567027
 20
-1499.8309862575
 30
0.0
 11
84.1798567027
 21
-1500.7969120838
 31
0.0
  0
LINE
  5
98
330
1F
100
AcDbEntity
  8
0
  6
Continuous
 62
     7
370
    25
100
AcDbLine
 10
115.1798567027
 20
-1500.7969120838
 30
0.0
 11
115.1798567027
 21
-1499.8309862575
 31
0.0
  0
ARC
  5
99
330
1F
100
AcDbEntity
  8
0
  6
Continuous
 62
     7
370
    25
100
AcDbCircle
 10
-993.0171866385
 20
120.2525584988
 30
0.0
 40
15.64763785759041
100
AcDbArc
 50
97.1249456093
 51
144.0666196495
  0
ARC
  5
9A
330
1F
100
AcDbEntity
  8
0
  6
Continuous
 62
     7
370
    25
100
AcDbCircle
 10
-993.0165199911
 20
120.7040099305
 30
0.0
 40
15.75729598147429
100
AcDbArc
 50
231.6696012701
 51
278.2796502486
  0
LINE
  5
9B
330
1F
100
AcDbEntity
  8
0
  6
Continuous
 62
     7
370
    25
100
AcDbLine
 10
-994.0837109537
 20
135.9295757459
 30
0.0
 11
-994.9666585465
 21
135.8080675643
 31
0.0
  0
LINE
  5
9C
330
1F
100
AcDbEntity
  8
0
  6
Continuous
 62
     7
370
    25
100
AcDbLine
 10
-990.7403778011
 20
105.09750666
 30
0.0
 11
-989.8574302083
 21
105.2190148416
 31
0.0
  0
ARC
  5
9D
330
1F
100
AcDbEntity
  8
0
  6
Continuous
 62
     7
370
    25
100
AcDbCircle
 10
249.9899363416
 20
-1500.9864145926
 30
0.0
 40
15.77964171809673
100
AcDbArc
 50
179.3042779629
 51
225.5000887255
  0
ARC
  5
9E
330
1F
100
AcDbEntity
  8
0
  6
Continuous
 62
     7
370
    25
100
AcDbCircle
 10
249.3114451407
 20
-1500.9361502976
 30
0.0
 40
15.85161027303896
100
AcDbArc
 50
314.5399015258
 51
0.5257569446
  0
LINE
  5
9F
330
1F
100
AcDbEntity
  8
0
  6
Continuous
 62
     7
370
    25
100
AcDbLine
 10
234.1798567027
 20
-1499.8309862575
 30
0.0
 11
234.1798567027
 21
-1500.7969120838
 31
0.0
  0
LINE
  5
A0
330
1F
100
AcDbEntity
  8
0
  6
Continuous
 62
     7
370
    25
100
AcDbLine
 10
265.1798567027
 20
-1500.7969120838
 30
0.0
 11
265.1798567027
 21
-1499.8309862575
 31
0.0
  0
ARC
  5
A1
330
1F
100
AcDbEntity
  8
0
  6
Continuous
 62
     7
370
    25
100
AcDbCircle
 10
341.4804494549
 20
-295.1201236499
 30
0.0
 40
15.7236718975456
100
AcDbArc
 50
134.4120437363
 51
180.8262976254
  0
ARC
  5
A2
330
1F
100
AcDbEntity
  8
0
  6
Continuous
 62
     7
370
    25
100
AcDbCircle
 10
340.6923615968
 20
-295.2522640579
 30
0.0
 40
16.01723683407672
100
AcDbArc
 50
359.6762869986
 51
45.2092911727
  0
LINE
  5
A3
330
1F
100
AcDbEntity
  8
0
  6
Continuous
 62
     7
370
    25
100
AcDbLine
 10
356.726811446
 20
-296.3149016403
 30
0.0
 11
356.726811446
 21
-295.348975814
 31
0.0
  0
LINE
  5
A4
330
1F
100
AcDbEntity
  8
0
  6
Continuous
 62
     7
370
    25
100
AcDbLine
 10
325.726811446
 20
-295.348975814
 30
0.0
 11
325.726811446
 21
-296.3149016403
 31
0.0
  0
ARC
  5
A5
330
1F
100
AcDbEntity
  8
0
  6
Continuous
 62
     7
370
    25
100
AcDbCircle
 10
249.9334947116
 20
-339.6822359574
 30
0.0
 40
15.72367189754648
100
AcDbArc
 50
134.4120437363
 51
180.8262976254
  0
ARC
  5
A6
330
1F
100
AcDbEntity
  8
0
  6
Continuous
 62
     7
370
    25
100
AcDbCircle
 10
249.1454068536
 20
-339.8143763655
 30
0.0
 40
16.01723683407588
100
AcDbArc
 50
359.6762869986
 51
45.2092911727
  0
LINE
  5
A7
330
1F
100
AcDbEntity
  8
0
  6
Continuous
 62
     7
370
    25
100
AcDbLine
 10
265.1798567027
 20
-340.8770139478
 30
0.0
 11
265.1798567027
 21
-339.9110881216
 31
0.0
  0
LINE
  5
A8
330
1F
100
AcDbEntity
  8
0
  6
Continuous
 62
     7
370
    25
100
AcDbLine
 10
234.1798567027
 20
-339.9110881216
 30
0.0
 11
234.1798567027
 21
-340.8770139478
 31
0.0
  0
ARC
  5
A9
330
1F
100
AcDbEntity
  8
0
  6
Continuous
 62
     7
370
    25
100
AcDbCircle
 10
-931.9858834764
 20
90.544483627
 30
0.0
 40
15.64763785759151
100
AcDbArc
 50
97.1249456093
 51
144.0666196495
  0
ARC
  5
AA
330
1F
100
AcDbEntity
  8
0
  6
Continuous
 62
     7
370
    25
100
AcDbCircle
 10
-931.9852168289
 20
90.9959350588
 30
0.0
 40
15.75729598147365
100
AcDbArc
 50
231.6696012701
 51
278.2796502486
  0
LINE
  5
AB
330
1F
100
AcDbEntity
  8
0
  6
Continuous
 62
     7
370
    25
100
AcDbLine
 10
-933.0524077915
 20
106.2215008742
 30
0.0
 11
-933.9353553844
 21
106.0999926926
 31
0.0
  0
LINE
  5
AC
330
1F
100
AcDbEntity
  8
0
  6
Continuous
 62
     7
370
    25
100
AcDbLine
 10
-929.709074639
 20
75.3894317883
 30
0.0
 11
-928.8261270461
 21
75.5109399698
 31
0.0
  0
ARC
  5
AD
330
1F
100
AcDbEntity
  8
0
  6
Continuous
 62
     7
370
    25
100
AcDbCircle
 10
99.3697770639
 20
-339.7215856128
 30
0.0
 40
15.77964171809688
100
AcDbArc
 50
359.3042779629
 51
45.5000887255
  0
ARC
  5
AE
330
1F
100
AcDbEntity
  8
0
  6
Continuous
 62
     7
370
    25
100
AcDbCircle
 10
100.0482682648
 20
-339.7718499077
 30
0.0
 40
15.85161027303795
100
AcDbArc
 50
134.5399015258
 51
180.5257569446
  0
LINE
  5
AF
330
1F
100
AcDbEntity
  8
0
  6
Continuous
 62
     7
370
    25
100
AcDbLine
 10
115.1798567027
 20
-340.8770139478
 30
0.0
 11
115.1798567027
 21
-339.9110881216
 31
0.0
  0
LINE
  5
B0
330
1F
100
AcDbEntity
  8
0
  6
Continuous
 62
     7
370
    25
100
AcDbLine
 10
84.1798567027
 20
-339.9110881216
 30
0.0
 11
84.1798567027
 21
-340.8770139478
 31
0.0
  0
ARC
  5
B1
330
1F
100
AcDbEntity
  8
0
  6
Continuous
 62
     7
370
    25
100
AcDbCircle
 10
1342.376900044
 20
-1960.9605587041
 30
0.0
 40
15.64763785758743
100
AcDbArc
 50
277.1249456093
 51
324.0666196495
  0
ARC
  5
B2
330
1F
100
AcDbEntity
  8
0
  6
Continuous
 62
     7
370
    25
100
AcDbCircle
 10
1342.3762333965
 20
-1961.4120101359
 30
0.0
 40
15.75729598147888
100
AcDbArc
 50
51.6696012701
 51
98.2796502486
  0
LINE
  5
B3
330
1F
100
AcDbEntity
  8
0
  6
Continuous
 62
     7
370
    25
100
AcDbLine
 10
1343.4434243591
 20
-1976.6375759513
 30
0.0
 11
1344.326371952
 21
-1976.5160677697
 31
0.0
  0
LINE
  5
B4
330
1F
100
AcDbEntity
  8
0
  6
Continuous
 62
     7
370
    25
100
AcDbLine
 10
1340.1000912066
 20
-1945.8055068654
 30
0.0
 11
1339.2171436137
 21
-1945.9270150469
 31
0.0
  0
ARC
  5
B5
330
1F
100
AcDbEntity
  8
0
  6
Continuous
 62
     7
370
    25
100
AcDbCircle
 10
7.8228223206
 20
-295.1594733053
 30
0.0
 40
15.77964171809682
100
AcDbArc
 50
359.3042779629
 51
45.5000887255
  0
ARC
  5
B6
330
1F
100
AcDbEntity
  8
0
  6
Continuous
 62
     7
370
    25
100
AcDbCircle
 10
8.5013135215
 20
-295.2097376002
 30
0.0
 40
15.85161027303906
100
AcDbArc
 50
134.5399015258
 51
180.5257569446
  0
LINE
  5
B7
330
1F
100
AcDbEntity
  8
0
  6
Continuous
 62
     7
370
    25
100
AcDbLine
 10
23.6329019595
 20
-296.3149016403
 30
0.0
 11
23.6329019595
 21
-295.348975814
 31
0.0
  0
LINE
  5
B8
330
1F
100
AcDbEntity
  8
0
  6
Continuous
 62
     7
370
    25
100
AcDbLine
 10
-7.3670980405
 20
-295.348975814
 30
0.0
 11
-7.3670980405
 21
-296.3149016403
 31
0.0
  0
ARC
  5
B9
330
1F
100
AcDbEntity
  8
0
  6
Continuous
 62
     7
370
    25
100
AcDbCircle
 10
341.5368910848
 20
-1545.5485269001
 30
0.0
 40
15.77964171809592
100
AcDbArc
 50
179.3042779629
 51
225.5000887255
  0
ARC
  5
BA
330
1F
100
AcDbEntity
  8
0
  6
Continuous
 62
     7
370
    25
100
AcDbCircle
 10
340.8583998839
 20
-1545.4982626052
 30
0.0
 40
15.85161027303896
100
AcDbArc
 50
314.5399015258
 51
0.5257569446
  0
LINE
  5
BB
330
1F
100
AcDbEntity
  8
0
  6
Continuous
 62
     7
370
    25
100
AcDbLine
 10
325.726811446
 20
-1544.3930985651
 30
0.0
 11
325.726811446
 21
-1545.3590243914
 31
0.0
  0
LINE
  5
BC
330
1F
100
AcDbEntity
  8
0
  6
Continuous
 62
     7
370
    25
100
AcDbLine
 10
356.726811446
 20
-1545.3590243914
 30
0.0
 11
356.726811446
 21
-1544.3930985651
 31
0.0
  0
ARC
  5
BD
330
1F
100
AcDbEntity
  8
0
  6
Continuous
 62
     7
370
    25
100
AcDbCircle
 10
8.1329019595
 20
-310.2151779842
 30
0.0
 40
29.89062500000045
100
AcDbArc
 50
76.1990602276
 51
103.8009397724
  0
ARC
  5
BE
330
1F
100
AcDbEntity
  8
0
  6
Continuous
 62
     7
370
    25
100
AcDbCircle
 10
17.7398466172
 20
-283.570751796
 30
0.0
 40
1.126680204787777
100
AcDbArc
 50
351.5129329826
 51
49.9072722787
  0
ARC
  5
BF
330
1F
100
AcDbEntity
  8
0
  6
Continuous
 62
     7
370
    25
100
AcDbCircle
 10
-1.4259283637
 20
-283.5561239794
 30
0.0
 40
1.16347163090364
100
AcDbArc
 50
130.9446873383
 51
181.0441040894
  0
LINE
  5
C0
330
1F
100
AcDbEntity
  8
0
  6
Continuous
 62
     7
370
    25
100
AcDbLine
 10
18.8829019595
 20
-284.2408288117
 30
0.0
 11
18.8829019595
 21
-283.6756172961
 31
0.0
  0
LINE
  5
C1
330
1F
100
AcDbEntity
  8
0
  6
Continuous
 62
     7
370
    25
100
AcDbLine
 10
-2.6170980405
 20
-283.6756172961
 30
0.0
 11
-2.6170980405
 21
-284.2408288117
 31
0.0
  0
ARC
  5
C2
330
1F
100
AcDbEntity
  8
0
  6
Continuous
 62
     7
370
    25
100
AcDbCircle
 10
341.226811446
 20
-1530.4928222212
 30
0.0
 40
29.89062500000045
100
AcDbArc
 50
256.1990602276
 51
283.8009397724
  0
ARC
  5
C3
330
1F
100
AcDbEntity
  8
0
  6
Continuous
 62
     7
370
    25
100
AcDbCircle
 10
331.6198667882
 20
-1557.1372484094
 30
0.0
 40
1.126680204787126
100
AcDbArc
 50
171.5129329826
 51
229.9072722787
  0
ARC
  5
C4
330
1F
100
AcDbEntity
  8
0
  6
Continuous
 62
     7
370
    25
100
AcDbCircle
 10
350.7856417692
 20
-1557.151876226
 30
0.0
 40
1.163471630905233
100
AcDbArc
 50
310.9446873383
 51
1.0441040894
  0
LINE
  5
C5
330
1F
100
AcDbEntity
  8
0
  6
Continuous
 62
     7
370
    25
100
AcDbLine
 10
330.476811446
 20
-1556.4671713937
 30
0.0
 11
330.476811446
 21
-1557.0323829093
 31
0.0
  0
LINE
  5
C6
330
1F
100
AcDbEntity
  8
0
  6
Continuous
 62
     7
370
    25
100
AcDbLine
 10
351.976811446
 20
-1557.0323829093
 30
0.0
 11
351.976811446
 21
-1556.4671713937
 31
0.0
  0
LWPOLYLINE
  5
C7
330
1F
100
AcDbEntity
  8
0
  6
Continuous
 62
     7
370
    25
100
AcDbPolyline
 90
        8
 70
   128
 43
0.0
 10
-1004.7602015168
 20
129.6354409501
 10
-1004.9135940816
 20
129.6433349166
 10
-1005.7204238102
 20
129.4263142293
 10
-1006.4470800957
 20
128.9778297649
 10
-1007.0983918636
 20
128.3066084729
 10
-1007.6725014818
 20
127.4062805186
 10
-1008.1318572552
 20
126.3439084499
 10
-1008.2100324209
 20
126.1154612936
  0
ARC
  5
C8
330
1F
100
AcDbEntity
  8
0
  6
Continuous
 62
     7
370
    25
100
AcDbCircle
 10
-1002.4956744056
 20
111.3157337768
 30
0.0
 40
2.989922148104269
100
AcDbArc
 50
227.5013161613
 51
278.6730897761
  0
LINE
  5
C9
330
1F
100
AcDbEntity
  8
0
  6
Continuous
 62
     7
370
    25
100
AcDbLine
 10
-1004.4729805889
 20
129.705073015
 30
0.0
 11
-1004.9896373896
 21
129.6339725002
 31
0.0
  0
LINE
  5
CA
330
1F
100
AcDbEntity
  8
0
  6
Continuous
 62
     7
370
    25
100
AcDbLine
 10
-1002.0585071952
 20
108.3347125182
 30
0.0
 11
-1001.5418503945
 21
108.4058130329
 31
0.0
  0
ARC
  5
CB
330
1F
100
AcDbEntity
  8
0
  6
Continuous
 62
     7
370
    25
100
AcDbCircle
 10
341.226811446
 20
-310.2151779842
 30
0.0
 40
29.89062500000055
100
AcDbArc
 50
76.1990602276
 51
90.0
  0
ARC
  5
CC
330
1F
100
AcDbEntity
  8
0
  6
Continuous
 62
     7
370
    25
100
AcDbCircle
 10
341.226811446
 20
-310.2151779842
 30
0.0
 40
29.89062500000035
100
AcDbArc
 50
90.0
 51
103.8009397724
  0
ARC
  5
CD
330
1F
100
AcDbEntity
  8
0
  6
Continuous
 62
     7
370
    25
100
AcDbCircle
 10
332.0343392339
 20
-283.6657124717
 30
0.0
 40
1.529682184626548
100
AcDbArc
 50
118.7347486112
 51
178.0701983897
  0
ARC
  5
CE
330
1F
100
AcDbEntity
  8
0
  6
Continuous
 62
     7
370
    25
100
AcDbCircle
 10
350.537640921
 20
-283.6284374657
 30
0.0
 40
1.418757012894291
100
AcDbArc
 50
354.1148315612
 51
62.8210631544
  0
LINE
  5
CF
330
1F
100
AcDbEntity
  8
0
  6
Continuous
 62
     7
370
    25
100
AcDbLine
 10
351.976811446
 20
-284.2408288117
 30
0.0
 11
351.976811446
 21
-283.6756172961
 31
0.0
  0
LINE
  5
D0
330
1F
100
AcDbEntity
  8
0
  6
Continuous
 62
     7
370
    25
100
AcDbLine
 10
330.476811446
 20
-283.6756172961
 30
0.0
 11
330.476811446
 21
-284.2408288117
 31
0.0
  0
LWPOLYLINE
  5
D1
330
1F
100
AcDbEntity
  8
0
  6
Continuous
 62
     7
370
    25
100
AcDbPolyline
 90
       10
 70
   128
 43
0.0
 10
1351.4964250869
 20
108.3558174267
 10
1352.0226332126
 20
108.3196604985
 10
1352.8472081125
 20
108.5112457946
 10
1353.6571645067
 20
108.937388544
 10
1354.456664384
 20
109.6041263274
 10
1355.2262667337
 20
110.5066481997
 10
1355.9387053243
 20
111.6170873236
 10
1356.5741450513
 20
112.8992989444
 10
1357.1207832571
 20
114.3210871643
 10
1357.5819887115
 20
115.9027171753
  0
ARC
  5
D2
330
1F
100
AcDbEntity
  8
0
  6
Continuous
 62
     7
370
    25
100
AcDbCircle
 10
1353.8712133409
 20
126.4499974099
 30
0.0
 40
3.19746619152606
100
AcDbArc
 50
29.6213580608
 51
77.3646691258
  0
LINE
  5
D3
330
1F
100
AcDbEntity
  8
0
  6
Continuous
 62
     7
370
    25
100
AcDbLine
 10
1350.9015638
 20
108.4058130329
 30
0.0
 11
1351.4182206006
 21
108.3347125182
 31
0.0
  0
LINE
  5
D4
330
1F
100
AcDbEntity
  8
0
  6
Continuous
 62
     7
370
    25
100
AcDbLine
 10
1354.349350795
 20
129.6339725002
 30
0.0
 11
1353.8326939943
 21
129.705073015
 31
0.0
  0
LWPOLYLINE
  5
D5
330
1F
100
AcDbEntity
  8
0
  6
Continuous
 62
     7
370
    25
100
AcDbPolyline
 90
       10
 70
   128
 43
0.0
 10
-1002.1367116814
 20
-1949.0638176321
 10
-1002.6629198071
 20
-1949.0276607038
 10
-1003.4874947071
 20
-1949.219246
 10
-1004.2974511012
 20
-1949.6453887494
 10
-1005.0969509786
 20
-1950.3121265328
 10
-1005.8665533282
 20
-1951.2146484051
 10
-1006.5789919189
 20
-1952.325087529
 10
-1007.2144316458
 20
-1953.6072991498
 10
-1007.7610698516
 20
-1955.0290873697
 10
-1008.2222753061
 20
-1956.6107173806
  0
ARC
  5
D6
330
1F
100
AcDbEntity
  8
0
  6
Continuous
 62
     7
370
    25
100
AcDbCircle
 10
-1004.5114999354
 20
-1967.1579976153
 30
0.0
 40
3.197466191523897
100
AcDbArc
 50
209.6213580607
 51
257.3646691258
  0
LINE
  5
D7
330
1F
100
AcDbEntity
  8
0
  6
Continuous
 62
     7
370
    25
100
AcDbLine
 10
-1001.5418503945
 20
-1949.1138132383
 30
0.0
 11
-1002.0585071952
 21
-1949.0427127236
 31
0.0
  0
LINE
  5
D8
330
1F
100
AcDbEntity
  8
0
  6
Continuous
 62
     7
370
    25
100
AcDbLine
 10
-1004.9896373896
 20
-1970.3419727056
 30
0.0
 11
-1004.4729805889
 21
-1970.4130732204
 31
0.0
  0
LWPOLYLINE
  5
D9
330
1F
100
AcDbEntity
  8
0
  6
Continuous
 62
     7
370
    25
100
AcDbPolyline
 90
       10
 70
   128
 43
0.0
 10
-941.1054085192
 20
-1919.3557427604
 10
-941.631616645
 20
-1919.3195858321
 10
-942.4561915449
 20
-1919.5111711283
 10
-943.2661479391
 20
-1919.9373138777
 10
-944.0656478164
 20
-1920.6040516611
 10
-944.8352501661
 20
-1921.5065735334
 10
-945.5476887567
 20
-1922.6170126573
 10
-946.1831284837
 20
-1923.8992242781
 10
-946.7297666895
 20
-1925.321012498
 10
-947.1909721439
 20
-1926.9026425089
  0
ARC
  5
DA
330
1F
100
AcDbEntity
  8
0
  6
Continuous
 62
     7
370
    25
100
AcDbCircle
 10
-943.4801967733
 20
-1937.4499227436
 30
0.0
 40
3.197466191528943
100
AcDbArc
 50
209.6213580608
 51
257.3646691257
  0
LINE
  5
DB
330
1F
100
AcDbEntity
  8
0
  6
Continuous
 62
     7
370
    25
100
AcDbLine
 10
-940.5105472323
 20
-1919.4057383666
 30
0.0
 11
-941.027204033
 21
-1919.3346378518
 31
0.0
  0
LINE
  5
DC
330
1F
100
AcDbEntity
  8
0
  6
Continuous
 62
     7
370
    25
100
AcDbLine
 10
-943.9583342274
 20
-1940.6338978339
 30
0.0
 11
-943.4416774267
 21
-1940.7049983487
 31
0.0
  0
ARC
  5
DD
330
1F
100
AcDbEntity
  8
0
  6
Continuous
 62
     7
370
    25
100
AcDbCircle
 10
99.6798567027
 20
-354.7772902918
 30
0.0
 40
29.89062500000045
100
AcDbArc
 50
76.1990602276
 51
103.8009397724
  0
ARC
  5
DE
330
1F
100
AcDbEntity
  8
0
  6
Continuous
 62
     7
370
    25
100
AcDbCircle
 10
109.2868013604
 20
-328.1328641036
 30
0.0
 40
1.126680204787811
100
AcDbArc
 50
351.5129329826
 51
49.9072722787
  0
ARC
  5
DF
330
1F
100
AcDbEntity
  8
0
  6
Continuous
 62
     7
370
    25
100
AcDbCircle
 10
90.1210263795
 20
-328.1182362869
 30
0.0
 40
1.163471630904666
100
AcDbArc
 50
130.9446873383
 51
181.0441040894
  0
LINE
  5
E0
330
1F
100
AcDbEntity
  8
0
  6
Continuous
 62
     7
370
    25
100
AcDbLine
 10
110.4298567027
 20
-328.8029411192
 30
0.0
 11
110.4298567027
 21
-328.2377296037
 31
0.0
  0
LINE
  5
E1
330
1F
100
AcDbEntity
  8
0
  6
Continuous
 62
     7
370
    25
100
AcDbLine
 10
88.9298567027
 20
-328.2377296037
 30
0.0
 11
88.9298567027
 21
-328.8029411192
 31
0.0
  0
LWPOLYLINE
  5
E2
330
1F
100
AcDbEntity
  8
0
  6
Continuous
 62
     7
370
    25
100
AcDbPolyline
 90
        8
 70
   128
 43
0.0
 10
1293.0886117601
 20
-1940.6353662838
 10
1293.2420043249
 20
-1940.6432602503
 10
1294.0488340535
 20
-1940.426239563
 10
1294.7754903389
 20
-1939.9777550986
 10
1295.4268021069
 20
-1939.3065338065
 10
1296.0009117251
 20
-1938.4062058522
 10
1296.4602674985
 20
-1937.3438337836
 10
1296.5384426642
 20
-1937.1153866273
  0
ARC
  5
E3
330
1F
100
AcDbEntity
  8
0
  6
Continuous
 62
     7
370
    25
100
AcDbCircle
 10
1290.8240846489
 20
-1922.3156591105
 30
0.0
 40
2.989922148104814
100
AcDbArc
 50
47.5013161613
 51
98.6730897761
  0
LINE
  5
E4
330
1F
100
AcDbEntity
  8
0
  6
Continuous
 62
     7
370
    25
100
AcDbLine
 10
1292.8013908322
 20
-1940.7049983487
 30
0.0
 11
1293.3180476328
 21
-1940.6338978339
 31
0.0
  0
LINE
  5
E5
330
1F
100
AcDbEntity
  8
0
  6
Continuous
 62
     7
370
    25
100
AcDbLine
 10
1290.3869174385
 20
-1919.3346378518
 30
0.0
 11
1289.8702606378
 21
-1919.4057383666
 31
0.0
  0
LWPOLYLINE
  5
E6
330
1F
100
AcDbEntity
  8
0
  6
Continuous
 62
     7
370
    25
100
AcDbPolyline
 90
        8
 70
   128
 43
0.0
 10
-943.7288983546
 20
99.9273660784
 10
-943.8822909194
 20
99.9352600449
 10
-944.6891206481
 20
99.7182393576
 10
-945.4157769335
 20
99.2697548932
 10
-946.0670887015
 20
98.5985336011
 10
-946.6411983196
 20
97.6982056469
 10
-947.100554093
 20
96.6358335782
 10
-947.1787292587
 20
96.4073864219
  0
ARC
  5
E7
330
1F
100
AcDbEntity
  8
0
  6
Continuous
 62
     7
370
    25
100
AcDbCircle
 10
-941.4643712435
 20
81.6076589051
 30
0.0
 40
2.989922148104888
100
AcDbArc
 50
227.5013161613
 51
278.6730897761
  0
LINE
  5
E8
330
1F
100
AcDbEntity
  8
0
  6
Continuous
 62
     7
370
    25
100
AcDbLine
 10
-943.4416774267
 20
99.9969981433
 30
0.0
 11
-943.9583342274
 21
99.9258976285
 31
0.0
  0
LINE
  5
E9
330
1F
100
AcDbEntity
  8
0
  6
Continuous
 62
     7
370
    25
100
AcDbLine
 10
-941.027204033
 20
78.6266376465
 30
0.0
 11
-940.5105472323
 21
78.6977381612
 31
0.0
  0
ARC
  5
EA
330
1F
100
AcDbEntity
  8
0
  6
Continuous
 62
     7
370
    25
100
AcDbCircle
 10
249.6798567027
 20
-354.7772902918
 30
0.0
 40
29.89062500000054
100
AcDbArc
 50
76.1990602276
 51
90.0
  0
ARC
  5
EB
330
1F
100
AcDbEntity
  8
0
  6
Continuous
 62
     7
370
    25
100
AcDbCircle
 10
249.6798567027
 20
-354.7772902918
 30
0.0
 40
29.89062500000034
100
AcDbArc
 50
90.0
 51
103.8009397724
  0
ARC
  5
EC
330
1F
100
AcDbEntity
  8
0
  6
Continuous
 62
     7
370
    25
100
AcDbCircle
 10
240.4873844906
 20
-328.2278247793
 30
0.0
 40
1.529682184626716
100
AcDbArc
 50
118.7347486112
 51
178.0701983897
  0
ARC
  5
ED
330
1F
100
AcDbEntity
  8
0
  6
Continuous
 62
     7
370
    25
100
AcDbCircle
 10
258.9906861778
 20
-328.1905497733
 30
0.0
 40
1.418757012894533
100
AcDbArc
 50
354.1148315612
 51
62.8210631544
  0
LINE
  5
EE
330
1F
100
AcDbEntity
  8
0
  6
Continuous
 62
     7
370
    25
100
AcDbLine
 10
260.4298567027
 20
-328.8029411192
 30
0.0
 11
260.4298567027
 21
-328.2377296037
 31
0.0
  0
LINE
  5
EF
330
1F
100
AcDbEntity
  8
0
  6
Continuous
 62
     7
370
    25
100
AcDbLine
 10
238.9298567027
 20
-328.2377296037
 30
0.0
 11
238.9298567027
 21
-328.8029411192
 31
0.0
  0
LWPOLYLINE
  5
F0
330
1F
100
AcDbEntity
  8
0
  6
Continuous
 62
     7
370
    25
100
AcDbPolyline
 90
       10
 70
   128
 43
0.0
 10
1290.4651219247
 20
78.647742555
 10
1290.9913300504
 20
78.6115856267
 10
1291.8159049504
 20
78.8031709229
 10
1292.6258613445
 20
79.2293136723
 10
1293.4253612219
 20
79.8960514557
 10
1294.1949635715
 20
80.798573328
 10
1294.9074021622
 20
81.9090124519
 10
1295.5428418891
 20
83.1912240727
 10
1296.0894800949
 20
84.6130122926
 10
1296.5506855494
 20
86.1946423035
  0
ARC
  5
F1
330
1F
100
AcDbEntity
  8
0
  6
Continuous
 62
     7
370
    25
100
AcDbCircle
 10
1292.8399101787
 20
96.7419225382
 30
0.0
 40
3.197466191524088
100
AcDbArc
 50
29.6213580607
 51
77.3646691258
  0
LINE
  5
F2
330
1F
100
AcDbEntity
  8
0
  6
Continuous
 62
     7
370
    25
100
AcDbLine
 10
1289.8702606378
 20
78.6977381612
 30
0.0
 11
1290.3869174385
 21
78.6266376465
 31
0.0
  0
LINE
  5
F3
330
1F
100
AcDbEntity
  8
0
  6
Continuous
 62
     7
370
    25
100
AcDbLine
 10
1293.3180476328
 20
99.9258976285
 30
0.0
 11
1292.8013908322
 21
99.9969981433
 31
0.0
  0
ARC
  5
F4
330
1F
100
AcDbEntity
  8
0
  6
Continuous
 62
     7
370
    25
100
AcDbCircle
 10
249.6798567027
 20
-1485.9307099136
 30
0.0
 40
29.89062500000045
100
AcDbArc
 50
256.1990602276
 51
283.8009397724
  0
ARC
  5
F5
330
1F
100
AcDbEntity
  8
0
  6
Continuous
 62
     7
370
    25
100
AcDbCircle
 10
240.072912045
 20
-1512.5751361018
 30
0.0
 40
1.126680204787547
100
AcDbArc
 50
171.5129329826
 51
229.9072722787
  0
ARC
  5
F6
330
1F
100
AcDbEntity
  8
0
  6
Continuous
 62
     7
370
    25
100
AcDbCircle
 10
259.2386870259
 20
-1512.5897639185
 30
0.0
 40
1.163471630905554
100
AcDbArc
 50
310.9446873383
 51
1.0441040894
  0
LINE
  5
F7
330
1F
100
AcDbEntity
  8
0
  6
Continuous
 62
     7
370
    25
100
AcDbLine
 10
238.9298567027
 20
-1511.9050590862
 30
0.0
 11
238.9298567027
 21
-1512.4702706017
 31
0.0
  0
LINE
  5
F8
330
1F
100
AcDbEntity
  8
0
  6
Continuous
 62
     7
370
    25
100
AcDbLine
 10
260.4298567027
 20
-1512.4702706017
 30
0.0
 11
260.4298567027
 21
-1511.9050590862
 31
0.0
  0
ARC
  5
F9
330
1F
100
AcDbEntity
  8
0
  6
Continuous
 62
     7
370
    25
100
AcDbCircle
 10
8.1329019595
 20
-1530.4928222212
 30
0.0
 40
29.89062500000033
100
AcDbArc
 50
256.1990602276
 51
270.0
  0
ARC
  5
FA
330
1F
100
AcDbEntity
  8
0
  6
Continuous
 62
     7
370
    25
100
AcDbCircle
 10
8.1329019595
 20
-1530.4928222212
 30
0.0
 40
29.89062499999989
100
AcDbArc
 50
270.0
 51
283.8009397724
  0
ARC
  5
FB
330
1F
100
AcDbEntity
  8
0
  6
Continuous
 62
     7
370
    25
100
AcDbCircle
 10
17.3253741716
 20
-1557.0422877337
 30
0.0
 40
1.529682184626805
100
AcDbArc
 50
298.7347486112
 51
358.0701983897
  0
ARC
  5
FC
330
1F
100
AcDbEntity
  8
0
  6
Continuous
 62
     7
370
    25
100
AcDbCircle
 10
-1.1779275156
 20
-1557.0795627397
 30
0.0
 40
1.41875701289458
100
AcDbArc
 50
174.1148315611
 51
242.8210631544
  0
LINE
  5
FD
330
1F
100
AcDbEntity
  8
0
  6
Continuous
 62
     7
370
    25
100
AcDbLine
 10
-2.6170980405
 20
-1556.4671713937
 30
0.0
 11
-2.6170980405
 21
-1557.0323829093
 31
0.0
  0
LINE
  5
FE
330
1F
100
AcDbEntity
  8
0
  6
Continuous
 62
     7
370
    25
100
AcDbLine
 10
18.8829019595
 20
-1557.0323829093
 30
0.0
 11
18.8829019595
 21
-1556.4671713937
 31
0.0
  0
ARC
  5
FF
330
1F
100
AcDbEntity
  8
0
  6
Continuous
 62
     7
370
    25
100
AcDbCircle
 10
99.6798567027
 20
-1485.9307099136
 30
0.0
 40
29.89062500000077
100
AcDbArc
 50
256.1990602276
 51
270.0
  0
ARC
  5
100
330
1F
100
AcDbEntity
  8
0
  6
Continuous
 62
     7
370
    25
100
AcDbCircle
 10
99.6798567027
 20
-1485.9307099136
 30
0.0
 40
29.89062500000033
100
AcDbArc
 50
270.0
 51
283.8009397724
  0
ARC
  5
101
330
1F
100
AcDbEntity
  8
0
  6
Continuous
 62
     7
370
    25
100
AcDbCircle
 10
108.8723289148
 20
-1512.4801754261
 30
0.0
 40
1.529682184627242
100
AcDbArc
 50
298.7347486112
 51
358.0701983897
  0
ARC
  5
102
330
1F
100
AcDbEntity
  8
0
  6
Continuous
 62
     7
370
    25
100
AcDbCircle
 10
90.3690272276
 20
-1512.5174504321
 30
0.0
 40
1.418757012895091
100
AcDbArc
 50
174.1148315612
 51
242.8210631544
  0
LINE
  5
103
330
1F
100
AcDbEntity
  8
0
  6
Continuous
 62
     7
370
    25
100
AcDbLine
 10
88.9298567027
 20
-1511.9050590862
 30
0.0
 11
88.9298567027
 21
-1512.4702706017
 31
0.0
  0
LINE
  5
104
330
1F
100
AcDbEntity
  8
0
  6
Continuous
 62
     7
370
    25
100
AcDbLine
 10
110.4298567027
 20
-1512.4702706017
 30
0.0
 11
110.4298567027
 21
-1511.9050590862
 31
0.0
  0
LWPOLYLINE
  5
105
330
1F
100
AcDbEntity
  8
0
  6
Continuous
 62
     7
370
    25
100
AcDbPolyline
 90
        8
 70
   128
 43
0.0
 10
1354.1199149222
 20
-1970.3434411555
 10
1354.273307487
 20
-1970.351335122
 10
1355.0801372157
 20
-1970.1343144347
 10
1355.8067935011
 20
-1969.6858299703
 10
1356.4581052691
 20
-1969.0146086782
 10
1357.0322148873
 20
-1968.114280724
 10
1357.4915706607
 20
-1967.0519086553
 10
1357.5697458263
 20
-1966.823461499
  0
ARC
  5
106
330
1F
100
AcDbEntity
  8
0
  6
Continuous
 62
     7
370
    25
100
AcDbCircle
 10
1351.8553878111
 20
-1952.0237339822
 30
0.0
 40
2.989922148106302
100
AcDbArc
 50
47.5013161613
 51
98.6730897761
  0
LINE
  5
107
330
1F
100
AcDbEntity
  8
0
  6
Continuous
 62
     7
370
    25
100
AcDbLine
 10
1353.8326939943
 20
-1970.4130732204
 30
0.0
 11
1354.349350795
 21
-1970.3419727056
 31
0.0
  0
LINE
  5
108
330
1F
100
AcDbEntity
  8
0
  6
Continuous
 62
     7
370
    25
100
AcDbLine
 10
1351.4182206006
 20
-1949.0427127236
 30
0.0
 11
1350.9015638
 21
-1949.1138132383
 31
0.0
  0
ARC
  5
109
330
1F
100
AcDbEntity
  8
0
  6
Continuous
 62
     7
370
    25
100
AcDbCircle
 10
288.0397525463
 20
-1880.7642296684
 30
0.0
 40
489.9095882955152
100
AcDbArc
 50
93.4307279828
 51
102.2466050953
  0
ARC
  5
10A
330
1F
100
AcDbEntity
  8
0
  6
Continuous
 62
     7
370
    25
100
AcDbCircle
 10
259.2113820912
 20
-1396.4765344094
 30
0.0
 40
4.756005959043592
100
AcDbArc
 50
61.9842234715
 51
95.8597799039
  0
LINE
  5
10B
330
1F
100
AcDbEntity
  8
0
  6
Continuous
 62
     7
370
    25
100
AcDbLine
 10
269.4530363972
 20
-1396.1488567804
 30
0.0
 11
261.4282348671
 21
-1392.2426415706
 31
0.0
  0
ARC
  5
10C
330
1F
100
AcDbEntity
  8
0
  6
Continuous
 62
     7
370
    25
100
AcDbCircle
 10
535.0796590059
 20
-1448.2381194761
 30
0.0
 40
357.8456170354742
100
AcDbArc
 50
173.4353625174
 51
186.5587768125
  0
ARC
  5
10D
330
1F
100
AcDbEntity
  8
0
  6
Continuous
 62
     7
370
    25
100
AcDbCircle
 10
184.5951815574
 20
-1488.9345895408
 30
0.0
 40
4.99963364031346
100
AcDbArc
 50
181.9944312309
 51
244.8034223402
  0
LINE
  5
10E
330
1F
100
AcDbEntity
  8
0
  6
Continuous
 62
     7
370
    25
100
AcDbLine
 10
182.4457498084
 20
-1493.4773389274
 30
0.0
 11
190.4710657342
 21
-1497.3838045285
 31
0.0
  0
ARC
  5
10F
330
1F
100
AcDbEntity
  8
0
  6
Continuous
 62
     7
370
    25
100
AcDbCircle
 10
185.6755145346
 20
-1407.894160018
 30
0.0
 40
6.090833891407471
100
AcDbArc
 50
104.8481337179
 51
174.64675149
  0
ARC
  5
110
330
1F
100
AcDbEntity
  8
0
  6
Continuous
 62
     7
370
    25
100
AcDbCircle
 10
61.3199608592
 20
40.056229463
 30
0.0
 40
489.9095882954899
100
AcDbArc
 50
273.4307279828
 51
282.2466050953
  0
ARC
  5
111
330
1F
100
AcDbEntity
  8
0
  6
Continuous
 62
     7
370
    25
100
AcDbCircle
 10
90.1483313142
 20
-444.2314657959
 30
0.0
 40
4.756005959040703
100
AcDbArc
 50
241.9842234715
 51
275.8597799039
  0
LINE
  5
112
330
1F
100
AcDbEntity
  8
0
  6
Continuous
 62
     7
370
    25
100
AcDbLine
 10
79.9066770083
 20
-444.559143425
 30
0.0
 11
87.9314785383
 21
-448.4653586348
 31
0.0
  0
ARC
  5
113
330
1F
100
AcDbEntity
  8
0
  6
Continuous
 62
     7
370
    25
100
AcDbCircle
 10
-185.7199456005
 20
-392.4698807293
 30
0.0
 40
357.8456170354747
100
AcDbArc
 50
353.4353625174
 51
6.5587768125
  0
ARC
  5
114
330
1F
100
AcDbEntity
  8
0
  6
Continuous
 62
     7
370
    25
100
AcDbCircle
 10
164.7645318481
 20
-351.7734106646
 30
0.0
 40
4.999633640311613
100
AcDbArc
 50
1.9944312308
 51
64.8034223403
  0
LINE
  5
115
330
1F
100
AcDbEntity
  8
0
  6
Continuous
 62
     7
370
    25
100
AcDbLine
 10
166.913963597
 20
-347.230661278
 30
0.0
 11
158.8886476712
 21
-343.3241956769
 31
0.0
  0
ARC
  5
116
330
1F
100
AcDbEntity
  8
0
  6
Continuous
 62
     7
370
    25
100
AcDbCircle
 10
163.6841988708
 20
-432.8138401873
 30
0.0
 40
6.090833891407549
100
AcDbArc
 50
284.8481337179
 51
354.64675149
  0
ARC
  5
117
330
1F
100
AcDbEntity
  8
0
  6
Continuous
 62
     7
370
    25
100
AcDbCircle
 10
287.9638568672
 20
39.5049446653
 30
0.0
 40
489.3547516079657
100
AcDbArc
 50
257.7483872271
 51
266.5742796947
  0
ARC
  5
118
330
1F
100
AcDbEntity
  8
0
  6
Continuous
 62
     7
370
    25
100
AcDbCircle
 10
259.3228010958
 20
-444.7440175852
 30
0.0
 40
4.25131010278086
100
AcDbArc
 50
261.8617821678
 51
299.3270370271
  0
LINE
  5
119
330
1F
100
AcDbEntity
  8
0
  6
Continuous
 62
     7
370
    25
100
AcDbLine
 10
261.428061418
 20
-448.4654430642
 30
0.0
 11
269.4530363972
 21
-444.559143425
 31
0.0
  0
ARC
  5
11A
330
1F
100
AcDbEntity
  8
0
  6
Continuous
 62
     7
370
    25
100
AcDbCircle
 10
535.3262860374
 20
-392.4698681158
 30
0.0
 40
358.0906296115383
100
AcDbArc
 50
173.4457325465
 51
186.5601281236
  0
ARC
  5
11B
330
1F
100
AcDbEntity
  8
0
  6
Continuous
 62
     7
370
    25
100
AcDbCircle
 10
184.6250259217
 20
-351.7903333305
 30
0.0
 40
5.045429491387448
100
AcDbArc
 50
115.5685201955
 51
177.7800945803
  0
LINE
  5
11C
330
1F
100
AcDbEntity
  8
0
  6
Continuous
 62
     7
370
    25
100
AcDbLine
 10
190.4710657342
 20
-343.3241956769
 30
0.0
 11
182.4460565098
 21
-347.2305119857
 31
0.0
  0
ARC
  5
11D
330
1F
100
AcDbEntity
  8
0
  6
Continuous
 62
     7
370
    25
100
AcDbCircle
 10
185.6829548756
 20
-432.7704543836
 30
0.0
 40
6.118021639907605
100
AcDbArc
 50
185.7026702979
 51
255.2297346969
  0
ARC
  5
11E
330
1F
100
AcDbEntity
  8
0
  6
Continuous
 62
     7
370
    25
100
AcDbCircle
 10
61.3958565383
 20
-1880.2129448707
 30
0.0
 40
489.3547516080002
100
AcDbArc
 50
77.7483872271
 51
86.5742796947
  0
ARC
  5
11F
330
1F
100
AcDbEntity
  8
0
  6
Continuous
 62
     7
370
    25
100
AcDbCircle
 10
90.0369123097
 20
-1395.9639826202
 30
0.0
 40
4.251310102775524
100
AcDbArc
 50
81.8617821678
 51
119.3270370271
  0
LINE
  5
120
330
1F
100
AcDbEntity
  8
0
  6
Continuous
 62
     7
370
    25
100
AcDbLine
 10
87.9316519874
 20
-1392.2425571412
 30
0.0
 11
79.9066770083
 21
-1396.1488567804
 31
0.0
  0
ARC
  5
121
330
1F
100
AcDbEntity
  8
0
  6
Continuous
 62
     7
370
    25
100
AcDbCircle
 10
-185.966572632
 20
-1448.2381320896
 30
0.0
 40
358.0906296115363
100
AcDbArc
 50
353.4457325465
 51
6.5601281236
  0
ARC
  5
122
330
1F
100
AcDbEntity
  8
0
  6
Continuous
 62
     7
370
    25
100
AcDbCircle
 10
164.7346874837
 20
-1488.9176668749
 30
0.0
 40
5.045429491382698
100
AcDbArc
 50
295.5685201955
 51
357.7800945803
  0
LINE
  5
123
330
1F
100
AcDbEntity
  8
0
  6
Continuous
 62
     7
370
    25
100
AcDbLine
 10
158.8886476712
 20
-1497.3838045285
 30
0.0
 11
166.9136568957
 21
-1493.4774882197
 31
0.0
  0
ARC
  5
124
330
1F
100
AcDbEntity
  8
0
  6
Continuous
 62
     7
370
    25
100
AcDbCircle
 10
163.6767585298
 20
-1407.9375458218
 30
0.0
 40
6.118021639907469
100
AcDbArc
 50
5.7026702979
 51
75.2297346969
  0
ARC
  5
125
330
1F
100
AcDbEntity
  8
0
  6
Continuous
 62
     7
370
    25
100
AcDbCircle
 10
132.8795442756
 20
-400.5042159363
 30
0.0
 40
8.782857142857202
100
AcDbArc
 50
266.9228730189
 51
41.1664693856
  0
LINE
  5
126
330
1F
100
AcDbEntity
  8
0
  6
Continuous
 62
     7
370
    25
100
AcDbLine
 10
138.5746848935
 20
-390.931236321
 30
0.0
 11
138.4218035731
 21
-390.8568186128
 31
0.0
  0
LINE
  5
127
330
1F
100
AcDbEntity
  8
0
  6
Continuous
 62
     7
370
    25
100
AcDbLine
 10
128.7055237955
 20
-410.817627897
 30
0.0
 11
128.8584051159
 21
-410.8920456053
 31
0.0
  0
ARC
  5
128
330
1F
100
AcDbEntity
  8
0
  6
Continuous
 62
     7
370
    25
100
AcDbCircle
 10
132.8795442756
 20
-1440.203784269
 30
0.0
 40
8.782857142857138
100
AcDbArc
 50
318.8335306144
 51
93.0771269811
  0
LINE
  5
129
330
1F
100
AcDbEntity
  8
0
  6
Continuous
 62
     7
370
    25
100
AcDbLine
 10
128.8584051159
 20
-1429.8159546001
 30
0.0
 11
128.7055237955
 21
-1429.8903723083
 31
0.0
  0
LINE
  5
12A
330
1F
100
AcDbEntity
  8
0
  6
Continuous
 62
     7
370
    25
100
AcDbLine
 10
138.4218035731
 20
-1449.8511815926
 30
0.0
 11
138.5746848935
 21
-1449.7767638844
 31
0.0
  0
ARC
  5
12B
330
1F
100
AcDbEntity
  8
0
  6
Continuous
 62
     7
370
    25
100
AcDbCircle
 10
216.4801691298
 20
-400.5042159363
 30
0.0
 40
8.782857142857202
100
AcDbArc
 50
138.8335306144
 51
273.0771269812
  0
LINE
  5
12C
330
1F
100
AcDbEntity
  8
0
  6
Continuous
 62
     7
370
    25
100
AcDbLine
 10
220.5013082896
 20
-410.8920456053
 30
0.0
 11
220.6541896099
 21
-410.817627897
 31
0.0
  0
LINE
  5
12D
330
1F
100
AcDbEntity
  8
0
  6
Continuous
 62
     7
370
    25
100
AcDbLine
 10
210.9379098323
 20
-390.8568186128
 30
0.0
 11
210.7850285119
 21
-390.931236321
 31
0.0
  0
ARC
  5
12E
330
1F
100
AcDbEntity
  8
0
  6
Continuous
 62
     7
370
    25
100
AcDbCircle
 10
216.4801691298
 20
-1440.203784269
 30
0.0
 40
8.782857142857253
100
AcDbArc
 50
86.9228730188
 51
221.1664693856
  0
LINE
  5
12F
330
1F
100
AcDbEntity
  8
0
  6
Continuous
 62
     7
370
    25
100
AcDbLine
 10
210.7850285119
 20
-1449.7767638844
 30
0.0
 11
210.9379098323
 21
-1449.8511815926
 31
0.0
  0
LINE
  5
130
330
1F
100
AcDbEntity
  8
0
  6
Continuous
 62
     7
370
    25
100
AcDbLine
 10
220.6541896099
 20
-1429.8903723083
 30
0.0
 11
220.5013082896
 21
-1429.8159546001
 31
0.0
  0
LINE
  5
131
330
1F
100
AcDbEntity
  8
0
  6
Continuous
 62
     7
370
    25
100
AcDbLine
 10
271.893811297
 20
-440.5906043406
 30
0.0
 11
1262.2301591643
 21
41.4732685616
 31
0.0
  0
LINE
  5
132
330
1F
100
AcDbEntity
  8
0
  6
Continuous
 62
     7
370
    25
100
AcDbLine
 10
1185.4365398026
 20
138.2125385429
 30
0.0
 11
196.0430559636
 21
-343.3923784842
 31
0.0
  0
LINE
  5
133
330
1F
100
AcDbEntity
  8
0
  6
Continuous
 62
     7
370
    25
100
AcDbLine
 10
77.4659021084
 20
-1400.1173958648
 30
0.0
 11
-912.8704457588
 21
-1882.1812687669
 31
0.0
  0
LINE
  5
134
330
1F
100
AcDbEntity
  8
0
  6
Continuous
 62
     7
370
    25
100
AcDbLine
 10
-836.0768263972
 20
-1978.9205387483
 30
0.0
 11
153.3166574418
 21
-1497.3156217212
 31
0.0
  0
LINE
  5
135
330
1F
100
AcDbEntity
  8
0
  6
Continuous
 62
     7
370
    25
100
AcDbLine
 10
-912.8704457588
 20
41.4732685616
 30
0.0
 11
77.4659021084
 21
-440.5906043406
 31
0.0
  0
LINE
  5
136
330
1F
100
AcDbEntity
  8
0
  6
Continuous
 62
     7
370
    25
100
AcDbLine
 10
153.3166574418
 20
-343.3923784842
 30
0.0
 11
-836.0768263972
 21
138.2125385429
 31
0.0
  0
LINE
  5
137
330
1F
100
AcDbEntity
  8
0
  6
Continuous
 62
     7
370
    25
100
AcDbLine
 10
1262.2301591643
 20
-1882.1812687669
 30
0.0
 11
271.893811297
 21
-1400.1173958648
 31
0.0
  0
LINE
  5
138
330
1F
100
AcDbEntity
  8
0
  6
Continuous
 62
     7
370
    25
100
AcDbLine
 10
196.0430559636
 20
-1497.3156217212
 30
0.0
 11
1185.4365398026
 21
-1978.9205387483
 31
0.0
  0
LWPOLYLINE
  5
139
330
1F
100
AcDbEntity
  8
0
  6
Continuous
 62
     7
370
    25
100
AcDbPolyline
 90
       10
 70
   128
 43
0.0
 10
136.2203686866
 20
-1098.2257604388
 10
136.2153553104
 20
-1098.2160539827
 10
136.263541325
 20
-1098.3564250709
 10
136.3572243134
 20
-1098.7075652876
 10
136.4783434262
 20
-1099.3012909844
 10
136.6078257736
 20
-1100.1432301874
 10
136.728611862
 20
-1101.2106710597
 10
136.8280018991
 20
-1102.4634067082
 10
136.8976755445
 20
-1103.8542595789
 10
136.9198076629
 20
-1104.7894913756
  0
LWPOLYLINE
  5
13A
330
1F
100
AcDbEntity
  8
0
  6
Continuous
 62
     7
370
    25
100
AcDbPolyline
 90
        8
 70
   128
 43
0.0
 10
136.8055311188
 20
-1109.9411108848
 10
136.7071186905
 20
-1111.1648093545
 10
136.5719488279
 20
-1112.3584469823
 10
136.4193896533
 20
-1113.351901367
 10
136.281624047
 20
-1114.0295771282
 10
136.1679143948
 20
-1114.4585008473
 10
136.1037578096
 20
-1114.6450251255
 10
136.1080648852
 20
-1114.6376582138
  0
LWPOLYLINE
  5
13B
330
1F
100
AcDbEntity
  8
0
  6
Continuous
 62
     7
370
    25
100
AcDbPolyline
 90
       14
 70
   128
 43
0.0
 10
139.3512967638
 20
-1093.5763110994
 10
138.4912553925
 20
-1093.4504474767
 10
137.5913055433
 20
-1093.5675600041
 10
136.8487453699
 20
-1093.8742398675
 10
136.2578180698
 20
-1094.2954771257
 10
135.7978146703
 20
-1094.7836910947
 10
135.4363207674
 20
-1095.3233734841
 10
135.1282038506
 20
-1095.9589555407
 10
134.8207167005
 20
-1096.8514639403
 10
134.5370873412
 20
-1098.0305788264
 10
134.3225847353
 20
-1099.2730010412
 10
134.1386567768
 20
-1100.7359270209
 10
134.0012420025
 20
-1102.2792968774
 10
133.9996492049
 20
-1102.3062741016
  0
LWPOLYLINE
  5
13C
330
1F
100
AcDbEntity
  8
0
  6
Continuous
 62
     7
370
    25
100
AcDbPolyline
 90
       14
 70
   128
 43
0.0
 10
133.9317948968
 20
-1110.3207029935
 10
133.9387471906
 20
-1110.4795337557
 10
134.049633238
 20
-1111.9981477036
 10
134.2017898973
 20
-1113.4097329895
 10
134.3990114669
 20
-1114.7015552377
 10
134.6571772058
 20
-1115.8867071295
 10
135.0499983315
 20
-1117.0592621284
 10
135.4104350259
 20
-1117.7544530526
 10
135.8302506773
 20
-1118.3141521056
 10
136.3949262985
 20
-1118.8223768915
 10
137.1081453974
 20
-1119.2154317944
 10
137.9320598481
 20
-1119.4265338753
 10
138.8813104161
 20
-1119.4007136332
 10
139.6798567027
 20
-1119.1512572881
  0
LINE
  5
13D
330
1F
100
AcDbEntity
  8
0
  6
Continuous
 62
     7
370
    25
100
AcDbLine
 10
139.6798567027
 20
-1093.7127030482
 30
0.0
 11
139.3512967638
 21
-1093.5763110994
 31
0.0
  0
LINE
  5
13E
330
1F
100
AcDbEntity
  8
0
  6
Continuous
 62
     7
370
    25
100
AcDbLine
 10
139.3512967638
 20
-749.0496438839
 30
0.0
 11
139.6798567027
 21
-748.9043166928
 31
0.0
  0
LWPOLYLINE
  5
13F
330
1F
100
AcDbEntity
  8
0
  6
Continuous
 62
     7
370
    25
100
AcDbPolyline
 90
       15
 70
   128
 43
0.0
 10
139.6798567027
 20
-723.5020814885
 10
139.3525202411
 20
-723.3449336855
 10
138.513683011
 20
-723.1820045496
 10
137.5854383247
 20
-723.260362407
 10
136.8131012025
 20
-723.5459219869
 10
136.1979138919
 20
-723.9566930463
 10
135.7196272644
 20
-724.4404034051
 10
135.3484998068
 20
-724.9734937542
 10
135.0419293257
 20
-725.5855607461
 10
134.7504676659
 20
-726.4056657363
 10
134.4608316219
 20
-727.5985741987
 10
134.2541033067
 20
-728.8284728367
 10
134.0819114647
 20
-730.2828045177
 10
133.9589231505
 20
-731.8155349356
 10
133.9346507237
 20
-732.3057306812
  0
LWPOLYLINE
  5
140
330
1F
100
AcDbEntity
  8
0
  6
Continuous
 62
     7
370
    25
100
AcDbPolyline
 90
       13
 70
   128
 43
0.0
 10
134.0029834122
 20
-740.3204523469
 10
134.1038607382
 20
-741.5489454701
 10
134.2692800893
 20
-742.9766724525
 10
134.4770577093
 20
-744.2849002621
 10
134.7399824983
 20
-745.4805967655
 10
135.1153332207
 20
-746.6356290879
 10
135.4424307716
 20
-747.3132774515
 10
135.8280996572
 20
-747.8802076196
 10
136.3464120879
 20
-748.4062094748
 10
137.014888315
 20
-748.8392336328
 10
137.8099461348
 20
-749.1107175419
 10
138.6700193463
 20
-749.1686120293
 10
139.3512967638
 20
-749.0496438839
  0
ARC
  5
141
330
1F
100
AcDbEntity
  8
0
  6
Continuous
 62
     7
370
    25
100
AcDbCircle
 10
117.7602200875
 20
-733.1155721492
 30
0.0
 40
19.04988132055176
100
AcDbArc
 50
1.2953541405
 51
15.6210912956
  0
LWPOLYLINE
  5
142
330
1F
100
AcDbEntity
  8
0
  6
Continuous
 62
     7
370
    25
100
AcDbPolyline
 90
       10
 70
   128
 43
0.0
 10
136.9195343228
 20
-737.8365381937
 10
136.9082210547
 20
-738.4601525705
 10
136.8445454831
 20
-739.8933294476
 10
136.7476886919
 20
-741.2097885118
 10
136.6234974361
 20
-742.3625473966
 10
136.4819937822
 20
-743.3041308089
 10
136.3567618498
 20
-743.920349944
 10
136.2585440522
 20
-744.2855659747
 10
136.213138538
 20
-744.4152991467
 10
136.2179670945
 20
-744.4060453557
  0
ARC
  5
143
330
1F
100
AcDbEntity
  8
0
  6
Continuous
 62
     7
370
    25
100
AcDbCircle
 10
207.8073857961
 20
-735.9199357832
 30
0.0
 40
2.306928644136096
100
AcDbArc
 50
324.2596781196
 51
37.5832111554
  0
ARC
  5
144
330
1F
100
AcDbEntity
  8
0
  6
Continuous
 62
     7
370
    25
100
AcDbCircle
 10
140.6410788919
 20
-748.6127137691
 30
0.0
 40
11.40765158896972
100
AcDbArc
 50
94.8335412125
 51
100.9392140393
  0
ARC
  5
145
330
1F
100
AcDbEntity
  8
0
  6
Continuous
 62
     7
370
    25
100
AcDbCircle
 10
140.8392770546
 20
-748.9693804263
 30
0.0
 40
16.78890064479546
100
AcDbArc
 50
93.9599262515
 51
102.6937525152
  0
LINE
  5
146
330
1F
100
AcDbEntity
  8
0
  6
Continuous
 62
     7
370
    25
100
AcDbLine
 10
137.1500868549
 20
-732.5908255288
 30
0.0
 11
135.6901077313
 21
-732.9892085324
 31
0.0
  0
LINE
  5
147
330
1F
100
AcDbEntity
  8
0
  6
Continuous
 62
     7
370
    25
100
AcDbLine
 10
137.0063309393
 20
-737.8128540902
 30
0.0
 11
138.4663100629
 21
-737.4144710865
 31
0.0
  0
LINE
  5
148
330
1F
100
AcDbEntity
  8
0
  6
Continuous
 62
     7
370
    25
100
AcDbLine
 10
135.637495871
 20
-733.0035646767
 30
0.0
 11
134.124904887
 21
-733.4163038246
 31
0.0
  0
LINE
  5
149
330
1F
100
AcDbEntity
  8
0
  6
Continuous
 62
     7
370
    25
100
AcDbLine
 10
135.441128095
 20
-738.2399493823
 30
0.0
 11
136.953719079
 21
-737.8272102344
 31
0.0
  0
LWPOLYLINE
  5
14A
330
1F
100
AcDbEntity
  8
0
  6
Continuous
 62
     7
370
    25
100
AcDbPolyline
 90
       18
 70
   128
 43
0.0
 10
134.124904887
 20
-733.4163038246
 10
133.6530992551
 20
-733.5798129333
 10
133.2507489529
 20
-733.7949436961
 10
132.8346695622
 20
-734.1290003824
 10
132.4387325301
 20
-734.6334930359
 10
132.1614061112
 20
-735.2952461865
 10
132.082998942
 20
-736.0483329936
 10
132.2473683683
 20
-736.8326818393
 10
132.5684782178
 20
-737.4215811832
 10
132.9646399688
 20
-737.8493716315
 10
133.3807897992
 20
-738.1406459358
 10
133.768559696
 20
-738.3199742053
 10
134.111421836
 20
-738.4239400464
 10
134.4469308576
 20
-738.4887100247
 10
134.8985051528
 20
-738.5390890701
 10
135.6647305588
 20
-738.5777851983
 10
136.5405131852
 20
-738.5894683796
 10
136.902629949
 20
-738.5859942903
  0
ARC
  5
14B
330
1F
100
AcDbEntity
  8
0
  6
Continuous
 62
     7
370
    25
100
AcDbCircle
 10
140.8701561299
 20
-1093.4309465364
 30
0.0
 40
17.01581046522393
100
AcDbArc
 50
257.3717569375
 51
265.9887378276
  0
ARC
  5
14C
330
1F
100
AcDbEntity
  8
0
  6
Continuous
 62
     7
370
    25
100
AcDbCircle
 10
140.5814102633
 20
-1094.4134780934
 30
0.0
 40
11.00334277726003
100
AcDbArc
 50
258.9529325819
 51
265.300229555
  0
LINE
  5
14D
330
1F
100
AcDbEntity
  8
0
  6
Continuous
 62
     7
370
    25
100
AcDbLine
 10
138.4663100629
 20
-1105.2114838968
 30
0.0
 11
137.0063309393
 21
-1104.8131008931
 31
0.0
  0
LINE
  5
14E
330
1F
100
AcDbEntity
  8
0
  6
Continuous
 62
     7
370
    25
100
AcDbLine
 10
135.6901077313
 20
-1109.6367464509
 30
0.0
 11
137.1500868549
 21
-1110.0351294545
 31
0.0
  0
LINE
  5
14F
330
1F
100
AcDbEntity
  8
0
  6
Continuous
 62
     7
370
    25
100
AcDbLine
 10
136.953719079
 20
-1104.7987447488
 30
0.0
 11
135.441128095
 21
-1104.3860056009
 31
0.0
  0
LINE
  5
150
330
1F
100
AcDbEntity
  8
0
  6
Continuous
 62
     7
370
    25
100
AcDbLine
 10
134.124904887
 20
-1109.2096511587
 30
0.0
 11
135.637495871
 21
-1109.6223903066
 31
0.0
  0
LWPOLYLINE
  5
151
330
1F
100
AcDbEntity
  8
0
  6
Continuous
 62
     7
370
    25
100
AcDbPolyline
 90
       18
 70
   128
 43
0.0
 10
136.9020721859
 20
-1104.0400474341
 10
136.452716939
 20
-1104.0366705517
 10
135.5632682526
 20
-1104.0512842601
 10
134.8033227363
 20
-1104.0950396575
 10
134.3877896508
 20
-1104.1465501307
 10
133.9922999129
 20
-1104.2331745728
 10
133.5919091358
 20
-1104.3784892676
 10
133.1532002335
 20
-1104.6294204601
 10
132.696112179
 20
-1105.0440960626
 10
132.3157226194
 20
-1105.6319599817
 10
132.1038095951
 20
-1106.351927004
 10
132.1293343877
 20
-1107.1912482633
 10
132.3585164836
 20
-1107.8478494472
 10
132.6935296342
 20
-1108.3457186043
 10
133.0743944869
 20
-1108.7063205722
 10
133.4487938678
 20
-1108.9475616371
 10
133.7853552925
 20
-1109.0999948745
 10
134.124904887
 20
-1109.2096511587
  0
ARC
  5
152
330
1F
100
AcDbEntity
  8
0
  6
Continuous
 62
     7
370
    25
100
AcDbCircle
 10
207.7973173693
 20
-1106.7022971907
 30
0.0
 40
2.321747218054695
100
AcDbArc
 50
324.1769791537
 51
35.8230208463
  0
ARC
  5
153
330
1F
100
AcDbEntity
  8
0
  6
Continuous
 62
     7
370
    25
100
AcDbCircle
 10
133.3615540142
 20
-610.0565231626
 30
0.0
 40
122.2866731996155
100
AcDbArc
 50
264.9787006301
 51
271.2767297845
  0
ARC
  5
154
330
1F
100
AcDbEntity
  8
0
  6
Continuous
 62
     7
370
    25
100
AcDbCircle
 10
127.6657331553
 20
-772.0773220477
 30
0.0
 40
40.67767290404895
100
AcDbArc
 50
89.0010283712
 51
98.5243723354
  0
ARC
  5
155
330
1F
100
AcDbEntity
  8
0
  6
Continuous
 62
     7
370
    25
100
AcDbCircle
 10
133.0012635998
 20
-852.0225536963
 30
0.0
 40
111.752026215017
100
AcDbArc
 50
88.4181074655
 51
95.312319814
  0
ARC
  5
156
330
1F
100
AcDbEntity
  8
0
  6
Continuous
 62
     7
370
    25
100
AcDbCircle
 10
127.933483311
 20
-696.5830679705
 30
0.0
 40
44.64028724557238
100
AcDbArc
 50
261.8902321319
 51
270.5632989222
  0
ARC
  5
157
330
1F
100
AcDbEntity
  8
0
  6
Continuous
 62
     7
370
    25
100
AcDbCircle
 10
122.6910735074
 20
-736.3129774916
 30
0.0
 40
4.585834743748038
100
AcDbArc
 50
96.0877233058
 51
263.9122766942
  0
LINE
  5
158
330
1F
100
AcDbEntity
  8
0
  6
Continuous
 62
     7
370
    25
100
AcDbLine
 10
136.0862593774
 20
-740.3131173706
 30
0.0
 11
136.8135174142
 21
-740.3150570523
 31
0.0
  0
LINE
  5
159
330
1F
100
AcDbEntity
  8
0
  6
Continuous
 62
     7
370
    25
100
AcDbLine
 10
136.7774523067
 20
-732.3104040014
 30
0.0
 11
136.0862593774
 21
-732.3128376127
 31
0.0
  0
ARC
  5
15A
330
1F
100
AcDbEntity
  8
0
  6
Continuous
 62
     7
370
    25
100
AcDbCircle
 10
211.3853044847
 20
-815.7839262204
 30
0.0
 40
75.470917974887
100
AcDbArc
 50
83.816707339
 51
91.2948468214
  0
ARC
  5
15B
330
1F
100
AcDbEntity
  8
0
  6
Continuous
 62
     7
370
    25
100
AcDbCircle
 10
214.5067855996
 20
-700.5486329356
 30
0.0
 40
40.67767290403147
100
AcDbArc
 50
269.0010283712
 51
278.5243723354
  0
ARC
  5
15C
330
1F
100
AcDbEntity
  8
0
  6
Continuous
 62
     7
370
    25
100
AcDbCircle
 10
219.4814452474
 20
-736.3129774916
 30
0.0
 40
4.585834743747908
100
AcDbArc
 50
276.0877233058
 51
83.9122766942
  0
ARC
  5
15D
330
1F
100
AcDbEntity
  8
0
  6
Continuous
 62
     7
370
    25
100
AcDbCircle
 10
210.8078081733
 20
-642.6377732091
 30
0.0
 40
89.66171608418698
100
AcDbArc
 50
269.279195555
 51
275.5746530038
  0
ARC
  5
15E
330
1F
100
AcDbEntity
  8
0
  6
Continuous
 62
     7
370
    25
100
AcDbCircle
 10
214.2390354439
 20
-776.0428870128
 30
0.0
 40
44.64028724560714
100
AcDbArc
 50
81.8902321319
 51
90.5632989222
  0
ARC
  5
15F
330
1F
100
AcDbEntity
  8
0
  6
Continuous
 62
     7
370
    25
100
AcDbCircle
 10
211.3853044847
 20
-1185.7839262205
 30
0.0
 40
75.47091797501614
100
AcDbArc
 50
83.816707339
 51
91.2948468214
  0
ARC
  5
160
330
1F
100
AcDbEntity
  8
0
  6
Continuous
 62
     7
370
    25
100
AcDbCircle
 10
214.5067855996
 20
-1070.5486329355
 30
0.0
 40
40.67767290412752
100
AcDbArc
 50
269.0010283712
 51
278.5243723354
  0
ARC
  5
161
330
1F
100
AcDbEntity
  8
0
  6
Continuous
 62
     7
370
    25
100
AcDbCircle
 10
219.4814452474
 20
-1106.3129774916
 30
0.0
 40
4.585834743747881
100
AcDbArc
 50
276.0877233058
 51
83.9122766942
  0
ARC
  5
162
330
1F
100
AcDbEntity
  8
0
  6
Continuous
 62
     7
370
    25
100
AcDbCircle
 10
210.8078081733
 20
-1012.6377732088
 30
0.0
 40
89.66171608442116
100
AcDbArc
 50
269.279195555
 51
275.5746530038
  0
ARC
  5
163
330
1F
100
AcDbEntity
  8
0
  6
Continuous
 62
     7
370
    25
100
AcDbCircle
 10
214.2390354439
 20
-1146.0428870129
 30
0.0
 40
44.64028724568337
100
AcDbArc
 50
81.8902321319
 51
90.5632989222
  0
LINE
  5
164
330
1F
100
AcDbEntity
  8
0
  6
Continuous
 62
     7
370
    25
100
AcDbLine
 10
136.0862593774
 20
-1110.3131173706
 30
0.0
 11
136.7754657362
 21
-1110.3149555641
 31
0.0
  0
LINE
  5
165
330
1F
100
AcDbEntity
  8
0
  6
Continuous
 62
     7
370
    25
100
AcDbLine
 10
136.8158521831
 20
-1102.3102687999
 30
0.0
 11
136.0862593774
 21
-1102.3128376127
 31
0.0
  0
ARC
  5
166
330
1F
100
AcDbEntity
  8
0
  6
Continuous
 62
     7
370
    25
100
AcDbCircle
 10
133.3615540142
 20
-980.0565231626
 30
0.0
 40
122.286673199657
100
AcDbArc
 50
264.9787006301
 51
271.2767297845
  0
ARC
  5
167
330
1F
100
AcDbEntity
  8
0
  6
Continuous
 62
     7
370
    25
100
AcDbCircle
 10
127.6657331553
 20
-1142.0773220475
 30
0.0
 40
40.67767290381168
100
AcDbArc
 50
89.0010283712
 51
98.5243723354
  0
ARC
  5
168
330
1F
100
AcDbEntity
  8
0
  6
Continuous
 62
     7
370
    25
100
AcDbCircle
 10
133.0012635998
 20
-1222.0225536964
 30
0.0
 40
111.752026215087
100
AcDbArc
 50
88.4181074655
 51
95.312319814
  0
ARC
  5
169
330
1F
100
AcDbEntity
  8
0
  6
Continuous
 62
     7
370
    25
100
AcDbCircle
 10
127.933483311
 20
-1066.5830679705
 30
0.0
 40
44.6402872455584
100
AcDbArc
 50
261.8902321319
 51
270.5632989222
  0
ARC
  5
16A
330
1F
100
AcDbEntity
  8
0
  6
Continuous
 62
     7
370
    25
100
AcDbCircle
 10
122.6910735074
 20
-1106.3129774916
 30
0.0
 40
4.585834743747886
100
AcDbArc
 50
96.0877233058
 51
263.9122766942
  0
LINE
  5
16B
330
1F
100
AcDbEntity
  8
0
  6
Continuous
 62
     7
370
    25
100
AcDbLine
 10
-839.1557323636
 20
141.5506333906
 30
0.0
 11
-995.222856753
 21
217.51908853
 31
0.0
  0
LINE
  5
16C
330
1F
100
AcDbEntity
  8
0
  6
Continuous
 62
     7
370
    25
100
AcDbLine
 10
-839.1557323636
 20
141.5506333906
 30
0.0
 11
-861.2294221851
 21
138.512928851
 31
0.0
  0
LINE
  5
16D
330
1F
100
AcDbEntity
  8
0
  6
Continuous
 62
     7
370
    25
100
AcDbLine
 10
-861.2294221851
 20
138.512928851
 30
0.0
 11
-1023.5371080203
 21
217.51908853
 31
0.0
  0
LINE
  5
16E
330
1F
100
AcDbEntity
  8
0
  6
Continuous
 62
     7
370
    25
100
AcDbLine
 10
-1023.5371080203
 20
217.51908853
 30
0.0
 11
-995.222856753
 21
217.51908853
 31
0.0
  0
LINE
  5
16F
330
1F
100
AcDbEntity
  8
0
  6
Continuous
 62
     7
370
    25
100
AcDbLine
 10
-839.1557323636
 20
138.6528559117
 30
0.0
 11
-839.1557323636
 21
141.5506333906
 31
0.0
  0
LINE
  5
170
330
1F
100
AcDbEntity
  8
0
  6
Continuous
 62
     7
370
    25
100
AcDbLine
 10
-839.1557323636
 20
138.6528559117
 30
0.0
 11
-861.2294221851
 21
135.6151513721
 31
0.0
  0
LINE
  5
171
330
1F
100
AcDbEntity
  8
0
  6
Continuous
 62
     7
370
    25
100
AcDbLine
 10
-861.2294221851
 20
135.6151513721
 30
0.0
 11
-861.2294221851
 21
138.512928851
 31
0.0
  0
LINE
  5
172
330
1F
100
AcDbEntity
  8
0
  6
Continuous
 62
     7
370
    25
100
AcDbLine
 10
-861.2294221851
 20
135.6151513721
 30
0.0
 11
-1023.1096946818
 21
214.4132599887
 31
0.0
  0
LINE
  5
173
330
1F
100
AcDbEntity
  8
0
  6
Continuous
 62
     7
370
    25
100
AcDbLine
 10
-1023.5371080203
 20
217.51908853
 30
0.0
 11
-1023.1096946818
 21
214.4132599887
 31
0.0
  0
ARC
  5
174
330
1F
100
AcDbEntity
  8
0
  6
Continuous
 62
     7
370
    25
100
AcDbCircle
 10
-838.3681961183
 20
135.399620531
 30
0.0
 40
6.20122347091807
100
AcDbArc
 50
8.7652333203
 51
97.2960897205
  0
ARC
  5
175
330
1F
100
AcDbEntity
  8
0
  6
Continuous
 62
     7
370
    25
100
AcDbCircle
 10
-838.6075725756
 20
134.8922879961
 30
0.0
 40
3.800309224384185
100
AcDbArc
 50
68.5883196614
 51
98.293320292
  0
ELLIPSE
  5
176
330
1F
100
AcDbEntity
  8
0
  6
Continuous
 62
     7
370
    25
100
AcDbEllipse
 10
-994.0830878505
 20
209.2368790867
 30
0.0
 11
-8.434055464825065
 21
4.10542685866352
 31
0.0
210
0.0
220
0.0
230
1.0
 40
0.8528618832
 41
4.71238898038469
 42
5.231020672037262
  0
LINE
  5
177
330
1F
100
AcDbEntity
  8
0
  6
Continuous
 62
     7
370
    25
100
AcDbLine
 10
-986.6931470273
 20
196.6868561888
 30
0.0
 11
-984.681114232
 21
182.0662809301
 31
0.0
  0
ARC
  5
178
330
1F
100
AcDbEntity
  8
0
  6
Continuous
 62
     7
370
    25
100
AcDbCircle
 10
-908.114803282
 20
123.2511528469
 30
0.0
 40
8.741149876034791
100
AcDbArc
 50
101.0590774566
 51
180.7908260166
  0
LINE
  5
179
330
1F
100
AcDbEntity
  8
0
  6
Continuous
 62
     7
370
    25
100
AcDbLine
 10
-916.8551205352
 20
123.130506801
 30
0.0
 11
-1093.7492523111
 21
209.2368790867
 31
0.0
  0
ELLIPSE
  5
17A
330
1F
100
AcDbEntity
  8
0
  6
Continuous
 62
     7
370
    25
100
AcDbEllipse
 10
-1084.6886919056
 20
209.2368790867
 30
0.0
 11
-8.434055464824951
 21
4.10542685866352
 31
0.0
210
0.0
220
0.0
230
1.0
 40
0.8528618832
 41
5.231020672037329
 42
6.801816998832252
  0
LINE
  5
17B
330
1F
100
AcDbEntity
  8
0
  6
Continuous
 62
     7
370
    25
100
AcDbLine
 10
-1085.8284608082
 20
217.51908853
 30
0.0
 11
-909.7915397924
 21
131.8299788639
 31
0.0
  0
LINE
  5
17C
330
1F
100
AcDbEntity
  8
0
  6
Continuous
 62
     7
370
    25
100
AcDbLine
 10
-909.7915397924
 20
128.9322013851
 30
0.0
 11
-909.7915397924
 21
131.8299788639
 31
0.0
  0
ARC
  5
17D
330
1F
100
AcDbEntity
  8
0
  6
Continuous
 62
     7
370
    25
100
AcDbCircle
 10
-909.106269558
 20
124.3183556012
 30
0.0
 40
4.664457976151889
100
AcDbArc
 50
98.4480814555
 51
124.1848768737
  0
LINE
  5
17E
330
1F
100
AcDbEntity
  8
0
  6
Continuous
 62
     7
370
    25
100
AcDbLine
 10
-914.2062777566
 20
123.4950313457
 30
0.0
 11
-916.8551205352
 21
123.130506801
 31
0.0
  0
LINE
  5
17F
330
1F
100
AcDbEntity
  8
0
  6
Continuous
 62
     7
370
    25
100
AcDbLine
 10
-916.8551205352
 20
123.130506801
 30
0.0
 11
-916.8551205352
 21
44.8905148715
 31
0.0
  0
LINE
  5
180
330
1F
100
AcDbEntity
  8
0
  6
Continuous
 62
     7
370
    25
100
AcDbLine
 10
-1082.2090921725
 20
125.3795084735
 30
0.0
 11
-916.8551205352
 21
44.8905148715
 31
0.0
  0
LINE
  5
181
330
1F
100
AcDbEntity
  8
0
  6
Continuous
 62
     7
370
    25
100
AcDbLine
 10
-1082.2090921725
 20
125.3795084735
 30
0.0
 11
-1093.7492523111
 21
209.2368790867
 31
0.0
  0
LINE
  5
182
330
1F
100
AcDbEntity
  8
0
  6
Continuous
 62
     7
370
    25
100
AcDbLine
 10
-914.2062777566
 20
123.4950313457
 30
0.0
 11
-914.2062777566
 21
45.2550394163
 31
0.0
  0
LINE
  5
183
330
1F
100
AcDbEntity
  8
0
  6
Continuous
 62
     7
370
    25
100
AcDbLine
 10
-914.2062777566
 20
45.2550394163
 30
0.0
 11
-916.8551205352
 21
44.8905148715
 31
0.0
  0
LINE
  5
184
330
1F
100
AcDbEntity
  8
0
  6
Continuous
 62
     7
370
    25
100
AcDbLine
 10
-887.7178499709
 20
134.8676834035
 30
0.0
 11
-909.7915397924
 21
131.8299788639
 31
0.0
  0
LINE
  5
185
330
1F
100
AcDbEntity
  8
0
  6
Continuous
 62
     7
370
    25
100
AcDbLine
 10
-887.7178499709
 20
131.9699059246
 30
0.0
 11
-887.7178499709
 21
134.8676834035
 31
0.0
  0
LINE
  5
186
330
1F
100
AcDbEntity
  8
0
  6
Continuous
 62
     7
370
    25
100
AcDbLine
 10
-887.7178499709
 20
131.9699059246
 30
0.0
 11
-909.7915397924
 21
128.9322013851
 31
0.0
  0
LINE
  5
187
330
1F
100
AcDbEntity
  8
0
  6
Continuous
 62
     7
370
    25
100
AcDbLine
 10
-887.7178499709
 20
134.8676834035
 30
0.0
 11
-1057.5142095409
 21
217.51908853
 31
0.0
  0
LINE
  5
188
330
1F
100
AcDbEntity
  8
0
  6
Continuous
 62
     7
370
    25
100
AcDbLine
 10
-1085.8284608082
 20
217.51908853
 30
0.0
 11
-1057.5142095409
 21
217.51908853
 31
0.0
  0
ARC
  5
189
330
1F
100
AcDbEntity
  8
0
  6
Continuous
 62
     7
370
    25
100
AcDbCircle
 10
-910.5267894479
 20
44.4369884161
 30
0.0
 40
6.344561497598316
100
AcDbArc
 50
175.9008463278
 51
276.6547653647
  0
ELLIPSE
  5
18A
330
1F
100
AcDbEntity
  8
0
  6
Continuous
 62
     7
370
    25
100
AcDbEllipse
 10
-1073.148531767
 20
125.3795084735
 30
0.0
 11
-8.434055464824951
 21
4.105426858663506
 31
0.0
210
0.0
220
0.0
230
1.0
 40
0.8528618832
 41
0.5186316916526637
 42
1.570796326794876
  0
LINE
  5
18B
330
1F
100
AcDbEntity
  8
0
  6
Continuous
 62
     7
370
    25
100
AcDbLine
 10
-909.7915397924
 20
38.1351737139
 30
0.0
 11
-906.845626009
 21
38.5405801387
 31
0.0
  0
LINE
  5
18C
330
1F
100
AcDbEntity
  8
0
  6
Continuous
 62
     7
370
    25
100
AcDbLine
 10
1210.5891355906
 20
135.6151513721
 30
0.0
 11
1210.5891355906
 21
138.512928851
 31
0.0
  0
LINE
  5
18D
330
1F
100
AcDbEntity
  8
0
  6
Continuous
 62
     7
370
    25
100
AcDbLine
 10
1210.5891355906
 20
138.512928851
 30
0.0
 11
1372.8968214257
 21
217.51908853
 31
0.0
  0
LINE
  5
18E
330
1F
100
AcDbEntity
  8
0
  6
Continuous
 62
     7
370
    25
100
AcDbLine
 10
1372.4694080872
 20
214.4132599887
 30
0.0
 11
1372.8968214257
 21
217.51908853
 31
0.0
  0
LINE
  5
18F
330
1F
100
AcDbEntity
  8
0
  6
Continuous
 62
     7
370
    25
100
AcDbLine
 10
1210.5891355906
 20
135.6151513721
 30
0.0
 11
1372.4694080872
 21
214.4132599887
 31
0.0
  0
LINE
  5
190
330
1F
100
AcDbEntity
  8
0
  6
Continuous
 62
     7
370
    25
100
AcDbLine
 10
1210.5891355906
 20
138.512928851
 30
0.0
 11
1188.5154457691
 21
141.5506333906
 31
0.0
  0
LINE
  5
191
330
1F
100
AcDbEntity
  8
0
  6
Continuous
 62
     7
370
    25
100
AcDbLine
 10
1210.5891355906
 20
135.6151513721
 30
0.0
 11
1188.5154457691
 21
138.6528559117
 31
0.0
  0
LINE
  5
192
330
1F
100
AcDbEntity
  8
0
  6
Continuous
 62
     7
370
    25
100
AcDbLine
 10
1188.5154457691
 20
138.6528559117
 30
0.0
 11
1188.5154457691
 21
141.5506333906
 31
0.0
  0
LINE
  5
193
330
1F
100
AcDbEntity
  8
0
  6
Continuous
 62
     7
370
    25
100
AcDbLine
 10
1344.5825701585
 20
217.51908853
 30
0.0
 11
1188.5154457691
 21
141.5506333906
 31
0.0
  0
LINE
  5
194
330
1F
100
AcDbEntity
  8
0
  6
Continuous
 62
     7
370
    25
100
AcDbLine
 10
1344.5825701585
 20
217.51908853
 30
0.0
 11
1372.8968214257
 21
217.51908853
 31
0.0
  0
ARC
  5
195
330
1F
100
AcDbEntity
  8
0
  6
Continuous
 62
     7
370
    25
100
AcDbCircle
 10
1187.6878074902
 20
135.4528970223
 30
0.0
 40
6.153647206161672
100
AcDbArc
 50
82.2705479245
 51
171.6681290347
  0
ARC
  5
196
330
1F
100
AcDbEntity
  8
0
  6
Continuous
 62
     7
370
    25
100
AcDbCircle
 10
1187.967285981
 20
134.8922879961
 30
0.0
 40
3.800309224383955
100
AcDbArc
 50
81.706679708
 51
111.4116803387
  0
ELLIPSE
  5
197
330
1F
100
AcDbEntity
  8
0
  6
Continuous
 62
     7
370
    25
100
AcDbEllipse
 10
1343.4428012559
 20
209.2368790867
 30
0.0
 11
8.434055464824951
 21
4.105426858663492
 31
0.0
210
0.0
220
0.0
230
1.0
 40
0.8528618832
 41
1.052164635142222
 42
1.570796326794852
  0
LINE
  5
198
330
1F
100
AcDbEntity
  8
0
  6
Continuous
 62
     7
370
    25
100
AcDbLine
 10
1334.0408276375
 20
182.0662809301
 30
0.0
 11
1336.0528604328
 21
196.6868561888
 31
0.0
  0
ARC
  5
199
330
1F
100
AcDbEntity
  8
0
  6
Continuous
 62
     7
370
    25
100
AcDbCircle
 10
1257.4745166874
 20
123.2511528469
 30
0.0
 40
8.741149876033477
100
AcDbArc
 50
359.2091739834
 51
78.9409225434
  0
LINE
  5
19A
330
1F
100
AcDbEntity
  8
0
  6
Continuous
 62
     7
370
    25
100
AcDbLine
 10
1259.1512531978
 20
131.8299788639
 30
0.0
 11
1435.1881742136
 21
217.51908853
 31
0.0
  0
ELLIPSE
  5
19B
330
1F
100
AcDbEntity
  8
0
  6
Continuous
 62
     7
370
    25
100
AcDbEllipse
 10
1434.048405311
 20
209.2368790867
 30
0.0
 11
8.434055464824951
 21
4.105426858663492
 31
0.0
210
0.0
220
0.0
230
1.0
 40
0.8528618832
 41
5.76455361552695
 42
7.335349942321769
  0
LINE
  5
19C
330
1F
100
AcDbEntity
  8
0
  6
Continuous
 62
     7
370
    25
100
AcDbLine
 10
1443.1089657165
 20
209.2368790867
 30
0.0
 11
1266.2148339407
 21
123.130506801
 31
0.0
  0
LINE
  5
19D
330
1F
100
AcDbEntity
  8
0
  6
Continuous
 62
     7
370
    25
100
AcDbLine
 10
1263.5659911621
 20
123.4950313457
 30
0.0
 11
1266.2148339407
 21
123.130506801
 31
0.0
  0
ARC
  5
19E
330
1F
100
AcDbEntity
  8
0
  6
Continuous
 62
     7
370
    25
100
AcDbCircle
 10
1258.4659829634
 20
124.3183556012
 30
0.0
 40
4.66445797612257
100
AcDbArc
 50
55.8151231262
 51
81.5519185445
  0
LINE
  5
19F
330
1F
100
AcDbEntity
  8
0
  6
Continuous
 62
     7
370
    25
100
AcDbLine
 10
1259.1512531978
 20
128.9322013851
 30
0.0
 11
1259.1512531978
 21
131.8299788639
 31
0.0
  0
LINE
  5
1A0
330
1F
100
AcDbEntity
  8
0
  6
Continuous
 62
     7
370
    25
100
AcDbLine
 10
1266.2148339407
 20
44.8905148715
 30
0.0
 11
1431.568805578
 21
125.3795084735
 31
0.0
  0
LINE
  5
1A1
330
1F
100
AcDbEntity
  8
0
  6
Continuous
 62
     7
370
    25
100
AcDbLine
 10
1266.2148339407
 20
44.8905148715
 30
0.0
 11
1266.2148339407
 21
123.130506801
 31
0.0
  0
LINE
  5
1A2
330
1F
100
AcDbEntity
  8
0
  6
Continuous
 62
     7
370
    25
100
AcDbLine
 10
1443.1089657165
 20
209.2368790867
 30
0.0
 11
1431.568805578
 21
125.3795084735
 31
0.0
  0
LINE
  5
1A3
330
1F
100
AcDbEntity
  8
0
  6
Continuous
 62
     7
370
    25
100
AcDbLine
 10
1263.5659911621
 20
45.2550394163
 30
0.0
 11
1266.2148339407
 21
44.8905148715
 31
0.0
  0
LINE
  5
1A4
330
1F
100
AcDbEntity
  8
0
  6
Continuous
 62
     7
370
    25
100
AcDbLine
 10
1263.5659911621
 20
45.2550394163
 30
0.0
 11
1263.5659911621
 21
123.4950313457
 31
0.0
  0
LINE
  5
1A5
330
1F
100
AcDbEntity
  8
0
  6
Continuous
 62
     7
370
    25
100
AcDbLine
 10
1259.1512531978
 20
131.8299788639
 30
0.0
 11
1237.0775633763
 21
134.8676834035
 31
0.0
  0
LINE
  5
1A6
330
1F
100
AcDbEntity
  8
0
  6
Continuous
 62
     7
370
    25
100
AcDbLine
 10
1259.1512531978
 20
128.9322013851
 30
0.0
 11
1237.0775633763
 21
131.9699059246
 31
0.0
  0
LINE
  5
1A7
330
1F
100
AcDbEntity
  8
0
  6
Continuous
 62
     7
370
    25
100
AcDbLine
 10
1237.0775633763
 20
131.9699059246
 30
0.0
 11
1237.0775633763
 21
134.8676834035
 31
0.0
  0
LINE
  5
1A8
330
1F
100
AcDbEntity
  8
0
  6
Continuous
 62
     7
370
    25
100
AcDbLine
 10
1237.0775633763
 20
134.8676834035
 30
0.0
 11
1406.8739229464
 21
217.51908853
 31
0.0
  0
LINE
  5
1A9
330
1F
100
AcDbEntity
  8
0
  6
Continuous
 62
     7
370
    25
100
AcDbLine
 10
1406.8739229464
 20
217.51908853
 30
0.0
 11
1435.1881742136
 21
217.51908853
 31
0.0
  0
ARC
  5
1AA
330
1F
100
AcDbEntity
  8
0
  6
Continuous
 62
     7
370
    25
100
AcDbCircle
 10
1259.8865028533
 20
44.4369884161
 30
0.0
 40
6.344561497598498
100
AcDbArc
 50
263.3452346353
 51
4.0991536722
  0
ELLIPSE
  5
1AB
330
1F
100
AcDbEntity
  8
0
  6
Continuous
 62
     7
370
    25
100
AcDbEllipse
 10
1422.5082451725
 20
125.3795084735
 30
0.0
 11
8.434055464824951
 21
4.105426858663492
 31
0.0
210
0.0
220
0.0
230
1.0
 40
0.8528618832
 41
4.7123889803847
 42
5.764553615526951
  0
LINE
  5
1AC
330
1F
100
AcDbEntity
  8
0
  6
Continuous
 62
     7
370
    25
100
AcDbLine
 10
1256.2053394145
 20
38.5405801387
 30
0.0
 11
1259.1512531978
 21
38.1351737139
 31
0.0
  0
LINE
  5
1AD
330
1F
100
AcDbEntity
  8
0
  6
Continuous
 62
     7
370
    25
100
AcDbLine
 10
1188.5154457691
 20
-1982.258633596
 30
0.0
 11
1344.5825701585
 21
-2058.2270887353
 31
0.0
  0
LINE
  5
1AE
330
1F
100
AcDbEntity
  8
0
  6
Continuous
 62
     7
370
    25
100
AcDbLine
 10
1188.5154457691
 20
-1982.258633596
 30
0.0
 11
1210.5891355906
 21
-1979.2209290564
 31
0.0
  0
LINE
  5
1AF
330
1F
100
AcDbEntity
  8
0
  6
Continuous
 62
     7
370
    25
100
AcDbLine
 10
1210.5891355906
 20
-1979.2209290564
 30
0.0
 11
1372.8968214257
 21
-2058.2270887353
 31
0.0
  0
LINE
  5
1B0
330
1F
100
AcDbEntity
  8
0
  6
Continuous
 62
     7
370
    25
100
AcDbLine
 10
1372.8968214257
 20
-2058.2270887353
 30
0.0
 11
1344.5825701585
 21
-2058.2270887353
 31
0.0
  0
LINE
  5
1B1
330
1F
100
AcDbEntity
  8
0
  6
Continuous
 62
     7
370
    25
100
AcDbLine
 10
1188.5154457691
 20
-1979.3608561171
 30
0.0
 11
1188.5154457691
 21
-1982.258633596
 31
0.0
  0
LINE
  5
1B2
330
1F
100
AcDbEntity
  8
0
  6
Continuous
 62
     7
370
    25
100
AcDbLine
 10
1188.5154457691
 20
-1979.3608561171
 30
0.0
 11
1210.5891355906
 21
-1976.3231515775
 31
0.0
  0
LINE
  5
1B3
330
1F
100
AcDbEntity
  8
0
  6
Continuous
 62
     7
370
    25
100
AcDbLine
 10
1210.5891355906
 20
-1976.3231515775
 30
0.0
 11
1210.5891355906
 21
-1979.2209290564
 31
0.0
  0
LINE
  5
1B4
330
1F
100
AcDbEntity
  8
0
  6
Continuous
 62
     7
370
    25
100
AcDbLine
 10
1210.5891355906
 20
-1976.3231515775
 30
0.0
 11
1372.4694080872
 21
-2055.1212601941
 31
0.0
  0
LINE
  5
1B5
330
1F
100
AcDbEntity
  8
0
  6
Continuous
 62
     7
370
    25
100
AcDbLine
 10
1372.8968214257
 20
-2058.2270887353
 30
0.0
 11
1372.4694080872
 21
-2055.1212601941
 31
0.0
  0
ARC
  5
1B6
330
1F
100
AcDbEntity
  8
0
  6
Continuous
 62
     7
370
    25
100
AcDbCircle
 10
1187.7279095238
 20
-1976.1076207364
 30
0.0
 40
6.20122347091787
100
AcDbArc
 50
188.7652333203
 51
277.2960897205
  0
ARC
  5
1B7
330
1F
100
AcDbEntity
  8
0
  6
Continuous
 62
     7
370
    25
100
AcDbCircle
 10
1187.967285981
 20
-1975.6002882015
 30
0.0
 40
3.80030922438377
100
AcDbArc
 50
248.5883196613
 51
278.293320292
  0
ELLIPSE
  5
1B8
330
1F
100
AcDbEntity
  8
0
  6
Continuous
 62
     7
370
    25
100
AcDbEllipse
 10
1343.4428012559
 20
-2049.9448792921
 30
0.0
 11
8.434055464824951
 21
-4.105426858663577
 31
0.0
210
0.0
220
0.0
230
1.0
 40
0.8528618832
 41
4.712388980384716
 42
5.231020672037272
  0
LINE
  5
1B9
330
1F
100
AcDbEntity
  8
0
  6
Continuous
 62
     7
370
    25
100
AcDbLine
 10
1336.0528604328
 20
-2037.3948563942
 30
0.0
 11
1334.0408276375
 21
-2022.7742811355
 31
0.0
  0
ARC
  5
1BA
330
1F
100
AcDbEntity
  8
0
  6
Continuous
 62
     7
370
    25
100
AcDbCircle
 10
1257.4745166874
 20
-1963.9591530523
 30
0.0
 40
8.741149876036037
100
AcDbArc
 50
281.0590774566
 51
0.7908260166
  0
LINE
  5
1BB
330
1F
100
AcDbEntity
  8
0
  6
Continuous
 62
     7
370
    25
100
AcDbLine
 10
1266.2148339407
 20
-1963.8385070063
 30
0.0
 11
1443.1089657165
 21
-2049.9448792921
 31
0.0
  0
ELLIPSE
  5
1BC
330
1F
100
AcDbEntity
  8
0
  6
Continuous
 62
     7
370
    25
100
AcDbEllipse
 10
1434.048405311
 20
-2049.9448792921
 30
0.0
 11
8.434055464824951
 21
-4.105426858663577
 31
0.0
210
0.0
220
0.0
230
1.0
 40
0.8528618832
 41
5.231020672037353
 42
6.801816998832264
  0
LINE
  5
1BD
330
1F
100
AcDbEntity
  8
0
  6
Continuous
 62
     7
370
    25
100
AcDbLine
 10
1435.1881742136
 20
-2058.2270887353
 30
0.0
 11
1259.1512531978
 21
-1972.5379790693
 31
0.0
  0
LINE
  5
1BE
330
1F
100
AcDbEntity
  8
0
  6
Continuous
 62
     7
370
    25
100
AcDbLine
 10
1259.1512531978
 20
-1969.6402015905
 30
0.0
 11
1259.1512531978
 21
-1972.5379790693
 31
0.0
  0
ARC
  5
1BF
330
1F
100
AcDbEntity
  8
0
  6
Continuous
 62
     7
370
    25
100
AcDbCircle
 10
1258.4659829634
 20
-1965.0263558066
 30
0.0
 40
4.664457976135878
100
AcDbArc
 50
278.4480814555
 51
304.1848768738
  0
LINE
  5
1C0
330
1F
100
AcDbEntity
  8
0
  6
Continuous
 62
     7
370
    25
100
AcDbLine
 10
1263.5659911621
 20
-1964.2030315511
 30
0.0
 11
1266.2148339407
 21
-1963.8385070063
 31
0.0
  0
LINE
  5
1C1
330
1F
100
AcDbEntity
  8
0
  6
Continuous
 62
     7
370
    25
100
AcDbLine
 10
1266.2148339407
 20
-1963.8385070063
 30
0.0
 11
1266.2148339407
 21
-1885.5985150769
 31
0.0
  0
LINE
  5
1C2
330
1F
100
AcDbEntity
  8
0
  6
Continuous
 62
     7
370
    25
100
AcDbLine
 10
1431.568805578
 20
-1966.0875086788
 30
0.0
 11
1266.2148339407
 21
-1885.5985150769
 31
0.0
  0
LINE
  5
1C3
330
1F
100
AcDbEntity
  8
0
  6
Continuous
 62
     7
370
    25
100
AcDbLine
 10
1431.568805578
 20
-1966.0875086788
 30
0.0
 11
1443.1089657165
 21
-2049.9448792921
 31
0.0
  0
LINE
  5
1C4
330
1F
100
AcDbEntity
  8
0
  6
Continuous
 62
     7
370
    25
100
AcDbLine
 10
1263.5659911621
 20
-1964.2030315511
 30
0.0
 11
1263.5659911621
 21
-1885.9630396217
 31
0.0
  0
LINE
  5
1C5
330
1F
100
AcDbEntity
  8
0
  6
Continuous
 62
     7
370
    25
100
AcDbLine
 10
1263.5659911621
 20
-1885.9630396217
 30
0.0
 11
1266.2148339407
 21
-1885.5985150769
 31
0.0
  0
LINE
  5
1C6
330
1F
100
AcDbEntity
  8
0
  6
Continuous
 62
     7
370
    25
100
AcDbLine
 10
1237.0775633763
 20
-1975.5756836089
 30
0.0
 11
1259.1512531978
 21
-1972.5379790693
 31
0.0
  0
LINE
  5
1C7
330
1F
100
AcDbEntity
  8
0
  6
Continuous
 62
     7
370
    25
100
AcDbLine
 10
1237.0775633763
 20
-1972.67790613
 30
0.0
 11
1237.0775633763
 21
-1975.5756836089
 31
0.0
  0
LINE
  5
1C8
330
1F
100
AcDbEntity
  8
0
  6
Continuous
 62
     7
370
    25
100
AcDbLine
 10
1237.0775633763
 20
-1972.67790613
 30
0.0
 11
1259.1512531978
 21
-1969.6402015905
 31
0.0
  0
LINE
  5
1C9
330
1F
100
AcDbEntity
  8
0
  6
Continuous
 62
     7
370
    25
100
AcDbLine
 10
1237.0775633763
 20
-1975.5756836089
 30
0.0
 11
1406.8739229464
 21
-2058.2270887353
 31
0.0
  0
LINE
  5
1CA
330
1F
100
AcDbEntity
  8
0
  6
Continuous
 62
     7
370
    25
100
AcDbLine
 10
1435.1881742136
 20
-2058.2270887353
 30
0.0
 11
1406.8739229464
 21
-2058.2270887353
 31
0.0
  0
ARC
  5
1CB
330
1F
100
AcDbEntity
  8
0
  6
Continuous
 62
     7
370
    25
100
AcDbCircle
 10
1259.8865028533
 20
-1885.1449886215
 30
0.0
 40
6.344561497598954
100
AcDbArc
 50
355.9008463278
 51
96.6547653647
  0
ELLIPSE
  5
1CC
330
1F
100
AcDbEntity
  8
0
  6
Continuous
 62
     7
370
    25
100
AcDbEllipse
 10
1422.5082451725
 20
-1966.0875086788
 30
0.0
 11
8.434055464824951
 21
-4.105426858663577
 31
0.0
210
0.0
220
0.0
230
1.0
 40
0.8528618832
 41
0.5186316916526666
 42
1.570796326794902
  0
LINE
  5
1CD
330
1F
100
AcDbEntity
  8
0
  6
Continuous
 62
     7
370
    25
100
AcDbLine
 10
1259.1512531978
 20
-1878.8431739193
 30
0.0
 11
1256.2053394145
 21
-1879.2485803441
 31
0.0
  0
ARC
  5
1CE
330
1F
100
AcDbEntity
  8
0
  6
Continuous
 62
     7
370
    25
100
AcDbCircle
 10
-908.114803282
 20
-1963.9591530523
 30
0.0
 40
8.741149876034262
100
AcDbArc
 50
179.2091739834
 51
258.9409225434
  0
LINE
  5
1CF
330
1F
100
AcDbEntity
  8
0
  6
Continuous
 62
     7
370
    25
100
AcDbLine
 10
-914.2062777566
 20
-1964.2030315511
 30
0.0
 11
-916.8551205352
 21
-1963.8385070063
 31
0.0
  0
ARC
  5
1D0
330
1F
100
AcDbEntity
  8
0
  6
Continuous
 62
     7
370
    25
100
AcDbCircle
 10
-909.106269558
 20
-1965.0263558066
 30
0.0
 40
4.664457976134482
100
AcDbArc
 50
235.8151231263
 51
261.5519185445
  0
LINE
  5
1D1
330
1F
100
AcDbEntity
  8
0
  6
Continuous
 62
     7
370
    25
100
AcDbLine
 10
-909.7915397924
 20
-1969.6402015905
 30
0.0
 11
-909.7915397924
 21
-1972.5379790693
 31
0.0
  0
LINE
  5
1D2
330
1F
100
AcDbEntity
  8
0
  6
Continuous
 62
     7
370
    25
100
AcDbLine
 10
-909.7915397924
 20
-1972.5379790693
 30
0.0
 11
-1085.8284608082
 21
-2058.2270887353
 31
0.0
  0
ELLIPSE
  5
1D3
330
1F
100
AcDbEntity
  8
0
  6
Continuous
 62
     7
370
    25
100
AcDbEllipse
 10
-1084.6886919056
 20
-2049.9448792921
 30
0.0
 11
-8.434055464824951
 21
-4.105426858663577
 31
0.0
210
0.0
220
0.0
230
1.0
 40
0.8528618832
 41
5.764553615526941
 42
7.335349942321733
  0
LINE
  5
1D4
330
1F
100
AcDbEntity
  8
0
  6
Continuous
 62
     7
370
    25
100
AcDbLine
 10
-1093.7492523111
 20
-2049.9448792921
 30
0.0
 11
-916.8551205352
 21
-1963.8385070063
 31
0.0
  0
LINE
  5
1D5
330
1F
100
AcDbEntity
  8
0
  6
Continuous
 62
     7
370
    25
100
AcDbLine
 10
-916.8551205352
 20
-1885.5985150769
 30
0.0
 11
-1082.2090921725
 21
-1966.0875086788
 31
0.0
  0
LINE
  5
1D6
330
1F
100
AcDbEntity
  8
0
  6
Continuous
 62
     7
370
    25
100
AcDbLine
 10
-916.8551205352
 20
-1885.5985150769
 30
0.0
 11
-916.8551205352
 21
-1963.8385070063
 31
0.0
  0
LINE
  5
1D7
330
1F
100
AcDbEntity
  8
0
  6
Continuous
 62
     7
370
    25
100
AcDbLine
 10
-1093.7492523111
 20
-2049.9448792921
 30
0.0
 11
-1082.2090921725
 21
-1966.0875086788
 31
0.0
  0
LINE
  5
1D8
330
1F
100
AcDbEntity
  8
0
  6
Continuous
 62
     7
370
    25
100
AcDbLine
 10
-914.2062777566
 20
-1885.9630396217
 30
0.0
 11
-916.8551205352
 21
-1885.5985150769
 31
0.0
  0
LINE
  5
1D9
330
1F
100
AcDbEntity
  8
0
  6
Continuous
 62
     7
370
    25
100
AcDbLine
 10
-914.2062777566
 20
-1885.9630396217
 30
0.0
 11
-914.2062777566
 21
-1964.2030315511
 31
0.0
  0
LINE
  5
1DA
330
1F
100
AcDbEntity
  8
0
  6
Continuous
 62
     7
370
    25
100
AcDbLine
 10
-909.7915397924
 20
-1972.5379790693
 30
0.0
 11
-887.7178499709
 21
-1975.5756836089
 31
0.0
  0
LINE
  5
1DB
330
1F
100
AcDbEntity
  8
0
  6
Continuous
 62
     7
370
    25
100
AcDbLine
 10
-887.7178499709
 20
-1975.5756836089
 30
0.0
 11
-1057.5142095409
 21
-2058.2270887353
 31
0.0
  0
LINE
  5
1DC
330
1F
100
AcDbEntity
  8
0
  6
Continuous
 62
     7
370
    25
100
AcDbLine
 10
-1057.5142095409
 20
-2058.2270887353
 30
0.0
 11
-1085.8284608082
 21
-2058.2270887353
 31
0.0
  0
LINE
  5
1DD
330
1F
100
AcDbEntity
  8
0
  6
Continuous
 62
     7
370
    25
100
AcDbLine
 10
-909.7915397924
 20
-1969.6402015905
 30
0.0
 11
-887.7178499709
 21
-1972.67790613
 31
0.0
  0
LINE
  5
1DE
330
1F
100
AcDbEntity
  8
0
  6
Continuous
 62
     7
370
    25
100
AcDbLine
 10
-887.7178499709
 20
-1972.67790613
 30
0.0
 11
-887.7178499709
 21
-1975.5756836089
 31
0.0
  0
ARC
  5
1DF
330
1F
100
AcDbEntity
  8
0
  6
Continuous
 62
     7
370
    25
100
AcDbCircle
 10
-910.5267894479
 20
-1885.1449886215
 30
0.0
 40
6.34456149759829
100
AcDbArc
 50
83.3452346353
 51
184.0991536722
  0
ELLIPSE
  5
1E0
330
1F
100
AcDbEntity
  8
0
  6
Continuous
 62
     7
370
    25
100
AcDbEllipse
 10
-1073.148531767
 20
-1966.0875086788
 30
0.0
 11
-8.434055464824949
 21
-4.105426858663349
 31
0.0
210
0.0
220
0.0
230
1.0
 40
0.8528618832
 41
4.712388980384726
 42
5.764553615526952
  0
LINE
  5
1E1
330
1F
100
AcDbEntity
  8
0
  6
Continuous
 62
     7
370
    25
100
AcDbLine
 10
-906.845626009
 20
-1879.2485803441
 30
0.0
 11
-909.7915397924
 21
-1878.8431739193
 31
0.0
  0
LINE
  5
1E2
330
1F
100
AcDbEntity
  8
0
  6
Continuous
 62
     7
370
    25
100
AcDbLine
 10
-861.2294221851
 20
-1979.2209290564
 30
0.0
 11
-839.1557323636
 21
-1982.258633596
 31
0.0
  0
LINE
  5
1E3
330
1F
100
AcDbEntity
  8
0
  6
Continuous
 62
     7
370
    25
100
AcDbLine
 10
-861.2294221851
 20
-1976.3231515775
 30
0.0
 11
-861.2294221851
 21
-1979.2209290564
 31
0.0
  0
LINE
  5
1E4
330
1F
100
AcDbEntity
  8
0
  6
Continuous
 62
     7
370
    25
100
AcDbLine
 10
-861.2294221851
 20
-1976.3231515775
 30
0.0
 11
-839.1557323636
 21
-1979.3608561171
 31
0.0
  0
LINE
  5
1E5
330
1F
100
AcDbEntity
  8
0
  6
Continuous
 62
     7
370
    25
100
AcDbLine
 10
-839.1557323636
 20
-1979.3608561171
 30
0.0
 11
-839.1557323636
 21
-1982.258633596
 31
0.0
  0
LINE
  5
1E6
330
1F
100
AcDbEntity
  8
0
  6
Continuous
 62
     7
370
    25
100
AcDbLine
 10
-861.2294221851
 20
-1979.2209290564
 30
0.0
 11
-1023.5371080203
 21
-2058.2270887353
 31
0.0
  0
LINE
  5
1E7
330
1F
100
AcDbEntity
  8
0
  6
Continuous
 62
     7
370
    25
100
AcDbLine
 10
-1023.1096946818
 20
-2055.1212601941
 30
0.0
 11
-1023.5371080203
 21
-2058.2270887353
 31
0.0
  0
LINE
  5
1E8
330
1F
100
AcDbEntity
  8
0
  6
Continuous
 62
     7
370
    25
100
AcDbLine
 10
-861.2294221851
 20
-1976.3231515775
 30
0.0
 11
-1023.1096946818
 21
-2055.1212601941
 31
0.0
  0
LINE
  5
1E9
330
1F
100
AcDbEntity
  8
0
  6
Continuous
 62
     7
370
    25
100
AcDbLine
 10
-995.222856753
 20
-2058.2270887353
 30
0.0
 11
-839.1557323636
 21
-1982.258633596
 31
0.0
  0
LINE
  5
1EA
330
1F
100
AcDbEntity
  8
0
  6
Continuous
 62
     7
370
    25
100
AcDbLine
 10
-995.222856753
 20
-2058.2270887353
 30
0.0
 11
-1023.5371080203
 21
-2058.2270887353
 31
0.0
  0
ARC
  5
1EB
330
1F
100
AcDbEntity
  8
0
  6
Continuous
 62
     7
370
    25
100
AcDbCircle
 10
-838.3280940848
 20
-1976.1608972277
 30
0.0
 40
6.153647206161441
100
AcDbArc
 50
262.2705479245
 51
351.6681290347
  0
ARC
  5
1EC
330
1F
100
AcDbEntity
  8
0
  6
Continuous
 62
     7
370
    25
100
AcDbCircle
 10
-838.6075725756
 20
-1975.6002882015
 30
0.0
 40
3.800309224392155
100
AcDbArc
 50
261.706679708
 51
291.4116803386
  0
ELLIPSE
  5
1ED
330
1F
100
AcDbEntity
  8
0
  6
Continuous
 62
     7
370
    25
100
AcDbEllipse
 10
-994.0830878505
 20
-2049.9448792921
 30
0.0
 11
-8.434055464824951
 21
-4.105426858663577
 31
0.0
210
0.0
220
0.0
230
1.0
 40
0.8528618832
 41
1.052164635142207
 42
1.57079632679487
  0
LINE
  5
1EE
330
1F
100
AcDbEntity
  8
0
  6
Continuous
 62
     7
370
    25
100
AcDbLine
 10
-984.681114232
 20
-2022.7742811355
 30
0.0
 11
-986.6931470273
 21
-2037.3948563942
 31
0.0
  0
LINE
  5
1EF
330
1F
100
AcDbEntity
  8
0
  6
Continuous
 62
     7
370
    25
100
AcDbLine
 10
-3475.3201432973
 20
-1796.3129774913
 30
0.0
 11
-736.4654198697
 21
-1796.3129774913
 31
0.0
  0
LINE
  5
1F0
330
1F
100
AcDbEntity
  8
0
  6
Continuous
 62
     7
370
    25
100
AcDbLine
 10
-460.9337893978
 20
-1796.3129774913
 30
0.0
 11
810.2935028032
 21
-1796.3129774913
 31
0.0
  0
LINE
  5
1F1
330
1F
100
AcDbEntity
  8
0
  6
Continuous
 62
     7
370
    25
100
AcDbLine
 10
1085.8251332751
 20
-1796.3129774913
 30
0.0
 11
3824.6798567027
 21
-1796.3129774913
 31
0.0
  0
LINE
  5
1F2
330
1F
100
AcDbEntity
  8
0
  6
Continuous
 62
     7
370
    25
100
AcDbLine
 10
-3475.3201432973
 20
-46.3129774913
 30
0.0
 11
-3475.3201432973
 21
-1796.3129774913
 31
0.0
  0
LINE
  5
1F3
330
1F
100
AcDbEntity
  8
0
  6
Continuous
 62
     7
370
    25
100
AcDbLine
 10
3824.6798567027
 20
-46.3129774913
 30
0.0
 11
1081.8849493364
 21
-46.3129774913
 31
0.0
  0
LINE
  5
1F4
330
1F
100
AcDbEntity
  8
0
  6
Continuous
 62
     7
370
    25
100
AcDbLine
 10
806.3533188645
 20
-46.3129774913
 30
0.0
 11
-456.9936054591
 21
-46.3129774913
 31
0.0
  0
LINE
  5
1F5
330
1F
100
AcDbEntity
  8
0
  6
Continuous
 62
     7
370
    25
100
AcDbLine
 10
-732.525235931
 20
-46.3129774913
 30
0.0
 11
-3475.3201432973
 21
-46.3129774913
 31
0.0
  0
LINE
  5
1F6
330
1F
100
AcDbEntity
  8
0
  6
Continuous
 62
     7
370
    25
100
AcDbLine
 10
3824.6798567027
 20
-1796.3129774913
 30
0.0
 11
3824.6798567027
 21
-46.3129774913
 31
0.0
  0
LINE
  5
1F7
330
1F
100
AcDbEntity
  8
0
  6
Continuous
 62
     7
370
    25
100
AcDbLine
 10
163.3987999926
 20
-439.1104435729
 30
0.0
 11
185.933115969
 21
-439.1104435729
 31
0.0
  0
LINE
  5
1F8
330
1F
100
AcDbEntity
  8
0
  6
Continuous
 62
     7
370
    25
100
AcDbLine
 10
209.6798567027
 20
-1397.1309101935
 30
0.0
 11
209.6798567027
 21
-443.5815092452
 31
0.0
  0
LINE
  5
1F9
330
1F
100
AcDbEntity
  8
0
  6
Continuous
 62
     7
370
    25
100
AcDbLine
 10
139.6798567027
 20
-1397.1264909602
 30
0.0
 11
139.6798567027
 21
-443.5770900119
 31
0.0
  0
LINE
  5
1FA
330
1F
100
AcDbEntity
  8
0
  6
Continuous
 62
     7
370
    25
100
AcDbLine
 10
163.4265974364
 20
-1401.5975566325
 30
0.0
 11
185.9609134129
 21
-1401.5975566325
 31
0.0
  0
LWPOLYLINE
  5
1FB
330
1F
100
AcDbEntity
  8
0
  6
Continuous
 62
     7
370
    25
100
AcDbPolyline
 90
       21
 70
   128
 43
0.0
 10
1350.9015638
 20
108.4058130329
 10
1350.1928135992
 20
108.626453512
 10
1349.4728355953
 20
109.140124311
 10
1348.8318063678
 20
109.9242591572
 10
1348.2872115231
 20
110.957468896
 10
1347.8539061887
 20
112.2115702592
 10
1347.5437098048
 20
113.6523546307
 10
1347.36508372
 20
115.2405211689
 10
1347.3229003882
 20
116.9327488304
 10
1347.4183104608
 20
118.6828780562
 10
1347.6487113998
 20
120.443169883
 10
1348.0078184681
 20
122.1656081387
 10
1348.4858361611
 20
123.8032091976
 10
1349.0697254021
 20
125.3113035718
 10
1349.7435592148
 20
126.6487543781
 10
1350.4889571692
 20
127.7790794449
 10
1351.2855867524
 20
128.671446451
 10
1352.1117179859
 20
129.3015139507
 10
1352.9448161633
 20
129.6520953449
 10
1353.7621565379
 20
129.7136276873
 10
1353.8326939943
 20
129.705073015
  0
LWPOLYLINE
  5
1FC
330
1F
100
AcDbEntity
  8
0
  6
Continuous
 62
     7
370
    25
100
AcDbPolyline
 90
       25
 70
   128
 43
0.0
 10
1339.2171436137
 20
105.2190148416
 10
1339.019164739
 20
105.252640478
 10
1338.1011340371
 20
105.5854831159
 10
1337.243256289
 20
106.1975389647
 10
1336.4615121339
 20
107.0774065821
 10
1335.7704639863
 20
108.2086956991
 10
1335.1829847657
 20
109.5703325399
 10
1334.7100180985
 20
111.1369523866
 10
1334.3603744588
 20
112.8793720754
 10
1334.140567046
 20
114.7651336245
 10
1334.0546904563
 20
116.7591088641
 10
1334.1043444082
 20
118.8241538083
 10
1334.2886039423
 20
120.9218005769
 10
1334.6040366524
 20
123.0129739797
 10
1335.0447666237
 20
125.0587194127
 10
1335.6025838908
 20
127.0209285091
 10
1336.2670973735
 20
128.8630490263
 10
1337.0259284428
 20
130.5507657444
 10
1337.8649415118
 20
132.0526396942
 10
1338.7685073544
 20
133.3406938057
 10
1339.7197942486
 20
134.3909340678
 10
1340.7010815195
 20
135.1837964917
 10
1341.6940896418
 20
135.7045115505
 10
1342.6803207531
 20
135.9433793079
 10
1343.4434243591
 20
135.9295757459
  0
LWPOLYLINE
  5
1FD
330
1F
100
AcDbEntity
  8
0
  6
Continuous
 62
     7
370
    25
100
AcDbPolyline
 90
       21
 70
   128
 43
0.0
 10
-940.5105472323
 20
-1919.4057383666
 10
-939.8017970316
 20
-1919.6263788457
 10
-939.0818190277
 20
-1920.1400496447
 10
-938.4407898002
 20
-1920.9241844908
 10
-937.8961949555
 20
-1921.9573942296
 10
-937.4628896211
 20
-1923.2114955928
 10
-937.1526932372
 20
-1924.6522799644
 10
-936.9740671523
 20
-1926.2404465025
 10
-936.9318838206
 20
-1927.9326741641
 10
-937.0272938932
 20
-1929.6828033898
 10
-937.2576948322
 20
-1931.4430952167
 10
-937.6168019005
 20
-1933.1655334724
 10
-938.0948195935
 20
-1934.8031345313
 10
-938.6787088345
 20
-1936.3112289055
 10
-939.3525426472
 20
-1937.6486797118
 10
-940.0979406016
 20
-1938.7790047786
 10
-940.8945701848
 20
-1939.6713717847
 10
-941.7207014183
 20
-1940.3014392843
 10
-942.5537995957
 20
-1940.6520206786
 10
-943.3711399703
 20
-1940.713553021
 10
-943.4416774267
 20
-1940.7049983487
  0
LWPOLYLINE
  5
1FE
330
1F
100
AcDbEntity
  8
0
  6
Continuous
 62
     7
370
    25
100
AcDbPolyline
 90
       25
 70
   128
 43
0.0
 10
-928.8261270461
 20
-1916.2189401752
 10
-928.6281481714
 20
-1916.2525658117
 10
-927.7101174695
 20
-1916.5854084496
 10
-926.8522397214
 20
-1917.1974642984
 10
-926.0704955662
 20
-1918.0773319158
 10
-925.3794474187
 20
-1919.2086210328
 10
-924.7919681981
 20
-1920.5702578736
 10
-924.3190015309
 20
-1922.1368777203
 10
-923.9693578912
 20
-1923.8792974091
 10
-923.7495504784
 20
-1925.7650589582
 10
-923.6636738887
 20
-1927.7590341978
 10
-923.7133278405
 20
-1929.824079142
 10
-923.8975873747
 20
-1931.9217259106
 10
-924.2130200848
 20
-1934.0128993134
 10
-924.6537500561
 20
-1936.0586447463
 10
-925.2115673232
 20
-1938.0208538428
 10
-925.8760808059
 20
-1939.86297436
 10
-926.6349118752
 20
-1941.5506910781
 10
-927.4739249442
 20
-1943.0525650279
 10
-928.3774907868
 20
-1944.3406191393
 10
-929.328777681
 20
-1945.3908594015
 10
-930.3100649519
 20
-1946.1837218254
 10
-931.3030730742
 20
-1946.7044368842
 10
-932.2893041855
 20
-1946.9433046415
 10
-933.0524077915
 20
-1946.9295010796
  0
LWPOLYLINE
  5
1FF
330
1F
100
AcDbEntity
  8
0
  6
Continuous
 62
     7
370
    25
100
AcDbPolyline
 90
       21
 70
   128
 43
0.0
 10
1292.8013908322
 20
-1940.7049983487
 10
1292.4173678797
 20
-1940.7242916258
 10
1291.5912366462
 20
-1940.5500909133
 10
1290.7581384688
 20
-1940.0896215272
 10
1289.9407980942
 20
-1939.355443872
 10
1289.161510437
 20
-1938.3675844002
 10
1288.4415324331
 20
-1937.1529893431
 10
1287.8005032057
 20
-1935.7447896877
 10
1287.2559083609
 20
-1934.1813974496
 10
1286.8226030266
 20
-1932.5054578936
 10
1286.5124066426
 20
-1930.762686282
 10
1286.3337805578
 20
-1929.0006208812
 10
1286.291597226
 20
-1927.2673262421
 10
1286.3870072987
 20
-1925.610082124
 10
1286.6174082377
 20
-1924.0740938264
 10
1286.976515306
 20
-1922.7012591059
 10
1287.4545329989
 20
-1921.5290253151
 10
1288.0384222399
 20
-1920.589367936
 10
1288.7122560526
 20
-1919.9079183724
 10
1289.4576540071
 20
-1919.503264792
 10
1289.8702606378
 20
-1919.4057383666
  0
LWPOLYLINE
  5
200
330
1F
100
AcDbEntity
  8
0
  6
Continuous
 62
     7
370
    25
100
AcDbPolyline
 90
       25
 70
   128
 43
0.0
 10
1282.4121211969
 20
-1946.9295010796
 10
1281.909470562
 20
-1946.9587285844
 10
1280.9281832912
 20
-1946.7962728616
 10
1279.9351751689
 20
-1946.3502591069
 10
1278.9489440576
 20
-1945.6289957127
 10
1277.9878615769
 20
-1944.6459184513
 10
1277.069830875
 20
-1943.419340192
 10
1276.2119531268
 20
-1941.9721097671
 10
1275.4302089717
 20
-1940.331186341
 10
1274.7391608241
 20
-1938.5271372125
 10
1274.1516816036
 20
-1936.5935684035
 10
1273.6787149364
 20
-1934.5664986424
 10
1273.3290712966
 20
-1932.4836884035
 10
1273.1092638838
 20
-1930.3839365006
 10
1273.0233872942
 20
-1928.306357339
 10
1273.073041246
 20
-1926.2896522874
 10
1273.2573007802
 20
-1924.3713887451
 10
1273.5727334902
 20
-1922.5873003326
 10
1274.0134634615
 20
-1920.9706212412
 10
1274.5712807286
 20
-1919.5514671437
 10
1275.2357942113
 20
-1918.3562741956
 10
1275.9946252807
 20
-1917.4073065802
 10
1276.8336383497
 20
-1916.7222417687
 10
1277.7372041923
 20
-1916.3138412223
 10
1278.1858404515
 20
-1916.2189401752
  0
LWPOLYLINE
  5
201
330
1F
100
AcDbEntity
  8
0
  6
Continuous
 62
     7
370
    25
100
AcDbPolyline
 90
       21
 70
   128
 43
0.0
 10
-1001.5418503945
 20
-1949.1138132383
 10
-1000.8331001937
 20
-1949.3344537174
 10
-1000.1131221898
 20
-1949.8481245164
 10
-999.4720929624
 20
-1950.6322593625
 10
-998.9274981176
 20
-1951.6654691014
 10
-998.4941927833
 20
-1952.9195704645
 10
-998.1839963993
 20
-1954.3603548361
 10
-998.0053703145
 20
-1955.9485213742
 10
-997.9631869828
 20
-1957.6407490358
 10
-998.0585970554
 20
-1959.3908782616
 10
-998.2889979944
 20
-1961.1511700884
 10
-998.6481050627
 20
-1962.8736083441
 10
-999.1261227557
 20
-1964.511209403
 10
-999.7100119967
 20
-1966.0193037772
 10
-1000.3838458093
 20
-1967.3567545835
 10
-1001.1292437638
 20
-1968.4870796503
 10
-1001.925873347
 20
-1969.3794466564
 10
-1002.7520045805
 20
-1970.009514156
 10
-1003.5851027578
 20
-1970.3600955503
 10
-1004.4024431325
 20
-1970.4216278927
 10
-1004.4729805889
 20
-1970.4130732204
  0
LWPOLYLINE
  5
202
330
1F
100
AcDbEntity
  8
0
  6
Continuous
 62
     7
370
    25
100
AcDbPolyline
 90
       25
 70
   128
 43
0.0
 10
-989.8574302083
 20
-1945.9270150469
 10
-989.6594513336
 20
-1945.9606406834
 10
-988.7414206317
 20
-1946.2934833213
 10
-987.8835428835
 20
-1946.9055391701
 10
-987.1017987284
 20
-1947.7854067875
 10
-986.4107505809
 20
-1948.9166959045
 10
-985.8232713603
 20
-1950.2783327453
 10
-985.3503046931
 20
-1951.844952592
 10
-985.0006610534
 20
-1953.5873722808
 10
-984.7808536406
 20
-1955.4731338299
 10
-984.6949770509
 20
-1957.4671090695
 10
-984.7446310027
 20
-1959.5321540137
 10
-984.9288905369
 20
-1961.6298007823
 10
-985.2443232469
 20
-1963.7209741851
 10
-985.6850532182
 20
-1965.766719618
 10
-986.2428704854
 20
-1967.7289287145
 10
-986.907383968
 20
-1969.5710492317
 10
-987.6662150374
 20
-1971.2587659498
 10
-988.5052281064
 20
-1972.7606398996
 10
-989.408793949
 20
-1974.0486940111
 10
-990.3600808432
 20
-1975.0989342732
 10
-991.341368114
 20
-1975.8917966971
 10
-992.3343762363
 20
-1976.4125117559
 10
-993.3206073476
 20
-1976.6513795133
 10
-994.0837109537
 20
-1976.6375759513
  0
LWPOLYLINE
  5
203
330
1F
100
AcDbEntity
  8
0
  6
Continuous
 62
     7
370
    25
100
AcDbPolyline
 90
       11
 70
   128
 43
0.0
 10
8.1329019595
 20
-1553.6848666589
 10
9.902293805
 20
-1553.722813669
 10
11.6234212534
 20
-1553.8356196038
 10
13.2493364346
 20
-1554.0202074116
 10
14.7356886209
 20
-1554.271542018
 10
16.0419339992
 20
-1554.5827676702
 10
17.1324416008
 20
-1554.9453949437
 10
17.977465221
 20
-1555.3495323117
 10
18.5539548183
 20
-1555.7841559605
 10
18.8461852593
 20
-1556.2374104898
 10
18.8829019595
 20
-1556.4671713937
  0
LWPOLYLINE
  5
204
330
1F
100
AcDbEntity
  8
0
  6
Continuous
 62
     7
370
    25
100
AcDbPolyline
 90
       11
 70
   128
 43
0.0
 10
-2.6170980405
 20
-1556.4671713937
 10
-2.5803813403
 20
-1556.2374104898
 10
-2.2881508994
 20
-1555.7841559605
 10
-1.7116613021
 20
-1555.3495323117
 10
-0.8666376818
 20
-1554.9453949437
 10
0.2238699197
 20
-1554.5827676702
 10
1.5301152981
 20
-1554.271542018
 10
3.0164674843
 20
-1554.0202074116
 10
4.6423826655
 20
-1553.8356196038
 10
6.363510114
 20
-1553.722813669
 10
8.1329019595
 20
-1553.6848666589
  0
LWPOLYLINE
  5
205
330
1F
100
AcDbEntity
  8
0
  6
Continuous
 62
     7
370
    25
100
AcDbPolyline
 90
       13
 70
   128
 43
0.0
 10
8.1329019595
 20
-1540.381403366
 10
10.2434850205
 20
-1540.4187685116
 10
12.3147519124
 20
-1540.5301679063
 10
14.3081188521
 20
-1540.7135263903
 10
16.186453185
 20
-1540.9654283419
 10
17.9147650965
 20
-1541.2811813043
 10
19.4608594058
 20
-1541.6549033973
 10
20.7959353011
 20
-1542.0796328855
 10
21.8951228447
 20
-1542.547457862
 10
22.7379462523
 20
-1543.0496636327
 10
23.3087053186
 20
-1543.5768950543
 10
23.5967678819
 20
-1544.119330803
 10
23.6329019595
 20
-1544.3930985651
  0
LWPOLYLINE
  5
206
330
1F
100
AcDbEntity
  8
0
  6
Continuous
 62
     7
370
    25
100
AcDbPolyline
 90
       13
 70
   128
 43
0.0
 10
-7.3670980405
 20
-1544.3930985651
 10
-7.330963963
 20
-1544.119330803
 10
-7.0429013996
 20
-1543.5768950543
 10
-6.4721423334
 20
-1543.0496636327
 10
-5.6293189258
 20
-1542.547457862
 10
-4.5301313822
 20
-1542.0796328855
 10
-3.1950554868
 20
-1541.6549033973
 10
-1.6489611776
 20
-1541.2811813043
 10
0.0793507339
 20
-1540.9654283419
 10
1.9576850669
 20
-1540.7135263903
 10
3.9510520065
 20
-1540.5301679063
 10
6.0223188985
 20
-1540.4187685116
 10
8.1329019595
 20
-1540.381403366
  0
LWPOLYLINE
  5
207
330
1F
100
AcDbEntity
  8
0
  6
Continuous
 62
     7
370
    25
100
AcDbPolyline
 90
       21
 70
   128
 43
0.0
 10
1289.8702606378
 20
78.6977381612
 10
1289.161510437
 20
78.9183786403
 10
1288.4415324331
 20
79.4320494393
 10
1287.8005032057
 20
80.2161842854
 10
1287.2559083609
 20
81.2493940243
 10
1286.8226030266
 20
82.5034953874
 10
1286.5124066426
 20
83.944279759
 10
1286.3337805578
 20
85.5324462971
 10
1286.291597226
 20
87.2246739587
 10
1286.3870072987
 20
88.9748031845
 10
1286.6174082377
 20
90.7350950113
 10
1286.976515306
 20
92.457533267
 10
1287.4545329989
 20
94.0951343259
 10
1288.0384222399
 20
95.6032287001
 10
1288.7122560526
 20
96.9406795064
 10
1289.4576540071
 20
98.0710045732
 10
1290.2542835902
 20
98.9633715793
 10
1291.0804148237
 20
99.5934390789
 10
1291.9135130011
 20
99.9440204732
 10
1292.7308533758
 20
100.0055528156
 10
1292.8013908322
 20
99.9969981433
  0
LWPOLYLINE
  5
208
330
1F
100
AcDbEntity
  8
0
  6
Continuous
 62
     7
370
    25
100
AcDbPolyline
 90
       25
 70
   128
 43
0.0
 10
1278.1858404515
 20
75.5109399698
 10
1277.9878615769
 20
75.5445656063
 10
1277.069830875
 20
75.8774082442
 10
1276.2119531268
 20
76.489464093
 10
1275.4302089717
 20
77.3693317104
 10
1274.7391608241
 20
78.5006208274
 10
1274.1516816036
 20
79.8622576682
 10
1273.6787149364
 20
81.4288775149
 10
1273.3290712966
 20
83.1712972037
 10
1273.1092638838
 20
85.0570587528
 10
1273.0233872942
 20
87.0510339924
 10
1273.073041246
 20
89.1160789366
 10
1273.2573007802
 20
91.2137257052
 10
1273.5727334902
 20
93.304899108
 10
1274.0134634615
 20
95.3506445409
 10
1274.5712807286
 20
97.3128536374
 10
1275.2357942113
 20
99.1549741546
 10
1275.9946252807
 20
100.8426908727
 10
1276.8336383497
 20
102.3445648225
 10
1277.7372041923
 20
103.632618934
 10
1278.6884910865
 20
104.6828591961
 10
1279.6697783573
 20
105.47572162
 10
1280.6627864796
 20
105.9964366788
 10
1281.6490175909
 20
106.2353044362
 10
1282.4121211969
 20
106.2215008742
  0
LWPOLYLINE
  5
209
330
1F
100
AcDbEntity
  8
0
  6
Continuous
 62
     7
370
    25
100
AcDbPolyline
 90
       11
 70
   128
 43
0.0
 10
99.6798567027
 20
-1509.1227543513
 10
101.4492485482
 20
-1509.1607013614
 10
103.1703759967
 20
-1509.2735072963
 10
104.7962911779
 20
-1509.458095104
 10
106.2826433641
 20
-1509.7094297104
 10
107.5888887425
 20
-1510.0206553626
 10
108.679396344
 20
-1510.3832826361
 10
109.5244199643
 20
-1510.7874200042
 10
110.1009095616
 20
-1511.2220436529
 10
110.3931400025
 20
-1511.6752981822
 10
110.4298567027
 20
-1511.9050590862
  0
LWPOLYLINE
  5
20A
330
1F
100
AcDbEntity
  8
0
  6
Continuous
 62
     7
370
    25
100
AcDbPolyline
 90
       11
 70
   128
 43
0.0
 10
88.9298567027
 20
-1511.9050590862
 10
88.9665734029
 20
-1511.6752981822
 10
89.2588038439
 20
-1511.2220436529
 10
89.8352934412
 20
-1510.7874200042
 10
90.6803170614
 20
-1510.3832826361
 10
91.770824663
 20
-1510.0206553626
 10
93.0770700413
 20
-1509.7094297104
 10
94.5634222276
 20
-1509.458095104
 10
96.1893374088
 20
-1509.2735072963
 10
97.9104648572
 20
-1509.1607013614
 10
99.6798567027
 20
-1509.1227543513
  0
LWPOLYLINE
  5
20B
330
1F
100
AcDbEntity
  8
0
  6
Continuous
 62
     7
370
    25
100
AcDbPolyline
 90
       13
 70
   128
 43
0.0
 10
99.6798567027
 20
-1495.8192910585
 10
101.7904397637
 20
-1495.856656204
 10
103.8617066557
 20
-1495.9680555988
 10
105.8550735953
 20
-1496.1514140827
 10
107.7334079283
 20
-1496.4033160343
 10
109.4617198398
 20
-1496.7190689967
 10
111.007814149
 20
-1497.0927910898
 10
112.3428900444
 20
-1497.5175205779
 10
113.442077588
 20
-1497.9853455544
 10
114.2849009956
 20
-1498.4875513251
 10
114.8556600618
 20
-1499.0147827468
 10
115.1437226252
 20
-1499.5572184955
 10
115.1798567027
 20
-1499.8309862575
  0
LWPOLYLINE
  5
20C
330
1F
100
AcDbEntity
  8
0
  6
Continuous
 62
     7
370
    25
100
AcDbPolyline
 90
       13
 70
   128
 43
0.0
 10
84.1798567027
 20
-1499.8309862575
 10
84.2159907803
 20
-1499.5572184955
 10
84.5040533436
 20
-1499.0147827468
 10
85.0748124099
 20
-1498.4875513251
 10
85.9176358175
 20
-1497.9853455544
 10
87.0168233611
 20
-1497.5175205779
 10
88.3518992564
 20
-1497.0927910898
 10
89.8979935657
 20
-1496.7190689967
 10
91.6263054772
 20
-1496.4033160343
 10
93.5046398101
 20
-1496.1514140827
 10
95.4980067498
 20
-1495.9680555988
 10
97.5692736417
 20
-1495.856656204
 10
99.6798567027
 20
-1495.8192910585
  0
LWPOLYLINE
  5
20D
330
1F
100
AcDbEntity
  8
0
  6
Continuous
 62
     7
370
    25
100
AcDbPolyline
 90
       21
 70
   128
 43
0.0
 10
-1004.4729805889
 20
129.705073015
 10
-1004.0889576364
 20
129.7243662921
 10
-1003.2628264029
 20
129.5501655796
 10
-1002.4297282256
 20
129.0896961935
 10
-1001.6123878509
 20
128.3555185383
 10
-1000.8331001937
 20
127.3676590665
 10
-1000.1131221898
 20
126.1530640094
 10
-999.4720929624
 20
124.744864354
 10
-998.9274981176
 20
123.1814721159
 10
-998.4941927833
 20
121.5055325599
 10
-998.1839963993
 20
119.7627609483
 10
-998.0053703145
 20
118.0006955475
 10
-997.9631869828
 20
116.2674009084
 10
-998.0585970554
 20
114.6101567903
 10
-998.2889979944
 20
113.0741684927
 10
-998.6481050627
 20
111.7013337722
 10
-999.1261227557
 20
110.5290999815
 10
-999.7100119967
 20
109.5894426024
 10
-1000.3838458093
 20
108.9079930387
 10
-1001.1292437638
 20
108.5033394583
 10
-1001.5418503945
 20
108.4058130329
  0
LWPOLYLINE
  5
20E
330
1F
100
AcDbEntity
  8
0
  6
Continuous
 62
     7
370
    25
100
AcDbPolyline
 90
       25
 70
   128
 43
0.0
 10
-994.0837109537
 20
135.9295757459
 10
-993.5810603188
 20
135.9588032507
 10
-992.5997730479
 20
135.7963475279
 10
-991.6067649256
 20
135.3503337732
 10
-990.6205338143
 20
134.629070379
 10
-989.6594513336
 20
133.6459931176
 10
-988.7414206317
 20
132.4194148583
 10
-987.8835428835
 20
130.9721844334
 10
-987.1017987284
 20
129.3312610073
 10
-986.4107505809
 20
127.5272118789
 10
-985.8232713603
 20
125.5936430698
 10
-985.3503046931
 20
123.5665733087
 10
-985.0006610534
 20
121.4837630698
 10
-984.7808536406
 20
119.384011167
 10
-984.6949770509
 20
117.3064320053
 10
-984.7446310027
 20
115.2897269537
 10
-984.9288905369
 20
113.3714634115
 10
-985.2443232469
 20
111.5873749989
 10
-985.6850532182
 20
109.9706959076
 10
-986.2428704854
 20
108.55154181
 10
-986.907383968
 20
107.3563488619
 10
-987.6662150374
 20
106.4073812465
 10
-988.5052281064
 20
105.722316435
 10
-989.408793949
 20
105.3139158886
 10
-989.8574302083
 20
105.2190148416
  0
LWPOLYLINE
  5
20F
330
1F
100
AcDbEntity
  8
0
  6
Continuous
 62
     7
370
    25
100
AcDbPolyline
 90
       21
 70
   128
 43
0.0
 10
238.9298567027
 20
-1511.9050590862
 10
238.9665734029
 20
-1511.6752981822
 10
239.2588038439
 20
-1511.2220436529
 10
239.8352934412
 20
-1510.7874200042
 10
240.6803170614
 20
-1510.3832826361
 10
241.770824663
 20
-1510.0206553626
 10
243.0770700413
 20
-1509.7094297104
 10
244.5634222276
 20
-1509.458095104
 10
246.1893374088
 20
-1509.2735072963
 10
247.9104648572
 20
-1509.1607013614
 10
249.6798567027
 20
-1509.1227543513
 10
251.4492485482
 20
-1509.1607013614
 10
253.1703759967
 20
-1509.2735072963
 10
254.7962911779
 20
-1509.458095104
 10
256.2826433641
 20
-1509.7094297104
 10
257.5888887425
 20
-1510.0206553626
 10
258.679396344
 20
-1510.3832826361
 10
259.5244199643
 20
-1510.7874200042
 10
260.1009095616
 20
-1511.2220436529
 10
260.3931400025
 20
-1511.6752981822
 10
260.4298567027
 20
-1511.9050590862
  0
LWPOLYLINE
  5
210
330
1F
100
AcDbEntity
  8
0
  6
Continuous
 62
     7
370
    25
100
AcDbPolyline
 90
       25
 70
   128
 43
0.0
 10
234.1798567027
 20
-1499.8309862575
 10
234.2159907803
 20
-1499.5572184955
 10
234.5040533436
 20
-1499.0147827468
 10
235.0748124099
 20
-1498.4875513251
 10
235.9176358175
 20
-1497.9853455544
 10
237.0168233611
 20
-1497.5175205779
 10
238.3518992564
 20
-1497.0927910898
 10
239.8979935657
 20
-1496.7190689967
 10
241.6263054772
 20
-1496.4033160343
 10
243.5046398101
 20
-1496.1514140827
 10
245.4980067498
 20
-1495.9680555988
 10
247.5692736417
 20
-1495.856656204
 10
249.6798567027
 20
-1495.8192910585
 10
251.7904397637
 20
-1495.856656204
 10
253.8617066557
 20
-1495.9680555988
 10
255.8550735953
 20
-1496.1514140827
 10
257.7334079283
 20
-1496.4033160343
 10
259.4617198398
 20
-1496.7190689967
 10
261.007814149
 20
-1497.0927910898
 10
262.3428900444
 20
-1497.5175205779
 10
263.442077588
 20
-1497.9853455544
 10
264.2849009956
 20
-1498.4875513251
 10
264.8556600618
 20
-1499.0147827468
 10
265.1437226252
 20
-1499.5572184955
 10
265.1798567027
 20
-1499.8309862575
  0
LWPOLYLINE
  5
211
330
1F
100
AcDbEntity
  8
0
  6
Continuous
 62
     7
370
    25
100
AcDbPolyline
 90
       11
 70
   128
 43
0.0
 10
341.226811446
 20
-287.0231335465
 10
339.4574196004
 20
-286.9851865364
 10
337.736292152
 20
-286.8723806016
 10
336.1103769708
 20
-286.6877927938
 10
334.6240247846
 20
-286.4364581874
 10
333.3177794062
 20
-286.1252325352
 10
332.2272718046
 20
-285.7626052617
 10
331.3822481844
 20
-285.3584678936
 10
330.8057585871
 20
-284.9238442449
 10
330.5135281461
 20
-284.4705897156
 10
330.476811446
 20
-284.2408288117
  0
LWPOLYLINE
  5
212
330
1F
100
AcDbEntity
  8
0
  6
Continuous
 62
     7
370
    25
100
AcDbPolyline
 90
       11
 70
   128
 43
0.0
 10
351.976811446
 20
-284.2408288117
 10
351.9400947458
 20
-284.4705897156
 10
351.6478643048
 20
-284.9238442449
 10
351.0713747075
 20
-285.3584678936
 10
350.2263510873
 20
-285.7626052617
 10
349.1358434857
 20
-286.1252325352
 10
347.8295981074
 20
-286.4364581874
 10
346.3432459211
 20
-286.6877927938
 10
344.7173307399
 20
-286.8723806016
 10
342.9962032915
 20
-286.9851865364
 10
341.226811446
 20
-287.0231335465
  0
LWPOLYLINE
  5
213
330
1F
100
AcDbEntity
  8
0
  6
Continuous
 62
     7
370
    25
100
AcDbPolyline
 90
       13
 70
   128
 43
0.0
 10
341.226811446
 20
-300.3265968394
 10
339.116228385
 20
-300.2892316938
 10
337.044961493
 20
-300.1778322991
 10
335.0515945534
 20
-299.9944738151
 10
333.1732602204
 20
-299.7425718635
 10
331.4449483089
 20
-299.4268189011
 10
329.8988539997
 20
-299.0530968081
 10
328.5637781043
 20
-298.6283673199
 10
327.4645905607
 20
-298.1605423434
 10
326.6217671531
 20
-297.6583365727
 10
326.0510080869
 20
-297.1311051511
 10
325.7629455235
 20
-296.5886694024
 10
325.726811446
 20
-296.3149016403
  0
LWPOLYLINE
  5
214
330
1F
100
AcDbEntity
  8
0
  6
Continuous
 62
     7
370
    25
100
AcDbPolyline
 90
       13
 70
   128
 43
0.0
 10
356.726811446
 20
-296.3149016403
 10
356.6906773684
 20
-296.5886694024
 10
356.402614805
 20
-297.1311051511
 10
355.8318557388
 20
-297.6583365727
 10
354.9890323312
 20
-298.1605423434
 10
353.8898447876
 20
-298.6283673199
 10
352.5547688923
 20
-299.0530968081
 10
351.008674583
 20
-299.4268189011
 10
349.2803626715
 20
-299.7425718635
 10
347.4020283386
 20
-299.9944738151
 10
345.4086613989
 20
-300.1778322991
 10
343.337394507
 20
-300.2892316938
 10
341.226811446
 20
-300.3265968394
  0
LWPOLYLINE
  5
215
330
1F
100
AcDbEntity
  8
0
  6
Continuous
 62
     7
370
    25
100
AcDbPolyline
 90
       11
 70
   128
 43
0.0
 10
249.6798567027
 20
-331.5852458541
 10
247.9104648572
 20
-331.547298844
 10
246.1893374088
 20
-331.4344929091
 10
244.5634222276
 20
-331.2499051014
 10
243.0770700413
 20
-330.998570495
 10
241.770824663
 20
-330.6873448428
 10
240.6803170614
 20
-330.3247175693
 10
239.8352934412
 20
-329.9205802012
 10
239.2588038439
 20
-329.4859565524
 10
238.9665734029
 20
-329.0327020231
 10
238.9298567027
 20
-328.8029411192
  0
LWPOLYLINE
  5
216
330
1F
100
AcDbEntity
  8
0
  6
Continuous
 62
     7
370
    25
100
AcDbPolyline
 90
       11
 70
   128
 43
0.0
 10
260.4298567027
 20
-328.8029411192
 10
260.3931400025
 20
-329.0327020231
 10
260.1009095616
 20
-329.4859565524
 10
259.5244199643
 20
-329.9205802012
 10
258.679396344
 20
-330.3247175693
 10
257.5888887425
 20
-330.6873448428
 10
256.2826433641
 20
-330.998570495
 10
254.7962911779
 20
-331.2499051014
 10
253.1703759967
 20
-331.4344929091
 10
251.4492485482
 20
-331.547298844
 10
249.6798567027
 20
-331.5852458541
  0
LWPOLYLINE
  5
217
330
1F
100
AcDbEntity
  8
0
  6
Continuous
 62
     7
370
    25
100
AcDbPolyline
 90
       13
 70
   128
 43
0.0
 10
249.6798567027
 20
-344.8887091469
 10
247.5692736417
 20
-344.8513440014
 10
245.4980067498
 20
-344.7399446066
 10
243.5046398101
 20
-344.5565861226
 10
241.6263054772
 20
-344.3046841711
 10
239.8979935657
 20
-343.9889312086
 10
238.3518992564
 20
-343.6152091156
 10
237.0168233611
 20
-343.1904796275
 10
235.9176358175
 20
-342.722654651
 10
235.0748124099
 20
-342.2204488803
 10
234.5040533436
 20
-341.6932174586
 10
234.2159907803
 20
-341.1507817099
 10
234.1798567027
 20
-340.8770139478
  0
LWPOLYLINE
  5
218
330
1F
100
AcDbEntity
  8
0
  6
Continuous
 62
     7
370
    25
100
AcDbPolyline
 90
       13
 70
   128
 43
0.0
 10
265.1798567027
 20
-340.8770139478
 10
265.1437226252
 20
-341.1507817099
 10
264.8556600618
 20
-341.6932174586
 10
264.2849009956
 20
-342.2204488803
 10
263.442077588
 20
-342.722654651
 10
262.3428900444
 20
-343.1904796275
 10
261.007814149
 20
-343.6152091156
 10
259.4617198398
 20
-343.9889312086
 10
257.7334079283
 20
-344.3046841711
 10
255.8550735953
 20
-344.5565861226
 10
253.8617066557
 20
-344.7399446066
 10
251.7904397637
 20
-344.8513440014
 10
249.6798567027
 20
-344.8887091469
  0
LWPOLYLINE
  5
219
330
1F
100
AcDbEntity
  8
0
  6
Continuous
 62
     7
370
    25
100
AcDbPolyline
 90
       21
 70
   128
 43
0.0
 10
-943.4416774267
 20
99.9969981433
 10
-943.0576544743
 20
100.0162914204
 10
-942.2315232408
 20
99.8420907079
 10
-941.3984250634
 20
99.3816213218
 10
-940.5810846887
 20
98.6474436666
 10
-939.8017970316
 20
97.6595841948
 10
-939.0818190277
 20
96.4449891377
 10
-938.4407898002
 20
95.0367894823
 10
-937.8961949555
 20
93.4733972442
 10
-937.4628896211
 20
91.7974576882
 10
-937.1526932372
 20
90.0546860766
 10
-936.9740671523
 20
88.2926206758
 10
-936.9318838206
 20
86.5593260367
 10
-937.0272938932
 20
84.9020819186
 10
-937.2576948322
 20
83.366093621
 10
-937.6168019005
 20
81.9932589005
 10
-938.0948195935
 20
80.8210251097
 10
-938.6787088345
 20
79.8813677306
 10
-939.3525426472
 20
79.199918167
 10
-940.0979406016
 20
78.7952645866
 10
-940.5105472323
 20
78.6977381612
  0
LWPOLYLINE
  5
21A
330
1F
100
AcDbEntity
  8
0
  6
Continuous
 62
     7
370
    25
100
AcDbPolyline
 90
       25
 70
   128
 43
0.0
 10
-933.0524077915
 20
106.2215008742
 10
-932.5497571566
 20
106.250728379
 10
-931.5684698857
 20
106.0882726562
 10
-930.5754617634
 20
105.6422589015
 10
-929.5892306521
 20
104.9209955073
 10
-928.6281481714
 20
103.9379182459
 10
-927.7101174695
 20
102.7113399866
 10
-926.8522397214
 20
101.2641095617
 10
-926.0704955662
 20
99.6231861356
 10
-925.3794474187
 20
97.8191370072
 10
-924.7919681981
 20
95.8855681981
 10
-924.3190015309
 20
93.858498437
 10
-923.9693578912
 20
91.7756881981
 10
-923.7495504784
 20
89.6759362952
 10
-923.6636738887
 20
87.5983571336
 10
-923.7133278405
 20
85.581652082
 10
-923.8975873747
 20
83.6633885397
 10
-924.2130200848
 20
81.8793001272
 10
-924.6537500561
 20
80.2626210358
 10
-925.2115673232
 20
78.8434669383
 10
-925.8760808059
 20
77.6482739902
 10
-926.6349118752
 20
76.6993063748
 10
-927.4739249442
 20
76.0142415633
 10
-928.3774907868
 20
75.6058410169
 10
-928.8261270461
 20
75.5109399698
  0
LWPOLYLINE
  5
21B
330
1F
100
AcDbEntity
  8
0
  6
Continuous
 62
     7
370
    25
100
AcDbPolyline
 90
       21
 70
   128
 43
0.0
 10
110.4298567027
 20
-328.8029411192
 10
110.3931400025
 20
-329.0327020231
 10
110.1009095616
 20
-329.4859565524
 10
109.5244199643
 20
-329.9205802012
 10
108.679396344
 20
-330.3247175693
 10
107.5888887425
 20
-330.6873448428
 10
106.2826433641
 20
-330.998570495
 10
104.7962911779
 20
-331.2499051014
 10
103.1703759967
 20
-331.4344929091
 10
101.4492485482
 20
-331.547298844
 10
99.6798567027
 20
-331.5852458541
 10
97.9104648572
 20
-331.547298844
 10
96.1893374088
 20
-331.4344929091
 10
94.5634222276
 20
-331.2499051014
 10
93.0770700413
 20
-330.998570495
 10
91.770824663
 20
-330.6873448428
 10
90.6803170614
 20
-330.3247175693
 10
89.8352934412
 20
-329.9205802012
 10
89.2588038439
 20
-329.4859565524
 10
88.9665734029
 20
-329.0327020231
 10
88.9298567027
 20
-328.8029411192
  0
LWPOLYLINE
  5
21C
330
1F
100
AcDbEntity
  8
0
  6
Continuous
 62
     7
370
    25
100
AcDbPolyline
 90
       25
 70
   128
 43
0.0
 10
115.1798567027
 20
-340.8770139478
 10
115.1437226252
 20
-341.1507817099
 10
114.8556600618
 20
-341.6932174586
 10
114.2849009956
 20
-342.2204488803
 10
113.442077588
 20
-342.722654651
 10
112.3428900444
 20
-343.1904796275
 10
111.007814149
 20
-343.6152091156
 10
109.4617198398
 20
-343.9889312086
 10
107.7334079283
 20
-344.3046841711
 10
105.8550735953
 20
-344.5565861226
 10
103.8617066557
 20
-344.7399446066
 10
101.7904397637
 20
-344.8513440014
 10
99.6798567027
 20
-344.8887091469
 10
97.5692736417
 20
-344.8513440014
 10
95.4980067498
 20
-344.7399446066
 10
93.5046398101
 20
-344.5565861226
 10
91.6263054772
 20
-344.3046841711
 10
89.8979935657
 20
-343.9889312086
 10
88.3518992564
 20
-343.6152091156
 10
87.0168233611
 20
-343.1904796275
 10
85.9176358175
 20
-342.722654651
 10
85.0748124099
 20
-342.2204488803
 10
84.5040533436
 20
-341.6932174586
 10
84.2159907803
 20
-341.1507817099
 10
84.1798567027
 20
-340.8770139478
  0
LWPOLYLINE
  5
21D
330
1F
100
AcDbEntity
  8
0
  6
Continuous
 62
     7
370
    25
100
AcDbPolyline
 90
       21
 70
   128
 43
0.0
 10
1353.8326939943
 20
-1970.4130732204
 10
1353.4486710419
 20
-1970.4323664975
 10
1352.6225398084
 20
-1970.258165785
 10
1351.789441631
 20
-1969.7976963989
 10
1350.9721012563
 20
-1969.0635187437
 10
1350.1928135992
 20
-1968.0756592719
 10
1349.4728355953
 20
-1966.8610642148
 10
1348.8318063678
 20
-1965.4528645594
 10
1348.2872115231
 20
-1963.8894723213
 10
1347.8539061887
 20
-1962.2135327653
 10
1347.5437098048
 20
-1960.4707611537
 10
1347.36508372
 20
-1958.7086957529
 10
1347.3229003882
 20
-1956.9754011138
 10
1347.4183104608
 20
-1955.3181569957
 10
1347.6487113998
 20
-1953.7821686981
 10
1348.0078184681
 20
-1952.4093339776
 10
1348.4858361611
 20
-1951.2371001868
 10
1349.0697254021
 20
-1950.2974428077
 10
1349.7435592148
 20
-1949.6159932441
 10
1350.4889571692
 20
-1949.2113396637
 10
1350.9015638
 20
-1949.1138132383
  0
LWPOLYLINE
  5
21E
330
1F
100
AcDbEntity
  8
0
  6
Continuous
 62
     7
370
    25
100
AcDbPolyline
 90
       25
 70
   128
 43
0.0
 10
1343.4434243591
 20
-1976.6375759513
 10
1342.9407737242
 20
-1976.6668034561
 10
1341.9594864533
 20
-1976.5043477333
 10
1340.966478331
 20
-1976.0583339786
 10
1339.9802472197
 20
-1975.3370705844
 10
1339.019164739
 20
-1974.353993323
 10
1338.1011340371
 20
-1973.1274150637
 10
1337.243256289
 20
-1971.6801846388
 10
1336.4615121339
 20
-1970.0392612127
 10
1335.7704639863
 20
-1968.2352120843
 10
1335.1829847657
 20
-1966.3016432752
 10
1334.7100180985
 20
-1964.2745735141
 10
1334.3603744588
 20
-1962.1917632752
 10
1334.140567046
 20
-1960.0920113723
 10
1334.0546904563
 20
-1958.0144322107
 10
1334.1043444082
 20
-1955.9977271591
 10
1334.2886039423
 20
-1954.0794636169
 10
1334.6040366524
 20
-1952.2953752043
 10
1335.0447666237
 20
-1950.6786961129
 10
1335.6025838908
 20
-1949.2595420154
 10
1336.2670973735
 20
-1948.0643490673
 10
1337.0259284428
 20
-1947.1153814519
 10
1337.8649415118
 20
-1946.4303166404
 10
1338.7685073544
 20
-1946.021916094
 10
1339.2171436137
 20
-1945.9270150469
  0
LWPOLYLINE
  5
21F
330
1F
100
AcDbEntity
  8
0
  6
Continuous
 62
     7
370
    25
100
AcDbPolyline
 90
       21
 70
   128
 43
0.0
 10
18.8829019595
 20
-284.2408288117
 10
18.8461852593
 20
-284.4705897156
 10
18.5539548183
 20
-284.9238442449
 10
17.977465221
 20
-285.3584678936
 10
17.1324416008
 20
-285.7626052617
 10
16.0419339992
 20
-286.1252325352
 10
14.7356886209
 20
-286.4364581874
 10
13.2493364346
 20
-286.6877927938
 10
11.6234212534
 20
-286.8723806016
 10
9.902293805
 20
-286.9851865364
 10
8.1329019595
 20
-287.0231335465
 10
6.363510114
 20
-286.9851865364
 10
4.6423826655
 20
-286.8723806016
 10
3.0164674843
 20
-286.6877927938
 10
1.5301152981
 20
-286.4364581874
 10
0.2238699197
 20
-286.1252325352
 10
-0.8666376818
 20
-285.7626052617
 10
-1.7116613021
 20
-285.3584678936
 10
-2.2881508994
 20
-284.9238442449
 10
-2.5803813403
 20
-284.4705897156
 10
-2.6170980405
 20
-284.2408288117
  0
LWPOLYLINE
  5
220
330
1F
100
AcDbEntity
  8
0
  6
Continuous
 62
     7
370
    25
100
AcDbPolyline
 90
       25
 70
   128
 43
0.0
 10
23.6329019595
 20
-296.3149016403
 10
23.5967678819
 20
-296.5886694024
 10
23.3087053186
 20
-297.1311051511
 10
22.7379462523
 20
-297.6583365727
 10
21.8951228447
 20
-298.1605423434
 10
20.7959353011
 20
-298.6283673199
 10
19.4608594058
 20
-299.0530968081
 10
17.9147650965
 20
-299.4268189011
 10
16.186453185
 20
-299.7425718635
 10
14.3081188521
 20
-299.9944738151
 10
12.3147519124
 20
-300.1778322991
 10
10.2434850205
 20
-300.2892316938
 10
8.1329019595
 20
-300.3265968394
 10
6.0223188985
 20
-300.2892316938
 10
3.9510520065
 20
-300.1778322991
 10
1.9576850669
 20
-299.9944738151
 10
0.0793507339
 20
-299.7425718635
 10
-1.6489611776
 20
-299.4268189011
 10
-3.1950554868
 20
-299.0530968081
 10
-4.5301313822
 20
-298.6283673199
 10
-5.6293189258
 20
-298.1605423434
 10
-6.4721423334
 20
-297.6583365727
 10
-7.0429013996
 20
-297.1311051511
 10
-7.330963963
 20
-296.5886694024
 10
-7.3670980405
 20
-296.3149016403
  0
LWPOLYLINE
  5
221
330
1F
100
AcDbEntity
  8
0
  6
Continuous
 62
     7
370
    25
100
AcDbPolyline
 90
       21
 70
   128
 43
0.0
 10
330.476811446
 20
-1556.4671713937
 10
330.5135281461
 20
-1556.2374104898
 10
330.8057585871
 20
-1555.7841559605
 10
331.3822481844
 20
-1555.3495323117
 10
332.2272718046
 20
-1554.9453949437
 10
333.3177794062
 20
-1554.5827676702
 10
334.6240247846
 20
-1554.271542018
 10
336.1103769708
 20
-1554.0202074116
 10
337.736292152
 20
-1553.8356196038
 10
339.4574196004
 20
-1553.722813669
 10
341.226811446
 20
-1553.6848666589
 10
342.9962032915
 20
-1553.722813669
 10
344.7173307399
 20
-1553.8356196038
 10
346.3432459211
 20
-1554.0202074116
 10
347.8295981074
 20
-1554.271542018
 10
349.1358434857
 20
-1554.5827676702
 10
350.2263510873
 20
-1554.9453949437
 10
351.0713747075
 20
-1555.3495323117
 10
351.6478643048
 20
-1555.7841559605
 10
351.9400947458
 20
-1556.2374104898
 10
351.976811446
 20
-1556.4671713937
  0
LWPOLYLINE
  5
222
330
1F
100
AcDbEntity
  8
0
  6
Continuous
 62
     7
370
    25
100
AcDbPolyline
 90
       25
 70
   128
 43
0.0
 10
325.726811446
 20
-1544.3930985651
 10
325.7629455235
 20
-1544.119330803
 10
326.0510080869
 20
-1543.5768950543
 10
326.6217671531
 20
-1543.0496636327
 10
327.4645905607
 20
-1542.547457862
 10
328.5637781043
 20
-1542.0796328855
 10
329.8988539997
 20
-1541.6549033973
 10
331.4449483089
 20
-1541.2811813043
 10
333.1732602204
 20
-1540.9654283419
 10
335.0515945534
 20
-1540.7135263903
 10
337.044961493
 20
-1540.5301679063
 10
339.116228385
 20
-1540.4187685116
 10
341.226811446
 20
-1540.381403366
 10
343.337394507
 20
-1540.4187685116
 10
345.4086613989
 20
-1540.5301679063
 10
347.4020283386
 20
-1540.7135263903
 10
349.2803626715
 20
-1540.9654283419
 10
351.008674583
 20
-1541.2811813043
 10
352.5547688923
 20
-1541.6549033973
 10
353.8898447876
 20
-1542.0796328855
 10
354.9890323312
 20
-1542.547457862
 10
355.8318557388
 20
-1543.0496636327
 10
356.402614805
 20
-1543.5768950543
 10
356.6906773684
 20
-1544.119330803
 10
356.726811446
 20
-1544.3930985651
  0
ARC
  5
223
330
1F
100
AcDbEntity
  8
0
  6
Continuous
 62
     7
370
    25
100
AcDbCircle
 10
14.0827613671
 20
-287.7907076368
 30
0.0
 40
6.707921500686069
100
AcDbArc
 50
52.3795701005
 51
79.8636924654
  0
ARC
  5
224
330
1F
100
AcDbEntity
  8
0
  6
Continuous
 62
     7
370
    25
100
AcDbCircle
 10
8.1338986132
 20
-250.9484762409
 30
0.0
 40
34.88302712121886
100
AcDbArc
 50
259.3645190376
 51
280.5960924486
  0
ARC
  5
225
330
1F
100
AcDbEntity
  8
0
  6
Continuous
 62
     7
370
    25
100
AcDbCircle
 10
2.1927347806
 20
-287.8213201015
 30
0.0
 40
6.739763182169462
100
AcDbArc
 50
100.1716166336
 51
127.4273901425
  0
LINE
  5
226
330
1F
100
AcDbEntity
  8
0
  6
Continuous
 62
     7
370
    25
100
AcDbLine
 10
-2.6170980405
 20
-283.6756172961
 30
0.0
 11
-2.6147916503
 21
-283.6179859775
 31
0.0
  0
ARC
  5
227
330
1F
100
AcDbEntity
  8
0
  6
Continuous
 62
     7
370
    25
100
AcDbCircle
 10
335.2769520383
 20
-1552.9172925686
 30
0.0
 40
6.707921500682147
100
AcDbArc
 50
232.3795701005
 51
259.8636924654
  0
ARC
  5
228
330
1F
100
AcDbEntity
  8
0
  6
Continuous
 62
     7
370
    25
100
AcDbCircle
 10
341.2258147923
 20
-1589.7595239645
 30
0.0
 40
34.88302712122361
100
AcDbArc
 50
79.3645190376
 51
100.5960924486
  0
ARC
  5
229
330
1F
100
AcDbEntity
  8
0
  6
Continuous
 62
     7
370
    25
100
AcDbCircle
 10
347.1669786248
 20
-1552.8866801039
 30
0.0
 40
6.739763182163056
100
AcDbArc
 50
280.1716166336
 51
307.4273901426
  0
LINE
  5
22A
330
1F
100
AcDbEntity
  8
0
  6
Continuous
 62
     7
370
    25
100
AcDbLine
 10
351.976811446
 20
-1557.0323829093
 30
0.0
 11
351.9745050558
 21
-1557.0900142279
 31
0.0
  0
LWPOLYLINE
  5
22B
330
1F
100
AcDbEntity
  8
0
  6
Continuous
 62
     7
370
    25
100
AcDbPolyline
 90
       13
 70
   128
 43
0.0
 10
-1004.5998760278
 20
109.2638865379
 10
-1005.1339065091
 20
109.7182345823
 10
-1005.9178954578
 20
110.6269166425
 10
-1006.6473146478
 20
111.7740592385
 10
-1007.3011800171
 20
113.1266611665
 10
-1007.8606810495
 20
114.6458105316
 10
-1008.309721919
 20
116.2878041726
 10
-1008.6353845373
 20
118.0054049219
 10
-1008.8283001838
 20
119.7492005332
 10
-1008.8829190267
 20
121.4690251818
 10
-1008.7976697812
 20
123.1154026437
 10
-1008.5750049129
 20
124.640969637
 10
-1008.2213300847
 20
126.0018383768
  0
LINE
  5
22C
330
1F
100
AcDbEntity
  8
0
  6
Continuous
 62
     7
370
    25
100
AcDbLine
 10
-1004.9896373896
 20
129.6339725002
 30
0.0
 11
-1004.802008107
 21
129.651695669
 31
0.0
  0
ARC
  5
22D
330
1F
100
AcDbEntity
  8
0
  6
Continuous
 62
     7
370
    25
100
AcDbCircle
 10
335.876780028
 20
-289.4800858514
 30
0.0
 40
8.481563372858133
100
AcDbArc
 50
102.117035657
 51
121.3829268858
  0
ARC
  5
22E
330
1F
100
AcDbEntity
  8
0
  6
Continuous
 62
     7
370
    25
100
AcDbCircle
 10
346.6134483724
 20
-289.3543085177
 30
0.0
 40
8.350909690261355
100
AcDbArc
 50
58.043989151
 51
77.9473765992
  0
LINE
  5
22F
330
1F
100
AcDbEntity
  8
0
  6
Continuous
 62
     7
370
    25
100
AcDbLine
 10
351.976811446
 20
-283.6756172961
 30
0.0
 11
351.9745050558
 21
-283.7332486147
 31
0.0
  0
LWPOLYLINE
  5
230
330
1F
100
AcDbEntity
  8
0
  6
Continuous
 62
     7
370
    25
100
AcDbPolyline
 90
        9
 70
   128
 43
0.0
 10
1356.7858775223
 20
127.7159843983
 10
1357.220394455
 20
126.9241495634
 10
1357.6694353244
 20
125.7193132197
 10
1357.9950979427
 20
124.318756641
 10
1358.1880135893
 20
122.7627712901
 10
1358.2426324321
 20
121.0961200325
 10
1358.1573831866
 20
119.3667493905
 10
1357.9347183184
 20
117.6244102087
 10
1357.5810434902
 20
115.9192264132
  0
LINE
  5
231
330
1F
100
AcDbEntity
  8
0
  6
Continuous
 62
     7
370
    25
100
AcDbLine
 10
1354.349350795
 20
129.6339725002
 30
0.0
 11
1354.5350916139
 21
129.6002874841
 31
0.0
  0
LWPOLYLINE
  5
232
330
1F
100
AcDbEntity
  8
0
  6
Continuous
 62
     7
370
    25
100
AcDbPolyline
 90
        9
 70
   128
 43
0.0
 10
-1007.4261641169
 20
-1968.4239846037
 10
-1007.8606810495
 20
-1967.6321497688
 10
-1008.309721919
 20
-1966.4273134251
 10
-1008.6353845373
 20
-1965.0267568464
 10
-1008.8283001838
 20
-1963.4707714955
 10
-1008.8829190267
 20
-1961.8041202379
 10
-1008.7976697812
 20
-1960.0747495959
 10
-1008.5750049129
 20
-1958.3324104141
 10
-1008.2213300847
 20
-1956.6272266186
  0
LINE
  5
233
330
1F
100
AcDbEntity
  8
0
  6
Continuous
 62
     7
370
    25
100
AcDbLine
 10
-1004.9896373896
 20
-1970.3419727056
 30
0.0
 11
-1005.1753782084
 21
-1970.3082876895
 31
0.0
  0
LWPOLYLINE
  5
234
330
1F
100
AcDbEntity
  8
0
  6
Continuous
 62
     7
370
    25
100
AcDbPolyline
 90
        9
 70
   128
 43
0.0
 10
-946.3948609547
 20
-1938.715909732
 10
-946.8293778874
 20
-1937.9240748971
 10
-947.2784187568
 20
-1936.7192385534
 10
-947.6040813751
 20
-1935.3186819747
 10
-947.7969970217
 20
-1933.7626966238
 10
-947.8516158645
 20
-1932.0960453662
 10
-947.766366619
 20
-1930.3666747242
 10
-947.5437017507
 20
-1928.6243355424
 10
-947.1900269226
 20
-1926.9191517469
  0
LINE
  5
235
330
1F
100
AcDbEntity
  8
0
  6
Continuous
 62
     7
370
    25
100
AcDbLine
 10
-943.9583342274
 20
-1940.6338978339
 30
0.0
 11
-944.1440750463
 21
-1940.6002128177
 31
0.0
  0
ARC
  5
236
330
1F
100
AcDbEntity
  8
0
  6
Continuous
 62
     7
370
    25
100
AcDbCircle
 10
105.6297161104
 20
-332.3528199444
 30
0.0
 40
6.707921500682608
100
AcDbArc
 50
52.3795701005
 51
79.8636924654
  0
ARC
  5
237
330
1F
100
AcDbEntity
  8
0
  6
Continuous
 62
     7
370
    25
100
AcDbCircle
 10
99.6808533564
 20
-295.5105885484
 30
0.0
 40
34.88302712121889
100
AcDbArc
 50
259.3645190376
 51
280.5960924486
  0
ARC
  5
238
330
1F
100
AcDbEntity
  8
0
  6
Continuous
 62
     7
370
    25
100
AcDbCircle
 10
93.7396895239
 20
-332.3834324091
 30
0.0
 40
6.739763182170022
100
AcDbArc
 50
100.1716166336
 51
127.4273901425
  0
LINE
  5
239
330
1F
100
AcDbEntity
  8
0
  6
Continuous
 62
     7
370
    25
100
AcDbLine
 10
88.9298567027
 20
-328.2377296037
 30
0.0
 11
88.9321630929
 21
-328.1800982851
 31
0.0
  0
LWPOLYLINE
  5
23A
330
1F
100
AcDbEntity
  8
0
  6
Continuous
 62
     7
370
    25
100
AcDbPolyline
 90
       13
 70
   128
 43
0.0
 10
1292.9282862711
 20
-1920.2638118716
 10
1293.4623167524
 20
-1920.718159916
 10
1294.2463057011
 20
-1921.6268419762
 10
1294.9757248911
 20
-1922.7739845722
 10
1295.6295902604
 20
-1924.1265865001
 10
1296.1890912928
 20
-1925.6457358653
 10
1296.6381321623
 20
-1927.2877295062
 10
1296.9637947806
 20
-1929.0053302556
 10
1297.1567104271
 20
-1930.7491258669
 10
1297.21132927
 20
-1932.4689505155
 10
1297.1260800245
 20
-1934.1153279774
 10
1296.9034151562
 20
-1935.6408949707
 10
1296.549740328
 20
-1937.0017637104
  0
LINE
  5
23B
330
1F
100
AcDbEntity
  8
0
  6
Continuous
 62
     7
370
    25
100
AcDbLine
 10
1293.3180476328
 20
-1940.6338978339
 30
0.0
 11
1293.1304183502
 21
-1940.6516210027
 31
0.0
  0
LWPOLYLINE
  5
23C
330
1F
100
AcDbEntity
  8
0
  6
Continuous
 62
     7
370
    25
100
AcDbPolyline
 90
       13
 70
   128
 43
0.0
 10
-943.5685728657
 20
79.5558116662
 10
-944.1026033469
 20
80.0101597106
 10
-944.8865922956
 20
80.9188417708
 10
-945.6160114857
 20
82.0659843668
 10
-946.269876855
 20
83.4185862947
 10
-946.8293778874
 20
84.9377356599
 10
-947.2784187568
 20
86.5797293008
 10
-947.6040813751
 20
88.2973300502
 10
-947.7969970217
 20
90.0411256615
 10
-947.8516158645
 20
91.7609503101
 10
-947.766366619
 20
93.407327772
 10
-947.5437017507
 20
94.9328947653
 10
-947.1900269226
 20
96.293763505
  0
LINE
  5
23D
330
1F
100
AcDbEntity
  8
0
  6
Continuous
 62
     7
370
    25
100
AcDbLine
 10
-943.9583342274
 20
99.9258976285
 30
0.0
 11
-943.7707049448
 21
99.9436207973
 31
0.0
  0
ARC
  5
23E
330
1F
100
AcDbEntity
  8
0
  6
Continuous
 62
     7
370
    25
100
AcDbCircle
 10
244.3298252847
 20
-334.042198159
 30
0.0
 40
8.481563372854138
100
AcDbArc
 50
102.117035657
 51
121.3829268858
  0
ARC
  5
23F
330
1F
100
AcDbEntity
  8
0
  6
Continuous
 62
     7
370
    25
100
AcDbCircle
 10
255.0664936291
 20
-333.9164208252
 30
0.0
 40
8.350909690254234
100
AcDbArc
 50
58.043989151
 51
77.9473765992
  0
LINE
  5
240
330
1F
100
AcDbEntity
  8
0
  6
Continuous
 62
     7
370
    25
100
AcDbLine
 10
260.4298567027
 20
-328.2377296037
 30
0.0
 11
260.4275503125
 21
-328.2953609223
 31
0.0
  0
LWPOLYLINE
  5
241
330
1F
100
AcDbEntity
  8
0
  6
Continuous
 62
     7
370
    25
100
AcDbPolyline
 90
        9
 70
   128
 43
0.0
 10
1295.7545743602
 20
98.0079095266
 10
1296.1890912928
 20
97.2160746917
 10
1296.6381321623
 20
96.011238348
 10
1296.9637947806
 20
94.6106817693
 10
1297.1567104271
 20
93.0546964184
 10
1297.21132927
 20
91.3880451608
 10
1297.1260800245
 20
89.6586745188
 10
1296.9034151562
 20
87.916335337
 10
1296.549740328
 20
86.2111515415
  0
LINE
  5
242
330
1F
100
AcDbEntity
  8
0
  6
Continuous
 62
     7
370
    25
100
AcDbLine
 10
1293.3180476328
 20
99.9258976285
 30
0.0
 11
1293.5037884517
 21
99.8922126124
 31
0.0
  0
ARC
  5
243
330
1F
100
AcDbEntity
  8
0
  6
Continuous
 62
     7
370
    25
100
AcDbCircle
 10
243.729997295
 20
-1508.355180261
 30
0.0
 40
6.707921500686298
100
AcDbArc
 50
232.3795701005
 51
259.8636924654
  0
ARC
  5
244
330
1F
100
AcDbEntity
  8
0
  6
Continuous
 62
     7
370
    25
100
AcDbCircle
 10
249.678860049
 20
-1545.197411657
 30
0.0
 40
34.88302712121905
100
AcDbArc
 50
79.3645190376
 51
100.5960924486
  0
ARC
  5
245
330
1F
100
AcDbEntity
  8
0
  6
Continuous
 62
     7
370
    25
100
AcDbCircle
 10
255.6200238816
 20
-1508.3245677963
 30
0.0
 40
6.739763182172358
100
AcDbArc
 50
280.1716166336
 51
307.4273901425
  0
LINE
  5
246
330
1F
100
AcDbEntity
  8
0
  6
Continuous
 62
     7
370
    25
100
AcDbLine
 10
260.4298567027
 20
-1512.4702706017
 30
0.0
 11
260.4275503125
 21
-1512.5279019203
 31
0.0
  0
ARC
  5
247
330
1F
100
AcDbEntity
  8
0
  6
Continuous
 62
     7
370
    25
100
AcDbCircle
 10
13.4829333775
 20
-1551.2279143542
 30
0.0
 40
8.481563372639762
100
AcDbArc
 50
282.1170356567
 51
301.3829268861
  0
ARC
  5
248
330
1F
100
AcDbEntity
  8
0
  6
Continuous
 62
     7
370
    25
100
AcDbCircle
 10
2.7462650331
 20
-1551.3536916878
 30
0.0
 40
8.35090969019326
100
AcDbArc
 50
238.0439891509
 51
257.9473765992
  0
LINE
  5
249
330
1F
100
AcDbEntity
  8
0
  6
Continuous
 62
     7
370
    25
100
AcDbLine
 10
-2.6170980405
 20
-1557.0323829093
 30
0.0
 11
-2.6147916503
 21
-1556.9747515906
 31
0.0
  0
ARC
  5
24A
330
1F
100
AcDbEntity
  8
0
  6
Continuous
 62
     7
370
    25
100
AcDbCircle
 10
105.0298881207
 20
-1506.6658020465
 30
0.0
 40
8.48156337277927
100
AcDbArc
 50
282.1170356569
 51
301.3829268859
  0
ARC
  5
24B
330
1F
100
AcDbEntity
  8
0
  6
Continuous
 62
     7
370
    25
100
AcDbCircle
 10
94.2932197764
 20
-1506.7915793801
 30
0.0
 40
8.350909690330202
100
AcDbArc
 50
238.0439891511
 51
257.9473765991
  0
LINE
  5
24C
330
1F
100
AcDbEntity
  8
0
  6
Continuous
 62
     7
370
    25
100
AcDbLine
 10
88.9298567027
 20
-1512.4702706017
 30
0.0
 11
88.9321630929
 21
-1512.4126392831
 31
0.0
  0
LWPOLYLINE
  5
24D
330
1F
100
AcDbEntity
  8
0
  6
Continuous
 62
     7
370
    25
100
AcDbPolyline
 90
       13
 70
   128
 43
0.0
 10
1353.9595894333
 20
-1949.9718867433
 10
1354.4936199145
 20
-1950.4262347877
 10
1355.2776088632
 20
-1951.3349168479
 10
1356.0070280533
 20
-1952.4820594439
 10
1356.6608934226
 20
-1953.8346613718
 10
1357.220394455
 20
-1955.353810737
 10
1357.6694353244
 20
-1956.9958043779
 10
1357.9950979427
 20
-1958.7134051273
 10
1358.1880135893
 20
-1960.4572007386
 10
1358.2426324321
 20
-1962.1770253872
 10
1358.1573831866
 20
-1963.8234028491
 10
1357.9347183184
 20
-1965.3489698424
 10
1357.5810434902
 20
-1966.7098385821
  0
LINE
  5
24E
330
1F
100
AcDbEntity
  8
0
  6
Continuous
 62
     7
370
    25
100
AcDbLine
 10
1354.349350795
 20
-1970.3419727056
 30
0.0
 11
1354.1617215124
 21
-1970.3596958744
 31
0.0
  0
ARC
  5
24F
330
1F
100
AcDbEntity
  8
0
  6
Continuous
 62
     7
370
    25
100
AcDbCircle
 10
258.5391438313
 20
-1395.292165593
 30
0.0
 40
2.11811462558603
100
AcDbArc
 50
354.0574619079
 51
98.4981497846
  0
ARC
  5
250
330
1F
100
AcDbEntity
  8
0
  6
Continuous
 62
     7
370
    25
100
AcDbCircle
 10
616.9786102485
 20
-1436.6892843504
 30
0.0
 40
358.7040993621038
100
AcDbArc
 50
173.4081360002
 51
186.5918639998
  0
ARC
  5
251
330
1F
100
AcDbEntity
  8
0
  6
Continuous
 62
     7
370
    25
100
AcDbCircle
 10
258.0237650034
 20
-1478.2105082331
 30
0.0
 40
2.644501399309752
100
AcDbArc
 50
274.388822644
 51
7.4610808291
  0
ARC
  5
252
330
1F
100
AcDbEntity
  8
0
  6
Continuous
 62
     7
370
    25
100
AcDbCircle
 10
288.4631940159
 20
-1979.2636743537
 30
0.0
 40
499.3327615005637
100
AcDbArc
 50
93.4716657648
 51
102.199592331
  0
LWPOLYLINE
  5
253
330
1F
100
AcDbEntity
  8
0
  6
Continuous
 62
     7
370
    25
100
AcDbPolyline
 90
       18
 70
   128
 43
0.0
 10
180.5255304434
 20
-1488.8929963247
 10
180.5503000161
 20
-1489.0759891305
 10
180.6283331092
 20
-1489.4379559306
 10
180.6818289824
 20
-1489.6151483858
 10
180.7538284042
 20
-1489.8103728189
 10
180.9362479817
 20
-1490.183175289
 10
181.046646016
 20
-1490.3574504541
 10
181.2925086215
 20
-1490.6603194483
 10
181.4287693647
 20
-1490.7909281742
 10
181.5836277988
 20
-1490.9143293697
 10
181.7391681927
 20
-1491.0153144773
 10
181.9004394516
 20
-1491.0986644564
 10
182.0662233681
 20
-1491.1638849085
 10
182.2485063632
 20
-1491.2135106179
 10
182.4197066153
 20
-1491.2402431143
 10
182.5916638621
 20
-1491.2484081496
 10
182.7632120658
 20
-1491.2381763018
 10
182.945272429
 20
-1491.2071459354
  0
ARC
  5
254
330
1F
100
AcDbEntity
  8
0
  6
Continuous
 62
     7
370
    25
100
AcDbCircle
 10
540.5158916898
 20
-1447.715168104
 30
0.0
 40
362.3377895380948
100
AcDbArc
 50
173.4745310397
 51
186.5254689603
  0
ARC
  5
255
330
1F
100
AcDbEntity
  8
0
  6
Continuous
 62
     7
370
    25
100
AcDbCircle
 10
184.0454853243
 20
-1406.9229529921
 30
0.0
 40
3.541013955544256
100
AcDbArc
 50
108.101758863
 51
173.7481446102
  0
ARC
  5
256
330
1F
100
AcDbEntity
  8
0
  6
Continuous
 62
     7
370
    25
100
AcDbCircle
 10
287.0507382454
 20
-1881.3500183116
 30
0.0
 40
489.0029936807711
100
AcDbArc
 50
93.3792963949
 51
102.2919617009
  0
ARC
  5
257
330
1F
100
AcDbEntity
  8
0
  6
Continuous
 62
     7
370
    25
100
AcDbCircle
 10
214.5763235342
 20
-1442.2971538167
 30
0.0
 40
8.38459241144737
100
AcDbArc
 50
244.2821085615
 51
278.3646316728
  0
LWPOLYLINE
  5
258
330
1F
100
AcDbEntity
  8
0
  6
Continuous
 62
     7
370
    25
100
AcDbPolyline
 90
       18
 70
   128
 43
0.0
 10
220.6541896099
 20
-1429.8903723083
 10
221.0341987137
 20
-1430.0879817338
 10
222.2951280801
 20
-1430.9510312772
 10
223.3877347309
 20
-1432.0450975483
 10
224.2837207276
 20
-1433.3418448052
 10
224.9598805036
 20
-1434.8076879751
 10
225.3987018759
 20
-1436.4046624901
 10
225.5888196014
 20
-1438.0914075488
 10
225.525309731
 20
-1439.8242373405
 10
225.2098171368
 20
-1441.5582724835
 10
224.6505129114
 20
-1443.2486023787
 10
223.8618827403
 20
-1444.8514483696
 10
222.8643517309
 20
-1446.3252975869
 10
221.6837554123
 20
-1447.6319781102
 10
220.3506706089
 20
-1448.7376476002
 10
218.8996235169
 20
-1449.6136697979
 10
217.3681954939
 20
-1450.2373561886
 10
215.7960497211
 20
-1450.5925536223
  0
ARC
  5
259
330
1F
100
AcDbEntity
  8
0
  6
Continuous
 62
     7
370
    25
100
AcDbCircle
 10
260.9064878481
 20
-1400.2397119806
 30
0.0
 40
4.735432591586708
100
AcDbArc
 50
52.8361855647
 51
93.1548323756
  0
ARC
  5
25A
330
1F
100
AcDbEntity
  8
0
  6
Continuous
 62
     7
370
    25
100
AcDbCircle
 10
618.4339165924
 20
-1437.0348755306
 30
0.0
 40
356.9794873329533
100
AcDbArc
 50
173.4745310397
 51
186.5254689603
  0
ARC
  5
25B
330
1F
100
AcDbEntity
  8
0
  6
Continuous
 62
     7
370
    25
100
AcDbCircle
 10
264.9939916861
 20
-1510.7728341714
 30
0.0
 40
33.19175533785893
100
AcDbArc
 50
92.1182742859
 51
97.5273745482
  0
ARC
  5
25C
330
1F
100
AcDbEntity
  8
0
  6
Continuous
 62
     7
370
    25
100
AcDbCircle
 10
287.3092734328
 20
-1964.5184880961
 30
0.0
 40
481.7715486179441
100
AcDbArc
 50
93.3792963949
 51
102.2919617009
  0
ARC
  5
25D
330
1F
100
AcDbEntity
  8
0
  6
Continuous
 62
     7
370
    25
100
AcDbCircle
 10
186.0643836249
 20
-1490.9545228188
 30
0.0
 40
3.129324702198976
100
AcDbArc
 50
184.6303938992
 51
245.0294921483
  0
ARC
  5
25E
330
1F
100
AcDbEntity
  8
0
  6
Continuous
 62
     7
370
    25
100
AcDbCircle
 10
263.5871685707
 20
-1480.960468294
 30
0.0
 40
5.362229638867029
100
AcDbArc
 50
178.7902202626
 51
209.2999742262
  0
LINE
  5
25F
330
1F
100
AcDbEntity
  8
0
  6
Continuous
 62
     7
370
    25
100
AcDbLine
 10
271.9020617265
 20
-1481.5635767334
 30
0.0
 11
271.9020617265
 21
-1400.4258073251
 31
0.0
  0
LINE
  5
260
330
1F
100
AcDbEntity
  8
0
  6
Continuous
 62
     7
370
    25
100
AcDbLine
 10
263.7671434512
 20
-1477.6037602347
 30
0.0
 11
271.9020617265
 21
-1481.5635767334
 31
0.0
  0
LINE
  5
261
330
1F
100
AcDbEntity
  8
0
  6
Continuous
 62
     7
370
    25
100
AcDbLine
 10
263.7671434512
 20
-1396.4659908264
 30
0.0
 11
271.9020617265
 21
-1400.4258073251
 31
0.0
  0
ARC
  5
262
330
1F
100
AcDbEntity
  8
0
  6
Continuous
 62
     7
370
    25
100
AcDbCircle
 10
258.1514957646
 20
-1478.0060629179
 30
0.0
 40
5.630039643606457
100
AcDbArc
 50
277.7522579222
 51
4.0976455509
  0
LINE
  5
263
330
1F
100
AcDbEntity
  8
0
  6
Continuous
 62
     7
370
    25
100
AcDbLine
 10
192.8782521656
 20
-1497.7511510297
 30
0.0
 11
267.0458499658
 21
-1487.5444637767
 31
0.0
  0
LINE
  5
264
330
1F
100
AcDbEntity
  8
0
  6
Continuous
 62
     7
370
    25
100
AcDbLine
 10
184.7433338903
 20
-1493.791334531
 30
0.0
 11
192.8782521656
 21
-1497.7511510297
 31
0.0
  0
LINE
  5
265
330
1F
100
AcDbEntity
  8
0
  6
Continuous
 62
     7
370
    25
100
AcDbLine
 10
258.9109316905
 20
-1483.584647278
 30
0.0
 11
267.0458499658
 21
-1487.5444637767
 31
0.0
  0
ARC
  5
266
330
1F
100
AcDbEntity
  8
0
  6
Continuous
 62
     7
370
    25
100
AcDbCircle
 10
265.8930936149
 20
-1481.64652089
 30
0.0
 40
6.00954053977307
100
AcDbArc
 50
281.0590774566
 51
0.7908260166
  0
ARC
  5
267
330
1F
100
AcDbEntity
  8
0
  6
Continuous
 62
     7
370
    25
100
AcDbCircle
 10
267.3029631905
 20
-1400.2196542034
 30
0.0
 40
4.603716591347212
100
AcDbArc
 50
357.4334530258
 51
62.1583283125
  0
ARC
  5
268
330
1F
100
AcDbEntity
  8
0
  6
Continuous
 62
     7
370
    25
100
AcDbCircle
 10
192.2749184292
 20
-1493.6340349152
 30
0.0
 40
4.161088403010927
100
AcDbArc
 50
244.3097961816
 51
278.3369440527
  0
ARC
  5
269
330
1F
100
AcDbEntity
  8
0
  6
Continuous
 62
     7
370
    25
100
AcDbCircle
 10
90.8205695742
 20
-445.4158346124
 30
0.0
 40
2.118114625585807
100
AcDbArc
 50
174.0574619079
 51
278.4981497846
  0
ARC
  5
26A
330
1F
100
AcDbEntity
  8
0
  6
Continuous
 62
     7
370
    25
100
AcDbCircle
 10
-267.618896843
 20
-404.018715855
 30
0.0
 40
358.7040993621148
100
AcDbArc
 50
353.4081360002
 51
6.5918639998
  0
ARC
  5
26B
330
1F
100
AcDbEntity
  8
0
  6
Continuous
 62
     7
370
    25
100
AcDbCircle
 10
91.335948402
 20
-362.4974919723
 30
0.0
 40
2.644501399309539
100
AcDbArc
 50
94.388822644
 51
187.4610808291
  0
ARC
  5
26C
330
1F
100
AcDbEntity
  8
0
  6
Continuous
 62
     7
370
    25
100
AcDbCircle
 10
60.8965193895
 20
138.5556741483
 30
0.0
 40
499.332761500541
100
AcDbArc
 50
273.4716657648
 51
282.199592331
  0
LWPOLYLINE
  5
26D
330
1F
100
AcDbEntity
  8
0
  6
Continuous
 62
     7
370
    25
100
AcDbPolyline
 90
       18
 70
   128
 43
0.0
 10
168.8341829621
 20
-351.8150038807
 10
168.8094133893
 20
-351.6320110748
 10
168.7313802962
 20
-351.2700442748
 10
168.677884423
 20
-351.0928518196
 10
168.6058850013
 20
-350.8976273865
 10
168.4234654238
 20
-350.5248249164
 10
168.3130673895
 20
-350.3505497513
 10
168.0672047839
 20
-350.0476807571
 10
167.9309440407
 20
-349.9170720312
 10
167.7760856066
 20
-349.7936708357
 10
167.6205452127
 20
-349.6926857281
 10
167.4592739538
 20
-349.609335749
 10
167.2934900373
 20
-349.5441152969
 10
167.1112070423
 20
-349.4944895875
 10
166.9400067901
 20
-349.4677570911
 10
166.7680495433
 20
-349.4595920558
 10
166.5965013396
 20
-349.4698239036
 10
166.4144409765
 20
-349.50085427
  0
ARC
  5
26E
330
1F
100
AcDbEntity
  8
0
  6
Continuous
 62
     7
370
    25
100
AcDbCircle
 10
-191.1561782844
 20
-392.9928321014
 30
0.0
 40
362.3377895381003
100
AcDbArc
 50
353.4745310397
 51
6.5254689603
  0
ARC
  5
26F
330
1F
100
AcDbEntity
  8
0
  6
Continuous
 62
     7
370
    25
100
AcDbCircle
 10
165.3142280812
 20
-433.7850472133
 30
0.0
 40
3.541013955543584
100
AcDbArc
 50
288.101758863
 51
353.7481446102
  0
ARC
  5
270
330
1F
100
AcDbEntity
  8
0
  6
Continuous
 62
     7
370
    25
100
AcDbCircle
 10
62.30897516
 20
40.6420181062
 30
0.0
 40
489.0029936807297
100
AcDbArc
 50
273.3792963949
 51
282.2919617009
  0
ARC
  5
271
330
1F
100
AcDbEntity
  8
0
  6
Continuous
 62
     7
370
    25
100
AcDbCircle
 10
134.7833898712
 20
-398.4108463887
 30
0.0
 40
8.38459241145221
100
AcDbArc
 50
64.2821085615
 51
98.3646316727
  0
LWPOLYLINE
  5
272
330
1F
100
AcDbEntity
  8
0
  6
Continuous
 62
     7
370
    25
100
AcDbPolyline
 90
       18
 70
   128
 43
0.0
 10
128.7055237955
 20
-410.817627897
 10
128.3255146917
 20
-410.6200184716
 10
127.0645853253
 20
-409.7569689281
 10
125.9719786746
 20
-408.6629026571
 10
125.0759926779
 20
-407.3661554002
 10
124.3998329018
 20
-405.9003122302
 10
123.9610115295
 20
-404.3033377153
 10
123.770893804
 20
-402.6165926565
 10
123.8344036745
 20
-400.8837628649
 10
124.1498962687
 20
-399.1497277219
 10
124.7092004941
 20
-397.4593978267
 10
125.4978306651
 20
-395.8565518358
 10
126.4953616745
 20
-394.3827026185
 10
127.6759579932
 20
-393.0760220952
 10
129.0090427966
 20
-391.9703526052
 10
130.4600898885
 20
-391.0943304075
 10
131.9915179116
 20
-390.4706440168
 10
133.5636636843
 20
-390.1154465831
  0
ARC
  5
273
330
1F
100
AcDbEntity
  8
0
  6
Continuous
 62
     7
370
    25
100
AcDbCircle
 10
88.4532255573
 20
-440.4682882247
 30
0.0
 40
4.735432591585823
100
AcDbArc
 50
232.8361855647
 51
273.1548323756
  0
ARC
  5
274
330
1F
100
AcDbEntity
  8
0
  6
Continuous
 62
     7
370
    25
100
AcDbCircle
 10
-269.0742031869
 20
-403.6731246748
 30
0.0
 40
356.9794873329474
100
AcDbArc
 50
353.4745310397
 51
6.5254689603
  0
ARC
  5
275
330
1F
100
AcDbEntity
  8
0
  6
Continuous
 62
     7
370
    25
100
AcDbCircle
 10
84.3657217194
 20
-329.9351660341
 30
0.0
 40
33.1917553377904
100
AcDbArc
 50
272.1182742858
 51
277.5273745482
  0
ARC
  5
276
330
1F
100
AcDbEntity
  8
0
  6
Continuous
 62
     7
370
    25
100
AcDbCircle
 10
62.0504399726
 20
123.8104878906
 30
0.0
 40
481.7715486179226
100
AcDbArc
 50
273.3792963949
 51
282.2919617009
  0
ARC
  5
277
330
1F
100
AcDbEntity
  8
0
  6
Continuous
 62
     7
370
    25
100
AcDbCircle
 10
163.2953297805
 20
-349.7534773866
 30
0.0
 40
3.129324702199457
100
AcDbArc
 50
4.6303938992
 51
65.0294921483
  0
ARC
  5
278
330
1F
100
AcDbEntity
  8
0
  6
Continuous
 62
     7
370
    25
100
AcDbCircle
 10
85.7725448347
 20
-359.7475319114
 30
0.0
 40
5.362229638870217
100
AcDbArc
 50
358.7902202626
 51
29.2999742262
  0
LINE
  5
279
330
1F
100
AcDbEntity
  8
0
  6
Continuous
 62
     7
370
    25
100
AcDbLine
 10
77.4576516789
 20
-359.144423472
 30
0.0
 11
77.4576516789
 21
-440.2821928803
 31
0.0
  0
LINE
  5
27A
330
1F
100
AcDbEntity
  8
0
  6
Continuous
 62
     7
370
    25
100
AcDbLine
 10
85.5925699542
 20
-363.1042399707
 30
0.0
 11
77.4576516789
 21
-359.144423472
 31
0.0
  0
LINE
  5
27B
330
1F
100
AcDbEntity
  8
0
  6
Continuous
 62
     7
370
    25
100
AcDbLine
 10
85.5925699542
 20
-444.242009379
 30
0.0
 11
77.4576516789
 21
-440.2821928803
 31
0.0
  0
ARC
  5
27C
330
1F
100
AcDbEntity
  8
0
  6
Continuous
 62
     7
370
    25
100
AcDbCircle
 10
91.2082176408
 20
-362.7019372875
 30
0.0
 40
5.630039643606453
100
AcDbArc
 50
97.7522579222
 51
184.0976455509
  0
LINE
  5
27D
330
1F
100
AcDbEntity
  8
0
  6
Continuous
 62
     7
370
    25
100
AcDbLine
 10
156.4814612398
 20
-342.9568491757
 30
0.0
 11
82.3138634397
 21
-353.1635364287
 31
0.0
  0
LINE
  5
27E
330
1F
100
AcDbEntity
  8
0
  6
Continuous
 62
     7
370
    25
100
AcDbLine
 10
164.6163795151
 20
-346.9166656744
 30
0.0
 11
156.4814612398
 21
-342.9568491757
 31
0.0
  0
LINE
  5
27F
330
1F
100
AcDbEntity
  8
0
  6
Continuous
 62
     7
370
    25
100
AcDbLine
 10
90.448781715
 20
-357.1233529274
 30
0.0
 11
82.3138634397
 21
-353.1635364287
 31
0.0
  0
ARC
  5
280
330
1F
100
AcDbEntity
  8
0
  6
Continuous
 62
     7
370
    25
100
AcDbCircle
 10
83.4666197905
 20
-359.0614793154
 30
0.0
 40
6.009540539773315
100
AcDbArc
 50
101.0590774566
 51
180.7908260166
  0
ARC
  5
281
330
1F
100
AcDbEntity
  8
0
  6
Continuous
 62
     7
370
    25
100
AcDbCircle
 10
82.0567502149
 20
-440.4883460019
 30
0.0
 40
4.603716591349147
100
AcDbArc
 50
177.4334530259
 51
242.1583283125
  0
ARC
  5
282
330
1F
100
AcDbEntity
  8
0
  6
Continuous
 62
     7
370
    25
100
AcDbCircle
 10
157.0847949763
 20
-347.0739652902
 30
0.0
 40
4.161088403013034
100
AcDbArc
 50
64.3097961816
 51
98.3369440526
  0
ARC
  5
283
330
1F
100
AcDbEntity
  8
0
  6
Continuous
 62
     7
370
    25
100
AcDbCircle
 10
258.0269926218
 20
-362.4948712911
 30
0.0
 40
2.641643134329123
100
AcDbArc
 50
352.4734689148
 51
85.6766276121
  0
ARC
  5
284
330
1F
100
AcDbEntity
  8
0
  6
Continuous
 62
     7
370
    25
100
AcDbCircle
 10
620.6362374356
 20
-404.018715855
 30
0.0
 40
362.337789538075
100
AcDbArc
 50
173.4745310397
 51
186.5254689603
  0
ARC
  5
285
330
1F
100
AcDbEntity
  8
0
  6
Continuous
 62
     7
370
    25
100
AcDbCircle
 10
258.5525308364
 20
-445.4298324535
 30
0.0
 40
2.106304401742204
100
AcDbArc
 50
261.0854216515
 51
6.358966656
  0
ARC
  5
286
330
1F
100
AcDbEntity
  8
0
  6
Continuous
 62
     7
370
    25
100
AcDbCircle
 10
288.463194016
 20
50.9057255073
 30
0.0
 40
499.3327615008311
100
AcDbArc
 50
257.800407669
 51
266.5283342352
  0
ARC
  5
287
330
1F
100
AcDbEntity
  8
0
  6
Continuous
 62
     7
370
    25
100
AcDbCircle
 10
184.0309922708
 20
-433.796814922
 30
0.0
 40
3.525340126458335
100
AcDbArc
 50
186.0873883583
 51
252.0627081686
  0
ARC
  5
288
330
1F
100
AcDbEntity
  8
0
  6
Continuous
 62
     7
370
    25
100
AcDbCircle
 10
536.8582645027
 20
-392.9928321014
 30
0.0
 40
358.7040993621397
100
AcDbArc
 50
173.4081360002
 51
186.5918639998
  0
ARC
  5
289
330
1F
100
AcDbEntity
  8
0
  6
Continuous
 62
     7
370
    25
100
AcDbCircle
 10
182.776309258
 20
-351.7463324992
 30
0.0
 40
2.251826154754327
100
AcDbArc
 50
85.6968331353
 51
181.7475551721
  0
ARC
  5
28A
330
1F
100
AcDbEntity
  8
0
  6
Continuous
 62
     7
370
    25
100
AcDbCircle
 10
287.0507382455
 20
128.2919667477
 30
0.0
 40
489.0029936809569
100
AcDbArc
 50
257.7080382991
 51
266.6207036051
  0
LWPOLYLINE
  5
28B
330
1F
100
AcDbEntity
  8
0
  6
Continuous
 62
     7
370
    25
100
AcDbPolyline
 90
       21
 70
   128
 43
0.0
 10
210.9379098323
 20
-390.8568186128
 10
211.9544954024
 20
-390.4447477523
 10
213.4505843153
 20
-390.1042271229
 10
215.0074195501
 20
-390.0416854556
 10
216.5846798921
 20
-390.2587425466
 10
218.141515127
 20
-390.7497767314
 10
219.6376040398
 20
-391.5020704824
 10
221.0341987137
 20
-392.4961397867
 10
222.2951280801
 20
-393.7062387715
 10
223.3877347309
 20
-395.1010265086
 10
224.2837207276
 20
-396.6443787284
 10
224.9598805036
 20
-398.296323419
 10
225.3987018759
 20
-400.0140760807
 10
225.5888196014
 20
-401.7531478219
 10
225.525309731
 20
-403.4684975978
 10
225.2098171368
 20
-405.1156987505
 10
224.6505129114
 20
-406.6520896351
 10
223.8618827403
 20
-408.037878535
 10
222.8643517309
 20
-409.2371742454
 10
221.6837554123
 20
-410.2189156374
 10
220.6541896099
 20
-410.817627897
  0
ARC
  5
28C
330
1F
100
AcDbEntity
  8
0
  6
Continuous
 62
     7
370
    25
100
AcDbCircle
 10
264.993991686
 20
-329.9351660345
 30
0.0
 40
33.19175533737034
100
AcDbArc
 50
262.4726254518
 51
267.8817257142
  0
ARC
  5
28D
330
1F
100
AcDbEntity
  8
0
  6
Continuous
 62
     7
370
    25
100
AcDbCircle
 10
614.8303789106
 20
-403.6731246748
 30
0.0
 40
353.3995326784931
100
AcDbArc
 50
173.4081360002
 51
186.5918639998
  0
ARC
  5
28E
330
1F
100
AcDbEntity
  8
0
  6
Continuous
 62
     7
370
    25
100
AcDbCircle
 10
260.9064878481
 20
-440.4682882247
 30
0.0
 40
4.735432591580452
100
AcDbArc
 50
266.8451676244
 51
307.1638144354
  0
ARC
  5
28F
330
1F
100
AcDbEntity
  8
0
  6
Continuous
 62
     7
370
    25
100
AcDbCircle
 10
186.0643836249
 20
-349.7534773866
 30
0.0
 40
3.129324702201015
100
AcDbArc
 50
114.9705078518
 51
175.3696061008
  0
ARC
  5
290
330
1F
100
AcDbEntity
  8
0
  6
Continuous
 62
     7
370
    25
100
AcDbCircle
 10
288.7008416087
 20
133.9224141424
 30
0.0
 40
491.9485583778904
100
AcDbArc
 50
257.800407669
 51
266.5283342352
  0
ARC
  5
291
330
1F
100
AcDbEntity
  8
0
  6
Continuous
 62
     7
370
    25
100
AcDbCircle
 10
263.5871685707
 20
-359.7475319114
 30
0.0
 40
5.362229638868813
100
AcDbArc
 50
150.7000257738
 51
181.2097797374
  0
LINE
  5
292
330
1F
100
AcDbEntity
  8
0
  6
Continuous
 62
     7
370
    25
100
AcDbLine
 10
271.9020617265
 20
-440.2821928803
 30
0.0
 11
271.9020617265
 21
-359.144423472
 31
0.0
  0
LINE
  5
293
330
1F
100
AcDbEntity
  8
0
  6
Continuous
 62
     7
370
    25
100
AcDbLine
 10
263.7671434512
 20
-444.242009379
 30
0.0
 11
271.9020617265
 21
-440.2821928803
 31
0.0
  0
LINE
  5
294
330
1F
100
AcDbEntity
  8
0
  6
Continuous
 62
     7
370
    25
100
AcDbLine
 10
263.7671434512
 20
-363.1042399707
 30
0.0
 11
271.9020617265
 21
-359.144423472
 31
0.0
  0
ARC
  5
295
330
1F
100
AcDbEntity
  8
0
  6
Continuous
 62
     7
370
    25
100
AcDbCircle
 10
258.1452503891
 20
-362.7070082521
 30
0.0
 40
5.635909388937363
100
AcDbArc
 50
355.9583120075
 51
82.1917845193
  0
LINE
  5
296
330
1F
100
AcDbEntity
  8
0
  6
Continuous
 62
     7
370
    25
100
AcDbLine
 10
267.0458499658
 20
-353.1635364287
 30
0.0
 11
192.8782521656
 21
-342.9568491757
 31
0.0
  0
LINE
  5
297
330
1F
100
AcDbEntity
  8
0
  6
Continuous
 62
     7
370
    25
100
AcDbLine
 10
258.9109316905
 20
-357.1233529274
 30
0.0
 11
267.0458499658
 21
-353.1635364287
 31
0.0
  0
LINE
  5
298
330
1F
100
AcDbEntity
  8
0
  6
Continuous
 62
     7
370
    25
100
AcDbLine
 10
184.7433338903
 20
-346.9166656744
 30
0.0
 11
192.8782521656
 21
-342.9568491757
 31
0.0
  0
ARC
  5
299
330
1F
100
AcDbEntity
  8
0
  6
Continuous
 62
     7
370
    25
100
AcDbCircle
 10
265.8930936149
 20
-359.0614793154
 30
0.0
 40
6.009540539773394
100
AcDbArc
 50
359.2091739834
 51
78.9409225434
  0
ARC
  5
29A
330
1F
100
AcDbEntity
  8
0
  6
Continuous
 62
     7
370
    25
100
AcDbCircle
 10
267.3029631905
 20
-440.4883460019
 30
0.0
 40
4.603716591351144
100
AcDbArc
 50
297.8416716875
 51
2.5665469741
  0
ARC
  5
29B
330
1F
100
AcDbEntity
  8
0
  6
Continuous
 62
     7
370
    25
100
AcDbCircle
 10
192.2749184292
 20
-347.0739652902
 30
0.0
 40
4.16108840300783
100
AcDbArc
 50
81.6630559474
 51
115.6902038184
  0
ARC
  5
29C
330
1F
100
AcDbEntity
  8
0
  6
Continuous
 62
     7
370
    25
100
AcDbCircle
 10
91.3327207837
 20
-1478.2131289143
 30
0.0
 40
2.641643134329032
100
AcDbArc
 50
172.4734689148
 51
265.6766276121
  0
ARC
  5
29D
330
1F
100
AcDbEntity
  8
0
  6
Continuous
 62
     7
370
    25
100
AcDbCircle
 10
-271.2765240301
 20
-1436.6892843504
 30
0.0
 40
362.3377895380733
100
AcDbArc
 50
353.4745310397
 51
6.5254689603
  0
ARC
  5
29E
330
1F
100
AcDbEntity
  8
0
  6
Continuous
 62
     7
370
    25
100
AcDbCircle
 10
90.807182569
 20
-1395.2781677519
 30
0.0
 40
2.106304401742251
100
AcDbArc
 50
81.0854216515
 51
186.358966656
  0
ARC
  5
29F
330
1F
100
AcDbEntity
  8
0
  6
Continuous
 62
     7
370
    25
100
AcDbCircle
 10
60.8965193895
 20
-1891.6137257127
 30
0.0
 40
499.3327615007862
100
AcDbArc
 50
77.800407669
 51
86.5283342352
  0
ARC
  5
2A0
330
1F
100
AcDbEntity
  8
0
  6
Continuous
 62
     7
370
    25
100
AcDbCircle
 10
165.3287211346
 20
-1406.9111852834
 30
0.0
 40
3.525340126458939
100
AcDbArc
 50
6.0873883582
 51
72.0627081686
  0
ARC
  5
2A1
330
1F
100
AcDbEntity
  8
0
  6
Continuous
 62
     7
370
    25
100
AcDbCircle
 10
-187.4985510973
 20
-1447.715168104
 30
0.0
 40
358.7040993621373
100
AcDbArc
 50
353.4081360002
 51
6.5918639998
  0
ARC
  5
2A2
330
1F
100
AcDbEntity
  8
0
  6
Continuous
 62
     7
370
    25
100
AcDbCircle
 10
166.5834041474
 20
-1488.9616677061
 30
0.0
 40
2.251826154754905
100
AcDbArc
 50
265.6968331354
 51
1.7475551721
  0
ARC
  5
2A3
330
1F
100
AcDbEntity
  8
0
  6
Continuous
 62
     7
370
    25
100
AcDbCircle
 10
62.30897516
 20
-1968.9999669531
 30
0.0
 40
489.0029936808882
100
AcDbArc
 50
77.7080382991
 51
86.6207036051
  0
LWPOLYLINE
  5
2A4
330
1F
100
AcDbEntity
  8
0
  6
Continuous
 62
     7
370
    25
100
AcDbPolyline
 90
       21
 70
   128
 43
0.0
 10
138.4218035731
 20
-1449.8511815926
 10
137.405218003
 20
-1450.2632524531
 10
135.9091290902
 20
-1450.6037730825
 10
134.3522938553
 20
-1450.6663147498
 10
132.7750335133
 20
-1450.4492576588
 10
131.2181982785
 20
-1449.958223474
 10
129.7221093656
 20
-1449.205929723
 10
128.3255146917
 20
-1448.2118604187
 10
127.0645853253
 20
-1447.0017614339
 10
125.9719786746
 20
-1445.6069736968
 10
125.0759926779
 20
-1444.063621477
 10
124.3998329018
 20
-1442.4116767863
 10
123.9610115295
 20
-1440.6939241246
 10
123.770893804
 20
-1438.9548523835
 10
123.8344036745
 20
-1437.2395026075
 10
124.1498962687
 20
-1435.5923014549
 10
124.7092004941
 20
-1434.0559105702
 10
125.4978306651
 20
-1432.6701216704
 10
126.4953616745
 20
-1431.47082596
 10
127.6759579932
 20
-1430.489084568
 10
128.7055237955
 20
-1429.8903723083
  0
ARC
  5
2A5
330
1F
100
AcDbEntity
  8
0
  6
Continuous
 62
     7
370
    25
100
AcDbCircle
 10
84.3657217194
 20
-1510.772834171
 30
0.0
 40
33.19175533744041
100
AcDbArc
 50
82.4726254518
 51
87.8817257142
  0
ARC
  5
2A6
330
1F
100
AcDbEntity
  8
0
  6
Continuous
 62
     7
370
    25
100
AcDbCircle
 10
-265.4706655052
 20
-1437.0348755306
 30
0.0
 40
353.3995326784915
100
AcDbArc
 50
353.4081360002
 51
6.5918639998
  0
ARC
  5
2A7
330
1F
100
AcDbEntity
  8
0
  6
Continuous
 62
     7
370
    25
100
AcDbCircle
 10
88.4532255573
 20
-1400.2397119806
 30
0.0
 40
4.735432591581091
100
AcDbArc
 50
86.8451676244
 51
127.1638144354
  0
ARC
  5
2A8
330
1F
100
AcDbEntity
  8
0
  6
Continuous
 62
     7
370
    25
100
AcDbCircle
 10
163.2953297805
 20
-1490.9545228188
 30
0.0
 40
3.129324702200996
100
AcDbArc
 50
294.9705078518
 51
355.3696061008
  0
ARC
  5
2A9
330
1F
100
AcDbEntity
  8
0
  6
Continuous
 62
     7
370
    25
100
AcDbCircle
 10
60.6588717968
 20
-1974.6304143478
 30
0.0
 40
491.9485583778858
100
AcDbArc
 50
77.800407669
 51
86.5283342352
  0
ARC
  5
2AA
330
1F
100
AcDbEntity
  8
0
  6
Continuous
 62
     7
370
    25
100
AcDbCircle
 10
85.7725448347
 20
-1480.960468294
 30
0.0
 40
5.362229638867638
100
AcDbArc
 50
330.7000257738
 51
1.2097797374
  0
LINE
  5
2AB
330
1F
100
AcDbEntity
  8
0
  6
Continuous
 62
     7
370
    25
100
AcDbLine
 10
77.4576516789
 20
-1400.4258073251
 30
0.0
 11
77.4576516789
 21
-1481.5635767334
 31
0.0
  0
LINE
  5
2AC
330
1F
100
AcDbEntity
  8
0
  6
Continuous
 62
     7
370
    25
100
AcDbLine
 10
85.5925699542
 20
-1396.4659908264
 30
0.0
 11
77.4576516789
 21
-1400.4258073251
 31
0.0
  0
LINE
  5
2AD
330
1F
100
AcDbEntity
  8
0
  6
Continuous
 62
     7
370
    25
100
AcDbLine
 10
85.5925699542
 20
-1477.6037602347
 30
0.0
 11
77.4576516789
 21
-1481.5635767334
 31
0.0
  0
ARC
  5
2AE
330
1F
100
AcDbEntity
  8
0
  6
Continuous
 62
     7
370
    25
100
AcDbCircle
 10
91.2144630164
 20
-1478.0009919533
 30
0.0
 40
5.635909388937239
100
AcDbArc
 50
175.9583120075
 51
262.1917845193
  0
LINE
  5
2AF
330
1F
100
AcDbEntity
  8
0
  6
Continuous
 62
     7
370
    25
100
AcDbLine
 10
82.3138634397
 20
-1487.5444637767
 30
0.0
 11
156.4814612398
 21
-1497.7511510297
 31
0.0
  0
LINE
  5
2B0
330
1F
100
AcDbEntity
  8
0
  6
Continuous
 62
     7
370
    25
100
AcDbLine
 10
90.448781715
 20
-1483.584647278
 30
0.0
 11
82.3138634397
 21
-1487.5444637767
 31
0.0
  0
LINE
  5
2B1
330
1F
100
AcDbEntity
  8
0
  6
Continuous
 62
     7
370
    25
100
AcDbLine
 10
164.6163795151
 20
-1493.791334531
 30
0.0
 11
156.4814612398
 21
-1497.7511510297
 31
0.0
  0
ARC
  5
2B2
330
1F
100
AcDbEntity
  8
0
  6
Continuous
 62
     7
370
    25
100
AcDbCircle
 10
83.4666197905
 20
-1481.64652089
 30
0.0
 40
6.009540539773268
100
AcDbArc
 50
179.2091739834
 51
258.9409225434
  0
ARC
  5
2B3
330
1F
100
AcDbEntity
  8
0
  6
Continuous
 62
     7
370
    25
100
AcDbCircle
 10
82.0567502149
 20
-1400.2196542035
 30
0.0
 40
4.603716591351994
100
AcDbArc
 50
117.8416716876
 51
182.5665469741
  0
ARC
  5
2B4
330
1F
100
AcDbEntity
  8
0
  6
Continuous
 62
     7
370
    25
100
AcDbCircle
 10
157.0847949763
 20
-1493.6340349152
 30
0.0
 40
4.161088403010449
100
AcDbArc
 50
261.6630559474
 51
295.6902038184
  0
LWPOLYLINE
  5
2B5
330
1F
100
AcDbEntity
  8
0
  6
Continuous
 62
     7
370
    25
100
AcDbPolyline
 90
       23
 70
   128
 43
0.0
 10
139.491281399
 20
-394.7229088347
 10
138.8321513478
 20
-394.0687299114
 10
137.7139282994
 20
-393.2988134271
 10
136.4595791573
 20
-392.788142654
 10
135.1118192769
 20
-392.5541078727
 10
133.7165450047
 20
-392.6046788571
 10
132.3212707325
 20
-392.9381334729
 10
130.9735108521
 20
-393.5431163231
 10
129.71916171
 20
-394.3990254423
 10
128.6009386616
 20
-395.4767138721
 10
127.6569214517
 20
-396.7394822255
 10
126.9192574542
 20
-398.1443284408
 10
126.4130669317
 20
-399.6434121649
 10
126.1555875955
 20
-401.1856838998
 10
126.1555875955
 20
-402.7186234311
 10
126.4130669317
 20
-404.1900283417
 10
126.9192574542
 20
-405.5497917021
 10
127.6569214517
 20
-406.7516084019
 10
128.6009386616
 20
-407.7545520149
 10
129.71916171
 20
-408.5244684992
 10
130.9735108521
 20
-409.0351392723
 10
132.3212707325
 20
-409.2691740536
 10
132.4080788937
 20
-409.274409776
  0
LWPOLYLINE
  5
2B6
330
1F
100
AcDbEntity
  8
0
  6
Continuous
 62
     7
370
    25
100
AcDbPolyline
 90
       40
 70
   128
 43
0.0
 10
133.7165450047
 20
-411.633417635
 10
135.2886907774
 20
-411.2782202012
 10
136.8201188005
 20
-410.6545338106
 10
138.2711658924
 20
-409.7785116128
 10
139.6042506958
 20
-408.6728421228
 10
140.7848470145
 20
-407.3661615996
 10
141.7823780239
 20
-405.8923123822
 10
142.5710081949
 20
-404.2894663914
 10
143.1303124203
 20
-402.5991364962
 10
143.4458050145
 20
-400.8651013531
 10
143.509314885
 20
-399.1322715615
 10
143.3191971595
 20
-397.4455265027
 10
142.8803757872
 20
-395.8485519878
 10
142.2042160111
 20
-394.3827088178
 10
141.3082300144
 20
-393.0859615609
 10
140.2156233637
 20
-391.9918952899
 10
138.9546939973
 20
-391.1288457465
 10
137.5580993234
 20
-390.5191654605
 10
136.0620104105
 20
-390.1786448312
 10
134.5051751757
 20
-390.1161031638
 10
132.9279148337
 20
-390.3331602549
 10
131.3710795988
 20
-390.8241944396
 10
129.874990686
 20
-391.5764881907
 10
128.4783960121
 20
-392.570557495
 10
127.2174666457
 20
-393.7806564797
 10
126.124859995
 20
-395.1754442169
 10
125.2288739982
 20
-396.7187964367
 10
124.5527142222
 20
-398.3707411273
 10
124.1138928499
 20
-400.088493789
 10
123.9237751244
 20
-401.8275655301
 10
123.9872849949
 20
-403.5429153061
 10
124.3027775891
 20
-405.1901164587
 10
124.8620818145
 20
-406.7265073434
 10
125.6507119855
 20
-408.1122962432
 10
126.6482429949
 20
-409.3115919536
 10
127.8288393136
 20
-410.2933333457
 10
129.161924117
 20
-411.032093833
 10
130.6129712089
 20
-411.508739907
 10
132.144399232
 20
-411.7109266848
 10
133.7165450047
 20
-411.633417635
  0
ARC
  5
2B7
330
1F
100
AcDbEntity
  8
0
  6
Continuous
 62
     7
370
    25
100
AcDbCircle
 10
134.6689506077
 20
-1441.7690950487
 30
0.0
 40
6.405427327424513
100
AcDbArc
 50
261.4491394905
 51
318.8379260879
  0
LWPOLYLINE
  5
2B8
330
1F
100
AcDbEntity
  8
0
  6
Continuous
 62
     7
370
    25
100
AcDbPolyline
 90
       18
 70
   128
 43
0.0
 10
132.4080788937
 20
-1431.4335904294
 10
132.3212707325
 20
-1431.4388261518
 10
130.9735108521
 20
-1431.672860933
 10
129.71916171
 20
-1432.1835317062
 10
128.6009386616
 20
-1432.9534481905
 10
127.6569214517
 20
-1433.9563918034
 10
126.9192574542
 20
-1435.1582085033
 10
126.4130669317
 20
-1436.5179718637
 10
126.1555875955
 20
-1437.9893767743
 10
126.1555875955
 20
-1439.5223163056
 10
126.4130669317
 20
-1441.0645880404
 10
126.9192574542
 20
-1442.5636717646
 10
127.6569214517
 20
-1443.9685179799
 10
128.6009386616
 20
-1445.2312863333
 10
129.71916171
 20
-1446.3089747631
 10
130.9735108521
 20
-1447.1648838823
 10
132.3212707325
 20
-1447.7698667325
 10
133.7165450047
 20
-1448.1033213483
  0
LWPOLYLINE
  5
2B9
330
1F
100
AcDbEntity
  8
0
  6
Continuous
 62
     7
370
    25
100
AcDbPolyline
 90
       40
 70
   128
 43
0.0
 10
133.7165450047
 20
-1450.518135914
 10
135.2886907774
 20
-1450.5956449639
 10
136.8201188005
 20
-1450.3934581861
 10
138.2711658924
 20
-1449.9168121121
 10
139.6042506958
 20
-1449.1780516248
 10
140.7848470145
 20
-1448.1963102327
 10
141.7823780239
 20
-1446.9970145223
 10
142.5710081949
 20
-1445.6112256225
 10
143.1303124203
 20
-1444.0748347378
 10
143.4458050145
 20
-1442.4276335852
 10
143.509314885
 20
-1440.7122838092
 10
143.3191971595
 20
-1438.9732120681
 10
142.8803757872
 20
-1437.2554594064
 10
142.2042160111
 20
-1435.6035147157
 10
141.3082300144
 20
-1434.0601624959
 10
140.2156233637
 20
-1432.6653747588
 10
138.9546939973
 20
-1431.455275774
 10
137.5580993234
 20
-1430.4612064697
 10
136.0620104105
 20
-1429.7089127187
 10
134.5051751757
 20
-1429.2178785339
 10
132.9279148337
 20
-1429.0008214429
 10
131.3710795988
 20
-1429.0633631102
 10
129.874990686
 20
-1429.4038837396
 10
128.4783960121
 20
-1430.0135640256
 10
127.2174666457
 20
-1430.876613569
 10
126.124859995
 20
-1431.97067984
 10
125.2288739982
 20
-1433.2674270969
 10
124.5527142222
 20
-1434.7332702669
 10
124.1138928499
 20
-1436.3302447818
 10
123.9237751244
 20
-1438.0169898406
 10
123.9872849949
 20
-1439.7498196322
 10
124.3027775891
 20
-1441.4838547753
 10
124.8620818145
 20
-1443.1741846705
 10
125.6507119855
 20
-1444.7770306613
 10
126.6482429949
 20
-1446.2508798787
 10
127.8288393136
 20
-1447.5575604019
 10
129.161924117
 20
-1448.6632298919
 10
130.6129712089
 20
-1449.5392520896
 10
132.144399232
 20
-1450.1629384803
 10
133.7165450047
 20
-1450.518135914
  0
ARC
  5
2BA
330
1F
100
AcDbEntity
  8
0
  6
Continuous
 62
     7
370
    25
100
AcDbCircle
 10
214.6907627977
 20
-398.9389051566
 30
0.0
 40
6.40542732742553
100
AcDbArc
 50
81.4491394905
 51
138.8379260879
  0
LWPOLYLINE
  5
2BB
330
1F
100
AcDbEntity
  8
0
  6
Continuous
 62
     7
370
    25
100
AcDbPolyline
 90
       18
 70
   128
 43
0.0
 10
216.9516345118
 20
-409.274409776
 10
217.038442673
 20
-409.2691740536
 10
218.3862025533
 20
-409.0351392723
 10
219.6405516955
 20
-408.5244684992
 10
220.7587747439
 20
-407.7545520149
 10
221.7027919538
 20
-406.7516084019
 10
222.4404559513
 20
-405.5497917021
 10
222.9466464737
 20
-404.1900283417
 10
223.2041258099
 20
-402.7186234311
 10
223.2041258099
 20
-401.1856838998
 10
222.9466464737
 20
-399.6434121649
 10
222.4404559513
 20
-398.1443284408
 10
221.7027919538
 20
-396.7394822255
 10
220.7587747439
 20
-395.4767138721
 10
219.6405516955
 20
-394.3990254423
 10
218.3862025533
 20
-393.5431163231
 10
217.038442673
 20
-392.9381334729
 10
215.6431684007
 20
-392.6046788571
  0
LWPOLYLINE
  5
2BC
330
1F
100
AcDbEntity
  8
0
  6
Continuous
 62
     7
370
    25
100
AcDbPolyline
 90
       40
 70
   128
 43
0.0
 10
215.6431684007
 20
-390.1898642913
 10
214.071022628
 20
-390.1123552415
 10
212.539594605
 20
-390.3145420193
 10
211.088547513
 20
-390.7911880933
 10
209.7554627096
 20
-391.5299485806
 10
208.574866391
 20
-392.5116899727
 10
207.5773353815
 20
-393.7109856831
 10
206.7887052105
 20
-395.0967745829
 10
206.2294009851
 20
-396.6331654676
 10
205.9139083909
 20
-398.2803666202
 10
205.8503985205
 20
-399.9957163962
 10
206.040516246
 20
-401.7347881373
 10
206.4793376183
 20
-403.452540799
 10
207.1554973943
 20
-405.1044854897
 10
208.051483391
 20
-406.6478377094
 10
209.1440900418
 20
-408.0426254466
 10
210.4050194082
 20
-409.2527244314
 10
211.8016140821
 20
-410.2467937357
 10
213.2977029949
 20
-410.9990874867
 10
214.8545382297
 20
-411.4901216714
 10
216.4317985718
 20
-411.7071787625
 10
217.9886338066
 20
-411.6446370951
 10
219.4847227194
 20
-411.3041164658
 10
220.8813173933
 20
-410.6944361798
 10
222.1422467597
 20
-409.8313866364
 10
223.2348534105
 20
-408.7373203654
 10
224.1308394072
 20
-407.4405731085
 10
224.8069991832
 20
-405.9747299385
 10
225.2458205555
 20
-404.3777554236
 10
225.435938281
 20
-402.6910103648
 10
225.3724284106
 20
-400.9581805732
 10
225.0569358164
 20
-399.2241454301
 10
224.497631591
 20
-397.5338155349
 10
223.70900142
 20
-395.9309695441
 10
222.7114704105
 20
-394.4571203267
 10
221.5308740919
 20
-393.1504398035
 10
220.1977892885
 20
-392.0447703135
 10
218.7467421965
 20
-391.1687481158
 10
217.2153141735
 20
-390.5450617251
 10
215.6431684007
 20
-390.1898642913
  0
LWPOLYLINE
  5
2BD
330
1F
100
AcDbEntity
  8
0
  6
Continuous
 62
     7
370
    25
100
AcDbPolyline
 90
       23
 70
   128
 43
0.0
 10
209.8684320065
 20
-1445.9850913707
 10
210.5275620576
 20
-1446.639270294
 10
211.645785106
 20
-1447.4091867783
 10
212.9001342482
 20
-1447.9198575514
 10
214.2478941285
 20
-1448.1538923327
 10
215.6431684007
 20
-1448.1033213483
 10
217.038442673
 20
-1447.7698667325
 10
218.3862025533
 20
-1447.1648838823
 10
219.6405516955
 20
-1446.3089747631
 10
220.7587747439
 20
-1445.2312863333
 10
221.7027919538
 20
-1443.9685179799
 10
222.4404559513
 20
-1442.5636717646
 10
222.9466464737
 20
-1441.0645880404
 10
223.2041258099
 20
-1439.5223163056
 10
223.2041258099
 20
-1437.9893767743
 10
222.9466464737
 20
-1436.5179718637
 10
222.4404559513
 20
-1435.1582085033
 10
221.7027919538
 20
-1433.9563918034
 10
220.7587747439
 20
-1432.9534481905
 10
219.6405516955
 20
-1432.1835317062
 10
218.3862025533
 20
-1431.672860933
 10
217.038442673
 20
-1431.4388261518
 10
216.9516345118
 20
-1431.4335904294
  0
LWPOLYLINE
  5
2BE
330
1F
100
AcDbEntity
  8
0
  6
Continuous
 62
     7
370
    25
100
AcDbPolyline
 90
       40
 70
   128
 43
0.0
 10
215.6431684007
 20
-1429.0745825704
 10
214.071022628
 20
-1429.4297800041
 10
212.539594605
 20
-1430.0534663948
 10
211.088547513
 20
-1430.9294885925
 10
209.7554627096
 20
-1432.0351580825
 10
208.574866391
 20
-1433.3418386058
 10
207.5773353815
 20
-1434.8156878231
 10
206.7887052105
 20
-1436.418533814
 10
206.2294009851
 20
-1438.1088637092
 10
205.9139083909
 20
-1439.8428988522
 10
205.8503985205
 20
-1441.5757286439
 10
206.040516246
 20
-1443.2624737026
 10
206.4793376183
 20
-1444.8594482176
 10
207.1554973943
 20
-1446.3252913875
 10
208.051483391
 20
-1447.6220386444
 10
209.1440900418
 20
-1448.7161049155
 10
210.4050194082
 20
-1449.5791544589
 10
211.8016140821
 20
-1450.1888347449
 10
213.2977029949
 20
-1450.5293553742
 10
214.8545382297
 20
-1450.5918970416
 10
216.4317985718
 20
-1450.3748399505
 10
217.9886338066
 20
-1449.8838057658
 10
219.4847227194
 20
-1449.1315120147
 10
220.8813173933
 20
-1448.1374427104
 10
222.1422467597
 20
-1446.9273437257
 10
223.2348534105
 20
-1445.5325559885
 10
224.1308394072
 20
-1443.9892037687
 10
224.8069991832
 20
-1442.3372590781
 10
225.2458205555
 20
-1440.6195064164
 10
225.435938281
 20
-1438.8804346753
 10
225.3724284106
 20
-1437.1650848993
 10
225.0569358164
 20
-1435.5178837467
 10
224.497631591
 20
-1433.981492862
 10
223.70900142
 20
-1432.5957039622
 10
222.7114704105
 20
-1431.3964082518
 10
221.5308740919
 20
-1430.4146668597
 10
220.1977892885
 20
-1429.6759063724
 10
218.7467421965
 20
-1429.1992602984
 10
217.2153141735
 20
-1428.9970735206
 10
215.6431684007
 20
-1429.0745825704
  0
LINE
  5
2BF
330
1F
100
AcDbEntity
  8
0
  6
Continuous
 62
     7
370
    25
100
AcDbLine
 10
1331.1910165881
 20
180.6790845958
 30
0.0
 11
1309.3436043156
 21
183.6856496049
 31
0.0
  0
LINE
  5
2C0
330
1F
100
AcDbEntity
  8
0
  6
Continuous
 62
     7
370
    25
100
AcDbLine
 10
-981.8313031827
 20
-2021.3870848012
 30
0.0
 11
-959.9838909102
 21
-2024.3936498103
 31
0.0
  0
LINE
  5
2C1
330
1F
100
AcDbEntity
  8
0
  6
Continuous
 62
     7
370
    25
100
AcDbLine
 10
-959.9838909102
 20
183.6856496049
 30
0.0
 11
-981.8313031827
 21
180.6790845958
 31
0.0
  0
LINE
  5
2C2
330
1F
100
AcDbEntity
  8
0
  6
Continuous
 62
     7
370
    25
100
AcDbLine
 10
1309.3436043156
 20
-2024.3936498103
 30
0.0
 11
1331.1910165881
 21
-2021.3870848012
 31
0.0
  0
LINE
  5
2C3
330
1F
100
AcDbEntity
  8
0
  6
Continuous
 62
     7
370
    25
100
AcDbLine
 10
136.4776000508
 20
-737.8931375782
 30
0.0
 11
137.0063309393
 21
-737.8128540902
 31
0.0
  0
ARC
  5
2C4
330
1F
100
AcDbEntity
  8
0
  6
Continuous
 62
     7
370
    25
100
AcDbCircle
 10
136.4281792963
 20
-735.3858799201
 30
0.0
 40
2.507744679063361
100
AcDbArc
 50
107.1165784435
 51
271.1292154257
  0
LINE
  5
2C5
330
1F
100
AcDbEntity
  8
0
  6
Continuous
 62
     7
370
    25
100
AcDbLine
 10
136.4249881905
 20
-737.9074937225
 30
0.0
 11
136.953719079
 21
-737.8272102344
 31
0.0
  0
ARC
  5
2C6
330
1F
100
AcDbEntity
  8
0
  6
Continuous
 62
     7
370
    25
100
AcDbCircle
 10
136.375567436
 20
-735.4002360643
 30
0.0
 40
2.50774467906352
100
AcDbArc
 50
107.1165784435
 51
271.1292154256
  0
ARC
  5
2C7
330
1F
100
AcDbEntity
  8
0
  6
Continuous
 62
     7
370
    25
100
AcDbCircle
 10
136.4102768102
 20
-1107.2418572314
 30
0.0
 40
2.500827438194959
100
AcDbArc
 50
76.211250303
 51
253.2633993562
  0
ARC
  5
2C8
330
1F
100
AcDbEntity
  8
0
  6
Continuous
 62
     7
370
    25
100
AcDbCircle
 10
136.3576649499
 20
-1107.2275010871
 30
0.0
 40
2.500827438194897
100
AcDbArc
 50
76.2112503029
 51
253.2633993562
  0
ARC
  5
2C9
330
1F
100
AcDbEntity
  8
0
  6
Continuous
 62
     7
370
    25
100
AcDbCircle
 10
128.6118855299
 20
-737.6918415081
 30
0.0
 40
6.286710919423864
100
AcDbArc
 50
59.299715111
 51
92.1583985191
  0
ARC
  5
2CA
330
1F
100
AcDbEntity
  8
0
  6
Continuous
 62
     7
370
    25
100
AcDbCircle
 10
128.5628928838
 20
-734.6935877427
 30
0.0
 40
6.520671753699843
100
AcDbArc
 50
268.3250963765
 51
299.9981713621
  0
LINE
  5
2CB
330
1F
100
AcDbEntity
  8
0
  6
Continuous
 62
     7
370
    25
100
AcDbLine
 10
128.1022473302
 20
-730.2917191821
 30
0.0
 11
126.8905766963
 21
-731.4495129033
 31
0.0
  0
ARC
  5
2CC
330
1F
100
AcDbEntity
  8
0
  6
Continuous
 62
     7
370
    25
100
AcDbCircle
 10
136.0862593774
 20
-736.3129774916
 30
0.0
 40
10.00000000000027
100
AcDbArc
 50
97.8686806973
 51
142.9776987282
  0
ARC
  5
2CD
330
1F
100
AcDbEntity
  8
0
  6
Continuous
 62
     7
370
    25
100
AcDbCircle
 10
136.0862593774
 20
-736.3129774916
 30
0.0
 40
10.0000000000002
100
AcDbArc
 50
217.0223012718
 51
263.3721947565
  0
LWPOLYLINE
  5
2CE
330
1F
100
AcDbEntity
  8
0
  6
Continuous
 62
     7
370
    25
100
AcDbPolyline
 90
        3
 70
   128
 43
0.0
 10
126.8910425934
 20
-741.1787036028
 10
127.0030160607
 20
-741.2536016451
 10
128.1022473302
 20
-742.3342358012
  0
ARC
  5
2CF
330
1F
100
AcDbEntity
  8
0
  6
Continuous
 62
     7
370
    25
100
AcDbCircle
 10
213.5606332249
 20
-734.9341134751
 30
0.0
 40
6.286710919420708
100
AcDbArc
 50
239.299715111
 51
272.1583985191
  0
ARC
  5
2D0
330
1F
100
AcDbEntity
  8
0
  6
Continuous
 62
     7
370
    25
100
AcDbCircle
 10
213.6096258711
 20
-737.9323672406
 30
0.0
 40
6.520671753707525
100
AcDbArc
 50
88.3250963765
 51
119.9981713621
  0
ARC
  5
2D1
330
1F
100
AcDbEntity
  8
0
  6
Continuous
 62
     7
370
    25
100
AcDbCircle
 10
206.0862593774
 20
-736.3129774916
 30
0.0
 40
10.00000000000027
100
AcDbArc
 50
37.0223012718
 51
68.9391197807
  0
LWPOLYLINE
  5
2D2
330
1F
100
AcDbEntity
  8
0
  6
Continuous
 62
     7
370
    25
100
AcDbPolyline
 90
        3
 70
   128
 43
0.0
 10
215.2814761615
 20
-731.4472513804
 10
215.1695026942
 20
-731.3723533382
 10
214.0702714246
 20
-730.2917191821
  0
LINE
  5
2D3
330
1F
100
AcDbEntity
  8
0
  6
Continuous
 62
     7
370
    25
100
AcDbLine
 10
214.0702714246
 20
-742.3342358012
 30
0.0
 11
215.2819420586
 21
-741.17644208
 31
0.0
  0
ARC
  5
2D4
330
1F
100
AcDbEntity
  8
0
  6
Continuous
 62
     7
370
    25
100
AcDbCircle
 10
206.0862593774
 20
-736.3129774916
 30
0.0
 40
10.0000000000002
100
AcDbArc
 50
291.0608802193
 51
322.9776987282
  0
ARC
  5
2D5
330
1F
100
AcDbEntity
  8
0
  6
Continuous
 62
     7
370
    25
100
AcDbCircle
 10
213.5606332249
 20
-1104.9341134751
 30
0.0
 40
6.286710919426705
100
AcDbArc
 50
239.299715111
 51
272.1583985191
  0
ARC
  5
2D6
330
1F
100
AcDbEntity
  8
0
  6
Continuous
 62
     7
370
    25
100
AcDbCircle
 10
213.6096258711
 20
-1107.9323672406
 30
0.0
 40
6.52067175370065
100
AcDbArc
 50
88.3250963765
 51
119.9981713621
  0
ARC
  5
2D7
330
1F
100
AcDbEntity
  8
0
  6
Continuous
 62
     7
370
    25
100
AcDbCircle
 10
206.0862593774
 20
-1106.3129774916
 30
0.0
 40
10.00000000000027
100
AcDbArc
 50
37.0223012718
 51
68.9391197807
  0
LWPOLYLINE
  5
2D8
330
1F
100
AcDbEntity
  8
0
  6
Continuous
 62
     7
370
    25
100
AcDbPolyline
 90
        3
 70
   128
 43
0.0
 10
215.2814761615
 20
-1101.4472513804
 10
215.1695026942
 20
-1101.3723533382
 10
214.0702714246
 20
-1100.2917191821
  0
LINE
  5
2D9
330
1F
100
AcDbEntity
  8
0
  6
Continuous
 62
     7
370
    25
100
AcDbLine
 10
214.0702714246
 20
-1112.3342358012
 30
0.0
 11
215.2819420586
 21
-1111.17644208
 31
0.0
  0
ARC
  5
2DA
330
1F
100
AcDbEntity
  8
0
  6
Continuous
 62
     7
370
    25
100
AcDbCircle
 10
206.0862593774
 20
-1106.3129774916
 30
0.0
 40
10.00000000000027
100
AcDbArc
 50
291.0608802193
 51
322.9776987282
  0
ARC
  5
2DB
330
1F
100
AcDbEntity
  8
0
  6
Continuous
 62
     7
370
    25
100
AcDbCircle
 10
128.6118855299
 20
-1107.6918415081
 30
0.0
 40
6.286710919424872
100
AcDbArc
 50
59.299715111
 51
92.1583985191
  0
ARC
  5
2DC
330
1F
100
AcDbEntity
  8
0
  6
Continuous
 62
     7
370
    25
100
AcDbCircle
 10
128.5628928838
 20
-1104.6935877427
 30
0.0
 40
6.520671753704254
100
AcDbArc
 50
268.3250963765
 51
299.9981713621
  0
ARC
  5
2DD
330
1F
100
AcDbEntity
  8
0
  6
Continuous
 62
     7
370
    25
100
AcDbCircle
 10
136.0862593774
 20
-1106.3129774916
 30
0.0
 40
10.00000000000027
100
AcDbArc
 50
217.0223012718
 51
262.1096703952
  0
LWPOLYLINE
  5
2DE
330
1F
100
AcDbEntity
  8
0
  6
Continuous
 62
     7
370
    25
100
AcDbPolyline
 90
        3
 70
   128
 43
0.0
 10
126.8910425934
 20
-1111.1787036028
 10
127.0030160607
 20
-1111.2536016451
 10
128.1022473302
 20
-1112.3342358012
  0
LINE
  5
2DF
330
1F
100
AcDbEntity
  8
0
  6
Continuous
 62
     7
370
    25
100
AcDbLine
 10
128.1022473302
 20
-1100.2917191821
 30
0.0
 11
126.8905766963
 21
-1101.4495129033
 31
0.0
  0
ARC
  5
2E0
330
1F
100
AcDbEntity
  8
0
  6
Continuous
 62
     7
370
    25
100
AcDbCircle
 10
136.0862593774
 20
-1106.3129774916
 30
0.0
 40
10.00000000000027
100
AcDbArc
 50
96.4543320942
 51
142.9776987282
  0
ARC
  5
2E1
330
1F
100
AcDbEntity
  8
0
  6
Continuous
 62
     7
370
    25
100
AcDbCircle
 10
215.0862593774
 20
-727.3129774916
 30
0.0
 40
6.0
100
AcDbArc
 50
0.0
 51
90.0
  0
LINE
  5
2E2
330
1F
100
AcDbEntity
  8
0
  6
Continuous
 62
     7
370
    25
100
AcDbLine
 10
221.0862593774
 20
-745.3129774916
 30
0.0
 11
221.0862593774
 21
-740.6351818426
 31
0.0
  0
LINE
  5
2E3
330
1F
100
AcDbEntity
  8
0
  6
Continuous
 62
     7
370
    25
100
AcDbLine
 10
221.0862593774
 20
-731.9901077655
 30
0.0
 11
221.0862593774
 21
-727.3129774916
 31
0.0
  0
ARC
  5
2E4
330
1F
100
AcDbEntity
  8
0
  6
Continuous
 62
     7
370
    25
100
AcDbCircle
 10
215.0862593774
 20
-745.3129774916
 30
0.0
 40
6.0
100
AcDbArc
 50
270.0
 51
0.0
  0
LINE
  5
2E5
330
1F
100
AcDbEntity
  8
0
  6
Continuous
 62
     7
370
    25
100
AcDbLine
 10
209.6798567027
 20
-751.3129774916
 30
0.0
 11
215.0862593774
 21
-751.3129774916
 31
0.0
  0
LINE
  5
2E6
330
1F
100
AcDbEntity
  8
0
  6
Continuous
 62
     7
370
    25
100
AcDbLine
 10
127.0862593774
 20
-751.3129774916
 30
0.0
 11
139.6798567027
 21
-751.3129774916
 31
0.0
  0
ARC
  5
2E7
330
1F
100
AcDbEntity
  8
0
  6
Continuous
 62
     7
370
    25
100
AcDbCircle
 10
127.0862593774
 20
-745.3129774916
 30
0.0
 40
6.000000000000014
100
AcDbArc
 50
180.0
 51
270.0
  0
LINE
  5
2E8
330
1F
100
AcDbEntity
  8
0
  6
Continuous
 62
     7
370
    25
100
AcDbLine
 10
121.0862593774
 20
-727.3129774916
 30
0.0
 11
121.0862593774
 21
-731.9907731407
 31
0.0
  0
LINE
  5
2E9
330
1F
100
AcDbEntity
  8
0
  6
Continuous
 62
     7
370
    25
100
AcDbLine
 10
121.0862593774
 20
-740.6358472177
 30
0.0
 11
121.0862593774
 21
-745.3129774916
 31
0.0
  0
ARC
  5
2EA
330
1F
100
AcDbEntity
  8
0
  6
Continuous
 62
     7
370
    25
100
AcDbCircle
 10
127.0862593774
 20
-727.3129774916
 30
0.0
 40
6.000000000000014
100
AcDbArc
 50
90.0
 51
180.0
  0
LINE
  5
2EB
330
1F
100
AcDbEntity
  8
0
  6
Continuous
 62
     7
370
    25
100
AcDbLine
 10
215.0862593774
 20
-721.3129774916
 30
0.0
 11
209.6798567027
 21
-721.3129774916
 31
0.0
  0
ARC
  5
2EC
330
1F
100
AcDbEntity
  8
0
  6
Continuous
 62
     7
370
    25
100
AcDbCircle
 10
206.0862593774
 20
-736.3129774916
 30
0.0
 40
10.50000000000003
100
AcDbArc
 50
28.3480391456
 51
69.9861450687
  0
ARC
  5
2ED
330
1F
100
AcDbEntity
  8
0
  6
Continuous
 62
     7
370
    25
100
AcDbCircle
 10
206.0862593774
 20
-736.3129774916
 30
0.0
 40
10.50000000000002
100
AcDbArc
 50
290.0138549313
 51
331.4505317938
  0
ARC
  5
2EE
330
1F
100
AcDbEntity
  8
0
  6
Continuous
 62
     7
370
    25
100
AcDbCircle
 10
136.0862593774
 20
-736.3129774916
 30
0.0
 40
10.49999999999998
100
AcDbArc
 50
96.4603005097
 51
152.6811006384
  0
ARC
  5
2EF
330
1F
100
AcDbEntity
  8
0
  6
Continuous
 62
     7
370
    25
100
AcDbCircle
 10
136.0862593774
 20
-736.3129774916
 30
0.0
 40
10.50000000000007
100
AcDbArc
 50
206.9861486502
 51
264.9666020271
  0
LINE
  5
2F0
330
1F
100
AcDbEntity
  8
0
  6
Continuous
 62
     7
370
    25
100
AcDbLine
 10
139.6798567027
 20
-721.3129774916
 30
0.0
 11
127.0862593774
 21
-721.3129774916
 31
0.0
  0
ARC
  5
2F1
330
1F
100
AcDbEntity
  8
0
  6
Continuous
 62
     7
370
    25
100
AcDbCircle
 10
122.657824168
 20
-1098.5879126845
 30
0.0
 40
34.22602239360018
100
AcDbArc
 50
180.3767705273
 51
270.4285972927
  0
LINE
  5
2F2
330
1F
100
AcDbEntity
  8
0
  6
Continuous
 62
     7
370
    25
100
AcDbLine
 10
88.4325417774
 20
-743.8129774916
 30
0.0
 11
88.4325417774
 21
-1098.8129774916
 31
0.0
  0
ARC
  5
2F3
330
1F
100
AcDbEntity
  8
0
  6
Continuous
 62
     7
370
    25
100
AcDbCircle
 10
122.6924639465
 20
-744.0731724394
 30
0.0
 40
34.26091021034511
100
AcDbArc
 50
89.6297699385
 51
179.5648622416
  0
ARC
  5
2F4
330
1F
100
AcDbEntity
  8
0
  6
Continuous
 62
     7
370
    25
100
AcDbCircle
 10
219.5146945868
 20
-744.0380422988
 30
0.0
 40
34.22602239360018
100
AcDbArc
 50
0.3767705273
 51
90.4285972927
  0
LINE
  5
2F5
330
1F
100
AcDbEntity
  8
0
  6
Continuous
 62
     7
370
    25
100
AcDbLine
 10
253.7399769775
 20
-1098.8129774916
 30
0.0
 11
253.7399769775
 21
-743.8129774916
 31
0.0
  0
ARC
  5
2F6
330
1F
100
AcDbEntity
  8
0
  6
Continuous
 62
     7
370
    25
100
AcDbCircle
 10
219.4800548084
 20
-1098.5527825438
 30
0.0
 40
34.26091021034492
100
AcDbArc
 50
269.6297699385
 51
359.5648622416
  0
LINE
  5
2F7
330
1F
100
AcDbEntity
  8
0
  6
Continuous
 62
     7
370
    25
100
AcDbLine
 10
123.5862593774
 20
-703.8129774916
 30
0.0
 11
139.6798567027
 21
-703.8129774916
 31
0.0
  0
LINE
  5
2F8
330
1F
100
AcDbEntity
  8
0
  6
Continuous
 62
     7
370
    25
100
AcDbLine
 10
209.6798567027
 20
-703.8129774916
 30
0.0
 11
218.5862593774
 21
-703.8129774916
 31
0.0
  0
LWPOLYLINE
  5
2F9
330
1F
100
AcDbEntity
  8
0
  6
Continuous
 62
     7
370
    25
100
AcDbPolyline
 90
        9
 70
   128
 43
0.0
 10
218.5862593774
 20
-703.8129774916
 10
218.7174404702
 20
-703.9282658092
 10
218.8435803471
 20
-704.2697002966
 10
218.9598315235
 20
-704.8241598178
 10
219.0617265318
 20
-705.5703368045
 10
219.145349604
 20
-706.4795560935
 10
219.2074871523
 20
-707.5168768974
 10
219.2457512657
 20
-708.6424355595
 10
219.2586714756
 20
-709.8129774916
  0
LWPOLYLINE
  5
2FA
330
1F
100
AcDbEntity
  8
0
  6
Continuous
 62
     7
370
    25
100
AcDbPolyline
 90
        9
 70
   128
 43
0.0
 10
123.5862593774
 20
-703.8129774916
 10
123.4550782847
 20
-703.9282658092
 10
123.3289384077
 20
-704.2697002966
 10
123.2126872314
 20
-704.8241598178
 10
123.1107922231
 20
-705.5703368045
 10
123.0271691508
 20
-706.4795560935
 10
122.9650316025
 20
-707.5168768974
 10
122.9267674892
 20
-708.6424355595
 10
122.9138472792
 20
-709.8129774916
  0
LINE
  5
2FB
330
1F
100
AcDbEntity
  8
0
  6
Continuous
 62
     7
370
    25
100
AcDbLine
 10
221.0862593774
 20
-1097.3129774916
 30
0.0
 11
221.0862593774
 21
-1101.9901077655
 31
0.0
  0
LINE
  5
2FC
330
1F
100
AcDbEntity
  8
0
  6
Continuous
 62
     7
370
    25
100
AcDbLine
 10
221.0862593774
 20
-1110.6351818426
 30
0.0
 11
221.0862593774
 21
-1115.3129774916
 31
0.0
  0
ARC
  5
2FD
330
1F
100
AcDbEntity
  8
0
  6
Continuous
 62
     7
370
    25
100
AcDbCircle
 10
215.0862593774
 20
-1115.3129774916
 30
0.0
 40
6.0
100
AcDbArc
 50
270.0
 51
0.0
  0
LINE
  5
2FE
330
1F
100
AcDbEntity
  8
0
  6
Continuous
 62
     7
370
    25
100
AcDbLine
 10
215.0862593774
 20
-1121.3129774916
 30
0.0
 11
209.6798567027
 21
-1121.3129774916
 31
0.0
  0
ARC
  5
2FF
330
1F
100
AcDbEntity
  8
0
  6
Continuous
 62
     7
370
    25
100
AcDbCircle
 10
127.0862593774
 20
-1115.3129774916
 30
0.0
 40
6.000000000000014
100
AcDbArc
 50
180.0
 51
270.0
  0
LINE
  5
300
330
1F
100
AcDbEntity
  8
0
  6
Continuous
 62
     7
370
    25
100
AcDbLine
 10
121.0862593774
 20
-1115.3129774916
 30
0.0
 11
121.0862593774
 21
-1110.6358472177
 31
0.0
  0
LINE
  5
301
330
1F
100
AcDbEntity
  8
0
  6
Continuous
 62
     7
370
    25
100
AcDbLine
 10
121.0862593774
 20
-1101.9907731407
 30
0.0
 11
121.0862593774
 21
-1097.3129774916
 31
0.0
  0
ARC
  5
302
330
1F
100
AcDbEntity
  8
0
  6
Continuous
 62
     7
370
    25
100
AcDbCircle
 10
206.0862593774
 20
-1106.3129774916
 30
0.0
 40
10.49999999999998
100
AcDbArc
 50
28.3480391456
 51
69.9861450687
  0
ARC
  5
303
330
1F
100
AcDbEntity
  8
0
  6
Continuous
 62
     7
370
    25
100
AcDbCircle
 10
206.0862593774
 20
-1106.3129774916
 30
0.0
 40
10.50000000000012
100
AcDbArc
 50
290.0138549313
 51
331.4505317938
  0
ARC
  5
304
330
1F
100
AcDbEntity
  8
0
  6
Continuous
 62
     7
370
    25
100
AcDbCircle
 10
215.0862593774
 20
-1097.3129774916
 30
0.0
 40
6.0
100
AcDbArc
 50
0.0
 51
90.0
  0
ARC
  5
305
330
1F
100
AcDbEntity
  8
0
  6
Continuous
 62
     7
370
    25
100
AcDbCircle
 10
127.0862593774
 20
-1097.3129774916
 30
0.0
 40
6.000000000000014
100
AcDbArc
 50
90.0
 51
180.0
  0
ARC
  5
306
330
1F
100
AcDbEntity
  8
0
  6
Continuous
 62
     7
370
    25
100
AcDbCircle
 10
136.0862593774
 20
-1106.3129774916
 30
0.0
 40
10.49999999999993
100
AcDbArc
 50
95.044079429
 51
152.6811006384
  0
ARC
  5
307
330
1F
100
AcDbEntity
  8
0
  6
Continuous
 62
     7
370
    25
100
AcDbCircle
 10
136.0862593774
 20
-1106.3129774916
 30
0.0
 40
10.50000000000015
100
AcDbArc
 50
206.9861486502
 51
263.7679443791
  0
LINE
  5
308
330
1F
100
AcDbEntity
  8
0
  6
Continuous
 62
     7
370
    25
100
AcDbLine
 10
139.6798567027
 20
-1121.3129774916
 30
0.0
 11
127.0862593774
 21
-1121.3129774916
 31
0.0
  0
LINE
  5
309
330
1F
100
AcDbEntity
  8
0
  6
Continuous
 62
     7
370
    25
100
AcDbLine
 10
127.0862593774
 20
-1091.3129774916
 30
0.0
 11
139.6798567027
 21
-1091.3129774916
 31
0.0
  0
LINE
  5
30A
330
1F
100
AcDbEntity
  8
0
  6
Continuous
 62
     7
370
    25
100
AcDbLine
 10
209.6798567027
 20
-1091.3129774916
 30
0.0
 11
215.0862593774
 21
-1091.3129774916
 31
0.0
  0
LWPOLYLINE
  5
30B
330
1F
100
AcDbEntity
  8
0
  6
Continuous
 62
     7
370
    25
100
AcDbPolyline
 90
        9
 70
   128
 43
0.0
 10
219.2586714756
 20
-1132.8129774916
 10
219.2457512657
 20
-1133.9835194237
 10
219.2074871523
 20
-1135.1090780858
 10
219.145349604
 20
-1136.1463988898
 10
219.0617265318
 20
-1137.0556181788
 10
218.9598315235
 20
-1137.8017951654
 10
218.8435803471
 20
-1138.3562546867
 10
218.7174404702
 20
-1138.6976891741
 10
218.5862593774
 20
-1138.8129774916
  0
LINE
  5
30C
330
1F
100
AcDbEntity
  8
0
  6
Continuous
 62
     7
370
    25
100
AcDbLine
 10
218.5862593774
 20
-1138.8129774916
 30
0.0
 11
209.6798567027
 21
-1138.8129774916
 31
0.0
  0
LINE
  5
30D
330
1F
100
AcDbEntity
  8
0
  6
Continuous
 62
     7
370
    25
100
AcDbLine
 10
139.6798567027
 20
-1138.8129774916
 30
0.0
 11
123.5862593774
 21
-1138.8129774916
 31
0.0
  0
LWPOLYLINE
  5
30E
330
1F
100
AcDbEntity
  8
0
  6
Continuous
 62
     7
370
    25
100
AcDbPolyline
 90
        9
 70
   128
 43
0.0
 10
122.9138472792
 20
-1132.8129774916
 10
122.9267674892
 20
-1133.9835194237
 10
122.9650316025
 20
-1135.1090780858
 10
123.0271691508
 20
-1136.1463988898
 10
123.1107922231
 20
-1137.0556181788
 10
123.2126872314
 20
-1137.8017951654
 10
123.3289384077
 20
-1138.3562546867
 10
123.4550782847
 20
-1138.6976891741
 10
123.5862593774
 20
-1138.8129774916
  0
ARC
  5
30F
330
1F
100
AcDbEntity
  8
0
  6
Continuous
 62
     7
370
    25
100
AcDbCircle
 10
218.5862593774
 20
-743.8129774916
 30
0.0
 40
39.99999999999974
100
AcDbArc
 50
0.0
 51
90.0
  0
LINE
  5
310
330
1F
100
AcDbEntity
  8
0
  6
Continuous
 62
     7
370
    25
100
AcDbLine
 10
258.5862593774
 20
-743.8129774916
 30
0.0
 11
253.7399769775
 21
-743.8129774916
 31
0.0
  0
ARC
  5
311
330
1F
100
AcDbEntity
  8
0
  6
Continuous
 62
     7
370
    25
100
AcDbCircle
 10
123.5862593774
 20
-1098.8129774916
 30
0.0
 40
40.00000000000004
100
AcDbArc
 50
180.0
 51
270.0
  0
LINE
  5
312
330
1F
100
AcDbEntity
  8
0
  6
Continuous
 62
     7
370
    25
100
AcDbLine
 10
88.4325417774
 20
-1098.8129774916
 30
0.0
 11
83.5862593774
 21
-1098.8129774916
 31
0.0
  0
LINE
  5
313
330
1F
100
AcDbEntity
  8
0
  6
Continuous
 62
     7
370
    25
100
AcDbLine
 10
88.4325417774
 20
-743.8129774916
 30
0.0
 11
83.5862593774
 21
-743.8129774916
 31
0.0
  0
ARC
  5
314
330
1F
100
AcDbEntity
  8
0
  6
Continuous
 62
     7
370
    25
100
AcDbCircle
 10
123.5923507469
 20
-743.8190688611
 30
0.0
 40
40.00609183324401
100
AcDbArc
 50
90.0087239155
 51
179.9912760845
  0
LINE
  5
315
330
1F
100
AcDbEntity
  8
0
  6
Continuous
 62
     7
370
    25
100
AcDbLine
 10
258.5862593774
 20
-1098.8129774916
 30
0.0
 11
253.7399769775
 21
-1098.8129774916
 31
0.0
  0
ARC
  5
316
330
1F
100
AcDbEntity
  8
0
  6
Continuous
 62
     7
370
    25
100
AcDbCircle
 10
218.5801680079
 20
-1098.8068861221
 30
0.0
 40
40.00609183324417
100
AcDbArc
 50
270.0087239155
 51
359.9912760845
  0
LINE
  5
317
330
1F
100
AcDbEntity
  8
0
  6
Continuous
 62
     7
370
    25
100
AcDbLine
 10
83.5862593774
 20
-1098.8129774916
 30
0.0
 11
83.5862593774
 21
-743.8129774916
 31
0.0
  0
LINE
  5
318
330
1F
100
AcDbEntity
  8
0
  6
Continuous
 62
     7
370
    25
100
AcDbLine
 10
258.5862593774
 20
-743.8129774916
 30
0.0
 11
258.5862593774
 21
-1098.8129774916
 31
0.0
  0
LINE
  5
319
330
1F
100
AcDbEntity
  8
0
  6
Continuous
 62
     7
370
    25
100
AcDbLine
 10
171.7490959143
 20
-1463.3673756865
 30
0.0
 11
177.6058771666
 21
-1463.3673756865
 31
0.0
  0
LINE
  5
31A
330
1F
100
AcDbEntity
  8
0
  6
Continuous
 62
     7
370
    25
100
AcDbLine
 10
179.7814341597
 20
-1406.427185764
 30
0.0
 11
169.5728637274
 21
-1406.427185764
 31
0.0
  0
LWPOLYLINE
  5
31B
330
1F
100
AcDbEntity
  8
0
  6
Continuous
 62
     7
370
    25
100
AcDbPolyline
 90
       10
 70
   128
 43
0.0
 10
171.3543955836
 20
-1424.3058974886
 10
171.4296012608
 20
-1424.3232606044
 10
172.2676612841
 20
-1424.4626575588
 10
173.2235118956
 20
-1424.5352985047
 10
174.2197157636
 20
-1424.5352985047
 10
175.1755663751
 20
-1424.4626575588
 10
176.0136263984
 20
-1424.3232606044
 10
176.6660011945
 20
-1424.1284007537
 10
177.0798392372
 20
-1423.893864393
 10
177.2216138296
 20
-1423.6386522633
  0
LINE
  5
31C
330
1F
100
AcDbEntity
  8
0
  6
Continuous
 62
     7
370
    25
100
AcDbLine
 10
177.2216138296
 20
-1423.6386522633
 30
0.0
 11
177.2216138296
 21
-1420.532823722
 31
0.0
  0
LWPOLYLINE
  5
31D
330
1F
100
AcDbEntity
  8
0
  6
Continuous
 62
     7
370
    25
100
AcDbPolyline
 90
       10
 70
   128
 43
0.0
 10
177.2216138296
 20
-1420.532823722
 10
177.0798392372
 20
-1420.2776115924
 10
176.6660011945
 20
-1420.0430752316
 10
176.0136263984
 20
-1419.848215381
 10
175.1755663751
 20
-1419.7088184265
 10
174.2197157636
 20
-1419.6361774806
 10
173.2235118956
 20
-1419.6361774806
 10
172.2676612841
 20
-1419.7088184265
 10
171.4296012608
 20
-1419.848215381
 10
171.0281082605
 20
-1419.9543745774
  0
LINE
  5
31E
330
1F
100
AcDbEntity
  8
0
  6
Continuous
 62
     7
370
    25
100
AcDbLine
 10
170.2216138296
 20
-1408.1095095571
 30
0.0
 11
170.2216138296
 21
-1411.2153380984
 31
0.0
  0
LWPOLYLINE
  5
31F
330
1F
100
AcDbEntity
  8
0
  6
Continuous
 62
     7
370
    25
100
AcDbPolyline
 90
       12
 70
   128
 43
0.0
 10
170.2216138296
 20
-1411.2153380984
 10
170.3633884219
 20
-1411.470550228
 10
170.7772264647
 20
-1411.7050865888
 10
171.4296012608
 20
-1411.8999464395
 10
172.2676612841
 20
-1412.0393433939
 10
173.2235118956
 20
-1412.1119843398
 10
174.2197157636
 20
-1412.1119843398
 10
175.1755663751
 20
-1412.0393433939
 10
176.0136263984
 20
-1411.8999464395
 10
176.6660011945
 20
-1411.7050865888
 10
177.0798392372
 20
-1411.470550228
 10
177.2216138296
 20
-1411.2153380984
  0
LINE
  5
320
330
1F
100
AcDbEntity
  8
0
  6
Continuous
 62
     7
370
    25
100
AcDbLine
 10
177.2216138296
 20
-1411.2153380984
 30
0.0
 11
177.2216138296
 21
-1408.1095095571
 31
0.0
  0
LWPOLYLINE
  5
321
330
1F
100
AcDbEntity
  8
0
  6
Continuous
 62
     7
370
    25
100
AcDbPolyline
 90
       12
 70
   128
 43
0.0
 10
177.2216138296
 20
-1408.1095095571
 10
177.0798392372
 20
-1407.8542974275
 10
176.6660011945
 20
-1407.6197610667
 10
176.0136263984
 20
-1407.424901216
 10
175.1755663751
 20
-1407.2855042616
 10
174.2197157636
 20
-1407.2128633157
 10
173.2235118956
 20
-1407.2128633157
 10
172.2676612841
 20
-1407.2855042616
 10
171.4296012608
 20
-1407.424901216
 10
170.7772264647
 20
-1407.6197610667
 10
170.3633884219
 20
-1407.8542974275
 10
170.2216138296
 20
-1408.1095095571
  0
ARC
  5
322
330
1F
100
AcDbEntity
  8
0
  6
Continuous
 62
     7
370
    25
100
AcDbCircle
 10
76.297967557
 20
-1426.6832586646
 30
0.0
 40
23.8579070070785
100
AcDbArc
 50
104.4095129896
 51
114.8271259021
  0
ARC
  5
323
330
1F
100
AcDbEntity
  8
0
  6
Continuous
 62
     7
370
    25
100
AcDbCircle
 10
273.0617458485
 20
-1426.6832586645
 30
0.0
 40
23.85790700702524
100
AcDbArc
 50
65.1728740978
 51
75.5904870104
  0
LINE
  5
324
330
1F
100
AcDbEntity
  8
0
  6
Continuous
 62
     7
370
    25
100
AcDbLine
 10
283.0792470311
 20
-1405.0303282205
 30
0.0
 11
373.4698504135
 21
-1449.0295658879
 31
0.0
  0
LINE
  5
325
330
1F
100
AcDbEntity
  8
0
  6
Continuous
 62
     7
370
    25
100
AcDbLine
 10
66.2804663744
 20
-1405.0303282205
 30
0.0
 11
-24.1101370081
 21
-1449.0295658879
 31
0.0
  0
ARC
  5
326
330
1F
100
AcDbEntity
  8
0
  6
Continuous
 62
     7
370
    25
100
AcDbCircle
 10
173.7216138296
 20
-1394.1390121915
 30
0.0
 40
13.15277807902724
100
AcDbArc
 50
265.3024832233
 51
274.6975167767
  0
ARC
  5
327
330
1F
100
AcDbEntity
  8
0
  6
Continuous
 62
     7
370
    25
100
AcDbCircle
 10
173.7216138296
 20
-1406.5623263565
 30
0.0
 40
13.15277807890183
100
AcDbArc
 50
265.3024832221
 51
274.697516778
  0
ARC
  5
328
330
1F
100
AcDbEntity
  8
0
  6
Continuous
 62
     7
370
    25
100
AcDbCircle
 10
-21.4279392961
 20
-1455.3220655487
 30
0.0
 40
6.840302372435774
100
AcDbArc
 50
113.0862792928
 51
137.6996831108
  0
ARC
  5
329
330
1F
100
AcDbEntity
  8
0
  6
Continuous
 62
     7
370
    25
100
AcDbCircle
 10
370.7876527015
 20
-1455.3220655487
 30
0.0
 40
6.840302372435484
100
AcDbArc
 50
42.3003168892
 51
66.9137207072
  0
ARC
  5
32A
330
1F
100
AcDbEntity
  8
0
  6
Continuous
 62
     7
370
    25
100
AcDbCircle
 10
273.0617458485
 20
-414.024741541
 30
0.0
 40
23.8579070069264
100
AcDbArc
 50
284.4095129896
 51
294.8271259022
  0
LINE
  5
32B
330
1F
100
AcDbEntity
  8
0
  6
Continuous
 62
     7
370
    25
100
AcDbLine
 10
171.7538362389
 20
-377.3406245189
 30
0.0
 11
177.6106174911
 21
-377.3406245189
 31
0.0
  0
LINE
  5
32C
330
1F
100
AcDbEntity
  8
0
  6
Continuous
 62
     7
370
    25
100
AcDbLine
 10
179.7868496781
 20
-434.2808144414
 30
0.0
 11
169.5782792457
 21
-434.2808144414
 31
0.0
  0
LWPOLYLINE
  5
32D
330
1F
100
AcDbEntity
  8
0
  6
Continuous
 62
     7
370
    25
100
AcDbPolyline
 90
       10
 70
   128
 43
0.0
 10
171.3551136965
 20
-416.401932102
 10
171.4296012608
 20
-416.384739601
 10
172.2676612841
 20
-416.2453426466
 10
173.2235118956
 20
-416.1727017007
 10
174.2197157636
 20
-416.1727017007
 10
175.1755663751
 20
-416.2453426466
 10
176.0136263984
 20
-416.384739601
 10
176.6660011945
 20
-416.5795994517
 10
177.0798392372
 20
-416.8141358124
 10
177.2216138296
 20
-417.0693479421
  0
LWPOLYLINE
  5
32E
330
1F
100
AcDbEntity
  8
0
  6
Continuous
 62
     7
370
    25
100
AcDbPolyline
 90
       10
 70
   128
 43
0.0
 10
177.2216138296
 20
-420.1751764833
 10
177.0798392372
 20
-420.430388613
 10
176.6660011945
 20
-420.6649249737
 10
176.0136263984
 20
-420.8597848244
 10
175.1755663751
 20
-420.9991817789
 10
174.2197157636
 20
-421.0718227248
 10
173.2235118956
 20
-421.0718227248
 10
172.2676612841
 20
-420.9991817789
 10
171.4296012608
 20
-420.8597848244
 10
171.0155981843
 20
-420.7497010926
  0
LINE
  5
32F
330
1F
100
AcDbEntity
  8
0
  6
Continuous
 62
     7
370
    25
100
AcDbLine
 10
177.2216138296
 20
-417.0693479421
 30
0.0
 11
177.2216138296
 21
-420.1751764833
 31
0.0
  0
LWPOLYLINE
  5
330
330
1F
100
AcDbEntity
  8
0
  6
Continuous
 62
     7
370
    25
100
AcDbPolyline
 90
       12
 70
   128
 43
0.0
 10
170.2216138296
 20
-429.492662107
 10
170.3633884219
 20
-429.2374499774
 10
170.7772264647
 20
-429.0029136166
 10
171.4296012608
 20
-428.8080537659
 10
172.2676612841
 20
-428.6686568115
 10
173.2235118956
 20
-428.5960158656
 10
174.2197157636
 20
-428.5960158656
 10
175.1755663751
 20
-428.6686568115
 10
176.0136263984
 20
-428.8080537659
 10
176.6660011945
 20
-429.0029136166
 10
177.0798392372
 20
-429.2374499774
 10
177.2216138296
 20
-429.492662107
  0
LINE
  5
331
330
1F
100
AcDbEntity
  8
0
  6
Continuous
 62
     7
370
    25
100
AcDbLine
 10
170.2216138296
 20
-432.5984906483
 30
0.0
 11
170.2216138296
 21
-429.492662107
 31
0.0
  0
LWPOLYLINE
  5
332
330
1F
100
AcDbEntity
  8
0
  6
Continuous
 62
     7
370
    25
100
AcDbPolyline
 90
       12
 70
   128
 43
0.0
 10
177.2216138296
 20
-432.5984906483
 10
177.0798392372
 20
-432.8537027779
 10
176.6660011945
 20
-433.0882391387
 10
176.0136263984
 20
-433.2830989894
 10
175.1755663751
 20
-433.4224959438
 10
174.2197157636
 20
-433.4951368897
 10
173.2235118956
 20
-433.4951368897
 10
172.2676612841
 20
-433.4224959438
 10
171.4296012608
 20
-433.2830989894
 10
170.7772264647
 20
-433.0882391387
 10
170.3633884219
 20
-432.8537027779
 10
170.2216138296
 20
-432.5984906483
  0
LINE
  5
333
330
1F
100
AcDbEntity
  8
0
  6
Continuous
 62
     7
370
    25
100
AcDbLine
 10
177.2216138296
 20
-429.492662107
 30
0.0
 11
177.2216138296
 21
-432.5984906483
 31
0.0
  0
ARC
  5
334
330
1F
100
AcDbEntity
  8
0
  6
Continuous
 62
     7
370
    25
100
AcDbCircle
 10
76.2979675569
 20
-414.0247415409
 30
0.0
 40
23.85790700696257
100
AcDbArc
 50
245.1728740978
 51
255.5904870104
  0
LINE
  5
335
330
1F
100
AcDbEntity
  8
0
  6
Continuous
 62
     7
370
    25
100
AcDbLine
 10
283.0792470311
 20
-435.6776719849
 30
0.0
 11
373.4698504135
 21
-391.6784343175
 31
0.0
  0
LINE
  5
336
330
1F
100
AcDbEntity
  8
0
  6
Continuous
 62
     7
370
    25
100
AcDbLine
 10
66.2804663744
 20
-435.6776719849
 30
0.0
 11
-24.1101370081
 21
-391.6784343175
 31
0.0
  0
ARC
  5
337
330
1F
100
AcDbEntity
  8
0
  6
Continuous
 62
     7
370
    25
100
AcDbCircle
 10
173.7216138296
 20
-446.568988014
 30
0.0
 40
13.15277807905218
100
AcDbArc
 50
85.3024832236
 51
94.6975167764
  0
ARC
  5
338
330
1F
100
AcDbEntity
  8
0
  6
Continuous
 62
     7
370
    25
100
AcDbCircle
 10
173.7216138296
 20
-434.145673849
 30
0.0
 40
13.15277807905241
100
AcDbArc
 50
85.3024832233
 51
94.6975167765
  0
ARC
  5
339
330
1F
100
AcDbEntity
  8
0
  6
Continuous
 62
     7
370
    25
100
AcDbCircle
 10
-21.4279392961
 20
-385.3859346567
 30
0.0
 40
6.840302372431206
100
AcDbArc
 50
222.3003168892
 51
246.9137207072
  0
ARC
  5
33A
330
1F
100
AcDbEntity
  8
0
  6
Continuous
 62
     7
370
    25
100
AcDbCircle
 10
370.7876527016
 20
-385.3859346567
 30
0.0
 40
6.840302372428836
100
AcDbArc
 50
293.0862792928
 51
317.6996831108
  0
LINE
  5
33B
330
1F
100
AcDbEntity
  8
0
  6
Continuous
 62
     8
370
    25
100
AcDbLine
 10
-909.7915397924
 20
39.9745561921
 30
0.0
 11
-909.7915397924
 21
38.1351737139
 31
0.0
  0
LINE
  5
33C
330
1F
100
AcDbEntity
  8
0
  6
Continuous
 62
     8
370
    25
100
AcDbLine
 10
1259.1512531978
 20
39.9745561921
 30
0.0
 11
1259.1512531978
 21
38.1351737139
 31
0.0
  0
LINE
  5
33D
330
1F
100
AcDbEntity
  8
0
  6
Continuous
 62
     8
370
    25
100
AcDbLine
 10
1259.1512531978
 20
-1880.6825563975
 30
0.0
 11
1259.1512531978
 21
-1878.8431739193
 31
0.0
  0
LINE
  5
33E
330
1F
100
AcDbEntity
  8
0
  6
Continuous
 62
     8
370
    25
100
AcDbLine
 10
-909.7915397924
 20
-1880.6825563975
 30
0.0
 11
-909.7915397924
 21
-1878.8431739193
 31
0.0
  0
LINE
  5
33F
330
1F
100
AcDbEntity
  8
0
  6
Continuous
 62
     8
370
    25
100
AcDbLine
 10
205.6798567027
 20
-1397.7746098615
 30
0.0
 11
205.6798567027
 21
-442.9244915211
 31
0.0
  0
LINE
  5
340
330
1F
100
AcDbEntity
  8
0
  6
Continuous
 62
     8
370
    25
100
AcDbLine
 10
143.6798567027
 20
-1397.7835086843
 30
0.0
 11
143.6798567027
 21
-442.9333903439
 31
0.0
  0
LWPOLYLINE
  5
341
330
1F
100
AcDbEntity
  8
0
  6
Continuous
 62
     8
370
    25
100
AcDbPolyline
 90
       25
 70
   128
 43
0.0
 10
1340.1010887959
 20
105.0973695358
 10
1339.9021123319
 20
105.1311322964
 10
1338.98408163
 20
105.4639749343
 10
1338.1262038818
 20
106.0760307831
 10
1337.3444597267
 20
106.9558984005
 10
1336.6534115792
 20
108.0871875175
 10
1336.0659323586
 20
109.4488243584
 10
1335.5929656914
 20
111.015444205
 10
1335.2433220517
 20
112.7578638939
 10
1335.0235146389
 20
114.6436254429
 10
1334.9376380492
 20
116.6376006825
 10
1334.987292001
 20
118.7026456267
 10
1335.1715515352
 20
120.8002923954
 10
1335.4869842452
 20
122.8914657981
 10
1335.9277142165
 20
124.9372112311
 10
1336.4855314837
 20
126.8994203276
 10
1337.1500449663
 20
128.7415408448
 10
1337.9088760357
 20
130.4292575628
 10
1338.7478891047
 20
131.9311315126
 10
1339.6514549473
 20
133.2191856241
 10
1340.6027418415
 20
134.2694258862
 10
1341.5840291123
 20
135.0622883101
 10
1342.5770372346
 20
135.5830033689
 10
1343.5632683459
 20
135.8218711263
 10
1344.327802873
 20
135.8078703156
  0
LWPOLYLINE
  5
342
330
1F
100
AcDbEntity
  8
0
  6
Continuous
 62
     8
370
    25
100
AcDbPolyline
 90
       25
 70
   128
 43
0.0
 10
-929.7100722283
 20
-1916.0972948694
 10
-929.5110957643
 20
-1916.1310576301
 10
-928.5930650624
 20
-1916.463900268
 10
-927.7351873142
 20
-1917.0759561168
 10
-926.9534431591
 20
-1917.9558237342
 10
-926.2623950115
 20
-1919.0871128512
 10
-925.674915791
 20
-1920.448749692
 10
-925.2019491238
 20
-1922.0153695387
 10
-924.8523054841
 20
-1923.7577892275
 10
-924.6324980712
 20
-1925.6435507766
 10
-924.5466214816
 20
-1927.6375260162
 10
-924.5962754334
 20
-1929.7025709604
 10
-924.7805349676
 20
-1931.800217729
 10
-925.0959676776
 20
-1933.8913911318
 10
-925.5366976489
 20
-1935.9371365647
 10
-926.094514916
 20
-1937.8993456612
 10
-926.7590283987
 20
-1939.7414661784
 10
-927.5178594681
 20
-1941.4291828965
 10
-928.3568725371
 20
-1942.9310568463
 10
-929.2604383797
 20
-1944.2191109578
 10
-930.2117252739
 20
-1945.2693512199
 10
-931.1930125447
 20
-1946.0622136438
 10
-932.186020667
 20
-1946.5829287026
 10
-933.1722517783
 20
-1946.82179646
 10
-933.9367863054
 20
-1946.8077956493
  0
LWPOLYLINE
  5
343
330
1F
100
AcDbEntity
  8
0
  6
Continuous
 62
     8
370
    25
100
AcDbPolyline
 90
       25
 70
   128
 43
0.0
 10
1283.2940269889
 20
-1946.8081360919
 10
1282.7924181549
 20
-1946.8372204028
 10
1281.811130884
 20
-1946.67476468
 10
1280.8181227617
 20
-1946.2287509253
 10
1279.8318916504
 20
-1945.5074875311
 10
1278.8708091697
 20
-1944.5244102697
 10
1277.9527784678
 20
-1943.2978320104
 10
1277.0949007197
 20
-1941.8506015855
 10
1276.3131565645
 20
-1940.2096781594
 10
1275.622108417
 20
-1938.405629031
 10
1275.0346291964
 20
-1936.4720602219
 10
1274.5616625292
 20
-1934.4449904608
 10
1274.2120188895
 20
-1932.3621802219
 10
1273.9922114767
 20
-1930.2624283191
 10
1273.906334887
 20
-1928.1848491574
 10
1273.9559888388
 20
-1926.1681441058
 10
1274.140248373
 20
-1924.2498805636
 10
1274.4556810831
 20
-1922.465792151
 10
1274.8964110544
 20
-1920.8491130597
 10
1275.4542283215
 20
-1919.4299589621
 10
1276.1187418042
 20
-1918.234766014
 10
1276.8775728735
 20
-1917.2857983986
 10
1277.7165859425
 20
-1916.6007335871
 10
1278.6201517851
 20
-1916.1923330407
 10
1279.0693368886
 20
-1916.0973565122
  0
LWPOLYLINE
  5
344
330
1F
100
AcDbEntity
  8
0
  6
Continuous
 62
     8
370
    25
100
AcDbPolyline
 90
       25
 70
   128
 43
0.0
 10
-990.7413753905
 20
-1945.8053697411
 10
-990.5423989265
 20
-1945.8391325018
 10
-989.6243682245
 20
-1946.1719751397
 10
-988.7664904764
 20
-1946.7840309885
 10
-987.9847463213
 20
-1947.6638986059
 10
-987.2936981737
 20
-1948.7951877229
 10
-986.7062189532
 20
-1950.1568245637
 10
-986.233252286
 20
-1951.7234444104
 10
-985.8836086462
 20
-1953.4658640992
 10
-985.6638012334
 20
-1955.3516256483
 10
-985.5779246437
 20
-1957.3456008879
 10
-985.6275785956
 20
-1959.4106458321
 10
-985.8118381297
 20
-1961.5082926007
 10
-986.1272708398
 20
-1963.5994660035
 10
-986.5680008111
 20
-1965.6452114365
 10
-987.1258180782
 20
-1967.6074205329
 10
-987.7903315609
 20
-1969.4495410501
 10
-988.5491626303
 20
-1971.1372577682
 10
-989.3881756992
 20
-1972.639131718
 10
-990.2917415418
 20
-1973.9271858295
 10
-991.243028436
 20
-1974.9774260916
 10
-992.2243157069
 20
-1975.7702885155
 10
-993.2173238292
 20
-1976.2910035743
 10
-994.2035549405
 20
-1976.5298713317
 10
-994.9680894676
 20
-1976.515870521
  0
LWPOLYLINE
  5
345
330
1F
100
AcDbEntity
  8
0
  6
Continuous
 62
     8
370
    25
100
AcDbPolyline
 90
       13
 70
   128
 43
0.0
 10
8.1329019595
 20
-1541.3473291923
 10
10.2434850205
 20
-1541.3846943379
 10
12.3147519124
 20
-1541.4960937326
 10
14.3081188521
 20
-1541.6794522166
 10
16.186453185
 20
-1541.9313541682
 10
17.9147650965
 20
-1542.2471071306
 10
19.4608594058
 20
-1542.6208292236
 10
20.7959353011
 20
-1543.0455587118
 10
21.8951228447
 20
-1543.5133836883
 10
22.7379462523
 20
-1544.015589459
 10
23.3087053186
 20
-1544.5428208806
 10
23.5967678819
 20
-1545.0852566293
 10
23.6329019559
 20
-1545.3591104134
  0
LWPOLYLINE
  5
346
330
1F
100
AcDbEntity
  8
0
  6
Continuous
 62
     8
370
    25
100
AcDbPolyline
 90
       13
 70
   128
 43
0.0
 10
-7.3670978923
 20
-1545.3595792094
 10
-7.330963963
 20
-1545.0852566293
 10
-7.0429013996
 20
-1544.5428208806
 10
-6.4721423334
 20
-1544.015589459
 10
-5.6293189258
 20
-1543.5133836883
 10
-4.5301313822
 20
-1543.0455587118
 10
-3.1950554868
 20
-1542.6208292236
 10
-1.6489611776
 20
-1542.2471071306
 10
0.0793507339
 20
-1541.9313541682
 10
1.9576850669
 20
-1541.6794522166
 10
3.9510520065
 20
-1541.4960937326
 10
6.0223188985
 20
-1541.3846943379
 10
8.1329019595
 20
-1541.3473291923
  0
LWPOLYLINE
  5
347
330
1F
100
AcDbEntity
  8
0
  6
Continuous
 62
     8
370
    25
100
AcDbPolyline
 90
       25
 70
   128
 43
0.0
 10
1279.0697856337
 20
75.389294664
 10
1278.8708091697
 20
75.4230574247
 10
1277.9527784678
 20
75.7559000626
 10
1277.0949007197
 20
76.3679559114
 10
1276.3131565645
 20
77.2478235288
 10
1275.622108417
 20
78.3791126458
 10
1275.0346291964
 20
79.7407494866
 10
1274.5616625292
 20
81.3073693333
 10
1274.2120188895
 20
83.0497890221
 10
1273.9922114767
 20
84.9355505712
 10
1273.906334887
 20
86.9295258108
 10
1273.9559888388
 20
88.994570755
 10
1274.140248373
 20
91.0922175236
 10
1274.4556810831
 20
93.1833909264
 10
1274.8964110544
 20
95.2291363594
 10
1275.4542283215
 20
97.1913454559
 10
1276.1187418042
 20
99.033465973
 10
1276.8775728735
 20
100.7211826911
 10
1277.7165859425
 20
102.2230566409
 10
1278.6201517851
 20
103.5111107524
 10
1279.5714386793
 20
104.5613510145
 10
1280.5527259502
 20
105.3542134384
 10
1281.5457340725
 20
105.8749284972
 10
1282.5319651838
 20
106.1137962546
 10
1283.2964997108
 20
106.0997954439
  0
LWPOLYLINE
  5
348
330
1F
100
AcDbEntity
  8
0
  6
Continuous
 62
     8
370
    25
100
AcDbPolyline
 90
       13
 70
   128
 43
0.0
 10
99.6798567027
 20
-1496.7852168847
 10
101.7904397637
 20
-1496.8225820303
 10
103.8617066557
 20
-1496.9339814251
 10
105.8550735953
 20
-1497.117339909
 10
107.7334079283
 20
-1497.3692418606
 10
109.4617198398
 20
-1497.684994823
 10
111.007814149
 20
-1498.0587169161
 10
112.3428900444
 20
-1498.4834464042
 10
113.442077588
 20
-1498.9512713807
 10
114.2849009956
 20
-1499.4534771514
 10
114.8556600618
 20
-1499.980708573
 10
115.1437226252
 20
-1500.5231443218
 10
115.1798566992
 20
-1500.7969981059
  0
LWPOLYLINE
  5
349
330
1F
100
AcDbEntity
  8
0
  6
Continuous
 62
     8
370
    25
100
AcDbPolyline
 90
       13
 70
   128
 43
0.0
 10
84.179856851
 20
-1500.7974669018
 10
84.2159907803
 20
-1500.5231443218
 10
84.5040533436
 20
-1499.980708573
 10
85.0748124099
 20
-1499.4534771514
 10
85.9176358175
 20
-1498.9512713807
 10
87.0168233611
 20
-1498.4834464042
 10
88.3518992564
 20
-1498.0587169161
 10
89.8979935657
 20
-1497.684994823
 10
91.6263054772
 20
-1497.3692418606
 10
93.5046398101
 20
-1497.117339909
 10
95.4980067498
 20
-1496.9339814251
 10
97.5692736417
 20
-1496.8225820303
 10
99.6798567027
 20
-1496.7852168847
  0
LWPOLYLINE
  5
34A
330
1F
100
AcDbEntity
  8
0
  6
Continuous
 62
     8
370
    25
100
AcDbPolyline
 90
       25
 70
   128
 43
0.0
 10
-994.9656167457
 20
135.8082107583
 10
-994.4640079116
 20
135.8372950691
 10
-993.4827206408
 20
135.6748393463
 10
-992.4897125185
 20
135.2288255916
 10
-991.5034814072
 20
134.5075621974
 10
-990.5423989265
 20
133.524484936
 10
-989.6243682245
 20
132.2979066767
 10
-988.7664904764
 20
130.8506762518
 10
-987.9847463213
 20
129.2097528258
 10
-987.2936981737
 20
127.4057036973
 10
-986.7062189532
 20
125.4721348883
 10
-986.233252286
 20
123.4450651271
 10
-985.8836086462
 20
121.3622548882
 10
-985.6638012334
 20
119.2625029854
 10
-985.5779246437
 20
117.1849238237
 10
-985.6275785956
 20
115.1682187721
 10
-985.8118381297
 20
113.2499552299
 10
-986.1272708398
 20
111.4658668173
 10
-986.5680008111
 20
109.849187726
 10
-987.1258180782
 20
108.4300336284
 10
-987.7903315609
 20
107.2348406803
 10
-988.5491626303
 20
106.2858730649
 10
-989.3881756992
 20
105.6008082534
 10
-990.2917415418
 20
105.192407707
 10
-990.7409266454
 20
105.0974311785
  0
LWPOLYLINE
  5
34B
330
1F
100
AcDbEntity
  8
0
  6
Continuous
 62
     8
370
    25
100
AcDbPolyline
 90
       25
 70
   128
 43
0.0
 10
234.1798567063
 20
-1500.7968260618
 10
234.2159907803
 20
-1500.5231443218
 10
234.5040533436
 20
-1499.980708573
 10
235.0748124099
 20
-1499.4534771514
 10
235.9176358175
 20
-1498.9512713807
 10
237.0168233611
 20
-1498.4834464042
 10
238.3518992564
 20
-1498.0587169161
 10
239.8979935657
 20
-1497.684994823
 10
241.6263054772
 20
-1497.3692418606
 10
243.5046398101
 20
-1497.117339909
 10
245.4980067498
 20
-1496.9339814251
 10
247.5692736417
 20
-1496.8225820303
 10
249.6798567027
 20
-1496.7852168847
 10
251.7904397637
 20
-1496.8225820303
 10
253.8617066557
 20
-1496.9339814251
 10
255.8550735953
 20
-1497.117339909
 10
257.7334079283
 20
-1497.3692418606
 10
259.4617198398
 20
-1497.684994823
 10
261.007814149
 20
-1498.0587169161
 10
262.3428900444
 20
-1498.4834464042
 10
263.442077588
 20
-1498.9512713807
 10
264.2849009956
 20
-1499.4534771514
 10
264.8556600618
 20
-1499.980708573
 10
265.1437226252
 20
-1500.5231443218
 10
265.1798565545
 20
-1500.7963572658
  0
LWPOLYLINE
  5
34C
330
1F
100
AcDbEntity
  8
0
  6
Continuous
 62
     8
370
    25
100
AcDbPolyline
 90
       13
 70
   128
 43
0.0
 10
341.226811446
 20
-299.3606710131
 10
339.116228385
 20
-299.3233058675
 10
337.044961493
 20
-299.2119064728
 10
335.0515945533
 20
-299.0285479888
 10
333.1732602204
 20
-298.7766460372
 10
331.4449483089
 20
-298.4608930748
 10
329.8988539997
 20
-298.0871709818
 10
328.5637781043
 20
-297.6624414936
 10
327.4645905607
 20
-297.1946165171
 10
326.6217671531
 20
-296.6924107464
 10
326.0510080869
 20
-296.1651793248
 10
325.7629455235
 20
-295.6227435761
 10
325.7268114495
 20
-295.3488897919
  0
LWPOLYLINE
  5
34D
330
1F
100
AcDbEntity
  8
0
  6
Continuous
 62
     8
370
    25
100
AcDbPolyline
 90
       13
 70
   128
 43
0.0
 10
356.7268112977
 20
-295.348420996
 10
356.6906773684
 20
-295.6227435761
 10
356.402614805
 20
-296.1651793248
 10
355.8318557388
 20
-296.6924107464
 10
354.9890323312
 20
-297.1946165171
 10
353.8898447876
 20
-297.6624414936
 10
352.5547688923
 20
-298.0871709818
 10
351.008674583
 20
-298.4608930748
 10
349.2803626715
 20
-298.7766460372
 10
347.4020283386
 20
-299.0285479888
 10
345.4086613989
 20
-299.2119064728
 10
343.337394507
 20
-299.3233058675
 10
341.226811446
 20
-299.3606710131
  0
LWPOLYLINE
  5
34E
330
1F
100
AcDbEntity
  8
0
  6
Continuous
 62
     8
370
    25
100
AcDbPolyline
 90
       13
 70
   128
 43
0.0
 10
249.6798567027
 20
-343.9227833206
 10
247.5692736417
 20
-343.8854181751
 10
245.4980067498
 20
-343.7740187803
 10
243.5046398101
 20
-343.5906602964
 10
241.6263054772
 20
-343.3387583448
 10
239.8979935657
 20
-343.0230053824
 10
238.3518992564
 20
-342.6492832893
 10
237.0168233611
 20
-342.2245538012
 10
235.9176358175
 20
-341.7567288247
 10
235.0748124099
 20
-341.254523054
 10
234.5040533436
 20
-340.7272916323
 10
234.2159907803
 20
-340.1848558836
 10
234.1798567063
 20
-339.9110020995
  0
LWPOLYLINE
  5
34F
330
1F
100
AcDbEntity
  8
0
  6
Continuous
 62
     8
370
    25
100
AcDbPolyline
 90
       13
 70
   128
 43
0.0
 10
265.1798565545
 20
-339.9105333036
 10
265.1437226252
 20
-340.1848558836
 10
264.8556600618
 20
-340.7272916323
 10
264.2849009956
 20
-341.254523054
 10
263.442077588
 20
-341.7567288247
 10
262.3428900444
 20
-342.2245538012
 10
261.007814149
 20
-342.6492832893
 10
259.4617198398
 20
-343.0230053824
 10
257.7334079283
 20
-343.3387583448
 10
255.8550735953
 20
-343.5906602964
 10
253.8617066557
 20
-343.7740187803
 10
251.7904397637
 20
-343.8854181751
 10
249.6798567027
 20
-343.9227833206
  0
LWPOLYLINE
  5
350
330
1F
100
AcDbEntity
  8
0
  6
Continuous
 62
     8
370
    25
100
AcDbPolyline
 90
       25
 70
   128
 43
0.0
 10
-933.9343135835
 20
106.1001358865
 10
-933.4327047494
 20
106.1292201974
 10
-932.4514174786
 20
105.9667644746
 10
-931.4584093563
 20
105.5207507199
 10
-930.472178245
 20
104.7994873257
 10
-929.5110957643
 20
103.8164100643
 10
-928.5930650624
 20
102.589831805
 10
-927.7351873142
 20
101.1426013801
 10
-926.9534431591
 20
99.501677954
 10
-926.2623950115
 20
97.6976288256
 10
-925.674915791
 20
95.7640600165
 10
-925.2019491238
 20
93.7369902554
 10
-924.8523054841
 20
91.6541800165
 10
-924.6324980712
 20
89.5544281137
 10
-924.5466214816
 20
87.476848952
 10
-924.5962754334
 20
85.4601439004
 10
-924.7805349676
 20
83.5418803582
 10
-925.0959676776
 20
81.7577919456
 10
-925.5366976489
 20
80.1411128543
 10
-926.094514916
 20
78.7219587567
 10
-926.7590283987
 20
77.5267658086
 10
-927.5178594681
 20
76.5777981932
 10
-928.3568725371
 20
75.8927333817
 10
-929.2604383797
 20
75.4843328353
 10
-929.7096234832
 20
75.3893563068
  0
LWPOLYLINE
  5
351
330
1F
100
AcDbEntity
  8
0
  6
Continuous
 62
     8
370
    25
100
AcDbPolyline
 90
       25
 70
   128
 43
0.0
 10
115.1798566992
 20
-339.9111741436
 10
115.1437226252
 20
-340.1848558836
 10
114.8556600618
 20
-340.7272916323
 10
114.2849009956
 20
-341.254523054
 10
113.442077588
 20
-341.7567288247
 10
112.3428900444
 20
-342.2245538012
 10
111.007814149
 20
-342.6492832893
 10
109.4617198398
 20
-343.0230053824
 10
107.7334079283
 20
-343.3387583448
 10
105.8550735953
 20
-343.5906602964
 10
103.8617066557
 20
-343.7740187803
 10
101.7904397637
 20
-343.8854181751
 10
99.6798567027
 20
-343.9227833206
 10
97.5692736417
 20
-343.8854181751
 10
95.4980067498
 20
-343.7740187803
 10
93.5046398101
 20
-343.5906602964
 10
91.6263054772
 20
-343.3387583448
 10
89.8979935657
 20
-343.0230053824
 10
88.3518992564
 20
-342.6492832893
 10
87.0168233611
 20
-342.2245538012
 10
85.9176358175
 20
-341.7567288247
 10
85.0748124099
 20
-341.254523054
 10
84.5040533436
 20
-340.7272916323
 10
84.2159907803
 20
-340.1848558836
 10
84.179856851
 20
-339.9116429396
  0
LWPOLYLINE
  5
352
330
1F
100
AcDbEntity
  8
0
  6
Continuous
 62
     8
370
    25
100
AcDbPolyline
 90
       25
 70
   128
 43
0.0
 10
1344.3253301511
 20
-1976.5162109636
 10
1343.8237213171
 20
-1976.5452952745
 10
1342.8424340462
 20
-1976.3828395517
 10
1341.8494259239
 20
-1975.936825797
 10
1340.8631948126
 20
-1975.2155624028
 10
1339.9021123319
 20
-1974.2324851414
 10
1338.98408163
 20
-1973.0059068821
 10
1338.1262038818
 20
-1971.5586764572
 10
1337.3444597267
 20
-1969.9177530311
 10
1336.6534115792
 20
-1968.1137039027
 10
1336.0659323586
 20
-1966.1801350936
 10
1335.5929656914
 20
-1964.1530653325
 10
1335.2433220517
 20
-1962.0702550936
 10
1335.0235146389
 20
-1959.9705031908
 10
1334.9376380492
 20
-1957.8929240291
 10
1334.987292001
 20
-1955.8762189775
 10
1335.1715515352
 20
-1953.9579554353
 10
1335.4869842452
 20
-1952.1738670227
 10
1335.9277142165
 20
-1950.5571879314
 10
1336.4855314837
 20
-1949.1380338338
 10
1337.1500449663
 20
-1947.9428408857
 10
1337.9088760357
 20
-1946.9938732703
 10
1338.7478891047
 20
-1946.3088084588
 10
1339.6514549473
 20
-1945.9004079124
 10
1340.1006400508
 20
-1945.8054313839
  0
LWPOLYLINE
  5
353
330
1F
100
AcDbEntity
  8
0
  6
Continuous
 62
     8
370
    25
100
AcDbPolyline
 90
       25
 70
   128
 43
0.0
 10
23.6329019559
 20
-295.349061836
 10
23.5967678819
 20
-295.6227435761
 10
23.3087053186
 20
-296.1651793248
 10
22.7379462523
 20
-296.6924107464
 10
21.8951228447
 20
-297.1946165171
 10
20.7959353011
 20
-297.6624414936
 10
19.4608594058
 20
-298.0871709818
 10
17.9147650965
 20
-298.4608930748
 10
16.186453185
 20
-298.7766460372
 10
14.3081188521
 20
-299.0285479888
 10
12.3147519124
 20
-299.2119064728
 10
10.2434850205
 20
-299.3233058675
 10
8.1329019595
 20
-299.3606710131
 10
6.0223188985
 20
-299.3233058675
 10
3.9510520065
 20
-299.2119064728
 10
1.9576850669
 20
-299.0285479888
 10
0.0793507339
 20
-298.7766460372
 10
-1.6489611776
 20
-298.4608930748
 10
-3.1950554868
 20
-298.0871709818
 10
-4.5301313822
 20
-297.6624414936
 10
-5.6293189258
 20
-297.1946165171
 10
-6.4721423334
 20
-296.6924107464
 10
-7.0429013996
 20
-296.1651793248
 10
-7.330963963
 20
-295.6227435761
 10
-7.3670978923
 20
-295.349530632
  0
LWPOLYLINE
  5
354
330
1F
100
AcDbEntity
  8
0
  6
Continuous
 62
     8
370
    25
100
AcDbPolyline
 90
       25
 70
   128
 43
0.0
 10
325.7268114495
 20
-1545.3589383693
 10
325.7629455235
 20
-1545.0852566293
 10
326.0510080869
 20
-1544.5428208806
 10
326.6217671531
 20
-1544.015589459
 10
327.4645905607
 20
-1543.5133836883
 10
328.5637781043
 20
-1543.0455587118
 10
329.8988539997
 20
-1542.6208292236
 10
331.4449483089
 20
-1542.2471071306
 10
333.1732602204
 20
-1541.9313541682
 10
335.0515945533
 20
-1541.6794522166
 10
337.044961493
 20
-1541.4960937326
 10
339.116228385
 20
-1541.3846943379
 10
341.226811446
 20
-1541.3473291923
 10
343.337394507
 20
-1541.3846943379
 10
345.4086613989
 20
-1541.4960937326
 10
347.4020283386
 20
-1541.6794522166
 10
349.2803626715
 20
-1541.9313541682
 10
351.008674583
 20
-1542.2471071306
 10
352.5547688923
 20
-1542.6208292236
 10
353.8898447876
 20
-1543.0455587118
 10
354.9890323312
 20
-1543.5133836883
 10
355.8318557388
 20
-1544.015589459
 10
356.402614805
 20
-1544.5428208806
 10
356.6906773684
 20
-1545.0852566293
 10
356.7268112977
 20
-1545.3584695734
  0
LWPOLYLINE
  5
355
330
1F
100
AcDbEntity
  8
0
  6
Continuous
 62
     8
370
    25
100
AcDbPolyline
 90
        9
 70
   128
 43
0.0
 10
18.177461998
 20
-282.477550609
 10
18.2583373574
 20
-282.5671766464
 10
18.4814854823
 20
-283.0181936335
 10
18.4069237009
 20
-283.4724837916
 10
18.0367970198
 20
-283.91697802
 10
17.3817533098
 20
-284.338889029
 10
16.4606369859
 20
-284.726079207
 10
15.2999468875
 20
-285.0674097976
 10
14.5483401378
 20
-285.236674226
  0
LWPOLYLINE
  5
356
330
1F
100
AcDbEntity
  8
0
  6
Continuous
 62
     8
370
    25
100
AcDbPolyline
 90
        9
 70
   128
 43
0.0
 10
1.6958868672
 20
-285.2322564568
 10
0.9658570315
 20
-285.0674097976
 10
-0.1948330669
 20
-284.726079207
 10
-1.1159493909
 20
-284.338889029
 10
-1.7709931009
 20
-283.91697802
 10
-2.1411197819
 20
-283.4724837916
 10
-2.2156815633
 20
-283.0181936335
 10
-1.9925334384
 20
-282.5671766464
 10
-1.9033936233
 20
-282.4691112257
  0
LWPOLYLINE
  5
357
330
1F
100
AcDbEntity
  8
0
  6
Continuous
 62
     8
370
    25
100
AcDbPolyline
 90
       21
 70
   128
 43
0.0
 10
18.8820090303
 20
-283.7114776804
 10
18.8461852593
 20
-283.9053782
 10
18.5539548183
 20
-284.3586327293
 10
17.977465221
 20
-284.7932563781
 10
17.1324416008
 20
-285.1973937462
 10
16.0419339992
 20
-285.5600210197
 10
14.7356886209
 20
-285.8712466719
 10
13.2493364346
 20
-286.1225812783
 10
11.6234212534
 20
-286.307169086
 10
9.902293805
 20
-286.4199750209
 10
8.1329019595
 20
-286.457922031
 10
6.363510114
 20
-286.4199750209
 10
4.6423826655
 20
-286.307169086
 10
3.0164674843
 20
-286.1225812783
 10
1.5301152981
 20
-285.8712466719
 10
0.2238699197
 20
-285.5600210197
 10
-0.8666376818
 20
-285.1973937462
 10
-1.7116613021
 20
-284.7932563781
 10
-2.2881508994
 20
-284.3586327293
 10
-2.5803813403
 20
-283.9053782
 10
-2.6170980405
 20
-283.6756172961
  0
LWPOLYLINE
  5
358
330
1F
100
AcDbEntity
  8
0
  6
Continuous
 62
     8
370
    25
100
AcDbPolyline
 90
        9
 70
   128
 43
0.0
 10
331.1822514074
 20
-1558.2304495964
 10
331.1013760481
 20
-1558.140823559
 10
330.8782279232
 20
-1557.6898065719
 10
330.9527897046
 20
-1557.2355164138
 10
331.3229163856
 20
-1556.7910221854
 10
331.9779600956
 20
-1556.3691111764
 10
332.8990764196
 20
-1555.9819209984
 10
334.059766518
 20
-1555.6405904078
 10
334.8113732676
 20
-1555.4713259794
  0
LWPOLYLINE
  5
359
330
1F
100
AcDbEntity
  8
0
  6
Continuous
 62
     8
370
    25
100
AcDbPolyline
 90
        9
 70
   128
 43
0.0
 10
347.6638265383
 20
-1555.4757437485
 10
348.3938563739
 20
-1555.6405904078
 10
349.5545464724
 20
-1555.9819209984
 10
350.4756627963
 20
-1556.3691111764
 10
351.1307065063
 20
-1556.7910221854
 10
351.5008331874
 20
-1557.2355164138
 10
351.5753949688
 20
-1557.6898065719
 10
351.3522468439
 20
-1558.140823559
 10
351.2631070287
 20
-1558.2388889797
  0
LWPOLYLINE
  5
35A
330
1F
100
AcDbEntity
  8
0
  6
Continuous
 62
     8
370
    25
100
AcDbPolyline
 90
       21
 70
   128
 43
0.0
 10
330.4777043751
 20
-1556.996522525
 10
330.5135281461
 20
-1556.8026220053
 10
330.8057585871
 20
-1556.349367476
 10
331.3822481844
 20
-1555.9147438273
 10
332.2272718046
 20
-1555.5106064592
 10
333.3177794062
 20
-1555.1479791857
 10
334.6240247846
 20
-1554.8367535335
 10
336.1103769708
 20
-1554.5854189271
 10
337.736292152
 20
-1554.4008311194
 10
339.4574196004
 20
-1554.2880251845
 10
341.226811446
 20
-1554.2500781744
 10
342.9962032915
 20
-1554.2880251845
 10
344.7173307399
 20
-1554.4008311194
 10
346.3432459211
 20
-1554.5854189271
 10
347.8295981074
 20
-1554.8367535335
 10
349.1358434857
 20
-1555.1479791857
 10
350.2263510873
 20
-1555.5106064592
 10
351.0713747075
 20
-1555.9147438273
 10
351.6478643048
 20
-1556.349367476
 10
351.9400947458
 20
-1556.8026220053
 10
351.976811446
 20
-1557.0323829093
  0
LWPOLYLINE
  5
35B
330
1F
100
AcDbEntity
  8
0
  6
Continuous
 62
     8
370
    25
100
AcDbPolyline
 90
       27
 70
   128
 43
0.0
 10
-1008.2213300847
 20
126.0018383768
 10
-1007.7468198775
 20
127.1588591471
 10
-1007.165125086
 20
128.0787465671
 10
-1006.4929800102
 20
128.7350371505
 10
-1005.7497210402
 20
129.1088506121
 10
-1004.9567303834
 20
129.1894330192
 10
-1004.1368209371
 20
128.9744661626
 10
-1003.3135800032
 20
128.4701342476
 10
-1002.5106907247
 20
127.6909459849
 10
-1001.7512507642
 20
126.6593172023
 10
-1001.0571078266
 20
125.4049259816
 10
-1000.4482311405
 20
123.9638588743
 10
-999.9421369796
 20
122.3775727573
 10
-999.5533847513
 20
120.6917021942
 10
-999.2931581496
 20
118.9547466114
 10
-999.1689434199
 20
117.2166750588
 10
-999.1843139939
 20
115.5274886903
 10
-999.3388276881
 20
113.9357823223
 10
-999.628039425
 20
112.4873464489
 10
-1000.0436291093
 20
111.2238499332
 10
-1000.5736409825
 20
110.1816412694
 10
-1001.202827568
 20
109.3907029032
 10
-1001.9130883134
 20
108.8737886913
 10
-1002.6839903101
 20
108.6457693146
 10
-1003.4933561112
 20
108.7132044752
 10
-1004.3179017364
 20
109.0741541865
 10
-1004.5998760278
 20
109.2638865379
  0
LWPOLYLINE
  5
35C
330
1F
100
AcDbEntity
  8
0
  6
Continuous
 62
     8
370
    25
100
AcDbPolyline
 90
       21
 70
   128
 43
0.0
 10
-1004.802008107
 20
129.651695669
 10
-1004.6056144371
 20
129.6532657773
 10
-1003.7794832036
 20
129.4790650648
 10
-1002.9463850262
 20
129.0185956787
 10
-1002.1290446516
 20
128.2844180235
 10
-1001.3497569944
 20
127.2965585518
 10
-1000.6297789905
 20
126.0819634947
 10
-999.9887497631
 20
124.6737638392
 10
-999.4441549183
 20
123.1103716011
 10
-999.010849584
 20
121.4344320451
 10
-998.7006532
 20
119.6916604335
 10
-998.5220271152
 20
117.9295950328
 10
-998.4798437834
 20
116.1963003937
 10
-998.5752538561
 20
114.5390562756
 10
-998.8056547951
 20
113.0030679779
 10
-999.1647618634
 20
111.6302332575
 10
-999.6427795563
 20
110.4579994667
 10
-1000.2266687973
 20
109.5183420876
 10
-1000.90050261
 20
108.836892524
 10
-1001.6459005645
 20
108.4322389435
 10
-1002.0439112377
 20
108.33677077
  0
LWPOLYLINE
  5
35D
330
1F
100
AcDbEntity
  8
0
  6
Continuous
 62
     8
370
    25
100
AcDbPolyline
 90
       13
 70
   128
 43
0.0
 10
341.226811446
 20
-285.8127971358
 10
339.4763150851
 20
-285.7742358939
 10
337.7761773173
 20
-285.6596615052
 10
336.1753080109
 20
-285.4723700661
 10
334.7197612611
 20
-285.2177496104
 10
333.4514104978
 20
-284.9031251049
 10
332.4067438631
 20
-284.5375477238
 10
331.6158145141
 20
-284.1315344629
 10
331.1013760481
 20
-283.6967655843
 10
330.8782279232
 20
-283.2457485973
 10
330.9527897046
 20
-282.7914584392
 10
331.3229163856
 20
-282.3469642108
 10
331.4599612386
 20
-282.2393242182
  0
LWPOLYLINE
  5
35E
330
1F
100
AcDbEntity
  8
0
  6
Continuous
 62
     8
370
    25
100
AcDbPolyline
 90
       13
 70
   128
 43
0.0
 10
351.0333177635
 20
-282.2689399866
 10
351.1307065063
 20
-282.3469642108
 10
351.5008331874
 20
-282.7914584392
 10
351.5753949688
 20
-283.2457485973
 10
351.3522468439
 20
-283.6967655843
 10
350.8378083779
 20
-284.1315344629
 10
350.0468790289
 20
-284.5375477238
 10
349.0022123942
 20
-284.9031251049
 10
347.7338616308
 20
-285.2177496104
 10
346.278314881
 20
-285.4723700661
 10
344.6774455746
 20
-285.6596615052
 10
342.9773078069
 20
-285.7742358939
 10
341.226811446
 20
-285.8127971358
  0
LWPOLYLINE
  5
35F
330
1F
100
AcDbEntity
  8
0
  6
Continuous
 62
     8
370
    25
100
AcDbPolyline
 90
       11
 70
   128
 43
0.0
 10
341.226811446
 20
-286.457922031
 10
339.4574196004
 20
-286.4199750209
 10
337.736292152
 20
-286.307169086
 10
336.1103769708
 20
-286.1225812783
 10
334.6240247846
 20
-285.8712466719
 10
333.3177794062
 20
-285.5600210197
 10
332.2272718046
 20
-285.1973937462
 10
331.3822481844
 20
-284.7932563781
 10
330.8057585871
 20
-284.3586327293
 10
330.5135281461
 20
-283.9053782
 10
330.4777043751
 20
-283.6397569118
  0
LWPOLYLINE
  5
360
330
1F
100
AcDbEntity
  8
0
  6
Continuous
 62
     8
370
    25
100
AcDbPolyline
 90
       11
 70
   128
 43
0.0
 10
351.9745050558
 20
-283.7332486147
 10
351.9400947458
 20
-283.9053782
 10
351.6478643048
 20
-284.3586327293
 10
351.0713747075
 20
-284.7932563781
 10
350.2263510873
 20
-285.1973937462
 10
349.1358434857
 20
-285.5600210197
 10
347.8295981074
 20
-285.8712466719
 10
346.3432459211
 20
-286.1225812783
 10
344.7173307399
 20
-286.307169086
 10
342.9962032915
 20
-286.4199750209
 10
341.226811446
 20
-286.457922031
  0
LWPOLYLINE
  5
361
330
1F
100
AcDbEntity
  8
0
  6
Continuous
 62
     8
370
    25
100
AcDbPolyline
 90
       31
 70
   128
 43
0.0
 10
1357.5810434902
 20
115.9192264132
 10
1357.106533283
 20
114.3002530371
 10
1356.5248384914
 20
112.8140649968
 10
1355.8526934156
 20
111.5034172163
 10
1355.1094344457
 20
110.406014646
 10
1354.3164437888
 20
109.5534275598
 10
1353.4965343425
 20
108.9701833359
 10
1352.6732934087
 20
108.6730608486
 10
1351.8704041301
 20
108.670607771
 10
1351.1109641696
 20
108.9628946737
 10
1350.416821232
 20
109.5415129945
 10
1349.8079445459
 20
110.389816938
 10
1349.301850385
 20
111.4834023441
 10
1348.9130981568
 20
112.7908087519
 10
1348.652871555
 20
114.2744244592
 10
1348.5286568254
 20
115.8915685436
 10
1348.5440273993
 20
117.5957187139
 10
1348.6985410936
 20
119.3378496726
 10
1348.9877528304
 20
121.0678434837
 10
1349.4033425147
 20
122.7359313753
 10
1349.9333543879
 20
124.2941254957
 10
1350.5625409735
 20
125.697599437
 10
1351.2728017188
 20
126.9059778093
 10
1352.0437037155
 20
127.8844977669
 10
1352.8530695167
 20
128.6050090722
 10
1353.6776151418
 20
129.0467839268
 10
1354.4936199145
 20
129.1971132724
 10
1355.2776088632
 20
129.0516724075
 10
1356.0070280533
 20
128.614645401
 10
1356.6608934226
 20
127.8986047241
 10
1356.7858775223
 20
127.7159843983
  0
LWPOLYLINE
  5
362
330
1F
100
AcDbEntity
  8
0
  6
Continuous
 62
     8
370
    25
100
AcDbPolyline
 90
       21
 70
   128
 43
0.0
 10
1351.4787642767
 20
108.3272302484
 10
1350.7094703998
 20
108.5553529973
 10
1349.989492396
 20
109.0690237962
 10
1349.3484631685
 20
109.8531586424
 10
1348.8038683237
 20
110.8863683812
 10
1348.3705629894
 20
112.1404697444
 10
1348.0603666054
 20
113.581254116
 10
1347.8817405206
 20
115.1694206541
 10
1347.8395571889
 20
116.8616483157
 10
1347.9349672615
 20
118.6117775414
 10
1348.1653682005
 20
120.3720693683
 10
1348.5244752688
 20
122.0945076239
 10
1349.0024929618
 20
123.7321086829
 10
1349.5863822028
 20
125.2402030571
 10
1350.2602160154
 20
126.5776538634
 10
1351.0056139699
 20
127.7079789302
 10
1351.8022435531
 20
128.6003459363
 10
1352.6283747866
 20
129.2304134359
 10
1353.4614729639
 20
129.5809948302
 10
1354.2788133386
 20
129.6425271726
 10
1354.349350795
 20
129.6339725002
  0
LWPOLYLINE
  5
363
330
1F
100
AcDbEntity
  8
0
  6
Continuous
 62
     8
370
    25
100
AcDbPolyline
 90
       31
 70
   128
 43
0.0
 10
-1008.2213300847
 20
-1956.6272266186
 10
-1007.7468198775
 20
-1955.0082532425
 10
-1007.165125086
 20
-1953.5220652022
 10
-1006.4929800102
 20
-1952.2114174217
 10
-1005.7497210402
 20
-1951.1140148514
 10
-1004.9567303834
 20
-1950.2614277652
 10
-1004.1368209371
 20
-1949.6781835413
 10
-1003.3135800032
 20
-1949.381061054
 10
-1002.5106907247
 20
-1949.3786079764
 10
-1001.7512507642
 20
-1949.6708948791
 10
-1001.0571078266
 20
-1950.2495131999
 10
-1000.4482311405
 20
-1951.0978171434
 10
-999.9421369796
 20
-1952.1914025495
 10
-999.5533847513
 20
-1953.4988089572
 10
-999.2931581496
 20
-1954.9824246646
 10
-999.1689434199
 20
-1956.599568749
 10
-999.1843139939
 20
-1958.3037189193
 10
-999.3388276881
 20
-1960.045849878
 10
-999.628039425
 20
-1961.7758436891
 10
-1000.0436291093
 20
-1963.4439315807
 10
-1000.5736409825
 20
-1965.0021257011
 10
-1001.202827568
 20
-1966.4055996424
 10
-1001.9130883134
 20
-1967.6139780147
 10
-1002.6839903101
 20
-1968.5924979723
 10
-1003.4933561112
 20
-1969.3130092776
 10
-1004.3179017364
 20
-1969.7547841322
 10
-1005.1339065091
 20
-1969.9051134778
 10
-1005.9178954578
 20
-1969.7596726129
 10
-1006.6473146478
 20
-1969.3226456063
 10
-1007.3011800171
 20
-1968.6066049294
 10
-1007.4261641169
 20
-1968.4239846037
  0
LWPOLYLINE
  5
364
330
1F
100
AcDbEntity
  8
0
  6
Continuous
 62
     8
370
    25
100
AcDbPolyline
 90
       21
 70
   128
 43
0.0
 10
-1002.1190508713
 20
-1949.0352304537
 10
-1001.3497569944
 20
-1949.2633532027
 10
-1000.6297789905
 20
-1949.7770240016
 10
-999.9887497631
 20
-1950.5611588478
 10
-999.4441549183
 20
-1951.5943685866
 10
-999.010849584
 20
-1952.8484699498
 10
-998.7006532
 20
-1954.2892543214
 10
-998.5220271152
 20
-1955.8774208595
 10
-998.4798437834
 20
-1957.5696485211
 10
-998.5752538561
 20
-1959.3197777468
 10
-998.8056547951
 20
-1961.0800695736
 10
-999.1647618634
 20
-1962.8025078293
 10
-999.6427795563
 20
-1964.4401088882
 10
-1000.2266687973
 20
-1965.9482032625
 10
-1000.90050261
 20
-1967.2856540687
 10
-1001.6459005645
 20
-1968.4159791356
 10
-1002.4425301476
 20
-1969.3083461416
 10
-1003.2686613811
 20
-1969.9384136413
 10
-1004.1017595585
 20
-1970.2889950356
 10
-1004.9190999332
 20
-1970.3505273779
 10
-1004.9896373896
 20
-1970.3419727056
  0
LWPOLYLINE
  5
365
330
1F
100
AcDbEntity
  8
0
  6
Continuous
 62
     8
370
    25
100
AcDbPolyline
 90
       31
 70
   128
 43
0.0
 10
-947.1900269226
 20
-1926.9191517469
 10
-946.7155167153
 20
-1925.3001783708
 10
-946.1338219238
 20
-1923.8139903305
 10
-945.461676848
 20
-1922.50334255
 10
-944.7184178781
 20
-1921.4059399797
 10
-943.9254272212
 20
-1920.5533528935
 10
-943.1055177749
 20
-1919.9701086696
 10
-942.2822768411
 20
-1919.6729861823
 10
-941.4793875625
 20
-1919.6705331047
 10
-940.719947602
 20
-1919.9628200074
 10
-940.0258046644
 20
-1920.5414383282
 10
-939.4169279783
 20
-1921.3897422717
 10
-938.9108338174
 20
-1922.4833276778
 10
-938.5220815891
 20
-1923.7907340855
 10
-938.2618549874
 20
-1925.2743497929
 10
-938.1376402577
 20
-1926.8914938773
 10
-938.1530108317
 20
-1928.5956440476
 10
-938.307524526
 20
-1930.3377750062
 10
-938.5967362628
 20
-1932.0677688174
 10
-939.0123259471
 20
-1933.735856709
 10
-939.5423378203
 20
-1935.2940508293
 10
-940.1715244059
 20
-1936.6975247707
 10
-940.8817851512
 20
-1937.905903143
 10
-941.6526871479
 20
-1938.8844231006
 10
-942.4620529491
 20
-1939.6049344059
 10
-943.2865985742
 20
-1940.0467092605
 10
-944.1026033469
 20
-1940.1970386061
 10
-944.8865922956
 20
-1940.0515977412
 10
-945.6160114857
 20
-1939.6145707346
 10
-946.269876855
 20
-1938.8985300577
 10
-946.3948609547
 20
-1938.715909732
  0
LWPOLYLINE
  5
366
330
1F
100
AcDbEntity
  8
0
  6
Continuous
 62
     8
370
    25
100
AcDbPolyline
 90
       21
 70
   128
 43
0.0
 10
-941.0877477091
 20
-1919.327155582
 10
-940.3184538322
 20
-1919.555278331
 10
-939.5984758284
 20
-1920.0689491299
 10
-938.9574466009
 20
-1920.8530839761
 10
-938.4128517561
 20
-1921.8862937149
 10
-937.9795464218
 20
-1923.1403950781
 10
-937.6693500378
 20
-1924.5811794496
 10
-937.490723953
 20
-1926.1693459878
 10
-937.4485406213
 20
-1927.8615736494
 10
-937.5439506939
 20
-1929.6117028751
 10
-937.7743516329
 20
-1931.3719947019
 10
-938.1334587012
 20
-1933.0944329576
 10
-938.6114763942
 20
-1934.7320340165
 10
-939.1953656352
 20
-1936.2401283907
 10
-939.8691994478
 20
-1937.577579197
 10
-940.6145974023
 20
-1938.7079042639
 10
-941.4112269855
 20
-1939.6002712699
 10
-942.237358219
 20
-1940.2303387696
 10
-943.0704563963
 20
-1940.5809201639
 10
-943.887796771
 20
-1940.6424525062
 10
-943.9583342274
 20
-1940.6338978339
  0
LWPOLYLINE
  5
367
330
1F
100
AcDbEntity
  8
0
  6
Continuous
 62
     8
370
    25
100
AcDbPolyline
 90
        9
 70
   128
 43
0.0
 10
109.7244167413
 20
-327.0396629165
 10
109.8052921006
 20
-327.129288954
 10
110.0284402255
 20
-327.5803059411
 10
109.9538784441
 20
-328.0345960992
 10
109.5837517631
 20
-328.4790903276
 10
108.9287080531
 20
-328.9010013365
 10
108.0075917291
 20
-329.2881915146
 10
106.8469016307
 20
-329.6295221052
 10
106.0952948811
 20
-329.7987865335
  0
LWPOLYLINE
  5
368
330
1F
100
AcDbEntity
  8
0
  6
Continuous
 62
     8
370
    25
100
AcDbPolyline
 90
        9
 70
   128
 43
0.0
 10
93.2428416104
 20
-329.7943687644
 10
92.5128117747
 20
-329.6295221052
 10
91.3521216763
 20
-329.2881915146
 10
90.4310053524
 20
-328.9010013365
 10
89.7759616424
 20
-328.4790903276
 10
89.4058349613
 20
-328.0345960992
 10
89.3312731799
 20
-327.5803059411
 10
89.5544213048
 20
-327.129288954
 10
89.64356112
 20
-327.0312235333
  0
LWPOLYLINE
  5
369
330
1F
100
AcDbEntity
  8
0
  6
Continuous
 62
     8
370
    25
100
AcDbPolyline
 90
       21
 70
   128
 43
0.0
 10
110.4289637736
 20
-328.273589988
 10
110.3931400025
 20
-328.4674905076
 10
110.1009095616
 20
-328.9207450369
 10
109.5244199643
 20
-329.3553686857
 10
108.679396344
 20
-329.7595060538
 10
107.5888887425
 20
-330.1221333273
 10
106.2826433641
 20
-330.4333589795
 10
104.7962911779
 20
-330.6846935859
 10
103.1703759967
 20
-330.8692813936
 10
101.4492485482
 20
-330.9820873284
 10
99.6798567027
 20
-331.0200343386
 10
97.9104648572
 20
-330.9820873284
 10
96.1893374088
 20
-330.8692813936
 10
94.5634222276
 20
-330.6846935859
 10
93.0770700413
 20
-330.4333589795
 10
91.770824663
 20
-330.1221333273
 10
90.6803170614
 20
-329.7595060538
 10
89.8352934412
 20
-329.3553686857
 10
89.2588038439
 20
-328.9207450369
 10
88.9665734029
 20
-328.4674905076
 10
88.9298567027
 20
-328.2377296037
  0
LWPOLYLINE
  5
36A
330
1F
100
AcDbEntity
  8
0
  6
Continuous
 62
     8
370
    25
100
AcDbPolyline
 90
       27
 70
   128
 43
0.0
 10
1296.549740328
 20
-1937.0017637104
 10
1296.0752301208
 20
-1938.1587844808
 10
1295.4935353293
 20
-1939.0786719008
 10
1294.8213902535
 20
-1939.7349624842
 10
1294.0781312835
 20
-1940.1087759457
 10
1293.2851406266
 20
-1940.1893583528
 10
1292.4652311803
 20
-1939.9743914963
 10
1291.6419902465
 20
-1939.4700595812
 10
1290.839100968
 20
-1938.6908713186
 10
1290.0796610074
 20
-1937.659242536
 10
1289.3855180699
 20
-1936.4048513153
 10
1288.7766413838
 20
-1934.963784208
 10
1288.2705472228
 20
-1933.377498091
 10
1287.8817949946
 20
-1931.6916275278
 10
1287.6215683929
 20
-1929.9546719451
 10
1287.4973536632
 20
-1928.2166003925
 10
1287.5127242372
 20
-1926.527414024
 10
1287.6672379314
 20
-1924.9357076559
 10
1287.9564496682
 20
-1923.4872717826
 10
1288.3720393525
 20
-1922.2237752669
 10
1288.9020512258
 20
-1921.181566603
 10
1289.5312378113
 20
-1920.3906282368
 10
1290.2414985566
 20
-1919.873714025
 10
1291.0124005533
 20
-1919.6456946482
 10
1291.8217663545
 20
-1919.7131298089
 10
1292.6463119796
 20
-1920.0740795201
 10
1292.9282862711
 20
-1920.2638118716
  0
LWPOLYLINE
  5
36B
330
1F
100
AcDbEntity
  8
0
  6
Continuous
 62
     8
370
    25
100
AcDbPolyline
 90
       21
 70
   128
 43
0.0
 10
1293.1304183502
 20
-1940.6516210027
 10
1292.9340246804
 20
-1940.653191111
 10
1292.1078934469
 20
-1940.4789903985
 10
1291.2747952695
 20
-1940.0185210124
 10
1290.4574548949
 20
-1939.2843433572
 10
1289.6781672377
 20
-1938.2964838854
 10
1288.9581892338
 20
-1937.0818888284
 10
1288.3171600063
 20
-1935.6736891729
 10
1287.7725651616
 20
-1934.1102969348
 10
1287.3392598272
 20
-1932.4343573788
 10
1287.0290634433
 20
-1930.6915857672
 10
1286.8504373585
 20
-1928.9295203664
 10
1286.8082540267
 20
-1927.1962257273
 10
1286.9036640994
 20
-1925.5389816092
 10
1287.1340650383
 20
-1924.0029933116
 10
1287.4931721067
 20
-1922.6301585912
 10
1287.9711897996
 20
-1921.4579248004
 10
1288.5550790406
 20
-1920.5182674213
 10
1289.2289128533
 20
-1919.8368178577
 10
1289.9743108077
 20
-1919.4321642772
 10
1290.372321481
 20
-1919.3366961037
  0
LWPOLYLINE
  5
36C
330
1F
100
AcDbEntity
  8
0
  6
Continuous
 62
     8
370
    25
100
AcDbPolyline
 90
       27
 70
   128
 43
0.0
 10
-947.1900269226
 20
96.293763505
 10
-946.7155167153
 20
97.4507842754
 10
-946.1338219238
 20
98.3706716954
 10
-945.461676848
 20
99.0269622788
 10
-944.7184178781
 20
99.4007757404
 10
-943.9254272212
 20
99.4813581475
 10
-943.1055177749
 20
99.2663912909
 10
-942.2822768411
 20
98.7620593759
 10
-941.4793875625
 20
97.9828711132
 10
-940.719947602
 20
96.9512423306
 10
-940.0258046644
 20
95.6968511099
 10
-939.4169279783
 20
94.2557840026
 10
-938.9108338174
 20
92.6694978856
 10
-938.5220815891
 20
90.9836273225
 10
-938.2618549874
 20
89.2466717397
 10
-938.1376402577
 20
87.5086001871
 10
-938.1530108317
 20
85.8194138186
 10
-938.307524526
 20
84.2277074506
 10
-938.5967362628
 20
82.7792715772
 10
-939.0123259471
 20
81.5157750615
 10
-939.5423378203
 20
80.4735663977
 10
-940.1715244059
 20
79.6826280314
 10
-940.8817851512
 20
79.1657138196
 10
-941.6526871479
 20
78.9376944428
 10
-942.4620529491
 20
79.0051296035
 10
-943.2865985742
 20
79.3660793148
 10
-943.5685728657
 20
79.5558116662
  0
LWPOLYLINE
  5
36D
330
1F
100
AcDbEntity
  8
0
  6
Continuous
 62
     8
370
    25
100
AcDbPolyline
 90
       21
 70
   128
 43
0.0
 10
-943.7707049448
 20
99.9436207973
 10
-943.5743112749
 20
99.9451909056
 10
-942.7481800414
 20
99.7709901931
 10
-941.9150818641
 20
99.310520807
 10
-941.0977414894
 20
98.5763431518
 10
-940.3184538322
 20
97.58848368
 10
-939.5984758284
 20
96.373888623
 10
-938.9574466009
 20
94.9656889675
 10
-938.4128517561
 20
93.4022967294
 10
-937.9795464218
 20
91.7263571734
 10
-937.6693500378
 20
89.9835855618
 10
-937.490723953
 20
88.2215201611
 10
-937.4485406213
 20
86.4882255219
 10
-937.5439506939
 20
84.8309814039
 10
-937.7743516329
 20
83.2949931062
 10
-938.1334587012
 20
81.9221583858
 10
-938.6114763942
 20
80.749924595
 10
-939.1953656352
 20
79.8102672159
 10
-939.8691994478
 20
79.1288176523
 10
-940.6145974023
 20
78.7241640718
 10
-941.0126080755
 20
78.6286958983
  0
LWPOLYLINE
  5
36E
330
1F
100
AcDbEntity
  8
0
  6
Continuous
 62
     8
370
    25
100
AcDbPolyline
 90
       13
 70
   128
 43
0.0
 10
249.6798567027
 20
-330.3749094433
 10
247.9293603418
 20
-330.3363482015
 10
246.2292225741
 20
-330.2217738128
 10
244.6283532677
 20
-330.0344823737
 10
243.1728065179
 20
-329.7798619179
 10
241.9044557545
 20
-329.4652374124
 10
240.8597891198
 20
-329.0996600314
 10
240.0688597708
 20
-328.6936467705
 10
239.5544213048
 20
-328.2588778919
 10
239.3312731799
 20
-327.8078609048
 10
239.4058349613
 20
-327.3535707467
 10
239.7759616424
 20
-326.9090765184
 10
239.9130064953
 20
-326.8014365257
  0
LWPOLYLINE
  5
36F
330
1F
100
AcDbEntity
  8
0
  6
Continuous
 62
     8
370
    25
100
AcDbPolyline
 90
       13
 70
   128
 43
0.0
 10
259.4863630202
 20
-326.8310522942
 10
259.583751763
 20
-326.9090765184
 10
259.9538784441
 20
-327.3535707467
 10
260.0284402255
 20
-327.8078609048
 10
259.8052921006
 20
-328.2588778919
 10
259.2908536346
 20
-328.6936467705
 10
258.4999242856
 20
-329.0996600314
 10
257.4552576509
 20
-329.4652374124
 10
256.1869068876
 20
-329.7798619179
 10
254.7313601377
 20
-330.0344823737
 10
253.1304908313
 20
-330.2217738128
 10
251.4303530636
 20
-330.3363482015
 10
249.6798567027
 20
-330.3749094433
  0
LWPOLYLINE
  5
370
330
1F
100
AcDbEntity
  8
0
  6
Continuous
 62
     8
370
    25
100
AcDbPolyline
 90
       11
 70
   128
 43
0.0
 10
249.6798567027
 20
-331.0200343386
 10
247.9104648572
 20
-330.9820873284
 10
246.1893374088
 20
-330.8692813936
 10
244.5634222276
 20
-330.6846935859
 10
243.0770700413
 20
-330.4333589795
 10
241.770824663
 20
-330.1221333273
 10
240.6803170614
 20
-329.7595060538
 10
239.8352934412
 20
-329.3553686857
 10
239.2588038439
 20
-328.9207450369
 10
238.9665734029
 20
-328.4674905076
 10
238.9307496319
 20
-328.2018692194
  0
LWPOLYLINE
  5
371
330
1F
100
AcDbEntity
  8
0
  6
Continuous
 62
     8
370
    25
100
AcDbPolyline
 90
       11
 70
   128
 43
0.0
 10
260.4275503125
 20
-328.2953609223
 10
260.3931400025
 20
-328.4674905076
 10
260.1009095616
 20
-328.9207450369
 10
259.5244199643
 20
-329.3553686857
 10
258.679396344
 20
-329.7595060538
 10
257.5888887425
 20
-330.1221333273
 10
256.2826433641
 20
-330.4333589795
 10
254.7962911779
 20
-330.6846935859
 10
253.1703759967
 20
-330.8692813936
 10
251.4492485482
 20
-330.9820873284
 10
249.6798567027
 20
-331.0200343386
  0
LWPOLYLINE
  5
372
330
1F
100
AcDbEntity
  8
0
  6
Continuous
 62
     8
370
    25
100
AcDbPolyline
 90
       31
 70
   128
 43
0.0
 10
1296.549740328
 20
86.2111515415
 10
1296.0752301208
 20
84.5921781654
 10
1295.4935353293
 20
83.1059901251
 10
1294.8213902535
 20
81.7953423446
 10
1294.0781312835
 20
80.6979397743
 10
1293.2851406266
 20
79.8453526881
 10
1292.4652311803
 20
79.2621084642
 10
1291.6419902465
 20
78.9649859769
 10
1290.839100968
 20
78.9625328993
 10
1290.0796610074
 20
79.254819802
 10
1289.3855180699
 20
79.8334381228
 10
1288.7766413838
 20
80.6817420663
 10
1288.2705472228
 20
81.7753274724
 10
1287.8817949946
 20
83.0827338801
 10
1287.6215683929
 20
84.5663495875
 10
1287.4973536632
 20
86.1834936719
 10
1287.5127242372
 20
87.8876438422
 10
1287.6672379314
 20
89.6297748009
 10
1287.9564496682
 20
91.359768612
 10
1288.3720393525
 20
93.0278565036
 10
1288.9020512258
 20
94.586050624
 10
1289.5312378113
 20
95.9895245653
 10
1290.2414985566
 20
97.1979029376
 10
1291.0124005533
 20
98.1764228952
 10
1291.8217663545
 20
98.8969342005
 10
1292.6463119796
 20
99.3387090551
 10
1293.4623167524
 20
99.4890384007
 10
1294.2463057011
 20
99.3435975358
 10
1294.9757248911
 20
98.9065705292
 10
1295.6295902604
 20
98.1905298523
 10
1295.7545743602
 20
98.0079095266
  0
LWPOLYLINE
  5
373
330
1F
100
AcDbEntity
  8
0
  6
Continuous
 62
     8
370
    25
100
AcDbPolyline
 90
       21
 70
   128
 43
0.0
 10
1290.4474611145
 20
78.6191553767
 10
1289.6781672377
 20
78.8472781256
 10
1288.9581892338
 20
79.3609489245
 10
1288.3171600063
 20
80.1450837707
 10
1287.7725651616
 20
81.1782935095
 10
1287.3392598272
 20
82.4323948727
 10
1287.0290634433
 20
83.8731792443
 10
1286.8504373585
 20
85.4613457824
 10
1286.8082540267
 20
87.153573444
 10
1286.9036640994
 20
88.9037026697
 10
1287.1340650383
 20
90.6639944966
 10
1287.4931721067
 20
92.3864327522
 10
1287.9711897996
 20
94.0240338111
 10
1288.5550790406
 20
95.5321281854
 10
1289.2289128533
 20
96.8695789916
 10
1289.9743108077
 20
97.9999040585
 10
1290.7709403909
 20
98.8922710646
 10
1291.5970716244
 20
99.5223385642
 10
1292.4301698018
 20
99.8729199585
 10
1293.2475101764
 20
99.9344523008
 10
1293.3180476328
 20
99.9258976285
  0
LWPOLYLINE
  5
374
330
1F
100
AcDbEntity
  8
0
  6
Continuous
 62
     8
370
    25
100
AcDbPolyline
 90
        9
 70
   128
 43
0.0
 10
239.6352966642
 20
-1513.6683372889
 10
239.5544213048
 20
-1513.5787112514
 10
239.3312731799
 20
-1513.1276942643
 10
239.4058349613
 20
-1512.6734041062
 10
239.7759616424
 20
-1512.2289098778
 10
240.4310053524
 20
-1511.8069988689
 10
241.3521216763
 20
-1511.4198086908
 10
242.5128117747
 20
-1511.0784781002
 10
243.2644185244
 20
-1510.9092136718
  0
LWPOLYLINE
  5
375
330
1F
100
AcDbEntity
  8
0
  6
Continuous
 62
     8
370
    25
100
AcDbPolyline
 90
        9
 70
   128
 43
0.0
 10
256.116871795
 20
-1510.913631441
 10
256.8469016307
 20
-1511.0784781002
 10
258.0075917291
 20
-1511.4198086908
 10
258.9287080531
 20
-1511.8069988689
 10
259.583751763
 20
-1512.2289098778
 10
259.9538784441
 20
-1512.6734041062
 10
260.0284402255
 20
-1513.1276942643
 10
259.8052921006
 20
-1513.5787112514
 10
259.7161522855
 20
-1513.6767766721
  0
LWPOLYLINE
  5
376
330
1F
100
AcDbEntity
  8
0
  6
Continuous
 62
     8
370
    25
100
AcDbPolyline
 90
       21
 70
   128
 43
0.0
 10
238.9307496319
 20
-1512.4344102174
 10
238.9665734029
 20
-1512.2405096978
 10
239.2588038439
 20
-1511.7872551685
 10
239.8352934412
 20
-1511.3526315197
 10
240.6803170614
 20
-1510.9484941516
 10
241.770824663
 20
-1510.5858668781
 10
243.0770700413
 20
-1510.2746412259
 10
244.5634222276
 20
-1510.0233066195
 10
246.1893374088
 20
-1509.8387188118
 10
247.9104648572
 20
-1509.725912877
 10
249.6798567027
 20
-1509.6879658668
 10
251.4492485482
 20
-1509.725912877
 10
253.1703759967
 20
-1509.8387188118
 10
254.7962911779
 20
-1510.0233066195
 10
256.2826433641
 20
-1510.2746412259
 10
257.5888887425
 20
-1510.5858668781
 10
258.679396344
 20
-1510.9484941516
 10
259.5244199643
 20
-1511.3526315197
 10
260.1009095616
 20
-1511.7872551685
 10
260.3931400025
 20
-1512.2405096978
 10
260.4298567027
 20
-1512.4702706017
  0
LWPOLYLINE
  5
377
330
1F
100
AcDbEntity
  8
0
  6
Continuous
 62
     8
370
    25
100
AcDbPolyline
 90
       13
 70
   128
 43
0.0
 10
8.1329019595
 20
-1554.8952030696
 10
9.8833983204
 20
-1554.9337643114
 10
11.5835360881
 20
-1555.0483387002
 10
13.1844053945
 20
-1555.2356301393
 10
14.6399521443
 20
-1555.490250595
 10
15.9083029077
 20
-1555.8048751005
 10
16.9529695424
 20
-1556.1704524816
 10
17.7438988914
 20
-1556.5764657425
 10
18.2583373574
 20
-1557.011234621
 10
18.4814854823
 20
-1557.4622516081
 10
18.4069237009
 20
-1557.9165417662
 10
18.0367970198
 20
-1558.3610359946
 10
17.8997521669
 20
-1558.4686759872
  0
LWPOLYLINE
  5
378
330
1F
100
AcDbEntity
  8
0
  6
Continuous
 62
     8
370
    25
100
AcDbPolyline
 90
       13
 70
   128
 43
0.0
 10
-1.673604358
 20
-1558.4390602187
 10
-1.7709931009
 20
-1558.3610359946
 10
-2.1411197819
 20
-1557.9165417662
 10
-2.2156815633
 20
-1557.4622516081
 10
-1.9925334384
 20
-1557.011234621
 10
-1.4780949724
 20
-1556.5764657425
 10
-0.6871656234
 20
-1556.1704524816
 10
0.3575010113
 20
-1555.8048751005
 10
1.6258517746
 20
-1555.490250595
 10
3.0813985245
 20
-1555.2356301393
 10
4.6822678309
 20
-1555.0483387002
 10
6.3824055986
 20
-1554.9337643114
 10
8.1329019595
 20
-1554.8952030696
  0
LWPOLYLINE
  5
379
330
1F
100
AcDbEntity
  8
0
  6
Continuous
 62
     8
370
    25
100
AcDbPolyline
 90
       11
 70
   128
 43
0.0
 10
8.1329019595
 20
-1554.2500781744
 10
9.902293805
 20
-1554.2880251845
 10
11.6234212534
 20
-1554.4008311194
 10
13.2493364346
 20
-1554.5854189271
 10
14.7356886209
 20
-1554.8367535335
 10
16.0419339992
 20
-1555.1479791857
 10
17.1324416008
 20
-1555.5106064592
 10
17.977465221
 20
-1555.9147438273
 10
18.5539548183
 20
-1556.349367476
 10
18.8461852593
 20
-1556.8026220053
 10
18.8820090303
 20
-1557.0682432936
  0
LWPOLYLINE
  5
37A
330
1F
100
AcDbEntity
  8
0
  6
Continuous
 62
     8
370
    25
100
AcDbPolyline
 90
       11
 70
   128
 43
0.0
 10
-2.6147916503
 20
-1556.9747515906
 10
-2.5803813403
 20
-1556.8026220053
 10
-2.2881508994
 20
-1556.349367476
 10
-1.7116613021
 20
-1555.9147438273
 10
-0.8666376818
 20
-1555.5106064592
 10
0.2238699197
 20
-1555.1479791857
 10
1.5301152981
 20
-1554.8367535335
 10
3.0164674843
 20
-1554.5854189271
 10
4.6423826655
 20
-1554.4008311194
 10
6.363510114
 20
-1554.2880251845
 10
8.1329019595
 20
-1554.2500781744
  0
LWPOLYLINE
  5
37B
330
1F
100
AcDbEntity
  8
0
  6
Continuous
 62
     8
370
    25
100
AcDbPolyline
 90
       13
 70
   128
 43
0.0
 10
99.6798567027
 20
-1510.3330907621
 10
101.4303530636
 20
-1510.3716520039
 10
103.1304908313
 20
-1510.4862263926
 10
104.7313601377
 20
-1510.6735178317
 10
106.1869068876
 20
-1510.9281382875
 10
107.4552576509
 20
-1511.242762793
 10
108.4999242856
 20
-1511.608340174
 10
109.2908536346
 20
-1512.0143534349
 10
109.8052921006
 20
-1512.4491223135
 10
110.0284402255
 20
-1512.9001393006
 10
109.9538784441
 20
-1513.3544294587
 10
109.5837517631
 20
-1513.798923687
 10
109.4467069101
 20
-1513.9065636797
  0
LWPOLYLINE
  5
37C
330
1F
100
AcDbEntity
  8
0
  6
Continuous
 62
     8
370
    25
100
AcDbPolyline
 90
       13
 70
   128
 43
0.0
 10
89.8733503852
 20
-1513.8769479112
 10
89.7759616424
 20
-1513.798923687
 10
89.4058349613
 20
-1513.3544294587
 10
89.3312731799
 20
-1512.9001393006
 10
89.5544213048
 20
-1512.4491223135
 10
90.0688597708
 20
-1512.0143534349
 10
90.8597891198
 20
-1511.608340174
 10
91.9044557545
 20
-1511.242762793
 10
93.1728065179
 20
-1510.9281382875
 10
94.6283532677
 20
-1510.6735178317
 10
96.2292225741
 20
-1510.4862263926
 10
97.9293603418
 20
-1510.3716520039
 10
99.6798567027
 20
-1510.3330907621
  0
LWPOLYLINE
  5
37D
330
1F
100
AcDbEntity
  8
0
  6
Continuous
 62
     8
370
    25
100
AcDbPolyline
 90
       11
 70
   128
 43
0.0
 10
99.6798567027
 20
-1509.6879658668
 10
101.4492485482
 20
-1509.725912877
 10
103.1703759967
 20
-1509.8387188118
 10
104.7962911779
 20
-1510.0233066195
 10
106.2826433641
 20
-1510.2746412259
 10
107.5888887425
 20
-1510.5858668781
 10
108.679396344
 20
-1510.9484941516
 10
109.5244199643
 20
-1511.3526315197
 10
110.1009095616
 20
-1511.7872551685
 10
110.3931400025
 20
-1512.2405096978
 10
110.4289637736
 20
-1512.506130986
  0
LWPOLYLINE
  5
37E
330
1F
100
AcDbEntity
  8
0
  6
Continuous
 62
     8
370
    25
100
AcDbPolyline
 90
       11
 70
   128
 43
0.0
 10
88.9321630929
 20
-1512.4126392831
 10
88.9665734029
 20
-1512.2405096978
 10
89.2588038439
 20
-1511.7872551685
 10
89.8352934412
 20
-1511.3526315197
 10
90.6803170614
 20
-1510.9484941516
 10
91.770824663
 20
-1510.5858668781
 10
93.0770700413
 20
-1510.2746412259
 10
94.5634222276
 20
-1510.0233066195
 10
96.1893374088
 20
-1509.8387188118
 10
97.9104648572
 20
-1509.725912877
 10
99.6798567027
 20
-1509.6879658668
  0
LWPOLYLINE
  5
37F
330
1F
100
AcDbEntity
  8
0
  6
Continuous
 62
     8
370
    25
100
AcDbPolyline
 90
       27
 70
   128
 43
0.0
 10
1357.5810434902
 20
-1966.7098385821
 10
1357.106533283
 20
-1967.8668593525
 10
1356.5248384914
 20
-1968.7867467725
 10
1355.8526934156
 20
-1969.4430373559
 10
1355.1094344457
 20
-1969.8168508175
 10
1354.3164437888
 20
-1969.8974332246
 10
1353.4965343425
 20
-1969.682466368
 10
1352.6732934087
 20
-1969.178134453
 10
1351.8704041301
 20
-1968.3989461903
 10
1351.1109641696
 20
-1967.3673174077
 10
1350.416821232
 20
-1966.112926187
 10
1349.8079445459
 20
-1964.6718590797
 10
1349.301850385
 20
-1963.0855729627
 10
1348.9130981568
 20
-1961.3997023996
 10
1348.652871555
 20
-1959.6627468168
 10
1348.5286568254
 20
-1957.9246752642
 10
1348.5440273993
 20
-1956.2354888957
 10
1348.6985410936
 20
-1954.6437825277
 10
1348.9877528304
 20
-1953.1953466543
 10
1349.4033425147
 20
-1951.9318501386
 10
1349.9333543879
 20
-1950.8896414748
 10
1350.5625409735
 20
-1950.0987031085
 10
1351.2728017188
 20
-1949.5817888967
 10
1352.0437037155
 20
-1949.3537695199
 10
1352.8530695167
 20
-1949.4212046806
 10
1353.6776151418
 20
-1949.7821543919
 10
1353.9595894333
 20
-1949.9718867433
  0
LWPOLYLINE
  5
380
330
1F
100
AcDbEntity
  8
0
  6
Continuous
 62
     8
370
    25
100
AcDbPolyline
 90
       21
 70
   128
 43
0.0
 10
1354.1617215124
 20
-1970.3596958744
 10
1353.9653278426
 20
-1970.3612659827
 10
1353.139196609
 20
-1970.1870652702
 10
1352.3060984317
 20
-1969.7265958841
 10
1351.488758057
 20
-1968.9924182289
 10
1350.7094703998
 20
-1968.0045587571
 10
1349.989492396
 20
-1966.7899637001
 10
1349.3484631685
 20
-1965.3817640446
 10
1348.8038683237
 20
-1963.8183718065
 10
1348.3705629894
 20
-1962.1424322505
 10
1348.0603666054
 20
-1960.3996606389
 10
1347.8817405206
 20
-1958.6375952382
 10
1347.8395571889
 20
-1956.904300599
 10
1347.9349672615
 20
-1955.247056481
 10
1348.1653682005
 20
-1953.7110681833
 10
1348.5244752688
 20
-1952.3382334629
 10
1349.0024929618
 20
-1951.1659996721
 10
1349.5863822028
 20
-1950.226342293
 10
1350.2602160154
 20
-1949.5448927294
 10
1351.0056139699
 20
-1949.1402391489
 10
1351.4036246431
 20
-1949.0447709754
  0
ARC
  5
381
330
1F
100
AcDbEntity
  8
0
  6
Continuous
 62
     8
370
    25
100
AcDbCircle
 10
184.7191906787
 20
-1403.6772113661
 30
0.0
 40
1.777973378352798
100
AcDbArc
 50
109.6925550582
 51
176.1295639215
  0
LWPOLYLINE
  5
382
330
1F
100
AcDbEntity
  8
0
  6
Continuous
 62
     8
370
    25
100
AcDbPolyline
 90
        8
 70
   128
 43
0.0
 10
258.2261342035
 20
-1393.1973065189
 10
258.2635047881
 20
-1392.8092366664
 10
258.3186967689
 20
-1392.4684311741
 10
258.390190904
 20
-1392.184271224
 10
258.4760192101
 20
-1391.964578745
 10
258.5738191343
 20
-1391.8154011018
 10
258.6808985871
 20
-1391.740844633
 10
258.7229571599
 20
-1391.7326031023
  0
ARC
  5
383
330
1F
100
AcDbEntity
  8
0
  6
Continuous
 62
     8
370
    25
100
AcDbCircle
 10
259.4843835853
 20
-1396.080487894
 30
0.0
 40
4.300074950460191
100
AcDbArc
 50
354.8565115965
 51
62.7580982806
  0
ARC
  5
384
330
1F
100
AcDbEntity
  8
0
  6
Continuous
 62
     8
370
    25
100
AcDbCircle
 10
180.6969308796
 20
-1407.7026128984
 30
0.0
 40
1.17781123681235
100
AcDbArc
 50
98.3676552032
 51
161.4686691845
  0
ARC
  5
385
330
1F
100
AcDbEntity
  8
0
  6
Continuous
 62
     8
370
    25
100
AcDbCircle
 10
180.622362512
 20
-1491.4784045962
 30
0.0
 40
2.587220976233159
100
AcDbArc
 50
92.1449134025
 51
113.8538462142
  0
ARC
  5
386
330
1F
100
AcDbEntity
  8
0
  6
Continuous
 62
     8
370
    25
100
AcDbCircle
 10
184.0697092102
 20
-1490.2432133168
 30
0.0
 40
3.611500292118525
100
AcDbArc
 50
243.4832915279
 51
280.7498880865
  0
ARC
  5
387
330
1F
100
AcDbEntity
  8
0
  6
Continuous
 62
     8
370
    25
100
AcDbCircle
 10
164.6405227268
 20
-437.0307888393
 30
0.0
 40
1.777973378352039
100
AcDbArc
 50
289.6925550582
 51
356.1295639216
  0
LWPOLYLINE
  5
388
330
1F
100
AcDbEntity
  8
0
  6
Continuous
 62
     8
370
    25
100
AcDbPolyline
 90
        8
 70
   128
 43
0.0
 10
91.1335792019
 20
-447.5106936865
 10
91.0962086174
 20
-447.898763539
 10
91.0410166365
 20
-448.2395690313
 10
90.9695225014
 20
-448.5237289814
 10
90.8836941954
 20
-448.7434214604
 10
90.7858942712
 20
-448.8925991036
 10
90.6788148184
 20
-448.9671555724
 10
90.6367562456
 20
-448.9753971031
  0
ARC
  5
389
330
1F
100
AcDbEntity
  8
0
  6
Continuous
 62
     8
370
    25
100
AcDbCircle
 10
89.8753298201
 20
-444.6275123114
 30
0.0
 40
4.300074950460473
100
AcDbArc
 50
174.8565115965
 51
242.7580982806
  0
ARC
  5
38A
330
1F
100
AcDbEntity
  8
0
  6
Continuous
 62
     8
370
    25
100
AcDbCircle
 10
168.6627825258
 20
-433.0053873069
 30
0.0
 40
1.177811236812475
100
AcDbArc
 50
278.3676552032
 51
341.4686691845
  0
ARC
  5
38B
330
1F
100
AcDbEntity
  8
0
  6
Continuous
 62
     8
370
    25
100
AcDbCircle
 10
168.7373508934
 20
-349.2295956092
 30
0.0
 40
2.587220976223374
100
AcDbArc
 50
272.1449134025
 51
293.8538462143
  0
ARC
  5
38C
330
1F
100
AcDbEntity
  8
0
  6
Continuous
 62
     8
370
    25
100
AcDbCircle
 10
165.2900041953
 20
-350.4647868886
 30
0.0
 40
3.611500292120088
100
AcDbArc
 50
63.4832915279
 51
100.7498880865
  0
ARC
  5
38D
330
1F
100
AcDbEntity
  8
0
  6
Continuous
 62
     8
370
    25
100
AcDbCircle
 10
184.7194333326
 20
-437.0306946637
 30
0.0
 40
1.778221837455629
100
AcDbArc
 50
183.8729358199
 51
250.2801058478
  0
LWPOLYLINE
  5
38E
330
1F
100
AcDbEntity
  8
0
  6
Continuous
 62
     8
370
    25
100
AcDbPolyline
 90
        8
 70
   128
 43
0.0
 10
258.7224380999
 20
-448.9753620706
 10
258.6808985871
 20
-448.9671555724
 10
258.5738191343
 20
-448.8925991036
 10
258.4760192101
 20
-448.7434214604
 10
258.390190904
 20
-448.5237289814
 10
258.3186967689
 20
-448.2395690313
 10
258.2635047881
 20
-447.898763539
 10
258.2261342035
 20
-447.5106936865
  0
ARC
  5
38F
330
1F
100
AcDbEntity
  8
0
  6
Continuous
 62
     8
370
    25
100
AcDbCircle
 10
259.5169104638
 20
-444.6443176347
 30
0.0
 40
4.269230888579251
100
AcDbArc
 50
296.4104241208
 51
5.4072543863
  0
ARC
  5
390
330
1F
100
AcDbEntity
  8
0
  6
Continuous
 62
     8
370
    25
100
AcDbCircle
 10
180.6223642755
 20
-349.2295860477
 30
0.0
 40
2.587230597002864
100
AcDbArc
 50
246.1462048052
 51
267.8550554961
  0
ARC
  5
391
330
1F
100
AcDbEntity
  8
0
  6
Continuous
 62
     8
370
    25
100
AcDbCircle
 10
180.6969300274
 20
-433.0053891116
 30
0.0
 40
1.177809327348642
100
AcDbArc
 50
198.5311354605
 51
261.6323730369
  0
ARC
  5
392
330
1F
100
AcDbEntity
  8
0
  6
Continuous
 62
     8
370
    25
100
AcDbCircle
 10
184.0748174572
 20
-350.553669976
 30
0.0
 40
3.697933816471738
100
AcDbArc
 50
79.5847417641
 51
116.1376246711
  0
ARC
  5
393
330
1F
100
AcDbEntity
  8
0
  6
Continuous
 62
     8
370
    25
100
AcDbCircle
 10
164.6402800728
 20
-1403.6773055417
 30
0.0
 40
1.778221837456719
100
AcDbArc
 50
3.87293582
 51
70.2801058477
  0
LWPOLYLINE
  5
394
330
1F
100
AcDbEntity
  8
0
  6
Continuous
 62
     8
370
    25
100
AcDbPolyline
 90
        8
 70
   128
 43
0.0
 10
90.6372753055
 20
-1391.7326381348
 10
90.6788148184
 20
-1391.740844633
 10
90.7858942712
 20
-1391.8154011018
 10
90.8836941954
 20
-1391.964578745
 10
90.9695225014
 20
-1392.184271224
 10
91.0410166365
 20
-1392.4684311741
 10
91.0962086174
 20
-1392.8092366664
 10
91.1335792019
 20
-1393.1973065189
  0
ARC
  5
395
330
1F
100
AcDbEntity
  8
0
  6
Continuous
 62
     8
370
    25
100
AcDbCircle
 10
89.8428029417
 20
-1396.0636825707
 30
0.0
 40
4.269230888579322
100
AcDbArc
 50
116.4104241208
 51
185.4072543863
  0
ARC
  5
396
330
1F
100
AcDbEntity
  8
0
  6
Continuous
 62
     8
370
    25
100
AcDbCircle
 10
168.7373491299
 20
-1491.4784141577
 30
0.0
 40
2.587230597014501
100
AcDbArc
 50
66.1462048052
 51
87.8550554961
  0
ARC
  5
397
330
1F
100
AcDbEntity
  8
0
  6
Continuous
 62
     8
370
    25
100
AcDbCircle
 10
168.6627833781
 20
-1407.7026110938
 30
0.0
 40
1.177809327348444
100
AcDbArc
 50
18.5311354605
 51
81.6323730369
  0
ARC
  5
398
330
1F
100
AcDbEntity
  8
0
  6
Continuous
 62
     8
370
    25
100
AcDbCircle
 10
165.2848959483
 20
-1490.1543302294
 30
0.0
 40
3.697933816473602
100
AcDbArc
 50
259.5847417641
 51
296.1376246711
  0
LINE
  5
399
330
1F
100
AcDbEntity
  8
0
  6
Continuous
 62
     8
370
    25
100
AcDbLine
 10
269.6198351734
 20
-354.325417806
 30
0.0
 11
1260.9887830473
 21
128.2410915584
 31
0.0
  0
LINE
  5
39A
330
1F
100
AcDbEntity
  8
0
  6
Continuous
 62
     8
370
    25
100
AcDbLine
 10
271.7572230114
 20
-357.83667964
 30
0.0
 11
1263.5659911621
 21
124.9439200851
 31
0.0
  0
LINE
  5
39B
330
1F
100
AcDbEntity
  8
0
  6
Continuous
 62
     8
370
    25
100
AcDbLine
 10
271.9020617265
 20
-438.9039462216
 30
0.0
 11
1263.5659911621
 21
43.8061506768
 31
0.0
  0
LINE
  5
39C
330
1F
100
AcDbEntity
  8
0
  6
Continuous
 62
     8
370
    25
100
AcDbLine
 10
196.7457650933
 20
-343.4890828744
 30
0.0
 11
1187.1354283321
 21
138.6007422353
 31
0.0
  0
LINE
  5
39D
330
1F
100
AcDbEntity
  8
0
  6
Continuous
 62
     8
370
    25
100
AcDbLine
 10
79.739878232
 20
-1486.3825823994
 30
0.0
 11
-911.6290696419
 21
-1968.9490917638
 31
0.0
  0
LINE
  5
39E
330
1F
100
AcDbEntity
  8
0
  6
Continuous
 62
     8
370
    25
100
AcDbLine
 10
77.602490394
 20
-1482.8713205653
 30
0.0
 11
-914.2062777566
 21
-1965.6519202905
 31
0.0
  0
LINE
  5
39F
330
1F
100
AcDbEntity
  8
0
  6
Continuous
 62
     8
370
    25
100
AcDbLine
 10
77.4576516789
 20
-1401.8040539838
 30
0.0
 11
-914.2062777566
 21
-1884.5141508822
 31
0.0
  0
LINE
  5
3A0
330
1F
100
AcDbEntity
  8
0
  6
Continuous
 62
     8
370
    25
100
AcDbLine
 10
152.6139483121
 20
-1497.218917331
 30
0.0
 11
-837.7757149267
 21
-1979.3087424407
 31
0.0
  0
LINE
  5
3A1
330
1F
100
AcDbEntity
  8
0
  6
Continuous
 62
     8
370
    25
100
AcDbLine
 10
77.602490394
 20
-357.83667964
 30
0.0
 11
-914.2062777566
 21
124.9439200851
 31
0.0
  0
LINE
  5
3A2
330
1F
100
AcDbEntity
  8
0
  6
Continuous
 62
     8
370
    25
100
AcDbLine
 10
79.739878232
 20
-354.325417806
 30
0.0
 11
-911.6290696419
 21
128.2410915584
 31
0.0
  0
LINE
  5
3A3
330
1F
100
AcDbEntity
  8
0
  6
Continuous
 62
     8
370
    25
100
AcDbLine
 10
77.4576516789
 20
-438.9039462216
 30
0.0
 11
-914.2062777566
 21
43.8061506768
 31
0.0
  0
LINE
  5
3A4
330
1F
100
AcDbEntity
  8
0
  6
Continuous
 62
     8
370
    25
100
AcDbLine
 10
152.6139483121
 20
-343.4890828744
 30
0.0
 11
-837.7757149267
 21
138.6007422353
 31
0.0
  0
LINE
  5
3A5
330
1F
100
AcDbEntity
  8
0
  6
Continuous
 62
     8
370
    25
100
AcDbLine
 10
271.7572230114
 20
-1482.8713205653
 30
0.0
 11
1263.5659911621
 21
-1965.6519202905
 31
0.0
  0
LINE
  5
3A6
330
1F
100
AcDbEntity
  8
0
  6
Continuous
 62
     8
370
    25
100
AcDbLine
 10
269.6198351734
 20
-1486.3825823994
 30
0.0
 11
1260.9887830473
 21
-1968.9490917638
 31
0.0
  0
LINE
  5
3A7
330
1F
100
AcDbEntity
  8
0
  6
Continuous
 62
     8
370
    25
100
AcDbLine
 10
271.9020617265
 20
-1401.8040539838
 30
0.0
 11
1263.5659911621
 21
-1884.5141508822
 31
0.0
  0
LINE
  5
3A8
330
1F
100
AcDbEntity
  8
0
  6
Continuous
 62
     8
370
    25
100
AcDbLine
 10
196.7457650933
 20
-1497.218917331
 30
0.0
 11
1187.1354283321
 21
-1979.3087424407
 31
0.0
  0
ARC
  5
3A9
330
1F
100
AcDbEntity
  8
0
  6
Continuous
 62
     8
370
    25
100
AcDbCircle
 10
138.5596797142
 20
-1096.4753956018
 30
0.0
 40
3.00503920541907
100
AcDbArc
 50
74.4580504788
 51
216.7094612369
  0
ARC
  5
3AA
330
1F
100
AcDbEntity
  8
0
  6
Continuous
 62
     8
370
    25
100
AcDbCircle
 10
138.55830855
 20
-746.1517274523
 30
0.0
 40
3.00461297737396
100
AcDbArc
 50
143.5104358282
 51
285.0558785163
  0
ARC
  5
3AB
330
1F
100
AcDbEntity
  8
0
  6
Continuous
 62
     8
370
    25
100
AcDbCircle
 10
207.2274037878
 20
-735.7816635343
 30
0.0
 40
2.573986945449247
100
AcDbArc
 50
342.3230549578
 51
17.6769450422
  0
LINE
  5
3AC
330
1F
100
AcDbEntity
  8
0
  6
Continuous
 62
     8
370
    25
100
AcDbLine
 10
137.9375791744
 20
-737.4947545746
 30
0.0
 11
138.4487954847
 21
-737.4191766091
 31
0.0
  0
ARC
  5
3AD
330
1F
100
AcDbEntity
  8
0
  6
Continuous
 62
     8
370
    25
100
AcDbCircle
 10
137.8881370438
 20
-734.9875171292
 30
0.0
 40
2.507724891582279
100
AcDbArc
 50
107.0928182176
 51
271.1297128273
  0
LINE
  5
3AE
330
1F
100
AcDbEntity
  8
0
  6
Continuous
 62
     8
370
    25
100
AcDbLine
 10
134.9123972066
 20
-738.3202328704
 30
0.0
 11
135.441128095
 21
-738.2399493823
 31
0.0
  0
ARC
  5
3AF
330
1F
100
AcDbEntity
  8
0
  6
Continuous
 62
     8
370
    25
100
AcDbCircle
 10
134.862976452
 20
-735.8129752122
 30
0.0
 40
2.507744679063478
100
AcDbArc
 50
107.1165784435
 51
271.1292154257
  0
ARC
  5
3B0
330
1F
100
AcDbEntity
  8
0
  6
Continuous
 62
     8
370
    25
100
AcDbCircle
 10
137.8702624122
 20
-1107.6396384119
 30
0.0
 40
2.500740257999295
100
AcDbArc
 50
76.6588758595
 51
253.8517340972
  0
ARC
  5
3B1
330
1F
100
AcDbEntity
  8
0
  6
Continuous
 62
     8
370
    25
100
AcDbCircle
 10
134.845073966
 20
-1106.8147619392
 30
0.0
 40
2.500827438195006
100
AcDbArc
 50
76.211250303
 51
253.2633993562
  0
ARC
  5
3B2
330
1F
100
AcDbEntity
  8
0
  6
Continuous
 62
     8
370
    25
100
AcDbCircle
 10
207.2274037878
 20
-1106.844291449
 30
0.0
 40
2.573986945447077
100
AcDbArc
 50
342.3230549577
 51
17.6769450423
  0
LINE
  5
3B3
330
1F
100
AcDbEntity
  8
0
  6
Continuous
 62
     8
370
    25
100
AcDbLine
 10
136.0862593774
 20
-740.3129774916
 30
0.0
 11
136.0862593774
 21
-738.6251220609
 31
0.0
  0
LINE
  5
3B4
330
1F
100
AcDbEntity
  8
0
  6
Continuous
 62
     8
370
    25
100
AcDbLine
 10
136.0862593774
 20
-732.8811110397
 30
0.0
 11
136.0862593774
 21
-732.3129774916
 31
0.0
  0
LINE
  5
3B5
330
1F
100
AcDbEntity
  8
0
  6
Continuous
 62
     8
370
    25
100
AcDbLine
 10
136.0862593774
 20
-1110.3129774916
 30
0.0
 11
136.0862593774
 21
-1109.7448439436
 31
0.0
  0
LINE
  5
3B6
330
1F
100
AcDbEntity
  8
0
  6
Continuous
 62
     8
370
    25
100
AcDbLine
 10
136.0862593774
 20
-1103.9959650252
 30
0.0
 11
136.0862593774
 21
-1102.3129774916
 31
0.0
  0
LINE
  5
3B7
330
1F
100
AcDbEntity
  8
0
  6
Continuous
 62
     8
370
    25
100
AcDbLine
 10
219.2586714756
 20
-709.8129774916
 30
0.0
 11
209.6798567027
 21
-709.8129774916
 31
0.0
  0
LINE
  5
3B8
330
1F
100
AcDbEntity
  8
0
  6
Continuous
 62
     8
370
    25
100
AcDbLine
 10
139.6798567027
 20
-709.8129774916
 30
0.0
 11
122.9138472792
 21
-709.8129774916
 31
0.0
  0
LINE
  5
3B9
330
1F
100
AcDbEntity
  8
0
  6
Continuous
 62
     8
370
    25
100
AcDbLine
 10
122.9138472792
 20
-1132.8129774916
 30
0.0
 11
139.6798567027
 21
-1132.8129774916
 31
0.0
  0
LINE
  5
3BA
330
1F
100
AcDbEntity
  8
0
  6
Continuous
 62
     8
370
    25
100
AcDbLine
 10
209.6798567027
 20
-1132.8129774916
 30
0.0
 11
219.2586714756
 21
-1132.8129774916
 31
0.0
  0
LINE
  5
3BB
330
1F
100
AcDbEntity
  8
0
  6
Continuous
 62
     8
370
    25
100
AcDbLine
 10
66.2804663744
 20
-1405.5621061208
 30
0.0
 11
66.2804663744
 21
-1405.0303282205
 31
0.0
  0
LINE
  5
3BC
330
1F
100
AcDbEntity
  8
0
  6
Continuous
 62
     8
370
    25
100
AcDbLine
 10
283.0792470311
 20
-1405.5621061208
 30
0.0
 11
283.0792470311
 21
-1405.0303282205
 31
0.0
  0
LINE
  5
3BD
330
1F
100
AcDbEntity
  8
0
  6
Continuous
 62
     8
370
    25
100
AcDbLine
 10
373.4698504135
 20
-1449.5613437882
 30
0.0
 11
373.4698504135
 21
-1449.0295658879
 31
0.0
  0
LINE
  5
3BE
330
1F
100
AcDbEntity
  8
0
  6
Continuous
 62
     8
370
    25
100
AcDbLine
 10
-24.1101370081
 20
-1449.5613437882
 30
0.0
 11
-24.1101370081
 21
-1449.0295658879
 31
0.0
  0
LINE
  5
3BF
330
1F
100
AcDbEntity
  8
0
  6
Continuous
 62
     8
370
    25
100
AcDbLine
 10
283.0792470311
 20
-435.6776719849
 30
0.0
 11
283.0792470311
 21
-435.1458940846
 31
0.0
  0
LINE
  5
3C0
330
1F
100
AcDbEntity
  8
0
  6
Continuous
 62
     8
370
    25
100
AcDbLine
 10
66.2804663744
 20
-435.6776719849
 30
0.0
 11
66.2804663744
 21
-435.1458940846
 31
0.0
  0
LINE
  5
3C1
330
1F
100
AcDbEntity
  8
0
  6
Continuous
 62
     8
370
    25
100
AcDbLine
 10
373.4698504135
 20
-391.6784343175
 30
0.0
 11
373.4698504135
 21
-391.1466564172
 31
0.0
  0
LINE
  5
3C2
330
1F
100
AcDbEntity
  8
0
  6
Continuous
 62
     8
370
    25
100
AcDbLine
 10
-24.1101370081
 20
-391.6784343175
 30
0.0
 11
-24.1101370081
 21
-391.1466564172
 31
0.0
  0
ENDSEC
  0
SECTION
  2
OBJECTS
  0
DICTIONARY
  5
C
330
0
100
AcDbDictionary
281
     1
  3
ACAD_GROUP
350
D
  3
ACAD_LAYOUT
350
1A
  3
ACAD_MLINESTYLE
350
17
  3
ACAD_PLOTSETTINGS
350
19
  3
ACAD_PLOTSTYLENAME
350
E
  3
ACAD_SCALELIST
350
47
  3
DWGPROPS
350
3C3
  0
DICTIONARY
  5
D
102
{ACAD_REACTORS
330
C
102
}
330
C
100
AcDbDictionary
281
     1
  0
DICTIONARY
  5
1A
102
{ACAD_REACTORS
330
C
102
}
330
C
100
AcDbDictionary
281
     1
  3
Layout1
350
1E
  3
Layout2
350
26
  3
Model
350
22
  0
DICTIONARY
  5
17
102
{ACAD_REACTORS
330
C
102
}
330
C
100
AcDbDictionary
281
     1
  3
Standard
350
18
  0
DICTIONARY
  5
19
102
{ACAD_REACTORS
330
C
102
}
330
C
100
AcDbDictionary
281
     1
  0
ACDBDICTIONARYWDFLT
  5
E
102
{ACAD_REACTORS
330
C
102
}
330
C
100
AcDbDictionary
281
     1
  3
Normal
350
F
100
AcDbDictionaryWithDefault
340
F
  0
DICTIONARY
  5
47
102
{ACAD_REACTORS
330
C
102
}
330
C
100
AcDbDictionary
281
     1
  3
A0
350
48
  3
A1
350
49
  3
A2
350
4A
  3
A3
350
4B
  3
A4
350
4C
  3
A5
350
4D
  3
A6
350
4E
  3
A7
350
4F
  3
A8
350
50
  3
A9
350
51
  3
B0
350
52
  3
B1
350
53
  3
B2
350
54
  3
B3
350
55
  3
B4
350
56
  3
B5
350
57
  3
B6
350
58
  3
B7
350
59
  3
B8
350
5A
  3
B9
350
5B
  3
C0
350
5C
  3
C1
350
5D
  3
C2
350
5E
  3
C3
350
5F
  3
C4
350
60
  3
C5
350
61
  3
C6
350
62
  3
C7
350
63
  3
C8
350
64
  3
C9
350
65
  3
D0
350
66
  3
D1
350
67
  3
D2
350
68
  0
XRECORD
  5
3C3
102
{ACAD_REACTORS
330
C
102
}
330
C
100
AcDbXrecord
280
     1
  1
DWGPROPS COOKIE
  2

  3

  4

  6

  7

  8
Swing
  9

300
=
301
=
302
=
303
=
304
=
305
=
306
=
307
=
308
=
309
=
 40
0.0
 41
2459563.458273368
 42
2459563.458273542
  1

 90
        0
  0
LAYOUT
  5
1E
102
{ACAD_REACTORS
330
1A
102
}
330
1A
100
AcDbPlotSettings
  1

  2
none_device
  4

  6

 40
0.0
 41
0.0
 42
0.0
 43
0.0
 44
0.0
 45
0.0
 46
0.0
 47
0.0
 48
0.0
 49
0.0
140
0.0
141
0.0
142
1.0
143
1.0
 70
   688
 72
     1
 73
     0
 74
     5
  7

 75
    16
147
1.0
148
0.0
149
0.0
100
AcDbLayout
  1
Layout1
 70
     1
 71
     1
 10
0.0
 20
0.0
 11
420.0
 21
297.0
 12
0.0
 22
0.0
 32
0.0
 14
1.0000000000E+20
 24
1.0000000000E+20
 34
1.0000000000E+20
 15
-1.0000000000E+20
 25
-1.0000000000E+20
 35
-1.0000000000E+20
146
0.0
 13
0.0
 23
0.0
 33
0.0
 16
1.0
 26
0.0
 36
0.0
 17
0.0
 27
1.0
 37
0.0
 76
     0
330
1B
  0
LAYOUT
  5
26
102
{ACAD_REACTORS
330
1A
102
}
330
1A
100
AcDbPlotSettings
  1

  2
none_device
  4

  6

 40
0.0
 41
0.0
 42
0.0
 43
0.0
 44
0.0
 45
0.0
 46
0.0
 47
0.0
 48
0.0
 49
0.0
140
0.0
141
0.0
142
1.0
143
1.0
 70
   688
 72
     1
 73
     0
 74
     5
  7

 75
    16
147
1.0
148
0.0
149
0.0
100
AcDbLayout
  1
Layout2
 70
     1
 71
     2
 10
0.0
 20
0.0
 11
0.0
 21
0.0
 12
0.0
 22
0.0
 32
0.0
 14
0.0
 24
0.0
 34
0.0
 15
0.0
 25
0.0
 35
0.0
146
0.0
 13
0.0
 23
0.0
 33
0.0
 16
1.0
 26
0.0
 36
0.0
 17
0.0
 27
1.0
 37
0.0
 76
     0
330
23
  0
LAYOUT
  5
22
102
{ACAD_REACTORS
330
1A
102
}
330
1A
100
AcDbPlotSettings
  1

  2
none_device
  4
Letter_(8.50_x_11.00_Inches)
  6

 40
6.35
 41
6.35
 42
6.35000508
 43
6.35000508
 44
215.9
 45
279.4
 46
0.0
 47
0.0
 48
0.0
 49
0.0
140
0.0
141
0.0
142
1.0
143
1.0
 70
  1712
 72
     1
 73
     0
 74
     0
  7

 75
     0
147
1.0
148
0.0
149
0.0
100
AcDbLayout
  1
Model
 70
     1
 71
     0
 10
0.0
 20
0.0
 11
431.8
 21
279.4
 12
0.0
 22
0.0
 32
0.0
 14
0.0
 24
0.0
 34
0.0
 15
431.8
 25
279.4
 35
0.0
146
0.0
 13
0.0
 23
0.0
 33
0.0
 16
1.0
 26
0.0
 36
0.0
 17
0.0
 27
1.0
 37
0.0
 76
     0
330
1F
331
29
  0
MLINESTYLE
  5
18
102
{ACAD_REACTORS
330
17
102
}
330
17
100
AcDbMlineStyle
  2
Standard
 70
     0
  3

 62
   256
 51
90.0
 52
90.0
 71
     2
 49
0.5
 62
   256
  6
BYLAYER
 49
-0.5
 62
   256
  6
BYLAYER
  0
ACDBPLACEHOLDER
  5
F
102
{ACAD_REACTORS
330
E
102
}
330
E
  0
SCALE
  5
48
102
{ACAD_REACTORS
330
47
102
}
330
47
100
AcDbScale
 70
     0
300
1:1
140
1.0
141
1.0
290
     1
  0
SCALE
  5
49
102
{ACAD_REACTORS
330
47
102
}
330
47
100
AcDbScale
 70
     0
300
1:2
140
1.0
141
2.0
290
     0
  0
SCALE
  5
4A
102
{ACAD_REACTORS
330
47
102
}
330
47
100
AcDbScale
 70
     0
300
1:4
140
1.0
141
4.0
290
     0
  0
SCALE
  5
4B
102
{ACAD_REACTORS
330
47
102
}
330
47
100
AcDbScale
 70
     0
300
1:5
140
1.0
141
5.0
290
     0
  0
SCALE
  5
4C
102
{ACAD_REACTORS
330
47
102
}
330
47
100
AcDbScale
 70
     0
300
1:8
140
1.0
141
8.0
290
     0
  0
SCALE
  5
4D
102
{ACAD_REACTORS
330
47
102
}
330
47
100
AcDbScale
 70
     0
300
1:10
140
1.0
141
10.0
290
     0
  0
SCALE
  5
4E
102
{ACAD_REACTORS
330
47
102
}
330
47
100
AcDbScale
 70
     0
300
1:16
140
1.0
141
16.0
290
     0
  0
SCALE
  5
4F
102
{ACAD_REACTORS
330
47
102
}
330
47
100
AcDbScale
 70
     0
300
1:20
140
1.0
141
20.0
290
     0
  0
SCALE
  5
50
102
{ACAD_REACTORS
330
47
102
}
330
47
100
AcDbScale
 70
     0
300
1:30
140
1.0
141
30.0
290
     0
  0
SCALE
  5
51
102
{ACAD_REACTORS
330
47
102
}
330
47
100
AcDbScale
 70
     0
300
1:40
140
1.0
141
40.0
290
     0
  0
SCALE
  5
52
102
{ACAD_REACTORS
330
47
102
}
330
47
100
AcDbScale
 70
     0
300
1:50
140
1.0
141
50.0
290
     0
  0
SCALE
  5
53
102
{ACAD_REACTORS
330
47
102
}
330
47
100
AcDbScale
 70
     0
300
1:100
140
1.0
141
100.0
290
     0
  0
SCALE
  5
54
102
{ACAD_REACTORS
330
47
102
}
330
47
100
AcDbScale
 70
     0
300
2:1
140
2.0
141
1.0
290
     0
  0
SCALE
  5
55
102
{ACAD_REACTORS
330
47
102
}
330
47
100
AcDbScale
 70
     0
300
4:1
140
4.0
141
1.0
290
     0
  0
SCALE
  5
56
102
{ACAD_REACTORS
330
47
102
}
330
47
100
AcDbScale
 70
     0
300
8:1
140
8.0
141
1.0
290
     0
  0
SCALE
  5
57
102
{ACAD_REACTORS
330
47
102
}
330
47
100
AcDbScale
 70
     0
300
10:1
140
10.0
141
1.0
290
     0
  0
SCALE
  5
58
102
{ACAD_REACTORS
330
47
102
}
330
47
100
AcDbScale
 70
     0
300
100:1
140
100.0
141
1.0
290
     0
  0
SCALE
  5
59
102
{ACAD_REACTORS
330
47
102
}
330
47
100
AcDbScale
 70
     0
300
1/128" = 1'-0"
140
0.0078125
141
12.0
290
     0
  0
SCALE
  5
5A
102
{ACAD_REACTORS
330
47
102
}
330
47
100
AcDbScale
 70
     0
300
1/64" = 1'-0"
140
0.015625
141
12.0
290
     0
  0
SCALE
  5
5B
102
{ACAD_REACTORS
330
47
102
}
330
47
100
AcDbScale
 70
     0
300
1/32" = 1'-0"
140
0.03125
141
12.0
290
     0
  0
SCALE
  5
5C
102
{ACAD_REACTORS
330
47
102
}
330
47
100
AcDbScale
 70
     0
300
1/16" = 1'-0"
140
0.0625
141
12.0
290
     0
  0
SCALE
  5
5D
102
{ACAD_REACTORS
330
47
102
}
330
47
100
AcDbScale
 70
     0
300
3/32" = 1'-0"
140
0.09375
141
12.0
290
     0
  0
SCALE
  5
5E
102
{ACAD_REACTORS
330
47
102
}
330
47
100
AcDbScale
 70
     0
300
1/8" = 1'-0"
140
0.125
141
12.0
290
     0
  0
SCALE
  5
5F
102
{ACAD_REACTORS
330
47
102
}
330
47
100
AcDbScale
 70
     0
300
3/16" = 1'-0"
140
0.1875
141
12.0
290
     0
  0
SCALE
  5
60
102
{ACAD_REACTORS
330
47
102
}
330
47
100
AcDbScale
 70
     0
300
1/4" = 1'-0"
140
0.25
141
12.0
290
     0
  0
SCALE
  5
61
102
{ACAD_REACTORS
330
47
102
}
330
47
100
AcDbScale
 70
     0
300
3/8" = 1'-0"
140
0.375
141
12.0
290
     0
  0
SCALE
  5
62
102
{ACAD_REACTORS
330
47
102
}
330
47
100
AcDbScale
 70
     0
300
1/2" = 1'-0"
140
0.5
141
12.0
290
     0
  0
SCALE
  5
63
102
{ACAD_REACTORS
330
47
102
}
330
47
100
AcDbScale
 70
     0
300
3/4" = 1'-0"
140
0.75
141
12.0
290
     0
  0
SCALE
  5
64
102
{ACAD_REACTORS
330
47
102
}
330
47
100
AcDbScale
 70
     0
300
1" = 1'-0"
140
1.0
141
12.0
290
     0
  0
SCALE
  5
65
102
{ACAD_REACTORS
330
47
102
}
330
47
100
AcDbScale
 70
     0
300
1-1/2" = 1'-0"
140
1.5
141
12.0
290
     0
  0
SCALE
  5
66
102
{ACAD_REACTORS
330
47
102
}
330
47
100
AcDbScale
 70
     0
300
3" = 1'-0"
140
3.0
141
12.0
290
     0
  0
SCALE
  5
67
102
{ACAD_REACTORS
330
47
102
}
330
47
100
AcDbScale
 70
     0
300
6" = 1'-0"
140
6.0
141
12.0
290
     0
  0
SCALE
  5
68
102
{ACAD_REACTORS
330
47
102
}
330
47
100
AcDbScale
 70
     0
300
1'-0" = 1'-0"
140
12.0
141
12.0
290
     0
  0
ENDSEC
  0
EOF
