  0
SECTION
  2
HEADER
  9
$ACADVER
  1
AC1015
  9
$ACADMAINTVER
 70
     6
  9
$DWGCODEPAGE
  3
ANSI_1250
  9
$INSBASE
 10
0.0
 20
0.0
 30
0.0
  9
$EXTMIN
 10
0.0
 20
0.0
 30
0.0
  9
$EXTMAX
 10
431.8
 20
279.4
 30
0.0
  9
$LIMMIN
 10
0.0
 20
0.0
  9
$LIMMAX
 10
431.8
 20
279.4
  9
$ORTHOMODE
 70
     0
  9
$REGENMODE
 70
     1
  9
$FILLMODE
 70
     1
  9
$QTEXTMODE
 70
     0
  9
$MIRRTEXT
 70
     1
  9
$LTSCALE
 40
1.0
  9
$ATTMODE
 70
     1
  9
$TEXTSIZE
 40
3.8805555556
  9
$TRACEWID
 40
1.0
  9
$TEXTSTYLE
  7
Standard
  9
$CLAYER
  8
0
  9
$CELTYPE
  6
ByLayer
  9
$CECOLOR
 62
   256
  9
$CELTSCALE
 40
1.0
  9
$DISPSILH
 70
     0
  9
$DIMSCALE
 40
1.0
  9
$DIMASZ
 40
3.302
  9
$DIMEXO
 40
1.0
  9
$DIMDLI
 40
3.75
  9
$DIMRND
 40
0.0
  9
$DIMDLE
 40
0.0
  9
$DIMEXE
 40
1.0
  9
$DIMTP
 40
0.0
  9
$DIMTM
 40
0.0
  9
$DIMTXT
 40
3.8805555556
  9
$DIMCEN
 40
2.5
  9
$DIMTSZ
 40
0.0
  9
$DIMTOL
 70
     0
  9
$DIMLIM
 70
     0
  9
$DIMTIH
 70
     1
  9
$DIMTOH
 70
     1
  9
$DIMSE1
 70
     0
  9
$DIMSE2
 70
     0
  9
$DIMTAD
 70
     1
  9
$DIMZIN
 70
     0
  9
$DIMBLK
  1

  9
$DIMASO
 70
     1
  9
$DIMSHO
 70
     1
  9
$DIMPOST
  1

  9
$DIMAPOST
  1

  9
$DIMALT
 70
     0
  9
$DIMALTD
 70
     3
  9
$DIMALTF
 40
0.0393700787
  9
$DIMLFAC
 40
1.0
  9
$DIMTOFL
 70
     1
  9
$DIMTVP
 40
0.0
  9
$DIMTIX
 70
     0
  9
$DIMSOXD
 70
     0
  9
$DIMSAH
 70
     0
  9
$DIMBLK1
  1

  9
$DIMBLK2
  1

  9
$DIMSTYLE
  2
ISO-25
  9
$DIMCLRD
 70
     0
  9
$DIMCLRE
 70
     0
  9
$DIMCLRT
 70
     0
  9
$DIMTFAC
 40
1.0
  9
$DIMGAP
 40
1.524
  9
$DIMJUST
 70
     0
  9
$DIMSD1
 70
     0
  9
$DIMSD2
 70
     0
  9
$DIMTOLJ
 70
     0
  9
$DIMTZIN
 70
     0
  9
$DIMALTZ
 70
     0
  9
$DIMALTTZ
 70
     0
  9
$DIMUPT
 70
     0
  9
$DIMDEC
 70
     1
  9
$DIMTDEC
 70
     1
  9
$DIMALTU
 70
     2
  9
$DIMALTTD
 70
     3
  9
$DIMTXSTY
  7
Standard
  9
$DIMAUNIT
 70
     0
  9
$DIMADEC
 70
     1
  9
$DIMALTRND
 40
0.0
  9
$DIMAZIN
 70
     0
  9
$DIMDSEP
 70
    44
  9
$DIMATFIT
 70
     3
  9
$DIMFRAC
 70
     0
  9
$DIMLDRBLK
  1

  9
$DIMLUNIT
 70
     2
  9
$DIMLWD
 70
    -2
  9
$DIMLWE
 70
    -2
  9
$DIMTMOVE
 70
     0
  9
$LUNITS
 70
     2
  9
$LUPREC
 70
     1
  9
$SKETCHINC
 40
1.0
  9
$FILLETRAD
 40
10.0
  9
$AUNITS
 70
     0
  9
$AUPREC
 70
     1
  9
$MENU
  1
.
  9
$ELEVATION
 40
0.0
  9
$PELEVATION
 40
0.0
  9
$THICKNESS
 40
0.0
  9
$LIMCHECK
 70
     0
  9
$CHAMFERA
 40
0.0
  9
$CHAMFERB
 40
0.0
  9
$CHAMFERC
 40
0.0
  9
$CHAMFERD
 40
0.0
  9
$SKPOLY
 70
     0
  9
$TDCREATE
 40
2459563.49914397
  9
$TDUCREATE
 40
2459563.457477303
  9
$TDUPDATE
 40
2459563.499144155
  9
$TDUUPDATE
 40
2459563.457477489
  9
$TDINDWG
 40
0.0000000116
  9
$TDUSRTIMER
 40
0.0000000116
  9
$USRTIMER
 70
     1
  9
$ANGBASE
 50
0.0
  9
$ANGDIR
 70
     0
  9
$PDMODE
 70
     0
  9
$PDSIZE
 40
-1.0
  9
$PLINEWID
 40
0.0
  9
$SPLFRAME
 70
     0
  9
$SPLINETYPE
 70
     6
  9
$SPLINESEGS
 70
     8
  9
$HANDSEED
  5
45A
  9
$SURFTAB1
 70
     6
  9
$SURFTAB2
 70
     6
  9
$SURFTYPE
 70
     6
  9
$SURFU
 70
     6
  9
$SURFV
 70
     6
  9
$UCSBASE
  2

  9
$UCSNAME
  2

  9
$UCSORG
 10
0.0
 20
0.0
 30
0.0
  9
$UCSXDIR
 10
1.0
 20
0.0
 30
0.0
  9
$UCSYDIR
 10
0.0
 20
1.0
 30
0.0
  9
$UCSORTHOREF
  2

  9
$UCSORTHOVIEW
 70
     0
  9
$UCSORGTOP
 10
0.0
 20
0.0
 30
0.0
  9
$UCSORGBOTTOM
 10
0.0
 20
0.0
 30
0.0
  9
$UCSORGLEFT
 10
0.0
 20
0.0
 30
0.0
  9
$UCSORGRIGHT
 10
0.0
 20
0.0
 30
0.0
  9
$UCSORGFRONT
 10
0.0
 20
0.0
 30
0.0
  9
$UCSORGBACK
 10
0.0
 20
0.0
 30
0.0
  9
$PUCSBASE
  2

  9
$PUCSNAME
  2

  9
$PUCSORG
 10
0.0
 20
0.0
 30
0.0
  9
$PUCSXDIR
 10
1.0
 20
0.0
 30
0.0
  9
$PUCSYDIR
 10
0.0
 20
1.0
 30
0.0
  9
$PUCSORTHOREF
  2

  9
$PUCSORTHOVIEW
 70
     0
  9
$PUCSORGTOP
 10
0.0
 20
0.0
 30
0.0
  9
$PUCSORGBOTTOM
 10
0.0
 20
0.0
 30
0.0
  9
$PUCSORGLEFT
 10
0.0
 20
0.0
 30
0.0
  9
$PUCSORGRIGHT
 10
0.0
 20
0.0
 30
0.0
  9
$PUCSORGFRONT
 10
0.0
 20
0.0
 30
0.0
  9
$PUCSORGBACK
 10
0.0
 20
0.0
 30
0.0
  9
$USERI1
 70
     0
  9
$USERI2
 70
     0
  9
$USERI3
 70
     0
  9
$USERI4
 70
     0
  9
$USERI5
 70
     0
  9
$USERR1
 40
0.0
  9
$USERR2
 40
0.0
  9
$USERR3
 40
0.0
  9
$USERR4
 40
0.0
  9
$USERR5
 40
0.0
  9
$WORLDVIEW
 70
     1
  9
$SHADEDGE
 70
     3
  9
$SHADEDIF
 70
    70
  9
$TILEMODE
 70
     1
  9
$MAXACTVP
 70
    64
  9
$PINSBASE
 10
0.0
 20
0.0
 30
0.0
  9
$PLIMCHECK
 70
     0
  9
$PEXTMIN
 10
1.0000000000E+20
 20
1.0000000000E+20
 30
1.0000000000E+20
  9
$PEXTMAX
 10
-1.0000000000E+20
 20
-1.0000000000E+20
 30
-1.0000000000E+20
  9
$PLIMMIN
 10
0.0
 20
0.0
  9
$PLIMMAX
 10
420.0
 20
297.0
  9
$UNITMODE
 70
     0
  9
$VISRETAIN
 70
     1
  9
$PLINEGEN
 70
     0
  9
$PSLTSCALE
 70
     1
  9
$TREEDEPTH
 70
  3020
  9
$CMLSTYLE
  2
Standard
  9
$CMLJUST
 70
     0
  9
$CMLSCALE
 40
20.0
  9
$PROXYGRAPHICS
 70
     1
  9
$MEASUREMENT
 70
     1
  9
$CELWEIGHT
370
    -1
  9
$ENDCAPS
280
     0
  9
$JOINSTYLE
280
     0
  9
$LWDISPLAY
290
     1
  9
$INSUNITS
 70
     4
  9
$HYPERLINKBASE
  1

  9
$STYLESHEET
  1

  9
$XEDIT
290
     1
  9
$CEPSNTYPE
380
     0
  9
$PSTYLEMODE
290
     1
  9
$FINGERPRINTGUID
  2
{7d816ed1-9fa1-4987-92c0-c415b26b1e29}
  9
$VERSIONGUID
  2
{FAEB1C32-E019-11D5-929B-00C0DF256EC4}
  9
$EXTNAMES
290
     1
  9
$PSVPSCALE
 40
0.0
  9
$OLESTARTUP
290
     0
  0
ENDSEC
  0
SECTION
  2
CLASSES
  0
CLASS
  1
ACDBDICTIONARYWDFLT
  2
AcDbDictionaryWithDefault
  3
ObjectDBX Classes
 90
        0
280
     0
281
     0
  0
CLASS
  1
VISUALSTYLE
  2
AcDbVisualStyle
  3
ObjectDBX Classes
 90
     4095
280
     0
281
     0
  0
CLASS
  1
MATERIAL
  2
AcDbMaterial
  3
ObjectDBX Classes
 90
     1153
280
     0
281
     0
  0
CLASS
  1
SCALE
  2
AcDbScale
  3
ObjectDBX Classes
 90
     1153
280
     0
281
     0
  0
CLASS
  1
TABLESTYLE
  2
AcDbTableStyle
  3
ObjectDBX Classes
 90
     4095
280
     0
281
     0
  0
CLASS
  1
MLEADERSTYLE
  2
AcDbMLeaderStyle
  3
ACDB_MLEADERSTYLE_CLASS
 90
     4095
280
     0
281
     0
  0
CLASS
  1
SUN
  2
AcDbSun
  3
SCENEOE
 90
     1153
280
     0
281
     0
  0
CLASS
  1
ACDBPLACEHOLDER
  2
AcDbPlaceHolder
  3
ObjectDBX Classes
 90
        0
280
     0
281
     0
  0
CLASS
  1
LAYOUT
  2
AcDbLayout
  3
ObjectDBX Classes
 90
        0
280
     0
281
     0
  0
ENDSEC
  0
SECTION
  2
TABLES
  0
TABLE
  2
VPORT
  5
8
330
0
100
AcDbSymbolTable
 70
     1
  0
VPORT
  5
29
330
8
100
AcDbSymbolTableRecord
100
AcDbViewportTableRecord
  2
*Active
 70
     0
 10
0.0
 20
0.0
 11
1.0
 21
1.0
 12
215.9
 22
139.7
 13
0.0
 23
0.0
 14
10.0
 24
10.0
 15
10.0
 25
10.0
 16
0.0
 26
0.0
 36
1.0
 17
0.0
 27
0.0
 37
0.0
 40
279.4
 41
1.5454545455
 42
50.0
 43
0.0
 44
0.0
 50
0.0
 51
0.0
 71
     0
 72
  2000
 73
     1
 74
     3
 75
     0
 76
     0
 77
     0
 78
     0
281
     0
 65
     1
110
0.0
120
0.0
130
0.0
111
1.0
121
0.0
131
0.0
112
0.0
122
1.0
132
0.0
 79
     0
146
0.0
  0
ENDTAB
  0
TABLE
  2
LTYPE
  5
5
330
0
100
AcDbSymbolTable
 70
     6
  0
LTYPE
  5
14
330
5
100
AcDbSymbolTableRecord
100
AcDbLinetypeTableRecord
  2
ByBlock
 70
     0
  3

 72
    65
 73
     0
 40
0.0
  0
LTYPE
  5
15
330
5
100
AcDbSymbolTableRecord
100
AcDbLinetypeTableRecord
  2
ByLayer
 70
     0
  3

 72
    65
 73
     0
 40
0.0
  0
LTYPE
  5
16
330
5
100
AcDbSymbolTableRecord
100
AcDbLinetypeTableRecord
  2
Continuous
 70
     0
  3
Solid line
 72
    65
 73
     0
 40
0.0
  0
LTYPE
  5
6E
330
5
100
AcDbSymbolTableRecord
100
AcDbLinetypeTableRecord
  2
HIDDEN
 70
     0
  3
Hidden __ __ __ __ __ __ __ __ __ __ __ __ __ __
 72
    65
 73
     2
 40
1.905
 49
1.27
 74
     0
 49
-0.635
 74
     0
  0
LTYPE
  5
6F
330
5
100
AcDbSymbolTableRecord
100
AcDbLinetypeTableRecord
  2
PHANTOM
 70
     0
  3
Phantom ______  __  __  ______  __  __  ______
 72
    65
 73
     6
 40
12.7
 49
6.35
 74
     0
 49
-1.27
 74
     0
 49
1.27
 74
     0
 49
-1.27
 74
     0
 49
1.27
 74
     0
 49
-1.27
 74
     0
  0
LTYPE
  5
70
330
5
100
AcDbSymbolTableRecord
100
AcDbLinetypeTableRecord
  2
CENTER
 70
     0
  3
Center ____ _ ____ _ ____ _ ____ _ ____ _ ____
 72
    65
 73
     4
 40
10.16
 49
6.35
 74
     0
 49
-1.27
 74
     0
 49
1.27
 74
     0
 49
-1.27
 74
     0
  0
LTYPE
  5
71
330
5
100
AcDbSymbolTableRecord
100
AcDbLinetypeTableRecord
  2
CENTERX2
 70
     0
  3
Center (2x) ________  __  ________  __  _____
 72
    65
 73
     4
 40
20.32
 49
12.7
 74
     0
 49
-2.54
 74
     0
 49
2.54
 74
     0
 49
-2.54
 74
     0
  0
LTYPE
  5
72
330
5
100
AcDbSymbolTableRecord
100
AcDbLinetypeTableRecord
  2
DOT2
 70
     0
  3
Dot (.5x) ........................................
 72
    65
 73
     2
 40
0.635
 49
0.0
 74
     0
 49
-0.635
 74
     0
  0
ENDTAB
  0
TABLE
  2
LAYER
  5
2
330
0
100
AcDbSymbolTable
 70
     3
  0
LAYER
  5
10
330
2
100
AcDbSymbolTableRecord
100
AcDbLayerTableRecord
  2
0
 70
     0
 62
     7
  6
Continuous
370
    -3
390
F
  0
LAYER
  5
73
330
2
100
AcDbSymbolTableRecord
100
AcDbLayerTableRecord
  2
FRAME_&_TABLE
 70
     0
 62
     8
  6
Continuous
370
    50
390
F
  0
LAYER
  5
74
330
2
100
AcDbSymbolTableRecord
100
AcDbLayerTableRecord
  2
DIMENSIONS
 70
     0
 62
     7
  6
Continuous
370
    -3
390
F
  0
ENDTAB
  0
TABLE
  2
STYLE
  5
3
330
0
100
AcDbSymbolTable
 70
     1
  0
STYLE
  5
11
330
3
100
AcDbSymbolTableRecord
100
AcDbTextStyleTableRecord
  2
Standard
 70
     0
 40
0.0
 41
1.0
 50
0.0
 71
     0
 42
3.8805555556
  3
txt
  4

  0
ENDTAB
  0
TABLE
  2
VIEW
  5
6
330
0
100
AcDbSymbolTable
 70
     0
  0
ENDTAB
  0
TABLE
  2
UCS
  5
7
330
0
100
AcDbSymbolTable
 70
     0
  0
ENDTAB
  0
TABLE
  2
APPID
  5
9
330
0
100
AcDbSymbolTable
 70
     1
  0
APPID
  5
12
330
9
100
AcDbSymbolTableRecord
100
AcDbRegAppTableRecord
  2
ACAD
 70
     0
  0
ENDTAB
  0
TABLE
  2
DIMSTYLE
  5
A
330
0
100
AcDbSymbolTable
 70
     1
100
AcDbDimStyleTable
  0
DIMSTYLE
105
27
330
A
100
AcDbSymbolTableRecord
100
AcDbDimStyleTableRecord
  2
ISO-25
 70
     0
 41
2.5
 42
0.625
 43
3.75
 44
1.25
 73
     0
 74
     0
 77
     1
 78
     8
140
2.5
141
2.5
143
0.0393700787
147
0.625
171
     3
172
     1
178
     0
271
     2
272
     2
274
     3
278
    44
283
     0
284
     8
340
11
  0
ENDTAB
  0
TABLE
  2
BLOCK_RECORD
  5
1
330
0
100
AcDbSymbolTable
 70
     1
  0
BLOCK_RECORD
  5
1F
330
1
100
AcDbSymbolTableRecord
100
AcDbBlockTableRecord
  2
*Model_Space
340
22
  0
BLOCK_RECORD
  5
1B
330
1
100
AcDbSymbolTableRecord
100
AcDbBlockTableRecord
  2
*Paper_Space
340
1E
  0
BLOCK_RECORD
  5
23
330
1
100
AcDbSymbolTableRecord
100
AcDbBlockTableRecord
  2
*Paper_Space0
340
26
  0
ENDTAB
  0
ENDSEC
  0
SECTION
  2
BLOCKS
  0
BLOCK
  5
20
330
1F
100
AcDbEntity
  8
0
100
AcDbBlockBegin
  2
*Model_Space
 70
     0
 10
0.0
 20
0.0
 30
0.0
  3
*Model_Space
  1

  0
ENDBLK
  5
21
330
1F
100
AcDbEntity
  8
0
100
AcDbBlockEnd
  0
BLOCK
  5
1C
330
1B
100
AcDbEntity
 67
     1
  8
0
100
AcDbBlockBegin
  2
*Paper_Space
 70
     0
 10
0.0
 20
0.0
 30
0.0
  3
*Paper_Space
  1

  0
ENDBLK
  5
1D
330
1B
100
AcDbEntity
 67
     1
  8
0
100
AcDbBlockEnd
  0
BLOCK
  5
24
330
23
100
AcDbEntity
  8
0
100
AcDbBlockBegin
  2
*Paper_Space0
 70
     0
 10
0.0
 20
0.0
 30
0.0
  3
*Paper_Space0
  1

  0
ENDBLK
  5
25
330
23
100
AcDbEntity
  8
0
100
AcDbBlockEnd
  0
ENDSEC
  0
SECTION
  2
ENTITIES
  0
LINE
  5
75
330
1F
100
AcDbEntity
  8
0
  6
Continuous
 62
     7
370
    25
100
AcDbLine
 10
1185.014083687
 20
-1981.7243114124
 30
0.0
 11
1339.9414391739
 21
-2057.1379637188
 31
0.0
  0
LINE
  5
76
330
1F
100
AcDbEntity
  8
0
  6
Continuous
 62
     7
370
    25
100
AcDbLine
 10
1426.0096072545
 20
-1958.8944242521
 30
0.0
 11
1262.6526152798
 21
-1879.3774961028
 31
0.0
  0
LINE
  5
77
330
1F
100
AcDbEntity
  8
0
  6
Continuous
 62
     7
370
    25
100
AcDbLine
 10
-913.2929018744
 20
-1879.3774961028
 30
0.0
 11
-1076.6498938491
 21
-1958.8944242521
 31
0.0
  0
LINE
  5
78
330
1F
100
AcDbEntity
  8
0
  6
Continuous
 62
     7
370
    25
100
AcDbLine
 10
-990.5817257684
 20
-2057.1379637188
 30
0.0
 11
-835.6543702816
 21
-1981.7243114124
 31
0.0
  0
LINE
  5
79
330
1F
100
AcDbEntity
  8
0
  6
Continuous
 62
     7
370
    25
100
AcDbLine
 10
-835.6543702816
 20
1141.016311207
 30
0.0
 11
-990.5817257684
 21
1216.4299635134
 31
0.0
  0
LINE
  5
7A
330
1F
100
AcDbEntity
  8
0
  6
Continuous
 62
     7
370
    25
100
AcDbLine
 10
-1076.6498938491
 20
1118.1864240467
 30
0.0
 11
-913.2929018744
 21
1038.6694958974
 31
0.0
  0
LINE
  5
7B
330
1F
100
AcDbEntity
  8
0
  6
Continuous
 62
     7
370
    25
100
AcDbLine
 10
1339.9414391739
 20
1216.4299635134
 30
0.0
 11
1185.014083687
 21
1141.016311207
 31
0.0
  0
LINE
  5
7C
330
1F
100
AcDbEntity
  8
0
  6
Continuous
 62
     7
370
    25
100
AcDbLine
 10
1262.6526152798
 20
1038.6694958974
 30
0.0
 11
1426.0096072545
 21
1118.1864240467
 31
0.0
  0
ARC
  5
7D
330
1F
100
AcDbEntity
  8
0
  6
Continuous
 62
     7
370
    25
100
AcDbCircle
 10
1342.386300768
 20
1120.680443925
 30
0.0
 40
15.73239372298414
100
AcDbArc
 50
261.6292760702
 51
308.4935475732
  0
ARC
  5
7E
330
1F
100
AcDbEntity
  8
0
  6
Continuous
 62
     7
370
    25
100
AcDbCircle
 10
1342.4589384998
 20
1120.3449607828
 30
0.0
 40
15.54148985344292
100
AcDbArc
 50
35.7540905491
 51
83.1243723303
  0
LINE
  5
7F
330
1F
100
AcDbEntity
  8
0
  6
Continuous
 62
     7
370
    25
100
AcDbLine
 10
1339.2171436137
 20
1105.2190148416
 30
0.0
 11
1340.1000912066
 21
1105.09750666
 31
0.0
  0
LINE
  5
80
330
1F
100
AcDbEntity
  8
0
  6
Continuous
 62
     7
370
    25
100
AcDbLine
 10
1344.326371952
 20
1135.8080675643
 30
0.0
 11
1343.4434243591
 21
1135.9295757459
 31
0.0
  0
ARC
  5
81
330
1F
100
AcDbEntity
  8
0
  6
Continuous
 62
     7
370
    25
100
AcDbCircle
 10
1281.3549976058
 20
1090.9723690533
 30
0.0
 40
15.7323937229826
100
AcDbArc
 50
261.6292760702
 51
308.4935475732
  0
ARC
  5
82
330
1F
100
AcDbEntity
  8
0
  6
Continuous
 62
     7
370
    25
100
AcDbCircle
 10
1281.4276353376
 20
1090.6368859111
 30
0.0
 40
15.54148985344247
100
AcDbArc
 50
35.7540905491
 51
83.1243723303
  0
LINE
  5
83
330
1F
100
AcDbEntity
  8
0
  6
Continuous
 62
     7
370
    25
100
AcDbLine
 10
1278.1858404515
 20
1075.5109399698
 30
0.0
 11
1279.0687880444
 21
1075.3894317883
 31
0.0
  0
LINE
  5
84
330
1F
100
AcDbEntity
  8
0
  6
Continuous
 62
     7
370
    25
100
AcDbLine
 10
1283.2950687898
 20
1106.0999926926
 30
0.0
 11
1282.4121211969
 21
1106.2215008742
 31
0.0
  0
ARC
  5
85
330
1F
100
AcDbEntity
  8
0
  6
Continuous
 62
     7
370
    25
100
AcDbCircle
 10
341.5961218384
 20
-1545.4862044162
 30
0.0
 40
15.86517653755087
100
AcDbArc
 50
179.562677453
 51
225.5037407772
  0
ARC
  5
86
330
1F
100
AcDbEntity
  8
0
  6
Continuous
 62
     7
370
    25
100
AcDbCircle
 10
340.7989340222
 20
-1545.458356727
 30
0.0
 40
15.91973140515347
100
AcDbArc
 50
314.5989355753
 51
0.3543501947
  0
LINE
  5
87
330
1F
100
AcDbEntity
  8
0
  6
Continuous
 62
     7
370
    25
100
AcDbLine
 10
325.726811446
 20
-1544.3930985651
 30
0.0
 11
325.726811446
 21
-1545.3590243914
 31
0.0
  0
LINE
  5
88
330
1F
100
AcDbEntity
  8
0
  6
Continuous
 62
     7
370
    25
100
AcDbLine
 10
356.726811446
 20
-1545.3590243914
 30
0.0
 11
356.726811446
 21
-1544.3930985651
 31
0.0
  0
ARC
  5
89
330
1F
100
AcDbEntity
  8
0
  6
Continuous
 62
     7
370
    25
100
AcDbCircle
 10
-992.9447896283
 20
1120.1704533588
 30
0.0
 40
15.75298346055967
100
AcDbArc
 50
97.330633264
 51
144.0363836063
  0
ARC
  5
8A
330
1F
100
AcDbEntity
  8
0
  6
Continuous
 62
     7
370
    25
100
AcDbCircle
 10
-993.1132475327
 20
1120.5117671335
 30
0.0
 40
15.56223283683327
100
AcDbArc
 50
231.271535357
 51
278.7559960534
  0
LINE
  5
8B
330
1F
100
AcDbEntity
  8
0
  6
Continuous
 62
     7
370
    25
100
AcDbLine
 10
-994.0837109537
 20
1135.9295757459
 30
0.0
 11
-994.9666585465
 21
1135.8080675643
 31
0.0
  0
LINE
  5
8C
330
1F
100
AcDbEntity
  8
0
  6
Continuous
 62
     7
370
    25
100
AcDbLine
 10
-990.7403778011
 20
1105.09750666
 30
0.0
 11
-989.8574302083
 21
1105.2190148416
 31
0.0
  0
ARC
  5
8D
330
1F
100
AcDbEntity
  8
0
  6
Continuous
 62
     7
370
    25
100
AcDbCircle
 10
250.0491670951
 20
-1500.9240921086
 30
0.0
 40
15.86517653755266
100
AcDbArc
 50
179.562677453
 51
225.5037407772
  0
ARC
  5
8E
330
1F
100
AcDbEntity
  8
0
  6
Continuous
 62
     7
370
    25
100
AcDbCircle
 10
249.251979279
 20
-1500.8962444194
 30
0.0
 40
15.91973140515335
100
AcDbArc
 50
314.5989355753
 51
0.3543501947
  0
LINE
  5
8F
330
1F
100
AcDbEntity
  8
0
  6
Continuous
 62
     7
370
    25
100
AcDbLine
 10
234.1798567027
 20
-1499.8309862575
 30
0.0
 11
234.1798567027
 21
-1500.7969120838
 31
0.0
  0
LINE
  5
90
330
1F
100
AcDbEntity
  8
0
  6
Continuous
 62
     7
370
    25
100
AcDbLine
 10
265.1798567027
 20
-1500.7969120838
 30
0.0
 11
265.1798567027
 21
-1499.8309862575
 31
0.0
  0
ARC
  5
91
330
1F
100
AcDbEntity
  8
0
  6
Continuous
 62
     7
370
    25
100
AcDbCircle
 10
-931.9134864661
 20
1090.462378487
 30
0.0
 40
15.75298346055975
100
AcDbArc
 50
97.330633264
 51
144.0363836063
  0
ARC
  5
92
330
1F
100
AcDbEntity
  8
0
  6
Continuous
 62
     7
370
    25
100
AcDbCircle
 10
-932.0819443706
 20
1090.8036922618
 30
0.0
 40
15.56223283683287
100
AcDbArc
 50
231.271535357
 51
278.7559960534
  0
LINE
  5
93
330
1F
100
AcDbEntity
  8
0
  6
Continuous
 62
     7
370
    25
100
AcDbLine
 10
-933.0524077915
 20
1106.2215008742
 30
0.0
 11
-933.9353553843
 21
1106.0999926926
 31
0.0
  0
LINE
  5
94
330
1F
100
AcDbEntity
  8
0
  6
Continuous
 62
     7
370
    25
100
AcDbLine
 10
-929.709074639
 20
1075.3894317883
 30
0.0
 11
-928.8261270461
 21
1075.5109399698
 31
0.0
  0
ARC
  5
95
330
1F
100
AcDbEntity
  8
0
  6
Continuous
 62
     7
370
    25
100
AcDbCircle
 10
7.6699593295
 20
-1545.4397359619
 30
0.0
 40
15.95858268628291
100
AcDbArc
 50
314.6382086984
 51
0.3116319025
  0
ARC
  5
96
330
1F
100
AcDbEntity
  8
0
  6
Continuous
 62
     7
370
    25
100
AcDbCircle
 10
8.5944805667
 20
-1545.4505459986
 30
0.0
 40
15.95339570638761
100
AcDbArc
 50
179.6681564752
 51
225.3502798186
  0
LINE
  5
97
330
1F
100
AcDbEntity
  8
0
  6
Continuous
 62
     7
370
    25
100
AcDbLine
 10
-7.3670980405
 20
-1544.3930985651
 30
0.0
 11
-7.3670980405
 21
-1545.3590243914
 31
0.0
  0
LINE
  5
98
330
1F
100
AcDbEntity
  8
0
  6
Continuous
 62
     7
370
    25
100
AcDbLine
 10
23.6329019595
 20
-1545.3590243914
 30
0.0
 11
23.6329019595
 21
-1544.3930985651
 31
0.0
  0
ARC
  5
99
330
1F
100
AcDbEntity
  8
0
  6
Continuous
 62
     7
370
    25
100
AcDbCircle
 10
341.6897540759
 20
704.7317357565
 30
0.0
 40
15.95858268628147
100
AcDbArc
 50
134.6382086984
 51
180.3116319025
  0
ARC
  5
9A
330
1F
100
AcDbEntity
  8
0
  6
Continuous
 62
     7
370
    25
100
AcDbCircle
 10
340.7652328387
 20
704.7425457932
 30
0.0
 40
15.95339570638654
100
AcDbArc
 50
359.6681564752
 51
45.3502798186
  0
LINE
  5
9B
330
1F
100
AcDbEntity
  8
0
  6
Continuous
 62
     7
370
    25
100
AcDbLine
 10
356.726811446
 20
703.6850983597
 30
0.0
 11
356.726811446
 21
704.651024186
 31
0.0
  0
LINE
  5
9C
330
1F
100
AcDbEntity
  8
0
  6
Continuous
 62
     7
370
    25
100
AcDbLine
 10
325.726811446
 20
704.651024186
 30
0.0
 11
325.726811446
 21
703.6850983597
 31
0.0
  0
ARC
  5
9D
330
1F
100
AcDbEntity
  8
0
  6
Continuous
 62
     7
370
    25
100
AcDbCircle
 10
99.2169140728
 20
-1500.8776236543
 30
0.0
 40
15.95858268628198
100
AcDbArc
 50
314.6382086984
 51
0.3116319025
  0
ARC
  5
9E
330
1F
100
AcDbEntity
  8
0
  6
Continuous
 62
     7
370
    25
100
AcDbCircle
 10
100.14143531
 20
-1500.888433691
 30
0.0
 40
15.95339570638846
100
AcDbArc
 50
179.6681564752
 51
225.3502798186
  0
LINE
  5
9F
330
1F
100
AcDbEntity
  8
0
  6
Continuous
 62
     7
370
    25
100
AcDbLine
 10
84.1798567027
 20
-1499.8309862575
 30
0.0
 11
84.1798567027
 21
-1500.7969120838
 31
0.0
  0
LINE
  5
A0
330
1F
100
AcDbEntity
  8
0
  6
Continuous
 62
     7
370
    25
100
AcDbLine
 10
115.1798567027
 20
-1500.7969120838
 30
0.0
 11
115.1798567027
 21
-1499.8309862575
 31
0.0
  0
ARC
  5
A1
330
1F
100
AcDbEntity
  8
0
  6
Continuous
 62
     7
370
    25
100
AcDbCircle
 10
-993.0265873625
 20
-1961.3884441304
 30
0.0
 40
15.73239372298454
100
AcDbArc
 50
81.6292760702
 51
128.4935475732
  0
ARC
  5
A2
330
1F
100
AcDbEntity
  8
0
  6
Continuous
 62
     7
370
    25
100
AcDbCircle
 10
-993.0992250943
 20
-1961.0529609882
 30
0.0
 40
15.54148985343726
100
AcDbArc
 50
215.7540905491
 51
263.1243723303
  0
LINE
  5
A3
330
1F
100
AcDbEntity
  8
0
  6
Continuous
 62
     7
370
    25
100
AcDbLine
 10
-989.8574302083
 20
-1945.9270150469
 30
0.0
 11
-990.7403778011
 21
-1945.8055068654
 31
0.0
  0
LINE
  5
A4
330
1F
100
AcDbEntity
  8
0
  6
Continuous
 62
     7
370
    25
100
AcDbLine
 10
-994.9666585465
 20
-1976.5160677697
 30
0.0
 11
-994.0837109537
 21
-1976.6375759513
 31
0.0
  0
ARC
  5
A5
330
1F
100
AcDbEntity
  8
0
  6
Continuous
 62
     7
370
    25
100
AcDbCircle
 10
7.763591567
 20
704.7782042108
 30
0.0
 40
15.86517653755315
100
AcDbArc
 50
359.562677453
 51
45.5037407772
  0
ARC
  5
A6
330
1F
100
AcDbEntity
  8
0
  6
Continuous
 62
     7
370
    25
100
AcDbCircle
 10
8.5607793832
 20
704.7503565216
 30
0.0
 40
15.91973140515286
100
AcDbArc
 50
134.5989355753
 51
180.3543501947
  0
LINE
  5
A7
330
1F
100
AcDbEntity
  8
0
  6
Continuous
 62
     7
370
    25
100
AcDbLine
 10
23.6329019595
 20
703.6850983597
 30
0.0
 11
23.6329019595
 21
704.651024186
 31
0.0
  0
LINE
  5
A8
330
1F
100
AcDbEntity
  8
0
  6
Continuous
 62
     7
370
    25
100
AcDbLine
 10
-7.3670980405
 20
704.651024186
 30
0.0
 11
-7.3670980405
 21
703.6850983597
 31
0.0
  0
ARC
  5
A9
330
1F
100
AcDbEntity
  8
0
  6
Continuous
 62
     7
370
    25
100
AcDbCircle
 10
1281.2731998715
 20
-1931.1703786924
 30
0.0
 40
15.75298346056087
100
AcDbArc
 50
277.330633264
 51
324.0363836063
  0
ARC
  5
AA
330
1F
100
AcDbEntity
  8
0
  6
Continuous
 62
     7
370
    25
100
AcDbCircle
 10
1281.441657776
 20
-1931.5116924672
 30
0.0
 40
15.56223283683515
100
AcDbArc
 50
51.271535357
 51
98.7559960534
  0
LINE
  5
AB
330
1F
100
AcDbEntity
  8
0
  6
Continuous
 62
     7
370
    25
100
AcDbLine
 10
1282.4121211969
 20
-1946.9295010796
 30
0.0
 11
1283.2950687898
 21
-1946.807992898
 31
0.0
  0
LINE
  5
AC
330
1F
100
AcDbEntity
  8
0
  6
Continuous
 62
     7
370
    25
100
AcDbLine
 10
1279.0687880444
 20
-1916.0974319936
 30
0.0
 11
1278.1858404515
 21
-1916.2189401752
 31
0.0
  0
ARC
  5
AD
330
1F
100
AcDbEntity
  8
0
  6
Continuous
 62
     7
370
    25
100
AcDbCircle
 10
250.1427993326
 20
660.169623449
 30
0.0
 40
15.95858268628147
100
AcDbArc
 50
134.6382086984
 51
180.3116319025
  0
ARC
  5
AE
330
1F
100
AcDbEntity
  8
0
  6
Continuous
 62
     7
370
    25
100
AcDbCircle
 10
249.2182780954
 20
660.1804334856
 30
0.0
 40
15.95339570638643
100
AcDbArc
 50
359.6681564752
 51
45.3502798186
  0
LINE
  5
AF
330
1F
100
AcDbEntity
  8
0
  6
Continuous
 62
     7
370
    25
100
AcDbLine
 10
265.1798567027
 20
659.1229860522
 30
0.0
 11
265.1798567027
 21
660.0889118784
 31
0.0
  0
LINE
  5
B0
330
1F
100
AcDbEntity
  8
0
  6
Continuous
 62
     7
370
    25
100
AcDbLine
 10
234.1798567027
 20
660.0889118784
 30
0.0
 11
234.1798567027
 21
659.1229860522
 31
0.0
  0
ARC
  5
B1
330
1F
100
AcDbEntity
  8
0
  6
Continuous
 62
     7
370
    25
100
AcDbCircle
 10
1342.3045030337
 20
-1960.8784535641
 30
0.0
 40
15.75298346055843
100
AcDbArc
 50
277.330633264
 51
324.0363836063
  0
ARC
  5
B2
330
1F
100
AcDbEntity
  8
0
  6
Continuous
 62
     7
370
    25
100
AcDbCircle
 10
1342.4729609382
 20
-1961.2197673389
 30
0.0
 40
15.56223283683493
100
AcDbArc
 50
51.271535357
 51
98.7559960534
  0
LINE
  5
B3
330
1F
100
AcDbEntity
  8
0
  6
Continuous
 62
     7
370
    25
100
AcDbLine
 10
1343.4434243591
 20
-1976.6375759513
 30
0.0
 11
1344.326371952
 21
-1976.5160677697
 31
0.0
  0
LINE
  5
B4
330
1F
100
AcDbEntity
  8
0
  6
Continuous
 62
     7
370
    25
100
AcDbLine
 10
1340.1000912066
 20
-1945.8055068654
 30
0.0
 11
1339.2171436137
 21
-1945.9270150469
 31
0.0
  0
ARC
  5
B5
330
1F
100
AcDbEntity
  8
0
  6
Continuous
 62
     7
370
    25
100
AcDbCircle
 10
99.3105463103
 20
660.2160919033
 30
0.0
 40
15.86517653755295
100
AcDbArc
 50
359.562677453
 51
45.5037407772
  0
ARC
  5
B6
330
1F
100
AcDbEntity
  8
0
  6
Continuous
 62
     7
370
    25
100
AcDbCircle
 10
100.1077341265
 20
660.1882442141
 30
0.0
 40
15.91973140515289
100
AcDbArc
 50
134.5989355753
 51
180.3543501947
  0
LINE
  5
B7
330
1F
100
AcDbEntity
  8
0
  6
Continuous
 62
     7
370
    25
100
AcDbLine
 10
115.1798567027
 20
659.1229860522
 30
0.0
 11
115.1798567027
 21
660.0889118784
 31
0.0
  0
LINE
  5
B8
330
1F
100
AcDbEntity
  8
0
  6
Continuous
 62
     7
370
    25
100
AcDbLine
 10
84.1798567027
 20
660.0889118784
 30
0.0
 11
84.1798567027
 21
659.1229860522
 31
0.0
  0
ARC
  5
B9
330
1F
100
AcDbEntity
  8
0
  6
Continuous
 62
     7
370
    25
100
AcDbCircle
 10
-931.9952842004
 20
-1931.6803692586
 30
0.0
 40
15.73239372298283
100
AcDbArc
 50
81.6292760702
 51
128.4935475732
  0
ARC
  5
BA
330
1F
100
AcDbEntity
  8
0
  6
Continuous
 62
     7
370
    25
100
AcDbCircle
 10
-932.0679219322
 20
-1931.3448861165
 30
0.0
 40
15.54148985344092
100
AcDbArc
 50
215.7540905491
 51
263.1243723303
  0
LINE
  5
BB
330
1F
100
AcDbEntity
  8
0
  6
Continuous
 62
     7
370
    25
100
AcDbLine
 10
-928.8261270461
 20
-1916.2189401752
 30
0.0
 11
-929.709074639
 21
-1916.0974319936
 31
0.0
  0
LINE
  5
BC
330
1F
100
AcDbEntity
  8
0
  6
Continuous
 62
     7
370
    25
100
AcDbLine
 10
-933.9353553844
 20
-1946.807992898
 30
0.0
 11
-933.0524077915
 21
-1946.9295010796
 31
0.0
  0
ARC
  5
BD
330
1F
100
AcDbEntity
  8
0
  6
Continuous
 62
     7
370
    25
100
AcDbCircle
 10
249.6798567027
 20
645.2227097082
 30
0.0
 40
29.89062500000055
100
AcDbArc
 50
76.1990602276
 51
90.0
  0
ARC
  5
BE
330
1F
100
AcDbEntity
  8
0
  6
Continuous
 62
     7
370
    25
100
AcDbCircle
 10
249.6798567027
 20
645.2227097082
 30
0.0
 40
29.8906250000006
100
AcDbArc
 50
90.0
 51
103.8009397724
  0
ARC
  5
BF
330
1F
100
AcDbEntity
  8
0
  6
Continuous
 62
     7
370
    25
100
AcDbCircle
 10
240.3554320175
 20
671.8085281397
 30
0.0
 40
1.415575292473294
100
AcDbArc
 50
114.5027369217
 51
182.4696986006
  0
ARC
  5
C0
330
1F
100
AcDbEntity
  8
0
  6
Continuous
 62
     7
370
    25
100
AcDbCircle
 10
259.0837308357
 20
671.8471188684
 30
0.0
 40
1.32310029791585
100
AcDbArc
 50
358.2164996102
 51
55.8287292042
  0
LINE
  5
C1
330
1F
100
AcDbEntity
  8
0
  6
Continuous
 62
     7
370
    25
100
AcDbLine
 10
260.4298567027
 20
671.1970588808
 30
0.0
 11
260.4298567027
 21
671.7622703963
 31
0.0
  0
LINE
  5
C2
330
1F
100
AcDbEntity
  8
0
  6
Continuous
 62
     7
370
    25
100
AcDbLine
 10
238.9298567027
 20
671.7622703963
 30
0.0
 11
238.9298567027
 21
671.1970588808
 31
0.0
  0
ARC
  5
C3
330
1F
100
AcDbEntity
  8
0
  6
Continuous
 62
     7
370
    25
100
AcDbCircle
 10
1353.0806730731
 20
-1965.9400266005
 30
0.0
 40
4.575175559838486
100
AcDbArc
 50
288.8395147272
 51
348.8666498654
  0
ARC
  5
C4
330
1F
100
AcDbEntity
  8
0
  6
Continuous
 62
     7
370
    25
100
AcDbCircle
 10
1351.8811513802
 20
-1952.0603906547
 30
0.0
 40
3.02442319814994
100
AcDbArc
 50
41.7601840287
 51
95.1865314206
  0
LINE
  5
C5
330
1F
100
AcDbEntity
  8
0
  6
Continuous
 62
     7
370
    25
100
AcDbLine
 10
1353.8326939943
 20
-1970.4130732204
 30
0.0
 11
1354.349350795
 21
-1970.3419727056
 31
0.0
  0
LINE
  5
C6
330
1F
100
AcDbEntity
  8
0
  6
Continuous
 62
     7
370
    25
100
AcDbLine
 10
1351.4182206006
 20
-1949.0427127236
 30
0.0
 11
1350.9015638
 21
-1949.1138132383
 31
0.0
  0
ARC
  5
C7
330
1F
100
AcDbEntity
  8
0
  6
Continuous
 62
     7
370
    25
100
AcDbCircle
 10
8.1329019595
 20
689.7848220158
 30
0.0
 40
29.89062500000038
100
AcDbArc
 50
76.1990602276
 51
103.8009397724
  0
LWPOLYLINE
  5
C8
330
1F
100
AcDbEntity
  8
0
  6
Continuous
 62
     7
370
    25
100
AcDbPolyline
 90
        3
 70
   128
 43
0.0
 10
18.8715870806
 20
716.3391235514
 10
18.7667855994
 20
716.8635478931
 10
18.4695471338
 20
717.3072648683
  0
ARC
  5
C9
330
1F
100
AcDbEntity
  8
0
  6
Continuous
 62
     7
370
    25
100
AcDbCircle
 10
-1.2052692182
 20
716.3569856908
 30
0.0
 40
1.390256122559419
100
AcDbArc
 50
122.3736296169
 51
183.1449595599
  0
LINE
  5
CA
330
1F
100
AcDbEntity
  8
0
  6
Continuous
 62
     7
370
    25
100
AcDbLine
 10
18.8829019595
 20
715.7591711883
 30
0.0
 11
18.8829019595
 21
716.3243827039
 31
0.0
  0
LINE
  5
CB
330
1F
100
AcDbEntity
  8
0
  6
Continuous
 62
     7
370
    25
100
AcDbLine
 10
-2.6170980405
 20
716.3243827039
 30
0.0
 11
-2.6170980405
 21
715.7591711883
 31
0.0
  0
LWPOLYLINE
  5
CC
330
1F
100
AcDbEntity
  8
0
  6
Continuous
 62
     7
370
    25
100
AcDbPolyline
 90
       11
 70
   128
 43
0.0
 10
-941.0115034368
 20
-1919.3650373238
 10
-941.2419631827
 20
-1919.3138186238
 10
-942.0911169925
 20
-1919.3965396965
 10
-942.921941935
 20
-1919.7267814787
 10
-943.7424617272
 20
-1920.3034985625
 10
-944.5427504194
 20
-1921.1306883344
 10
-945.2946443484
 20
-1922.1881361231
 10
-945.9726545011
 20
-1923.4379156025
 10
-946.5621720124
 20
-1924.8447561019
 10
-947.0519984016
 20
-1926.3737972328
 10
-947.1909721439
 20
-1926.9026425089
  0
ARC
  5
CD
330
1F
100
AcDbEntity
  8
0
  6
Continuous
 62
     7
370
    25
100
AcDbCircle
 10
-943.4202871205
 20
-1937.2780574491
 30
0.0
 40
3.366424132582615
100
AcDbArc
 50
202.4393183811
 51
256.13362716
  0
LINE
  5
CE
330
1F
100
AcDbEntity
  8
0
  6
Continuous
 62
     7
370
    25
100
AcDbLine
 10
-940.5105472323
 20
-1919.4057383666
 30
0.0
 11
-941.027204033
 21
-1919.3346378518
 31
0.0
  0
LINE
  5
CF
330
1F
100
AcDbEntity
  8
0
  6
Continuous
 62
     7
370
    25
100
AcDbLine
 10
-943.9583342274
 20
-1940.6338978339
 30
0.0
 11
-943.4416774267
 21
-1940.7049983487
 31
0.0
  0
ARC
  5
D0
330
1F
100
AcDbEntity
  8
0
  6
Continuous
 62
     7
370
    25
100
AcDbCircle
 10
1292.049369911
 20
-1936.2319517288
 30
0.0
 40
4.575175559836864
100
AcDbArc
 50
288.8395147272
 51
348.8666498654
  0
ARC
  5
D1
330
1F
100
AcDbEntity
  8
0
  6
Continuous
 62
     7
370
    25
100
AcDbCircle
 10
1290.8498482181
 20
-1922.352315783
 30
0.0
 40
3.024423198148995
100
AcDbArc
 50
41.7601840287
 51
95.1865314206
  0
LINE
  5
D2
330
1F
100
AcDbEntity
  8
0
  6
Continuous
 62
     7
370
    25
100
AcDbLine
 10
1292.8013908322
 20
-1940.7049983487
 30
0.0
 11
1293.3180476328
 21
-1940.6338978339
 31
0.0
  0
LINE
  5
D3
330
1F
100
AcDbEntity
  8
0
  6
Continuous
 62
     7
370
    25
100
AcDbLine
 10
1290.3869174385
 20
-1919.3346378518
 30
0.0
 11
1289.8702606378
 21
-1919.4057383666
 31
0.0
  0
LWPOLYLINE
  5
D4
330
1F
100
AcDbEntity
  8
0
  6
Continuous
 62
     7
370
    25
100
AcDbPolyline
 90
       11
 70
   128
 43
0.0
 10
1351.4025200044
 20
1108.3651119901
 10
1351.6329797503
 20
1108.3138932902
 10
1352.4821335601
 20
1108.3966143628
 10
1353.3129585026
 20
1108.726856145
 10
1354.1334782948
 20
1109.3035732288
 10
1354.933766987
 20
1110.1307630007
 10
1355.685660916
 20
1111.1882107894
 10
1356.3636710687
 20
1112.4379902688
 10
1356.95318858
 20
1113.8448307682
 10
1357.4430149692
 20
1115.3738718992
 10
1357.5819887115
 20
1115.9027171753
  0
ARC
  5
D5
330
1F
100
AcDbEntity
  8
0
  6
Continuous
 62
     7
370
    25
100
AcDbCircle
 10
1353.8113036881
 20
1126.2781321154
 30
0.0
 40
3.36642413258431
100
AcDbArc
 50
22.4393183811
 51
76.13362716
  0
LINE
  5
D6
330
1F
100
AcDbEntity
  8
0
  6
Continuous
 62
     7
370
    25
100
AcDbLine
 10
1350.9015637999
 20
1108.4058130329
 30
0.0
 11
1351.4182206006
 21
1108.3347125182
 31
0.0
  0
LINE
  5
D7
330
1F
100
AcDbEntity
  8
0
  6
Continuous
 62
     7
370
    25
100
AcDbLine
 10
1354.349350795
 20
1129.6339725002
 30
0.0
 11
1353.8326939943
 21
1129.705073015
 31
0.0
  0
ARC
  5
D8
330
1F
100
AcDbEntity
  8
0
  6
Continuous
 62
     7
370
    25
100
AcDbCircle
 10
249.6798567027
 20
-1485.9307099136
 30
0.0
 40
29.89062500000055
100
AcDbArc
 50
256.1990602276
 51
283.8009397724
  0
LWPOLYLINE
  5
D9
330
1F
100
AcDbEntity
  8
0
  6
Continuous
 62
     7
370
    25
100
AcDbPolyline
 90
        3
 70
   128
 43
0.0
 10
238.9411715816
 20
-1512.4850114492
 10
239.0459730628
 20
-1513.0094357909
 10
239.3432115284
 20
-1513.4531527661
  0
ARC
  5
DA
330
1F
100
AcDbEntity
  8
0
  6
Continuous
 62
     7
370
    25
100
AcDbCircle
 10
259.0180278804
 20
-1512.5028735886
 30
0.0
 40
1.390256122559287
100
AcDbArc
 50
302.3736296169
 51
3.14495956
  0
LINE
  5
DB
330
1F
100
AcDbEntity
  8
0
  6
Continuous
 62
     7
370
    25
100
AcDbLine
 10
238.9298567027
 20
-1511.9050590862
 30
0.0
 11
238.9298567027
 21
-1512.4702706017
 31
0.0
  0
LINE
  5
DC
330
1F
100
AcDbEntity
  8
0
  6
Continuous
 62
     7
370
    25
100
AcDbLine
 10
260.4298567027
 20
-1512.4702706017
 30
0.0
 11
260.4298567027
 21
-1511.9050590862
 31
0.0
  0
ARC
  5
DD
330
1F
100
AcDbEntity
  8
0
  6
Continuous
 62
     7
370
    25
100
AcDbCircle
 10
-1003.7209596677
 20
1125.2320263951
 30
0.0
 40
4.575175559838825
100
AcDbArc
 50
108.8395147272
 51
168.8666498654
  0
ARC
  5
DE
330
1F
100
AcDbEntity
  8
0
  6
Continuous
 62
     7
370
    25
100
AcDbCircle
 10
-1002.5214379748
 20
1111.3523904493
 30
0.0
 40
3.024423198151593
100
AcDbArc
 50
221.7601840287
 51
275.1865314206
  0
LINE
  5
DF
330
1F
100
AcDbEntity
  8
0
  6
Continuous
 62
     7
370
    25
100
AcDbLine
 10
-1004.4729805889
 20
1129.705073015
 30
0.0
 11
-1004.9896373896
 21
1129.6339725002
 31
0.0
  0
LINE
  5
E0
330
1F
100
AcDbEntity
  8
0
  6
Continuous
 62
     7
370
    25
100
AcDbLine
 10
-1002.0585071952
 20
1108.3347125182
 30
0.0
 11
-1001.5418503945
 21
1108.4058130329
 31
0.0
  0
ARC
  5
E1
330
1F
100
AcDbEntity
  8
0
  6
Continuous
 62
     7
370
    25
100
AcDbCircle
 10
341.226811446
 20
-1530.4928222212
 30
0.0
 40
29.8906250000001
100
AcDbArc
 50
256.1990602276
 51
283.8009397724
  0
LWPOLYLINE
  5
E2
330
1F
100
AcDbEntity
  8
0
  6
Continuous
 62
     7
370
    25
100
AcDbPolyline
 90
        3
 70
   128
 43
0.0
 10
330.4881263249
 20
-1557.0471237568
 10
330.592927806
 20
-1557.5715480985
 10
330.8901662717
 20
-1558.0152650737
  0
ARC
  5
E3
330
1F
100
AcDbEntity
  8
0
  6
Continuous
 62
     7
370
    25
100
AcDbCircle
 10
350.5649826236
 20
-1557.0649858962
 30
0.0
 40
1.390256122559307
100
AcDbArc
 50
302.3736296169
 51
3.1449595599
  0
LINE
  5
E4
330
1F
100
AcDbEntity
  8
0
  6
Continuous
 62
     7
370
    25
100
AcDbLine
 10
330.476811446
 20
-1556.4671713937
 30
0.0
 11
330.476811446
 21
-1557.0323829093
 31
0.0
  0
LINE
  5
E5
330
1F
100
AcDbEntity
  8
0
  6
Continuous
 62
     7
370
    25
100
AcDbLine
 10
351.976811446
 20
-1557.0323829093
 30
0.0
 11
351.976811446
 21
-1556.4671713937
 31
0.0
  0
ARC
  5
E6
330
1F
100
AcDbEntity
  8
0
  6
Continuous
 62
     7
370
    25
100
AcDbCircle
 10
99.6798567027
 20
645.2227097082
 30
0.0
 40
29.8906250000005
100
AcDbArc
 50
76.1990602276
 51
103.8009397724
  0
LWPOLYLINE
  5
E7
330
1F
100
AcDbEntity
  8
0
  6
Continuous
 62
     7
370
    25
100
AcDbPolyline
 90
        3
 70
   128
 43
0.0
 10
110.4185418238
 20
671.7770112439
 10
110.3137403427
 20
672.3014355855
 10
110.016501877
 20
672.7451525607
  0
ARC
  5
E8
330
1F
100
AcDbEntity
  8
0
  6
Continuous
 62
     7
370
    25
100
AcDbCircle
 10
90.3416855251
 20
671.7948733832
 30
0.0
 40
1.390256122559256
100
AcDbArc
 50
122.3736296169
 51
183.1449595599
  0
LINE
  5
E9
330
1F
100
AcDbEntity
  8
0
  6
Continuous
 62
     7
370
    25
100
AcDbLine
 10
110.4298567027
 20
671.1970588808
 30
0.0
 11
110.4298567027
 21
671.7622703963
 31
0.0
  0
LINE
  5
EA
330
1F
100
AcDbEntity
  8
0
  6
Continuous
 62
     7
370
    25
100
AcDbLine
 10
88.9298567027
 20
671.7622703963
 30
0.0
 11
88.9298567027
 21
671.1970588808
 31
0.0
  0
ARC
  5
EB
330
1F
100
AcDbEntity
  8
0
  6
Continuous
 62
     7
370
    25
100
AcDbCircle
 10
8.1329019595
 20
-1530.4928222212
 30
0.0
 40
29.89062500000038
100
AcDbArc
 50
256.1990602276
 51
270.0
  0
ARC
  5
EC
330
1F
100
AcDbEntity
  8
0
  6
Continuous
 62
     7
370
    25
100
AcDbCircle
 10
8.1329019595
 20
-1530.4928222212
 30
0.0
 40
29.89062500000043
100
AcDbArc
 50
270.0
 51
283.8009397724
  0
ARC
  5
ED
330
1F
100
AcDbEntity
  8
0
  6
Continuous
 62
     7
370
    25
100
AcDbCircle
 10
17.4573266447
 20
-1557.0786406527
 30
0.0
 40
1.415575292472929
100
AcDbArc
 50
294.5027369217
 51
2.4696986006
  0
ARC
  5
EE
330
1F
100
AcDbEntity
  8
0
  6
Continuous
 62
     7
370
    25
100
AcDbCircle
 10
-1.2709721735
 20
-1557.1172313813
 30
0.0
 40
1.323100297936834
100
AcDbArc
 50
178.2164996107
 51
235.8287292037
  0
LINE
  5
EF
330
1F
100
AcDbEntity
  8
0
  6
Continuous
 62
     7
370
    25
100
AcDbLine
 10
-2.6170980405
 20
-1556.4671713937
 30
0.0
 11
-2.6170980405
 21
-1557.0323829093
 31
0.0
  0
LINE
  5
F0
330
1F
100
AcDbEntity
  8
0
  6
Continuous
 62
     7
370
    25
100
AcDbLine
 10
18.8829019595
 20
-1557.0323829093
 30
0.0
 11
18.8829019595
 21
-1556.4671713937
 31
0.0
  0
ARC
  5
F1
330
1F
100
AcDbEntity
  8
0
  6
Continuous
 62
     7
370
    25
100
AcDbCircle
 10
341.226811446
 20
689.7848220158
 30
0.0
 40
29.89062500000043
100
AcDbArc
 50
76.1990602276
 51
90.0
  0
ARC
  5
F2
330
1F
100
AcDbEntity
  8
0
  6
Continuous
 62
     7
370
    25
100
AcDbCircle
 10
341.226811446
 20
689.7848220158
 30
0.0
 40
29.8906250000005
100
AcDbArc
 50
90.0
 51
103.8009397724
  0
ARC
  5
F3
330
1F
100
AcDbEntity
  8
0
  6
Continuous
 62
     7
370
    25
100
AcDbCircle
 10
331.9023867608
 20
716.3706404473
 30
0.0
 40
1.415575292473876
100
AcDbArc
 50
114.5027369218
 51
182.4696986006
  0
ARC
  5
F4
330
1F
100
AcDbEntity
  8
0
  6
Continuous
 62
     7
370
    25
100
AcDbCircle
 10
350.630685579
 20
716.409231176
 30
0.0
 40
1.323100297893613
100
AcDbArc
 50
358.2164996096
 51
55.8287292047
  0
LINE
  5
F5
330
1F
100
AcDbEntity
  8
0
  6
Continuous
 62
     7
370
    25
100
AcDbLine
 10
351.976811446
 20
715.7591711883
 30
0.0
 11
351.976811446
 21
716.3243827039
 31
0.0
  0
LINE
  5
F6
330
1F
100
AcDbEntity
  8
0
  6
Continuous
 62
     7
370
    25
100
AcDbLine
 10
330.476811446
 20
716.3243827039
 30
0.0
 11
330.476811446
 21
715.7591711883
 31
0.0
  0
LWPOLYLINE
  5
F7
330
1F
100
AcDbEntity
  8
0
  6
Continuous
 62
     7
370
    25
100
AcDbPolyline
 90
       11
 70
   128
 43
0.0
 10
1290.3712168422
 20
1078.6570371184
 10
1290.6016765882
 20
1078.6058184184
 10
1291.4508303979
 20
1078.6885394911
 10
1292.2816553405
 20
1079.0187812733
 10
1293.1021751326
 20
1079.5954983571
 10
1293.9024638248
 20
1080.422688129
 10
1294.6543577538
 20
1081.4801359177
 10
1295.3323679066
 20
1082.7299153971
 10
1295.9218854178
 20
1084.1367558965
 10
1296.4117118071
 20
1085.6657970274
 10
1296.5506855494
 20
1086.1946423035
  0
ARC
  5
F8
330
1F
100
AcDbEntity
  8
0
  6
Continuous
 62
     7
370
    25
100
AcDbCircle
 10
1292.7800005259
 20
1096.5700572437
 30
0.0
 40
3.366424132584964
100
AcDbArc
 50
22.4393183811
 51
76.13362716
  0
LINE
  5
F9
330
1F
100
AcDbEntity
  8
0
  6
Continuous
 62
     7
370
    25
100
AcDbLine
 10
1289.8702606378
 20
1078.6977381612
 30
0.0
 11
1290.3869174385
 21
1078.6266376465
 31
0.0
  0
LINE
  5
FA
330
1F
100
AcDbEntity
  8
0
  6
Continuous
 62
     7
370
    25
100
AcDbLine
 10
1293.3180476328
 20
1099.9258976285
 30
0.0
 11
1292.8013908322
 21
1099.9969981433
 31
0.0
  0
ARC
  5
FB
330
1F
100
AcDbEntity
  8
0
  6
Continuous
 62
     7
370
    25
100
AcDbCircle
 10
-942.6896565055
 20
1095.5239515234
 30
0.0
 40
4.575175559833572
100
AcDbArc
 50
108.8395147272
 51
168.8666498654
  0
ARC
  5
FC
330
1F
100
AcDbEntity
  8
0
  6
Continuous
 62
     7
370
    25
100
AcDbCircle
 10
-941.4901348126
 20
1081.6443155776
 30
0.0
 40
3.024423198151981
100
AcDbArc
 50
221.7601840287
 51
275.1865314206
  0
LINE
  5
FD
330
1F
100
AcDbEntity
  8
0
  6
Continuous
 62
     7
370
    25
100
AcDbLine
 10
-943.4416774267
 20
1099.9969981433
 30
0.0
 11
-943.9583342274
 21
1099.9258976285
 31
0.0
  0
LINE
  5
FE
330
1F
100
AcDbEntity
  8
0
  6
Continuous
 62
     7
370
    25
100
AcDbLine
 10
-941.027204033
 20
1078.6266376465
 30
0.0
 11
-940.5105472323
 21
1078.6977381612
 31
0.0
  0
LWPOLYLINE
  5
FF
330
1F
100
AcDbEntity
  8
0
  6
Continuous
 62
     7
370
    25
100
AcDbPolyline
 90
       11
 70
   128
 43
0.0
 10
-1002.0428065989
 20
-1949.0731121955
 10
-1002.2732663449
 20
-1949.0218934955
 10
-1003.1224201547
 20
-1949.1046145682
 10
-1003.9532450972
 20
-1949.4348563504
 10
-1004.7737648893
 20
-1950.0115734342
 10
-1005.5740535815
 20
-1950.8387632061
 10
-1006.3259475105
 20
-1951.8962109948
 10
-1007.0039576633
 20
-1953.1459904742
 10
-1007.5934751745
 20
-1954.5528309736
 10
-1008.0833015638
 20
-1956.0818721045
 10
-1008.2222753061
 20
-1956.6107173806
  0
ARC
  5
100
330
1F
100
AcDbEntity
  8
0
  6
Continuous
 62
     7
370
    25
100
AcDbCircle
 10
-1004.4515902827
 20
-1966.9861323208
 30
0.0
 40
3.366424132578331
100
AcDbArc
 50
202.4393183811
 51
256.1336271601
  0
LINE
  5
101
330
1F
100
AcDbEntity
  8
0
  6
Continuous
 62
     7
370
    25
100
AcDbLine
 10
-1001.5418503945
 20
-1949.1138132383
 30
0.0
 11
-1002.0585071952
 21
-1949.0427127236
 31
0.0
  0
LINE
  5
102
330
1F
100
AcDbEntity
  8
0
  6
Continuous
 62
     7
370
    25
100
AcDbLine
 10
-1004.9896373896
 20
-1970.3419727056
 30
0.0
 11
-1004.4729805889
 21
-1970.4130732204
 31
0.0
  0
ARC
  5
103
330
1F
100
AcDbEntity
  8
0
  6
Continuous
 62
     7
370
    25
100
AcDbCircle
 10
99.6798567027
 20
-1485.9307099136
 30
0.0
 40
29.89062500000061
100
AcDbArc
 50
256.1990602276
 51
270.0
  0
ARC
  5
104
330
1F
100
AcDbEntity
  8
0
  6
Continuous
 62
     7
370
    25
100
AcDbCircle
 10
99.6798567027
 20
-1485.9307099136
 30
0.0
 40
29.89062500000065
100
AcDbArc
 50
270.0
 51
283.8009397724
  0
ARC
  5
105
330
1F
100
AcDbEntity
  8
0
  6
Continuous
 62
     7
370
    25
100
AcDbCircle
 10
109.0042813879
 20
-1512.5165283451
 30
0.0
 40
1.415575292473594
100
AcDbArc
 50
294.5027369218
 51
2.4696986006
  0
ARC
  5
106
330
1F
100
AcDbEntity
  8
0
  6
Continuous
 62
     7
370
    25
100
AcDbCircle
 10
90.2759825698
 20
-1512.5551190738
 30
0.0
 40
1.32310029793621
100
AcDbArc
 50
178.2164996106
 51
235.8287292037
  0
LINE
  5
107
330
1F
100
AcDbEntity
  8
0
  6
Continuous
 62
     7
370
    25
100
AcDbLine
 10
88.9298567027
 20
-1511.9050590862
 30
0.0
 11
88.9298567027
 21
-1512.4702706017
 31
0.0
  0
LINE
  5
108
330
1F
100
AcDbEntity
  8
0
  6
Continuous
 62
     7
370
    25
100
AcDbLine
 10
110.4298567027
 20
-1512.4702706017
 30
0.0
 11
110.4298567027
 21
-1511.9050590862
 31
0.0
  0
ARC
  5
109
330
1F
100
AcDbEntity
  8
0
  6
Continuous
 62
     7
370
    25
100
AcDbCircle
 10
61.2451711077
 20
-1881.3074813196
 30
0.0
 40
490.4563437322431
100
AcDbArc
 50
77.7583185284
 51
86.5643483935
  0
ARC
  5
10A
330
1F
100
AcDbEntity
  8
0
  6
Continuous
 62
     7
370
    25
100
AcDbCircle
 10
90.020532754
 20
-1395.9362040212
 30
0.0
 40
4.223004502557143
100
AcDbArc
 50
81.5872734188
 51
119.4540581172
  0
LINE
  5
10B
330
1F
100
AcDbEntity
  8
0
  6
Continuous
 62
     7
370
    25
100
AcDbLine
 10
87.9318103761
 20
-1392.2424800426
 30
0.0
 11
79.9066770083
 21
-1396.1488567804
 31
0.0
  0
ARC
  5
10C
330
1F
100
AcDbEntity
  8
0
  6
Continuous
 62
     7
370
    25
100
AcDbCircle
 10
-185.5317003715
 20
-1448.2381098485
 30
0.0
 40
357.658605579824
100
AcDbArc
 50
353.4377771311
 51
6.568083539
  0
ARC
  5
10D
330
1F
100
AcDbEntity
  8
0
  6
Continuous
 62
     7
370
    25
100
AcDbCircle
 10
164.8012110635
 20
-1488.9637296621
 30
0.0
 40
4.958936019238336
100
AcDbArc
 50
295.1368837126
 51
358.3228146344
  0
LINE
  5
10E
330
1F
100
AcDbEntity
  8
0
  6
Continuous
 62
     7
370
    25
100
AcDbLine
 10
158.8886476712
 20
-1497.3838045285
 30
0.0
 11
166.9135456345
 21
-1493.4775423781
 31
0.0
  0
ARC
  5
10F
330
1F
100
AcDbEntity
  8
0
  6
Continuous
 62
     7
370
    25
100
AcDbCircle
 10
163.6395425067
 20
-1407.9497891152
 30
0.0
 40
6.153593760955918
100
AcDbArc
 50
5.7886865454
 51
74.9482571619
  0
ARC
  5
110
330
1F
100
AcDbEntity
  8
0
  6
Continuous
 62
     7
370
    25
100
AcDbCircle
 10
287.8781331192
 20
-1879.5902717542
 30
0.0
 40
488.7280711582013
100
AcDbArc
 50
93.4200504873
 51
102.2572825908
  0
ARC
  5
111
330
1F
100
AcDbEntity
  8
0
  6
Continuous
 62
     7
370
    25
100
AcDbCircle
 10
259.2528420182
 20
-1396.4333130466
 30
0.0
 40
4.705434409532859
100
AcDbArc
 50
62.2928865316
 51
96.4529086191
  0
LINE
  5
112
330
1F
100
AcDbEntity
  8
0
  6
Continuous
 62
     7
370
    25
100
AcDbLine
 10
269.4530363972
 20
-1396.1488567804
 30
0.0
 11
261.4281734505
 21
-1392.242611675
 31
0.0
  0
ARC
  5
113
330
1F
100
AcDbEntity
  8
0
  6
Continuous
 62
     7
370
    25
100
AcDbCircle
 10
535.4523723603
 20
-1448.2381385381
 30
0.0
 40
358.2158914115146
100
AcDbArc
 50
173.4421748712
 51
186.5519644586
  0
ARC
  5
114
330
1F
100
AcDbEntity
  8
0
  6
Continuous
 62
     7
370
    25
100
AcDbCircle
 10
184.5416638829
 20
-1488.9687291983
 30
0.0
 40
4.942491501085004
100
AcDbArc
 50
181.6190876526
 51
245.1287158546
  0
LINE
  5
115
330
1F
100
AcDbEntity
  8
0
  6
Continuous
 62
     7
370
    25
100
AcDbLine
 10
182.445717788
 20
-1493.4773233408
 30
0.0
 11
190.4710657342
 21
-1497.3838045285
 31
0.0
  0
ARC
  5
116
330
1F
100
AcDbEntity
  8
0
  6
Continuous
 62
     7
370
    25
100
AcDbCircle
 10
185.7049558367
 20
-1407.9249780835
 30
0.0
 40
6.127003503501018
100
AcDbArc
 50
104.9347890988
 51
174.3983922525
  0
ARC
  5
117
330
1F
100
AcDbEntity
  8
0
  6
Continuous
 62
     7
370
    25
100
AcDbCircle
 10
61.4815802862
 20
1038.8822715489
 30
0.0
 40
488.7280711582001
100
AcDbArc
 50
273.4200504873
 51
282.2572825908
  0
ARC
  5
118
330
1F
100
AcDbEntity
  8
0
  6
Continuous
 62
     7
370
    25
100
AcDbCircle
 10
90.1068713873
 20
555.7253128412
 30
0.0
 40
4.705434409531964
100
AcDbArc
 50
242.2928865316
 51
276.4529086192
  0
LINE
  5
119
330
1F
100
AcDbEntity
  8
0
  6
Continuous
 62
     7
370
    25
100
AcDbLine
 10
79.9066770083
 20
555.440856575
 30
0.0
 11
87.9315399549
 21
551.5346114696
 31
0.0
  0
ARC
  5
11A
330
1F
100
AcDbEntity
  8
0
  6
Continuous
 62
     7
370
    25
100
AcDbCircle
 10
-186.0926589549
 20
607.5301383327
 30
0.0
 40
358.2158914115157
100
AcDbArc
 50
353.4421748712
 51
6.5519644586
  0
ARC
  5
11B
330
1F
100
AcDbEntity
  8
0
  6
Continuous
 62
     7
370
    25
100
AcDbCircle
 10
164.8180495226
 20
648.2607289929
 30
0.0
 40
4.942491501085642
100
AcDbArc
 50
1.6190876526
 51
65.1287158546
  0
LINE
  5
11C
330
1F
100
AcDbEntity
  8
0
  6
Continuous
 62
     7
370
    25
100
AcDbLine
 10
166.9139956175
 20
652.7693231355
 30
0.0
 11
158.8886476712
 21
656.6758043231
 31
0.0
  0
ARC
  5
11D
330
1F
100
AcDbEntity
  8
0
  6
Continuous
 62
     7
370
    25
100
AcDbCircle
 10
163.6547575687
 20
567.2169778782
 30
0.0
 40
6.127003503501294
100
AcDbArc
 50
284.9347890988
 51
354.3983922525
  0
ARC
  5
11E
330
1F
100
AcDbEntity
  8
0
  6
Continuous
 62
     7
370
    25
100
AcDbCircle
 10
288.1145422977
 20
1040.5994811142
 30
0.0
 40
490.4563437322087
100
AcDbArc
 50
257.7583185284
 51
266.5643483935
  0
ARC
  5
11F
330
1F
100
AcDbEntity
  8
0
  6
Continuous
 62
     7
370
    25
100
AcDbCircle
 10
259.3391806515
 20
555.2282038158
 30
0.0
 40
4.223004502559205
100
AcDbArc
 50
261.5872734188
 51
299.4540581172
  0
LINE
  5
120
330
1F
100
AcDbEntity
  8
0
  6
Continuous
 62
     7
370
    25
100
AcDbLine
 10
261.4279030293
 20
551.5344798373
 30
0.0
 11
269.4530363972
 21
555.440856575
 31
0.0
  0
ARC
  5
121
330
1F
100
AcDbEntity
  8
0
  6
Continuous
 62
     7
370
    25
100
AcDbCircle
 10
534.891413777
 20
607.5301096431
 30
0.0
 40
357.658605579826
100
AcDbArc
 50
173.4377771311
 51
186.5680835391
  0
ARC
  5
122
330
1F
100
AcDbEntity
  8
0
  6
Continuous
 62
     7
370
    25
100
AcDbCircle
 10
184.5585023419
 20
648.2557294567
 30
0.0
 40
4.958936019239976
100
AcDbArc
 50
115.1368837126
 51
178.3228146344
  0
LINE
  5
123
330
1F
100
AcDbEntity
  8
0
  6
Continuous
 62
     7
370
    25
100
AcDbLine
 10
190.4710657342
 20
656.6758043231
 30
0.0
 11
182.446167771
 21
652.7695421727
 31
0.0
  0
ARC
  5
124
330
1F
100
AcDbEntity
  8
0
  6
Continuous
 62
     7
370
    25
100
AcDbCircle
 10
185.7201708988
 20
567.2417889098
 30
0.0
 40
6.153593760957587
100
AcDbArc
 50
185.7886865454
 51
254.9482571619
  0
ARC
  5
125
330
1F
100
AcDbEntity
  8
0
  6
Continuous
 62
     7
370
    25
100
AcDbCircle
 10
132.8795442756
 20
599.4957840637
 30
0.0
 40
8.78285714285726
100
AcDbArc
 50
266.9228730188
 51
41.1664693856
  0
LINE
  5
126
330
1F
100
AcDbEntity
  8
0
  6
Continuous
 62
     7
370
    25
100
AcDbLine
 10
138.5746848935
 20
609.068763679
 30
0.0
 11
138.4218035731
 21
609.1431813872
 31
0.0
  0
LINE
  5
127
330
1F
100
AcDbEntity
  8
0
  6
Continuous
 62
     7
370
    25
100
AcDbLine
 10
128.7055237955
 20
589.182372103
 30
0.0
 11
128.8584051159
 21
589.1079543947
 31
0.0
  0
ARC
  5
128
330
1F
100
AcDbEntity
  8
0
  6
Continuous
 62
     7
370
    25
100
AcDbCircle
 10
216.4801691298
 20
-1440.203784269
 30
0.0
 40
8.782857142857141
100
AcDbArc
 50
86.9228730188
 51
221.1664693856
  0
LINE
  5
129
330
1F
100
AcDbEntity
  8
0
  6
Continuous
 62
     7
370
    25
100
AcDbLine
 10
210.7850285119
 20
-1449.7767638844
 30
0.0
 11
210.9379098323
 21
-1449.8511815926
 31
0.0
  0
LINE
  5
12A
330
1F
100
AcDbEntity
  8
0
  6
Continuous
 62
     7
370
    25
100
AcDbLine
 10
220.6541896099
 20
-1429.8903723083
 30
0.0
 11
220.5013082896
 21
-1429.8159546001
 31
0.0
  0
ARC
  5
12B
330
1F
100
AcDbEntity
  8
0
  6
Continuous
 62
     7
370
    25
100
AcDbCircle
 10
216.4801691298
 20
599.4957840637
 30
0.0
 40
8.78285714285726
100
AcDbArc
 50
138.8335306144
 51
273.0771269812
  0
LINE
  5
12C
330
1F
100
AcDbEntity
  8
0
  6
Continuous
 62
     7
370
    25
100
AcDbLine
 10
220.5013082896
 20
589.1079543947
 30
0.0
 11
220.6541896099
 21
589.182372103
 31
0.0
  0
LINE
  5
12D
330
1F
100
AcDbEntity
  8
0
  6
Continuous
 62
     7
370
    25
100
AcDbLine
 10
210.9379098323
 20
609.1431813872
 30
0.0
 11
210.7850285119
 21
609.068763679
 31
0.0
  0
ARC
  5
12E
330
1F
100
AcDbEntity
  8
0
  6
Continuous
 62
     7
370
    25
100
AcDbCircle
 10
132.8795442756
 20
-1440.203784269
 30
0.0
 40
8.78285714285708
100
AcDbArc
 50
318.8335306144
 51
93.0771269812
  0
LINE
  5
12F
330
1F
100
AcDbEntity
  8
0
  6
Continuous
 62
     7
370
    25
100
AcDbLine
 10
128.8584051159
 20
-1429.8159546001
 30
0.0
 11
128.7055237955
 21
-1429.8903723083
 31
0.0
  0
LINE
  5
130
330
1F
100
AcDbEntity
  8
0
  6
Continuous
 62
     7
370
    25
100
AcDbLine
 10
138.4218035731
 20
-1449.8511815926
 30
0.0
 11
138.5746848935
 21
-1449.7767638844
 31
0.0
  0
LINE
  5
131
330
1F
100
AcDbEntity
  8
0
  6
Continuous
 62
     7
370
    25
100
AcDbLine
 10
271.893811297
 20
559.4093956594
 30
0.0
 11
1262.2301591643
 21
1041.4732685616
 31
0.0
  0
LINE
  5
132
330
1F
100
AcDbEntity
  8
0
  6
Continuous
 62
     7
370
    25
100
AcDbLine
 10
1185.4365398026
 20
1138.2125385429
 30
0.0
 11
196.0430559636
 21
656.6076215158
 31
0.0
  0
LINE
  5
133
330
1F
100
AcDbEntity
  8
0
  6
Continuous
 62
     7
370
    25
100
AcDbLine
 10
1262.2301591643
 20
-1882.1812687669
 30
0.0
 11
271.893811297
 21
-1400.1173958648
 31
0.0
  0
LINE
  5
134
330
1F
100
AcDbEntity
  8
0
  6
Continuous
 62
     7
370
    25
100
AcDbLine
 10
196.0430559636
 20
-1497.3156217212
 30
0.0
 11
1185.4365398026
 21
-1978.9205387483
 31
0.0
  0
LINE
  5
135
330
1F
100
AcDbEntity
  8
0
  6
Continuous
 62
     7
370
    25
100
AcDbLine
 10
-912.8704457588
 20
1041.4732685616
 30
0.0
 11
77.4659021084
 21
559.4093956594
 31
0.0
  0
LINE
  5
136
330
1F
100
AcDbEntity
  8
0
  6
Continuous
 62
     7
370
    25
100
AcDbLine
 10
153.3166574418
 20
656.6076215158
 30
0.0
 11
-836.0768263972
 21
1138.2125385429
 31
0.0
  0
LINE
  5
137
330
1F
100
AcDbEntity
  8
0
  6
Continuous
 62
     7
370
    25
100
AcDbLine
 10
77.4659021084
 20
-1400.1173958648
 30
0.0
 11
-912.8704457588
 21
-1882.1812687669
 31
0.0
  0
LINE
  5
138
330
1F
100
AcDbEntity
  8
0
  6
Continuous
 62
     7
370
    25
100
AcDbLine
 10
-836.0768263972
 20
-1978.9205387483
 30
0.0
 11
153.3166574418
 21
-1497.3156217212
 31
0.0
  0
LINE
  5
139
330
1F
100
AcDbEntity
  8
0
  6
Continuous
 62
     7
370
    25
100
AcDbLine
 10
139.3512967638
 20
-783.0496438839
 30
0.0
 11
139.6798567027
 21
-782.9031757241
 31
0.0
  0
LWPOLYLINE
  5
13A
330
1F
100
AcDbEntity
  8
0
  6
Continuous
 62
     7
370
    25
100
AcDbPolyline
 90
       14
 70
   128
 43
0.0
 10
139.6798567027
 20
-757.5026493062
 10
139.2013718158
 20
-757.2983382444
 10
138.3340522558
 20
-757.17621043
 10
137.4144855717
 20
-757.3049746384
 10
136.6628550116
 20
-757.628940368
 10
136.0710428279
 20
-758.0680645244
 10
135.6151527938
 20
-758.5731960065
 10
135.260019517
 20
-759.1304064432
 10
134.9584603131
 20
-759.7914821641
 10
134.6573350055
 20
-760.738647717
 10
134.3949990539
 20
-761.946642178
 10
134.2002219053
 20
-763.2284605348
 10
134.0402015899
 20
-764.7347877494
 10
133.9300471903
 20
-766.3056921933
  0
LWPOLYLINE
  5
13B
330
1F
100
AcDbEntity
  8
0
  6
Continuous
 62
     7
370
    25
100
AcDbPolyline
 90
       13
 70
   128
 43
0.0
 10
134.0034077033
 20
-774.320450853
 10
134.0265898732
 20
-774.6778391561
 10
134.172434363
 20
-776.197598376
 10
134.3601770653
 20
-777.5997983341
 10
134.5959471352
 20
-778.8764809177
 10
134.9067281589
 20
-780.0574152443
 10
135.2951545034
 20
-781.0365114777
 10
135.674392753
 20
-781.677183631
 10
136.1488121829
 20
-782.2300656231
 10
136.7784083682
 20
-782.7109818296
 10
137.5532812803
 20
-783.0476506088
 10
138.4193229044
 20
-783.1754957718
 10
139.3512967638
 20
-783.0496438839
  0
LWPOLYLINE
  5
13C
330
1F
100
AcDbEntity
  8
0
  6
Continuous
 62
     7
370
    25
100
AcDbPolyline
 90
        9
 70
   128
 43
0.0
 10
136.1059808924
 20
-761.9833220081
 10
136.100624018
 20
-761.9733232519
 10
136.1523306005
 20
-762.1179048879
 10
136.2538179399
 20
-762.4808767215
 10
136.3865595184
 20
-763.0958109475
 10
136.5305743449
 20
-763.9679693224
 10
136.6677160645
 20
-765.0723632681
 10
136.7842948821
 20
-766.3657298729
 10
136.8036835534
 20
-766.6853482418
  0
LWPOLYLINE
  5
13D
330
1F
100
AcDbEntity
  8
0
  6
Continuous
 62
     7
370
    25
100
AcDbPolyline
 90
       10
 70
   128
 43
0.0
 10
136.9195342065
 20
-771.8365382255
 10
136.9099188021
 20
-772.4045990565
 10
136.8459176939
 20
-773.8698043233
 10
136.7472786858
 20
-775.214342965
 10
136.6201921632
 20
-776.3882777644
 10
136.4753979407
 20
-777.3411115565
 10
136.3486487453
 20
-777.9543751219
 10
136.2519186792
 20
-778.3063618857
 10
136.2124432337
 20
-778.416934445
 10
136.2136720998
 20
-778.4146302
  0
LWPOLYLINE
  5
13E
330
1F
100
AcDbEntity
  8
0
  6
Continuous
 62
     7
370
    25
100
AcDbPolyline
 90
       10
 70
   128
 43
0.0
 10
136.2214700137
 20
-1132.2286943519
 10
136.2175197089
 20
-1132.2214923697
 10
136.2721585698
 20
-1132.384762129
 10
136.3718709434
 20
-1132.7708102259
 10
136.4975175851
 20
-1133.4110257524
 10
136.6290912521
 20
-1134.3074344686
 10
136.7491620043
 20
-1135.4325848641
 10
136.8450951173
 20
-1136.7420245331
 10
136.9088140564
 20
-1138.1850038739
 10
136.9194722681
 20
-1138.7893998567
  0
ARC
  5
13F
330
1F
100
AcDbEntity
  8
0
  6
Continuous
 62
     7
370
    25
100
AcDbCircle
 10
119.2422552279
 20
-1143.727377632
 30
0.0
 40
17.56274941774742
100
AcDbArc
 50
343.7117885164
 51
359.3043319673
  0
LWPOLYLINE
  5
140
330
1F
100
AcDbEntity
  8
0
  6
Continuous
 62
     7
370
    25
100
AcDbPolyline
 90
       13
 70
   128
 43
0.0
 10
139.3512967638
 20
-1127.5763110994
 10
138.4717381583
 20
-1127.450292756
 10
137.5568563085
 20
-1127.5772730305
 10
136.8083091438
 20
-1127.8973799986
 10
136.2170054946
 20
-1128.3321031426
 10
135.7594455975
 20
-1128.8331639512
 10
135.3999884193
 20
-1129.3883101703
 10
135.0903136724
 20
-1130.052612258
 10
134.7744262459
 20
-1131.0163952125
 10
134.4994562356
 20
-1132.2222282168
 10
134.2890873665
 20
-1133.5056234373
 10
134.1101998625
 20
-1135.0128540084
 10
134.0030514552
 20
-1136.3063025462
  0
LWPOLYLINE
  5
141
330
1F
100
AcDbEntity
  8
0
  6
Continuous
 62
     7
370
    25
100
AcDbPolyline
 90
       14
 70
   128
 43
0.0
 10
133.9353978432
 20
-1144.320690308
 10
133.9684452736
 20
-1144.9556631831
 10
134.0948108409
 20
-1146.4728541308
 10
134.2648251388
 20
-1147.8723737775
 10
134.4851199617
 20
-1149.1472880434
 10
134.7839667944
 20
-1150.3304285219
 10
135.1497792935
 20
-1151.2789490429
 10
135.5172304618
 20
-1151.9169350499
 10
135.9852841791
 20
-1152.4762669154
 10
136.6094582043
 20
-1152.9650338485
 10
137.3806379754
 20
-1153.3109631926
 10
138.245283882
 20
-1153.4489279977
 10
139.1687931824
 20
-1153.3366225545
 10
139.6798567027
 20
-1153.1269015964
  0
LINE
  5
142
330
1F
100
AcDbEntity
  8
0
  6
Continuous
 62
     7
370
    25
100
AcDbLine
 10
139.6798567027
 20
-1127.7215323461
 30
0.0
 11
139.3512967638
 21
-1127.5763110994
 31
0.0
  0
LWPOLYLINE
  5
143
330
1F
100
AcDbEntity
  8
0
  6
Continuous
 62
     7
370
    25
100
AcDbPolyline
 90
       10
 70
   128
 43
0.0
 10
136.2214700137
 20
-62.310739574
 10
136.2175197089
 20
-62.3035375918
 10
136.2721585698
 20
-62.4668073511
 10
136.3718709434
 20
-62.852855448
 10
136.4975175851
 20
-63.4930709745
 10
136.6290912521
 20
-64.3894796907
 10
136.7491620043
 20
-65.5146300863
 10
136.8450951173
 20
-66.8240697553
 10
136.9088140564
 20
-68.267049096
 10
136.9194722681
 20
-68.8714450789
  0
ARC
  5
144
330
1F
100
AcDbEntity
  8
0
  6
Continuous
 62
     7
370
    25
100
AcDbCircle
 10
119.2422552279
 20
-73.8094228541
 30
0.0
 40
17.56274941774817
100
AcDbArc
 50
343.7117885164
 51
359.3043319673
  0
LWPOLYLINE
  5
145
330
1F
100
AcDbEntity
  8
0
  6
Continuous
 62
     7
370
    25
100
AcDbPolyline
 90
       13
 70
   128
 43
0.0
 10
139.3512967638
 20
-57.6583563215
 10
138.4717381583
 20
-57.5323379782
 10
137.5568563085
 20
-57.6593182526
 10
136.8083091438
 20
-57.9794252207
 10
136.2170054946
 20
-58.4141483647
 10
135.7594455975
 20
-58.9152091734
 10
135.3999884193
 20
-59.4703553924
 10
135.0903136724
 20
-60.1346574802
 10
134.7744262459
 20
-61.0984404347
 10
134.4994562356
 20
-62.3042734389
 10
134.2890873665
 20
-63.5876686595
 10
134.1101998625
 20
-65.0948992305
 10
134.0030514552
 20
-66.3883477683
  0
LWPOLYLINE
  5
146
330
1F
100
AcDbEntity
  8
0
  6
Continuous
 62
     7
370
    25
100
AcDbPolyline
 90
       14
 70
   128
 43
0.0
 10
133.9353978432
 20
-74.4027355301
 10
133.9684452736
 20
-75.0377084052
 10
134.0948108409
 20
-76.554899353
 10
134.2648251388
 20
-77.9544189996
 10
134.4851199617
 20
-79.2293332655
 10
134.7839667944
 20
-80.412473744
 10
135.1497792935
 20
-81.360994265
 10
135.5172304618
 20
-81.998980272
 10
135.9852841791
 20
-82.5583121375
 10
136.6094582043
 20
-83.0470790707
 10
137.3806379754
 20
-83.3930084147
 10
138.245283882
 20
-83.5309732199
 10
139.1687931824
 20
-83.4186677766
 10
139.6798567027
 20
-83.2089468185
  0
LINE
  5
147
330
1F
100
AcDbEntity
  8
0
  6
Continuous
 62
     7
370
    25
100
AcDbLine
 10
139.6798567027
 20
-57.8035775682
 30
0.0
 11
139.3512967638
 21
-57.6583563215
 31
0.0
  0
LINE
  5
148
330
1F
100
AcDbEntity
  8
0
  6
Continuous
 62
     7
370
    25
100
AcDbLine
 10
139.3512967638
 20
286.868310894
 30
0.0
 11
139.6798567027
 21
287.0147790538
 31
0.0
  0
LWPOLYLINE
  5
149
330
1F
100
AcDbEntity
  8
0
  6
Continuous
 62
     7
370
    25
100
AcDbPolyline
 90
       14
 70
   128
 43
0.0
 10
139.6798567027
 20
312.4153054717
 10
139.2013718158
 20
312.6196165335
 10
138.3340522558
 20
312.7417443478
 10
137.4144855717
 20
312.6129801395
 10
136.6628550116
 20
312.2890144099
 10
136.0710428279
 20
311.8498902535
 10
135.6151527938
 20
311.3447587714
 10
135.260019517
 20
310.7875483347
 10
134.9584603131
 20
310.1264726138
 10
134.6573350055
 20
309.1793070609
 10
134.3949990539
 20
307.9713125998
 10
134.2002219053
 20
306.6894942431
 10
134.0402015899
 20
305.1831670285
 10
133.9300471903
 20
303.6122625846
  0
LWPOLYLINE
  5
14A
330
1F
100
AcDbEntity
  8
0
  6
Continuous
 62
     7
370
    25
100
AcDbPolyline
 90
       13
 70
   128
 43
0.0
 10
134.0034077033
 20
295.5975039248
 10
134.0265898732
 20
295.2401156217
 10
134.172434363
 20
293.7203564019
 10
134.3601770653
 20
292.3181564438
 10
134.5959471352
 20
291.0414738602
 10
134.9067281589
 20
289.8605395336
 10
135.2951545034
 20
288.8814433002
 10
135.674392753
 20
288.2407711469
 10
136.1488121829
 20
287.6878891547
 10
136.7784083682
 20
287.2069729482
 10
137.5532812803
 20
286.870304169
 10
138.4193229044
 20
286.7424590061
 10
139.3512967638
 20
286.868310894
  0
LWPOLYLINE
  5
14B
330
1F
100
AcDbEntity
  8
0
  6
Continuous
 62
     7
370
    25
100
AcDbPolyline
 90
        9
 70
   128
 43
0.0
 10
136.1059808924
 20
307.9346327698
 10
136.100624018
 20
307.944631526
 10
136.1523306005
 20
307.8000498899
 10
136.2538179399
 20
307.4370780564
 10
136.3865595184
 20
306.8221438303
 10
136.5305743449
 20
305.9499854555
 10
136.6677160645
 20
304.8455915097
 10
136.7842948821
 20
303.5522249049
 10
136.8036835534
 20
303.2326065361
  0
LWPOLYLINE
  5
14C
330
1F
100
AcDbEntity
  8
0
  6
Continuous
 62
     7
370
    25
100
AcDbPolyline
 90
       10
 70
   128
 43
0.0
 10
136.9195342065
 20
298.0814165524
 10
136.9099188021
 20
297.5133557213
 10
136.8459176939
 20
296.0481504546
 10
136.7472786858
 20
294.7036118129
 10
136.6201921632
 20
293.5296770135
 10
136.4753979407
 20
292.5768432214
 10
136.3486487453
 20
291.963579656
 10
136.2519186792
 20
291.6115928921
 10
136.2124432337
 20
291.5010203328
 10
136.2136720998
 20
291.5033245779
  0
ARC
  5
14D
330
1F
100
AcDbEntity
  8
0
  6
Continuous
 62
     7
370
    25
100
AcDbCircle
 10
207.7980546384
 20
299.9969464156
 30
0.0
 40
2.316944852441982
100
AcDbArc
 50
324.3105667881
 51
37.5927564903
  0
ARC
  5
14E
330
1F
100
AcDbEntity
  8
0
  6
Continuous
 62
     7
370
    25
100
AcDbCircle
 10
140.6370120102
 20
287.3129250851
 30
0.0
 40
11.39933767527475
100
AcDbArc
 50
94.8165610058
 51
100.9246530467
  0
ARC
  5
14F
330
1F
100
AcDbEntity
  8
0
  6
Continuous
 62
     7
370
    25
100
AcDbCircle
 10
141.0130847475
 20
285.8724889451
 30
0.0
 40
17.87700256927715
100
AcDbArc
 50
94.2769657679
 51
102.4793399629
  0
LINE
  5
150
330
1F
100
AcDbEntity
  8
0
  6
Continuous
 62
     7
370
    25
100
AcDbLine
 10
137.1500868549
 20
303.3271292491
 30
0.0
 11
135.6901077313
 21
302.9287462455
 31
0.0
  0
LINE
  5
151
330
1F
100
AcDbEntity
  8
0
  6
Continuous
 62
     7
370
    25
100
AcDbLine
 10
137.0063309393
 20
298.1051006877
 30
0.0
 11
138.4663100629
 21
298.5034836914
 31
0.0
  0
LINE
  5
152
330
1F
100
AcDbEntity
  8
0
  6
Continuous
 62
     7
370
    25
100
AcDbLine
 10
135.637495871
 20
302.9143901012
 30
0.0
 11
134.124904887
 21
302.5016509533
 31
0.0
  0
LINE
  5
153
330
1F
100
AcDbEntity
  8
0
  6
Continuous
 62
     7
370
    25
100
AcDbLine
 10
135.441128095
 20
297.6780053955
 30
0.0
 11
136.953719079
 21
298.0907445435
 31
0.0
  0
LWPOLYLINE
  5
154
330
1F
100
AcDbEntity
  8
0
  6
Continuous
 62
     7
370
    25
100
AcDbPolyline
 90
       18
 70
   128
 43
0.0
 10
134.124904887
 20
302.5016509533
 10
133.6402728613
 20
302.3325270831
 10
133.223890191
 20
302.1053898231
 10
132.800905238
 20
301.7549526625
 10
132.4054779163
 20
301.2271820134
 10
132.1410779559
 20
300.5386436436
 10
132.0900889001
 20
299.7651341964
 10
132.2856116703
 20
298.9912231087
 10
132.6279725392
 20
298.4183494019
 10
133.0374802251
 20
298.0083625113
 10
133.4580463068
 20
297.7354703135
 10
133.842009314
 20
297.571875548
 10
134.1830550675
 20
297.4775312089
 10
134.5334349152
 20
297.4169758581
 10
135.0641479722
 20
297.366895643
 10
135.8651832025
 20
297.3352853164
 10
136.7898414344
 20
297.328913419
 10
136.9019323849
 20
297.330519191
  0
ARC
  5
155
330
1F
100
AcDbEntity
  8
0
  6
Continuous
 62
     7
370
    25
100
AcDbCircle
 10
140.8758871048
 20
-57.4702991699
 30
0.0
 40
17.0587236227961
100
AcDbArc
 50
257.3843229791
 51
265.9795489687
  0
LWPOLYLINE
  5
156
330
1F
100
AcDbEntity
  8
0
  6
Continuous
 62
     7
370
    25
100
AcDbPolyline
 90
        6
 70
   128
 43
0.0
 10
139.6798567027
 20
-69.463306084
 10
139.6280760932
 20
-69.4581926342
 10
138.9313769924
 20
-69.3720125112
 10
138.5712722458
 20
-69.314678413
 10
138.4608045671
 20
-69.2920651919
 10
138.4612590094
 20
-69.2921860294
  0
LINE
  5
157
330
1F
100
AcDbEntity
  8
0
  6
Continuous
 62
     7
370
    25
100
AcDbLine
 10
138.4663100629
 20
-69.2935291189
 30
0.0
 11
137.0063309393
 21
-68.8951461153
 31
0.0
  0
LINE
  5
158
330
1F
100
AcDbEntity
  8
0
  6
Continuous
 62
     7
370
    25
100
AcDbLine
 10
135.6901077313
 20
-73.718791673
 30
0.0
 11
137.1500868549
 21
-74.1171746766
 31
0.0
  0
LINE
  5
159
330
1F
100
AcDbEntity
  8
0
  6
Continuous
 62
     7
370
    25
100
AcDbLine
 10
136.953719079
 20
-68.880789971
 30
0.0
 11
135.441128095
 21
-68.4680508231
 31
0.0
  0
LINE
  5
15A
330
1F
100
AcDbEntity
  8
0
  6
Continuous
 62
     7
370
    25
100
AcDbLine
 10
134.124904887
 20
-73.2916963808
 30
0.0
 11
135.637495871
 21
-73.7044355287
 31
0.0
  0
LWPOLYLINE
  5
15B
330
1F
100
AcDbEntity
  8
0
  6
Continuous
 62
     7
370
    25
100
AcDbPolyline
 90
       17
 70
   128
 43
0.0
 10
136.9024149208
 20
-68.1221342469
 10
136.2756980482
 20
-68.1196680733
 10
135.3975496526
 20
-68.1394920711
 10
134.6372897572
 20
-68.1941508781
 10
134.1559502666
 20
-68.2736250533
 10
133.6692867172
 20
-68.4270128243
 10
133.2331558483
 20
-68.6570419098
 10
132.7660663198
 20
-69.0485040616
 10
132.3611532331
 20
-69.6213597632
 10
132.1180801127
 20
-70.3427761844
 10
132.1038486761
 20
-71.1224261343
 10
132.308076861
 20
-71.8257257156
 10
132.6351799921
 20
-72.3574334595
 10
133.0183220234
 20
-72.7439173929
 10
133.4021343344
 20
-73.0041517855
 10
133.7482662712
 20
-73.1676561175
 10
134.124904887
 20
-73.2916963808
  0
ARC
  5
15C
330
1F
100
AcDbEntity
  8
0
  6
Continuous
 62
     7
370
    25
100
AcDbCircle
 10
207.8333894444
 20
-70.784200554
 30
0.0
 40
2.286983867857207
100
AcDbArc
 50
323.8408288984
 51
36.1591711016
  0
ARC
  5
15D
330
1F
100
AcDbEntity
  8
0
  6
Continuous
 62
     7
370
    25
100
AcDbCircle
 10
207.7980546384
 20
-769.9210083623
 30
0.0
 40
2.316944852442441
100
AcDbArc
 50
324.3105667881
 51
37.5927564903
  0
ARC
  5
15E
330
1F
100
AcDbEntity
  8
0
  6
Continuous
 62
     7
370
    25
100
AcDbCircle
 10
140.6370120102
 20
-782.6050296926
 30
0.0
 40
11.39933767516387
100
AcDbArc
 50
94.8165610057
 51
100.9246530468
  0
ARC
  5
15F
330
1F
100
AcDbEntity
  8
0
  6
Continuous
 62
     7
370
    25
100
AcDbCircle
 10
141.0130847474
 20
-784.0454658328
 30
0.0
 40
17.87700256925936
100
AcDbArc
 50
94.2769657679
 51
102.4793399629
  0
LINE
  5
160
330
1F
100
AcDbEntity
  8
0
  6
Continuous
 62
     7
370
    25
100
AcDbLine
 10
137.1500868549
 20
-766.5908255288
 30
0.0
 11
135.6901077313
 21
-766.9892085324
 31
0.0
  0
LINE
  5
161
330
1F
100
AcDbEntity
  8
0
  6
Continuous
 62
     7
370
    25
100
AcDbLine
 10
137.0063309393
 20
-771.8128540902
 30
0.0
 11
138.4663100629
 21
-771.4144710865
 31
0.0
  0
LINE
  5
162
330
1F
100
AcDbEntity
  8
0
  6
Continuous
 62
     7
370
    25
100
AcDbLine
 10
135.637495871
 20
-767.0035646767
 30
0.0
 11
134.124904887
 21
-767.4163038246
 31
0.0
  0
LINE
  5
163
330
1F
100
AcDbEntity
  8
0
  6
Continuous
 62
     7
370
    25
100
AcDbLine
 10
135.441128095
 20
-772.2399493823
 30
0.0
 11
136.953719079
 21
-771.8272102344
 31
0.0
  0
LWPOLYLINE
  5
164
330
1F
100
AcDbEntity
  8
0
  6
Continuous
 62
     7
370
    25
100
AcDbPolyline
 90
       18
 70
   128
 43
0.0
 10
134.124904887
 20
-767.4163038246
 10
133.6402728613
 20
-767.5854276948
 10
133.223890191
 20
-767.8125649548
 10
132.800905238
 20
-768.1630021154
 10
132.4054779163
 20
-768.6907727645
 10
132.1410779559
 20
-769.3793111343
 10
132.0900889001
 20
-770.1528205815
 10
132.2856116703
 20
-770.9267316692
 10
132.6279725392
 20
-771.499605376
 10
133.0374802251
 20
-771.9095922666
 10
133.4580463068
 20
-772.1824844644
 10
133.842009314
 20
-772.3460792299
 10
134.1830550675
 20
-772.440423569
 10
134.5334349152
 20
-772.5009789197
 10
135.0641479722
 20
-772.5510591349
 10
135.8651832025
 20
-772.5826694615
 10
136.7898414344
 20
-772.5890413588
 10
136.9019323849
 20
-772.5874355868
  0
ARC
  5
165
330
1F
100
AcDbEntity
  8
0
  6
Continuous
 62
     7
370
    25
100
AcDbCircle
 10
140.8758871048
 20
-1127.3882539477
 30
0.0
 40
17.05872362283449
100
AcDbArc
 50
257.3843229791
 51
265.9795489687
  0
LWPOLYLINE
  5
166
330
1F
100
AcDbEntity
  8
0
  6
Continuous
 62
     7
370
    25
100
AcDbPolyline
 90
        6
 70
   128
 43
0.0
 10
139.6798567027
 20
-1139.3812608619
 10
139.6280760932
 20
-1139.3761474121
 10
138.9313769924
 20
-1139.2899672891
 10
138.5712722458
 20
-1139.2326331908
 10
138.4608045671
 20
-1139.2100199698
 10
138.4612590094
 20
-1139.2101408073
  0
LINE
  5
167
330
1F
100
AcDbEntity
  8
0
  6
Continuous
 62
     7
370
    25
100
AcDbLine
 10
138.4663100629
 20
-1139.2114838968
 30
0.0
 11
137.0063309393
 21
-1138.8131008931
 31
0.0
  0
LINE
  5
168
330
1F
100
AcDbEntity
  8
0
  6
Continuous
 62
     7
370
    25
100
AcDbLine
 10
135.6901077313
 20
-1143.6367464509
 30
0.0
 11
137.1500868549
 21
-1144.0351294545
 31
0.0
  0
LINE
  5
169
330
1F
100
AcDbEntity
  8
0
  6
Continuous
 62
     7
370
    25
100
AcDbLine
 10
136.953719079
 20
-1138.7987447488
 30
0.0
 11
135.441128095
 21
-1138.3860056009
 31
0.0
  0
LINE
  5
16A
330
1F
100
AcDbEntity
  8
0
  6
Continuous
 62
     7
370
    25
100
AcDbLine
 10
134.124904887
 20
-1143.2096511587
 30
0.0
 11
135.637495871
 21
-1143.6223903066
 31
0.0
  0
LWPOLYLINE
  5
16B
330
1F
100
AcDbEntity
  8
0
  6
Continuous
 62
     7
370
    25
100
AcDbPolyline
 90
       17
 70
   128
 43
0.0
 10
136.9024149208
 20
-1138.0400890248
 10
136.2756980482
 20
-1138.0376228512
 10
135.3975496526
 20
-1138.057446849
 10
134.6372897572
 20
-1138.1121056559
 10
134.1559502666
 20
-1138.1915798312
 10
133.6692867172
 20
-1138.3449676022
 10
133.2331558483
 20
-1138.5749966877
 10
132.7660663198
 20
-1138.9664588395
 10
132.3611532331
 20
-1139.5393145411
 10
132.1180801127
 20
-1140.2607309622
 10
132.1038486761
 20
-1141.0403809122
 10
132.308076861
 20
-1141.7436804934
 10
132.6351799921
 20
-1142.2753882374
 10
133.0183220234
 20
-1142.6618721708
 10
133.4021343344
 20
-1142.9221065634
 10
133.7482662712
 20
-1143.0856108954
 10
134.124904887
 20
-1143.2096511587
  0
ARC
  5
16C
330
1F
100
AcDbEntity
  8
0
  6
Continuous
 62
     7
370
    25
100
AcDbCircle
 10
207.8333894444
 20
-1140.7021553319
 30
0.0
 40
2.286983867857804
100
AcDbArc
 50
323.8408288984
 51
36.1591711016
  0
ARC
  5
16D
330
1F
100
AcDbEntity
  8
0
  6
Continuous
 62
     7
370
    25
100
AcDbCircle
 10
211.3853044847
 20
-149.8659714425
 30
0.0
 40
75.47091797492371
100
AcDbArc
 50
83.816707339
 51
91.2948468214
  0
ARC
  5
16E
330
1F
100
AcDbEntity
  8
0
  6
Continuous
 62
     7
370
    25
100
AcDbCircle
 10
214.5067855996
 20
-34.6306781578
 30
0.0
 40
40.67767290395313
100
AcDbArc
 50
269.0010283712
 51
278.5243723354
  0
ARC
  5
16F
330
1F
100
AcDbEntity
  8
0
  6
Continuous
 62
     7
370
    25
100
AcDbCircle
 10
219.4814452474
 20
-70.3950227138
 30
0.0
 40
4.585834743747767
100
AcDbArc
 50
276.0877233058
 51
83.9122766942
  0
ARC
  5
170
330
1F
100
AcDbEntity
  8
0
  6
Continuous
 62
     7
370
    25
100
AcDbCircle
 10
210.8078081733
 20
23.2801815689
 30
0.0
 40
89.66171608428031
100
AcDbArc
 50
269.279195555
 51
275.5746530038
  0
ARC
  5
171
330
1F
100
AcDbEntity
  8
0
  6
Continuous
 62
     7
370
    25
100
AcDbCircle
 10
214.2390354439
 20
-110.1249322349
 30
0.0
 40
44.64028724560336
100
AcDbArc
 50
81.8902321319
 51
90.5632989222
  0
ARC
  5
172
330
1F
100
AcDbEntity
  8
0
  6
Continuous
 62
     7
370
    25
100
AcDbCircle
 10
211.3853044847
 20
-849.7839262205
 30
0.0
 40
75.47091797498092
100
AcDbArc
 50
83.816707339
 51
91.2948468214
  0
ARC
  5
173
330
1F
100
AcDbEntity
  8
0
  6
Continuous
 62
     7
370
    25
100
AcDbCircle
 10
214.5067855996
 20
-734.5486329357
 30
0.0
 40
40.67767290394972
100
AcDbArc
 50
269.0010283712
 51
278.5243723354
  0
ARC
  5
174
330
1F
100
AcDbEntity
  8
0
  6
Continuous
 62
     7
370
    25
100
AcDbCircle
 10
219.4814452474
 20
-770.3129774916
 30
0.0
 40
4.585834743747776
100
AcDbArc
 50
276.0877233058
 51
83.9122766942
  0
ARC
  5
175
330
1F
100
AcDbEntity
  8
0
  6
Continuous
 62
     7
370
    25
100
AcDbCircle
 10
210.8078081733
 20
-676.637773209
 30
0.0
 40
89.66171608427048
100
AcDbArc
 50
269.279195555
 51
275.5746530038
  0
ARC
  5
176
330
1F
100
AcDbEntity
  8
0
  6
Continuous
 62
     7
370
    25
100
AcDbCircle
 10
214.2390354439
 20
-810.0428870129
 30
0.0
 40
44.64028724563224
100
AcDbArc
 50
81.8902321319
 51
90.5632989222
  0
ARC
  5
177
330
1F
100
AcDbEntity
  8
0
  6
Continuous
 62
     7
370
    25
100
AcDbCircle
 10
133.3615540142
 20
55.8614316153
 30
0.0
 40
122.2866731996122
100
AcDbArc
 50
264.9787006301
 51
271.2767297845
  0
ARC
  5
178
330
1F
100
AcDbEntity
  8
0
  6
Continuous
 62
     7
370
    25
100
AcDbCircle
 10
127.6657331553
 20
-106.1593672697
 30
0.0
 40
40.67767290392359
100
AcDbArc
 50
89.0010283712
 51
98.5243723354
  0
ARC
  5
179
330
1F
100
AcDbEntity
  8
0
  6
Continuous
 62
     7
370
    25
100
AcDbCircle
 10
133.0012635998
 20
-186.1045989186
 30
0.0
 40
111.7520262151359
100
AcDbArc
 50
88.4181074655
 51
95.312319814
  0
ARC
  5
17A
330
1F
100
AcDbEntity
  8
0
  6
Continuous
 62
     7
370
    25
100
AcDbCircle
 10
127.933483311
 20
-30.6651131925
 30
0.0
 40
44.64028724563905
100
AcDbArc
 50
261.8902321319
 51
270.5632989222
  0
ARC
  5
17B
330
1F
100
AcDbEntity
  8
0
  6
Continuous
 62
     7
370
    25
100
AcDbCircle
 10
122.6910735074
 20
-70.3950227138
 30
0.0
 40
4.585834743747763
100
AcDbArc
 50
96.0877233058
 51
263.9122766942
  0
LINE
  5
17C
330
1F
100
AcDbEntity
  8
0
  6
Continuous
 62
     7
370
    25
100
AcDbLine
 10
136.0862593774
 20
-74.3951625927
 30
0.0
 11
136.7791739725
 21
-74.3970106765
 31
0.0
  0
LINE
  5
17D
330
1F
100
AcDbEntity
  8
0
  6
Continuous
 62
     7
370
    25
100
AcDbLine
 10
136.8134641335
 20
-66.39232243
 30
0.0
 11
136.0862593774
 21
-66.3948828348
 31
0.0
  0
ARC
  5
17E
330
1F
100
AcDbEntity
  8
0
  6
Continuous
 62
     7
370
    25
100
AcDbCircle
 10
211.3853044847
 20
220.1340285575
 30
0.0
 40
75.47091797493708
100
AcDbArc
 50
83.816707339
 51
91.2948468214
  0
ARC
  5
17F
330
1F
100
AcDbEntity
  8
0
  6
Continuous
 62
     7
370
    25
100
AcDbCircle
 10
214.5067855996
 20
335.3693218422
 30
0.0
 40
40.67767290397759
100
AcDbArc
 50
269.0010283712
 51
278.5243723354
  0
ARC
  5
180
330
1F
100
AcDbEntity
  8
0
  6
Continuous
 62
     7
370
    25
100
AcDbCircle
 10
219.4814452474
 20
299.6049772862
 30
0.0
 40
4.585834743747851
100
AcDbArc
 50
276.0877233058
 51
83.9122766942
  0
ARC
  5
181
330
1F
100
AcDbEntity
  8
0
  6
Continuous
 62
     7
370
    25
100
AcDbCircle
 10
210.8078081733
 20
393.2801815689
 30
0.0
 40
89.66171608431083
100
AcDbArc
 50
269.279195555
 51
275.5746530038
  0
ARC
  5
182
330
1F
100
AcDbEntity
  8
0
  6
Continuous
 62
     7
370
    25
100
AcDbCircle
 10
214.2390354439
 20
259.8750677651
 30
0.0
 40
44.64028724554699
100
AcDbArc
 50
81.8902321319
 51
90.5632989222
  0
ARC
  5
183
330
1F
100
AcDbEntity
  8
0
  6
Continuous
 62
     7
370
    25
100
AcDbCircle
 10
133.3615540141
 20
425.8614316152
 30
0.0
 40
122.2866731995236
100
AcDbArc
 50
264.9787006301
 51
271.2767297845
  0
ARC
  5
184
330
1F
100
AcDbEntity
  8
0
  6
Continuous
 62
     7
370
    25
100
AcDbCircle
 10
127.6657331553
 20
263.8406327302
 30
0.0
 40
40.67767290403061
100
AcDbArc
 50
89.0010283712
 51
98.5243723354
  0
ARC
  5
185
330
1F
100
AcDbEntity
  8
0
  6
Continuous
 62
     7
370
    25
100
AcDbCircle
 10
133.0012635998
 20
183.8954010815
 30
0.0
 40
111.7520262150728
100
AcDbArc
 50
88.4181074655
 51
95.312319814
  0
ARC
  5
186
330
1F
100
AcDbEntity
  8
0
  6
Continuous
 62
     7
370
    25
100
AcDbCircle
 10
127.933483311
 20
339.3348868074
 30
0.0
 40
44.64028724552364
100
AcDbArc
 50
261.8902321319
 51
270.5632989222
  0
ARC
  5
187
330
1F
100
AcDbEntity
  8
0
  6
Continuous
 62
     7
370
    25
100
AcDbCircle
 10
122.6910735074
 20
299.6049772862
 30
0.0
 40
4.585834743747848
100
AcDbArc
 50
96.0877233058
 51
263.9122766942
  0
LINE
  5
188
330
1F
100
AcDbEntity
  8
0
  6
Continuous
 62
     7
370
    25
100
AcDbLine
 10
136.0862593774
 20
295.6048374073
 30
0.0
 11
136.8132527956
 21
295.6028984313
 31
0.0
  0
LINE
  5
189
330
1F
100
AcDbEntity
  8
0
  6
Continuous
 62
     7
370
    25
100
AcDbLine
 10
136.7793074438
 20
303.6075573082
 30
0.0
 11
136.0862593774
 21
303.6051171652
 31
0.0
  0
ARC
  5
18A
330
1F
100
AcDbEntity
  8
0
  6
Continuous
 62
     7
370
    25
100
AcDbCircle
 10
211.3853044847
 20
-1219.7839262204
 30
0.0
 40
75.4709179749398
100
AcDbArc
 50
83.816707339
 51
91.2948468214
  0
ARC
  5
18B
330
1F
100
AcDbEntity
  8
0
  6
Continuous
 62
     7
370
    25
100
AcDbCircle
 10
214.5067855996
 20
-1104.5486329355
 30
0.0
 40
40.67767290412615
100
AcDbArc
 50
269.0010283712
 51
278.5243723354
  0
ARC
  5
18C
330
1F
100
AcDbEntity
  8
0
  6
Continuous
 62
     7
370
    25
100
AcDbCircle
 10
219.4814452474
 20
-1140.3129774916
 30
0.0
 40
4.58583474374792
100
AcDbArc
 50
276.0877233058
 51
83.9122766942
  0
ARC
  5
18D
330
1F
100
AcDbEntity
  8
0
  6
Continuous
 62
     7
370
    25
100
AcDbCircle
 10
210.8078081733
 20
-1046.6377732089
 30
0.0
 40
89.66171608436447
100
AcDbArc
 50
269.279195555
 51
275.5746530038
  0
ARC
  5
18E
330
1F
100
AcDbEntity
  8
0
  6
Continuous
 62
     7
370
    25
100
AcDbCircle
 10
214.2390354439
 20
-1180.0428870128
 30
0.0
 40
44.64028724555954
100
AcDbArc
 50
81.8902321319
 51
90.5632989222
  0
LINE
  5
18F
330
1F
100
AcDbEntity
  8
0
  6
Continuous
 62
     7
370
    25
100
AcDbLine
 10
136.0862593774
 20
-774.3131173706
 30
0.0
 11
136.8132527956
 21
-774.3150563465
 31
0.0
  0
LINE
  5
190
330
1F
100
AcDbEntity
  8
0
  6
Continuous
 62
     7
370
    25
100
AcDbLine
 10
136.7793074438
 20
-766.3103974697
 30
0.0
 11
136.0862593774
 21
-766.3128376127
 31
0.0
  0
ARC
  5
191
330
1F
100
AcDbEntity
  8
0
  6
Continuous
 62
     7
370
    25
100
AcDbCircle
 10
133.3615540142
 20
-644.0565231626
 30
0.0
 40
122.286673199578
100
AcDbArc
 50
264.9787006301
 51
271.2767297845
  0
ARC
  5
192
330
1F
100
AcDbEntity
  8
0
  6
Continuous
 62
     7
370
    25
100
AcDbCircle
 10
127.6657331553
 20
-806.0773220475
 30
0.0
 40
40.6776729039067
100
AcDbArc
 50
89.0010283712
 51
98.5243723354
  0
ARC
  5
193
330
1F
100
AcDbEntity
  8
0
  6
Continuous
 62
     7
370
    25
100
AcDbCircle
 10
133.0012635998
 20
-886.0225536965
 30
0.0
 40
111.7520262151388
100
AcDbArc
 50
88.4181074655
 51
95.312319814
  0
ARC
  5
194
330
1F
100
AcDbEntity
  8
0
  6
Continuous
 62
     7
370
    25
100
AcDbCircle
 10
127.933483311
 20
-730.5830679704
 30
0.0
 40
44.64028724563872
100
AcDbArc
 50
261.8902321319
 51
270.5632989222
  0
ARC
  5
195
330
1F
100
AcDbEntity
  8
0
  6
Continuous
 62
     7
370
    25
100
AcDbCircle
 10
122.6910735074
 20
-770.3129774916
 30
0.0
 40
4.585834743747673
100
AcDbArc
 50
96.0877233058
 51
263.9122766942
  0
LINE
  5
196
330
1F
100
AcDbEntity
  8
0
  6
Continuous
 62
     7
370
    25
100
AcDbLine
 10
136.0862593774
 20
-1144.3131173706
 30
0.0
 11
136.7791739725
 21
-1144.3149654544
 31
0.0
  0
LINE
  5
197
330
1F
100
AcDbEntity
  8
0
  6
Continuous
 62
     7
370
    25
100
AcDbLine
 10
136.8134641335
 20
-1136.3102772079
 30
0.0
 11
136.0862593774
 21
-1136.3128376127
 31
0.0
  0
ARC
  5
198
330
1F
100
AcDbEntity
  8
0
  6
Continuous
 62
     7
370
    25
100
AcDbCircle
 10
133.3615540141
 20
-1014.0565231627
 30
0.0
 40
122.2866731995341
100
AcDbArc
 50
264.9787006301
 51
271.2767297845
  0
ARC
  5
199
330
1F
100
AcDbEntity
  8
0
  6
Continuous
 62
     7
370
    25
100
AcDbCircle
 10
127.6657331553
 20
-1176.0773220478
 30
0.0
 40
40.67767290411594
100
AcDbArc
 50
89.0010283712
 51
98.5243723354
  0
ARC
  5
19A
330
1F
100
AcDbEntity
  8
0
  6
Continuous
 62
     7
370
    25
100
AcDbCircle
 10
133.0012635998
 20
-1256.0225536964
 30
0.0
 40
111.7520262150395
100
AcDbArc
 50
88.4181074655
 51
95.312319814
  0
ARC
  5
19B
330
1F
100
AcDbEntity
  8
0
  6
Continuous
 62
     7
370
    25
100
AcDbCircle
 10
127.933483311
 20
-1100.5830679704
 30
0.0
 40
44.64028724563202
100
AcDbArc
 50
261.8902321319
 51
270.5632989222
  0
ARC
  5
19C
330
1F
100
AcDbEntity
  8
0
  6
Continuous
 62
     7
370
    25
100
AcDbCircle
 10
122.6910735074
 20
-1140.3129774916
 30
0.0
 40
4.585834743747902
100
AcDbArc
 50
96.0877233058
 51
263.9122766942
  0
LINE
  5
19D
330
1F
100
AcDbEntity
  8
0
  6
Continuous
 62
     7
370
    25
100
AcDbLine
 10
1188.5154457691
 20
-1982.258633596
 30
0.0
 11
1210.5891355906
 21
-1979.2209290564
 31
0.0
  0
LINE
  5
19E
330
1F
100
AcDbEntity
  8
0
  6
Continuous
 62
     7
370
    25
100
AcDbLine
 10
1210.5891355906
 20
-1979.2209290564
 30
0.0
 11
1372.8968214257
 21
-2058.2270887353
 31
0.0
  0
LINE
  5
19F
330
1F
100
AcDbEntity
  8
0
  6
Continuous
 62
     7
370
    25
100
AcDbLine
 10
1344.5825701585
 20
-2058.2270887353
 30
0.0
 11
1372.8968214257
 21
-2058.2270887353
 31
0.0
  0
LINE
  5
1A0
330
1F
100
AcDbEntity
  8
0
  6
Continuous
 62
     7
370
    25
100
AcDbLine
 10
1188.5154457691
 20
-1982.258633596
 30
0.0
 11
1344.5825701585
 21
-2058.2270887353
 31
0.0
  0
LINE
  5
1A1
330
1F
100
AcDbEntity
  8
0
  6
Continuous
 62
     7
370
    25
100
AcDbLine
 10
1188.5154457691
 20
-1979.3608561171
 30
0.0
 11
1188.5154457691
 21
-1982.258633596
 31
0.0
  0
LINE
  5
1A2
330
1F
100
AcDbEntity
  8
0
  6
Continuous
 62
     7
370
    25
100
AcDbLine
 10
1188.5154457691
 20
-1979.3608561171
 30
0.0
 11
1210.5891355906
 21
-1976.3231515775
 31
0.0
  0
LINE
  5
1A3
330
1F
100
AcDbEntity
  8
0
  6
Continuous
 62
     7
370
    25
100
AcDbLine
 10
1210.5891355906
 20
-1976.3231515775
 30
0.0
 11
1210.5891355906
 21
-1979.2209290564
 31
0.0
  0
LINE
  5
1A4
330
1F
100
AcDbEntity
  8
0
  6
Continuous
 62
     7
370
    25
100
AcDbLine
 10
1210.5891355906
 20
-1976.3231515775
 30
0.0
 11
1372.4694080872
 21
-2055.1212601941
 31
0.0
  0
LINE
  5
1A5
330
1F
100
AcDbEntity
  8
0
  6
Continuous
 62
     7
370
    25
100
AcDbLine
 10
1372.4694080872
 20
-2055.1212601941
 30
0.0
 11
1372.8968214257
 21
-2058.2270887353
 31
0.0
  0
ARC
  5
1A6
330
1F
100
AcDbEntity
  8
0
  6
Continuous
 62
     7
370
    25
100
AcDbCircle
 10
1187.7279095238
 20
-1976.1076207364
 30
0.0
 40
6.201223470919008
100
AcDbArc
 50
188.7652333203
 51
277.2960897205
  0
ARC
  5
1A7
330
1F
100
AcDbEntity
  8
0
  6
Continuous
 62
     7
370
    25
100
AcDbCircle
 10
1187.967285981
 20
-1975.6002882015
 30
0.0
 40
3.800309224378441
100
AcDbArc
 50
248.5883196613
 51
278.293320292
  0
ELLIPSE
  5
1A8
330
1F
100
AcDbEntity
  8
0
  6
Continuous
 62
     7
370
    25
100
AcDbEllipse
 10
1343.4428012559
 20
-2049.9448792921
 30
0.0
 11
8.434055464824951
 21
-4.105426858663577
 31
0.0
210
0.0
220
0.0
230
1.0
 40
0.8528618832
 41
4.712388980384761
 42
5.231020672037296
  0
LINE
  5
1A9
330
1F
100
AcDbEntity
  8
0
  6
Continuous
 62
     7
370
    25
100
AcDbLine
 10
1334.0408276375
 20
-2022.7742811355
 30
0.0
 11
1336.0528604328
 21
-2037.3948563942
 31
0.0
  0
LINE
  5
1AA
330
1F
100
AcDbEntity
  8
0
  6
Continuous
 62
     7
370
    25
100
AcDbLine
 10
1435.1881742136
 20
-2058.2270887353
 30
0.0
 11
1259.1512531978
 21
-1972.5379790693
 31
0.0
  0
ARC
  5
1AB
330
1F
100
AcDbEntity
  8
0
  6
Continuous
 62
     7
370
    25
100
AcDbCircle
 10
1257.4745166874
 20
-1963.9591530523
 30
0.0
 40
8.741149876035994
100
AcDbArc
 50
281.0590774566
 51
0.7908260166
  0
LINE
  5
1AC
330
1F
100
AcDbEntity
  8
0
  6
Continuous
 62
     7
370
    25
100
AcDbLine
 10
1266.2148339407
 20
-1963.8385070063
 30
0.0
 11
1443.1089657165
 21
-2049.9448792921
 31
0.0
  0
ELLIPSE
  5
1AD
330
1F
100
AcDbEntity
  8
0
  6
Continuous
 62
     7
370
    25
100
AcDbEllipse
 10
1434.048405311
 20
-2049.9448792921
 30
0.0
 11
8.434055464824951
 21
-4.105426858663577
 31
0.0
210
0.0
220
0.0
230
1.0
 40
0.8528618832
 41
5.231020672037319
 42
6.801816998832193
  0
LINE
  5
1AE
330
1F
100
AcDbEntity
  8
0
  6
Continuous
 62
     7
370
    25
100
AcDbLine
 10
1259.1512531978
 20
-1969.6402015905
 30
0.0
 11
1259.1512531978
 21
-1972.5379790693
 31
0.0
  0
ARC
  5
1AF
330
1F
100
AcDbEntity
  8
0
  6
Continuous
 62
     7
370
    25
100
AcDbCircle
 10
1258.4659829634
 20
-1965.0263558066
 30
0.0
 40
4.664457976144317
100
AcDbArc
 50
278.4480814555
 51
304.1848768738
  0
LINE
  5
1B0
330
1F
100
AcDbEntity
  8
0
  6
Continuous
 62
     7
370
    25
100
AcDbLine
 10
1263.5659911621
 20
-1964.2030315511
 30
0.0
 11
1266.2148339407
 21
-1963.8385070063
 31
0.0
  0
LINE
  5
1B1
330
1F
100
AcDbEntity
  8
0
  6
Continuous
 62
     7
370
    25
100
AcDbLine
 10
1266.2148339407
 20
-1963.8385070063
 30
0.0
 11
1266.2148339407
 21
-1885.5985150769
 31
0.0
  0
LINE
  5
1B2
330
1F
100
AcDbEntity
  8
0
  6
Continuous
 62
     7
370
    25
100
AcDbLine
 10
1431.568805578
 20
-1966.0875086788
 30
0.0
 11
1266.2148339407
 21
-1885.5985150769
 31
0.0
  0
LINE
  5
1B3
330
1F
100
AcDbEntity
  8
0
  6
Continuous
 62
     7
370
    25
100
AcDbLine
 10
1443.1089657165
 20
-2049.9448792921
 30
0.0
 11
1431.568805578
 21
-1966.0875086788
 31
0.0
  0
LINE
  5
1B4
330
1F
100
AcDbEntity
  8
0
  6
Continuous
 62
     7
370
    25
100
AcDbLine
 10
1263.5659911621
 20
-1964.2030315511
 30
0.0
 11
1263.5659911621
 21
-1885.9630396217
 31
0.0
  0
LINE
  5
1B5
330
1F
100
AcDbEntity
  8
0
  6
Continuous
 62
     7
370
    25
100
AcDbLine
 10
1263.5659911621
 20
-1885.9630396217
 30
0.0
 11
1266.2148339407
 21
-1885.5985150769
 31
0.0
  0
LINE
  5
1B6
330
1F
100
AcDbEntity
  8
0
  6
Continuous
 62
     7
370
    25
100
AcDbLine
 10
1237.0775633763
 20
-1975.5756836089
 30
0.0
 11
1259.1512531978
 21
-1972.5379790693
 31
0.0
  0
LINE
  5
1B7
330
1F
100
AcDbEntity
  8
0
  6
Continuous
 62
     7
370
    25
100
AcDbLine
 10
1406.8739229464
 20
-2058.2270887353
 30
0.0
 11
1435.1881742136
 21
-2058.2270887353
 31
0.0
  0
LINE
  5
1B8
330
1F
100
AcDbEntity
  8
0
  6
Continuous
 62
     7
370
    25
100
AcDbLine
 10
1237.0775633763
 20
-1975.5756836089
 30
0.0
 11
1406.8739229464
 21
-2058.2270887353
 31
0.0
  0
LINE
  5
1B9
330
1F
100
AcDbEntity
  8
0
  6
Continuous
 62
     7
370
    25
100
AcDbLine
 10
1237.0775633763
 20
-1972.67790613
 30
0.0
 11
1237.0775633763
 21
-1975.5756836089
 31
0.0
  0
LINE
  5
1BA
330
1F
100
AcDbEntity
  8
0
  6
Continuous
 62
     7
370
    25
100
AcDbLine
 10
1237.0775633763
 20
-1972.67790613
 30
0.0
 11
1259.1512531978
 21
-1969.6402015905
 31
0.0
  0
ARC
  5
1BB
330
1F
100
AcDbEntity
  8
0
  6
Continuous
 62
     7
370
    25
100
AcDbCircle
 10
1259.8865028533
 20
-1885.1449886215
 30
0.0
 40
6.344561497598813
100
AcDbArc
 50
355.9008463278
 51
96.6547653647
  0
ELLIPSE
  5
1BC
330
1F
100
AcDbEntity
  8
0
  6
Continuous
 62
     7
370
    25
100
AcDbEllipse
 10
1422.5082451725
 20
-1966.0875086788
 30
0.0
 11
8.434055464824951
 21
-4.105426858663577
 31
0.0
210
0.0
220
0.0
230
1.0
 40
0.8528618832
 41
0.518631691652672
 42
1.570796326794881
  0
LINE
  5
1BD
330
1F
100
AcDbEntity
  8
0
  6
Continuous
 62
     7
370
    25
100
AcDbLine
 10
1259.1512531978
 20
-1878.8431739193
 30
0.0
 11
1256.2053394145
 21
-1879.2485803441
 31
0.0
  0
LINE
  5
1BE
330
1F
100
AcDbEntity
  8
0
  6
Continuous
 62
     7
370
    25
100
AcDbLine
 10
-1093.7492523111
 20
-2049.9448792921
 30
0.0
 11
-916.8551205352
 21
-1963.8385070063
 31
0.0
  0
ARC
  5
1BF
330
1F
100
AcDbEntity
  8
0
  6
Continuous
 62
     7
370
    25
100
AcDbCircle
 10
-908.114803282
 20
-1963.9591530523
 30
0.0
 40
8.741149876034108
100
AcDbArc
 50
179.2091739834
 51
258.9409225434
  0
LINE
  5
1C0
330
1F
100
AcDbEntity
  8
0
  6
Continuous
 62
     7
370
    25
100
AcDbLine
 10
-909.7915397924
 20
-1972.5379790693
 30
0.0
 11
-1085.8284608082
 21
-2058.2270887353
 31
0.0
  0
ELLIPSE
  5
1C1
330
1F
100
AcDbEntity
  8
0
  6
Continuous
 62
     7
370
    25
100
AcDbEllipse
 10
-1084.6886919056
 20
-2049.9448792921
 30
0.0
 11
-8.434055464824951
 21
-4.105426858663577
 31
0.0
210
0.0
220
0.0
230
1.0
 40
0.8528618832
 41
5.764553615526924
 42
7.335349942321781
  0
LINE
  5
1C2
330
1F
100
AcDbEntity
  8
0
  6
Continuous
 62
     7
370
    25
100
AcDbLine
 10
-914.2062777566
 20
-1964.2030315511
 30
0.0
 11
-916.8551205352
 21
-1963.8385070063
 31
0.0
  0
ARC
  5
1C3
330
1F
100
AcDbEntity
  8
0
  6
Continuous
 62
     7
370
    25
100
AcDbCircle
 10
-909.106269558
 20
-1965.0263558066
 30
0.0
 40
4.664457976130484
100
AcDbArc
 50
235.8151231262
 51
261.5519185445
  0
LINE
  5
1C4
330
1F
100
AcDbEntity
  8
0
  6
Continuous
 62
     7
370
    25
100
AcDbLine
 10
-909.7915397924
 20
-1969.6402015905
 30
0.0
 11
-909.7915397924
 21
-1972.5379790693
 31
0.0
  0
LINE
  5
1C5
330
1F
100
AcDbEntity
  8
0
  6
Continuous
 62
     7
370
    25
100
AcDbLine
 10
-916.8551205352
 20
-1885.5985150769
 30
0.0
 11
-916.8551205352
 21
-1963.8385070063
 31
0.0
  0
LINE
  5
1C6
330
1F
100
AcDbEntity
  8
0
  6
Continuous
 62
     7
370
    25
100
AcDbLine
 10
-1082.2090921725
 20
-1966.0875086788
 30
0.0
 11
-1093.7492523111
 21
-2049.9448792921
 31
0.0
  0
LINE
  5
1C7
330
1F
100
AcDbEntity
  8
0
  6
Continuous
 62
     7
370
    25
100
AcDbLine
 10
-916.8551205352
 20
-1885.5985150769
 30
0.0
 11
-1082.2090921725
 21
-1966.0875086788
 31
0.0
  0
LINE
  5
1C8
330
1F
100
AcDbEntity
  8
0
  6
Continuous
 62
     7
370
    25
100
AcDbLine
 10
-914.2062777566
 20
-1885.9630396217
 30
0.0
 11
-916.8551205352
 21
-1885.5985150769
 31
0.0
  0
LINE
  5
1C9
330
1F
100
AcDbEntity
  8
0
  6
Continuous
 62
     7
370
    25
100
AcDbLine
 10
-914.2062777566
 20
-1885.9630396217
 30
0.0
 11
-914.2062777566
 21
-1964.2030315511
 31
0.0
  0
LINE
  5
1CA
330
1F
100
AcDbEntity
  8
0
  6
Continuous
 62
     7
370
    25
100
AcDbLine
 10
-909.7915397924
 20
-1972.5379790693
 30
0.0
 11
-887.7178499709
 21
-1975.5756836089
 31
0.0
  0
LINE
  5
1CB
330
1F
100
AcDbEntity
  8
0
  6
Continuous
 62
     7
370
    25
100
AcDbLine
 10
-909.7915397924
 20
-1969.6402015905
 30
0.0
 11
-887.7178499709
 21
-1972.67790613
 31
0.0
  0
LINE
  5
1CC
330
1F
100
AcDbEntity
  8
0
  6
Continuous
 62
     7
370
    25
100
AcDbLine
 10
-887.7178499709
 20
-1972.67790613
 30
0.0
 11
-887.7178499709
 21
-1975.5756836089
 31
0.0
  0
LINE
  5
1CD
330
1F
100
AcDbEntity
  8
0
  6
Continuous
 62
     7
370
    25
100
AcDbLine
 10
-887.7178499709
 20
-1975.5756836089
 30
0.0
 11
-1057.5142095409
 21
-2058.2270887353
 31
0.0
  0
LINE
  5
1CE
330
1F
100
AcDbEntity
  8
0
  6
Continuous
 62
     7
370
    25
100
AcDbLine
 10
-1085.8284608082
 20
-2058.2270887353
 30
0.0
 11
-1057.5142095409
 21
-2058.2270887353
 31
0.0
  0
ARC
  5
1CF
330
1F
100
AcDbEntity
  8
0
  6
Continuous
 62
     7
370
    25
100
AcDbCircle
 10
-910.5267894479
 20
-1885.1449886215
 30
0.0
 40
6.344561497598246
100
AcDbArc
 50
83.3452346353
 51
184.0991536722
  0
ELLIPSE
  5
1D0
330
1F
100
AcDbEntity
  8
0
  6
Continuous
 62
     7
370
    25
100
AcDbEllipse
 10
-1073.148531767
 20
-1966.0875086788
 30
0.0
 11
-8.434055464824951
 21
-4.105426858663577
 31
0.0
210
0.0
220
0.0
230
1.0
 40
0.8528618832
 41
4.712388980384653
 42
5.764553615526924
  0
LINE
  5
1D1
330
1F
100
AcDbEntity
  8
0
  6
Continuous
 62
     7
370
    25
100
AcDbLine
 10
-906.845626009
 20
-1879.2485803441
 30
0.0
 11
-909.7915397924
 21
-1878.8431739193
 31
0.0
  0
LINE
  5
1D2
330
1F
100
AcDbEntity
  8
0
  6
Continuous
 62
     7
370
    25
100
AcDbLine
 10
-861.2294221851
 20
-1976.3231515775
 30
0.0
 11
-1023.1096946818
 21
-2055.1212601941
 31
0.0
  0
LINE
  5
1D3
330
1F
100
AcDbEntity
  8
0
  6
Continuous
 62
     7
370
    25
100
AcDbLine
 10
-861.2294221851
 20
-1976.3231515775
 30
0.0
 11
-861.2294221851
 21
-1979.2209290564
 31
0.0
  0
LINE
  5
1D4
330
1F
100
AcDbEntity
  8
0
  6
Continuous
 62
     7
370
    25
100
AcDbLine
 10
-861.2294221851
 20
-1979.2209290564
 30
0.0
 11
-1023.5371080203
 21
-2058.2270887353
 31
0.0
  0
LINE
  5
1D5
330
1F
100
AcDbEntity
  8
0
  6
Continuous
 62
     7
370
    25
100
AcDbLine
 10
-1023.5371080203
 20
-2058.2270887353
 30
0.0
 11
-1023.1096946818
 21
-2055.1212601941
 31
0.0
  0
LINE
  5
1D6
330
1F
100
AcDbEntity
  8
0
  6
Continuous
 62
     7
370
    25
100
AcDbLine
 10
-861.2294221851
 20
-1979.2209290564
 30
0.0
 11
-839.1557323636
 21
-1982.258633596
 31
0.0
  0
LINE
  5
1D7
330
1F
100
AcDbEntity
  8
0
  6
Continuous
 62
     7
370
    25
100
AcDbLine
 10
-861.2294221851
 20
-1976.3231515775
 30
0.0
 11
-839.1557323636
 21
-1979.3608561171
 31
0.0
  0
LINE
  5
1D8
330
1F
100
AcDbEntity
  8
0
  6
Continuous
 62
     7
370
    25
100
AcDbLine
 10
-839.1557323636
 20
-1979.3608561171
 30
0.0
 11
-839.1557323636
 21
-1982.258633596
 31
0.0
  0
LINE
  5
1D9
330
1F
100
AcDbEntity
  8
0
  6
Continuous
 62
     7
370
    25
100
AcDbLine
 10
-995.222856753
 20
-2058.2270887353
 30
0.0
 11
-839.1557323636
 21
-1982.258633596
 31
0.0
  0
LINE
  5
1DA
330
1F
100
AcDbEntity
  8
0
  6
Continuous
 62
     7
370
    25
100
AcDbLine
 10
-1023.5371080203
 20
-2058.2270887353
 30
0.0
 11
-995.222856753
 21
-2058.2270887353
 31
0.0
  0
ARC
  5
1DB
330
1F
100
AcDbEntity
  8
0
  6
Continuous
 62
     7
370
    25
100
AcDbCircle
 10
-838.3280940848
 20
-1976.1608972277
 30
0.0
 40
6.153647206162487
100
AcDbArc
 50
262.2705479245
 51
351.6681290347
  0
ELLIPSE
  5
1DC
330
1F
100
AcDbEntity
  8
0
  6
Continuous
 62
     7
370
    25
100
AcDbEllipse
 10
-994.0830878505
 20
-2049.9448792921
 30
0.0
 11
-8.434055464825178
 21
-4.105426858663577
 31
0.0
210
0.0
220
0.0
230
1.0
 40
0.8528618832
 41
1.052164635142254
 42
1.570796326794879
  0
ARC
  5
1DD
330
1F
100
AcDbEntity
  8
0
  6
Continuous
 62
     7
370
    25
100
AcDbCircle
 10
-838.6075725756
 20
-1975.6002882015
 30
0.0
 40
3.800309224408462
100
AcDbArc
 50
261.7066797081
 51
291.4116803386
  0
LINE
  5
1DE
330
1F
100
AcDbEntity
  8
0
  6
Continuous
 62
     7
370
    25
100
AcDbLine
 10
-986.6931470273
 20
-2037.3948563942
 30
0.0
 11
-984.681114232
 21
-2022.7742811355
 31
0.0
  0
LINE
  5
1DF
330
1F
100
AcDbEntity
  8
0
  6
Continuous
 62
     7
370
    25
100
AcDbLine
 10
-839.1557323636
 20
1141.5506333906
 30
0.0
 11
-861.2294221851
 21
1138.512928851
 31
0.0
  0
LINE
  5
1E0
330
1F
100
AcDbEntity
  8
0
  6
Continuous
 62
     7
370
    25
100
AcDbLine
 10
-839.1557323636
 20
1138.6528559117
 30
0.0
 11
-839.1557323636
 21
1141.5506333906
 31
0.0
  0
LINE
  5
1E1
330
1F
100
AcDbEntity
  8
0
  6
Continuous
 62
     7
370
    25
100
AcDbLine
 10
-839.1557323636
 20
1138.6528559117
 30
0.0
 11
-861.2294221851
 21
1135.6151513721
 31
0.0
  0
LINE
  5
1E2
330
1F
100
AcDbEntity
  8
0
  6
Continuous
 62
     7
370
    25
100
AcDbLine
 10
-861.2294221851
 20
1135.6151513721
 30
0.0
 11
-861.2294221851
 21
1138.512928851
 31
0.0
  0
LINE
  5
1E3
330
1F
100
AcDbEntity
  8
0
  6
Continuous
 62
     7
370
    25
100
AcDbLine
 10
-861.2294221851
 20
1138.512928851
 30
0.0
 11
-1023.5371080203
 21
1217.51908853
 31
0.0
  0
LINE
  5
1E4
330
1F
100
AcDbEntity
  8
0
  6
Continuous
 62
     7
370
    25
100
AcDbLine
 10
-995.222856753
 20
1217.51908853
 30
0.0
 11
-1023.5371080203
 21
1217.51908853
 31
0.0
  0
LINE
  5
1E5
330
1F
100
AcDbEntity
  8
0
  6
Continuous
 62
     7
370
    25
100
AcDbLine
 10
-839.1557323636
 20
1141.5506333906
 30
0.0
 11
-995.222856753
 21
1217.51908853
 31
0.0
  0
LINE
  5
1E6
330
1F
100
AcDbEntity
  8
0
  6
Continuous
 62
     7
370
    25
100
AcDbLine
 10
-861.2294221851
 20
1135.6151513721
 30
0.0
 11
-1023.1096946818
 21
1214.4132599887
 31
0.0
  0
LINE
  5
1E7
330
1F
100
AcDbEntity
  8
0
  6
Continuous
 62
     7
370
    25
100
AcDbLine
 10
-1023.1096946818
 20
1214.4132599887
 30
0.0
 11
-1023.5371080203
 21
1217.51908853
 31
0.0
  0
ARC
  5
1E8
330
1F
100
AcDbEntity
  8
0
  6
Continuous
 62
     7
370
    25
100
AcDbCircle
 10
-838.3681961183
 20
1135.399620531
 30
0.0
 40
6.201223470917659
100
AcDbArc
 50
8.7652333203
 51
97.2960897205
  0
ARC
  5
1E9
330
1F
100
AcDbEntity
  8
0
  6
Continuous
 62
     7
370
    25
100
AcDbCircle
 10
-838.6075725756
 20
1134.8922879961
 30
0.0
 40
3.800309224384176
100
AcDbArc
 50
68.5883196613
 51
98.293320292
  0
ELLIPSE
  5
1EA
330
1F
100
AcDbEntity
  8
0
  6
Continuous
 62
     7
370
    25
100
AcDbEllipse
 10
-994.0830878505
 20
1209.2368790867
 30
0.0
 11
-8.434055464825178
 21
4.105426858663577
 31
0.0
210
0.0
220
0.0
230
1.0
 40
0.8528618832
 41
4.712388980384686
 42
5.231020672037242
  0
LINE
  5
1EB
330
1F
100
AcDbEntity
  8
0
  6
Continuous
 62
     7
370
    25
100
AcDbLine
 10
-984.681114232
 20
1182.0662809301
 30
0.0
 11
-986.6931470273
 21
1196.6868561888
 31
0.0
  0
ARC
  5
1EC
330
1F
100
AcDbEntity
  8
0
  6
Continuous
 62
     7
370
    25
100
AcDbCircle
 10
-908.114803282
 20
1123.2511528469
 30
0.0
 40
8.74114987603486
100
AcDbArc
 50
101.0590774566
 51
180.7908260166
  0
LINE
  5
1ED
330
1F
100
AcDbEntity
  8
0
  6
Continuous
 62
     7
370
    25
100
AcDbLine
 10
-909.7915397923
 20
1128.9322013851
 30
0.0
 11
-909.7915397923
 21
1131.8299788639
 31
0.0
  0
ARC
  5
1EE
330
1F
100
AcDbEntity
  8
0
  6
Continuous
 62
     7
370
    25
100
AcDbCircle
 10
-909.106269558
 20
1124.3183556012
 30
0.0
 40
4.664457976150787
100
AcDbArc
 50
98.4480814556
 51
124.1848768738
  0
LINE
  5
1EF
330
1F
100
AcDbEntity
  8
0
  6
Continuous
 62
     7
370
    25
100
AcDbLine
 10
-914.2062777566
 20
1123.4950313457
 30
0.0
 11
-916.8551205352
 21
1123.130506801
 31
0.0
  0
LINE
  5
1F0
330
1F
100
AcDbEntity
  8
0
  6
Continuous
 62
     7
370
    25
100
AcDbLine
 10
-1085.8284608082
 20
1217.51908853
 30
0.0
 11
-909.7915397923
 21
1131.8299788639
 31
0.0
  0
LINE
  5
1F1
330
1F
100
AcDbEntity
  8
0
  6
Continuous
 62
     7
370
    25
100
AcDbLine
 10
-916.8551205352
 20
1123.130506801
 30
0.0
 11
-1093.7492523111
 21
1209.2368790867
 31
0.0
  0
ELLIPSE
  5
1F2
330
1F
100
AcDbEntity
  8
0
  6
Continuous
 62
     7
370
    25
100
AcDbEllipse
 10
-1084.6886919056
 20
1209.2368790867
 30
0.0
 11
-8.434055464824951
 21
4.105426858663577
 31
0.0
210
0.0
220
0.0
230
1.0
 40
0.8528618832
 41
5.231020672037319
 42
6.801816998832247
  0
LINE
  5
1F3
330
1F
100
AcDbEntity
  8
0
  6
Continuous
 62
     7
370
    25
100
AcDbLine
 10
-916.8551205352
 20
1123.130506801
 30
0.0
 11
-916.8551205352
 21
1044.8905148715
 31
0.0
  0
LINE
  5
1F4
330
1F
100
AcDbEntity
  8
0
  6
Continuous
 62
     7
370
    25
100
AcDbLine
 10
-1082.2090921725
 20
1125.3795084735
 30
0.0
 11
-916.8551205352
 21
1044.8905148715
 31
0.0
  0
LINE
  5
1F5
330
1F
100
AcDbEntity
  8
0
  6
Continuous
 62
     7
370
    25
100
AcDbLine
 10
-1093.7492523111
 20
1209.2368790867
 30
0.0
 11
-1082.2090921725
 21
1125.3795084735
 31
0.0
  0
LINE
  5
1F6
330
1F
100
AcDbEntity
  8
0
  6
Continuous
 62
     7
370
    25
100
AcDbLine
 10
-914.2062777566
 20
1123.4950313457
 30
0.0
 11
-914.2062777566
 21
1045.2550394163
 31
0.0
  0
LINE
  5
1F7
330
1F
100
AcDbEntity
  8
0
  6
Continuous
 62
     7
370
    25
100
AcDbLine
 10
-914.2062777566
 20
1045.2550394163
 30
0.0
 11
-916.8551205352
 21
1044.8905148715
 31
0.0
  0
LINE
  5
1F8
330
1F
100
AcDbEntity
  8
0
  6
Continuous
 62
     7
370
    25
100
AcDbLine
 10
-887.7178499709
 20
1134.8676834035
 30
0.0
 11
-909.7915397923
 21
1131.8299788639
 31
0.0
  0
LINE
  5
1F9
330
1F
100
AcDbEntity
  8
0
  6
Continuous
 62
     7
370
    25
100
AcDbLine
 10
-887.7178499709
 20
1131.9699059246
 30
0.0
 11
-887.7178499709
 21
1134.8676834035
 31
0.0
  0
LINE
  5
1FA
330
1F
100
AcDbEntity
  8
0
  6
Continuous
 62
     7
370
    25
100
AcDbLine
 10
-887.7178499709
 20
1131.9699059246
 30
0.0
 11
-909.7915397923
 21
1128.9322013851
 31
0.0
  0
LINE
  5
1FB
330
1F
100
AcDbEntity
  8
0
  6
Continuous
 62
     7
370
    25
100
AcDbLine
 10
-1057.5142095409
 20
1217.51908853
 30
0.0
 11
-1085.8284608082
 21
1217.51908853
 31
0.0
  0
LINE
  5
1FC
330
1F
100
AcDbEntity
  8
0
  6
Continuous
 62
     7
370
    25
100
AcDbLine
 10
-887.7178499709
 20
1134.8676834035
 30
0.0
 11
-1057.5142095409
 21
1217.51908853
 31
0.0
  0
ARC
  5
1FD
330
1F
100
AcDbEntity
  8
0
  6
Continuous
 62
     7
370
    25
100
AcDbCircle
 10
-910.5267894479
 20
1044.4369884161
 30
0.0
 40
6.344561497598502
100
AcDbArc
 50
175.9008463278
 51
276.6547653647
  0
ELLIPSE
  5
1FE
330
1F
100
AcDbEntity
  8
0
  6
Continuous
 62
     7
370
    25
100
AcDbEllipse
 10
-1073.148531767
 20
1125.3795084735
 30
0.0
 11
-8.434055464824951
 21
4.105426858663577
 31
0.0
210
0.0
220
0.0
230
1.0
 40
0.8528618832
 41
0.518631691652672
 42
1.570796326794913
  0
LINE
  5
1FF
330
1F
100
AcDbEntity
  8
0
  6
Continuous
 62
     7
370
    25
100
AcDbLine
 10
-909.7915397923
 20
1038.1351737139
 30
0.0
 11
-906.845626009
 21
1038.5405801387
 31
0.0
  0
LINE
  5
200
330
1F
100
AcDbEntity
  8
0
  6
Continuous
 62
     7
370
    25
100
AcDbLine
 10
1210.5891355905
 20
1135.6151513721
 30
0.0
 11
1372.4694080872
 21
1214.4132599887
 31
0.0
  0
LINE
  5
201
330
1F
100
AcDbEntity
  8
0
  6
Continuous
 62
     7
370
    25
100
AcDbLine
 10
1210.5891355905
 20
1135.6151513721
 30
0.0
 11
1210.5891355905
 21
1138.512928851
 31
0.0
  0
LINE
  5
202
330
1F
100
AcDbEntity
  8
0
  6
Continuous
 62
     7
370
    25
100
AcDbLine
 10
1210.5891355905
 20
1138.512928851
 30
0.0
 11
1372.8968214257
 21
1217.51908853
 31
0.0
  0
LINE
  5
203
330
1F
100
AcDbEntity
  8
0
  6
Continuous
 62
     7
370
    25
100
AcDbLine
 10
1372.8968214257
 20
1217.51908853
 30
0.0
 11
1372.4694080872
 21
1214.4132599887
 31
0.0
  0
LINE
  5
204
330
1F
100
AcDbEntity
  8
0
  6
Continuous
 62
     7
370
    25
100
AcDbLine
 10
1210.5891355905
 20
1138.512928851
 30
0.0
 11
1188.5154457691
 21
1141.5506333906
 31
0.0
  0
LINE
  5
205
330
1F
100
AcDbEntity
  8
0
  6
Continuous
 62
     7
370
    25
100
AcDbLine
 10
1210.5891355905
 20
1135.6151513721
 30
0.0
 11
1188.5154457691
 21
1138.6528559117
 31
0.0
  0
LINE
  5
206
330
1F
100
AcDbEntity
  8
0
  6
Continuous
 62
     7
370
    25
100
AcDbLine
 10
1188.5154457691
 20
1138.6528559117
 30
0.0
 11
1188.5154457691
 21
1141.5506333906
 31
0.0
  0
LINE
  5
207
330
1F
100
AcDbEntity
  8
0
  6
Continuous
 62
     7
370
    25
100
AcDbLine
 10
1344.5825701585
 20
1217.51908853
 30
0.0
 11
1188.5154457691
 21
1141.5506333906
 31
0.0
  0
LINE
  5
208
330
1F
100
AcDbEntity
  8
0
  6
Continuous
 62
     7
370
    25
100
AcDbLine
 10
1372.8968214257
 20
1217.51908853
 30
0.0
 11
1344.5825701585
 21
1217.51908853
 31
0.0
  0
ARC
  5
209
330
1F
100
AcDbEntity
  8
0
  6
Continuous
 62
     7
370
    25
100
AcDbCircle
 10
1187.6878074902
 20
1135.4528970223
 30
0.0
 40
6.153647206162853
100
AcDbArc
 50
82.2705479245
 51
171.6681290347
  0
ELLIPSE
  5
20A
330
1F
100
AcDbEntity
  8
0
  6
Continuous
 62
     7
370
    25
100
AcDbEllipse
 10
1343.4428012559
 20
1209.2368790867
 30
0.0
 11
8.434055464825178
 21
4.105426858663577
 31
0.0
210
0.0
220
0.0
230
1.0
 40
0.8528618832
 41
1.052164635142234
 42
1.57079632679489
  0
ARC
  5
20B
330
1F
100
AcDbEntity
  8
0
  6
Continuous
 62
     7
370
    25
100
AcDbCircle
 10
1187.967285981
 20
1134.8922879961
 30
0.0
 40
3.800309224392295
100
AcDbArc
 50
81.706679708
 51
111.4116803387
  0
LINE
  5
20C
330
1F
100
AcDbEntity
  8
0
  6
Continuous
 62
     7
370
    25
100
AcDbLine
 10
1336.0528604328
 20
1196.6868561888
 30
0.0
 11
1334.0408276375
 21
1182.0662809301
 31
0.0
  0
LINE
  5
20D
330
1F
100
AcDbEntity
  8
0
  6
Continuous
 62
     7
370
    25
100
AcDbLine
 10
1443.1089657165
 20
1209.2368790867
 30
0.0
 11
1266.2148339407
 21
1123.130506801
 31
0.0
  0
ARC
  5
20E
330
1F
100
AcDbEntity
  8
0
  6
Continuous
 62
     7
370
    25
100
AcDbCircle
 10
1257.4745166874
 20
1123.2511528469
 30
0.0
 40
8.741149876034003
100
AcDbArc
 50
359.2091739834
 51
78.9409225434
  0
LINE
  5
20F
330
1F
100
AcDbEntity
  8
0
  6
Continuous
 62
     7
370
    25
100
AcDbLine
 10
1259.1512531978
 20
1131.8299788639
 30
0.0
 11
1435.1881742136
 21
1217.51908853
 31
0.0
  0
ELLIPSE
  5
210
330
1F
100
AcDbEntity
  8
0
  6
Continuous
 62
     7
370
    25
100
AcDbEllipse
 10
1434.048405311
 20
1209.2368790867
 30
0.0
 11
8.434055464824951
 21
4.105426858663577
 31
0.0
210
0.0
220
0.0
230
1.0
 40
0.8528618832
 41
5.764553615526924
 42
7.335349942321775
  0
LINE
  5
211
330
1F
100
AcDbEntity
  8
0
  6
Continuous
 62
     7
370
    25
100
AcDbLine
 10
1263.5659911621
 20
1123.4950313457
 30
0.0
 11
1266.2148339407
 21
1123.130506801
 31
0.0
  0
ARC
  5
212
330
1F
100
AcDbEntity
  8
0
  6
Continuous
 62
     7
370
    25
100
AcDbCircle
 10
1258.4659829634
 20
1124.3183556012
 30
0.0
 40
4.664457976114265
100
AcDbArc
 50
55.8151231261
 51
81.5519185445
  0
LINE
  5
213
330
1F
100
AcDbEntity
  8
0
  6
Continuous
 62
     7
370
    25
100
AcDbLine
 10
1259.1512531978
 20
1128.9322013851
 30
0.0
 11
1259.1512531978
 21
1131.8299788639
 31
0.0
  0
LINE
  5
214
330
1F
100
AcDbEntity
  8
0
  6
Continuous
 62
     7
370
    25
100
AcDbLine
 10
1266.2148339407
 20
1044.8905148715
 30
0.0
 11
1266.2148339407
 21
1123.130506801
 31
0.0
  0
LINE
  5
215
330
1F
100
AcDbEntity
  8
0
  6
Continuous
 62
     7
370
    25
100
AcDbLine
 10
1431.568805578
 20
1125.3795084735
 30
0.0
 11
1443.1089657165
 21
1209.2368790867
 31
0.0
  0
LINE
  5
216
330
1F
100
AcDbEntity
  8
0
  6
Continuous
 62
     7
370
    25
100
AcDbLine
 10
1266.2148339407
 20
1044.8905148715
 30
0.0
 11
1431.568805578
 21
1125.3795084735
 31
0.0
  0
LINE
  5
217
330
1F
100
AcDbEntity
  8
0
  6
Continuous
 62
     7
370
    25
100
AcDbLine
 10
1263.5659911621
 20
1045.2550394163
 30
0.0
 11
1266.2148339407
 21
1044.8905148715
 31
0.0
  0
LINE
  5
218
330
1F
100
AcDbEntity
  8
0
  6
Continuous
 62
     7
370
    25
100
AcDbLine
 10
1263.5659911621
 20
1045.2550394163
 30
0.0
 11
1263.5659911621
 21
1123.4950313457
 31
0.0
  0
LINE
  5
219
330
1F
100
AcDbEntity
  8
0
  6
Continuous
 62
     7
370
    25
100
AcDbLine
 10
1259.1512531978
 20
1131.8299788639
 30
0.0
 11
1237.0775633763
 21
1134.8676834035
 31
0.0
  0
LINE
  5
21A
330
1F
100
AcDbEntity
  8
0
  6
Continuous
 62
     7
370
    25
100
AcDbLine
 10
1237.0775633763
 20
1134.8676834035
 30
0.0
 11
1406.8739229464
 21
1217.51908853
 31
0.0
  0
LINE
  5
21B
330
1F
100
AcDbEntity
  8
0
  6
Continuous
 62
     7
370
    25
100
AcDbLine
 10
1435.1881742136
 20
1217.51908853
 30
0.0
 11
1406.8739229464
 21
1217.51908853
 31
0.0
  0
LINE
  5
21C
330
1F
100
AcDbEntity
  8
0
  6
Continuous
 62
     7
370
    25
100
AcDbLine
 10
1259.1512531978
 20
1128.9322013851
 30
0.0
 11
1237.0775633763
 21
1131.9699059246
 31
0.0
  0
LINE
  5
21D
330
1F
100
AcDbEntity
  8
0
  6
Continuous
 62
     7
370
    25
100
AcDbLine
 10
1237.0775633763
 20
1131.9699059246
 30
0.0
 11
1237.0775633763
 21
1134.8676834035
 31
0.0
  0
ARC
  5
21E
330
1F
100
AcDbEntity
  8
0
  6
Continuous
 62
     7
370
    25
100
AcDbCircle
 10
1259.8865028533
 20
1044.4369884161
 30
0.0
 40
6.344561497598992
100
AcDbArc
 50
263.3452346353
 51
4.0991536722
  0
ELLIPSE
  5
21F
330
1F
100
AcDbEntity
  8
0
  6
Continuous
 62
     7
370
    25
100
AcDbEllipse
 10
1422.5082451725
 20
1125.3795084735
 30
0.0
 11
8.434055464824951
 21
4.105426858663577
 31
0.0
210
0.0
220
0.0
230
1.0
 40
0.8528618832
 41
4.712388980384718
 42
5.76455361552693
  0
LINE
  5
220
330
1F
100
AcDbEntity
  8
0
  6
Continuous
 62
     7
370
    25
100
AcDbLine
 10
1256.2053394145
 20
1038.5405801387
 30
0.0
 11
1259.1512531978
 21
1038.1351737139
 31
0.0
  0
LINE
  5
221
330
1F
100
AcDbEntity
  8
0
  6
Continuous
 62
     7
370
    25
100
AcDbLine
 10
-3475.3201432973
 20
-1836.8540001027
 30
0.0
 11
-819.7515786728
 21
-1836.8540001027
 31
0.0
  0
LINE
  5
222
330
1F
100
AcDbEntity
  8
0
  6
Continuous
 62
     7
370
    25
100
AcDbLine
 10
-544.2199482009
 20
-1836.8540001027
 30
0.0
 11
893.5796616063
 21
-1836.8540001027
 31
0.0
  0
LINE
  5
223
330
1F
100
AcDbEntity
  8
0
  6
Continuous
 62
     7
370
    25
100
AcDbLine
 10
1169.1112920782
 20
-1836.8540001027
 30
0.0
 11
3824.6798567027
 21
-1836.8540001027
 31
0.0
  0
LINE
  5
224
330
1F
100
AcDbEntity
  8
0
  6
Continuous
 62
     7
370
    25
100
AcDbLine
 10
-3475.3201432973
 20
996.1459998973
 30
0.0
 11
-3475.3201432973
 21
-1836.8540001027
 31
0.0
  0
LINE
  5
225
330
1F
100
AcDbEntity
  8
0
  6
Continuous
 62
     7
370
    25
100
AcDbLine
 10
3824.6798567027
 20
-1836.8540001027
 30
0.0
 11
3824.6798567027
 21
996.1459998973
 31
0.0
  0
LINE
  5
226
330
1F
100
AcDbEntity
  8
0
  6
Continuous
 62
     7
370
    25
100
AcDbLine
 10
3824.6798567027
 20
996.1459998973
 30
0.0
 11
1169.1112920782
 21
996.1459998973
 31
0.0
  0
LINE
  5
227
330
1F
100
AcDbEntity
  8
0
  6
Continuous
 62
     7
370
    25
100
AcDbLine
 10
893.5796616064
 20
996.1459998973
 30
0.0
 11
-544.2199482009
 21
996.1459998973
 31
0.0
  0
LINE
  5
228
330
1F
100
AcDbEntity
  8
0
  6
Continuous
 62
     7
370
    25
100
AcDbLine
 10
-819.7515786728
 20
996.1459998973
 30
0.0
 11
-3475.3201432973
 21
996.1459998973
 31
0.0
  0
LINE
  5
229
330
1F
100
AcDbEntity
  8
0
  6
Continuous
 62
     7
370
    25
100
AcDbLine
 10
163.4152950493
 20
560.8895564271
 30
0.0
 11
185.933858372
 21
560.8895564271
 31
0.0
  0
LINE
  5
22A
330
1F
100
AcDbEntity
  8
0
  6
Continuous
 62
     7
370
    25
100
AcDbLine
 10
209.6798567027
 20
-1397.1275713351
 30
0.0
 11
209.6798567027
 21
556.4153347045
 31
0.0
  0
LINE
  5
22B
330
1F
100
AcDbEntity
  8
0
  6
Continuous
 62
     7
370
    25
100
AcDbLine
 10
139.6798567027
 20
-1397.1233349099
 30
0.0
 11
139.6798567027
 21
556.4195711298
 31
0.0
  0
LINE
  5
22C
330
1F
100
AcDbEntity
  8
0
  6
Continuous
 62
     7
370
    25
100
AcDbLine
 10
163.4258550334
 20
-1401.5975566325
 30
0.0
 11
185.9444183562
 21
-1401.5975566325
 31
0.0
  0
LWPOLYLINE
  5
22D
330
1F
100
AcDbEntity
  8
0
  6
Continuous
 62
     7
370
    25
100
AcDbPolyline
 90
       21
 70
   128
 43
0.0
 10
1350.9015637999
 20
1108.4058130329
 10
1350.799632137
 20
1108.4222735009
 10
1350.011444697
 20
1108.7256244931
 10
1349.2910260025
 20
1109.326145557
 10
1348.6591011876
 20
1110.2065607949
 10
1348.1338495787
 20
1111.3415422634
 10
1347.7303817083
 20
1112.6984386121
 10
1347.4603046125
 20
1114.2382144036
 10
1347.3313879174
 20
1115.9165730918
 10
1347.3473403218
 20
1117.685231353
 10
1347.507702904
 20
1119.4933081092
 10
1347.8078623245
 20
1121.2887882842
 10
1348.2391835433
 20
1123.0200191823
 10
1348.7892582341
 20
1124.6371964425
 10
1349.4422617498
 20
1126.0937968196
 10
1350.1794083679
 20
1127.3479165727
 10
1350.9794917225
 20
1128.3634769599
 10
1351.8194948722
 20
1129.1112621578
 10
1352.6752524556
 20
1129.5697597478
 10
1353.5221458853
 20
1129.7257795891
 10
1353.8326939943
 20
1129.705073015
  0
LWPOLYLINE
  5
22E
330
1F
100
AcDbEntity
  8
0
  6
Continuous
 62
     7
370
    25
100
AcDbPolyline
 90
       25
 70
   128
 43
0.0
 10
1339.2171436137
 20
1105.2190148416
 10
1338.8108204714
 20
1105.3020757378
 10
1337.8852423953
 20
1105.70966321
 10
1337.026718135
 20
1106.4065738374
 10
1336.2519578888
 20
1107.3792430474
 10
1335.5760414836
 20
1108.6087389402
 10
1335.0121248634
 20
1110.0711307769
 10
1334.5711840236
 20
1111.7379547637
 10
1334.2618013763
 20
1113.5767680677
 10
1334.0899987028
 20
1115.5517802796
 10
1334.0591199465
 20
1117.6245500332
 10
1334.1697661275
 20
1119.754733223
 10
1334.4197836436
 20
1121.9008682563
 10
1334.8043061884
 20
1124.0211830559
 10
1335.3158494677
 20
1126.0744081059
 10
1335.9444568737
 20
1128.0205797163
 10
1336.6778932781
 20
1129.8218178705
 10
1337.5018831757
 20
1131.4430635166
 10
1338.4003885403
 20
1132.8527609523
 10
1339.355920987
 20
1134.0234720205
 10
1340.3498821637
 20
1134.9324101619
 10
1341.3629257467
 20
1135.5618839295
 10
1342.375333995
 20
1135.8996413325
 10
1343.3674015336
 20
1135.9391083071
 10
1343.4434243591
 20
1135.9295757459
  0
LWPOLYLINE
  5
22F
330
1F
100
AcDbEntity
  8
0
  6
Continuous
 62
     7
370
    25
100
AcDbPolyline
 90
       21
 70
   128
 43
0.0
 10
1289.8702606378
 20
1078.6977381612
 10
1289.7683289748
 20
1078.7141986292
 10
1288.9801415348
 20
1079.0175496214
 10
1288.2597228403
 20
1079.6180706853
 10
1287.6277980254
 20
1080.4984859232
 10
1287.1025464166
 20
1081.6334673917
 10
1286.6990785462
 20
1082.9903637404
 10
1286.4290014503
 20
1084.5301395319
 10
1286.3000847553
 20
1086.2084982201
 10
1286.3160371597
 20
1087.9771564813
 10
1286.4763997419
 20
1089.7852332375
 10
1286.7765591624
 20
1091.5807134125
 10
1287.2078803811
 20
1093.3119443105
 10
1287.757955072
 20
1094.9291215708
 10
1288.4109585876
 20
1096.3857219479
 10
1289.1481052057
 20
1097.639841701
 10
1289.9481885603
 20
1098.6554020882
 10
1290.78819171
 20
1099.4031872861
 10
1291.6439492935
 20
1099.8616848761
 10
1292.4908427232
 20
1100.0177047174
 10
1292.8013908322
 20
1099.9969981433
  0
LWPOLYLINE
  5
230
330
1F
100
AcDbEntity
  8
0
  6
Continuous
 62
     7
370
    25
100
AcDbPolyline
 90
       25
 70
   128
 43
0.0
 10
1278.1858404515
 20
1075.5109399698
 10
1277.7795173092
 20
1075.5940008661
 10
1276.8539392331
 20
1076.0015883383
 10
1275.9954149728
 20
1076.6984989657
 10
1275.2206547266
 20
1077.6711681757
 10
1274.5447383214
 20
1078.9006640685
 10
1273.9808217012
 20
1080.3630559052
 10
1273.5398808615
 20
1082.0298798919
 10
1273.2304982142
 20
1083.868693196
 10
1273.0586955406
 20
1085.8437054079
 10
1273.0278167844
 20
1087.9164751615
 10
1273.1384629653
 20
1090.0466583513
 10
1273.3884804815
 20
1092.1927933846
 10
1273.7730030262
 20
1094.3131081842
 10
1274.2845463056
 20
1096.3663332342
 10
1274.9131537115
 20
1098.3125048446
 10
1275.646590116
 20
1100.1137429988
 10
1276.4705800135
 20
1101.7349886449
 10
1277.3690853781
 20
1103.1446860806
 10
1278.3246178248
 20
1104.3153971488
 10
1279.3185790015
 20
1105.2243352902
 10
1280.3316225845
 20
1105.8538090578
 10
1281.3440308328
 20
1106.1915664608
 10
1282.3360983714
 20
1106.2310334354
 10
1282.4121211969
 20
1106.2215008742
  0
LWPOLYLINE
  5
231
330
1F
100
AcDbEntity
  8
0
  6
Continuous
 62
     7
370
    25
100
AcDbPolyline
 90
       20
 70
   128
 43
0.0
 10
330.476811446
 20
-1556.4671713937
 10
330.5638817669
 20
-1556.1137691124
 10
330.9480190475
 20
-1555.6524492107
 10
331.6278584709
 20
-1555.2145673829
 10
332.5838422945
 20
-1554.8127206918
 10
333.7884686045
 20
-1554.4584695352
 10
335.207082495
 20
-1554.1620050738
 10
336.7988730273
 20
-1553.9318560504
 10
338.5180472861
 20
-1553.7746434334
 10
340.3151477579
 20
-1553.6948899436
 10
342.1384751341
 20
-1553.6948899436
 10
343.9355756059
 20
-1553.7746434334
 10
345.6547498646
 20
-1553.9318560504
 10
347.2465403969
 20
-1554.1620050738
 10
348.6651542875
 20
-1554.4584695352
 10
349.8697805974
 20
-1554.8127206918
 10
350.8257644211
 20
-1555.2145673829
 10
351.5056038444
 20
-1555.6524492107
 10
351.889741125
 20
-1556.1137691124
 10
351.976811446
 20
-1556.4671713937
  0
LWPOLYLINE
  5
232
330
1F
100
AcDbEntity
  8
0
  6
Continuous
 62
     7
370
    25
100
AcDbPolyline
 90
       24
 70
   128
 43
0.0
 10
325.726811446
 20
-1544.3930985651
 10
325.8117220678
 20
-1543.9737622308
 10
326.1872276887
 20
-1543.422581658
 10
326.8554617002
 20
-1542.8902910928
 10
327.8034176873
 20
-1542.3872509656
 10
329.0126447651
 20
-1541.9232523803
 10
330.4596067039
 20
-1541.5073265416
 10
332.1161400354
 20
-1541.1475689728
 10
333.9500022228
 20
-1540.8509819458
 10
335.9254992244
 20
-1540.6233381897
 10
338.0041802383
 20
-1540.4690685312
 10
340.1455861029
 20
-1540.3911756539
 10
342.308036789
 20
-1540.3911756539
 10
344.4494426536
 20
-1540.4690685312
 10
346.5281236675
 20
-1540.6233381897
 10
348.5036206691
 20
-1540.8509819458
 10
350.3374828565
 20
-1541.1475689728
 10
351.9940161881
 20
-1541.5073265416
 10
353.4409781269
 20
-1541.9232523803
 10
354.6502052046
 20
-1542.3872509656
 10
355.5981611918
 20
-1542.8902910928
 10
356.2663952032
 20
-1543.422581658
 10
356.6419008242
 20
-1543.9737622308
 10
356.726811446
 20
-1544.3930985651
  0
LWPOLYLINE
  5
233
330
1F
100
AcDbEntity
  8
0
  6
Continuous
 62
     7
370
    25
100
AcDbPolyline
 90
       20
 70
   128
 43
0.0
 10
-1004.4729805889
 20
1129.705073015
 10
-1003.9785496133
 20
1129.7178086112
 10
-1003.1276037043
 20
1129.4947045014
 10
-1002.2732001993
 20
1128.9712818456
 10
-1001.4399187315
 20
1128.1625985607
 10
-1000.6517312915
 20
1127.0919189923
 10
-999.931312597
 20
1125.7900446423
 10
-999.2993877822
 20
1124.2944280654
 10
-998.7741361733
 20
1122.6480954274
 10
-998.3706683029
 20
1120.8984087209
 10
-998.100591207
 20
1119.0957032468
 10
-997.971674512
 20
1117.2918395594
 10
-997.9876269164
 20
1115.5387115327
 10
-998.1479894986
 20
1113.8867534681
 10
-998.4481489191
 20
1112.3834891914
 10
-998.8794701378
 20
1111.0721648788
 10
-999.4295448287
 20
1109.9905049434
 10
-1000.0825483443
 20
1109.1696267721
 10
-1000.8196949625
 20
1108.6331455352
 10
-1001.5418503945
 20
1108.4058130329
  0
LWPOLYLINE
  5
234
330
1F
100
AcDbEntity
  8
0
  6
Continuous
 62
     7
370
    25
100
AcDbPolyline
 90
       24
 70
   128
 43
0.0
 10
-994.0837109537
 20
1135.9295757459
 10
-993.4515606093
 20
1135.9536889755
 10
-992.4456077789
 20
1135.7454423042
 10
-991.4304088898
 20
1135.2419065133
 10
-990.4257236336
 20
1134.4528823541
 10
-989.451107066
 20
1133.3937272845
 10
-988.5255289898
 20
1132.0850565531
 10
-987.6670047296
 20
1130.552341947
 10
-986.8922444834
 20
1128.8254160127
 10
-986.2163280782
 20
1126.9378913991
 10
-985.6524114579
 20
1124.9265066258
 10
-985.2114706182
 20
1122.8304110095
 10
-984.9020879709
 20
1120.6904026671
 10
-984.7302852973
 20
1118.5481344267
 10
-984.6994065411
 20
1116.4453031029
 10
-984.8100527221
 20
1114.4228379154
 10
-985.0600702382
 20
1112.5201038486
 10
-985.4445927829
 20
1110.7741354568
 10
-985.9561360623
 20
1109.2189160287
 10
-986.5847434683
 20
1107.8847161414
 10
-987.3181798727
 20
1106.7975044782
 10
-988.1421697702
 20
1105.9784423773
 10
-989.0406751348
 20
1105.4434719508
 10
-989.8574302083
 20
1105.2190148416
  0
LWPOLYLINE
  5
235
330
1F
100
AcDbEntity
  8
0
  6
Continuous
 62
     7
370
    25
100
AcDbPolyline
 90
       20
 70
   128
 43
0.0
 10
238.9298567027
 20
-1511.9050590862
 10
239.0169270237
 20
-1511.5516568049
 10
239.4010643043
 20
-1511.0903369032
 10
240.0809037276
 20
-1510.6524550753
 10
241.0368875513
 20
-1510.2506083842
 10
242.2415138612
 20
-1509.8963572276
 10
243.6601277517
 20
-1509.5998927662
 10
245.2519182841
 20
-1509.3697437428
 10
246.9710925428
 20
-1509.2125311258
 10
248.7681930146
 20
-1509.132777636
 10
250.5915203908
 20
-1509.132777636
 10
252.3886208626
 20
-1509.2125311258
 10
254.1077951213
 20
-1509.3697437428
 10
255.6995856537
 20
-1509.5998927662
 10
257.1181995442
 20
-1509.8963572276
 10
258.3228258542
 20
-1510.2506083842
 10
259.2788096778
 20
-1510.6524550753
 10
259.9586491012
 20
-1511.0903369032
 10
260.3427863818
 20
-1511.5516568049
 10
260.4298567027
 20
-1511.9050590862
  0
LWPOLYLINE
  5
236
330
1F
100
AcDbEntity
  8
0
  6
Continuous
 62
     7
370
    25
100
AcDbPolyline
 90
       24
 70
   128
 43
0.0
 10
234.1798567027
 20
-1499.8309862575
 10
234.2647673245
 20
-1499.4116499233
 10
234.6402729454
 20
-1498.8604693504
 10
235.3085069569
 20
-1498.3281787852
 10
236.2564629441
 20
-1497.825138658
 10
237.4656900218
 20
-1497.3611400727
 10
238.9126519606
 20
-1496.945214234
 10
240.5691852922
 20
-1496.5854566652
 10
242.4030474795
 20
-1496.2888696382
 10
244.3785444812
 20
-1496.0612258821
 10
246.457225495
 20
-1495.9069562237
 10
248.5986313597
 20
-1495.8290633463
 10
250.7610820458
 20
-1495.8290633463
 10
252.9024879104
 20
-1495.9069562237
 10
254.9811689243
 20
-1496.0612258821
 10
256.9566659259
 20
-1496.2888696382
 10
258.7905281133
 20
-1496.5854566652
 10
260.4470614448
 20
-1496.945214234
 10
261.8940233836
 20
-1497.3611400727
 10
263.1032504614
 20
-1497.825138658
 10
264.0512064485
 20
-1498.3281787852
 10
264.71944046
 20
-1498.8604693504
 10
265.0949460809
 20
-1499.4116499233
 10
265.1798567027
 20
-1499.8309862575
  0
LWPOLYLINE
  5
237
330
1F
100
AcDbEntity
  8
0
  6
Continuous
 62
     7
370
    25
100
AcDbPolyline
 90
       20
 70
   128
 43
0.0
 10
-943.4416774267
 20
1099.9969981433
 10
-942.9472464511
 20
1100.0097337395
 10
-942.0963005422
 20
1099.7866296297
 10
-941.2418970372
 20
1099.2632069739
 10
-940.4086155694
 20
1098.454523689
 10
-939.6204281294
 20
1097.3838441206
 10
-938.9000094349
 20
1096.0819697706
 10
-938.26808462
 20
1094.5863531937
 10
-937.7428330111
 20
1092.9400205557
 10
-937.3393651407
 20
1091.1903338492
 10
-937.0692880449
 20
1089.3876283751
 10
-936.9403713498
 20
1087.5837646877
 10
-936.9563237542
 20
1085.830636661
 10
-937.1166863364
 20
1084.1786785964
 10
-937.4168457569
 20
1082.6754143196
 10
-937.8481669757
 20
1081.3640900071
 10
-938.3982416665
 20
1080.2824300717
 10
-939.0512451821
 20
1079.4615519003
 10
-939.7883918003
 20
1078.9250706635
 10
-940.5105472323
 20
1078.6977381612
  0
LWPOLYLINE
  5
238
330
1F
100
AcDbEntity
  8
0
  6
Continuous
 62
     7
370
    25
100
AcDbPolyline
 90
       24
 70
   128
 43
0.0
 10
-933.0524077915
 20
1106.2215008742
 10
-932.4202574471
 20
1106.2456141038
 10
-931.4143046167
 20
1106.0373674325
 10
-930.3991057276
 20
1105.5338316416
 10
-929.3944204714
 20
1104.7448074824
 10
-928.4198039038
 20
1103.6856524128
 10
-927.4942258276
 20
1102.3769816813
 10
-926.6357015674
 20
1100.8442670753
 10
-925.8609413212
 20
1099.117341141
 10
-925.185024916
 20
1097.2298165274
 10
-924.6211082958
 20
1095.2184317541
 10
-924.180167456
 20
1093.1223361378
 10
-923.8707848087
 20
1090.9823277954
 10
-923.6989821352
 20
1088.840059555
 10
-923.6681033789
 20
1086.7372282312
 10
-923.7787495599
 20
1084.7147630437
 10
-924.028767076
 20
1082.8120289769
 10
-924.4132896208
 20
1081.0660605851
 10
-924.9248329001
 20
1079.510841157
 10
-925.5534403061
 20
1078.1766412697
 10
-926.2868767105
 20
1077.0894296064
 10
-927.1108666081
 20
1076.2703675055
 10
-928.0093719726
 20
1075.7353970791
 10
-928.8261270461
 20
1075.5109399698
  0
LWPOLYLINE
  5
239
330
1F
100
AcDbEntity
  8
0
  6
Continuous
 62
     7
370
    25
100
AcDbPolyline
 90
       11
 70
   128
 43
0.0
 10
8.1329019595
 20
-1553.6848666589
 10
9.9496607779
 20
-1553.7248875796
 10
11.714154753
 20
-1553.8437990128
 10
13.3756226055
 20
-1554.0381800931
 10
14.8862669304
 20
-1554.3024388306
 10
16.2026292409
 20
-1554.6289729826
 10
17.2868401901
 20
-1555.0083887562
 10
18.1077090029
 20
-1555.4297710502
 10
18.6416207782
 20
-1555.8809974633
 10
18.8732158462
 20
-1556.3490870331
 10
18.8829019595
 20
-1556.4671713937
  0
LWPOLYLINE
  5
23A
330
1F
100
AcDbEntity
  8
0
  6
Continuous
 62
     7
370
    25
100
AcDbPolyline
 90
       11
 70
   128
 43
0.0
 10
-2.6170980405
 20
-1556.4671713937
 10
-2.6074119272
 20
-1556.3490870331
 10
-2.3758168592
 20
-1555.8809974633
 10
-1.841905084
 20
-1555.4297710502
 10
-1.0210362712
 20
-1555.0083887562
 10
0.063174678
 20
-1554.6289729826
 10
1.3795369885
 20
-1554.3024388306
 10
2.8901813135
 20
-1554.0381800931
 10
4.551649166
 20
-1553.8437990128
 10
6.316143141
 20
-1553.7248875796
 10
8.1329019595
 20
-1553.6848666589
  0
LWPOLYLINE
  5
23B
330
1F
100
AcDbEntity
  8
0
  6
Continuous
 62
     7
370
    25
100
AcDbPolyline
 90
       13
 70
   128
 43
0.0
 10
8.1329019595
 20
-1540.381403366
 10
10.2900850244
 20
-1540.4204449079
 10
12.4052809746
 20
-1540.5368096344
 10
14.4373199271
 20
-1540.7282326385
 10
16.3466505551
 20
-1540.9909880892
 10
18.0961099096
 20
-1541.3199617504
 10
19.6516467544
 20
-1541.708750524
 10
20.9829843341
 20
-1542.1497870789
 10
22.0642096771
 20
-1542.6344871401
 10
22.874277962
 20
-1543.1534165723
 10
23.3974221312
 20
-1543.6964750044
 10
23.6234597783
 20
-1544.2530924217
 10
23.6329019595
 20
-1544.3930985651
  0
LWPOLYLINE
  5
23C
330
1F
100
AcDbEntity
  8
0
  6
Continuous
 62
     7
370
    25
100
AcDbPolyline
 90
       13
 70
   128
 43
0.0
 10
-7.3670980405
 20
-1544.3930985651
 10
-7.3576558593
 20
-1544.2530924217
 10
-7.1316182122
 20
-1543.6964750044
 10
-6.6084740431
 20
-1543.1534165723
 10
-5.7984057582
 20
-1542.6344871401
 10
-4.7171804151
 20
-1542.1497870789
 10
-3.3858428354
 20
-1541.708750524
 10
-1.8303059907
 20
-1541.3199617504
 10
-0.0808466361
 20
-1540.9909880892
 10
1.8284839918
 20
-1540.7282326385
 10
3.8605229443
 20
-1540.5368096344
 10
5.9757188946
 20
-1540.4204449079
 10
8.1329019595
 20
-1540.381403366
  0
LWPOLYLINE
  5
23D
330
1F
100
AcDbEntity
  8
0
  6
Continuous
 62
     7
370
    25
100
AcDbPolyline
 90
       11
 70
   128
 43
0.0
 10
341.226811446
 20
712.9768664535
 10
339.4100526275
 20
713.0168873742
 10
337.6455586525
 20
713.1357988074
 10
335.9840908
 20
713.3301798877
 10
334.473446475
 20
713.5944386252
 10
333.1570841645
 20
713.9209727772
 10
332.0728732153
 20
714.3003885508
 10
331.2520044025
 20
714.7217708448
 10
330.7180926273
 20
715.1729972579
 10
330.4864975593
 20
715.6410868277
 10
330.476811446
 20
715.7591711883
  0
LWPOLYLINE
  5
23E
330
1F
100
AcDbEntity
  8
0
  6
Continuous
 62
     7
370
    25
100
AcDbPolyline
 90
       11
 70
   128
 43
0.0
 10
351.976811446
 20
715.7591711883
 10
351.9671253327
 20
715.6410868277
 10
351.7355302647
 20
715.1729972579
 10
351.2016184894
 20
714.7217708448
 10
350.3807496766
 20
714.3003885508
 10
349.2965387274
 20
713.9209727772
 10
347.9801764169
 20
713.5944386252
 10
346.469532092
 20
713.3301798877
 10
344.8080642394
 20
713.1357988074
 10
343.0435702644
 20
713.0168873742
 10
341.226811446
 20
712.9768664535
  0
LWPOLYLINE
  5
23F
330
1F
100
AcDbEntity
  8
0
  6
Continuous
 62
     7
370
    25
100
AcDbPolyline
 90
       13
 70
   128
 43
0.0
 10
341.226811446
 20
699.6734031606
 10
339.0696283811
 20
699.7124447025
 10
336.9544324308
 20
699.8288094291
 10
334.9223934783
 20
700.0202324331
 10
333.0130628503
 20
700.2829878838
 10
331.2636034958
 20
700.611961545
 10
329.7080666511
 20
701.0007503186
 10
328.3767290714
 20
701.4417868735
 10
327.2955037283
 20
701.9264869347
 10
326.4854354434
 20
702.4454163669
 10
325.9622912743
 20
702.988474799
 10
325.7362536272
 20
703.5450922163
 10
325.726811446
 20
703.6850983597
  0
LWPOLYLINE
  5
240
330
1F
100
AcDbEntity
  8
0
  6
Continuous
 62
     7
370
    25
100
AcDbPolyline
 90
       13
 70
   128
 43
0.0
 10
356.726811446
 20
703.6850983597
 10
356.7173692648
 20
703.5450922163
 10
356.4913316177
 20
702.988474799
 10
355.9681874485
 20
702.4454163669
 10
355.1581191636
 20
701.9264869347
 10
354.0768938206
 20
701.4417868735
 10
352.7455562409
 20
701.0007503186
 10
351.1900193961
 20
700.611961545
 10
349.4405600416
 20
700.2829878838
 10
347.5312294136
 20
700.0202324331
 10
345.4991904611
 20
699.8288094291
 10
343.3839945108
 20
699.7124447025
 10
341.226811446
 20
699.6734031606
  0
LWPOLYLINE
  5
241
330
1F
100
AcDbEntity
  8
0
  6
Continuous
 62
     7
370
    25
100
AcDbPolyline
 90
       11
 70
   128
 43
0.0
 10
99.6798567027
 20
-1509.1227543513
 10
101.4966155212
 20
-1509.162775272
 10
103.2611094962
 20
-1509.2816867053
 10
104.9225773487
 20
-1509.4760677855
 10
106.4332216736
 20
-1509.740326523
 10
107.7495839842
 20
-1510.0668606751
 10
108.8337949334
 20
-1510.4462764486
 10
109.6546637462
 20
-1510.8676587426
 10
110.1885755214
 20
-1511.3188851557
 10
110.4201705894
 20
-1511.7869747255
 10
110.4298567027
 20
-1511.9050590862
  0
LWPOLYLINE
  5
242
330
1F
100
AcDbEntity
  8
0
  6
Continuous
 62
     7
370
    25
100
AcDbPolyline
 90
       11
 70
   128
 43
0.0
 10
88.9298567027
 20
-1511.9050590862
 10
88.939542816
 20
-1511.7869747255
 10
89.171137884
 20
-1511.3188851557
 10
89.7050496593
 20
-1510.8676587426
 10
90.5259184721
 20
-1510.4462764486
 10
91.6101294213
 20
-1510.0668606751
 10
92.9264917318
 20
-1509.740326523
 10
94.4371360567
 20
-1509.4760677855
 10
96.0986039092
 20
-1509.2816867053
 10
97.8630978843
 20
-1509.162775272
 10
99.6798567027
 20
-1509.1227543513
  0
LWPOLYLINE
  5
243
330
1F
100
AcDbEntity
  8
0
  6
Continuous
 62
     7
370
    25
100
AcDbPolyline
 90
       13
 70
   128
 43
0.0
 10
99.6798567027
 20
-1495.8192910585
 10
101.8370397676
 20
-1495.8583326004
 10
103.9522357179
 20
-1495.9746973269
 10
105.9842746704
 20
-1496.166120331
 10
107.8936052983
 20
-1496.4288757816
 10
109.6430646529
 20
-1496.7578494428
 10
111.1986014976
 20
-1497.1466382164
 10
112.5299390773
 20
-1497.5876747713
 10
113.6111644204
 20
-1498.0723748325
 10
114.4212327053
 20
-1498.5913042648
 10
114.9443768744
 20
-1499.1343626969
 10
115.1704145215
 20
-1499.6909801142
 10
115.1798567027
 20
-1499.8309862575
  0
LWPOLYLINE
  5
244
330
1F
100
AcDbEntity
  8
0
  6
Continuous
 62
     7
370
    25
100
AcDbPolyline
 90
       13
 70
   128
 43
0.0
 10
84.1798567027
 20
-1499.8309862575
 10
84.1892988839
 20
-1499.6909801142
 10
84.415336531
 20
-1499.1343626969
 10
84.9384807001
 20
-1498.5913042648
 10
85.7485489851
 20
-1498.0723748325
 10
86.8297743281
 20
-1497.5876747713
 10
88.1611119078
 20
-1497.1466382164
 10
89.7166487526
 20
-1496.7578494428
 10
91.4661081071
 20
-1496.4288757816
 10
93.375438735
 20
-1496.166120331
 10
95.4074776876
 20
-1495.9746973269
 10
97.5226736378
 20
-1495.8583326004
 10
99.6798567027
 20
-1495.8192910585
  0
LWPOLYLINE
  5
245
330
1F
100
AcDbEntity
  8
0
  6
Continuous
 62
     7
370
    25
100
AcDbPolyline
 90
       21
 70
   128
 43
0.0
 10
-1001.5418503945
 20
-1949.1138132383
 10
-1001.4399187315
 20
-1949.1302737063
 10
-1000.6517312916
 20
-1949.4336246985
 10
-999.931312597
 20
-1950.0341457624
 10
-999.2993877822
 20
-1950.9145610003
 10
-998.7741361733
 20
-1952.0495424688
 10
-998.3706683029
 20
-1953.4064388175
 10
-998.100591207
 20
-1954.946214609
 10
-997.971674512
 20
-1956.6245732972
 10
-997.9876269164
 20
-1958.3932315584
 10
-998.1479894986
 20
-1960.2013083146
 10
-998.4481489191
 20
-1961.9967884896
 10
-998.8794701379
 20
-1963.7280193876
 10
-999.4295448287
 20
-1965.3451966479
 10
-1000.0825483443
 20
-1966.801797025
 10
-1000.8196949625
 20
-1968.0559167781
 10
-1001.6197783171
 20
-1969.0714771653
 10
-1002.4597814667
 20
-1969.8192623632
 10
-1003.3155390502
 20
-1970.2777599532
 10
-1004.1624324799
 20
-1970.4337797945
 10
-1004.4729805889
 20
-1970.4130732204
  0
LWPOLYLINE
  5
246
330
1F
100
AcDbEntity
  8
0
  6
Continuous
 62
     7
370
    25
100
AcDbPolyline
 90
       25
 70
   128
 43
0.0
 10
-989.8574302083
 20
-1945.9270150469
 10
-989.451107066
 20
-1946.0100759432
 10
-988.5255289898
 20
-1946.4176634154
 10
-987.6670047296
 20
-1947.1145740428
 10
-986.8922444834
 20
-1948.0872432528
 10
-986.2163280782
 20
-1949.3167391456
 10
-985.6524114579
 20
-1950.7791309823
 10
-985.2114706182
 20
-1952.445954969
 10
-984.9020879709
 20
-1954.2847682731
 10
-984.7302852973
 20
-1956.259780485
 10
-984.6994065411
 20
-1958.3325502386
 10
-984.8100527221
 20
-1960.4627334284
 10
-985.0600702382
 20
-1962.6088684617
 10
-985.4445927829
 20
-1964.7291832613
 10
-985.9561360623
 20
-1966.7824083113
 10
-986.5847434683
 20
-1968.7285799217
 10
-987.3181798727
 20
-1970.5298180759
 10
-988.1421697702
 20
-1972.151063722
 10
-989.0406751348
 20
-1973.5607611577
 10
-989.9962075816
 20
-1974.7314722259
 10
-990.9901687583
 20
-1975.6404103673
 10
-992.0032123413
 20
-1976.2698841349
 10
-993.0156205895
 20
-1976.6076415379
 10
-994.0076881281
 20
-1976.6471085125
 10
-994.0837109537
 20
-1976.6375759513
  0
LWPOLYLINE
  5
247
330
1F
100
AcDbEntity
  8
0
  6
Continuous
 62
     7
370
    25
100
AcDbPolyline
 90
       20
 70
   128
 43
0.0
 10
18.8829019595
 20
715.7591711883
 10
18.7958316385
 20
715.405768907
 10
18.4116943579
 20
714.9444490053
 10
17.7318549346
 20
714.5065671775
 10
16.7758711109
 20
714.1047204864
 10
15.571244801
 20
713.7504693298
 10
14.1526309105
 20
713.4540048684
 10
12.5608403781
 20
713.223855845
 10
10.8416661194
 20
713.066643228
 10
9.0445656476
 20
712.9868897382
 10
7.2212382714
 20
712.9868897382
 10
5.4241377996
 20
713.066643228
 10
3.7049635409
 20
713.223855845
 10
2.1131730085
 20
713.4540048684
 10
0.694559118
 20
713.7504693298
 10
-0.510067192
 20
714.1047204864
 10
-1.4660510156
 20
714.5065671775
 10
-2.145890439
 20
714.9444490053
 10
-2.5300277196
 20
715.405768907
 10
-2.6170980405
 20
715.7591711883
  0
LWPOLYLINE
  5
248
330
1F
100
AcDbEntity
  8
0
  6
Continuous
 62
     7
370
    25
100
AcDbPolyline
 90
       24
 70
   128
 43
0.0
 10
23.6329019595
 20
703.6850983597
 10
23.5479913377
 20
703.2657620255
 10
23.1724857168
 20
702.7145814526
 10
22.5042517053
 20
702.1822908874
 10
21.5562957181
 20
701.6792507602
 10
20.3470686404
 20
701.2152521749
 10
18.9001067016
 20
700.7993263362
 10
17.24357337
 20
700.4395687674
 10
15.4097111827
 20
700.1429817404
 10
13.434214181
 20
699.9153379843
 10
11.3555331672
 20
699.7610683259
 10
9.2141273025
 20
699.6831754485
 10
7.0516766164
 20
699.6831754485
 10
4.9102707518
 20
699.7610683259
 10
2.8315897379
 20
699.9153379843
 10
0.8560927363
 20
700.1429817404
 10
-0.9777694511
 20
700.4395687674
 10
-2.6343027826
 20
700.7993263362
 10
-4.0812647214
 20
701.2152521749
 10
-5.2904917992
 20
701.6792507602
 10
-6.2384477863
 20
702.1822908874
 10
-6.9066817978
 20
702.7145814526
 10
-7.2821874187
 20
703.2657620255
 10
-7.3670980405
 20
703.6850983597
  0
LWPOLYLINE
  5
249
330
1F
100
AcDbEntity
  8
0
  6
Continuous
 62
     7
370
    25
100
AcDbPolyline
 90
       20
 70
   128
 43
0.0
 10
1292.8013908322
 20
-1940.7049983487
 10
1292.3069598566
 20
-1940.7177339449
 10
1291.4560139476
 20
-1940.4946298351
 10
1290.6016104426
 20
-1939.9712071793
 10
1289.7683289748
 20
-1939.1625238944
 10
1288.9801415348
 20
-1938.091844326
 10
1288.2597228403
 20
-1936.789969976
 10
1287.6277980254
 20
-1935.2943533991
 10
1287.1025464166
 20
-1933.6480207611
 10
1286.6990785462
 20
-1931.8983340546
 10
1286.4290014503
 20
-1930.0956285805
 10
1286.3000847553
 20
-1928.2917648931
 10
1286.3160371597
 20
-1926.5386368664
 10
1286.4763997419
 20
-1924.8866788017
 10
1286.7765591624
 20
-1923.383414525
 10
1287.2078803811
 20
-1922.0720902125
 10
1287.757955072
 20
-1920.9904302771
 10
1288.4109585876
 20
-1920.1695521057
 10
1289.1481052057
 20
-1919.6330708689
 10
1289.8702606378
 20
-1919.4057383666
  0
LWPOLYLINE
  5
24A
330
1F
100
AcDbEntity
  8
0
  6
Continuous
 62
     7
370
    25
100
AcDbPolyline
 90
       24
 70
   128
 43
0.0
 10
1282.4121211969
 20
-1946.9295010796
 10
1281.7799708526
 20
-1946.9536143092
 10
1280.7740180222
 20
-1946.7453676379
 10
1279.7588191331
 20
-1946.241831847
 10
1278.7541338769
 20
-1945.4528076878
 10
1277.7795173092
 20
-1944.3936526182
 10
1276.8539392331
 20
-1943.0849818867
 10
1275.9954149728
 20
-1941.5522672807
 10
1275.2206547266
 20
-1939.8253413464
 10
1274.5447383214
 20
-1937.9378167328
 10
1273.9808217012
 20
-1935.9264319595
 10
1273.5398808615
 20
-1933.8303363432
 10
1273.2304982142
 20
-1931.6903280008
 10
1273.0586955406
 20
-1929.5480597604
 10
1273.0278167844
 20
-1927.4452284366
 10
1273.1384629653
 20
-1925.4227632491
 10
1273.3884804815
 20
-1923.5200291823
 10
1273.7730030262
 20
-1921.7740607905
 10
1274.2845463056
 20
-1920.2188413623
 10
1274.9131537115
 20
-1918.8846414751
 10
1275.646590116
 20
-1917.7974298118
 10
1276.4705800135
 20
-1916.9783677109
 10
1277.3690853781
 20
-1916.4433972845
 10
1278.1858404515
 20
-1916.2189401752
  0
LWPOLYLINE
  5
24B
330
1F
100
AcDbEntity
  8
0
  6
Continuous
 62
     7
370
    25
100
AcDbPolyline
 90
       11
 70
   128
 43
0.0
 10
249.6798567027
 20
668.4147541459
 10
247.8630978843
 20
668.4547750667
 10
246.0986039092
 20
668.5736864999
 10
244.4371360567
 20
668.7680675801
 10
242.9264917318
 20
669.0323263176
 10
241.6101294212
 20
669.3588604697
 10
240.5259184721
 20
669.7382762432
 10
239.7050496593
 20
670.1596585372
 10
239.171137884
 20
670.6108849503
 10
238.939542816
 20
671.0789745202
 10
238.9298567027
 20
671.1970588808
  0
LWPOLYLINE
  5
24C
330
1F
100
AcDbEntity
  8
0
  6
Continuous
 62
     7
370
    25
100
AcDbPolyline
 90
       11
 70
   128
 43
0.0
 10
260.4298567027
 20
671.1970588808
 10
260.4201705894
 20
671.0789745202
 10
260.1885755214
 20
670.6108849503
 10
259.6546637462
 20
670.1596585372
 10
258.8337949333
 20
669.7382762432
 10
257.7495839842
 20
669.3588604697
 10
256.4332216736
 20
669.0323263176
 10
254.9225773487
 20
668.7680675801
 10
253.2611094962
 20
668.5736864999
 10
251.4966155212
 20
668.4547750667
 10
249.6798567027
 20
668.4147541459
  0
LWPOLYLINE
  5
24D
330
1F
100
AcDbEntity
  8
0
  6
Continuous
 62
     7
370
    25
100
AcDbPolyline
 90
       13
 70
   128
 43
0.0
 10
249.6798567027
 20
655.1112908531
 10
247.5226736378
 20
655.150332395
 10
245.4074776876
 20
655.2666971215
 10
243.375438735
 20
655.4581201256
 10
241.4661081071
 20
655.7208755762
 10
239.7166487526
 20
656.0498492374
 10
238.1611119078
 20
656.4386380111
 10
236.8297743281
 20
656.8796745659
 10
235.7485489851
 20
657.3643746272
 10
234.9384807001
 20
657.8833040594
 10
234.415336531
 20
658.4263624915
 10
234.1892988839
 20
658.9829799088
 10
234.1798567027
 20
659.1229860522
  0
LWPOLYLINE
  5
24E
330
1F
100
AcDbEntity
  8
0
  6
Continuous
 62
     7
370
    25
100
AcDbPolyline
 90
       13
 70
   128
 43
0.0
 10
265.1798567027
 20
659.1229860522
 10
265.1704145215
 20
658.9829799088
 10
264.9443768744
 20
658.4263624915
 10
264.4212327053
 20
657.8833040594
 10
263.6111644204
 20
657.3643746272
 10
262.5299390773
 20
656.8796745659
 10
261.1986014976
 20
656.4386380111
 10
259.6430646529
 20
656.0498492374
 10
257.8936052983
 20
655.7208755762
 10
255.9842746704
 20
655.4581201256
 10
253.9522357179
 20
655.2666971215
 10
251.8370397676
 20
655.150332395
 10
249.6798567027
 20
655.1112908531
  0
LWPOLYLINE
  5
24F
330
1F
100
AcDbEntity
  8
0
  6
Continuous
 62
     7
370
    25
100
AcDbPolyline
 90
       20
 70
   128
 43
0.0
 10
1353.8326939943
 20
-1970.4130732204
 10
1353.3382630187
 20
-1970.4258088166
 10
1352.4873171098
 20
-1970.2027047068
 10
1351.6329136048
 20
-1969.679282051
 10
1350.799632137
 20
-1968.8705987661
 10
1350.011444697
 20
-1967.7999191977
 10
1349.2910260025
 20
-1966.4980448477
 10
1348.6591011876
 20
-1965.0024282708
 10
1348.1338495787
 20
-1963.3560956328
 10
1347.7303817083
 20
-1961.6064089263
 10
1347.4603046125
 20
-1959.8037034522
 10
1347.3313879174
 20
-1957.9998397648
 10
1347.3473403218
 20
-1956.2467117381
 10
1347.507702904
 20
-1954.5947536735
 10
1347.8078623245
 20
-1953.0914893967
 10
1348.2391835433
 20
-1951.7801650842
 10
1348.7892582341
 20
-1950.6985051488
 10
1349.4422617498
 20
-1949.8776269774
 10
1350.1794083679
 20
-1949.3411457406
 10
1350.9015638
 20
-1949.1138132383
  0
LWPOLYLINE
  5
250
330
1F
100
AcDbEntity
  8
0
  6
Continuous
 62
     7
370
    25
100
AcDbPolyline
 90
       24
 70
   128
 43
0.0
 10
1343.4434243591
 20
-1976.6375759513
 10
1342.8112740147
 20
-1976.6616891809
 10
1341.8053211843
 20
-1976.4534425096
 10
1340.7901222952
 20
-1975.9499067187
 10
1339.785437039
 20
-1975.1608825595
 10
1338.8108204714
 20
-1974.1017274899
 10
1337.8852423953
 20
-1972.7930567584
 10
1337.026718135
 20
-1971.2603421524
 10
1336.2519578888
 20
-1969.5334162181
 10
1335.5760414836
 20
-1967.6458916045
 10
1335.0121248634
 20
-1965.6345068312
 10
1334.5711840236
 20
-1963.5384112149
 10
1334.2618013763
 20
-1961.3984028725
 10
1334.0899987028
 20
-1959.2561346321
 10
1334.0591199465
 20
-1957.1533033083
 10
1334.1697661275
 20
-1955.1308381208
 10
1334.4197836436
 20
-1953.228104054
 10
1334.8043061884
 20
-1951.4821356622
 10
1335.3158494677
 20
-1949.9269162341
 10
1335.9444568737
 20
-1948.5927163468
 10
1336.6778932781
 20
-1947.5055046835
 10
1337.5018831757
 20
-1946.6864425826
 10
1338.4003885403
 20
-1946.1514721562
 10
1339.2171436137
 20
-1945.9270150469
  0
LWPOLYLINE
  5
251
330
1F
100
AcDbEntity
  8
0
  6
Continuous
 62
     7
370
    25
100
AcDbPolyline
 90
       20
 70
   128
 43
0.0
 10
110.4298567027
 20
671.1970588808
 10
110.3427863818
 20
670.8436565995
 10
109.9586491012
 20
670.3823366978
 10
109.2788096778
 20
669.9444548699
 10
108.3228258542
 20
669.5426081788
 10
107.1181995442
 20
669.1883570222
 10
105.6995856537
 20
668.8918925608
 10
104.1077951213
 20
668.6617435374
 10
102.3886208626
 20
668.5045309204
 10
100.5915203908
 20
668.4247774306
 10
98.7681930146
 20
668.4247774306
 10
96.9710925428
 20
668.5045309204
 10
95.2519182841
 20
668.6617435374
 10
93.6601277517
 20
668.8918925608
 10
92.2415138612
 20
669.1883570222
 10
91.0368875513
 20
669.5426081788
 10
90.0809037276
 20
669.9444548699
 10
89.4010643043
 20
670.3823366978
 10
89.0169270237
 20
670.8436565995
 10
88.9298567027
 20
671.1970588808
  0
LWPOLYLINE
  5
252
330
1F
100
AcDbEntity
  8
0
  6
Continuous
 62
     7
370
    25
100
AcDbPolyline
 90
       24
 70
   128
 43
0.0
 10
115.1798567027
 20
659.1229860522
 10
115.0949460809
 20
658.7036497179
 10
114.71944046
 20
658.152469145
 10
114.0512064485
 20
657.6201785798
 10
113.1032504614
 20
657.1171384526
 10
111.8940233836
 20
656.6531398673
 10
110.4470614448
 20
656.2372140286
 10
108.7905281133
 20
655.8774564598
 10
106.9566659259
 20
655.5808694328
 10
104.9811689243
 20
655.3532256767
 10
102.9024879104
 20
655.1989560183
 10
100.7610820458
 20
655.1210631409
 10
98.5986313597
 20
655.1210631409
 10
96.457225495
 20
655.1989560183
 10
94.3785444812
 20
655.3532256767
 10
92.4030474795
 20
655.5808694328
 10
90.5691852922
 20
655.8774564598
 10
88.9126519606
 20
656.2372140286
 10
87.4656900218
 20
656.6531398673
 10
86.2564629441
 20
657.1171384526
 10
85.3085069569
 20
657.6201785798
 10
84.6402729454
 20
658.152469145
 10
84.2647673245
 20
658.7036497179
 10
84.1798567027
 20
659.1229860522
  0
LWPOLYLINE
  5
253
330
1F
100
AcDbEntity
  8
0
  6
Continuous
 62
     7
370
    25
100
AcDbPolyline
 90
       21
 70
   128
 43
0.0
 10
-940.5105472323
 20
-1919.4057383666
 10
-940.4086155694
 20
-1919.4221988346
 10
-939.6204281294
 20
-1919.7255498268
 10
-938.9000094349
 20
-1920.3260708907
 10
-938.26808462
 20
-1921.2064861286
 10
-937.7428330111
 20
-1922.3414675971
 10
-937.3393651407
 20
-1923.6983639458
 10
-937.0692880449
 20
-1925.2381397373
 10
-936.9403713498
 20
-1926.9164984255
 10
-936.9563237542
 20
-1928.6851566867
 10
-937.1166863364
 20
-1930.4932334429
 10
-937.4168457569
 20
-1932.2887136179
 10
-937.8481669757
 20
-1934.0199445159
 10
-938.3982416665
 20
-1935.6371217762
 10
-939.0512451821
 20
-1937.0937221533
 10
-939.7883918003
 20
-1938.3478419064
 10
-940.5884751549
 20
-1939.3634022936
 10
-941.4284783046
 20
-1940.1111874915
 10
-942.284235888
 20
-1940.5696850815
 10
-943.1311293177
 20
-1940.7257049228
 10
-943.4416774267
 20
-1940.7049983487
  0
LWPOLYLINE
  5
254
330
1F
100
AcDbEntity
  8
0
  6
Continuous
 62
     7
370
    25
100
AcDbPolyline
 90
       25
 70
   128
 43
0.0
 10
-928.8261270461
 20
-1916.2189401752
 10
-928.4198039038
 20
-1916.3020010715
 10
-927.4942258276
 20
-1916.7095885437
 10
-926.6357015674
 20
-1917.4064991711
 10
-925.8609413212
 20
-1918.3791683811
 10
-925.185024916
 20
-1919.6086642739
 10
-924.6211082958
 20
-1921.0710561106
 10
-924.180167456
 20
-1922.7378800973
 10
-923.8707848087
 20
-1924.5766934014
 10
-923.6989821352
 20
-1926.5517056132
 10
-923.6681033789
 20
-1928.6244753669
 10
-923.7787495599
 20
-1930.7546585567
 10
-924.028767076
 20
-1932.90079359
 10
-924.4132896208
 20
-1935.0211083895
 10
-924.9248329001
 20
-1937.0743334396
 10
-925.5534403061
 20
-1939.02050505
 10
-926.2868767105
 20
-1940.8217432042
 10
-927.1108666081
 20
-1942.4429888503
 10
-928.0093719726
 20
-1943.852686286
 10
-928.9649044194
 20
-1945.0233973541
 10
-929.9588655961
 20
-1945.9323354956
 10
-930.9719091791
 20
-1946.5618092632
 10
-931.9843174274
 20
-1946.8995666661
 10
-932.976384966
 20
-1946.9390336408
 10
-933.0524077915
 20
-1946.9295010796
  0
ARC
  5
255
330
1F
100
AcDbEntity
  8
0
  6
Continuous
 62
     7
370
    25
100
AcDbCircle
 10
244.3204686528
 20
665.9899496494
 30
0.0
 40
8.448168086823902
100
AcDbArc
 50
102.1007584238
 51
121.528200653
  0
ARC
  5
256
330
1F
100
AcDbEntity
  8
0
  6
Continuous
 62
     7
370
    25
100
AcDbCircle
 10
255.5922336865
 20
667.4655417111
 30
0.0
 40
6.893323123689806
100
AcDbArc
 50
54.2544491196
 51
79.822709079
  0
LWPOLYLINE
  5
257
330
1F
100
AcDbEntity
  8
0
  6
Continuous
 62
     7
370
    25
100
AcDbPolyline
 90
       13
 70
   128
 43
0.0
 10
1354.2858534708
 20
-1950.2344049724
 10
1354.4936199145
 20
-1950.4262347877
 10
1355.2776088632
 20
-1951.3349168479
 10
1356.0070280533
 20
-1952.4820594439
 10
1356.6608934226
 20
-1953.8346613718
 10
1357.220394455
 20
-1955.353810737
 10
1357.6694353244
 20
-1956.9958043779
 10
1357.9950979427
 20
-1958.7134051273
 10
1358.1880135893
 20
-1960.4572007386
 10
1358.2426324321
 20
-1962.1770253872
 10
1358.1573831866
 20
-1963.8234028491
 10
1357.9347183184
 20
-1965.3489698424
 10
1357.5810434902
 20
-1966.7098385821
  0
LINE
  5
258
330
1F
100
AcDbEntity
  8
0
  6
Continuous
 62
     7
370
    25
100
AcDbLine
 10
1354.5257516528
 20
-1970.3103741598
 30
0.0
 11
1354.349350795
 21
-1970.3419727056
 31
0.0
  0
LWPOLYLINE
  5
259
330
1F
100
AcDbEntity
  8
0
  6
Continuous
 62
     7
370
    25
100
AcDbPolyline
 90
        3
 70
   128
 43
0.0
 10
1351.4182206006
 20
-1949.0427127236
 10
1351.4961485232
 20
-1949.033394512
 10
1351.571990177
 20
-1949.0270010268
  0
ARC
  5
25A
330
1F
100
AcDbEntity
  8
0
  6
Continuous
 62
     7
370
    25
100
AcDbCircle
 10
14.1630516359
 20
712.462945332
 30
0.0
 40
6.444189053491711
100
AcDbArc
 50
50.7243820263
 51
80.1695163673
  0
ARC
  5
25B
330
1F
100
AcDbEntity
  8
0
  6
Continuous
 62
     7
370
    25
100
AcDbCircle
 10
8.1727544927
 20
747.9213275872
 30
0.0
 40
33.76677808304772
100
AcDbArc
 50
257.6757034056
 51
280.6520930602
  0
ARC
  5
25C
330
1F
100
AcDbEntity
  8
0
  6
Continuous
 62
     7
370
    25
100
AcDbCircle
 10
2.3340537369
 20
711.7324971946
 30
0.0
 40
7.204142246984585
100
AcDbArc
 50
100.651224535
 51
124.76171537
  0
ARC
  5
25D
330
1F
100
AcDbEntity
  8
0
  6
Continuous
 62
     7
370
    25
100
AcDbCircle
 10
-931.0407357592
 20
-1931.8303612283
 30
0.0
 40
16.87956112135858
100
AcDbArc
 50
163.0848013568
 51
202.8270606487
  0
LINE
  5
25E
330
1F
100
AcDbEntity
  8
0
  6
Continuous
 62
     7
370
    25
100
AcDbLine
 10
-943.9583342274
 20
-1940.6338978339
 30
0.0
 11
-944.1856703269
 21
-1940.5904077464
 31
0.0
  0
LWPOLYLINE
  5
25F
330
1F
100
AcDbEntity
  8
0
  6
Continuous
 62
     7
370
    25
100
AcDbPolyline
 90
       13
 70
   128
 43
0.0
 10
1293.2545503087
 20
-1920.5263301006
 10
1293.4623167524
 20
-1920.718159916
 10
1294.2463057011
 20
-1921.6268419762
 10
1294.9757248911
 20
-1922.7739845722
 10
1295.6295902604
 20
-1924.1265865001
 10
1296.1890912928
 20
-1925.6457358653
 10
1296.6381321623
 20
-1927.2877295062
 10
1296.9637947806
 20
-1929.0053302556
 10
1297.1567104271
 20
-1930.7491258669
 10
1297.21132927
 20
-1932.4689505155
 10
1297.1260800244
 20
-1934.1153279774
 10
1296.9034151562
 20
-1935.6408949707
 10
1296.549740328
 20
-1937.0017637104
  0
LINE
  5
260
330
1F
100
AcDbEntity
  8
0
  6
Continuous
 62
     7
370
    25
100
AcDbLine
 10
1293.4944484906
 20
-1940.6022992881
 30
0.0
 11
1293.3180476328
 21
-1940.6338978339
 31
0.0
  0
LWPOLYLINE
  5
261
330
1F
100
AcDbEntity
  8
0
  6
Continuous
 62
     7
370
    25
100
AcDbPolyline
 90
        3
 70
   128
 43
0.0
 10
1290.3869174385
 20
-1919.3346378518
 10
1290.464845361
 20
-1919.3253196402
 10
1290.5406870148
 20
-1919.3189261551
  0
ARC
  5
262
330
1F
100
AcDbEntity
  8
0
  6
Continuous
 62
     7
370
    25
100
AcDbCircle
 10
1341.4317523268
 20
1120.8304358947
 30
0.0
 40
16.87956112136038
100
AcDbArc
 50
343.0848013568
 51
22.8270606487
  0
LINE
  5
263
330
1F
100
AcDbEntity
  8
0
  6
Continuous
 62
     7
370
    25
100
AcDbLine
 10
1354.349350795
 20
1129.6339725002
 30
0.0
 11
1354.5766868945
 21
1129.5904824127
 31
0.0
  0
ARC
  5
264
330
1F
100
AcDbEntity
  8
0
  6
Continuous
 62
     7
370
    25
100
AcDbCircle
 10
243.6497070263
 20
-1508.6088332298
 30
0.0
 40
6.444189053493849
100
AcDbArc
 50
230.7243820263
 51
260.1695163673
  0
ARC
  5
265
330
1F
100
AcDbEntity
  8
0
  6
Continuous
 62
     7
370
    25
100
AcDbCircle
 10
249.6400041695
 20
-1544.067215485
 30
0.0
 40
33.76677808305626
100
AcDbArc
 50
77.6757034056
 51
100.6520930602
  0
ARC
  5
266
330
1F
100
AcDbEntity
  8
0
  6
Continuous
 62
     7
370
    25
100
AcDbCircle
 10
255.4787049253
 20
-1507.8783850924
 30
0.0
 40
7.204142246990191
100
AcDbArc
 50
280.651224535
 51
304.76171537
  0
LWPOLYLINE
  5
267
330
1F
100
AcDbEntity
  8
0
  6
Continuous
 62
     7
370
    25
100
AcDbPolyline
 90
       13
 70
   128
 43
0.0
 10
-1004.9261400654
 20
1109.526404767
 10
-1005.1339065091
 20
1109.7182345823
 10
-1005.9178954578
 20
1110.6269166425
 10
-1006.6473146478
 20
1111.7740592385
 10
-1007.3011800171
 20
1113.1266611665
 10
-1007.8606810495
 20
1114.6458105316
 10
-1008.309721919
 20
1116.2878041726
 10
-1008.6353845373
 20
1118.0054049219
 10
-1008.8283001838
 20
1119.7492005332
 10
-1008.8829190267
 20
1121.4690251818
 10
-1008.7976697812
 20
1123.1154026437
 10
-1008.5750049129
 20
1124.640969637
 10
-1008.2213300847
 20
1126.0018383768
  0
LINE
  5
268
330
1F
100
AcDbEntity
  8
0
  6
Continuous
 62
     7
370
    25
100
AcDbLine
 10
-1005.1660382474
 20
1129.6023739545
 30
0.0
 11
-1004.9896373896
 21
1129.6339725002
 31
0.0
  0
LWPOLYLINE
  5
269
330
1F
100
AcDbEntity
  8
0
  6
Continuous
 62
     7
370
    25
100
AcDbPolyline
 90
        3
 70
   128
 43
0.0
 10
-1002.0585071952
 20
1108.3347125182
 10
-1002.1364351177
 20
1108.3253943066
 10
-1002.2122767715
 20
1108.3190008214
  0
ARC
  5
26A
330
1F
100
AcDbEntity
  8
0
  6
Continuous
 62
     7
370
    25
100
AcDbCircle
 10
335.1966617695
 20
-1553.1709455374
 30
0.0
 40
6.44418905348523
100
AcDbArc
 50
230.7243820263
 51
260.1695163673
  0
ARC
  5
26B
330
1F
100
AcDbEntity
  8
0
  6
Continuous
 62
     7
370
    25
100
AcDbCircle
 10
341.1869589127
 20
-1588.6293277926
 30
0.0
 40
33.76677808305514
100
AcDbArc
 50
77.6757034056
 51
100.6520930602
  0
ARC
  5
26C
330
1F
100
AcDbEntity
  8
0
  6
Continuous
 62
     7
370
    25
100
AcDbCircle
 10
347.0256596685
 20
-1552.4404974
 30
0.0
 40
7.204142246975248
100
AcDbArc
 50
280.651224535
 51
304.7617153701
  0
ARC
  5
26D
330
1F
100
AcDbEntity
  8
0
  6
Continuous
 62
     7
370
    25
100
AcDbCircle
 10
105.7100063792
 20
667.9008330244
 30
0.0
 40
6.444189053495005
100
AcDbArc
 50
50.7243820263
 51
80.1695163673
  0
ARC
  5
26E
330
1F
100
AcDbEntity
  8
0
  6
Continuous
 62
     7
370
    25
100
AcDbCircle
 10
99.719709236
 20
703.3592152797
 30
0.0
 40
33.76677808305429
100
AcDbArc
 50
257.6757034056
 51
280.6520930602
  0
ARC
  5
26F
330
1F
100
AcDbEntity
  8
0
  6
Continuous
 62
     7
370
    25
100
AcDbCircle
 10
93.8810084802
 20
667.170384887
 30
0.0
 40
7.204142246987394
100
AcDbArc
 50
100.651224535
 51
124.76171537
  0
ARC
  5
270
330
1F
100
AcDbEntity
  8
0
  6
Continuous
 62
     7
370
    25
100
AcDbCircle
 10
13.4922900094
 20
-1551.2600621625
 30
0.0
 40
8.448168086712673
100
AcDbArc
 50
282.1007584237
 51
301.5282006532
  0
ARC
  5
271
330
1F
100
AcDbEntity
  8
0
  6
Continuous
 62
     7
370
    25
100
AcDbCircle
 10
2.2205249756
 20
-1552.7356542241
 30
0.0
 40
6.893323123614414
100
AcDbArc
 50
234.2544491194
 51
259.8227090791
  0
ARC
  5
272
330
1F
100
AcDbEntity
  8
0
  6
Continuous
 62
     7
370
    25
100
AcDbCircle
 10
335.867423396
 20
710.552061957
 30
0.0
 40
8.448168086820605
100
AcDbArc
 50
102.1007584238
 51
121.528200653
  0
ARC
  5
273
330
1F
100
AcDbEntity
  8
0
  6
Continuous
 62
     7
370
    25
100
AcDbCircle
 10
347.1391884298
 20
712.0276540187
 30
0.0
 40
6.893323123684216
100
AcDbArc
 50
54.2544491196
 51
79.822709079
  0
ARC
  5
274
330
1F
100
AcDbEntity
  8
0
  6
Continuous
 62
     7
370
    25
100
AcDbCircle
 10
1280.4004491646
 20
1091.1223610229
 30
0.0
 40
16.87956112136125
100
AcDbArc
 50
343.0848013568
 51
22.8270606487
  0
LINE
  5
275
330
1F
100
AcDbEntity
  8
0
  6
Continuous
 62
     7
370
    25
100
AcDbLine
 10
1293.3180476328
 20
1099.9258976285
 30
0.0
 11
1293.5453837323
 21
1099.882407541
 31
0.0
  0
LWPOLYLINE
  5
276
330
1F
100
AcDbEntity
  8
0
  6
Continuous
 62
     7
370
    25
100
AcDbPolyline
 90
       13
 70
   128
 43
0.0
 10
-943.8948369032
 20
1079.8183298953
 10
-944.1026033469
 20
1080.0101597106
 10
-944.8865922956
 20
1080.9188417708
 10
-945.6160114857
 20
1082.0659843668
 10
-946.269876855
 20
1083.4185862947
 10
-946.8293778874
 20
1084.9377356599
 10
-947.2784187568
 20
1086.5797293008
 10
-947.6040813751
 20
1088.2973300502
 10
-947.7969970217
 20
1090.0411256615
 10
-947.8516158645
 20
1091.7609503101
 10
-947.766366619
 20
1093.407327772
 10
-947.5437017507
 20
1094.9328947653
 10
-947.1900269226
 20
1096.293763505
  0
LINE
  5
277
330
1F
100
AcDbEntity
  8
0
  6
Continuous
 62
     7
370
    25
100
AcDbLine
 10
-944.1347350852
 20
1099.8942990827
 30
0.0
 11
-943.9583342274
 21
1099.9258976285
 31
0.0
  0
LWPOLYLINE
  5
278
330
1F
100
AcDbEntity
  8
0
  6
Continuous
 62
     7
370
    25
100
AcDbPolyline
 90
        3
 70
   128
 43
0.0
 10
-941.027204033
 20
1078.6266376465
 10
-941.1051319556
 20
1078.6173194349
 10
-941.1809736093
 20
1078.6109259497
  0
ARC
  5
279
330
1F
100
AcDbEntity
  8
0
  6
Continuous
 62
     7
370
    25
100
AcDbCircle
 10
-992.0720389214
 20
-1961.5384361
 30
0.0
 40
16.87956112135669
100
AcDbArc
 50
163.0848013568
 51
202.8270606487
  0
LINE
  5
27A
330
1F
100
AcDbEntity
  8
0
  6
Continuous
 62
     7
370
    25
100
AcDbLine
 10
-1004.9896373896
 20
-1970.3419727056
 30
0.0
 11
-1005.216973489
 21
-1970.2984826181
 31
0.0
  0
ARC
  5
27B
330
1F
100
AcDbEntity
  8
0
  6
Continuous
 62
     7
370
    25
100
AcDbCircle
 10
105.0392447526
 20
-1506.6979498548
 30
0.0
 40
8.448168086856901
100
AcDbArc
 50
282.1007584239
 51
301.528200653
  0
ARC
  5
27C
330
1F
100
AcDbEntity
  8
0
  6
Continuous
 62
     7
370
    25
100
AcDbCircle
 10
93.7674797189
 20
-1508.1735419164
 30
0.0
 40
6.893323123726695
100
AcDbArc
 50
234.2544491196
 51
259.8227090789
  0
ARC
  5
27D
330
1F
100
AcDbEntity
  8
0
  6
Continuous
 62
     7
370
    25
100
AcDbCircle
 10
91.3327207837
 20
-1478.2131289143
 30
0.0
 40
2.641643134328349
100
AcDbArc
 50
172.4734689148
 51
265.6766276121
  0
ARC
  5
27E
330
1F
100
AcDbEntity
  8
0
  6
Continuous
 62
     7
370
    25
100
AcDbCircle
 10
-271.2765240302
 20
-1436.6892843504
 30
0.0
 40
362.3377895380883
100
AcDbArc
 50
353.4745310397
 51
6.5254689603
  0
ARC
  5
27F
330
1F
100
AcDbEntity
  8
0
  6
Continuous
 62
     7
370
    25
100
AcDbCircle
 10
90.807182569
 20
-1395.2781677519
 30
0.0
 40
2.106304401741915
100
AcDbArc
 50
81.0854216515
 51
186.358966656
  0
ARC
  5
280
330
1F
100
AcDbEntity
  8
0
  6
Continuous
 62
     7
370
    25
100
AcDbCircle
 10
60.8965193895
 20
-1891.6137257125
 30
0.0
 40
499.3327615006373
100
AcDbArc
 50
77.800407669
 51
86.5283342352
  0
ARC
  5
281
330
1F
100
AcDbEntity
  8
0
  6
Continuous
 62
     7
370
    25
100
AcDbCircle
 10
165.3287211346
 20
-1406.9111852834
 30
0.0
 40
3.525340126458729
100
AcDbArc
 50
6.0873883582
 51
72.0627081686
  0
ARC
  5
282
330
1F
100
AcDbEntity
  8
0
  6
Continuous
 62
     7
370
    25
100
AcDbCircle
 10
-187.4985510973
 20
-1447.715168104
 30
0.0
 40
358.7040993621158
100
AcDbArc
 50
353.4081360002
 51
6.5918639998
  0
ARC
  5
283
330
1F
100
AcDbEntity
  8
0
  6
Continuous
 62
     7
370
    25
100
AcDbCircle
 10
166.5834041474
 20
-1488.9616677061
 30
0.0
 40
2.251826154754719
100
AcDbArc
 50
265.6968331354
 51
1.7475551721
  0
ARC
  5
284
330
1F
100
AcDbEntity
  8
0
  6
Continuous
 62
     7
370
    25
100
AcDbCircle
 10
62.30897516
 20
-1968.9999669531
 30
0.0
 40
489.0029936808884
100
AcDbArc
 50
77.7080382991
 51
86.6207036051
  0
LWPOLYLINE
  5
285
330
1F
100
AcDbEntity
  8
0
  6
Continuous
 62
     7
370
    25
100
AcDbPolyline
 90
       21
 70
   128
 43
0.0
 10
138.4218035731
 20
-1449.8511815926
 10
138.2282899999
 20
-1449.9422277747
 10
136.7459517079
 20
-1450.4495536152
 10
135.1768088942
 20
-1450.6683180052
 10
133.5636636843
 20
-1450.5925536223
 10
131.9505184744
 20
-1450.2243271213
 10
130.3813756607
 20
-1449.5736827614
 10
128.8990373687
 20
-1448.6583684246
 10
127.5439379228
 20
-1447.5033514999
 10
126.3530409034
 20
-1446.1401378381
 10
125.3588308768
 20
-1444.6059123543
 10
124.5884273007
 20
-1442.9425247202
 10
124.0628447766
 20
-1441.1953478145
 10
123.7964198254
 20
-1439.4120400685
 10
123.7964198254
 20
-1437.6412454687
 10
124.0628447766
 20
-1435.9312666759
 10
124.5884273007
 20
-1434.3287474538
 10
125.3588308768
 20
-1432.8774003494
 10
126.3530409034
 20
-1431.6168143283
 10
127.5439379228
 20
-1430.581374891
 10
128.7055237955
 20
-1429.8903723083
  0
ARC
  5
286
330
1F
100
AcDbEntity
  8
0
  6
Continuous
 62
     7
370
    25
100
AcDbCircle
 10
84.3657217194
 20
-1510.7728341706
 30
0.0
 40
33.19175533712205
100
AcDbArc
 50
82.4726254518
 51
87.8817257142
  0
ARC
  5
287
330
1F
100
AcDbEntity
  8
0
  6
Continuous
 62
     7
370
    25
100
AcDbCircle
 10
-265.4706655052
 20
-1437.0348755306
 30
0.0
 40
353.3995326784942
100
AcDbArc
 50
353.4081360002
 51
6.5918639998
  0
ARC
  5
288
330
1F
100
AcDbEntity
  8
0
  6
Continuous
 62
     7
370
    25
100
AcDbCircle
 10
88.4532255573
 20
-1400.2397119806
 30
0.0
 40
4.735432591584416
100
AcDbArc
 50
86.8451676244
 51
127.1638144353
  0
ARC
  5
289
330
1F
100
AcDbEntity
  8
0
  6
Continuous
 62
     7
370
    25
100
AcDbCircle
 10
163.2953297805
 20
-1490.9545228188
 30
0.0
 40
3.129324702200798
100
AcDbArc
 50
294.9705078518
 51
355.3696061008
  0
ARC
  5
28A
330
1F
100
AcDbEntity
  8
0
  6
Continuous
 62
     7
370
    25
100
AcDbCircle
 10
60.6588717968
 20
-1974.6304143478
 30
0.0
 40
491.9485583778851
100
AcDbArc
 50
77.800407669
 51
86.5283342352
  0
ARC
  5
28B
330
1F
100
AcDbEntity
  8
0
  6
Continuous
 62
     7
370
    25
100
AcDbCircle
 10
85.7725448347
 20
-1480.960468294
 30
0.0
 40
5.362229638869679
100
AcDbArc
 50
330.7000257738
 51
1.2097797374
  0
LINE
  5
28C
330
1F
100
AcDbEntity
  8
0
  6
Continuous
 62
     7
370
    25
100
AcDbLine
 10
77.4576516789
 20
-1400.4258073251
 30
0.0
 11
77.4576516789
 21
-1481.5635767334
 31
0.0
  0
LINE
  5
28D
330
1F
100
AcDbEntity
  8
0
  6
Continuous
 62
     7
370
    25
100
AcDbLine
 10
85.5925699542
 20
-1396.4659908264
 30
0.0
 11
77.4576516789
 21
-1400.4258073251
 31
0.0
  0
LINE
  5
28E
330
1F
100
AcDbEntity
  8
0
  6
Continuous
 62
     7
370
    25
100
AcDbLine
 10
85.5925699542
 20
-1477.6037602347
 30
0.0
 11
77.4576516789
 21
-1481.5635767334
 31
0.0
  0
ARC
  5
28F
330
1F
100
AcDbEntity
  8
0
  6
Continuous
 62
     7
370
    25
100
AcDbCircle
 10
91.2083389858
 20
-1478.0059643912
 30
0.0
 40
5.630153639050398
100
AcDbArc
 50
175.9034427919
 51
262.2466537349
  0
LINE
  5
290
330
1F
100
AcDbEntity
  8
0
  6
Continuous
 62
     7
370
    25
100
AcDbLine
 10
82.3138634397
 20
-1487.5444637767
 30
0.0
 11
156.4814612398
 21
-1497.7511510297
 31
0.0
  0
LINE
  5
291
330
1F
100
AcDbEntity
  8
0
  6
Continuous
 62
     7
370
    25
100
AcDbLine
 10
90.448781715
 20
-1483.584647278
 30
0.0
 11
82.3138634397
 21
-1487.5444637767
 31
0.0
  0
LINE
  5
292
330
1F
100
AcDbEntity
  8
0
  6
Continuous
 62
     7
370
    25
100
AcDbLine
 10
164.6163795151
 20
-1493.791334531
 30
0.0
 11
156.4814612398
 21
-1497.7511510297
 31
0.0
  0
ARC
  5
293
330
1F
100
AcDbEntity
  8
0
  6
Continuous
 62
     7
370
    25
100
AcDbCircle
 10
83.4666197905
 20
-1481.64652089
 30
0.0
 40
6.009540539773284
100
AcDbArc
 50
179.2091739834
 51
258.9409225434
  0
ARC
  5
294
330
1F
100
AcDbEntity
  8
0
  6
Continuous
 62
     7
370
    25
100
AcDbCircle
 10
82.0567502149
 20
-1400.2196542034
 30
0.0
 40
4.603716591346914
100
AcDbArc
 50
117.8416716875
 51
182.5665469741
  0
ARC
  5
295
330
1F
100
AcDbEntity
  8
0
  6
Continuous
 62
     7
370
    25
100
AcDbCircle
 10
157.0847949763
 20
-1493.6340349152
 30
0.0
 40
4.161088403011125
100
AcDbArc
 50
261.6630559474
 51
295.6902038184
  0
ARC
  5
296
330
1F
100
AcDbEntity
  8
0
  6
Continuous
 62
     7
370
    25
100
AcDbCircle
 10
258.5391438313
 20
-1395.292165593
 30
0.0
 40
2.118114625585681
100
AcDbArc
 50
354.0574619079
 51
98.4981497846
  0
ARC
  5
297
330
1F
100
AcDbEntity
  8
0
  6
Continuous
 62
     7
370
    25
100
AcDbCircle
 10
616.9786102485
 20
-1436.6892843504
 30
0.0
 40
358.7040993621234
100
AcDbArc
 50
173.4081360002
 51
186.5918639998
  0
ARC
  5
298
330
1F
100
AcDbEntity
  8
0
  6
Continuous
 62
     7
370
    25
100
AcDbCircle
 10
258.0237650034
 20
-1478.2105082331
 30
0.0
 40
2.64450139930936
100
AcDbArc
 50
274.388822644
 51
7.4610808291
  0
ARC
  5
299
330
1F
100
AcDbEntity
  8
0
  6
Continuous
 62
     7
370
    25
100
AcDbCircle
 10
288.4631940159
 20
-1979.2636743538
 30
0.0
 40
499.3327615006809
100
AcDbArc
 50
93.4716657648
 51
102.199592331
  0
LWPOLYLINE
  5
29A
330
1F
100
AcDbEntity
  8
0
  6
Continuous
 62
     7
370
    25
100
AcDbPolyline
 90
       18
 70
   128
 43
0.0
 10
180.5255304434
 20
-1488.8929963247
 10
180.5502004432
 20
-1489.0753717795
 10
180.6281687076
 20
-1489.4373515164
 10
180.6818289824
 20
-1489.6151483858
 10
180.7538284042
 20
-1489.8103728189
 10
180.8380063149
 20
-1489.998999562
 10
181.046646016
 20
-1490.3574504541
 10
181.2925086215
 20
-1490.6603194483
 10
181.4287693647
 20
-1490.7909281742
 10
181.5836277988
 20
-1490.9143293697
 10
181.7391681927
 20
-1491.0153144773
 10
181.9004394516
 20
-1491.0986644564
 10
182.0662233681
 20
-1491.1638849085
 10
182.2485063632
 20
-1491.2135106179
 10
182.4197066153
 20
-1491.2402431143
 10
182.5916638621
 20
-1491.2484081496
 10
182.7632120658
 20
-1491.2381763018
 10
182.945272429
 20
-1491.2071459354
  0
ARC
  5
29B
330
1F
100
AcDbEntity
  8
0
  6
Continuous
 62
     7
370
    25
100
AcDbCircle
 10
540.5158916898
 20
-1447.715168104
 30
0.0
 40
362.3377895380722
100
AcDbArc
 50
173.4745310397
 51
186.5254689603
  0
ARC
  5
29C
330
1F
100
AcDbEntity
  8
0
  6
Continuous
 62
     7
370
    25
100
AcDbCircle
 10
184.0454853243
 20
-1406.9229529921
 30
0.0
 40
3.541013955543523
100
AcDbArc
 50
108.101758863
 51
173.7481446102
  0
ARC
  5
29D
330
1F
100
AcDbEntity
  8
0
  6
Continuous
 62
     7
370
    25
100
AcDbCircle
 10
287.0507382454
 20
-1881.3500183117
 30
0.0
 40
489.0029936808543
100
AcDbArc
 50
93.3792963949
 51
102.2919617009
  0
ARC
  5
29E
330
1F
100
AcDbEntity
  8
0
  6
Continuous
 62
     7
370
    25
100
AcDbCircle
 10
214.5755717892
 20
-1442.3020799302
 30
0.0
 40
8.379828185708767
100
AcDbArc
 50
244.2721235657
 51
278.3746166685
  0
LWPOLYLINE
  5
29F
330
1F
100
AcDbEntity
  8
0
  6
Continuous
 62
     7
370
    25
100
AcDbPolyline
 90
       17
 70
   128
 43
0.0
 10
220.6541896099
 20
-1429.8903723083
 10
221.8157754827
 20
-1430.581374891
 10
223.006672502
 20
-1431.6168143283
 10
224.0008825287
 20
-1432.8774003494
 10
224.7712861047
 20
-1434.3287474538
 10
225.2968686289
 20
-1435.9312666759
 10
225.56329358
 20
-1437.6412454687
 10
225.56329358
 20
-1439.4120400685
 10
225.2968686289
 20
-1441.1953478145
 10
224.7712861047
 20
-1442.9425247202
 10
224.0008825287
 20
-1444.6059123543
 10
223.006672502
 20
-1446.1401378381
 10
221.8157754827
 20
-1447.5033514999
 10
220.4606760367
 20
-1448.6583684246
 10
218.9783377447
 20
-1449.5736827614
 10
217.409194931
 20
-1450.2243271213
 10
215.7960497211
 20
-1450.5925536223
  0
ARC
  5
2A0
330
1F
100
AcDbEntity
  8
0
  6
Continuous
 62
     7
370
    25
100
AcDbCircle
 10
260.9064878481
 20
-1400.2397119807
 30
0.0
 40
4.735432591588314
100
AcDbArc
 50
52.8361855647
 51
93.1548323756
  0
ARC
  5
2A1
330
1F
100
AcDbEntity
  8
0
  6
Continuous
 62
     7
370
    25
100
AcDbCircle
 10
618.4339165923
 20
-1437.0348755306
 30
0.0
 40
356.9794873329476
100
AcDbArc
 50
173.4745310397
 51
186.5254689603
  0
ARC
  5
2A2
330
1F
100
AcDbEntity
  8
0
  6
Continuous
 62
     7
370
    25
100
AcDbCircle
 10
264.993991686
 20
-1510.7728341709
 30
0.0
 40
33.19175533739779
100
AcDbArc
 50
92.1182742858
 51
97.5273745482
  0
ARC
  5
2A3
330
1F
100
AcDbEntity
  8
0
  6
Continuous
 62
     7
370
    25
100
AcDbCircle
 10
287.3092734328
 20
-1964.518488096
 30
0.0
 40
481.7715486178441
100
AcDbArc
 50
93.3792963949
 51
102.2919617009
  0
ARC
  5
2A4
330
1F
100
AcDbEntity
  8
0
  6
Continuous
 62
     7
370
    25
100
AcDbCircle
 10
186.0643836249
 20
-1490.9545228188
 30
0.0
 40
3.129324702199721
100
AcDbArc
 50
184.6303938992
 51
245.0294921483
  0
ARC
  5
2A5
330
1F
100
AcDbEntity
  8
0
  6
Continuous
 62
     7
370
    25
100
AcDbCircle
 10
263.5871685707
 20
-1480.960468294
 30
0.0
 40
5.362229638870565
100
AcDbArc
 50
178.7902202626
 51
209.2999742262
  0
LINE
  5
2A6
330
1F
100
AcDbEntity
  8
0
  6
Continuous
 62
     7
370
    25
100
AcDbLine
 10
271.9020617265
 20
-1481.5635767334
 30
0.0
 11
271.9020617265
 21
-1400.4258073251
 31
0.0
  0
LINE
  5
2A7
330
1F
100
AcDbEntity
  8
0
  6
Continuous
 62
     7
370
    25
100
AcDbLine
 10
263.7671434512
 20
-1477.6037602347
 30
0.0
 11
271.9020617265
 21
-1481.5635767334
 31
0.0
  0
LINE
  5
2A8
330
1F
100
AcDbEntity
  8
0
  6
Continuous
 62
     7
370
    25
100
AcDbLine
 10
263.7671434512
 20
-1396.4659908264
 30
0.0
 11
271.9020617265
 21
-1400.4258073251
 31
0.0
  0
ARC
  5
2A9
330
1F
100
AcDbEntity
  8
0
  6
Continuous
 62
     7
370
    25
100
AcDbCircle
 10
258.1730903219
 20
-1478.0235967288
 30
0.0
 40
5.609785476796398
100
AcDbArc
 50
277.5578728036
 51
4.2920306695
  0
LINE
  5
2AA
330
1F
100
AcDbEntity
  8
0
  6
Continuous
 62
     7
370
    25
100
AcDbLine
 10
192.8782521656
 20
-1497.7511510297
 30
0.0
 11
267.0458499658
 21
-1487.5444637767
 31
0.0
  0
LINE
  5
2AB
330
1F
100
AcDbEntity
  8
0
  6
Continuous
 62
     7
370
    25
100
AcDbLine
 10
184.7433338903
 20
-1493.791334531
 30
0.0
 11
192.8782521656
 21
-1497.7511510297
 31
0.0
  0
LINE
  5
2AC
330
1F
100
AcDbEntity
  8
0
  6
Continuous
 62
     7
370
    25
100
AcDbLine
 10
258.9109316905
 20
-1483.584647278
 30
0.0
 11
267.0458499658
 21
-1487.5444637767
 31
0.0
  0
ARC
  5
2AD
330
1F
100
AcDbEntity
  8
0
  6
Continuous
 62
     7
370
    25
100
AcDbCircle
 10
265.8930936149
 20
-1481.64652089
 30
0.0
 40
6.009540539773218
100
AcDbArc
 50
281.0590774566
 51
0.7908260166
  0
ARC
  5
2AE
330
1F
100
AcDbEntity
  8
0
  6
Continuous
 62
     7
370
    25
100
AcDbCircle
 10
267.3029631905
 20
-1400.2196542034
 30
0.0
 40
4.603716591347058
100
AcDbArc
 50
357.4334530258
 51
62.1583283125
  0
ARC
  5
2AF
330
1F
100
AcDbEntity
  8
0
  6
Continuous
 62
     7
370
    25
100
AcDbCircle
 10
192.2749184292
 20
-1493.6340349152
 30
0.0
 40
4.161088403016334
100
AcDbArc
 50
244.3097961816
 51
278.3369440526
  0
ARC
  5
2B0
330
1F
100
AcDbEntity
  8
0
  6
Continuous
 62
     7
370
    25
100
AcDbCircle
 10
90.8205695742
 20
554.5841653876
 30
0.0
 40
2.118114625585614
100
AcDbArc
 50
174.0574619079
 51
278.4981497846
  0
ARC
  5
2B1
330
1F
100
AcDbEntity
  8
0
  6
Continuous
 62
     7
370
    25
100
AcDbCircle
 10
-267.618896843
 20
595.981284145
 30
0.0
 40
358.7040993621248
100
AcDbArc
 50
353.4081360002
 51
6.5918639998
  0
ARC
  5
2B2
330
1F
100
AcDbEntity
  8
0
  6
Continuous
 62
     7
370
    25
100
AcDbCircle
 10
91.335948402
 20
637.5025080277
 30
0.0
 40
2.64450139930904
100
AcDbArc
 50
94.388822644
 51
187.4610808291
  0
ARC
  5
2B3
330
1F
100
AcDbEntity
  8
0
  6
Continuous
 62
     7
370
    25
100
AcDbCircle
 10
60.8965193895
 20
1138.5556741484
 30
0.0
 40
499.3327615006442
100
AcDbArc
 50
273.4716657648
 51
282.199592331
  0
LWPOLYLINE
  5
2B4
330
1F
100
AcDbEntity
  8
0
  6
Continuous
 62
     7
370
    25
100
AcDbPolyline
 90
       18
 70
   128
 43
0.0
 10
168.8341829621
 20
648.1849961193
 10
168.8095129623
 20
648.3673715741
 10
168.7315446978
 20
648.729351311
 10
168.677884423
 20
648.9071481804
 10
168.6058850013
 20
649.1023726135
 10
168.5217070906
 20
649.2909993566
 10
168.3130673895
 20
649.6494502487
 10
168.0672047839
 20
649.9523192429
 10
167.9309440407
 20
650.0829279688
 10
167.7760856066
 20
650.2063291643
 10
167.6205452127
 20
650.3073142719
 10
167.4592739538
 20
650.390664251
 10
167.2934900373
 20
650.4558847031
 10
167.1112070423
 20
650.5055104125
 10
166.9400067901
 20
650.5322429089
 10
166.7680495433
 20
650.5404079442
 10
166.5965013396
 20
650.5301760964
 10
166.4144409765
 20
650.49914573
  0
ARC
  5
2B5
330
1F
100
AcDbEntity
  8
0
  6
Continuous
 62
     7
370
    25
100
AcDbCircle
 10
-191.1561782844
 20
607.0071678986
 30
0.0
 40
362.3377895380784
100
AcDbArc
 50
353.4745310397
 51
6.5254689603
  0
ARC
  5
2B6
330
1F
100
AcDbEntity
  8
0
  6
Continuous
 62
     7
370
    25
100
AcDbCircle
 10
165.3142280812
 20
566.2149527867
 30
0.0
 40
3.541013955542936
100
AcDbArc
 50
288.101758863
 51
353.7481446102
  0
ARC
  5
2B7
330
1F
100
AcDbEntity
  8
0
  6
Continuous
 62
     7
370
    25
100
AcDbCircle
 10
62.30897516
 20
1040.6420181062
 30
0.0
 40
489.0029936807217
100
AcDbArc
 50
273.3792963949
 51
282.2919617009
  0
ARC
  5
2B8
330
1F
100
AcDbEntity
  8
0
  6
Continuous
 62
     7
370
    25
100
AcDbCircle
 10
134.7841416163
 20
601.5940797248
 30
0.0
 40
8.379828185698086
100
AcDbArc
 50
64.2721235657
 51
98.3746166685
  0
LWPOLYLINE
  5
2B9
330
1F
100
AcDbEntity
  8
0
  6
Continuous
 62
     7
370
    25
100
AcDbPolyline
 90
       17
 70
   128
 43
0.0
 10
128.7055237955
 20
589.182372103
 10
127.5439379228
 20
589.8733746856
 10
126.3530409034
 20
590.9088141229
 10
125.3588308768
 20
592.169400144
 10
124.5884273007
 20
593.6207472484
 10
124.0628447766
 20
595.2232664705
 10
123.7964198254
 20
596.9332452633
 10
123.7964198254
 20
598.7040398631
 10
124.0628447766
 20
600.4873476091
 10
124.5884273007
 20
602.2345245148
 10
125.3588308768
 20
603.8979121489
 10
126.3530409034
 20
605.4321376327
 10
127.5439379228
 20
606.7953512945
 10
128.8990373687
 20
607.9503682192
 10
130.3813756607
 20
608.865682556
 10
131.9505184744
 20
609.516326916
 10
133.5636636843
 20
609.8845534169
  0
ARC
  5
2BA
330
1F
100
AcDbEntity
  8
0
  6
Continuous
 62
     7
370
    25
100
AcDbCircle
 10
88.4532255573
 20
559.5317117753
 30
0.0
 40
4.735432591587029
100
AcDbArc
 50
232.8361855647
 51
273.1548323756
  0
ARC
  5
2BB
330
1F
100
AcDbEntity
  8
0
  6
Continuous
 62
     7
370
    25
100
AcDbCircle
 10
-269.0742031869
 20
596.3268753252
 30
0.0
 40
356.9794873329428
100
AcDbArc
 50
353.4745310397
 51
6.5254689603
  0
ARC
  5
2BC
330
1F
100
AcDbEntity
  8
0
  6
Continuous
 62
     7
370
    25
100
AcDbCircle
 10
84.3657217194
 20
670.0648339657
 30
0.0
 40
33.19175533756921
100
AcDbArc
 50
272.1182742858
 51
277.5273745482
  0
ARC
  5
2BD
330
1F
100
AcDbEntity
  8
0
  6
Continuous
 62
     7
370
    25
100
AcDbCircle
 10
62.0504399726
 20
1123.8104878906
 30
0.0
 40
481.7715486178355
100
AcDbArc
 50
273.3792963949
 51
282.2919617009
  0
ARC
  5
2BE
330
1F
100
AcDbEntity
  8
0
  6
Continuous
 62
     7
370
    25
100
AcDbCircle
 10
163.2953297805
 20
650.2465226134
 30
0.0
 40
3.129324702199708
100
AcDbArc
 50
4.6303938992
 51
65.0294921483
  0
ARC
  5
2BF
330
1F
100
AcDbEntity
  8
0
  6
Continuous
 62
     7
370
    25
100
AcDbCircle
 10
85.7725448347
 20
640.2524680886
 30
0.0
 40
5.362229638870077
100
AcDbArc
 50
358.7902202626
 51
29.2999742262
  0
LINE
  5
2C0
330
1F
100
AcDbEntity
  8
0
  6
Continuous
 62
     7
370
    25
100
AcDbLine
 10
77.4576516789
 20
640.855576528
 30
0.0
 11
77.4576516789
 21
559.7178071197
 31
0.0
  0
LINE
  5
2C1
330
1F
100
AcDbEntity
  8
0
  6
Continuous
 62
     7
370
    25
100
AcDbLine
 10
85.5925699542
 20
636.8957600293
 30
0.0
 11
77.4576516789
 21
640.855576528
 31
0.0
  0
LINE
  5
2C2
330
1F
100
AcDbEntity
  8
0
  6
Continuous
 62
     7
370
    25
100
AcDbLine
 10
85.5925699542
 20
555.757990621
 30
0.0
 11
77.4576516789
 21
559.7178071197
 31
0.0
  0
ARC
  5
2C3
330
1F
100
AcDbEntity
  8
0
  6
Continuous
 62
     7
370
    25
100
AcDbCircle
 10
91.1866230836
 20
637.3155965234
 30
0.0
 40
5.609785476796245
100
AcDbArc
 50
97.5578728036
 51
184.2920306695
  0
LINE
  5
2C4
330
1F
100
AcDbEntity
  8
0
  6
Continuous
 62
     7
370
    25
100
AcDbLine
 10
156.4814612398
 20
657.0431508243
 30
0.0
 11
82.3138634397
 21
646.8364635713
 31
0.0
  0
LINE
  5
2C5
330
1F
100
AcDbEntity
  8
0
  6
Continuous
 62
     7
370
    25
100
AcDbLine
 10
164.6163795151
 20
653.0833343256
 30
0.0
 11
156.4814612398
 21
657.0431508243
 31
0.0
  0
LINE
  5
2C6
330
1F
100
AcDbEntity
  8
0
  6
Continuous
 62
     7
370
    25
100
AcDbLine
 10
90.448781715
 20
642.8766470726
 30
0.0
 11
82.3138634397
 21
646.8364635713
 31
0.0
  0
ARC
  5
2C7
330
1F
100
AcDbEntity
  8
0
  6
Continuous
 62
     7
370
    25
100
AcDbCircle
 10
83.4666197905
 20
640.9385206846
 30
0.0
 40
6.009540539773218
100
AcDbArc
 50
101.0590774566
 51
180.7908260166
  0
ARC
  5
2C8
330
1F
100
AcDbEntity
  8
0
  6
Continuous
 62
     7
370
    25
100
AcDbCircle
 10
82.0567502149
 20
559.5116539981
 30
0.0
 40
4.603716591348157
100
AcDbArc
 50
177.4334530259
 51
242.1583283125
  0
ARC
  5
2C9
330
1F
100
AcDbEntity
  8
0
  6
Continuous
 62
     7
370
    25
100
AcDbCircle
 10
157.0847949763
 20
652.9260347098
 30
0.0
 40
4.161088403016326
100
AcDbArc
 50
64.3097961816
 51
98.3369440526
  0
ARC
  5
2CA
330
1F
100
AcDbEntity
  8
0
  6
Continuous
 62
     7
370
    25
100
AcDbCircle
 10
258.0269926218
 20
637.5051287089
 30
0.0
 40
2.641643134328724
100
AcDbArc
 50
352.4734689148
 51
85.6766276121
  0
ARC
  5
2CB
330
1F
100
AcDbEntity
  8
0
  6
Continuous
 62
     7
370
    25
100
AcDbCircle
 10
620.6362374356
 20
595.981284145
 30
0.0
 40
362.3377895380845
100
AcDbArc
 50
173.4745310397
 51
186.5254689603
  0
ARC
  5
2CC
330
1F
100
AcDbEntity
  8
0
  6
Continuous
 62
     7
370
    25
100
AcDbCircle
 10
258.5525308364
 20
554.5701675465
 30
0.0
 40
2.106304401741778
100
AcDbArc
 50
261.0854216515
 51
6.358966656
  0
ARC
  5
2CD
330
1F
100
AcDbEntity
  8
0
  6
Continuous
 62
     7
370
    25
100
AcDbCircle
 10
288.4631940159
 20
1050.9057255072
 30
0.0
 40
499.332761500674
100
AcDbArc
 50
257.800407669
 51
266.5283342352
  0
ARC
  5
2CE
330
1F
100
AcDbEntity
  8
0
  6
Continuous
 62
     7
370
    25
100
AcDbCircle
 10
184.0309922708
 20
566.203185078
 30
0.0
 40
3.525340126458721
100
AcDbArc
 50
186.0873883583
 51
252.0627081686
  0
ARC
  5
2CF
330
1F
100
AcDbEntity
  8
0
  6
Continuous
 62
     7
370
    25
100
AcDbCircle
 10
536.8582645027
 20
607.0071678986
 30
0.0
 40
358.7040993621225
100
AcDbArc
 50
173.4081360002
 51
186.5918639998
  0
ARC
  5
2D0
330
1F
100
AcDbEntity
  8
0
  6
Continuous
 62
     7
370
    25
100
AcDbCircle
 10
182.776309258
 20
648.2536675008
 30
0.0
 40
2.251826154754381
100
AcDbArc
 50
85.6968331353
 51
181.7475551721
  0
ARC
  5
2D1
330
1F
100
AcDbEntity
  8
0
  6
Continuous
 62
     7
370
    25
100
AcDbCircle
 10
287.0507382454
 20
1128.2919667476
 30
0.0
 40
489.0029936808017
100
AcDbArc
 50
257.7080382991
 51
266.6207036051
  0
LWPOLYLINE
  5
2D2
330
1F
100
AcDbEntity
  8
0
  6
Continuous
 62
     7
370
    25
100
AcDbPolyline
 90
       21
 70
   128
 43
0.0
 10
210.9379098323
 20
609.1431813872
 10
211.1314234055
 20
609.2342275693
 10
212.6137616976
 20
609.7415534099
 10
214.1829045113
 20
609.9603177998
 10
215.7960497211
 20
609.8845534169
 10
217.409194931
 20
609.516326916
 10
218.9783377447
 20
608.865682556
 10
220.4606760367
 20
607.9503682192
 10
221.8157754827
 20
606.7953512945
 10
223.006672502
 20
605.4321376327
 10
224.0008825287
 20
603.8979121489
 10
224.7712861047
 20
602.2345245148
 10
225.2968686289
 20
600.4873476091
 10
225.56329358
 20
598.7040398631
 10
225.56329358
 20
596.9332452633
 10
225.2968686289
 20
595.2232664705
 10
224.7712861047
 20
593.6207472484
 10
224.0008825287
 20
592.169400144
 10
223.006672502
 20
590.9088141229
 10
221.8157754827
 20
589.8733746856
 10
220.6541896099
 20
589.182372103
  0
ARC
  5
2D3
330
1F
100
AcDbEntity
  8
0
  6
Continuous
 62
     7
370
    25
100
AcDbCircle
 10
264.993991686
 20
670.0648339654
 30
0.0
 40
33.1917553372889
100
AcDbArc
 50
262.4726254518
 51
267.8817257142
  0
ARC
  5
2D4
330
1F
100
AcDbEntity
  8
0
  6
Continuous
 62
     7
370
    25
100
AcDbCircle
 10
614.8303789106
 20
596.3268753252
 30
0.0
 40
353.3995326784937
100
AcDbArc
 50
173.4081360002
 51
186.5918639998
  0
ARC
  5
2D5
330
1F
100
AcDbEntity
  8
0
  6
Continuous
 62
     7
370
    25
100
AcDbCircle
 10
260.9064878481
 20
559.5317117753
 30
0.0
 40
4.735432591582645
100
AcDbArc
 50
266.8451676244
 51
307.1638144354
  0
ARC
  5
2D6
330
1F
100
AcDbEntity
  8
0
  6
Continuous
 62
     7
370
    25
100
AcDbCircle
 10
186.0643836249
 20
650.2465226134
 30
0.0
 40
3.129324702201222
100
AcDbArc
 50
114.9705078518
 51
175.3696061008
  0
ARC
  5
2D7
330
1F
100
AcDbEntity
  8
0
  6
Continuous
 62
     7
370
    25
100
AcDbCircle
 10
288.7008416087
 20
1133.9224141424
 30
0.0
 40
491.9485583778609
100
AcDbArc
 50
257.800407669
 51
266.5283342352
  0
ARC
  5
2D8
330
1F
100
AcDbEntity
  8
0
  6
Continuous
 62
     7
370
    25
100
AcDbCircle
 10
263.5871685707
 20
640.2524680886
 30
0.0
 40
5.362229638871907
100
AcDbArc
 50
150.7000257738
 51
181.2097797374
  0
LINE
  5
2D9
330
1F
100
AcDbEntity
  8
0
  6
Continuous
 62
     7
370
    25
100
AcDbLine
 10
271.9020617265
 20
559.7178071197
 30
0.0
 11
271.9020617265
 21
640.855576528
 31
0.0
  0
LINE
  5
2DA
330
1F
100
AcDbEntity
  8
0
  6
Continuous
 62
     7
370
    25
100
AcDbLine
 10
263.7671434512
 20
555.757990621
 30
0.0
 11
271.9020617265
 21
559.7178071197
 31
0.0
  0
LINE
  5
2DB
330
1F
100
AcDbEntity
  8
0
  6
Continuous
 62
     7
370
    25
100
AcDbLine
 10
263.7671434512
 20
636.8957600293
 30
0.0
 11
271.9020617265
 21
640.855576528
 31
0.0
  0
ARC
  5
2DC
330
1F
100
AcDbEntity
  8
0
  6
Continuous
 62
     7
370
    25
100
AcDbCircle
 10
258.1513744196
 20
637.2979641858
 30
0.0
 40
5.630153639050834
100
AcDbArc
 50
355.9034427919
 51
82.2466537349
  0
LINE
  5
2DD
330
1F
100
AcDbEntity
  8
0
  6
Continuous
 62
     7
370
    25
100
AcDbLine
 10
267.0458499658
 20
646.8364635713
 30
0.0
 11
192.8782521656
 21
657.0431508243
 31
0.0
  0
LINE
  5
2DE
330
1F
100
AcDbEntity
  8
0
  6
Continuous
 62
     7
370
    25
100
AcDbLine
 10
258.9109316905
 20
642.8766470726
 30
0.0
 11
267.0458499658
 21
646.8364635713
 31
0.0
  0
LINE
  5
2DF
330
1F
100
AcDbEntity
  8
0
  6
Continuous
 62
     7
370
    25
100
AcDbLine
 10
184.7433338903
 20
653.0833343256
 30
0.0
 11
192.8782521656
 21
657.0431508243
 31
0.0
  0
ARC
  5
2E0
330
1F
100
AcDbEntity
  8
0
  6
Continuous
 62
     7
370
    25
100
AcDbCircle
 10
265.8930936149
 20
640.9385206846
 30
0.0
 40
6.009540539773981
100
AcDbArc
 50
359.2091739834
 51
78.9409225434
  0
ARC
  5
2E1
330
1F
100
AcDbEntity
  8
0
  6
Continuous
 62
     7
370
    25
100
AcDbCircle
 10
267.3029631905
 20
559.5116539981
 30
0.0
 40
4.603716591348531
100
AcDbArc
 50
297.8416716875
 51
2.5665469741
  0
ARC
  5
2E2
330
1F
100
AcDbEntity
  8
0
  6
Continuous
 62
     7
370
    25
100
AcDbCircle
 10
192.2749184292
 20
652.9260347098
 30
0.0
 40
4.161088403011355
100
AcDbArc
 50
81.6630559474
 51
115.6902038184
  0
LWPOLYLINE
  5
2E3
330
1F
100
AcDbEntity
  8
0
  6
Continuous
 62
     7
370
    25
100
AcDbPolyline
 90
       23
 70
   128
 43
0.0
 10
139.491281399
 20
605.2770911653
 10
139.455215505
 20
605.3179982445
 10
138.4104421091
 20
606.2640301276
 10
137.196019042
 20
606.9507145615
 10
135.8558387176
 20
607.3532329815
 10
134.4383387444
 20
607.4570373233
 10
132.9947512649
 20
607.2583758274
 10
131.5772512918
 20
606.7644286379
 10
130.2370709673
 20
605.9930482933
 10
129.0226479003
 20
604.9721144889
 10
127.9778745044
 20
603.7385264325
 10
127.1405116123
 20
602.3368692105
 10
126.5408237007
 20
600.817802367
 10
126.2004850533
 20
599.2362289355
 10
126.1317963953
 20
597.6493111005
 10
126.337240314
 20
596.1144042074
 10
126.8093915308
 20
594.6869837904
 10
127.5311852705
 20
593.4186405425
 10
128.4765340269
 20
592.3552156932
 10
129.6112704327
 20
591.5351441875
 10
130.8943821577
 20
590.9880655461
 10
132.2794942011
 20
590.7337526165
 10
132.4080788937
 20
590.725590224
  0
LWPOLYLINE
  5
2E4
330
1F
100
AcDbEntity
  8
0
  6
Continuous
 62
     7
370
    25
100
AcDbPolyline
 90
       39
 70
   128
 43
0.0
 10
133.7165450047
 20
588.366582365
 10
135.3296902146
 20
588.734808866
 10
136.8988330283
 20
589.3854532259
 10
138.3811713203
 20
590.3007675627
 10
139.7362707662
 20
591.4557844875
 10
140.9271677856
 20
592.8189981493
 10
141.9213778122
 20
594.3532236331
 10
142.6917813883
 20
596.0166112671
 10
143.2173639124
 20
597.7637881728
 10
143.4837888636
 20
599.5470959189
 10
143.4837888636
 20
601.3178905186
 10
143.2173639124
 20
603.0278693114
 10
142.6917813883
 20
604.6303885335
 10
141.9213778122
 20
606.081735638
 10
140.9271677856
 20
607.3423216591
 10
139.7362707662
 20
608.3777610963
 10
138.3811713203
 20
609.1598098611
 10
136.8988330283
 20
609.6671357016
 10
135.3296902146
 20
609.8859000916
 10
133.7165450047
 20
609.8101357087
 10
132.1033997948
 20
609.4419092077
 10
130.5342569811
 20
608.7912648478
 10
129.0519186891
 20
607.8759505109
 10
127.6968192432
 20
606.7209335862
 10
126.5059222238
 20
605.3577199244
 10
125.5117121972
 20
603.8234944406
 10
124.7413086211
 20
602.1601068066
 10
124.215726097
 20
600.4129299008
 10
123.9493011458
 20
598.6296221548
 10
123.9493011458
 20
596.8588275551
 10
124.215726097
 20
595.1488487623
 10
124.7413086211
 20
593.5463295402
 10
125.5117121972
 20
592.0949824357
 10
126.5059222238
 20
590.8343964146
 10
127.6968192432
 20
589.7989569774
 10
129.0519186891
 20
589.0169082126
 10
130.5342569811
 20
588.5095823721
 10
132.1033997948
 20
588.2908179821
 10
133.7165450047
 20
588.366582365
  0
LWPOLYLINE
  5
2E5
330
1F
100
AcDbEntity
  8
0
  6
Continuous
 62
     7
370
    25
100
AcDbPolyline
 90
       23
 70
   128
 43
0.0
 10
209.8684320065
 20
-1445.9850913707
 10
209.9044979004
 20
-1446.0259984499
 10
210.9492712963
 20
-1446.972030333
 10
212.1636943634
 20
-1447.6587147669
 10
213.5038746879
 20
-1448.0612331869
 10
214.921374661
 20
-1448.1650375287
 10
216.3649621405
 20
-1447.9663760328
 10
217.7824621136
 20
-1447.4724288433
 10
219.1226424381
 20
-1446.7010484986
 10
220.3370655052
 20
-1445.6801146943
 10
221.3818389011
 20
-1444.4465266379
 10
222.2192017931
 20
-1443.0448694159
 10
222.8188897047
 20
-1441.5258025724
 10
223.1592283522
 20
-1439.9442291408
 10
223.2279170101
 20
-1438.3573113059
 10
223.0224730914
 20
-1436.8224044128
 10
222.5503218746
 20
-1435.3949839958
 10
221.8285281349
 20
-1434.1266407479
 10
220.8831793786
 20
-1433.0632158986
 10
219.7484429728
 20
-1432.2431443929
 10
218.4653312477
 20
-1431.6960657515
 10
217.0802192044
 20
-1431.4417528219
 10
216.9516345118
 20
-1431.4335904294
  0
LWPOLYLINE
  5
2E6
330
1F
100
AcDbEntity
  8
0
  6
Continuous
 62
     7
370
    25
100
AcDbPolyline
 90
       39
 70
   128
 43
0.0
 10
215.6431684007
 20
-1429.0745825704
 10
214.0300231909
 20
-1429.4428090714
 10
212.4608803772
 20
-1430.0934534313
 10
210.9785420851
 20
-1431.0087677681
 10
209.6234426392
 20
-1432.1637846929
 10
208.4325456198
 20
-1433.5269983546
 10
207.4383355932
 20
-1435.0612238384
 10
206.6679320172
 20
-1436.7246114725
 10
206.142349493
 20
-1438.4717883782
 10
205.8759245418
 20
-1440.2550961243
 10
205.8759245418
 20
-1442.025890724
 10
206.142349493
 20
-1443.7358695168
 10
206.6679320172
 20
-1445.3383887389
 10
207.4383355932
 20
-1446.7897358433
 10
208.4325456198
 20
-1448.0503218645
 10
209.6234426392
 20
-1449.0857613017
 10
210.9785420851
 20
-1449.8678100664
 10
212.4608803772
 20
-1450.375135907
 10
214.0300231909
 20
-1450.593900297
 10
215.6431684007
 20
-1450.518135914
 10
217.2563136106
 20
-1450.1499094131
 10
218.8254564243
 20
-1449.4992650532
 10
220.3077947164
 20
-1448.5839507163
 10
221.6628941623
 20
-1447.4289337916
 10
222.8537911817
 20
-1446.0657201298
 10
223.8480012083
 20
-1444.531494646
 10
224.6184047843
 20
-1442.868107012
 10
225.1439873085
 20
-1441.1209301062
 10
225.4104122597
 20
-1439.3376223602
 10
225.4104122597
 20
-1437.5668277605
 10
225.1439873085
 20
-1435.8568489676
 10
224.6184047843
 20
-1434.2543297455
 10
223.8480012083
 20
-1432.8029826411
 10
222.8537911817
 20
-1431.54239662
 10
221.6628941623
 20
-1430.5069571828
 10
220.3077947164
 20
-1429.724908418
 10
218.8254564243
 20
-1429.2175825775
 10
217.2563136106
 20
-1428.9988181875
 10
215.6431684007
 20
-1429.0745825704
  0
ARC
  5
2E7
330
1F
100
AcDbEntity
  8
0
  6
Continuous
 62
     7
370
    25
100
AcDbCircle
 10
214.6907973848
 20
601.0610005518
 30
0.0
 40
6.405515428344441
100
AcDbArc
 50
81.4495708294
 51
138.837494749
  0
LWPOLYLINE
  5
2E8
330
1F
100
AcDbEntity
  8
0
  6
Continuous
 62
     7
370
    25
100
AcDbPolyline
 90
       17
 70
   128
 43
0.0
 10
216.9516345118
 20
590.725590224
 10
217.7824621136
 20
590.8234850922
 10
219.1226424381
 20
591.2260035122
 10
220.3370655052
 20
591.9126879461
 10
221.3818389011
 20
592.8587198292
 10
222.2192017931
 20
594.0299071044
 10
222.8188897047
 20
595.3839200122
 10
223.1592283522
 20
596.8718209981
 10
223.2279170101
 20
598.4398334439
 10
223.0224730914
 20
600.0312852943
 10
222.5503218746
 20
601.588657333
 10
221.8285281349
 20
603.0556620768
 10
220.8831793786
 20
604.3792781521
 10
219.7484429728
 20
605.5116666252
 10
218.4653312477
 20
606.4119000262
 10
217.0802192044
 20
607.0474415746
 10
215.6431684007
 20
607.3953211429
  0
LWPOLYLINE
  5
2E9
330
1F
100
AcDbEntity
  8
0
  6
Continuous
 62
     7
370
    25
100
AcDbPolyline
 90
       39
 70
   128
 43
0.0
 10
215.6431684007
 20
609.8101357087
 10
214.0300231909
 20
609.8859000916
 10
212.4608803772
 20
609.6671357016
 10
210.9785420851
 20
609.1598098611
 10
209.6234426392
 20
608.3777610963
 10
208.4325456198
 20
607.3423216591
 10
207.4383355932
 20
606.081735638
 10
206.6679320172
 20
604.6303885335
 10
206.142349493
 20
603.0278693114
 10
205.8759245418
 20
601.3178905186
 10
205.8759245418
 20
599.5470959189
 10
206.142349493
 20
597.7637881728
 10
206.6679320172
 20
596.0166112671
 10
207.4383355932
 20
594.3532236331
 10
208.4325456198
 20
592.8189981493
 10
209.6234426392
 20
591.4557844875
 10
210.9785420851
 20
590.3007675627
 10
212.4608803772
 20
589.3854532259
 10
214.0300231909
 20
588.734808866
 10
215.6431684007
 20
588.366582365
 10
217.2563136106
 20
588.2908179821
 10
218.8254564243
 20
588.5095823721
 10
220.3077947164
 20
589.0169082126
 10
221.6628941623
 20
589.7989569774
 10
222.8537911817
 20
590.8343964146
 10
223.8480012083
 20
592.0949824357
 10
224.6184047843
 20
593.5463295402
 10
225.1439873085
 20
595.1488487623
 10
225.4104122597
 20
596.8588275551
 10
225.4104122597
 20
598.6296221548
 10
225.1439873085
 20
600.4129299008
 10
224.6184047843
 20
602.1601068066
 10
223.8480012083
 20
603.8234944406
 10
222.8537911817
 20
605.3577199244
 10
221.6628941623
 20
606.7209335862
 10
220.3077947164
 20
607.8759505109
 10
218.8254564243
 20
608.7912648478
 10
217.2563136106
 20
609.4419092077
 10
215.6431684007
 20
609.8101357087
  0
ARC
  5
2EA
330
1F
100
AcDbEntity
  8
0
  6
Continuous
 62
     7
370
    25
100
AcDbCircle
 10
134.6689160207
 20
-1441.7690007572
 30
0.0
 40
6.405515428344267
100
AcDbArc
 50
261.4495708294
 51
318.837494749
  0
LWPOLYLINE
  5
2EB
330
1F
100
AcDbEntity
  8
0
  6
Continuous
 62
     7
370
    25
100
AcDbPolyline
 90
       17
 70
   128
 43
0.0
 10
132.4080788937
 20
-1431.4335904294
 10
131.5772512918
 20
-1431.5314852976
 10
130.2370709673
 20
-1431.9340037176
 10
129.0226479003
 20
-1432.6206881515
 10
127.9778745044
 20
-1433.5667200346
 10
127.1405116123
 20
-1434.7379073098
 10
126.5408237007
 20
-1436.0919202176
 10
126.2004850533
 20
-1437.5798212035
 10
126.1317963953
 20
-1439.1478336493
 10
126.337240314
 20
-1440.7392854997
 10
126.8093915308
 20
-1442.2966575384
 10
127.5311852705
 20
-1443.7636622822
 10
128.4765340269
 20
-1445.0872783575
 10
129.6112704327
 20
-1446.2196668306
 10
130.8943821577
 20
-1447.1199002316
 10
132.2794942011
 20
-1447.75544178
 10
133.7165450047
 20
-1448.1033213483
  0
LWPOLYLINE
  5
2EC
330
1F
100
AcDbEntity
  8
0
  6
Continuous
 62
     7
370
    25
100
AcDbPolyline
 90
       39
 70
   128
 43
0.0
 10
133.7165450047
 20
-1450.518135914
 10
135.3296902146
 20
-1450.593900297
 10
136.8988330283
 20
-1450.375135907
 10
138.3811713203
 20
-1449.8678100664
 10
139.7362707662
 20
-1449.0857613017
 10
140.9271677856
 20
-1448.0503218645
 10
141.9213778122
 20
-1446.7897358433
 10
142.6917813883
 20
-1445.3383887389
 10
143.2173639124
 20
-1443.7358695168
 10
143.4837888636
 20
-1442.025890724
 10
143.4837888636
 20
-1440.2550961243
 10
143.2173639124
 20
-1438.4717883782
 10
142.6917813883
 20
-1436.7246114725
 10
141.9213778122
 20
-1435.0612238384
 10
140.9271677856
 20
-1433.5269983546
 10
139.7362707662
 20
-1432.1637846929
 10
138.3811713203
 20
-1431.0087677681
 10
136.8988330283
 20
-1430.0934534313
 10
135.3296902146
 20
-1429.4428090714
 10
133.7165450047
 20
-1429.0745825704
 10
132.1033997948
 20
-1428.9988181875
 10
130.5342569811
 20
-1429.2175825775
 10
129.0519186891
 20
-1429.724908418
 10
127.6968192432
 20
-1430.5069571828
 10
126.5059222238
 20
-1431.54239662
 10
125.5117121972
 20
-1432.8029826411
 10
124.7413086211
 20
-1434.2543297455
 10
124.215726097
 20
-1435.8568489676
 10
123.9493011458
 20
-1437.5668277605
 10
123.9493011458
 20
-1439.3376223602
 10
124.215726097
 20
-1441.1209301062
 10
124.7413086211
 20
-1442.868107012
 10
125.5117121972
 20
-1444.531494646
 10
126.5059222238
 20
-1446.0657201298
 10
127.6968192432
 20
-1447.4289337916
 10
129.0519186891
 20
-1448.5839507163
 10
130.5342569811
 20
-1449.4992650532
 10
132.1033997948
 20
-1450.1499094131
 10
133.7165450047
 20
-1450.518135914
  0
LINE
  5
2ED
330
1F
100
AcDbEntity
  8
0
  6
Continuous
 62
     7
370
    25
100
AcDbLine
 10
1331.1910165881
 20
1180.6790845958
 30
0.0
 11
1309.3436043156
 21
1183.6856496049
 31
0.0
  0
LINE
  5
2EE
330
1F
100
AcDbEntity
  8
0
  6
Continuous
 62
     7
370
    25
100
AcDbLine
 10
1309.3436043156
 20
-2024.3936498103
 30
0.0
 11
1331.1910165881
 21
-2021.3870848012
 31
0.0
  0
LINE
  5
2EF
330
1F
100
AcDbEntity
  8
0
  6
Continuous
 62
     7
370
    25
100
AcDbLine
 10
-959.9838909102
 20
1183.6856496049
 30
0.0
 11
-981.8313031827
 21
1180.6790845958
 31
0.0
  0
LINE
  5
2F0
330
1F
100
AcDbEntity
  8
0
  6
Continuous
 62
     7
370
    25
100
AcDbLine
 10
-981.8313031827
 20
-2021.3870848012
 30
0.0
 11
-959.9838909102
 21
-2024.3936498103
 31
0.0
  0
LINE
  5
2F1
330
1F
100
AcDbEntity
  8
0
  6
Continuous
 62
     7
370
    25
100
AcDbLine
 10
136.4776000508
 20
298.0248171997
 30
0.0
 11
137.0063309393
 21
298.1051006877
 31
0.0
  0
ARC
  5
2F2
330
1F
100
AcDbEntity
  8
0
  6
Continuous
 62
     7
370
    25
100
AcDbCircle
 10
136.4281792963
 20
300.5320748578
 30
0.0
 40
2.507744679063406
100
AcDbArc
 50
107.1165784436
 51
271.1292154256
  0
LINE
  5
2F3
330
1F
100
AcDbEntity
  8
0
  6
Continuous
 62
     7
370
    25
100
AcDbLine
 10
136.4249881905
 20
298.0104610554
 30
0.0
 11
136.953719079
 21
298.0907445435
 31
0.0
  0
ARC
  5
2F4
330
1F
100
AcDbEntity
  8
0
  6
Continuous
 62
     7
370
    25
100
AcDbCircle
 10
136.375567436
 20
300.5177187136
 30
0.0
 40
2.507744679063351
100
AcDbArc
 50
107.1165784436
 51
271.1292154256
  0
ARC
  5
2F5
330
1F
100
AcDbEntity
  8
0
  6
Continuous
 62
     7
370
    25
100
AcDbCircle
 10
136.4102768102
 20
-71.3239024535
 30
0.0
 40
2.500827438194913
100
AcDbArc
 50
76.211250303
 51
253.2633993562
  0
ARC
  5
2F6
330
1F
100
AcDbEntity
  8
0
  6
Continuous
 62
     7
370
    25
100
AcDbCircle
 10
136.3576649499
 20
-71.3095463093
 30
0.0
 40
2.500827438194932
100
AcDbArc
 50
76.211250303
 51
253.2633993561
  0
LINE
  5
2F7
330
1F
100
AcDbEntity
  8
0
  6
Continuous
 62
     7
370
    25
100
AcDbLine
 10
136.4776000508
 20
-771.8931375782
 30
0.0
 11
137.0063309393
 21
-771.8128540902
 31
0.0
  0
ARC
  5
2F8
330
1F
100
AcDbEntity
  8
0
  6
Continuous
 62
     7
370
    25
100
AcDbCircle
 10
136.4281792963
 20
-769.3858799201
 30
0.0
 40
2.507744679063395
100
AcDbArc
 50
107.1165784435
 51
271.1292154257
  0
LINE
  5
2F9
330
1F
100
AcDbEntity
  8
0
  6
Continuous
 62
     7
370
    25
100
AcDbLine
 10
136.4249881905
 20
-771.9074937225
 30
0.0
 11
136.953719079
 21
-771.8272102344
 31
0.0
  0
ARC
  5
2FA
330
1F
100
AcDbEntity
  8
0
  6
Continuous
 62
     7
370
    25
100
AcDbCircle
 10
136.375567436
 20
-769.4002360643
 30
0.0
 40
2.507744679063312
100
AcDbArc
 50
107.1165784436
 51
271.1292154257
  0
ARC
  5
2FB
330
1F
100
AcDbEntity
  8
0
  6
Continuous
 62
     7
370
    25
100
AcDbCircle
 10
136.4102768102
 20
-1141.2418572314
 30
0.0
 40
2.500827438194986
100
AcDbArc
 50
76.211250303
 51
253.2633993562
  0
ARC
  5
2FC
330
1F
100
AcDbEntity
  8
0
  6
Continuous
 62
     7
370
    25
100
AcDbCircle
 10
136.3576649499
 20
-1141.2275010871
 30
0.0
 40
2.500827438194897
100
AcDbArc
 50
76.211250303
 51
253.2633993562
  0
ARC
  5
2FD
330
1F
100
AcDbEntity
  8
0
  6
Continuous
 62
     7
370
    25
100
AcDbCircle
 10
213.5606332249
 20
-69.0161586972
 30
0.0
 40
6.28671091942382
100
AcDbArc
 50
239.299715111
 51
272.1583985191
  0
ARC
  5
2FE
330
1F
100
AcDbEntity
  8
0
  6
Continuous
 62
     7
370
    25
100
AcDbCircle
 10
213.6096258711
 20
-72.0144124627
 30
0.0
 40
6.520671753704458
100
AcDbArc
 50
88.3250963765
 51
119.9981713621
  0
LINE
  5
2FF
330
1F
100
AcDbEntity
  8
0
  6
Continuous
 62
     7
370
    25
100
AcDbLine
 10
214.0702714246
 20
-76.4162810233
 30
0.0
 11
215.2438185435
 21
-75.2949156558
 31
0.0
  0
ARC
  5
300
330
1F
100
AcDbEntity
  8
0
  6
Continuous
 62
     7
370
    25
100
AcDbCircle
 10
206.0862593774
 20
-70.3950227138
 30
0.0
 40
10.00000000000022
100
AcDbArc
 50
291.0608802193
 51
322.9776987282
  0
ARC
  5
301
330
1F
100
AcDbEntity
  8
0
  6
Continuous
 62
     7
370
    25
100
AcDbCircle
 10
206.0862593774
 20
-70.3950227138
 30
0.0
 40
10.00000000000022
100
AcDbArc
 50
37.0223012718
 51
68.9391197807
  0
LWPOLYLINE
  5
302
330
1F
100
AcDbEntity
  8
0
  6
Continuous
 62
     7
370
    25
100
AcDbPolyline
 90
        3
 70
   128
 43
0.0
 10
215.1925022341
 20
-65.4697827451
 10
215.1695026942
 20
-65.4543985603
 10
214.0702714246
 20
-64.3737644042
  0
ARC
  5
303
330
1F
100
AcDbEntity
  8
0
  6
Continuous
 62
     7
370
    25
100
AcDbCircle
 10
213.5606332249
 20
-768.9341134751
 30
0.0
 40
6.286710919424516
100
AcDbArc
 50
239.299715111
 51
272.1583985191
  0
ARC
  5
304
330
1F
100
AcDbEntity
  8
0
  6
Continuous
 62
     7
370
    25
100
AcDbCircle
 10
213.6096258711
 20
-771.9323672406
 30
0.0
 40
6.520671753707525
100
AcDbArc
 50
88.3250963765
 51
119.9981713621
  0
LINE
  5
305
330
1F
100
AcDbEntity
  8
0
  6
Continuous
 62
     7
370
    25
100
AcDbLine
 10
214.0702714246
 20
-776.3342358012
 30
0.0
 11
215.2438185435
 21
-775.2128704337
 31
0.0
  0
ARC
  5
306
330
1F
100
AcDbEntity
  8
0
  6
Continuous
 62
     7
370
    25
100
AcDbCircle
 10
206.0862593774
 20
-770.3129774916
 30
0.0
 40
10.00000000000018
100
AcDbArc
 50
291.0608802193
 51
322.9776987282
  0
ARC
  5
307
330
1F
100
AcDbEntity
  8
0
  6
Continuous
 62
     7
370
    25
100
AcDbCircle
 10
206.0862593774
 20
-770.3129774916
 30
0.0
 40
10.00000000000025
100
AcDbArc
 50
37.0223012718
 51
68.9391197807
  0
LWPOLYLINE
  5
308
330
1F
100
AcDbEntity
  8
0
  6
Continuous
 62
     7
370
    25
100
AcDbPolyline
 90
        3
 70
   128
 43
0.0
 10
215.1925022341
 20
-765.387737523
 10
215.1695026942
 20
-765.3723533382
 10
214.0702714246
 20
-764.2917191821
  0
ARC
  5
309
330
1F
100
AcDbEntity
  8
0
  6
Continuous
 62
     7
370
    25
100
AcDbCircle
 10
128.6118855299
 20
-71.7738867303
 30
0.0
 40
6.286710919425481
100
AcDbArc
 50
59.299715111
 51
92.1583985191
  0
ARC
  5
30A
330
1F
100
AcDbEntity
  8
0
  6
Continuous
 62
     7
370
    25
100
AcDbCircle
 10
128.5628928838
 20
-68.7756329648
 30
0.0
 40
6.520671753704109
100
AcDbArc
 50
268.3250963765
 51
299.9981713621
  0
ARC
  5
30B
330
1F
100
AcDbEntity
  8
0
  6
Continuous
 62
     7
370
    25
100
AcDbCircle
 10
136.0862593774
 20
-70.3950227138
 30
0.0
 40
10.00000000000022
100
AcDbArc
 50
217.0223012718
 51
262.1150730253
  0
LWPOLYLINE
  5
30C
330
1F
100
AcDbEntity
  8
0
  6
Continuous
 62
     7
370
    25
100
AcDbPolyline
 90
        3
 70
   128
 43
0.0
 10
126.8910425934
 20
-75.260748825
 10
127.0030160607
 20
-75.3356468672
 10
128.1022473302
 20
-76.4162810233
  0
LINE
  5
30D
330
1F
100
AcDbEntity
  8
0
  6
Continuous
 62
     7
370
    25
100
AcDbLine
 10
128.1022473302
 20
-64.3737644042
 30
0.0
 11
126.8905766963
 21
-65.5315581254
 31
0.0
  0
ARC
  5
30E
330
1F
100
AcDbEntity
  8
0
  6
Continuous
 62
     7
370
    25
100
AcDbCircle
 10
136.0862593774
 20
-70.3950227138
 30
0.0
 40
10.00000000000022
100
AcDbArc
 50
96.3429294045
 51
142.9776987282
  0
ARC
  5
30F
330
1F
100
AcDbEntity
  8
0
  6
Continuous
 62
     7
370
    25
100
AcDbCircle
 10
213.5606332249
 20
300.9838413028
 30
0.0
 40
6.286710919423124
100
AcDbArc
 50
239.299715111
 51
272.1583985191
  0
ARC
  5
310
330
1F
100
AcDbEntity
  8
0
  6
Continuous
 62
     7
370
    25
100
AcDbCircle
 10
213.6096258711
 20
297.9855875373
 30
0.0
 40
6.520671753703455
100
AcDbArc
 50
88.3250963765
 51
119.9981713621
  0
LINE
  5
311
330
1F
100
AcDbEntity
  8
0
  6
Continuous
 62
     7
370
    25
100
AcDbLine
 10
214.0702714246
 20
293.5837189767
 30
0.0
 11
215.2819420586
 21
294.7415126979
 31
0.0
  0
ARC
  5
312
330
1F
100
AcDbEntity
  8
0
  6
Continuous
 62
     7
370
    25
100
AcDbCircle
 10
206.0862593774
 20
299.6049772862
 30
0.0
 40
10.00000000000022
100
AcDbArc
 50
291.0608802193
 51
322.9776987282
  0
ARC
  5
313
330
1F
100
AcDbEntity
  8
0
  6
Continuous
 62
     7
370
    25
100
AcDbCircle
 10
206.0862593774
 20
299.6049772862
 30
0.0
 40
10.00000000000022
100
AcDbArc
 50
37.0223012718
 51
68.9391197807
  0
LWPOLYLINE
  5
314
330
1F
100
AcDbEntity
  8
0
  6
Continuous
 62
     7
370
    25
100
AcDbPolyline
 90
        3
 70
   128
 43
0.0
 10
215.2814761615
 20
304.4707033975
 10
215.1695026942
 20
304.5456014397
 10
214.0702714246
 20
305.6262355958
  0
ARC
  5
315
330
1F
100
AcDbEntity
  8
0
  6
Continuous
 62
     7
370
    25
100
AcDbCircle
 10
128.6118855299
 20
298.2261132697
 30
0.0
 40
6.286710919423907
100
AcDbArc
 50
59.299715111
 51
92.1583985191
  0
ARC
  5
316
330
1F
100
AcDbEntity
  8
0
  6
Continuous
 62
     7
370
    25
100
AcDbCircle
 10
128.5628928838
 20
301.2243670352
 30
0.0
 40
6.520671753705546
100
AcDbArc
 50
268.3250963765
 51
299.9981713621
  0
ARC
  5
317
330
1F
100
AcDbEntity
  8
0
  6
Continuous
 62
     7
370
    25
100
AcDbCircle
 10
136.0862593774
 20
299.6049772862
 30
0.0
 40
10.00000000000022
100
AcDbArc
 50
217.0223012718
 51
263.2851211447
  0
LWPOLYLINE
  5
318
330
1F
100
AcDbEntity
  8
0
  6
Continuous
 62
     7
370
    25
100
AcDbPolyline
 90
        3
 70
   128
 43
0.0
 10
126.8910425934
 20
294.739251175
 10
127.0030160607
 20
294.6643531328
 10
128.1022473302
 20
293.5837189767
  0
LINE
  5
319
330
1F
100
AcDbEntity
  8
0
  6
Continuous
 62
     7
370
    25
100
AcDbLine
 10
128.1022473302
 20
305.6262355958
 30
0.0
 11
126.8905766963
 21
304.4684418746
 31
0.0
  0
ARC
  5
31A
330
1F
100
AcDbEntity
  8
0
  6
Continuous
 62
     7
370
    25
100
AcDbCircle
 10
136.0862593774
 20
299.6049772862
 30
0.0
 40
10.00000000000022
100
AcDbArc
 50
97.737509426
 51
142.9776987282
  0
ARC
  5
31B
330
1F
100
AcDbEntity
  8
0
  6
Continuous
 62
     7
370
    25
100
AcDbCircle
 10
213.5606332249
 20
-1138.9341134751
 30
0.0
 40
6.286710919424887
100
AcDbArc
 50
239.299715111
 51
272.1583985191
  0
ARC
  5
31C
330
1F
100
AcDbEntity
  8
0
  6
Continuous
 62
     7
370
    25
100
AcDbCircle
 10
213.6096258711
 20
-1141.9323672406
 30
0.0
 40
6.520671753704495
100
AcDbArc
 50
88.3250963765
 51
119.9981713621
  0
LINE
  5
31D
330
1F
100
AcDbEntity
  8
0
  6
Continuous
 62
     7
370
    25
100
AcDbLine
 10
214.0702714246
 20
-1146.3342358012
 30
0.0
 11
215.2819420586
 21
-1145.17644208
 31
0.0
  0
ARC
  5
31E
330
1F
100
AcDbEntity
  8
0
  6
Continuous
 62
     7
370
    25
100
AcDbCircle
 10
206.0862593774
 20
-1140.3129774916
 30
0.0
 40
10.00000000000025
100
AcDbArc
 50
291.0608802193
 51
322.9776987282
  0
ARC
  5
31F
330
1F
100
AcDbEntity
  8
0
  6
Continuous
 62
     7
370
    25
100
AcDbCircle
 10
206.0862593774
 20
-1140.3129774916
 30
0.0
 40
10.00000000000011
100
AcDbArc
 50
37.0223012718
 51
68.9391197807
  0
LWPOLYLINE
  5
320
330
1F
100
AcDbEntity
  8
0
  6
Continuous
 62
     7
370
    25
100
AcDbPolyline
 90
        3
 70
   128
 43
0.0
 10
215.2814761615
 20
-1135.4472513804
 10
215.1695026942
 20
-1135.3723533382
 10
214.0702714246
 20
-1134.2917191821
  0
ARC
  5
321
330
1F
100
AcDbEntity
  8
0
  6
Continuous
 62
     7
370
    25
100
AcDbCircle
 10
128.6118855299
 20
-771.6918415081
 30
0.0
 40
6.286710919426224
100
AcDbArc
 50
59.299715111
 51
92.1583985191
  0
ARC
  5
322
330
1F
100
AcDbEntity
  8
0
  6
Continuous
 62
     7
370
    25
100
AcDbCircle
 10
128.5628928838
 20
-768.6935877427
 30
0.0
 40
6.520671753706819
100
AcDbArc
 50
268.3250963765
 51
299.9981713621
  0
ARC
  5
323
330
1F
100
AcDbEntity
  8
0
  6
Continuous
 62
     7
370
    25
100
AcDbCircle
 10
136.0862593774
 20
-770.3129774916
 30
0.0
 40
10.00000000000018
100
AcDbArc
 50
217.0223012718
 51
263.2851211447
  0
LWPOLYLINE
  5
324
330
1F
100
AcDbEntity
  8
0
  6
Continuous
 62
     7
370
    25
100
AcDbPolyline
 90
        3
 70
   128
 43
0.0
 10
126.8910425934
 20
-775.1787036028
 10
127.0030160607
 20
-775.2536016451
 10
128.1022473302
 20
-776.3342358012
  0
LINE
  5
325
330
1F
100
AcDbEntity
  8
0
  6
Continuous
 62
     7
370
    25
100
AcDbLine
 10
128.1022473302
 20
-764.2917191821
 30
0.0
 11
126.8905766963
 21
-765.4495129033
 31
0.0
  0
ARC
  5
326
330
1F
100
AcDbEntity
  8
0
  6
Continuous
 62
     7
370
    25
100
AcDbCircle
 10
136.0862593774
 20
-770.3129774916
 30
0.0
 40
10.00000000000025
100
AcDbArc
 50
97.737509426
 51
142.9776987282
  0
ARC
  5
327
330
1F
100
AcDbEntity
  8
0
  6
Continuous
 62
     7
370
    25
100
AcDbCircle
 10
128.6118855299
 20
-1141.6918415081
 30
0.0
 40
6.286710919422164
100
AcDbArc
 50
59.299715111
 51
92.1583985191
  0
ARC
  5
328
330
1F
100
AcDbEntity
  8
0
  6
Continuous
 62
     7
370
    25
100
AcDbCircle
 10
128.5628928838
 20
-1138.6935877427
 30
0.0
 40
6.52067175370786
100
AcDbArc
 50
268.3250963765
 51
299.9981713621
  0
ARC
  5
329
330
1F
100
AcDbEntity
  8
0
  6
Continuous
 62
     7
370
    25
100
AcDbCircle
 10
136.0862593774
 20
-1140.3129774916
 30
0.0
 40
10.00000000000025
100
AcDbArc
 50
217.0223012718
 51
262.1150730253
  0
LWPOLYLINE
  5
32A
330
1F
100
AcDbEntity
  8
0
  6
Continuous
 62
     7
370
    25
100
AcDbPolyline
 90
        3
 70
   128
 43
0.0
 10
126.8910425934
 20
-1145.1787036028
 10
127.0030160607
 20
-1145.2536016451
 10
128.1022473302
 20
-1146.3342358012
  0
LINE
  5
32B
330
1F
100
AcDbEntity
  8
0
  6
Continuous
 62
     7
370
    25
100
AcDbLine
 10
128.1022473302
 20
-1134.2917191821
 30
0.0
 11
126.8905766963
 21
-1135.4495129033
 31
0.0
  0
ARC
  5
32C
330
1F
100
AcDbEntity
  8
0
  6
Continuous
 62
     7
370
    25
100
AcDbCircle
 10
136.0862593774
 20
-1140.3129774916
 30
0.0
 40
10.00000000000011
100
AcDbArc
 50
96.3429294045
 51
142.9776987282
  0
ARC
  5
32D
330
1F
100
AcDbEntity
  8
0
  6
Continuous
 62
     7
370
    25
100
AcDbCircle
 10
122.657824168
 20
-62.6699579066
 30
0.0
 40
34.22602239360021
100
AcDbArc
 50
180.3767705273
 51
270.4285972927
  0
LINE
  5
32E
330
1F
100
AcDbEntity
  8
0
  6
Continuous
 62
     7
370
    25
100
AcDbLine
 10
88.4325417774
 20
292.1049772862
 30
0.0
 11
88.4325417774
 21
-62.8950227138
 31
0.0
  0
ARC
  5
32F
330
1F
100
AcDbEntity
  8
0
  6
Continuous
 62
     7
370
    25
100
AcDbCircle
 10
122.6924639465
 20
291.8447823384
 30
0.0
 40
34.2609102103449
100
AcDbArc
 50
89.6297699385
 51
179.5648622416
  0
ARC
  5
330
330
1F
100
AcDbEntity
  8
0
  6
Continuous
 62
     7
370
    25
100
AcDbCircle
 10
219.5146945868
 20
291.8799124791
 30
0.0
 40
34.22602239360013
100
AcDbArc
 50
0.3767705273
 51
90.4285972927
  0
LINE
  5
331
330
1F
100
AcDbEntity
  8
0
  6
Continuous
 62
     7
370
    25
100
AcDbLine
 10
253.7399769774
 20
-62.8950227138
 30
0.0
 11
253.7399769774
 21
292.1049772862
 31
0.0
  0
ARC
  5
332
330
1F
100
AcDbEntity
  8
0
  6
Continuous
 62
     7
370
    25
100
AcDbCircle
 10
219.4800548084
 20
-62.634827766
 30
0.0
 40
34.26091021034502
100
AcDbArc
 50
269.6297699385
 51
359.5648622416
  0
ARC
  5
333
330
1F
100
AcDbEntity
  8
0
  6
Continuous
 62
     7
370
    25
100
AcDbCircle
 10
215.0862593774
 20
308.6049772862
 30
0.0
 40
6.0
100
AcDbArc
 50
0.0
 51
90.0
  0
LINE
  5
334
330
1F
100
AcDbEntity
  8
0
  6
Continuous
 62
     7
370
    25
100
AcDbLine
 10
221.0862593774
 20
290.6049772862
 30
0.0
 11
221.0862593774
 21
295.2827729353
 31
0.0
  0
LINE
  5
335
330
1F
100
AcDbEntity
  8
0
  6
Continuous
 62
     7
370
    25
100
AcDbLine
 10
221.0862593774
 20
303.9278470123
 30
0.0
 11
221.0862593774
 21
308.6049772862
 31
0.0
  0
ARC
  5
336
330
1F
100
AcDbEntity
  8
0
  6
Continuous
 62
     7
370
    25
100
AcDbCircle
 10
215.0862593774
 20
290.6049772862
 30
0.0
 40
6.0
100
AcDbArc
 50
270.0
 51
0.0
  0
LINE
  5
337
330
1F
100
AcDbEntity
  8
0
  6
Continuous
 62
     7
370
    25
100
AcDbLine
 10
209.6798567027
 20
284.6049772862
 30
0.0
 11
215.0862593774
 21
284.6049772862
 31
0.0
  0
LINE
  5
338
330
1F
100
AcDbEntity
  8
0
  6
Continuous
 62
     7
370
    25
100
AcDbLine
 10
127.0862593774
 20
284.6049772862
 30
0.0
 11
139.6798567027
 21
284.6049772862
 31
0.0
  0
ARC
  5
339
330
1F
100
AcDbEntity
  8
0
  6
Continuous
 62
     7
370
    25
100
AcDbCircle
 10
127.0862593774
 20
290.6049772862
 30
0.0
 40
6.0
100
AcDbArc
 50
180.0
 51
270.0
  0
LINE
  5
33A
330
1F
100
AcDbEntity
  8
0
  6
Continuous
 62
     7
370
    25
100
AcDbLine
 10
121.0862593774
 20
308.6049772862
 30
0.0
 11
121.0862593774
 21
303.9271816372
 31
0.0
  0
LINE
  5
33B
330
1F
100
AcDbEntity
  8
0
  6
Continuous
 62
     7
370
    25
100
AcDbLine
 10
121.0862593774
 20
295.2821075602
 30
0.0
 11
121.0862593774
 21
290.6049772862
 31
0.0
  0
ARC
  5
33C
330
1F
100
AcDbEntity
  8
0
  6
Continuous
 62
     7
370
    25
100
AcDbCircle
 10
127.0862593774
 20
308.6049772862
 30
0.0
 40
6.0
100
AcDbArc
 50
90.0
 51
180.0
  0
LINE
  5
33D
330
1F
100
AcDbEntity
  8
0
  6
Continuous
 62
     7
370
    25
100
AcDbLine
 10
139.6798567027
 20
314.6049772862
 30
0.0
 11
127.0862593774
 21
314.6049772862
 31
0.0
  0
LINE
  5
33E
330
1F
100
AcDbEntity
  8
0
  6
Continuous
 62
     7
370
    25
100
AcDbLine
 10
215.0862593774
 20
314.6049772862
 30
0.0
 11
209.6798567027
 21
314.6049772862
 31
0.0
  0
ARC
  5
33F
330
1F
100
AcDbEntity
  8
0
  6
Continuous
 62
     7
370
    25
100
AcDbCircle
 10
206.0862593774
 20
299.6049772862
 30
0.0
 40
10.50000000000002
100
AcDbArc
 50
28.4114118356
 51
69.9861450687
  0
ARC
  5
340
330
1F
100
AcDbEntity
  8
0
  6
Continuous
 62
     7
370
    25
100
AcDbCircle
 10
206.0862593774
 20
299.6049772862
 30
0.0
 40
10.50000000000002
100
AcDbArc
 50
290.0138549313
 51
331.8837380945
  0
ARC
  5
341
330
1F
100
AcDbEntity
  8
0
  6
Continuous
 62
     7
370
    25
100
AcDbCircle
 10
136.0862593774
 20
299.6049772862
 30
0.0
 40
10.50000000000002
100
AcDbArc
 50
96.3333164075
 51
152.8985254243
  0
ARC
  5
342
330
1F
100
AcDbEntity
  8
0
  6
Continuous
 62
     7
370
    25
100
AcDbCircle
 10
136.0862593774
 20
299.6049772862
 30
0.0
 40
10.50000000000006
100
AcDbArc
 50
207.7946154726
 51
264.7910877516
  0
LINE
  5
343
330
1F
100
AcDbEntity
  8
0
  6
Continuous
 62
     7
370
    25
100
AcDbLine
 10
123.5862593774
 20
332.1049772862
 30
0.0
 11
139.6798567027
 21
332.1049772862
 31
0.0
  0
LINE
  5
344
330
1F
100
AcDbEntity
  8
0
  6
Continuous
 62
     7
370
    25
100
AcDbLine
 10
209.6798567027
 20
332.1049772862
 30
0.0
 11
218.5862593774
 21
332.1049772862
 31
0.0
  0
LWPOLYLINE
  5
345
330
1F
100
AcDbEntity
  8
0
  6
Continuous
 62
     7
370
    25
100
AcDbPolyline
 90
        9
 70
   128
 43
0.0
 10
218.5862593774
 20
332.1049772862
 10
218.7174404702
 20
331.9896889687
 10
218.8435803471
 20
331.6482544813
 10
218.9598315235
 20
331.0937949601
 10
219.0617265318
 20
330.3476179734
 10
219.145349604
 20
329.4383986844
 10
219.2074871523
 20
328.4010778804
 10
219.2457512657
 20
327.2755192183
 10
219.2586714756
 20
326.1049772862
  0
LWPOLYLINE
  5
346
330
1F
100
AcDbEntity
  8
0
  6
Continuous
 62
     7
370
    25
100
AcDbPolyline
 90
        9
 70
   128
 43
0.0
 10
123.5862593774
 20
332.1049772862
 10
123.4550782847
 20
331.9896889687
 10
123.3289384077
 20
331.6482544813
 10
123.2126872314
 20
331.0937949601
 10
123.1107922231
 20
330.3476179734
 10
123.0271691508
 20
329.4383986844
 10
122.9650316025
 20
328.4010778804
 10
122.9267674892
 20
327.2755192183
 10
122.9138472792
 20
326.1049772862
  0
LINE
  5
347
330
1F
100
AcDbEntity
  8
0
  6
Continuous
 62
     7
370
    25
100
AcDbLine
 10
215.0862593774
 20
-85.3950227138
 30
0.0
 11
209.6798567027
 21
-85.3950227138
 31
0.0
  0
ARC
  5
348
330
1F
100
AcDbEntity
  8
0
  6
Continuous
 62
     7
370
    25
100
AcDbCircle
 10
127.0862593774
 20
-79.3950227138
 30
0.0
 40
6.0
100
AcDbArc
 50
180.0
 51
270.0
  0
LINE
  5
349
330
1F
100
AcDbEntity
  8
0
  6
Continuous
 62
     7
370
    25
100
AcDbLine
 10
121.0862593774
 20
-79.3950227138
 30
0.0
 11
121.0862593774
 21
-74.7178924398
 31
0.0
  0
LINE
  5
34A
330
1F
100
AcDbEntity
  8
0
  6
Continuous
 62
     7
370
    25
100
AcDbLine
 10
121.0862593774
 20
-66.0728183628
 30
0.0
 11
121.0862593774
 21
-61.3950227138
 31
0.0
  0
ARC
  5
34B
330
1F
100
AcDbEntity
  8
0
  6
Continuous
 62
     7
370
    25
100
AcDbCircle
 10
127.0862593774
 20
-61.3950227138
 30
0.0
 40
6.0
100
AcDbArc
 50
90.0
 51
180.0
  0
ARC
  5
34C
330
1F
100
AcDbEntity
  8
0
  6
Continuous
 62
     7
370
    25
100
AcDbCircle
 10
206.0862593774
 20
-70.3950227138
 30
0.0
 40
10.50000000000002
100
AcDbArc
 50
28.4114118356
 51
69.9861450687
  0
ARC
  5
34D
330
1F
100
AcDbEntity
  8
0
  6
Continuous
 62
     7
370
    25
100
AcDbCircle
 10
206.0862593774
 20
-70.3950227138
 30
0.0
 40
10.50000000000003
100
AcDbArc
 50
290.0138549313
 51
331.8837380945
  0
ARC
  5
34E
330
1F
100
AcDbEntity
  8
0
  6
Continuous
 62
     7
370
    25
100
AcDbCircle
 10
215.0862593774
 20
-79.3950227138
 30
0.0
 40
6.0
100
AcDbArc
 50
270.0
 51
0.0
  0
ARC
  5
34F
330
1F
100
AcDbEntity
  8
0
  6
Continuous
 62
     7
370
    25
100
AcDbCircle
 10
215.0862593774
 20
-61.3950227138
 30
0.0
 40
6.0
100
AcDbArc
 50
0.0
 51
90.0
  0
LINE
  5
350
330
1F
100
AcDbEntity
  8
0
  6
Continuous
 62
     7
370
    25
100
AcDbLine
 10
221.0862593774
 20
-61.3950227138
 30
0.0
 11
221.0862593774
 21
-66.0721529877
 31
0.0
  0
LINE
  5
351
330
1F
100
AcDbEntity
  8
0
  6
Continuous
 62
     7
370
    25
100
AcDbLine
 10
221.0862593774
 20
-74.7172270647
 30
0.0
 11
221.0862593774
 21
-79.3950227138
 31
0.0
  0
ARC
  5
352
330
1F
100
AcDbEntity
  8
0
  6
Continuous
 62
     7
370
    25
100
AcDbCircle
 10
136.0862593774
 20
-70.3950227138
 30
0.0
 40
10.50000000000001
100
AcDbArc
 50
95.0135789503
 51
152.8985254244
  0
ARC
  5
353
330
1F
100
AcDbEntity
  8
0
  6
Continuous
 62
     7
370
    25
100
AcDbCircle
 10
136.0862593774
 20
-70.3950227138
 30
0.0
 40
10.50000000000003
100
AcDbArc
 50
207.7946154726
 51
263.3818789311
  0
LINE
  5
354
330
1F
100
AcDbEntity
  8
0
  6
Continuous
 62
     7
370
    25
100
AcDbLine
 10
139.6798567027
 20
-85.3950227138
 30
0.0
 11
127.0862593774
 21
-85.3950227138
 31
0.0
  0
LINE
  5
355
330
1F
100
AcDbEntity
  8
0
  6
Continuous
 62
     7
370
    25
100
AcDbLine
 10
209.6798567027
 20
-55.3950227138
 30
0.0
 11
215.0862593774
 21
-55.3950227138
 31
0.0
  0
LINE
  5
356
330
1F
100
AcDbEntity
  8
0
  6
Continuous
 62
     7
370
    25
100
AcDbLine
 10
127.0862593774
 20
-55.3950227138
 30
0.0
 11
139.6798567027
 21
-55.3950227138
 31
0.0
  0
LWPOLYLINE
  5
357
330
1F
100
AcDbEntity
  8
0
  6
Continuous
 62
     7
370
    25
100
AcDbPolyline
 90
        9
 70
   128
 43
0.0
 10
219.2586714756
 20
-96.8950227138
 10
219.2457512657
 20
-98.0655646459
 10
219.2074871523
 20
-99.1911233079
 10
219.145349604
 20
-100.2284441119
 10
219.0617265318
 20
-101.1376634009
 10
218.9598315235
 20
-101.8838403876
 10
218.8435803471
 20
-102.4382999088
 10
218.7174404702
 20
-102.7797343962
 10
218.5862593774
 20
-102.8950227138
  0
LINE
  5
358
330
1F
100
AcDbEntity
  8
0
  6
Continuous
 62
     7
370
    25
100
AcDbLine
 10
218.5862593774
 20
-102.8950227138
 30
0.0
 11
209.6798567027
 21
-102.8950227138
 31
0.0
  0
LINE
  5
359
330
1F
100
AcDbEntity
  8
0
  6
Continuous
 62
     7
370
    25
100
AcDbLine
 10
139.6798567027
 20
-102.8950227138
 30
0.0
 11
123.5862593774
 21
-102.8950227138
 31
0.0
  0
LWPOLYLINE
  5
35A
330
1F
100
AcDbEntity
  8
0
  6
Continuous
 62
     7
370
    25
100
AcDbPolyline
 90
        9
 70
   128
 43
0.0
 10
122.9138472792
 20
-96.8950227138
 10
122.9267674892
 20
-98.0655646459
 10
122.9650316025
 20
-99.1911233079
 10
123.0271691508
 20
-100.2284441119
 10
123.1107922231
 20
-101.1376634009
 10
123.2126872314
 20
-101.8838403876
 10
123.3289384077
 20
-102.4382999088
 10
123.4550782847
 20
-102.7797343962
 10
123.5862593774
 20
-102.8950227138
  0
ARC
  5
35B
330
1F
100
AcDbEntity
  8
0
  6
Continuous
 62
     7
370
    25
100
AcDbCircle
 10
218.5862593774
 20
292.1049772862
 30
0.0
 40
39.99999999999963
100
AcDbArc
 50
0.0
 51
90.0
  0
LINE
  5
35C
330
1F
100
AcDbEntity
  8
0
  6
Continuous
 62
     7
370
    25
100
AcDbLine
 10
258.5862593774
 20
292.1049772862
 30
0.0
 11
253.7399769774
 21
292.1049772862
 31
0.0
  0
ARC
  5
35D
330
1F
100
AcDbEntity
  8
0
  6
Continuous
 62
     7
370
    25
100
AcDbCircle
 10
123.5862593774
 20
-62.8950227138
 30
0.0
 40
40.00000000000007
100
AcDbArc
 50
180.0
 51
270.0
  0
LINE
  5
35E
330
1F
100
AcDbEntity
  8
0
  6
Continuous
 62
     7
370
    25
100
AcDbLine
 10
88.4325417774
 20
-62.8950227138
 30
0.0
 11
83.5862593774
 21
-62.8950227138
 31
0.0
  0
LINE
  5
35F
330
1F
100
AcDbEntity
  8
0
  6
Continuous
 62
     7
370
    25
100
AcDbLine
 10
88.4325417774
 20
292.1049772862
 30
0.0
 11
83.5862593774
 21
292.1049772862
 31
0.0
  0
ARC
  5
360
330
1F
100
AcDbEntity
  8
0
  6
Continuous
 62
     7
370
    25
100
AcDbCircle
 10
123.5892900758
 20
292.1019465878
 30
0.0
 40
40.00303081322271
100
AcDbArc
 50
90.0043408268
 51
179.9956591732
  0
LINE
  5
361
330
1F
100
AcDbEntity
  8
0
  6
Continuous
 62
     7
370
    25
100
AcDbLine
 10
258.5862593774
 20
-62.8950227138
 30
0.0
 11
253.7399769774
 21
-62.8950227138
 31
0.0
  0
ARC
  5
362
330
1F
100
AcDbEntity
  8
0
  6
Continuous
 62
     7
370
    25
100
AcDbCircle
 10
218.583228679
 20
-62.8919920153
 30
0.0
 40
40.00303081322296
100
AcDbArc
 50
270.0043408268
 51
359.9956591732
  0
LINE
  5
363
330
1F
100
AcDbEntity
  8
0
  6
Continuous
 62
     7
370
    25
100
AcDbLine
 10
258.5862593774
 20
292.1049772862
 30
0.0
 11
258.5862593774
 21
-62.8950227138
 31
0.0
  0
LINE
  5
364
330
1F
100
AcDbEntity
  8
0
  6
Continuous
 62
     7
370
    25
100
AcDbLine
 10
83.5862593774
 20
-62.8950227138
 30
0.0
 11
83.5862593774
 21
292.1049772862
 31
0.0
  0
LINE
  5
365
330
1F
100
AcDbEntity
  8
0
  6
Continuous
 62
     7
370
    25
100
AcDbLine
 10
123.5862593774
 20
-737.8129774916
 30
0.0
 11
139.6798567027
 21
-737.8129774916
 31
0.0
  0
LINE
  5
366
330
1F
100
AcDbEntity
  8
0
  6
Continuous
 62
     7
370
    25
100
AcDbLine
 10
209.6798567027
 20
-737.8129774916
 30
0.0
 11
218.5862593774
 21
-737.8129774916
 31
0.0
  0
LWPOLYLINE
  5
367
330
1F
100
AcDbEntity
  8
0
  6
Continuous
 62
     7
370
    25
100
AcDbPolyline
 90
        9
 70
   128
 43
0.0
 10
218.5862593774
 20
-737.8129774916
 10
218.7174404702
 20
-737.9282658092
 10
218.8435803471
 20
-738.2697002966
 10
218.9598315235
 20
-738.8241598178
 10
219.0617265318
 20
-739.5703368045
 10
219.145349604
 20
-740.4795560935
 10
219.2074871523
 20
-741.5168768974
 10
219.2457512657
 20
-742.6424355595
 10
219.2586714756
 20
-743.8129774916
  0
LWPOLYLINE
  5
368
330
1F
100
AcDbEntity
  8
0
  6
Continuous
 62
     7
370
    25
100
AcDbPolyline
 90
        9
 70
   128
 43
0.0
 10
123.5862593774
 20
-737.8129774916
 10
123.4550782847
 20
-737.9282658092
 10
123.3289384077
 20
-738.2697002966
 10
123.2126872314
 20
-738.8241598178
 10
123.1107922231
 20
-739.5703368045
 10
123.0271691508
 20
-740.4795560935
 10
122.9650316025
 20
-741.5168768974
 10
122.9267674892
 20
-742.6424355595
 10
122.9138472792
 20
-743.8129774916
  0
ARC
  5
369
330
1F
100
AcDbEntity
  8
0
  6
Continuous
 62
     7
370
    25
100
AcDbCircle
 10
122.657824168
 20
-1132.5879126845
 30
0.0
 40
34.22602239360025
100
AcDbArc
 50
180.3767705273
 51
270.4285972927
  0
LINE
  5
36A
330
1F
100
AcDbEntity
  8
0
  6
Continuous
 62
     7
370
    25
100
AcDbLine
 10
88.4325417774
 20
-777.8129774916
 30
0.0
 11
88.4325417774
 21
-1132.8129774916
 31
0.0
  0
ARC
  5
36B
330
1F
100
AcDbEntity
  8
0
  6
Continuous
 62
     7
370
    25
100
AcDbCircle
 10
122.6924639465
 20
-778.0731724394
 30
0.0
 40
34.26091021034512
100
AcDbArc
 50
89.6297699385
 51
179.5648622416
  0
ARC
  5
36C
330
1F
100
AcDbEntity
  8
0
  6
Continuous
 62
     7
370
    25
100
AcDbCircle
 10
219.5146945868
 20
-778.0380422988
 30
0.0
 40
34.22602239360041
100
AcDbArc
 50
0.3767705273
 51
90.4285972927
  0
LINE
  5
36D
330
1F
100
AcDbEntity
  8
0
  6
Continuous
 62
     7
370
    25
100
AcDbLine
 10
253.7399769774
 20
-1132.8129774916
 30
0.0
 11
253.7399769774
 21
-777.8129774916
 31
0.0
  0
ARC
  5
36E
330
1F
100
AcDbEntity
  8
0
  6
Continuous
 62
     7
370
    25
100
AcDbCircle
 10
219.4800548084
 20
-1132.5527825438
 30
0.0
 40
34.26091021034492
100
AcDbArc
 50
269.6297699385
 51
359.5648622416
  0
ARC
  5
36F
330
1F
100
AcDbEntity
  8
0
  6
Continuous
 62
     7
370
    25
100
AcDbCircle
 10
215.0862593774
 20
-761.3129774916
 30
0.0
 40
6.0
100
AcDbArc
 50
0.0
 51
90.0
  0
LINE
  5
370
330
1F
100
AcDbEntity
  8
0
  6
Continuous
 62
     7
370
    25
100
AcDbLine
 10
221.0862593774
 20
-779.3129774916
 30
0.0
 11
221.0862593774
 21
-774.6351818426
 31
0.0
  0
LINE
  5
371
330
1F
100
AcDbEntity
  8
0
  6
Continuous
 62
     7
370
    25
100
AcDbLine
 10
221.0862593774
 20
-765.9901077655
 30
0.0
 11
221.0862593774
 21
-761.3129774916
 31
0.0
  0
ARC
  5
372
330
1F
100
AcDbEntity
  8
0
  6
Continuous
 62
     7
370
    25
100
AcDbCircle
 10
215.0862593774
 20
-779.3129774916
 30
0.0
 40
6.0
100
AcDbArc
 50
270.0
 51
0.0
  0
ARC
  5
373
330
1F
100
AcDbEntity
  8
0
  6
Continuous
 62
     7
370
    25
100
AcDbCircle
 10
127.0862593774
 20
-779.3129774916
 30
0.0
 40
6.0
100
AcDbArc
 50
180.0
 51
270.0
  0
LINE
  5
374
330
1F
100
AcDbEntity
  8
0
  6
Continuous
 62
     7
370
    25
100
AcDbLine
 10
121.0862593774
 20
-761.3129774916
 30
0.0
 11
121.0862593774
 21
-765.9907731407
 31
0.0
  0
LINE
  5
375
330
1F
100
AcDbEntity
  8
0
  6
Continuous
 62
     7
370
    25
100
AcDbLine
 10
121.0862593774
 20
-774.6358472177
 30
0.0
 11
121.0862593774
 21
-779.3129774916
 31
0.0
  0
ARC
  5
376
330
1F
100
AcDbEntity
  8
0
  6
Continuous
 62
     7
370
    25
100
AcDbCircle
 10
127.0862593774
 20
-761.3129774916
 30
0.0
 40
6.0
100
AcDbArc
 50
90.0
 51
180.0
  0
ARC
  5
377
330
1F
100
AcDbEntity
  8
0
  6
Continuous
 62
     7
370
    25
100
AcDbCircle
 10
206.0862593774
 20
-770.3129774916
 30
0.0
 40
10.50000000000005
100
AcDbArc
 50
28.4114118356
 51
69.9861450687
  0
ARC
  5
378
330
1F
100
AcDbEntity
  8
0
  6
Continuous
 62
     7
370
    25
100
AcDbCircle
 10
206.0862593774
 20
-770.3129774916
 30
0.0
 40
10.50000000000002
100
AcDbArc
 50
290.0138549313
 51
331.8837380945
  0
ARC
  5
379
330
1F
100
AcDbEntity
  8
0
  6
Continuous
 62
     7
370
    25
100
AcDbCircle
 10
136.0862593774
 20
-770.3129774916
 30
0.0
 40
10.5000000000001
100
AcDbArc
 50
96.3333164075
 51
152.8985254243
  0
ARC
  5
37A
330
1F
100
AcDbEntity
  8
0
  6
Continuous
 62
     7
370
    25
100
AcDbCircle
 10
136.0862593774
 20
-770.3129774916
 30
0.0
 40
10.49999999999997
100
AcDbArc
 50
207.7946154726
 51
264.7910877516
  0
LINE
  5
37B
330
1F
100
AcDbEntity
  8
0
  6
Continuous
 62
     7
370
    25
100
AcDbLine
 10
127.0862593774
 20
-785.3129774916
 30
0.0
 11
139.6798567027
 21
-785.3129774916
 31
0.0
  0
LINE
  5
37C
330
1F
100
AcDbEntity
  8
0
  6
Continuous
 62
     7
370
    25
100
AcDbLine
 10
215.0862593774
 20
-755.3129774916
 30
0.0
 11
209.6798567027
 21
-755.3129774916
 31
0.0
  0
LINE
  5
37D
330
1F
100
AcDbEntity
  8
0
  6
Continuous
 62
     7
370
    25
100
AcDbLine
 10
139.6798567027
 20
-755.3129774916
 30
0.0
 11
127.0862593774
 21
-755.3129774916
 31
0.0
  0
LINE
  5
37E
330
1F
100
AcDbEntity
  8
0
  6
Continuous
 62
     7
370
    25
100
AcDbLine
 10
209.6798567027
 20
-785.3129774916
 30
0.0
 11
215.0862593774
 21
-785.3129774916
 31
0.0
  0
ARC
  5
37F
330
1F
100
AcDbEntity
  8
0
  6
Continuous
 62
     7
370
    25
100
AcDbCircle
 10
215.0862593774
 20
-1131.3129774916
 30
0.0
 40
6.0
100
AcDbArc
 50
0.0
 51
90.0
  0
LINE
  5
380
330
1F
100
AcDbEntity
  8
0
  6
Continuous
 62
     7
370
    25
100
AcDbLine
 10
221.0862593774
 20
-1131.3129774916
 30
0.0
 11
221.0862593774
 21
-1135.9901077655
 31
0.0
  0
LINE
  5
381
330
1F
100
AcDbEntity
  8
0
  6
Continuous
 62
     7
370
    25
100
AcDbLine
 10
221.0862593774
 20
-1144.6351818426
 30
0.0
 11
221.0862593774
 21
-1149.3129774916
 31
0.0
  0
ARC
  5
382
330
1F
100
AcDbEntity
  8
0
  6
Continuous
 62
     7
370
    25
100
AcDbCircle
 10
215.0862593774
 20
-1149.3129774916
 30
0.0
 40
6.000000000000227
100
AcDbArc
 50
270.0
 51
0.0
  0
LINE
  5
383
330
1F
100
AcDbEntity
  8
0
  6
Continuous
 62
     7
370
    25
100
AcDbLine
 10
215.0862593774
 20
-1155.3129774916
 30
0.0
 11
209.6798567027
 21
-1155.3129774916
 31
0.0
  0
LINE
  5
384
330
1F
100
AcDbEntity
  8
0
  6
Continuous
 62
     7
370
    25
100
AcDbLine
 10
139.6798567027
 20
-1155.3129774916
 30
0.0
 11
127.0862593774
 21
-1155.3129774916
 31
0.0
  0
ARC
  5
385
330
1F
100
AcDbEntity
  8
0
  6
Continuous
 62
     7
370
    25
100
AcDbCircle
 10
127.0862593774
 20
-1149.3129774916
 30
0.0
 40
6.000000000000227
100
AcDbArc
 50
180.0
 51
270.0
  0
LINE
  5
386
330
1F
100
AcDbEntity
  8
0
  6
Continuous
 62
     7
370
    25
100
AcDbLine
 10
121.0862593774
 20
-1149.3129774916
 30
0.0
 11
121.0862593774
 21
-1144.6358472177
 31
0.0
  0
LINE
  5
387
330
1F
100
AcDbEntity
  8
0
  6
Continuous
 62
     7
370
    25
100
AcDbLine
 10
121.0862593774
 20
-1135.9907731407
 30
0.0
 11
121.0862593774
 21
-1131.3129774916
 31
0.0
  0
ARC
  5
388
330
1F
100
AcDbEntity
  8
0
  6
Continuous
 62
     7
370
    25
100
AcDbCircle
 10
127.0862593774
 20
-1131.3129774916
 30
0.0
 40
6.0
100
AcDbArc
 50
90.0
 51
180.0
  0
ARC
  5
389
330
1F
100
AcDbEntity
  8
0
  6
Continuous
 62
     7
370
    25
100
AcDbCircle
 10
206.0862593774
 20
-1140.3129774916
 30
0.0
 40
10.50000000000005
100
AcDbArc
 50
28.4114118356
 51
69.9861450687
  0
ARC
  5
38A
330
1F
100
AcDbEntity
  8
0
  6
Continuous
 62
     7
370
    25
100
AcDbCircle
 10
206.0862593774
 20
-1140.3129774916
 30
0.0
 40
10.50000000000012
100
AcDbArc
 50
290.0138549313
 51
331.8837380945
  0
ARC
  5
38B
330
1F
100
AcDbEntity
  8
0
  6
Continuous
 62
     7
370
    25
100
AcDbCircle
 10
136.0862593774
 20
-1140.3129774916
 30
0.0
 40
10.49999999999999
100
AcDbArc
 50
95.0135789503
 51
152.8985254244
  0
ARC
  5
38C
330
1F
100
AcDbEntity
  8
0
  6
Continuous
 62
     7
370
    25
100
AcDbCircle
 10
136.0862593774
 20
-1140.3129774916
 30
0.0
 40
10.50000000000011
100
AcDbArc
 50
207.7946154726
 51
263.3818789311
  0
LINE
  5
38D
330
1F
100
AcDbEntity
  8
0
  6
Continuous
 62
     7
370
    25
100
AcDbLine
 10
127.0862593774
 20
-1125.3129774916
 30
0.0
 11
139.6798567027
 21
-1125.3129774916
 31
0.0
  0
LINE
  5
38E
330
1F
100
AcDbEntity
  8
0
  6
Continuous
 62
     7
370
    25
100
AcDbLine
 10
209.6798567027
 20
-1125.3129774916
 30
0.0
 11
215.0862593774
 21
-1125.3129774916
 31
0.0
  0
LWPOLYLINE
  5
38F
330
1F
100
AcDbEntity
  8
0
  6
Continuous
 62
     7
370
    25
100
AcDbPolyline
 90
        9
 70
   128
 43
0.0
 10
219.2586714756
 20
-1166.8129774916
 10
219.2457512657
 20
-1167.9835194237
 10
219.2074871523
 20
-1169.1090780858
 10
219.145349604
 20
-1170.1463988898
 10
219.0617265318
 20
-1171.0556181788
 10
218.9598315235
 20
-1171.8017951654
 10
218.8435803471
 20
-1172.3562546867
 10
218.7174404702
 20
-1172.6976891741
 10
218.5862593774
 20
-1172.8129774916
  0
LINE
  5
390
330
1F
100
AcDbEntity
  8
0
  6
Continuous
 62
     7
370
    25
100
AcDbLine
 10
218.5862593774
 20
-1172.8129774916
 30
0.0
 11
209.6798567027
 21
-1172.8129774916
 31
0.0
  0
LINE
  5
391
330
1F
100
AcDbEntity
  8
0
  6
Continuous
 62
     7
370
    25
100
AcDbLine
 10
139.6798567027
 20
-1172.8129774916
 30
0.0
 11
123.5862593774
 21
-1172.8129774916
 31
0.0
  0
LWPOLYLINE
  5
392
330
1F
100
AcDbEntity
  8
0
  6
Continuous
 62
     7
370
    25
100
AcDbPolyline
 90
        9
 70
   128
 43
0.0
 10
122.9138472792
 20
-1166.8129774916
 10
122.9267674892
 20
-1167.9835194237
 10
122.9650316025
 20
-1169.1090780858
 10
123.0271691508
 20
-1170.1463988898
 10
123.1107922231
 20
-1171.0556181788
 10
123.2126872314
 20
-1171.8017951654
 10
123.3289384077
 20
-1172.3562546867
 10
123.4550782847
 20
-1172.6976891741
 10
123.5862593774
 20
-1172.8129774916
  0
ARC
  5
393
330
1F
100
AcDbEntity
  8
0
  6
Continuous
 62
     7
370
    25
100
AcDbCircle
 10
218.5862593774
 20
-777.8129774916
 30
0.0
 40
39.99999999999972
100
AcDbArc
 50
0.0
 51
90.0
  0
LINE
  5
394
330
1F
100
AcDbEntity
  8
0
  6
Continuous
 62
     7
370
    25
100
AcDbLine
 10
258.5862593774
 20
-777.8129774916
 30
0.0
 11
253.7399769774
 21
-777.8129774916
 31
0.0
  0
ARC
  5
395
330
1F
100
AcDbEntity
  8
0
  6
Continuous
 62
     7
370
    25
100
AcDbCircle
 10
123.5862593774
 20
-1132.8129774916
 30
0.0
 40
40.00000000000004
100
AcDbArc
 50
180.0
 51
270.0
  0
LINE
  5
396
330
1F
100
AcDbEntity
  8
0
  6
Continuous
 62
     7
370
    25
100
AcDbLine
 10
88.4325417774
 20
-1132.8129774916
 30
0.0
 11
83.5862593774
 21
-1132.8129774916
 31
0.0
  0
LINE
  5
397
330
1F
100
AcDbEntity
  8
0
  6
Continuous
 62
     7
370
    25
100
AcDbLine
 10
88.4325417774
 20
-777.8129774916
 30
0.0
 11
83.5862593774
 21
-777.8129774916
 31
0.0
  0
ARC
  5
398
330
1F
100
AcDbEntity
  8
0
  6
Continuous
 62
     7
370
    25
100
AcDbCircle
 10
123.5892900758
 20
-777.8160081901
 30
0.0
 40
40.0030308132228
100
AcDbArc
 50
90.0043408268
 51
179.9956591732
  0
LINE
  5
399
330
1F
100
AcDbEntity
  8
0
  6
Continuous
 62
     7
370
    25
100
AcDbLine
 10
258.5862593774
 20
-1132.8129774916
 30
0.0
 11
253.7399769774
 21
-1132.8129774916
 31
0.0
  0
ARC
  5
39A
330
1F
100
AcDbEntity
  8
0
  6
Continuous
 62
     7
370
    25
100
AcDbCircle
 10
218.583228679
 20
-1132.8099467932
 30
0.0
 40
40.00303081322296
100
AcDbArc
 50
270.0043408268
 51
359.9956591732
  0
LINE
  5
39B
330
1F
100
AcDbEntity
  8
0
  6
Continuous
 62
     7
370
    25
100
AcDbLine
 10
83.5862593774
 20
-1132.8129774916
 30
0.0
 11
83.5862593774
 21
-777.8129774916
 31
0.0
  0
LINE
  5
39C
330
1F
100
AcDbEntity
  8
0
  6
Continuous
 62
     7
370
    25
100
AcDbLine
 10
258.5862593774
 20
-777.8129774916
 30
0.0
 11
258.5862593774
 21
-1132.8129774916
 31
0.0
  0
ARC
  5
39D
330
1F
100
AcDbEntity
  8
0
  6
Continuous
 62
     7
370
    25
100
AcDbCircle
 10
272.8976686383
 20
586.4355750092
 30
0.0
 40
24.34461400777864
100
AcDbArc
 50
284.5139287004
 51
294.7227101914
  0
ARC
  5
39E
330
1F
100
AcDbEntity
  8
0
  6
Continuous
 62
     7
370
    25
100
AcDbCircle
 10
76.4620447671
 20
586.4355750092
 30
0.0
 40
24.34461400781686
100
AcDbArc
 50
245.2772898086
 51
255.4860712996
  0
LINE
  5
39F
330
1F
100
AcDbEntity
  8
0
  6
Continuous
 62
     7
370
    25
100
AcDbLine
 10
171.7587810067
 20
622.6593754811
 30
0.0
 11
177.6086138881
 21
622.6593754811
 31
0.0
  0
LINE
  5
3A0
330
1F
100
AcDbEntity
  8
0
  6
Continuous
 62
     7
370
    25
100
AcDbLine
 10
179.7890832165
 20
565.7191855586
 30
0.0
 11
169.5699915259
 21
565.7191855586
 31
0.0
  0
LWPOLYLINE
  5
3A1
330
1F
100
AcDbEntity
  8
0
  6
Continuous
 62
     7
370
    25
100
AcDbPolyline
 90
        9
 70
   128
 43
0.0
 10
171.3568562549
 20
583.5984815121
 10
171.6643654466
 20
583.6635135787
 10
172.6400543493
 20
583.7921824457
 10
173.7216138296
 20
583.8365187157
 10
174.8031733099
 20
583.7921824457
 10
175.7788622126
 20
583.6635135787
 10
176.5531733099
 20
583.4631071199
 10
177.0503116366
 20
583.2105802498
 10
177.2216138296
 20
582.9306520579
  0
LWPOLYLINE
  5
3A2
330
1F
100
AcDbEntity
  8
0
  6
Continuous
 62
     7
370
    25
100
AcDbPolyline
 90
        9
 70
   128
 43
0.0
 10
177.2216138296
 20
579.8248235167
 10
177.0503116366
 20
579.5448953247
 10
176.5531733099
 20
579.2923684546
 10
175.7788622126
 20
579.0919619958
 10
174.8031733099
 20
578.9632931288
 10
173.7216138296
 20
578.9189568588
 10
172.6400543493
 20
578.9632931288
 10
171.6643654466
 20
579.0919619958
 10
171.0148733702
 20
579.2505276702
  0
LINE
  5
3A3
330
1F
100
AcDbEntity
  8
0
  6
Continuous
 62
     7
370
    25
100
AcDbLine
 10
177.2216138296
 20
582.9306520579
 30
0.0
 11
177.2216138296
 21
579.8248235167
 31
0.0
  0
LWPOLYLINE
  5
3A4
330
1F
100
AcDbEntity
  8
0
  6
Continuous
 62
     7
370
    25
100
AcDbPolyline
 90
       11
 70
   128
 43
0.0
 10
170.2216138296
 20
570.507337893
 10
170.3929160226
 20
570.7872660849
 10
170.8900543493
 20
571.039792955
 10
171.6643654466
 20
571.2401994138
 10
172.6400543493
 20
571.3688682808
 10
173.7216138296
 20
571.4132045508
 10
174.8031733099
 20
571.3688682808
 10
175.7788622126
 20
571.2401994138
 10
176.5531733099
 20
571.039792955
 10
177.0503116366
 20
570.7872660849
 10
177.2216138296
 20
570.507337893
  0
LINE
  5
3A5
330
1F
100
AcDbEntity
  8
0
  6
Continuous
 62
     7
370
    25
100
AcDbLine
 10
170.2216138296
 20
567.4015093517
 30
0.0
 11
170.2216138296
 21
570.507337893
 31
0.0
  0
LWPOLYLINE
  5
3A6
330
1F
100
AcDbEntity
  8
0
  6
Continuous
 62
     7
370
    25
100
AcDbPolyline
 90
       11
 70
   128
 43
0.0
 10
177.2216138296
 20
567.4015093517
 10
177.0503116366
 20
567.1215811598
 10
176.5531733099
 20
566.8690542897
 10
175.7788622126
 20
566.6686478309
 10
174.8031733099
 20
566.5399789639
 10
173.7216138296
 20
566.4956426939
 10
172.6400543493
 20
566.5399789639
 10
171.6643654466
 20
566.6686478309
 10
170.8900543493
 20
566.8690542897
 10
170.3929160226
 20
567.1215811598
 10
170.2216138296
 20
567.4015093517
  0
LINE
  5
3A7
330
1F
100
AcDbEntity
  8
0
  6
Continuous
 62
     7
370
    25
100
AcDbLine
 10
177.2216138296
 20
570.507337893
 30
0.0
 11
177.2216138296
 21
567.4015093517
 31
0.0
  0
LINE
  5
3A8
330
1F
100
AcDbEntity
  8
0
  6
Continuous
 62
     7
370
    25
100
AcDbLine
 10
283.0792470311
 20
564.3223280151
 30
0.0
 11
373.4698504135
 21
608.3215656825
 31
0.0
  0
LINE
  5
3A9
330
1F
100
AcDbEntity
  8
0
  6
Continuous
 62
     7
370
    25
100
AcDbLine
 10
66.2804663744
 20
564.3223280151
 30
0.0
 11
-24.1101370081
 21
608.3215656825
 31
0.0
  0
LWPOLYLINE
  5
3AA
330
1F
100
AcDbEntity
  8
0
  6
Continuous
 62
     7
370
    25
100
AcDbPolyline
 90
        3
 70
   128
 43
0.0
 10
172.6444629396
 20
566.5396090566
 10
173.7216138296
 20
566.5835754194
 10
174.7987647196
 20
566.5396090566
  0
LWPOLYLINE
  5
3AB
330
1F
100
AcDbEntity
  8
0
  6
Continuous
 62
     7
370
    25
100
AcDbPolyline
 90
        3
 70
   128
 43
0.0
 10
172.6444629382
 20
578.9629232214
 10
173.7216138296
 20
579.0068895843
 10
174.7987647211
 20
578.9629232213
  0
ARC
  5
3AC
330
1F
100
AcDbEntity
  8
0
  6
Continuous
 62
     7
370
    25
100
AcDbCircle
 10
-21.4879445117
 20
614.5296078932
 30
0.0
 40
6.739115785987785
100
AcDbArc
 50
222.1125714361
 51
247.1014661602
  0
ARC
  5
3AD
330
1F
100
AcDbEntity
  8
0
  6
Continuous
 62
     7
370
    25
100
AcDbCircle
 10
370.8476579172
 20
614.5296078932
 30
0.0
 40
6.739115785983899
100
AcDbArc
 50
292.8985338398
 51
317.8874285639
  0
LINE
  5
3AE
330
1F
100
AcDbEntity
  8
0
  6
Continuous
 62
     7
370
    25
100
AcDbLine
 10
171.7510995173
 20
-1463.3673756865
 30
0.0
 11
177.6009323987
 21
-1463.3673756865
 31
0.0
  0
LINE
  5
3AF
330
1F
100
AcDbEntity
  8
0
  6
Continuous
 62
     7
370
    25
100
AcDbLine
 10
179.7897218795
 20
-1406.427185764
 30
0.0
 11
169.5706301889
 21
-1406.427185764
 31
0.0
  0
LWPOLYLINE
  5
3B0
330
1F
100
AcDbEntity
  8
0
  6
Continuous
 62
     7
370
    25
100
AcDbPolyline
 90
        9
 70
   128
 43
0.0
 10
171.3627795837
 20
-1424.3078834964
 10
171.6643654466
 20
-1424.3715137841
 10
172.6400543493
 20
-1424.5001826511
 10
173.7216138296
 20
-1424.5445189211
 10
174.8031733099
 20
-1424.5001826511
 10
175.7788622126
 20
-1424.3715137841
 10
176.5531733099
 20
-1424.1711073253
 10
177.0503116366
 20
-1423.9185804552
 10
177.2216138296
 20
-1423.6386522633
  0
LINE
  5
3B1
330
1F
100
AcDbEntity
  8
0
  6
Continuous
 62
     7
370
    25
100
AcDbLine
 10
177.2216138296
 20
-1423.6386522633
 30
0.0
 11
177.2216138296
 21
-1420.532823722
 31
0.0
  0
LWPOLYLINE
  5
3B2
330
1F
100
AcDbEntity
  8
0
  6
Continuous
 62
     7
370
    25
100
AcDbPolyline
 90
        9
 70
   128
 43
0.0
 10
177.2216138296
 20
-1420.532823722
 10
177.0503116366
 20
-1420.2528955301
 10
176.5531733099
 20
-1420.00036866
 10
175.7788622126
 20
-1419.7999622012
 10
174.8031733099
 20
-1419.6712933342
 10
173.7216138296
 20
-1419.6269570642
 10
172.6400543493
 20
-1419.6712933342
 10
171.6643654466
 20
-1419.7999622012
 10
171.0178117926
 20
-1419.957601405
  0
LINE
  5
3B3
330
1F
100
AcDbEntity
  8
0
  6
Continuous
 62
     7
370
    25
100
AcDbLine
 10
170.2216138296
 20
-1408.1095095571
 30
0.0
 11
170.2216138296
 21
-1411.2153380984
 31
0.0
  0
LWPOLYLINE
  5
3B4
330
1F
100
AcDbEntity
  8
0
  6
Continuous
 62
     7
370
    25
100
AcDbPolyline
 90
       11
 70
   128
 43
0.0
 10
170.2216138296
 20
-1411.2153380984
 10
170.3929160226
 20
-1411.4952662903
 10
170.8900543493
 20
-1411.7477931604
 10
171.6643654466
 20
-1411.9481996192
 10
172.6400543493
 20
-1412.0768684862
 10
173.7216138296
 20
-1412.1212047562
 10
174.8031733099
 20
-1412.0768684862
 10
175.7788622126
 20
-1411.9481996192
 10
176.5531733099
 20
-1411.7477931604
 10
177.0503116366
 20
-1411.4952662903
 10
177.2216138296
 20
-1411.2153380984
  0
LINE
  5
3B5
330
1F
100
AcDbEntity
  8
0
  6
Continuous
 62
     7
370
    25
100
AcDbLine
 10
177.2216138296
 20
-1411.2153380984
 30
0.0
 11
177.2216138296
 21
-1408.1095095571
 31
0.0
  0
LWPOLYLINE
  5
3B6
330
1F
100
AcDbEntity
  8
0
  6
Continuous
 62
     7
370
    25
100
AcDbPolyline
 90
       11
 70
   128
 43
0.0
 10
177.2216138296
 20
-1408.1095095571
 10
177.0503116366
 20
-1407.8295813652
 10
176.5531733099
 20
-1407.5770544951
 10
175.7788622126
 20
-1407.3766480363
 10
174.8031733099
 20
-1407.2479791693
 10
173.7216138296
 20
-1407.2036428993
 10
172.6400543493
 20
-1407.2479791693
 10
171.6643654466
 20
-1407.3766480363
 10
170.8900543493
 20
-1407.5770544951
 10
170.3929160226
 20
-1407.8295813652
 10
170.2216138296
 20
-1408.1095095571
  0
ARC
  5
3B7
330
1F
100
AcDbEntity
  8
0
  6
Continuous
 62
     7
370
    25
100
AcDbCircle
 10
76.4620447672
 20
-1427.1435752148
 30
0.0
 40
24.34461400799851
100
AcDbArc
 50
104.5139287004
 51
114.7227101914
  0
ARC
  5
3B8
330
1F
100
AcDbEntity
  8
0
  6
Continuous
 62
     7
370
    25
100
AcDbCircle
 10
272.8976686383
 20
-1427.1435752146
 30
0.0
 40
24.34461400786888
100
AcDbArc
 50
65.2772898086
 51
75.4860712996
  0
LINE
  5
3B9
330
1F
100
AcDbEntity
  8
0
  6
Continuous
 62
     7
370
    25
100
AcDbLine
 10
283.0792470311
 20
-1405.0303282205
 30
0.0
 11
373.4698504135
 21
-1449.0295658879
 31
0.0
  0
LINE
  5
3BA
330
1F
100
AcDbEntity
  8
0
  6
Continuous
 62
     7
370
    25
100
AcDbLine
 10
66.2804663744
 20
-1405.0303282205
 30
0.0
 11
-24.1101370081
 21
-1449.0295658879
 31
0.0
  0
LWPOLYLINE
  5
3BB
330
1F
100
AcDbEntity
  8
0
  6
Continuous
 62
     7
370
    25
100
AcDbPolyline
 90
        3
 70
   128
 43
0.0
 10
172.6444629404
 20
-1407.247609262
 10
173.7216138296
 20
-1407.2915756248
 10
174.7987647187
 20
-1407.247609262
  0
LWPOLYLINE
  5
3BC
330
1F
100
AcDbEntity
  8
0
  6
Continuous
 62
     7
370
    25
100
AcDbPolyline
 90
        3
 70
   128
 43
0.0
 10
172.6444629405
 20
-1419.6709234269
 10
173.7216138296
 20
-1419.7148897897
 10
174.7987647187
 20
-1419.6709234269
  0
ARC
  5
3BD
330
1F
100
AcDbEntity
  8
0
  6
Continuous
 62
     7
370
    25
100
AcDbCircle
 10
-21.4879445117
 20
-1455.2376080986
 30
0.0
 40
6.739115785995955
100
AcDbArc
 50
112.8985338398
 51
137.8874285639
  0
ARC
  5
3BE
330
1F
100
AcDbEntity
  8
0
  6
Continuous
 62
     7
370
    25
100
AcDbCircle
 10
370.8476579172
 20
-1455.2376080986
 30
0.0
 40
6.739115785991628
100
AcDbArc
 50
42.1125714361
 51
67.1014661602
  0
LINE
  5
3BF
330
1F
100
AcDbEntity
  8
0
  6
Continuous
 62
     8
370
    25
100
AcDbLine
 10
1259.1512531978
 20
-1880.6825563975
 30
0.0
 11
1259.1512531978
 21
-1878.8431739193
 31
0.0
  0
LINE
  5
3C0
330
1F
100
AcDbEntity
  8
0
  6
Continuous
 62
     8
370
    25
100
AcDbLine
 10
-909.7915397924
 20
-1880.6825563975
 30
0.0
 11
-909.7915397924
 21
-1878.8431739193
 31
0.0
  0
LINE
  5
3C1
330
1F
100
AcDbEntity
  8
0
  6
Continuous
 62
     8
370
    25
100
AcDbLine
 10
-909.7915397923
 20
1039.9745561921
 30
0.0
 11
-909.7915397923
 21
1038.1351737139
 31
0.0
  0
LINE
  5
3C2
330
1F
100
AcDbEntity
  8
0
  6
Continuous
 62
     8
370
    25
100
AcDbLine
 10
1259.1512531978
 20
1039.9745561921
 30
0.0
 11
1259.1512531978
 21
1038.1351737139
 31
0.0
  0
LINE
  5
3C3
330
1F
100
AcDbEntity
  8
0
  6
Continuous
 62
     8
370
    25
100
AcDbLine
 10
205.6798567027
 20
-1397.7801888594
 30
0.0
 11
205.6798567027
 21
557.0750870617
 31
0.0
  0
LINE
  5
3C4
330
1F
100
AcDbEntity
  8
0
  6
Continuous
 62
     8
370
    25
100
AcDbLine
 10
143.6798567027
 20
-1397.7830872671
 30
0.0
 11
143.6798567027
 21
557.072188654
 31
0.0
  0
LWPOLYLINE
  5
3C5
330
1F
100
AcDbEntity
  8
0
  6
Continuous
 62
     8
370
    25
100
AcDbPolyline
 90
       25
 70
   128
 43
0.0
 10
1340.0984667091
 20
1105.0977306435
 10
1339.6937680643
 20
1105.1805675563
 10
1338.7681899881
 20
1105.5881550284
 10
1337.9096657279
 20
1106.2850656558
 10
1337.1349054817
 20
1107.2577348658
 10
1336.4589890765
 20
1108.4872307587
 10
1335.8950724562
 20
1109.9496225953
 10
1335.4541316165
 20
1111.6164465821
 10
1335.1447489692
 20
1113.4552598861
 10
1334.9729462956
 20
1115.430272098
 10
1334.9420675394
 20
1117.5030418516
 10
1335.0527137204
 20
1119.6332250414
 10
1335.3027312365
 20
1121.7793600747
 10
1335.6872537812
 20
1123.8996748743
 10
1336.1987970606
 20
1125.9528999243
 10
1336.8274044666
 20
1127.8990715347
 10
1337.560840871
 20
1129.7003096889
 10
1338.3848307685
 20
1131.321555335
 10
1339.2833361331
 20
1132.7312527707
 10
1340.2388685798
 20
1133.9019638389
 10
1341.2328297566
 20
1134.8109019803
 10
1342.2458733396
 20
1135.4403757479
 10
1343.2582815878
 20
1135.7781331509
 10
1344.2503491264
 20
1135.8176001255
 10
1344.325918034
 20
1135.8081299977
  0
LWPOLYLINE
  5
3C6
330
1F
100
AcDbEntity
  8
0
  6
Continuous
 62
     8
370
    25
100
AcDbPolyline
 90
       25
 70
   128
 43
0.0
 10
1279.0671635469
 20
1075.3896557718
 10
1278.6624649021
 20
1075.4724926845
 10
1277.7368868259
 20
1075.8800801567
 10
1276.8783625657
 20
1076.5769907841
 10
1276.1036023195
 20
1077.5496599941
 10
1275.4276859143
 20
1078.7791558869
 10
1274.8637692941
 20
1080.2415477236
 10
1274.4228284543
 20
1081.9083717104
 10
1274.113445807
 20
1083.7471850144
 10
1273.9416431335
 20
1085.7221972263
 10
1273.9107643772
 20
1087.7949669799
 10
1274.0214105582
 20
1089.9251501697
 10
1274.2714280743
 20
1092.071285203
 10
1274.6559506191
 20
1094.1916000026
 10
1275.1674938984
 20
1096.2448250526
 10
1275.7961013044
 20
1098.190996663
 10
1276.5295377088
 20
1099.9922348172
 10
1277.3535276064
 20
1101.6134804633
 10
1278.2520329709
 20
1103.023177899
 10
1279.2075654177
 20
1104.1938889672
 10
1280.2015265944
 20
1105.1028271086
 10
1281.2145701774
 20
1105.7323008762
 10
1282.2269784257
 20
1106.0700582792
 10
1283.2190459642
 20
1106.1095252538
 10
1283.2946148718
 20
1106.100055126
  0
LWPOLYLINE
  5
3C7
330
1F
100
AcDbEntity
  8
0
  6
Continuous
 62
     8
370
    25
100
AcDbPolyline
 90
       24
 70
   128
 43
0.0
 10
325.7268114531
 20
-1545.3589026057
 10
325.8117220678
 20
-1544.9396880571
 10
326.1872276887
 20
-1544.3885074843
 10
326.8554617002
 20
-1543.856216919
 10
327.8034176873
 20
-1543.3531767919
 10
329.0126447651
 20
-1542.8891782066
 10
330.4596067039
 20
-1542.4732523679
 10
332.1161400354
 20
-1542.1134947991
 10
333.9500022228
 20
-1541.8169077721
 10
335.9254992244
 20
-1541.589264016
 10
338.0041802383
 20
-1541.4349943575
 10
340.1455861029
 20
-1541.3571014802
 10
342.308036789
 20
-1541.3571014802
 10
344.4494426536
 20
-1541.4349943575
 10
346.5281236675
 20
-1541.589264016
 10
348.5036206691
 20
-1541.8169077721
 10
350.3374828565
 20
-1542.1134947991
 10
351.9940161881
 20
-1542.4732523679
 10
353.4409781269
 20
-1542.8891782066
 10
354.6502052046
 20
-1543.3531767919
 10
355.5981611918
 20
-1543.856216919
 10
356.2663952032
 20
-1544.3885074843
 10
356.6419008242
 20
-1544.9396880571
 10
356.726811443
 20
-1545.3589464435
  0
LWPOLYLINE
  5
3C8
330
1F
100
AcDbEntity
  8
0
  6
Continuous
 62
     8
370
    25
100
AcDbPolyline
 90
       24
 70
   128
 43
0.0
 10
-994.9640520888
 20
1135.80842516
 10
-994.3345082022
 20
1135.8321807939
 10
-993.3285553718
 20
1135.6239341226
 10
-992.3133564826
 20
1135.1203983317
 10
-991.3086712264
 20
1134.3313741725
 10
-990.3340546588
 20
1133.2722191029
 10
-989.4084765827
 20
1131.9635483715
 10
-988.5499523224
 20
1130.4308337654
 10
-987.7751920762
 20
1128.7039078311
 10
-987.099275671
 20
1126.8163832175
 10
-986.5353590508
 20
1124.8049984442
 10
-986.0944182111
 20
1122.7089028279
 10
-985.7850355638
 20
1120.5688944855
 10
-985.6132328902
 20
1118.4266262451
 10
-985.582354134
 20
1116.3237949213
 10
-985.6930003149
 20
1114.3013297338
 10
-985.9430178311
 20
1112.398595667
 10
-986.3275403758
 20
1110.6526272752
 10
-986.8390836552
 20
1109.0974078471
 10
-987.4676910611
 20
1107.7632079598
 10
-988.2011274655
 20
1106.6759962966
 10
-989.0251173631
 20
1105.8569341957
 10
-989.9236227277
 20
1105.3219637693
 10
-990.7411335312
 20
1105.0974027512
  0
LWPOLYLINE
  5
3C9
330
1F
100
AcDbEntity
  8
0
  6
Continuous
 62
     8
370
    25
100
AcDbPolyline
 90
       24
 70
   128
 43
0.0
 10
234.1798567099
 20
-1500.7967902981
 10
234.2647673245
 20
-1500.3775757496
 10
234.6402729454
 20
-1499.8263951767
 10
235.3085069569
 20
-1499.2941046115
 10
236.2564629441
 20
-1498.7910644843
 10
237.4656900218
 20
-1498.327065899
 10
238.9126519606
 20
-1497.9111400603
 10
240.5691852922
 20
-1497.5513824915
 10
242.4030474795
 20
-1497.2547954645
 10
244.3785444812
 20
-1497.0271517084
 10
246.457225495
 20
-1496.87288205
 10
248.5986313597
 20
-1496.7949891726
 10
250.7610820458
 20
-1496.7949891726
 10
252.9024879104
 20
-1496.87288205
 10
254.9811689243
 20
-1497.0271517084
 10
256.9566659259
 20
-1497.2547954645
 10
258.7905281133
 20
-1497.5513824915
 10
260.4470614448
 20
-1497.9111400603
 10
261.8940233836
 20
-1498.327065899
 10
263.1032504614
 20
-1498.7910644843
 10
264.0512064485
 20
-1499.2941046115
 10
264.71944046
 20
-1499.8263951767
 10
265.0949460809
 20
-1500.3775757496
 10
265.1798566998
 20
-1500.796834136
  0
LWPOLYLINE
  5
3CA
330
1F
100
AcDbEntity
  8
0
  6
Continuous
 62
     8
370
    25
100
AcDbPolyline
 90
       24
 70
   128
 43
0.0
 10
-933.9327489267
 20
1106.1003502883
 10
-933.30320504
 20
1106.1241059222
 10
-932.2972522096
 20
1105.9158592509
 10
-931.2820533205
 20
1105.41232346
 10
-930.2773680643
 20
1104.6232993008
 10
-929.3027514967
 20
1103.5641442312
 10
-928.3771734205
 20
1102.2554734998
 10
-927.5186491603
 20
1100.7227588937
 10
-926.7438889141
 20
1098.9958329594
 10
-926.0679725089
 20
1097.1083083458
 10
-925.5040558886
 20
1095.0969235725
 10
-925.0631150489
 20
1093.0008279562
 10
-924.7537324016
 20
1090.8608196138
 10
-924.581929728
 20
1088.7185513734
 10
-924.5510509718
 20
1086.6157200496
 10
-924.6616971528
 20
1084.5932548621
 10
-924.9117146689
 20
1082.6905207953
 10
-925.2962372136
 20
1080.9445524035
 10
-925.807780493
 20
1079.3893329754
 10
-926.436387899
 20
1078.0551330881
 10
-927.1698243034
 20
1076.9679214249
 10
-927.9938142009
 20
1076.148859324
 10
-928.8923195655
 20
1075.6138888976
 10
-929.709830369
 20
1075.3893278795
  0
LWPOLYLINE
  5
3CB
330
1F
100
AcDbEntity
  8
0
  6
Continuous
 62
     8
370
    25
100
AcDbPolyline
 90
       13
 70
   128
 43
0.0
 10
8.1329019595
 20
-1541.3473291923
 10
10.2900850244
 20
-1541.3863707342
 10
12.4052809746
 20
-1541.5027354607
 10
14.4373199271
 20
-1541.6941584648
 10
16.3466505551
 20
-1541.9569139154
 10
18.0961099096
 20
-1542.2858875766
 10
19.6516467544
 20
-1542.6746763503
 10
20.9829843341
 20
-1543.1157129052
 10
22.0642096771
 20
-1543.6004129664
 10
22.874277962
 20
-1544.1193423986
 10
23.3974221312
 20
-1544.6624008307
 10
23.6234597783
 20
-1545.219018248
 10
23.6329019523
 20
-1545.3591461771
  0
LWPOLYLINE
  5
3CC
330
1F
100
AcDbEntity
  8
0
  6
Continuous
 62
     8
370
    25
100
AcDbPolyline
 90
       13
 70
   128
 43
0.0
 10
-7.3670980376
 20
-1545.3591023393
 10
-7.3576558593
 20
-1545.219018248
 10
-7.1316182122
 20
-1544.6624008307
 10
-6.6084740431
 20
-1544.1193423986
 10
-5.7984057582
 20
-1543.6004129664
 10
-4.7171804151
 20
-1543.1157129052
 10
-3.3858428354
 20
-1542.6746763503
 10
-1.8303059907
 20
-1542.2858875766
 10
-0.0808466361
 20
-1541.9569139154
 10
1.8284839918
 20
-1541.6941584648
 10
3.8605229443
 20
-1541.5027354607
 10
5.9757188946
 20
-1541.3863707342
 10
8.1329019595
 20
-1541.3473291923
  0
LWPOLYLINE
  5
3CD
330
1F
100
AcDbEntity
  8
0
  6
Continuous
 62
     8
370
    25
100
AcDbPolyline
 90
       13
 70
   128
 43
0.0
 10
341.226811446
 20
700.6393289869
 10
339.0696283811
 20
700.6783705288
 10
336.9544324308
 20
700.7947352553
 10
334.9223934783
 20
700.9861582594
 10
333.0130628503
 20
701.2489137101
 10
331.2636034958
 20
701.5778873713
 10
329.7080666511
 20
701.9666761449
 10
328.3767290714
 20
702.4077126998
 10
327.2955037283
 20
702.892412761
 10
326.4854354434
 20
703.4113421932
 10
325.9622912743
 20
703.9544006253
 10
325.7362536272
 20
704.5110180426
 10
325.7268114531
 20
704.6511459717
  0
LWPOLYLINE
  5
3CE
330
1F
100
AcDbEntity
  8
0
  6
Continuous
 62
     8
370
    25
100
AcDbPolyline
 90
       13
 70
   128
 43
0.0
 10
356.726811443
 20
704.6511021339
 10
356.7173692648
 20
704.5110180426
 10
356.4913316177
 20
703.9544006253
 10
355.9681874485
 20
703.4113421932
 10
355.1581191636
 20
702.892412761
 10
354.0768938206
 20
702.4077126998
 10
352.7455562409
 20
701.9666761449
 10
351.1900193961
 20
701.5778873713
 10
349.4405600416
 20
701.2489137101
 10
347.5312294136
 20
700.9861582594
 10
345.4991904611
 20
700.7947352553
 10
343.3839945108
 20
700.6783705288
 10
341.226811446
 20
700.6393289869
  0
LWPOLYLINE
  5
3CF
330
1F
100
AcDbEntity
  8
0
  6
Continuous
 62
     8
370
    25
100
AcDbPolyline
 90
       13
 70
   128
 43
0.0
 10
99.6798567027
 20
-1496.7852168847
 10
101.8370397676
 20
-1496.8242584266
 10
103.9522357179
 20
-1496.9406231532
 10
105.9842746704
 20
-1497.1320461573
 10
107.8936052983
 20
-1497.3948016079
 10
109.6430646529
 20
-1497.7237752691
 10
111.1986014976
 20
-1498.1125640427
 10
112.5299390773
 20
-1498.5536005976
 10
113.6111644204
 20
-1499.0383006588
 10
114.4212327053
 20
-1499.5572300911
 10
114.9443768744
 20
-1500.1002885232
 10
115.1704145215
 20
-1500.6569059405
 10
115.1798566956
 20
-1500.7970338695
  0
LWPOLYLINE
  5
3D0
330
1F
100
AcDbEntity
  8
0
  6
Continuous
 62
     8
370
    25
100
AcDbPolyline
 90
       13
 70
   128
 43
0.0
 10
84.1798567056
 20
-1500.7969900317
 10
84.1892988839
 20
-1500.6569059405
 10
84.415336531
 20
-1500.1002885232
 10
84.9384807001
 20
-1499.5572300911
 10
85.7485489851
 20
-1499.0383006588
 10
86.8297743281
 20
-1498.5536005976
 10
88.1611119078
 20
-1498.1125640427
 10
89.7166487526
 20
-1497.7237752691
 10
91.4661081071
 20
-1497.3948016079
 10
93.375438735
 20
-1497.1320461573
 10
95.4074776876
 20
-1496.9406231532
 10
97.5226736378
 20
-1496.8242584266
 10
99.6798567027
 20
-1496.7852168847
  0
LWPOLYLINE
  5
3D1
330
1F
100
AcDbEntity
  8
0
  6
Continuous
 62
     8
370
    25
100
AcDbPolyline
 90
       25
 70
   128
 43
0.0
 10
-990.7387533037
 20
-1945.8057308489
 10
-990.3340546588
 20
-1945.8885677616
 10
-989.4084765827
 20
-1946.2961552338
 10
-988.5499523224
 20
-1946.9930658612
 10
-987.7751920762
 20
-1947.9657350712
 10
-987.099275671
 20
-1949.195230964
 10
-986.5353590508
 20
-1950.6576228007
 10
-986.0944182111
 20
-1952.3244467875
 10
-985.7850355638
 20
-1954.1632600915
 10
-985.6132328902
 20
-1956.1382723034
 10
-985.582354134
 20
-1958.211042057
 10
-985.6930003149
 20
-1960.3412252468
 10
-985.9430178311
 20
-1962.4873602801
 10
-986.3275403758
 20
-1964.6076750797
 10
-986.8390836552
 20
-1966.6609001297
 10
-987.4676910611
 20
-1968.6070717401
 10
-988.2011274655
 20
-1970.4083098943
 10
-989.0251173631
 20
-1972.0295555404
 10
-989.9236227277
 20
-1973.4392529761
 10
-990.8791551744
 20
-1974.6099640443
 10
-991.8731163511
 20
-1975.5189021857
 10
-992.8861599341
 20
-1976.1483759533
 10
-993.8985681824
 20
-1976.4861333563
 10
-994.890635721
 20
-1976.5256003309
 10
-994.9662046286
 20
-1976.5161302031
  0
LWPOLYLINE
  5
3D2
330
1F
100
AcDbEntity
  8
0
  6
Continuous
 62
     8
370
    25
100
AcDbPolyline
 90
       24
 70
   128
 43
0.0
 10
23.6329019523
 20
704.6509024003
 10
23.5479913377
 20
704.2316878517
 10
23.1724857168
 20
703.6805072789
 10
22.5042517053
 20
703.1482167137
 10
21.5562957181
 20
702.6451765865
 10
20.3470686404
 20
702.1811780012
 10
18.9001067016
 20
701.7652521625
 10
17.24357337
 20
701.4054945937
 10
15.4097111827
 20
701.1089075667
 10
13.434214181
 20
700.8812638106
 10
11.3555331672
 20
700.7269941521
 10
9.2141273025
 20
700.6491012748
 10
7.0516766164
 20
700.6491012748
 10
4.9102707518
 20
700.7269941521
 10
2.8315897379
 20
700.8812638106
 10
0.8560927363
 20
701.1089075667
 10
-0.9777694511
 20
701.4054945937
 10
-2.6343027826
 20
701.7652521625
 10
-4.0812647214
 20
702.1811780012
 10
-5.2904917992
 20
702.6451765865
 10
-6.2384477863
 20
703.1482167137
 10
-6.9066817978
 20
703.6805072789
 10
-7.2821874187
 20
704.2316878517
 10
-7.3670980376
 20
704.6509462381
  0
LWPOLYLINE
  5
3D3
330
1F
100
AcDbEntity
  8
0
  6
Continuous
 62
     8
370
    25
100
AcDbPolyline
 90
       24
 70
   128
 43
0.0
 10
1283.2924623321
 20
-1946.8083504937
 10
1282.6629184454
 20
-1946.8321061276
 10
1281.656965615
 20
-1946.6238594563
 10
1280.6417667259
 20
-1946.1203236654
 10
1279.6370814697
 20
-1945.3312995062
 10
1278.6624649021
 20
-1944.2721444366
 10
1277.7368868259
 20
-1942.9634737051
 10
1276.8783625657
 20
-1941.4307590991
 10
1276.1036023195
 20
-1939.7038331648
 10
1275.4276859143
 20
-1937.8163085512
 10
1274.8637692941
 20
-1935.8049237779
 10
1274.4228284543
 20
-1933.7088281616
 10
1274.113445807
 20
-1931.5688198192
 10
1273.9416431335
 20
-1929.4265515788
 10
1273.9107643772
 20
-1927.323720255
 10
1274.0214105582
 20
-1925.3012550675
 10
1274.2714280743
 20
-1923.3985210007
 10
1274.6559506191
 20
-1921.6525526089
 10
1275.1674938984
 20
-1920.0973331808
 10
1275.7961013044
 20
-1918.7631332935
 10
1276.5295377088
 20
-1917.6759216302
 10
1277.3535276064
 20
-1916.8568595293
 10
1278.2520329709
 20
-1916.3218891029
 10
1279.0695437745
 20
-1916.0973280848
  0
LWPOLYLINE
  5
3D4
330
1F
100
AcDbEntity
  8
0
  6
Continuous
 62
     8
370
    25
100
AcDbPolyline
 90
       13
 70
   128
 43
0.0
 10
249.6798567027
 20
656.0772166794
 10
247.5226736378
 20
656.1162582213
 10
245.4074776876
 20
656.2326229478
 10
243.375438735
 20
656.4240459519
 10
241.4661081071
 20
656.6868014025
 10
239.7166487526
 20
657.0157750637
 10
238.1611119078
 20
657.4045638373
 10
236.8297743281
 20
657.8456003922
 10
235.7485489851
 20
658.3303004534
 10
234.9384807001
 20
658.8492298857
 10
234.415336531
 20
659.3922883178
 10
234.1892988839
 20
659.9489057351
 10
234.1798567099
 20
660.0890336641
  0
LWPOLYLINE
  5
3D5
330
1F
100
AcDbEntity
  8
0
  6
Continuous
 62
     8
370
    25
100
AcDbPolyline
 90
       13
 70
   128
 43
0.0
 10
265.1798566998
 20
660.0889898263
 10
265.1704145215
 20
659.9489057351
 10
264.9443768744
 20
659.3922883178
 10
264.4212327053
 20
658.8492298857
 10
263.6111644204
 20
658.3303004534
 10
262.5299390773
 20
657.8456003922
 10
261.1986014976
 20
657.4045638373
 10
259.6430646529
 20
657.0157750637
 10
257.8936052983
 20
656.6868014025
 10
255.9842746704
 20
656.4240459519
 10
253.9522357179
 20
656.2326229478
 10
251.8370397676
 20
656.1162582213
 10
249.6798567027
 20
656.0772166794
  0
LWPOLYLINE
  5
3D6
330
1F
100
AcDbEntity
  8
0
  6
Continuous
 62
     8
370
    25
100
AcDbPolyline
 90
       24
 70
   128
 43
0.0
 10
1344.3237654943
 20
-1976.5164253654
 10
1343.6942216076
 20
-1976.5401809993
 10
1342.6882687772
 20
-1976.331934328
 10
1341.6730698881
 20
-1975.8283985371
 10
1340.6683846319
 20
-1975.0393743779
 10
1339.6937680643
 20
-1973.9802193083
 10
1338.7681899881
 20
-1972.6715485769
 10
1337.9096657279
 20
-1971.1388339708
 10
1337.1349054817
 20
-1969.4119080365
 10
1336.4589890765
 20
-1967.5243834229
 10
1335.8950724562
 20
-1965.5129986496
 10
1335.4541316165
 20
-1963.4169030333
 10
1335.1447489692
 20
-1961.2768946909
 10
1334.9729462956
 20
-1959.1346264505
 10
1334.9420675394
 20
-1957.0317951267
 10
1335.0527137204
 20
-1955.0093299392
 10
1335.3027312365
 20
-1953.1065958724
 10
1335.6872537812
 20
-1951.3606274806
 10
1336.1987970606
 20
-1949.8054080525
 10
1336.8274044666
 20
-1948.4712081652
 10
1337.560840871
 20
-1947.383996502
 10
1338.3848307685
 20
-1946.5649344011
 10
1339.2833361331
 20
-1946.0299639747
 10
1340.1008469367
 20
-1945.8054029566
  0
LWPOLYLINE
  5
3D7
330
1F
100
AcDbEntity
  8
0
  6
Continuous
 62
     8
370
    25
100
AcDbPolyline
 90
       24
 70
   128
 43
0.0
 10
115.1798566956
 20
660.0887900927
 10
115.0949460809
 20
659.6695755442
 10
114.71944046
 20
659.1183949713
 10
114.0512064485
 20
658.5861044061
 10
113.1032504614
 20
658.0830642789
 10
111.8940233836
 20
657.6190656936
 10
110.4470614448
 20
657.2031398549
 10
108.7905281133
 20
656.8433822861
 10
106.9566659259
 20
656.5467952591
 10
104.9811689243
 20
656.319151503
 10
102.9024879104
 20
656.1648818446
 10
100.7610820458
 20
656.0869889672
 10
98.5986313597
 20
656.0869889672
 10
96.4572254951
 20
656.1648818446
 10
94.3785444812
 20
656.319151503
 10
92.4030474795
 20
656.5467952591
 10
90.5691852922
 20
656.8433822861
 10
88.9126519606
 20
657.2031398549
 10
87.4656900218
 20
657.6190656936
 10
86.2564629441
 20
658.0830642789
 10
85.3085069569
 20
658.5861044061
 10
84.6402729454
 20
659.1183949713
 10
84.2647673245
 20
659.6695755442
 10
84.1798567057
 20
660.0888339306
  0
LWPOLYLINE
  5
3D8
330
1F
100
AcDbEntity
  8
0
  6
Continuous
 62
     8
370
    25
100
AcDbPolyline
 90
       25
 70
   128
 43
0.0
 10
-929.7074501415
 20
-1916.0976559772
 10
-929.3027514967
 20
-1916.1804928899
 10
-928.3771734205
 20
-1916.5880803621
 10
-927.5186491603
 20
-1917.2849909895
 10
-926.7438889141
 20
-1918.2576601995
 10
-926.0679725089
 20
-1919.4871560923
 10
-925.5040558886
 20
-1920.949547929
 10
-925.0631150489
 20
-1922.6163719158
 10
-924.7537324016
 20
-1924.4551852198
 10
-924.581929728
 20
-1926.4301974317
 10
-924.5510509718
 20
-1928.5029671853
 10
-924.6616971528
 20
-1930.6331503751
 10
-924.9117146689
 20
-1932.7792854084
 10
-925.2962372136
 20
-1934.899600208
 10
-925.807780493
 20
-1936.952825258
 10
-926.436387899
 20
-1938.8989968684
 10
-927.1698243034
 20
-1940.7002350226
 10
-927.9938142009
 20
-1942.3214806687
 10
-928.8923195655
 20
-1943.7311781044
 10
-929.8478520122
 20
-1944.9018891726
 10
-930.841813189
 20
-1945.810827314
 10
-931.854856772
 20
-1946.4403010816
 10
-932.8672650202
 20
-1946.7780584846
 10
-933.8593325588
 20
-1946.8175254592
 10
-933.9349014664
 20
-1946.8080553314
  0
LWPOLYLINE
  5
3D9
330
1F
100
AcDbEntity
  8
0
  6
Continuous
 62
     8
370
    25
100
AcDbPolyline
 90
       13
 70
   128
 43
0.0
 10
249.6798567027
 20
669.6250905567
 10
247.9293603418
 20
669.6636517985
 10
246.2292225741
 20
669.7782261872
 10
244.6283532677
 20
669.9655176263
 10
243.1728065179
 20
670.2201380821
 10
241.9044557545
 20
670.5347625876
 10
240.8597891198
 20
670.9003399686
 10
240.0688597708
 20
671.3063532295
 10
239.5544213048
 20
671.7411221081
 10
239.3312731799
 20
672.1921390952
 10
239.4058349613
 20
672.6464292533
 10
239.7759616424
 20
673.0909234816
 10
239.9027680908
 20
673.191023581
  0
LWPOLYLINE
  5
3DA
330
1F
100
AcDbEntity
  8
0
  6
Continuous
 62
     8
370
    25
100
AcDbPolyline
 90
       12
 70
   128
 43
0.0
 10
259.6192209862
 20
673.0602961272
 10
259.9538784441
 20
672.6464292533
 10
260.0284402255
 20
672.1921390952
 10
259.8052921006
 20
671.7411221081
 10
259.2908536346
 20
671.3063532295
 10
258.4999242856
 20
670.9003399686
 10
257.4552576509
 20
670.5347625876
 10
256.1869068875
 20
670.2201380821
 10
254.7313601377
 20
669.9655176263
 10
253.1304908313
 20
669.7782261872
 10
251.4303530636
 20
669.6636517985
 10
249.6798567027
 20
669.6250905567
  0
LWPOLYLINE
  5
3DB
330
1F
100
AcDbEntity
  8
0
  6
Continuous
 62
     8
370
    25
100
AcDbPolyline
 90
       11
 70
   128
 43
0.0
 10
249.6798567027
 20
668.9799656614
 10
247.8630978843
 20
669.0199865822
 10
246.0986039092
 20
669.1388980154
 10
244.4371360567
 20
669.3332790957
 10
242.9264917318
 20
669.5975378332
 10
241.6101294212
 20
669.9240719852
 10
240.5259184721
 20
670.3034877587
 10
239.7050496593
 20
670.7248700528
 10
239.171137884
 20
671.1760964659
 10
238.939542816
 20
671.6441860357
 10
238.9299093519
 20
671.7535625516
  0
LWPOLYLINE
  5
3DC
330
1F
100
AcDbEntity
  8
0
  6
Continuous
 62
     8
370
    25
100
AcDbPolyline
 90
       11
 70
   128
 43
0.0
 10
260.429447969
 20
671.7865326726
 10
260.4201705894
 20
671.6441860357
 10
260.1885755214
 20
671.1760964659
 10
259.6546637462
 20
670.7248700528
 10
258.8337949333
 20
670.3034877587
 10
257.7495839842
 20
669.9240719852
 10
256.4332216736
 20
669.5975378332
 10
254.9225773487
 20
669.3332790957
 10
253.2611094962
 20
669.1388980154
 10
251.4966155212
 20
669.0199865822
 10
249.6798567027
 20
668.9799656614
  0
LWPOLYLINE
  5
3DD
330
1F
100
AcDbEntity
  8
0
  6
Continuous
 62
     8
370
    25
100
AcDbPolyline
 90
       27
 70
   128
 43
0.0
 10
1357.5810434902
 20
-1966.7098385821
 10
1357.106533283
 20
-1967.8668593525
 10
1356.5248384914
 20
-1968.7867467725
 10
1355.8526934156
 20
-1969.4430373559
 10
1355.1094344457
 20
-1969.8168508175
 10
1354.3164437888
 20
-1969.8974332246
 10
1353.4965343425
 20
-1969.682466368
 10
1352.6732934087
 20
-1969.178134453
 10
1351.8704041301
 20
-1968.3989461903
 10
1351.1109641696
 20
-1967.3673174077
 10
1350.416821232
 20
-1966.112926187
 10
1349.8079445459
 20
-1964.6718590797
 10
1349.301850385
 20
-1963.0855729627
 10
1348.9130981567
 20
-1961.3997023996
 10
1348.652871555
 20
-1959.6627468168
 10
1348.5286568253
 20
-1957.9246752642
 10
1348.5440273993
 20
-1956.2354888957
 10
1348.6985410936
 20
-1954.6437825277
 10
1348.9877528304
 20
-1953.1953466543
 10
1349.4033425147
 20
-1951.9318501386
 10
1349.9333543879
 20
-1950.8896414748
 10
1350.5625409735
 20
-1950.0987031085
 10
1351.2728017188
 20
-1949.5817888967
 10
1352.0437037155
 20
-1949.3537695199
 10
1352.8530695167
 20
-1949.4212046806
 10
1353.6776151418
 20
-1949.7821543919
 10
1354.2858534708
 20
-1950.2344049724
  0
LWPOLYLINE
  5
3DE
330
1F
100
AcDbEntity
  8
0
  6
Continuous
 62
     8
370
    25
100
AcDbPolyline
 90
       20
 70
   128
 43
0.0
 10
1354.349350795
 20
-1970.3419727056
 10
1353.8549198194
 20
-1970.3547083018
 10
1353.0039739105
 20
-1970.131604192
 10
1352.1495704055
 20
-1969.6081815363
 10
1351.3162889376
 20
-1968.7994982513
 10
1350.5281014977
 20
-1967.728818683
 10
1349.8076828031
 20
-1966.4269443329
 10
1349.1757579883
 20
-1964.931327756
 10
1348.6505063794
 20
-1963.2849951181
 10
1348.247038509
 20
-1961.5353084116
 10
1347.9769614131
 20
-1959.7326029375
 10
1347.8480447181
 20
-1957.9287392501
 10
1347.8639971225
 20
-1956.1756112233
 10
1348.0243597047
 20
-1954.5236531587
 10
1348.3245191252
 20
-1953.020388882
 10
1348.755840344
 20
-1951.7090645694
 10
1349.3059150348
 20
-1950.627404634
 10
1349.9589185504
 20
-1949.8065264627
 10
1350.6960651686
 20
-1949.2700452259
 10
1351.4182206006
 20
-1949.0427127236
  0
LWPOLYLINE
  5
3DF
330
1F
100
AcDbEntity
  8
0
  6
Continuous
 62
     8
370
    25
100
AcDbPolyline
 90
        9
 70
   128
 43
0.0
 10
18.2425552482
 20
717.4514544113
 10
18.2583373574
 20
717.4328233536
 10
18.4814854823
 20
716.9818063665
 10
18.4069237009
 20
716.5275162084
 10
18.0367970198
 20
716.08302198
 10
17.3817533098
 20
715.661110971
 10
16.4606369859
 20
715.273920793
 10
15.2999468875
 20
714.9325902024
 10
14.4143730604
 20
714.7364289168
  0
LWPOLYLINE
  5
3E0
330
1F
100
AcDbEntity
  8
0
  6
Continuous
 62
     8
370
    25
100
AcDbPolyline
 90
        8
 70
   128
 43
0.0
 10
0.9654150555
 20
714.9326998445
 10
-0.1948330669
 20
715.273920793
 10
-1.1159493909
 20
715.661110971
 10
-1.7709931009
 20
716.08302198
 10
-2.1411197819
 20
716.5275162084
 10
-2.2156815633
 20
716.9818063665
 10
-1.9925334384
 20
717.4328233536
 10
-1.7734942572
 20
717.6509188584
  0
LWPOLYLINE
  5
3E1
330
1F
100
AcDbEntity
  8
0
  6
Continuous
 62
     8
370
    25
100
AcDbPolyline
 90
       20
 70
   128
 43
0.0
 10
18.8828493103
 20
716.3330905486
 10
18.7958316385
 20
715.9709804226
 10
18.4116943579
 20
715.5096605209
 10
17.7318549346
 20
715.071778693
 10
16.7758711109
 20
714.6699320019
 10
15.571244801
 20
714.3156808453
 10
14.1526309105
 20
714.0192163839
 10
12.5608403781
 20
713.7890673605
 10
10.8416661194
 20
713.6318547435
 10
9.0445656476
 20
713.5521012537
 10
7.2212382714
 20
713.5521012537
 10
5.4241377996
 20
713.6318547435
 10
3.7049635409
 20
713.7890673605
 10
2.1131730085
 20
714.0192163839
 10
0.694559118
 20
714.3156808453
 10
-0.510067192
 20
714.6699320019
 10
-1.4660510156
 20
715.071778693
 10
-2.145890439
 20
715.5096605209
 10
-2.5300277196
 20
715.9709804226
 10
-2.6166893068
 20
716.3001204276
  0
LWPOLYLINE
  5
3E2
330
1F
100
AcDbEntity
  8
0
  6
Continuous
 62
     8
370
    25
100
AcDbPolyline
 90
       31
 70
   128
 43
0.0
 10
-947.1900269226
 20
-1926.9191517469
 10
-946.7155167153
 20
-1925.3001783708
 10
-946.1338219238
 20
-1923.8139903305
 10
-945.461676848
 20
-1922.50334255
 10
-944.7184178781
 20
-1921.4059399797
 10
-943.9254272212
 20
-1920.5533528935
 10
-943.1055177749
 20
-1919.9701086696
 10
-942.2822768411
 20
-1919.6729861823
 10
-941.4793875625
 20
-1919.6705331047
 10
-940.719947602
 20
-1919.9628200074
 10
-940.0258046644
 20
-1920.5414383282
 10
-939.4169279783
 20
-1921.3897422717
 10
-938.9108338174
 20
-1922.4833276778
 10
-938.5220815891
 20
-1923.7907340855
 10
-938.2618549874
 20
-1925.2743497929
 10
-938.1376402577
 20
-1926.8914938773
 10
-938.1530108317
 20
-1928.5956440476
 10
-938.307524526
 20
-1930.3377750062
 10
-938.5967362628
 20
-1932.0677688174
 10
-939.0123259471
 20
-1933.735856709
 10
-939.5423378203
 20
-1935.2940508293
 10
-940.1715244059
 20
-1936.6975247707
 10
-940.8817851512
 20
-1937.905903143
 10
-941.6526871479
 20
-1938.8844231006
 10
-942.4620529491
 20
-1939.6049344059
 10
-943.2865985742
 20
-1940.0467092605
 10
-944.1026033469
 20
-1940.1970386061
 10
-944.8865922956
 20
-1940.0515977412
 10
-945.6160114857
 20
-1939.6145707346
 10
-946.269876855
 20
-1938.8985300577
 10
-946.5982900952
 20
-1938.3788027781
  0
LWPOLYLINE
  5
3E3
330
1F
100
AcDbEntity
  8
0
  6
Continuous
 62
     8
370
    25
100
AcDbPolyline
 90
       21
 70
   128
 43
0.0
 10
-941.0092685762
 20
-1919.3371809864
 10
-940.92527237
 20
-1919.3510983199
 10
-940.1370849301
 20
-1919.654449312
 10
-939.4166662355
 20
-1920.2549703759
 10
-938.7847414207
 20
-1921.1353856138
 10
-938.2594898118
 20
-1922.2703670823
 10
-937.8560219414
 20
-1923.627263431
 10
-937.5859448455
 20
-1925.1670392225
 10
-937.4570281505
 20
-1926.8453979107
 10
-937.4729805549
 20
-1928.6140561719
 10
-937.6333431371
 20
-1930.4221329282
 10
-937.9335025576
 20
-1932.2176131031
 10
-938.3648237764
 20
-1933.9488440012
 10
-938.9148984672
 20
-1935.5660212615
 10
-939.5679019828
 20
-1937.0226216385
 10
-940.305048601
 20
-1938.2767413916
 10
-941.1051319556
 20
-1939.2923017788
 10
-941.9451351052
 20
-1940.0400869767
 10
-942.8008926887
 20
-1940.4985845668
 10
-943.6477861184
 20
-1940.654604408
 10
-943.9583342274
 20
-1940.6338978339
  0
LWPOLYLINE
  5
3E4
330
1F
100
AcDbEntity
  8
0
  6
Continuous
 62
     8
370
    25
100
AcDbPolyline
 90
       27
 70
   128
 43
0.0
 10
1296.549740328
 20
-1937.0017637104
 10
1296.0752301208
 20
-1938.1587844808
 10
1295.4935353293
 20
-1939.0786719008
 10
1294.8213902535
 20
-1939.7349624842
 10
1294.0781312835
 20
-1940.1087759457
 10
1293.2851406266
 20
-1940.1893583528
 10
1292.4652311803
 20
-1939.9743914963
 10
1291.6419902465
 20
-1939.4700595812
 10
1290.839100968
 20
-1938.6908713186
 10
1290.0796610074
 20
-1937.659242536
 10
1289.3855180699
 20
-1936.4048513153
 10
1288.7766413838
 20
-1934.963784208
 10
1288.2705472228
 20
-1933.377498091
 10
1287.8817949946
 20
-1931.6916275278
 10
1287.6215683929
 20
-1929.9546719451
 10
1287.4973536632
 20
-1928.2166003925
 10
1287.5127242372
 20
-1926.527414024
 10
1287.6672379314
 20
-1924.9357076559
 10
1287.9564496682
 20
-1923.4872717826
 10
1288.3720393525
 20
-1922.2237752669
 10
1288.9020512257
 20
-1921.181566603
 10
1289.5312378113
 20
-1920.3906282368
 10
1290.2414985566
 20
-1919.873714025
 10
1291.0124005533
 20
-1919.6456946482
 10
1291.8217663545
 20
-1919.7131298089
 10
1292.6463119796
 20
-1920.0740795201
 10
1293.2545503087
 20
-1920.5263301006
  0
LWPOLYLINE
  5
3E5
330
1F
100
AcDbEntity
  8
0
  6
Continuous
 62
     8
370
    25
100
AcDbPolyline
 90
       20
 70
   128
 43
0.0
 10
1293.3180476328
 20
-1940.6338978339
 10
1292.8236166572
 20
-1940.6466334301
 10
1291.9726707483
 20
-1940.4235293203
 10
1291.1182672433
 20
-1939.9001066646
 10
1290.2849857755
 20
-1939.0914233796
 10
1289.4967983355
 20
-1938.0207438112
 10
1288.776379641
 20
-1936.7188694612
 10
1288.1444548261
 20
-1935.2232528843
 10
1287.6192032172
 20
-1933.5769202463
 10
1287.2157353468
 20
-1931.8272335399
 10
1286.945658251
 20
-1930.0245280658
 10
1286.8167415559
 20
-1928.2206643783
 10
1286.8326939603
 20
-1926.4675363516
 10
1286.9930565425
 20
-1924.815578287
 10
1287.293215963
 20
-1923.3123140103
 10
1287.7245371818
 20
-1922.0009896977
 10
1288.2746118726
 20
-1920.9193297623
 10
1288.9276153883
 20
-1920.098451591
 10
1289.6647620064
 20
-1919.5619703541
 10
1290.3869174385
 20
-1919.3346378518
  0
LWPOLYLINE
  5
3E6
330
1F
100
AcDbEntity
  8
0
  6
Continuous
 62
     8
370
    25
100
AcDbPolyline
 90
       31
 70
   128
 43
0.0
 10
1357.5810434902
 20
1115.9192264132
 10
1357.106533283
 20
1114.3002530371
 10
1356.5248384914
 20
1112.8140649968
 10
1355.8526934156
 20
1111.5034172163
 10
1355.1094344457
 20
1110.406014646
 10
1354.3164437888
 20
1109.5534275598
 10
1353.4965343425
 20
1108.9701833359
 10
1352.6732934087
 20
1108.6730608486
 10
1351.8704041301
 20
1108.670607771
 10
1351.1109641696
 20
1108.9628946737
 10
1350.416821232
 20
1109.5415129945
 10
1349.8079445459
 20
1110.389816938
 10
1349.301850385
 20
1111.4834023441
 10
1348.9130981567
 20
1112.7908087519
 10
1348.652871555
 20
1114.2744244592
 10
1348.5286568253
 20
1115.8915685436
 10
1348.5440273993
 20
1117.5957187139
 10
1348.6985410936
 20
1119.3378496726
 10
1348.9877528304
 20
1121.0678434837
 10
1349.4033425147
 20
1122.7359313753
 10
1349.9333543879
 20
1124.2941254957
 10
1350.5625409735
 20
1125.697599437
 10
1351.2728017188
 20
1126.9059778093
 10
1352.0437037155
 20
1127.8844977669
 10
1352.8530695167
 20
1128.6050090722
 10
1353.6776151418
 20
1129.0467839268
 10
1354.4936199145
 20
1129.1971132724
 10
1355.2776088632
 20
1129.0516724075
 10
1356.0070280533
 20
1128.614645401
 10
1356.6608934226
 20
1127.8986047241
 10
1356.9893066628
 20
1127.3788774445
  0
LWPOLYLINE
  5
3E7
330
1F
100
AcDbEntity
  8
0
  6
Continuous
 62
     8
370
    25
100
AcDbPolyline
 90
       21
 70
   128
 43
0.0
 10
1351.4002851438
 20
1108.3372556527
 10
1351.3162889376
 20
1108.3511729862
 10
1350.5281014977
 20
1108.6545239784
 10
1349.8076828031
 20
1109.2550450422
 10
1349.1757579883
 20
1110.1354602801
 10
1348.6505063794
 20
1111.2704417486
 10
1348.247038509
 20
1112.6273380974
 10
1347.9769614131
 20
1114.1671138888
 10
1347.8480447181
 20
1115.845472577
 10
1347.8639971225
 20
1117.6141308382
 10
1348.0243597047
 20
1119.4222075945
 10
1348.3245191252
 20
1121.2176877694
 10
1348.755840344
 20
1122.9489186675
 10
1349.3059150348
 20
1124.5660959278
 10
1349.9589185504
 20
1126.0226963049
 10
1350.6960651686
 20
1127.276816058
 10
1351.4961485232
 20
1128.2923764451
 10
1352.3361516728
 20
1129.0401616431
 10
1353.1919092563
 20
1129.4986592331
 10
1354.038802686
 20
1129.6546790743
 10
1354.349350795
 20
1129.6339725002
  0
LWPOLYLINE
  5
3E8
330
1F
100
AcDbEntity
  8
0
  6
Continuous
 62
     8
370
    25
100
AcDbPolyline
 90
        9
 70
   128
 43
0.0
 10
239.570203414
 20
-1513.5973423091
 10
239.5544213048
 20
-1513.5787112514
 10
239.3312731799
 20
-1513.1276942643
 10
239.4058349613
 20
-1512.6734041062
 10
239.7759616424
 20
-1512.2289098778
 10
240.4310053524
 20
-1511.8069988689
 10
241.3521216763
 20
-1511.4198086908
 10
242.5128117747
 20
-1511.0784781002
 10
243.3983856018
 20
-1510.8823168146
  0
LWPOLYLINE
  5
3E9
330
1F
100
AcDbEntity
  8
0
  6
Continuous
 62
     8
370
    25
100
AcDbPolyline
 90
        8
 70
   128
 43
0.0
 10
256.8473436067
 20
-1511.0785877423
 10
258.0075917291
 20
-1511.4198086908
 10
258.9287080531
 20
-1511.8069988689
 10
259.583751763
 20
-1512.2289098778
 10
259.9538784441
 20
-1512.6734041062
 10
260.0284402255
 20
-1513.1276942643
 10
259.8052921006
 20
-1513.5787112514
 10
259.5862529194
 20
-1513.7968067562
  0
LWPOLYLINE
  5
3EA
330
1F
100
AcDbEntity
  8
0
  6
Continuous
 62
     8
370
    25
100
AcDbPolyline
 90
       20
 70
   128
 43
0.0
 10
238.9299093519
 20
-1512.4789784464
 10
239.0169270237
 20
-1512.1168683204
 10
239.4010643043
 20
-1511.6555484187
 10
240.0809037276
 20
-1511.2176665908
 10
241.0368875513
 20
-1510.8158198998
 10
242.2415138612
 20
-1510.4615687431
 10
243.6601277517
 20
-1510.1651042817
 10
245.2519182841
 20
-1509.9349552583
 10
246.9710925428
 20
-1509.7777426414
 10
248.7681930146
 20
-1509.6979891515
 10
250.5915203908
 20
-1509.6979891515
 10
252.3886208626
 20
-1509.7777426414
 10
254.1077951213
 20
-1509.9349552583
 10
255.6995856537
 20
-1510.1651042817
 10
257.1181995442
 20
-1510.4615687431
 10
258.3228258542
 20
-1510.8158198998
 10
259.2788096778
 20
-1511.2176665908
 10
259.9586491012
 20
-1511.6555484187
 10
260.3427863818
 20
-1512.1168683204
 10
260.429447969
 20
-1512.4460083254
  0
LWPOLYLINE
  5
3EB
330
1F
100
AcDbEntity
  8
0
  6
Continuous
 62
     8
370
    25
100
AcDbPolyline
 90
       27
 70
   128
 43
0.0
 10
-1008.2213300847
 20
1126.0018383768
 10
-1007.7468198775
 20
1127.1588591471
 10
-1007.165125086
 20
1128.0787465671
 10
-1006.4929800102
 20
1128.7350371505
 10
-1005.7497210402
 20
1129.1088506121
 10
-1004.9567303834
 20
1129.1894330192
 10
-1004.136820937
 20
1128.9744661626
 10
-1003.3135800032
 20
1128.4701342476
 10
-1002.5106907247
 20
1127.6909459849
 10
-1001.7512507641
 20
1126.6593172023
 10
-1001.0571078266
 20
1125.4049259816
 10
-1000.4482311405
 20
1123.9638588743
 10
-999.9421369795
 20
1122.3775727573
 10
-999.5533847513
 20
1120.6917021942
 10
-999.2931581496
 20
1118.9547466114
 10
-999.1689434199
 20
1117.2166750588
 10
-999.1843139939
 20
1115.5274886903
 10
-999.3388276881
 20
1113.9357823223
 10
-999.628039425
 20
1112.4873464489
 10
-1000.0436291093
 20
1111.2238499332
 10
-1000.5736409825
 20
1110.1816412694
 10
-1001.202827568
 20
1109.3907029032
 10
-1001.9130883134
 20
1108.8737886913
 10
-1002.6839903101
 20
1108.6457693146
 10
-1003.4933561112
 20
1108.7132044752
 10
-1004.3179017364
 20
1109.0741541865
 10
-1004.9261400654
 20
1109.526404767
  0
LWPOLYLINE
  5
3EC
330
1F
100
AcDbEntity
  8
0
  6
Continuous
 62
     8
370
    25
100
AcDbPolyline
 90
       20
 70
   128
 43
0.0
 10
-1004.9896373896
 20
1129.6339725002
 10
-1004.495206414
 20
1129.6467080964
 10
-1003.644260505
 20
1129.4236039867
 10
-1002.789857
 20
1128.9001813309
 10
-1001.9565755322
 20
1128.0914980459
 10
-1001.1683880922
 20
1127.0208184776
 10
-1000.4479693977
 20
1125.7189441276
 10
-999.8160445828
 20
1124.2233275506
 10
-999.290792974
 20
1122.5769949127
 10
-998.8873251036
 20
1120.8273082062
 10
-998.6172480077
 20
1119.0246027321
 10
-998.4883313127
 20
1117.2207390447
 10
-998.5042837171
 20
1115.4676110179
 10
-998.6646462993
 20
1113.8156529533
 10
-998.9648057198
 20
1112.3123886766
 10
-999.3961269385
 20
1111.0010643641
 10
-999.9462016294
 20
1109.9194044286
 10
-1000.599205145
 20
1109.0985262573
 10
-1001.3363517631
 20
1108.5620450205
 10
-1002.0585071952
 20
1108.3347125182
  0
LWPOLYLINE
  5
3ED
330
1F
100
AcDbEntity
  8
0
  6
Continuous
 62
     8
370
    25
100
AcDbPolyline
 90
        9
 70
   128
 43
0.0
 10
331.1171581573
 20
-1558.1594546167
 10
331.1013760481
 20
-1558.140823559
 10
330.8782279232
 20
-1557.6898065719
 10
330.9527897046
 20
-1557.2355164138
 10
331.3229163856
 20
-1556.7910221854
 10
331.9779600956
 20
-1556.3691111764
 10
332.8990764196
 20
-1555.9819209984
 10
334.059766518
 20
-1555.6405904078
 10
334.9453403451
 20
-1555.4444291222
  0
LWPOLYLINE
  5
3EE
330
1F
100
AcDbEntity
  8
0
  6
Continuous
 62
     8
370
    25
100
AcDbPolyline
 90
        8
 70
   128
 43
0.0
 10
348.39429835
 20
-1555.6407000499
 10
349.5545464724
 20
-1555.9819209984
 10
350.4756627963
 20
-1556.3691111764
 10
351.1307065063
 20
-1556.7910221854
 10
351.5008331874
 20
-1557.2355164138
 10
351.5753949688
 20
-1557.6898065719
 10
351.3522468439
 20
-1558.140823559
 10
351.1332076626
 20
-1558.3589190638
  0
LWPOLYLINE
  5
3EF
330
1F
100
AcDbEntity
  8
0
  6
Continuous
 62
     8
370
    25
100
AcDbPolyline
 90
       20
 70
   128
 43
0.0
 10
330.4768640951
 20
-1557.041090754
 10
330.5638817669
 20
-1556.678980628
 10
330.9480190475
 20
-1556.2176607263
 10
331.6278584709
 20
-1555.7797788984
 10
332.5838422945
 20
-1555.3779322073
 10
333.7884686045
 20
-1555.0236810507
 10
335.207082495
 20
-1554.7272165893
 10
336.7988730273
 20
-1554.4970675659
 10
338.5180472861
 20
-1554.3398549489
 10
340.3151477579
 20
-1554.2601014591
 10
342.1384751341
 20
-1554.2601014591
 10
343.9355756059
 20
-1554.3398549489
 10
345.6547498646
 20
-1554.4970675659
 10
347.2465403969
 20
-1554.7272165893
 10
348.6651542875
 20
-1555.0236810507
 10
349.8697805974
 20
-1555.3779322073
 10
350.8257644211
 20
-1555.7797788984
 10
351.5056038444
 20
-1556.2176607263
 10
351.889741125
 20
-1556.678980628
 10
351.9764027123
 20
-1557.008120633
  0
LWPOLYLINE
  5
3F0
330
1F
100
AcDbEntity
  8
0
  6
Continuous
 62
     8
370
    25
100
AcDbPolyline
 90
        9
 70
   128
 43
0.0
 10
109.7895099914
 20
672.8893421037
 10
109.8052921006
 20
672.870711046
 10
110.0284402255
 20
672.4196940589
 10
109.9538784441
 20
671.9654039008
 10
109.5837517631
 20
671.5209096724
 10
108.9287080531
 20
671.0989986635
 10
108.0075917291
 20
670.7118084854
 10
106.8469016307
 20
670.3704778948
 10
105.9613278036
 20
670.1743166092
  0
LWPOLYLINE
  5
3F1
330
1F
100
AcDbEntity
  8
0
  6
Continuous
 62
     8
370
    25
100
AcDbPolyline
 90
        8
 70
   128
 43
0.0
 10
92.5123697987
 20
670.370587537
 10
91.3521216763
 20
670.7118084854
 10
90.4310053524
 20
671.0989986635
 10
89.7759616424
 20
671.5209096724
 10
89.4058349613
 20
671.9654039008
 10
89.3312731799
 20
672.4196940589
 10
89.5544213048
 20
672.870711046
 10
89.7734604861
 20
673.0888065508
  0
LWPOLYLINE
  5
3F2
330
1F
100
AcDbEntity
  8
0
  6
Continuous
 62
     8
370
    25
100
AcDbPolyline
 90
       20
 70
   128
 43
0.0
 10
110.4298040536
 20
671.770978241
 10
110.3427863818
 20
671.408868115
 10
109.9586491012
 20
670.9475482133
 10
109.2788096778
 20
670.5096663854
 10
108.3228258542
 20
670.1078196944
 10
107.1181995442
 20
669.7535685377
 10
105.6995856537
 20
669.4571040763
 10
104.1077951213
 20
669.226955053
 10
102.3886208626
 20
669.069742436
 10
100.5915203908
 20
668.9899889461
 10
98.7681930146
 20
668.9899889461
 10
96.9710925428
 20
669.069742436
 10
95.2519182841
 20
669.226955053
 10
93.6601277517
 20
669.4571040763
 10
92.2415138612
 20
669.7535685377
 10
91.0368875513
 20
670.1078196944
 10
90.0809037276
 20
670.5096663854
 10
89.4010643043
 20
670.9475482133
 10
89.0169270237
 20
671.408868115
 10
88.9302654364
 20
671.73800812
  0
LWPOLYLINE
  5
3F3
330
1F
100
AcDbEntity
  8
0
  6
Continuous
 62
     8
370
    25
100
AcDbPolyline
 90
       13
 70
   128
 43
0.0
 10
8.1329019595
 20
-1554.8952030696
 10
9.8833983204
 20
-1554.9337643114
 10
11.5835360881
 20
-1555.0483387002
 10
13.1844053945
 20
-1555.2356301393
 10
14.6399521443
 20
-1555.490250595
 10
15.9083029077
 20
-1555.8048751005
 10
16.9529695424
 20
-1556.1704524816
 10
17.7438988914
 20
-1556.5764657425
 10
18.2583373574
 20
-1557.011234621
 10
18.4814854823
 20
-1557.4622516081
 10
18.4069237009
 20
-1557.9165417662
 10
18.0367970198
 20
-1558.3610359946
 10
17.9099905714
 20
-1558.4611360939
  0
LWPOLYLINE
  5
3F4
330
1F
100
AcDbEntity
  8
0
  6
Continuous
 62
     8
370
    25
100
AcDbPolyline
 90
       12
 70
   128
 43
0.0
 10
-1.806462324
 20
-1558.3304086401
 10
-2.1411197819
 20
-1557.9165417662
 10
-2.2156815633
 20
-1557.4622516081
 10
-1.9925334384
 20
-1557.011234621
 10
-1.4780949724
 20
-1556.5764657425
 10
-0.6871656234
 20
-1556.1704524816
 10
0.3575010113
 20
-1555.8048751005
 10
1.6258517746
 20
-1555.490250595
 10
3.0813985245
 20
-1555.2356301393
 10
4.6822678309
 20
-1555.0483387002
 10
6.3824055986
 20
-1554.9337643114
 10
8.1329019595
 20
-1554.8952030696
  0
LWPOLYLINE
  5
3F5
330
1F
100
AcDbEntity
  8
0
  6
Continuous
 62
     8
370
    25
100
AcDbPolyline
 90
       11
 70
   128
 43
0.0
 10
8.1329019595
 20
-1554.2500781744
 10
9.9496607779
 20
-1554.2900990951
 10
11.714154753
 20
-1554.4090105284
 10
13.3756226055
 20
-1554.6033916086
 10
14.8862669304
 20
-1554.8676503461
 10
16.2026292409
 20
-1555.1941844982
 10
17.2868401901
 20
-1555.5736002717
 10
18.1077090029
 20
-1555.9949825657
 10
18.6416207782
 20
-1556.4462089788
 10
18.8732158462
 20
-1556.9142985486
 10
18.8828493103
 20
-1557.0236750645
  0
LWPOLYLINE
  5
3F6
330
1F
100
AcDbEntity
  8
0
  6
Continuous
 62
     8
370
    25
100
AcDbPolyline
 90
       11
 70
   128
 43
0.0
 10
-2.6166893068
 20
-1557.0566451855
 10
-2.6074119272
 20
-1556.9142985486
 10
-2.3758168592
 20
-1556.4462089788
 10
-1.841905084
 20
-1555.9949825657
 10
-1.0210362712
 20
-1555.5736002717
 10
0.063174678
 20
-1555.1941844982
 10
1.3795369885
 20
-1554.8676503461
 10
2.8901813135
 20
-1554.6033916086
 10
4.551649166
 20
-1554.4090105284
 10
6.316143141
 20
-1554.2900990951
 10
8.1329019595
 20
-1554.2500781744
  0
LWPOLYLINE
  5
3F7
330
1F
100
AcDbEntity
  8
0
  6
Continuous
 62
     8
370
    25
100
AcDbPolyline
 90
       13
 70
   128
 43
0.0
 10
341.226811446
 20
714.1872028642
 10
339.4763150851
 20
714.2257641061
 10
337.7761773173
 20
714.3403384948
 10
336.1753080109
 20
714.5276299339
 10
334.7197612611
 20
714.7822503896
 10
333.4514104978
 20
715.0968748951
 10
332.4067438631
 20
715.4624522762
 10
331.615814514
 20
715.8684655371
 10
331.1013760481
 20
716.3032344157
 10
330.8782279232
 20
716.7542514027
 10
330.9527897046
 20
717.2085415608
 10
331.3229163856
 20
717.6530357892
 10
331.4497228341
 20
717.7531358886
  0
LWPOLYLINE
  5
3F8
330
1F
100
AcDbEntity
  8
0
  6
Continuous
 62
     8
370
    25
100
AcDbPolyline
 90
       12
 70
   128
 43
0.0
 10
351.1661757294
 20
717.6224084347
 10
351.5008331873
 20
717.2085415608
 10
351.5753949688
 20
716.7542514027
 10
351.3522468439
 20
716.3032344157
 10
350.8378083779
 20
715.8684655371
 10
350.0468790289
 20
715.4624522762
 10
349.0022123942
 20
715.0968748951
 10
347.7338616308
 20
714.7822503896
 10
346.278314881
 20
714.5276299339
 10
344.6774455746
 20
714.3403384948
 10
342.9773078069
 20
714.2257641061
 10
341.226811446
 20
714.1872028642
  0
LWPOLYLINE
  5
3F9
330
1F
100
AcDbEntity
  8
0
  6
Continuous
 62
     8
370
    25
100
AcDbPolyline
 90
       11
 70
   128
 43
0.0
 10
341.226811446
 20
713.542077969
 10
339.4100526275
 20
713.5820988898
 10
337.6455586525
 20
713.701010323
 10
335.9840908
 20
713.8953914032
 10
334.473446475
 20
714.1596501407
 10
333.1570841645
 20
714.4861842928
 10
332.0728732153
 20
714.8656000663
 10
331.2520044025
 20
715.2869823603
 10
330.7180926273
 20
715.7382087734
 10
330.4864975593
 20
716.2062983433
 10
330.4768640951
 20
716.3156748592
  0
LWPOLYLINE
  5
3FA
330
1F
100
AcDbEntity
  8
0
  6
Continuous
 62
     8
370
    25
100
AcDbPolyline
 90
       11
 70
   128
 43
0.0
 10
351.9764027123
 20
716.3486449801
 10
351.9671253327
 20
716.2062983433
 10
351.7355302646
 20
715.7382087734
 10
351.2016184894
 20
715.2869823603
 10
350.3807496766
 20
714.8656000663
 10
349.2965387274
 20
714.4861842928
 10
347.9801764169
 20
714.1596501407
 10
346.469532092
 20
713.8953914032
 10
344.8080642394
 20
713.701010323
 10
343.0435702644
 20
713.5820988898
 10
341.226811446
 20
713.542077969
  0
LWPOLYLINE
  5
3FB
330
1F
100
AcDbEntity
  8
0
  6
Continuous
 62
     8
370
    25
100
AcDbPolyline
 90
       31
 70
   128
 43
0.0
 10
1296.549740328
 20
1086.2111515415
 10
1296.0752301208
 20
1084.5921781654
 10
1295.4935353293
 20
1083.1059901251
 10
1294.8213902535
 20
1081.7953423446
 10
1294.0781312835
 20
1080.6979397743
 10
1293.2851406266
 20
1079.8453526881
 10
1292.4652311803
 20
1079.2621084642
 10
1291.6419902465
 20
1078.9649859769
 10
1290.8391009679
 20
1078.9625328993
 10
1290.0796610074
 20
1079.254819802
 10
1289.3855180699
 20
1079.8334381228
 10
1288.7766413838
 20
1080.6817420663
 10
1288.2705472228
 20
1081.7753274724
 10
1287.8817949946
 20
1083.0827338801
 10
1287.6215683929
 20
1084.5663495875
 10
1287.4973536632
 20
1086.1834936719
 10
1287.5127242372
 20
1087.8876438422
 10
1287.6672379314
 20
1089.6297748009
 10
1287.9564496682
 20
1091.359768612
 10
1288.3720393525
 20
1093.0278565036
 10
1288.9020512257
 20
1094.586050624
 10
1289.5312378113
 20
1095.9895245653
 10
1290.2414985566
 20
1097.1979029376
 10
1291.0124005533
 20
1098.1764228952
 10
1291.8217663545
 20
1098.8969342005
 10
1292.6463119796
 20
1099.3387090551
 10
1293.4623167524
 20
1099.4890384007
 10
1294.2463057011
 20
1099.3435975358
 10
1294.9757248911
 20
1098.9065705292
 10
1295.6295902604
 20
1098.1905298523
 10
1295.9580035007
 20
1097.6708025728
  0
LWPOLYLINE
  5
3FC
330
1F
100
AcDbEntity
  8
0
  6
Continuous
 62
     8
370
    25
100
AcDbPolyline
 90
       21
 70
   128
 43
0.0
 10
1290.3689819817
 20
1078.629180781
 10
1290.2849857755
 20
1078.6430981145
 10
1289.4967983355
 20
1078.9464491067
 10
1288.776379641
 20
1079.5469701705
 10
1288.1444548261
 20
1080.4273854084
 10
1287.6192032172
 20
1081.5623668769
 10
1287.2157353468
 20
1082.9192632256
 10
1286.945658251
 20
1084.4590390171
 10
1286.8167415559
 20
1086.1373977053
 10
1286.8326939603
 20
1087.9060559665
 10
1286.9930565425
 20
1089.7141327228
 10
1287.293215963
 20
1091.5096128977
 10
1287.7245371818
 20
1093.2408437958
 10
1288.2746118726
 20
1094.8580210561
 10
1288.9276153883
 20
1096.3146214332
 10
1289.6647620064
 20
1097.5687411863
 10
1290.464845361
 20
1098.5843015734
 10
1291.3048485107
 20
1099.3320867713
 10
1292.1606060941
 20
1099.7905843614
 10
1293.0074995238
 20
1099.9466042026
 10
1293.3180476328
 20
1099.9258976285
  0
LWPOLYLINE
  5
3FD
330
1F
100
AcDbEntity
  8
0
  6
Continuous
 62
     8
370
    25
100
AcDbPolyline
 90
       27
 70
   128
 43
0.0
 10
-947.1900269226
 20
1096.293763505
 10
-946.7155167153
 20
1097.4507842754
 10
-946.1338219238
 20
1098.3706716954
 10
-945.461676848
 20
1099.0269622788
 10
-944.7184178781
 20
1099.4007757404
 10
-943.9254272212
 20
1099.4813581475
 10
-943.1055177749
 20
1099.2663912909
 10
-942.2822768411
 20
1098.7620593759
 10
-941.4793875625
 20
1097.9828711132
 10
-940.719947602
 20
1096.9512423306
 10
-940.0258046644
 20
1095.6968511099
 10
-939.4169279783
 20
1094.2557840026
 10
-938.9108338174
 20
1092.6694978856
 10
-938.5220815891
 20
1090.9836273225
 10
-938.2618549874
 20
1089.2466717397
 10
-938.1376402577
 20
1087.5086001871
 10
-938.1530108317
 20
1085.8194138186
 10
-938.307524526
 20
1084.2277074506
 10
-938.5967362628
 20
1082.7792715772
 10
-939.0123259471
 20
1081.5157750615
 10
-939.5423378203
 20
1080.4735663977
 10
-940.1715244058
 20
1079.6826280314
 10
-940.8817851512
 20
1079.1657138196
 10
-941.6526871479
 20
1078.9376944428
 10
-942.462052949
 20
1079.0051296035
 10
-943.2865985742
 20
1079.3660793148
 10
-943.8948369032
 20
1079.8183298953
  0
LWPOLYLINE
  5
3FE
330
1F
100
AcDbEntity
  8
0
  6
Continuous
 62
     8
370
    25
100
AcDbPolyline
 90
       20
 70
   128
 43
0.0
 10
-943.9583342274
 20
1099.9258976285
 10
-943.4639032518
 20
1099.9386332247
 10
-942.6129573429
 20
1099.7155291149
 10
-941.7585538378
 20
1099.1921064592
 10
-940.92527237
 20
1098.3834231742
 10
-940.1370849301
 20
1097.3127436059
 10
-939.4166662355
 20
1096.0108692558
 10
-938.7847414207
 20
1094.5152526789
 10
-938.2594898118
 20
1092.868920041
 10
-937.8560219414
 20
1091.1192333345
 10
-937.5859448455
 20
1089.3165278604
 10
-937.4570281505
 20
1087.5126641729
 10
-937.4729805549
 20
1085.7595361462
 10
-937.6333431371
 20
1084.1075780816
 10
-937.9335025576
 20
1082.6043138049
 10
-938.3648237764
 20
1081.2929894923
 10
-938.9148984672
 20
1080.2113295569
 10
-939.5679019828
 20
1079.3904513856
 10
-940.305048601
 20
1078.8539701488
 10
-941.027204033
 20
1078.6266376465
  0
LWPOLYLINE
  5
3FF
330
1F
100
AcDbEntity
  8
0
  6
Continuous
 62
     8
370
    25
100
AcDbPolyline
 90
       31
 70
   128
 43
0.0
 10
-1008.2213300847
 20
-1956.6272266186
 10
-1007.7468198775
 20
-1955.0082532425
 10
-1007.165125086
 20
-1953.5220652022
 10
-1006.4929800102
 20
-1952.2114174217
 10
-1005.7497210402
 20
-1951.1140148514
 10
-1004.9567303834
 20
-1950.2614277652
 10
-1004.1368209371
 20
-1949.6781835413
 10
-1003.3135800032
 20
-1949.381061054
 10
-1002.5106907247
 20
-1949.3786079764
 10
-1001.7512507642
 20
-1949.6708948791
 10
-1001.0571078266
 20
-1950.2495131999
 10
-1000.4482311405
 20
-1951.0978171434
 10
-999.9421369796
 20
-1952.1914025495
 10
-999.5533847513
 20
-1953.4988089572
 10
-999.2931581496
 20
-1954.9824246646
 10
-999.1689434199
 20
-1956.599568749
 10
-999.1843139939
 20
-1958.3037189193
 10
-999.3388276881
 20
-1960.045849878
 10
-999.628039425
 20
-1961.7758436891
 10
-1000.0436291093
 20
-1963.4439315807
 10
-1000.5736409825
 20
-1965.0021257011
 10
-1001.202827568
 20
-1966.4055996424
 10
-1001.9130883134
 20
-1967.6139780147
 10
-1002.6839903101
 20
-1968.5924979723
 10
-1003.4933561112
 20
-1969.3130092776
 10
-1004.3179017364
 20
-1969.7547841322
 10
-1005.1339065091
 20
-1969.9051134778
 10
-1005.9178954578
 20
-1969.7596726129
 10
-1006.6473146478
 20
-1969.3226456063
 10
-1007.3011800171
 20
-1968.6066049294
 10
-1007.6295932574
 20
-1968.0868776499
  0
LWPOLYLINE
  5
400
330
1F
100
AcDbEntity
  8
0
  6
Continuous
 62
     8
370
    25
100
AcDbPolyline
 90
       21
 70
   128
 43
0.0
 10
-1002.0405717384
 20
-1949.0452558581
 10
-1001.9565755322
 20
-1949.0591731916
 10
-1001.1683880922
 20
-1949.3625241838
 10
-1000.4479693977
 20
-1949.9630452476
 10
-999.8160445828
 20
-1950.8434604855
 10
-999.290792974
 20
-1951.978441954
 10
-998.8873251036
 20
-1953.3353383027
 10
-998.6172480077
 20
-1954.8751140942
 10
-998.4883313127
 20
-1956.5534727824
 10
-998.5042837171
 20
-1958.3221310436
 10
-998.6646462993
 20
-1960.1302077999
 10
-998.9648057198
 20
-1961.9256879748
 10
-999.3961269385
 20
-1963.6569188729
 10
-999.9462016294
 20
-1965.2740961332
 10
-1000.599205145
 20
-1966.7306965103
 10
-1001.3363517631
 20
-1967.9848162634
 10
-1002.1364351177
 20
-1969.0003766505
 10
-1002.9764382674
 20
-1969.7481618484
 10
-1003.8321958509
 20
-1970.2066594385
 10
-1004.6790892806
 20
-1970.3626792797
 10
-1004.9896373896
 20
-1970.3419727056
  0
LWPOLYLINE
  5
401
330
1F
100
AcDbEntity
  8
0
  6
Continuous
 62
     8
370
    25
100
AcDbPolyline
 90
       13
 70
   128
 43
0.0
 10
99.6798567027
 20
-1510.3330907621
 10
101.4303530636
 20
-1510.3716520039
 10
103.1304908313
 20
-1510.4862263926
 10
104.7313601377
 20
-1510.6735178317
 10
106.1869068876
 20
-1510.9281382875
 10
107.4552576509
 20
-1511.242762793
 10
108.4999242856
 20
-1511.608340174
 10
109.2908536346
 20
-1512.0143534349
 10
109.8052921006
 20
-1512.4491223135
 10
110.0284402255
 20
-1512.9001393006
 10
109.9538784441
 20
-1513.3544294587
 10
109.5837517631
 20
-1513.798923687
 10
109.4569453146
 20
-1513.8990237864
  0
LWPOLYLINE
  5
402
330
1F
100
AcDbEntity
  8
0
  6
Continuous
 62
     8
370
    25
100
AcDbPolyline
 90
       12
 70
   128
 43
0.0
 10
89.7404924193
 20
-1513.7682963326
 10
89.4058349613
 20
-1513.3544294587
 10
89.3312731799
 20
-1512.9001393006
 10
89.5544213048
 20
-1512.4491223135
 10
90.0688597708
 20
-1512.0143534349
 10
90.8597891198
 20
-1511.608340174
 10
91.9044557545
 20
-1511.242762793
 10
93.1728065179
 20
-1510.9281382875
 10
94.6283532677
 20
-1510.6735178317
 10
96.2292225741
 20
-1510.4862263926
 10
97.9293603418
 20
-1510.3716520039
 10
99.6798567027
 20
-1510.3330907621
  0
LWPOLYLINE
  5
403
330
1F
100
AcDbEntity
  8
0
  6
Continuous
 62
     8
370
    25
100
AcDbPolyline
 90
       11
 70
   128
 43
0.0
 10
99.6798567027
 20
-1509.6879658668
 10
101.4966155212
 20
-1509.7279867876
 10
103.2611094962
 20
-1509.8468982208
 10
104.9225773487
 20
-1510.041279301
 10
106.4332216736
 20
-1510.3055380386
 10
107.7495839842
 20
-1510.6320721906
 10
108.8337949334
 20
-1511.0114879641
 10
109.6546637462
 20
-1511.4328702581
 10
110.1885755214
 20
-1511.8840966712
 10
110.4201705894
 20
-1512.3521862411
 10
110.4298040536
 20
-1512.461562757
  0
LWPOLYLINE
  5
404
330
1F
100
AcDbEntity
  8
0
  6
Continuous
 62
     8
370
    25
100
AcDbPolyline
 90
       11
 70
   128
 43
0.0
 10
88.9302654364
 20
-1512.494532878
 10
88.939542816
 20
-1512.3521862411
 10
89.171137884
 20
-1511.8840966712
 10
89.7050496593
 20
-1511.4328702581
 10
90.5259184721
 20
-1511.0114879641
 10
91.6101294213
 20
-1510.6320721906
 10
92.9264917318
 20
-1510.3055380386
 10
94.4371360567
 20
-1510.041279301
 10
96.0986039092
 20
-1509.8468982208
 10
97.8630978843
 20
-1509.7279867876
 10
99.6798567027
 20
-1509.6879658668
  0
ARC
  5
405
330
1F
100
AcDbEntity
  8
0
  6
Continuous
 62
     8
370
    25
100
AcDbCircle
 10
164.6402800783
 20
-1403.6773055396
 30
0.0
 40
1.778221831802082
100
AcDbArc
 50
3.8729357631
 51
70.2801064698
  0
LWPOLYLINE
  5
406
330
1F
100
AcDbEntity
  8
0
  6
Continuous
 62
     8
370
    25
100
AcDbPolyline
 90
        8
 70
   128
 43
0.0
 10
90.6372756117
 20
-1391.732638156
 10
90.6788148184
 20
-1391.740844633
 10
90.7858942712
 20
-1391.8154011018
 10
90.8836941954
 20
-1391.964578745
 10
90.9695225014
 20
-1392.184271224
 10
91.0410166365
 20
-1392.4684311741
 10
91.0962086174
 20
-1392.8092366664
 10
91.1335792019
 20
-1393.1973065189
  0
ARC
  5
407
330
1F
100
AcDbEntity
  8
0
  6
Continuous
 62
     8
370
    25
100
AcDbCircle
 10
89.8202767913
 20
-1396.0525756379
 30
0.0
 40
4.247872081193662
100
AcDbArc
 50
116.333893216
 51
185.5850313051
  0
ARC
  5
408
330
1F
100
AcDbEntity
  8
0
  6
Continuous
 62
     8
370
    25
100
AcDbCircle
 10
168.7373491632
 20
-1491.4784139773
 30
0.0
 40
2.58723041546936
100
AcDbArc
 50
66.1462038425
 51
87.855056083
  0
ARC
  5
409
330
1F
100
AcDbEntity
  8
0
  6
Continuous
 62
     8
370
    25
100
AcDbCircle
 10
168.6627828417
 20
-1407.7026122296
 30
0.0
 40
1.177810529098503
100
AcDbArc
 50
18.5312584102
 51
81.6323552635
  0
ARC
  5
40A
330
1F
100
AcDbEntity
  8
0
  6
Continuous
 62
     8
370
    25
100
AcDbCircle
 10
165.2899862297
 20
-1490.1739471332
 30
0.0
 40
3.679570299874215
100
AcDbArc
 50
259.4515636087
 51
296.2270674028
  0
ARC
  5
40B
330
1F
100
AcDbEntity
  8
0
  6
Continuous
 62
     8
370
    25
100
AcDbCircle
 10
184.7191912958
 20
-1403.6772116056
 30
0.0
 40
1.777974010265831
100
AcDbArc
 50
109.6926246094
 51
176.1295575631
  0
LWPOLYLINE
  5
40C
330
1F
100
AcDbEntity
  8
0
  6
Continuous
 62
     8
370
    25
100
AcDbPolyline
 90
        8
 70
   128
 43
0.0
 10
258.2261342035
 20
-1393.1973065189
 10
258.2635047881
 20
-1392.8092366664
 10
258.3186967689
 20
-1392.4684311741
 10
258.390190904
 20
-1392.184271224
 10
258.4760192101
 20
-1391.964578745
 10
258.5738191343
 20
-1391.8154011018
 10
258.6808985871
 20
-1391.740844633
 10
258.7229571743
 20
-1391.7326031014
  0
ARC
  5
40D
330
1F
100
AcDbEntity
  8
0
  6
Continuous
 62
     8
370
    25
100
AcDbCircle
 10
259.5048704308
 20
-1396.0688785553
 30
0.0
 40
4.280732350494021
100
AcDbArc
 50
354.6771681442
 51
63.044855212
  0
ARC
  5
40E
330
1F
100
AcDbEntity
  8
0
  6
Continuous
 62
     8
370
    25
100
AcDbCircle
 10
180.6969308625
 20
-1407.7026128623
 30
0.0
 40
1.177811198515095
100
AcDbArc
 50
98.3676546368
 51
161.4686731027
  0
ARC
  5
40F
330
1F
100
AcDbEntity
  8
0
  6
Continuous
 62
     8
370
    25
100
AcDbCircle
 10
180.6223636472
 20
-1491.4784107514
 30
0.0
 40
2.587227169572953
100
AcDbArc
 50
92.1449334239
 51
113.8538133706
  0
ARC
  5
410
330
1F
100
AcDbEntity
  8
0
  6
Continuous
 62
     8
370
    25
100
AcDbCircle
 10
184.0680290582
 20
-1490.2572708893
 30
0.0
 40
3.598005341836251
100
AcDbArc
 50
243.3304671115
 51
280.8179281696
  0
ARC
  5
411
330
1F
100
AcDbEntity
  8
0
  6
Continuous
 62
     8
370
    25
100
AcDbCircle
 10
164.6405221096
 20
562.9692114003
 30
0.0
 40
1.777974010265037
100
AcDbArc
 50
289.6926246094
 51
356.1295575631
  0
LWPOLYLINE
  5
412
330
1F
100
AcDbEntity
  8
0
  6
Continuous
 62
     8
370
    25
100
AcDbPolyline
 90
        8
 70
   128
 43
0.0
 10
91.1335792019
 20
552.4893063135
 10
91.0962086174
 20
552.101236461
 10
91.0410166365
 20
551.7604309687
 10
90.9695225014
 20
551.4762710186
 10
90.8836941954
 20
551.2565785396
 10
90.7858942712
 20
551.1074008964
 10
90.6788148184
 20
551.0328444276
 10
90.6367562312
 20
551.024602896
  0
ARC
  5
413
330
1F
100
AcDbEntity
  8
0
  6
Continuous
 62
     8
370
    25
100
AcDbCircle
 10
89.8548429747
 20
555.3608783499
 30
0.0
 40
4.280732350493689
100
AcDbArc
 50
174.6771681442
 51
243.044855212
  0
ARC
  5
414
330
1F
100
AcDbEntity
  8
0
  6
Continuous
 62
     8
370
    25
100
AcDbCircle
 10
168.6627825429
 20
566.9946126569
 30
0.0
 40
1.177811198515042
100
AcDbArc
 50
278.3676546368
 51
341.4686731027
  0
ARC
  5
415
330
1F
100
AcDbEntity
  8
0
  6
Continuous
 62
     8
370
    25
100
AcDbCircle
 10
168.7373497582
 20
650.770410546
 30
0.0
 40
2.58722716958852
100
AcDbArc
 50
272.144933424
 51
293.8538133705
  0
ARC
  5
416
330
1F
100
AcDbEntity
  8
0
  6
Continuous
 62
     8
370
    25
100
AcDbCircle
 10
165.2916843473
 20
649.5492706839
 30
0.0
 40
3.598005341836032
100
AcDbArc
 50
63.3304671115
 51
100.8179281696
  0
ARC
  5
417
330
1F
100
AcDbEntity
  8
0
  6
Continuous
 62
     8
370
    25
100
AcDbCircle
 10
184.7194333271
 20
562.9693053342
 30
0.0
 40
1.778221831801641
100
AcDbArc
 50
183.8729357631
 51
250.2801064698
  0
LWPOLYLINE
  5
418
330
1F
100
AcDbEntity
  8
0
  6
Continuous
 62
     8
370
    25
100
AcDbPolyline
 90
        8
 70
   128
 43
0.0
 10
258.7224377937
 20
551.0246379506
 10
258.6808985871
 20
551.0328444276
 10
258.5738191343
 20
551.1074008964
 10
258.4760192101
 20
551.2565785396
 10
258.390190904
 20
551.4762710186
 10
258.3186967689
 20
551.7604309687
 10
258.2635047881
 20
552.101236461
 10
258.2261342035
 20
552.4893063135
  0
ARC
  5
419
330
1F
100
AcDbEntity
  8
0
  6
Continuous
 62
     8
370
    25
100
AcDbCircle
 10
259.5394366141
 20
555.3445754326
 30
0.0
 40
4.247872081193701
100
AcDbArc
 50
296.333893216
 51
5.5850313051
  0
ARC
  5
41A
330
1F
100
AcDbEntity
  8
0
  6
Continuous
 62
     8
370
    25
100
AcDbCircle
 10
180.6223642422
 20
650.7704137719
 30
0.0
 40
2.587230415486277
100
AcDbArc
 50
246.1462038426
 51
267.8550560829
  0
ARC
  5
41B
330
1F
100
AcDbEntity
  8
0
  6
Continuous
 62
     8
370
    25
100
AcDbCircle
 10
180.6969305637
 20
566.9946120242
 30
0.0
 40
1.177810529098273
100
AcDbArc
 50
198.5312584102
 51
261.6323552635
  0
ARC
  5
41C
330
1F
100
AcDbEntity
  8
0
  6
Continuous
 62
     8
370
    25
100
AcDbCircle
 10
184.0697271757
 20
649.4659469278
 30
0.0
 40
3.679570299875215
100
AcDbArc
 50
79.4515636087
 51
116.2270674028
  0
LINE
  5
41D
330
1F
100
AcDbEntity
  8
0
  6
Continuous
 62
     8
370
    25
100
AcDbLine
 10
269.6198351734
 20
645.674582194
 30
0.0
 11
1260.9887830473
 21
1128.2410915584
 31
0.0
  0
LINE
  5
41E
330
1F
100
AcDbEntity
  8
0
  6
Continuous
 62
     8
370
    25
100
AcDbLine
 10
271.7572230114
 20
642.16332036
 30
0.0
 11
1263.5659911621
 21
1124.9439200851
 31
0.0
  0
LINE
  5
41F
330
1F
100
AcDbEntity
  8
0
  6
Continuous
 62
     8
370
    25
100
AcDbLine
 10
271.9020617265
 20
561.0960537784
 30
0.0
 11
1263.5659911621
 21
1043.8061506768
 31
0.0
  0
LINE
  5
420
330
1F
100
AcDbEntity
  8
0
  6
Continuous
 62
     8
370
    25
100
AcDbLine
 10
196.7457650933
 20
656.5109171256
 30
0.0
 11
1187.1354283321
 21
1138.6007422353
 31
0.0
  0
LINE
  5
421
330
1F
100
AcDbEntity
  8
0
  6
Continuous
 62
     8
370
    25
100
AcDbLine
 10
271.7572230114
 20
-1482.8713205653
 30
0.0
 11
1263.5659911621
 21
-1965.6519202905
 31
0.0
  0
LINE
  5
422
330
1F
100
AcDbEntity
  8
0
  6
Continuous
 62
     8
370
    25
100
AcDbLine
 10
269.6198351734
 20
-1486.3825823994
 30
0.0
 11
1260.9887830473
 21
-1968.9490917638
 31
0.0
  0
LINE
  5
423
330
1F
100
AcDbEntity
  8
0
  6
Continuous
 62
     8
370
    25
100
AcDbLine
 10
271.9020617265
 20
-1401.8040539838
 30
0.0
 11
1263.5659911621
 21
-1884.5141508822
 31
0.0
  0
LINE
  5
424
330
1F
100
AcDbEntity
  8
0
  6
Continuous
 62
     8
370
    25
100
AcDbLine
 10
196.7457650933
 20
-1497.218917331
 30
0.0
 11
1187.1354283321
 21
-1979.3087424407
 31
0.0
  0
LINE
  5
425
330
1F
100
AcDbEntity
  8
0
  6
Continuous
 62
     8
370
    25
100
AcDbLine
 10
77.602490394
 20
642.16332036
 30
0.0
 11
-914.2062777566
 21
1124.9439200851
 31
0.0
  0
LINE
  5
426
330
1F
100
AcDbEntity
  8
0
  6
Continuous
 62
     8
370
    25
100
AcDbLine
 10
79.739878232
 20
645.674582194
 30
0.0
 11
-911.6290696419
 21
1128.2410915584
 31
0.0
  0
LINE
  5
427
330
1F
100
AcDbEntity
  8
0
  6
Continuous
 62
     8
370
    25
100
AcDbLine
 10
77.4576516789
 20
561.0960537784
 30
0.0
 11
-914.2062777566
 21
1043.8061506768
 31
0.0
  0
LINE
  5
428
330
1F
100
AcDbEntity
  8
0
  6
Continuous
 62
     8
370
    25
100
AcDbLine
 10
152.6139483121
 20
656.5109171256
 30
0.0
 11
-837.7757149267
 21
1138.6007422353
 31
0.0
  0
LINE
  5
429
330
1F
100
AcDbEntity
  8
0
  6
Continuous
 62
     8
370
    25
100
AcDbLine
 10
79.739878232
 20
-1486.3825823994
 30
0.0
 11
-911.6290696419
 21
-1968.9490917638
 31
0.0
  0
LINE
  5
42A
330
1F
100
AcDbEntity
  8
0
  6
Continuous
 62
     8
370
    25
100
AcDbLine
 10
77.602490394
 20
-1482.8713205653
 30
0.0
 11
-914.2062777566
 21
-1965.6519202905
 31
0.0
  0
LINE
  5
42B
330
1F
100
AcDbEntity
  8
0
  6
Continuous
 62
     8
370
    25
100
AcDbLine
 10
77.4576516789
 20
-1401.8040539838
 30
0.0
 11
-914.2062777566
 21
-1884.5141508822
 31
0.0
  0
LINE
  5
42C
330
1F
100
AcDbEntity
  8
0
  6
Continuous
 62
     8
370
    25
100
AcDbLine
 10
152.6139483121
 20
-1497.218917331
 30
0.0
 11
-837.7757149267
 21
-1979.3087424407
 31
0.0
  0
ARC
  5
42D
330
1F
100
AcDbEntity
  8
0
  6
Continuous
 62
     8
370
    25
100
AcDbCircle
 10
138.5561144411
 20
-780.1532666155
 30
0.0
 40
3.00374971277735
100
AcDbArc
 50
143.5676847755
 51
285.0154712375
  0
ARC
  5
42E
330
1F
100
AcDbEntity
  8
0
  6
Continuous
 62
     8
370
    25
100
AcDbCircle
 10
138.5578198232
 20
-1130.4741312486
 30
0.0
 40
3.004314348582036
100
AcDbArc
 50
74.4082753449
 51
216.8410918557
  0
ARC
  5
42F
330
1F
100
AcDbEntity
  8
0
  6
Continuous
 62
     8
370
    25
100
AcDbCircle
 10
138.5578198232
 20
-60.5561764707
 30
0.0
 40
3.004314348582194
100
AcDbArc
 50
74.4082753449
 51
216.8410918557
  0
ARC
  5
430
330
1F
100
AcDbEntity
  8
0
  6
Continuous
 62
     8
370
    25
100
AcDbCircle
 10
138.5561144411
 20
289.7646881624
 30
0.0
 40
3.003749712777264
100
AcDbArc
 50
143.5676847755
 51
285.0154712375
  0
ARC
  5
431
330
1F
100
AcDbEntity
  8
0
  6
Continuous
 62
     8
370
    25
100
AcDbCircle
 10
207.2274037878
 20
300.1362912436
 30
0.0
 40
2.573986945452481
100
AcDbArc
 50
342.3230549577
 51
17.6769450423
  0
LINE
  5
432
330
1F
100
AcDbEntity
  8
0
  6
Continuous
 62
     8
370
    25
100
AcDbLine
 10
137.9375791744
 20
298.4232002033
 30
0.0
 11
138.4484494884
 21
298.498686693
 31
0.0
  0
ARC
  5
433
330
1F
100
AcDbEntity
  8
0
  6
Continuous
 62
     8
370
    25
100
AcDbCircle
 10
137.8881320741
 20
300.9304329491
 30
0.0
 40
2.507720290828624
100
AcDbArc
 50
107.0872949639
 51
271.1298284673
  0
LINE
  5
434
330
1F
100
AcDbEntity
  8
0
  6
Continuous
 62
     8
370
    25
100
AcDbLine
 10
134.9123972066
 20
297.5977219075
 30
0.0
 11
135.441128095
 21
297.6780053955
 31
0.0
  0
ARC
  5
435
330
1F
100
AcDbEntity
  8
0
  6
Continuous
 62
     8
370
    25
100
AcDbCircle
 10
134.862976452
 20
300.1049795656
 30
0.0
 40
2.507744679063407
100
AcDbArc
 50
107.1165784436
 51
271.1292154256
  0
ARC
  5
436
330
1F
100
AcDbEntity
  8
0
  6
Continuous
 62
     8
370
    25
100
AcDbCircle
 10
137.8702993857
 20
-71.7216527993
 30
0.0
 40
2.500759243509747
100
AcDbArc
 50
76.7122239499
 51
253.8691897037
  0
ARC
  5
437
330
1F
100
AcDbEntity
  8
0
  6
Continuous
 62
     8
370
    25
100
AcDbCircle
 10
134.8450739659
 20
-70.8968071613
 30
0.0
 40
2.500827438194869
100
AcDbArc
 50
76.211250303
 51
253.2633993562
  0
ARC
  5
438
330
1F
100
AcDbEntity
  8
0
  6
Continuous
 62
     8
370
    25
100
AcDbCircle
 10
207.2274037878
 20
-70.9263366711
 30
0.0
 40
2.573986945449557
100
AcDbArc
 50
342.3230549577
 51
17.6769450423
  0
ARC
  5
439
330
1F
100
AcDbEntity
  8
0
  6
Continuous
 62
     8
370
    25
100
AcDbCircle
 10
207.2274037878
 20
-769.7816635343
 30
0.0
 40
2.573986945451696
100
AcDbArc
 50
342.3230549577
 51
17.6769450423
  0
LINE
  5
43A
330
1F
100
AcDbEntity
  8
0
  6
Continuous
 62
     8
370
    25
100
AcDbLine
 10
137.9375791744
 20
-771.4947545746
 30
0.0
 11
138.4484494884
 21
-771.4192680849
 31
0.0
  0
ARC
  5
43B
330
1F
100
AcDbEntity
  8
0
  6
Continuous
 62
     8
370
    25
100
AcDbCircle
 10
137.8881320741
 20
-768.9875218288
 30
0.0
 40
2.507720290828582
100
AcDbArc
 50
107.0872949639
 51
271.1298284673
  0
LINE
  5
43C
330
1F
100
AcDbEntity
  8
0
  6
Continuous
 62
     8
370
    25
100
AcDbLine
 10
134.9123972066
 20
-772.3202328704
 30
0.0
 11
135.441128095
 21
-772.2399493823
 31
0.0
  0
ARC
  5
43D
330
1F
100
AcDbEntity
  8
0
  6
Continuous
 62
     8
370
    25
100
AcDbCircle
 10
134.862976452
 20
-769.8129752122
 30
0.0
 40
2.507744679063378
100
AcDbArc
 50
107.1165784435
 51
271.1292154257
  0
ARC
  5
43E
330
1F
100
AcDbEntity
  8
0
  6
Continuous
 62
     8
370
    25
100
AcDbCircle
 10
137.8702993857
 20
-1141.6396075771
 30
0.0
 40
2.500759243510049
100
AcDbArc
 50
76.7122239499
 51
253.8691897037
  0
ARC
  5
43F
330
1F
100
AcDbEntity
  8
0
  6
Continuous
 62
     8
370
    25
100
AcDbCircle
 10
134.8450739659
 20
-1140.8147619392
 30
0.0
 40
2.500827438194965
100
AcDbArc
 50
76.211250303
 51
253.2633993562
  0
ARC
  5
440
330
1F
100
AcDbEntity
  8
0
  6
Continuous
 62
     8
370
    25
100
AcDbCircle
 10
207.2274037878
 20
-1140.8442914489
 30
0.0
 40
2.573986945449419
100
AcDbArc
 50
342.3230549577
 51
17.6769450423
  0
LINE
  5
441
330
1F
100
AcDbEntity
  8
0
  6
Continuous
 62
     8
370
    25
100
AcDbLine
 10
136.0862593774
 20
-74.3950227138
 30
0.0
 11
136.0862593774
 21
-73.8268891657
 31
0.0
  0
LINE
  5
442
330
1F
100
AcDbEntity
  8
0
  6
Continuous
 62
     8
370
    25
100
AcDbLine
 10
136.0862593774
 20
-68.0772041767
 30
0.0
 11
136.0862593774
 21
-66.3950227138
 31
0.0
  0
LINE
  5
443
330
1F
100
AcDbEntity
  8
0
  6
Continuous
 62
     8
370
    25
100
AcDbLine
 10
136.0862593774
 20
295.6049772862
 30
0.0
 11
136.0862593774
 21
297.2920678157
 31
0.0
  0
LINE
  5
444
330
1F
100
AcDbEntity
  8
0
  6
Continuous
 62
     8
370
    25
100
AcDbLine
 10
136.0862593774
 20
303.0368437382
 30
0.0
 11
136.0862593774
 21
303.6049772862
 31
0.0
  0
LINE
  5
445
330
1F
100
AcDbEntity
  8
0
  6
Continuous
 62
     8
370
    25
100
AcDbLine
 10
136.0862593774
 20
-774.3129774916
 30
0.0
 11
136.0862593774
 21
-772.6258869622
 31
0.0
  0
LINE
  5
446
330
1F
100
AcDbEntity
  8
0
  6
Continuous
 62
     8
370
    25
100
AcDbLine
 10
136.0862593774
 20
-766.8811110397
 30
0.0
 11
136.0862593774
 21
-766.3129774916
 31
0.0
  0
LINE
  5
447
330
1F
100
AcDbEntity
  8
0
  6
Continuous
 62
     8
370
    25
100
AcDbLine
 10
136.0862593774
 20
-1144.3129774916
 30
0.0
 11
136.0862593774
 21
-1143.7448439436
 31
0.0
  0
LINE
  5
448
330
1F
100
AcDbEntity
  8
0
  6
Continuous
 62
     8
370
    25
100
AcDbLine
 10
136.0862593774
 20
-1137.9951589546
 30
0.0
 11
136.0862593774
 21
-1136.3129774916
 31
0.0
  0
LINE
  5
449
330
1F
100
AcDbEntity
  8
0
  6
Continuous
 62
     8
370
    25
100
AcDbLine
 10
219.2586714756
 20
326.1049772862
 30
0.0
 11
209.6798567027
 21
326.1049772862
 31
0.0
  0
LINE
  5
44A
330
1F
100
AcDbEntity
  8
0
  6
Continuous
 62
     8
370
    25
100
AcDbLine
 10
139.6798567027
 20
326.1049772862
 30
0.0
 11
122.9138472792
 21
326.1049772862
 31
0.0
  0
LINE
  5
44B
330
1F
100
AcDbEntity
  8
0
  6
Continuous
 62
     8
370
    25
100
AcDbLine
 10
122.9138472792
 20
-96.8950227138
 30
0.0
 11
139.6798567027
 21
-96.8950227138
 31
0.0
  0
LINE
  5
44C
330
1F
100
AcDbEntity
  8
0
  6
Continuous
 62
     8
370
    25
100
AcDbLine
 10
209.6798567027
 20
-96.8950227138
 30
0.0
 11
219.2586714756
 21
-96.8950227138
 31
0.0
  0
LINE
  5
44D
330
1F
100
AcDbEntity
  8
0
  6
Continuous
 62
     8
370
    25
100
AcDbLine
 10
219.2586714756
 20
-743.8129774916
 30
0.0
 11
209.6798567027
 21
-743.8129774916
 31
0.0
  0
LINE
  5
44E
330
1F
100
AcDbEntity
  8
0
  6
Continuous
 62
     8
370
    25
100
AcDbLine
 10
139.6798567027
 20
-743.8129774916
 30
0.0
 11
122.9138472792
 21
-743.8129774916
 31
0.0
  0
LINE
  5
44F
330
1F
100
AcDbEntity
  8
0
  6
Continuous
 62
     8
370
    25
100
AcDbLine
 10
122.9138472792
 20
-1166.8129774916
 30
0.0
 11
139.6798567027
 21
-1166.8129774916
 31
0.0
  0
LINE
  5
450
330
1F
100
AcDbEntity
  8
0
  6
Continuous
 62
     8
370
    25
100
AcDbLine
 10
209.6798567027
 20
-1166.8129774916
 30
0.0
 11
219.2586714756
 21
-1166.8129774916
 31
0.0
  0
LINE
  5
451
330
1F
100
AcDbEntity
  8
0
  6
Continuous
 62
     8
370
    25
100
AcDbLine
 10
283.0792470311
 20
564.3223280151
 30
0.0
 11
283.0792470311
 21
564.8541059154
 31
0.0
  0
LINE
  5
452
330
1F
100
AcDbEntity
  8
0
  6
Continuous
 62
     8
370
    25
100
AcDbLine
 10
66.2804663744
 20
564.3223280151
 30
0.0
 11
66.2804663744
 21
564.8541059154
 31
0.0
  0
LINE
  5
453
330
1F
100
AcDbEntity
  8
0
  6
Continuous
 62
     8
370
    25
100
AcDbLine
 10
373.4698504135
 20
608.3215656825
 30
0.0
 11
373.4698504135
 21
608.8533435828
 31
0.0
  0
LINE
  5
454
330
1F
100
AcDbEntity
  8
0
  6
Continuous
 62
     8
370
    25
100
AcDbLine
 10
-24.1101370081
 20
608.3215656825
 30
0.0
 11
-24.1101370081
 21
608.8533435828
 31
0.0
  0
LINE
  5
455
330
1F
100
AcDbEntity
  8
0
  6
Continuous
 62
     8
370
    25
100
AcDbLine
 10
66.2804663744
 20
-1405.5621061208
 30
0.0
 11
66.2804663744
 21
-1405.0303282205
 31
0.0
  0
LINE
  5
456
330
1F
100
AcDbEntity
  8
0
  6
Continuous
 62
     8
370
    25
100
AcDbLine
 10
283.0792470311
 20
-1405.5621061208
 30
0.0
 11
283.0792470311
 21
-1405.0303282205
 31
0.0
  0
LINE
  5
457
330
1F
100
AcDbEntity
  8
0
  6
Continuous
 62
     8
370
    25
100
AcDbLine
 10
373.4698504135
 20
-1449.5613437882
 30
0.0
 11
373.4698504135
 21
-1449.0295658879
 31
0.0
  0
LINE
  5
458
330
1F
100
AcDbEntity
  8
0
  6
Continuous
 62
     8
370
    25
100
AcDbLine
 10
-24.1101370081
 20
-1449.5613437882
 30
0.0
 11
-24.1101370081
 21
-1449.0295658879
 31
0.0
  0
ENDSEC
  0
SECTION
  2
OBJECTS
  0
DICTIONARY
  5
C
330
0
100
AcDbDictionary
281
     1
  3
ACAD_GROUP
350
D
  3
ACAD_LAYOUT
350
1A
  3
ACAD_MLINESTYLE
350
17
  3
ACAD_PLOTSETTINGS
350
19
  3
ACAD_PLOTSTYLENAME
350
E
  3
ACAD_SCALELIST
350
47
  3
DWGPROPS
350
459
  0
DICTIONARY
  5
D
102
{ACAD_REACTORS
330
C
102
}
330
C
100
AcDbDictionary
281
     1
  0
DICTIONARY
  5
1A
102
{ACAD_REACTORS
330
C
102
}
330
C
100
AcDbDictionary
281
     1
  3
Layout1
350
1E
  3
Layout2
350
26
  3
Model
350
22
  0
DICTIONARY
  5
17
102
{ACAD_REACTORS
330
C
102
}
330
C
100
AcDbDictionary
281
     1
  3
Standard
350
18
  0
DICTIONARY
  5
19
102
{ACAD_REACTORS
330
C
102
}
330
C
100
AcDbDictionary
281
     1
  0
ACDBDICTIONARYWDFLT
  5
E
102
{ACAD_REACTORS
330
C
102
}
330
C
100
AcDbDictionary
281
     1
  3
Normal
350
F
100
AcDbDictionaryWithDefault
340
F
  0
DICTIONARY
  5
47
102
{ACAD_REACTORS
330
C
102
}
330
C
100
AcDbDictionary
281
     1
  3
A0
350
48
  3
A1
350
49
  3
A2
350
4A
  3
A3
350
4B
  3
A4
350
4C
  3
A5
350
4D
  3
A6
350
4E
  3
A7
350
4F
  3
A8
350
50
  3
A9
350
51
  3
B0
350
52
  3
B1
350
53
  3
B2
350
54
  3
B3
350
55
  3
B4
350
56
  3
B5
350
57
  3
B6
350
58
  3
B7
350
59
  3
B8
350
5A
  3
B9
350
5B
  3
C0
350
5C
  3
C1
350
5D
  3
C2
350
5E
  3
C3
350
5F
  3
C4
350
60
  3
C5
350
61
  3
C6
350
62
  3
C7
350
63
  3
C8
350
64
  3
C9
350
65
  3
D0
350
66
  3
D1
350
67
  3
D2
350
68
  0
XRECORD
  5
459
102
{ACAD_REACTORS
330
C
102
}
330
C
100
AcDbXrecord
280
     1
  1
DWGPROPS COOKIE
  2

  3

  4

  6

  7

  8
Swing
  9

300
=
301
=
302
=
303
=
304
=
305
=
306
=
307
=
308
=
309
=
 40
0.0
 41
2459563.457477303
 42
2459563.457477489
  1

 90
        0
  0
LAYOUT
  5
1E
102
{ACAD_REACTORS
330
1A
102
}
330
1A
100
AcDbPlotSettings
  1

  2
none_device
  4

  6

 40
0.0
 41
0.0
 42
0.0
 43
0.0
 44
0.0
 45
0.0
 46
0.0
 47
0.0
 48
0.0
 49
0.0
140
0.0
141
0.0
142
1.0
143
1.0
 70
   688
 72
     1
 73
     0
 74
     5
  7

 75
    16
147
1.0
148
0.0
149
0.0
100
AcDbLayout
  1
Layout1
 70
     1
 71
     1
 10
0.0
 20
0.0
 11
420.0
 21
297.0
 12
0.0
 22
0.0
 32
0.0
 14
1.0000000000E+20
 24
1.0000000000E+20
 34
1.0000000000E+20
 15
-1.0000000000E+20
 25
-1.0000000000E+20
 35
-1.0000000000E+20
146
0.0
 13
0.0
 23
0.0
 33
0.0
 16
1.0
 26
0.0
 36
0.0
 17
0.0
 27
1.0
 37
0.0
 76
     0
330
1B
  0
LAYOUT
  5
26
102
{ACAD_REACTORS
330
1A
102
}
330
1A
100
AcDbPlotSettings
  1

  2
none_device
  4

  6

 40
0.0
 41
0.0
 42
0.0
 43
0.0
 44
0.0
 45
0.0
 46
0.0
 47
0.0
 48
0.0
 49
0.0
140
0.0
141
0.0
142
1.0
143
1.0
 70
   688
 72
     1
 73
     0
 74
     5
  7

 75
    16
147
1.0
148
0.0
149
0.0
100
AcDbLayout
  1
Layout2
 70
     1
 71
     2
 10
0.0
 20
0.0
 11
0.0
 21
0.0
 12
0.0
 22
0.0
 32
0.0
 14
0.0
 24
0.0
 34
0.0
 15
0.0
 25
0.0
 35
0.0
146
0.0
 13
0.0
 23
0.0
 33
0.0
 16
1.0
 26
0.0
 36
0.0
 17
0.0
 27
1.0
 37
0.0
 76
     0
330
23
  0
LAYOUT
  5
22
102
{ACAD_REACTORS
330
1A
102
}
330
1A
100
AcDbPlotSettings
  1

  2
none_device
  4
Letter_(8.50_x_11.00_Inches)
  6

 40
6.35
 41
6.35
 42
6.35000508
 43
6.35000508
 44
215.9
 45
279.4
 46
0.0
 47
0.0
 48
0.0
 49
0.0
140
0.0
141
0.0
142
1.0
143
1.0
 70
  1712
 72
     1
 73
     0
 74
     0
  7

 75
     0
147
1.0
148
0.0
149
0.0
100
AcDbLayout
  1
Model
 70
     1
 71
     0
 10
0.0
 20
0.0
 11
431.8
 21
279.4
 12
0.0
 22
0.0
 32
0.0
 14
0.0
 24
0.0
 34
0.0
 15
431.8
 25
279.4
 35
0.0
146
0.0
 13
0.0
 23
0.0
 33
0.0
 16
1.0
 26
0.0
 36
0.0
 17
0.0
 27
1.0
 37
0.0
 76
     0
330
1F
331
29
  0
MLINESTYLE
  5
18
102
{ACAD_REACTORS
330
17
102
}
330
17
100
AcDbMlineStyle
  2
Standard
 70
     0
  3

 62
   256
 51
90.0
 52
90.0
 71
     2
 49
0.5
 62
   256
  6
BYLAYER
 49
-0.5
 62
   256
  6
BYLAYER
  0
ACDBPLACEHOLDER
  5
F
102
{ACAD_REACTORS
330
E
102
}
330
E
  0
SCALE
  5
48
102
{ACAD_REACTORS
330
47
102
}
330
47
100
AcDbScale
 70
     0
300
1:1
140
1.0
141
1.0
290
     1
  0
SCALE
  5
49
102
{ACAD_REACTORS
330
47
102
}
330
47
100
AcDbScale
 70
     0
300
1:2
140
1.0
141
2.0
290
     0
  0
SCALE
  5
4A
102
{ACAD_REACTORS
330
47
102
}
330
47
100
AcDbScale
 70
     0
300
1:4
140
1.0
141
4.0
290
     0
  0
SCALE
  5
4B
102
{ACAD_REACTORS
330
47
102
}
330
47
100
AcDbScale
 70
     0
300
1:5
140
1.0
141
5.0
290
     0
  0
SCALE
  5
4C
102
{ACAD_REACTORS
330
47
102
}
330
47
100
AcDbScale
 70
     0
300
1:8
140
1.0
141
8.0
290
     0
  0
SCALE
  5
4D
102
{ACAD_REACTORS
330
47
102
}
330
47
100
AcDbScale
 70
     0
300
1:10
140
1.0
141
10.0
290
     0
  0
SCALE
  5
4E
102
{ACAD_REACTORS
330
47
102
}
330
47
100
AcDbScale
 70
     0
300
1:16
140
1.0
141
16.0
290
     0
  0
SCALE
  5
4F
102
{ACAD_REACTORS
330
47
102
}
330
47
100
AcDbScale
 70
     0
300
1:20
140
1.0
141
20.0
290
     0
  0
SCALE
  5
50
102
{ACAD_REACTORS
330
47
102
}
330
47
100
AcDbScale
 70
     0
300
1:30
140
1.0
141
30.0
290
     0
  0
SCALE
  5
51
102
{ACAD_REACTORS
330
47
102
}
330
47
100
AcDbScale
 70
     0
300
1:40
140
1.0
141
40.0
290
     0
  0
SCALE
  5
52
102
{ACAD_REACTORS
330
47
102
}
330
47
100
AcDbScale
 70
     0
300
1:50
140
1.0
141
50.0
290
     0
  0
SCALE
  5
53
102
{ACAD_REACTORS
330
47
102
}
330
47
100
AcDbScale
 70
     0
300
1:100
140
1.0
141
100.0
290
     0
  0
SCALE
  5
54
102
{ACAD_REACTORS
330
47
102
}
330
47
100
AcDbScale
 70
     0
300
2:1
140
2.0
141
1.0
290
     0
  0
SCALE
  5
55
102
{ACAD_REACTORS
330
47
102
}
330
47
100
AcDbScale
 70
     0
300
4:1
140
4.0
141
1.0
290
     0
  0
SCALE
  5
56
102
{ACAD_REACTORS
330
47
102
}
330
47
100
AcDbScale
 70
     0
300
8:1
140
8.0
141
1.0
290
     0
  0
SCALE
  5
57
102
{ACAD_REACTORS
330
47
102
}
330
47
100
AcDbScale
 70
     0
300
10:1
140
10.0
141
1.0
290
     0
  0
SCALE
  5
58
102
{ACAD_REACTORS
330
47
102
}
330
47
100
AcDbScale
 70
     0
300
100:1
140
100.0
141
1.0
290
     0
  0
SCALE
  5
59
102
{ACAD_REACTORS
330
47
102
}
330
47
100
AcDbScale
 70
     0
300
1/128" = 1'-0"
140
0.0078125
141
12.0
290
     0
  0
SCALE
  5
5A
102
{ACAD_REACTORS
330
47
102
}
330
47
100
AcDbScale
 70
     0
300
1/64" = 1'-0"
140
0.015625
141
12.0
290
     0
  0
SCALE
  5
5B
102
{ACAD_REACTORS
330
47
102
}
330
47
100
AcDbScale
 70
     0
300
1/32" = 1'-0"
140
0.03125
141
12.0
290
     0
  0
SCALE
  5
5C
102
{ACAD_REACTORS
330
47
102
}
330
47
100
AcDbScale
 70
     0
300
1/16" = 1'-0"
140
0.0625
141
12.0
290
     0
  0
SCALE
  5
5D
102
{ACAD_REACTORS
330
47
102
}
330
47
100
AcDbScale
 70
     0
300
3/32" = 1'-0"
140
0.09375
141
12.0
290
     0
  0
SCALE
  5
5E
102
{ACAD_REACTORS
330
47
102
}
330
47
100
AcDbScale
 70
     0
300
1/8" = 1'-0"
140
0.125
141
12.0
290
     0
  0
SCALE
  5
5F
102
{ACAD_REACTORS
330
47
102
}
330
47
100
AcDbScale
 70
     0
300
3/16" = 1'-0"
140
0.1875
141
12.0
290
     0
  0
SCALE
  5
60
102
{ACAD_REACTORS
330
47
102
}
330
47
100
AcDbScale
 70
     0
300
1/4" = 1'-0"
140
0.25
141
12.0
290
     0
  0
SCALE
  5
61
102
{ACAD_REACTORS
330
47
102
}
330
47
100
AcDbScale
 70
     0
300
3/8" = 1'-0"
140
0.375
141
12.0
290
     0
  0
SCALE
  5
62
102
{ACAD_REACTORS
330
47
102
}
330
47
100
AcDbScale
 70
     0
300
1/2" = 1'-0"
140
0.5
141
12.0
290
     0
  0
SCALE
  5
63
102
{ACAD_REACTORS
330
47
102
}
330
47
100
AcDbScale
 70
     0
300
3/4" = 1'-0"
140
0.75
141
12.0
290
     0
  0
SCALE
  5
64
102
{ACAD_REACTORS
330
47
102
}
330
47
100
AcDbScale
 70
     0
300
1" = 1'-0"
140
1.0
141
12.0
290
     0
  0
SCALE
  5
65
102
{ACAD_REACTORS
330
47
102
}
330
47
100
AcDbScale
 70
     0
300
1-1/2" = 1'-0"
140
1.5
141
12.0
290
     0
  0
SCALE
  5
66
102
{ACAD_REACTORS
330
47
102
}
330
47
100
AcDbScale
 70
     0
300
3" = 1'-0"
140
3.0
141
12.0
290
     0
  0
SCALE
  5
67
102
{ACAD_REACTORS
330
47
102
}
330
47
100
AcDbScale
 70
     0
300
6" = 1'-0"
140
6.0
141
12.0
290
     0
  0
SCALE
  5
68
102
{ACAD_REACTORS
330
47
102
}
330
47
100
AcDbScale
 70
     0
300
1'-0" = 1'-0"
140
12.0
141
12.0
290
     0
  0
ENDSEC
  0
EOF
