  0
SECTION
  2
HEADER
  9
$ACADVER
  1
AC1015
  9
$ACADMAINTVER
 70
     6
  9
$DWGCODEPAGE
  3
ANSI_1250
  9
$INSBASE
 10
0.0
 20
0.0
 30
0.0
  9
$EXTMIN
 10
0.0
 20
0.0
 30
0.0
  9
$EXTMAX
 10
431.8
 20
279.4
 30
0.0
  9
$LIMMIN
 10
0.0
 20
0.0
  9
$LIMMAX
 10
431.8
 20
279.4
  9
$ORTHOMODE
 70
     0
  9
$REGENMODE
 70
     1
  9
$FILLMODE
 70
     1
  9
$QTEXTMODE
 70
     0
  9
$MIRRTEXT
 70
     1
  9
$LTSCALE
 40
1.0
  9
$ATTMODE
 70
     1
  9
$TEXTSIZE
 40
3.8805555556
  9
$TRACEWID
 40
1.0
  9
$TEXTSTYLE
  7
Standard
  9
$CLAYER
  8
0
  9
$CELTYPE
  6
ByLayer
  9
$CECOLOR
 62
   256
  9
$CELTSCALE
 40
1.0
  9
$DISPSILH
 70
     0
  9
$DIMSCALE
 40
1.0
  9
$DIMASZ
 40
3.302
  9
$DIMEXO
 40
1.0
  9
$DIMDLI
 40
3.75
  9
$DIMRND
 40
0.0
  9
$DIMDLE
 40
0.0
  9
$DIMEXE
 40
1.0
  9
$DIMTP
 40
0.0
  9
$DIMTM
 40
0.0
  9
$DIMTXT
 40
3.8805555556
  9
$DIMCEN
 40
2.5
  9
$DIMTSZ
 40
0.0
  9
$DIMTOL
 70
     0
  9
$DIMLIM
 70
     0
  9
$DIMTIH
 70
     1
  9
$DIMTOH
 70
     1
  9
$DIMSE1
 70
     0
  9
$DIMSE2
 70
     0
  9
$DIMTAD
 70
     1
  9
$DIMZIN
 70
     0
  9
$DIMBLK
  1

  9
$DIMASO
 70
     1
  9
$DIMSHO
 70
     1
  9
$DIMPOST
  1

  9
$DIMAPOST
  1

  9
$DIMALT
 70
     0
  9
$DIMALTD
 70
     3
  9
$DIMALTF
 40
0.0393700787
  9
$DIMLFAC
 40
1.0
  9
$DIMTOFL
 70
     1
  9
$DIMTVP
 40
0.0
  9
$DIMTIX
 70
     0
  9
$DIMSOXD
 70
     0
  9
$DIMSAH
 70
     0
  9
$DIMBLK1
  1

  9
$DIMBLK2
  1

  9
$DIMSTYLE
  2
ISO-25
  9
$DIMCLRD
 70
     0
  9
$DIMCLRE
 70
     0
  9
$DIMCLRT
 70
     0
  9
$DIMTFAC
 40
1.0
  9
$DIMGAP
 40
1.524
  9
$DIMJUST
 70
     0
  9
$DIMSD1
 70
     0
  9
$DIMSD2
 70
     0
  9
$DIMTOLJ
 70
     0
  9
$DIMTZIN
 70
     0
  9
$DIMALTZ
 70
     0
  9
$DIMALTTZ
 70
     0
  9
$DIMUPT
 70
     0
  9
$DIMDEC
 70
     1
  9
$DIMTDEC
 70
     1
  9
$DIMALTU
 70
     2
  9
$DIMALTTD
 70
     3
  9
$DIMTXSTY
  7
Standard
  9
$DIMAUNIT
 70
     0
  9
$DIMADEC
 70
     1
  9
$DIMALTRND
 40
0.0
  9
$DIMAZIN
 70
     0
  9
$DIMDSEP
 70
    44
  9
$DIMATFIT
 70
     3
  9
$DIMFRAC
 70
     0
  9
$DIMLDRBLK
  1

  9
$DIMLUNIT
 70
     2
  9
$DIMLWD
 70
    -2
  9
$DIMLWE
 70
    -2
  9
$DIMTMOVE
 70
     0
  9
$LUNITS
 70
     2
  9
$LUPREC
 70
     1
  9
$SKETCHINC
 40
1.0
  9
$FILLETRAD
 40
10.0
  9
$AUNITS
 70
     0
  9
$AUPREC
 70
     1
  9
$MENU
  1
.
  9
$ELEVATION
 40
0.0
  9
$PELEVATION
 40
0.0
  9
$THICKNESS
 40
0.0
  9
$LIMCHECK
 70
     0
  9
$CHAMFERA
 40
0.0
  9
$CHAMFERB
 40
0.0
  9
$CHAMFERC
 40
0.0
  9
$CHAMFERD
 40
0.0
  9
$SKPOLY
 70
     0
  9
$TDCREATE
 40
2459559.453877673
  9
$TDUCREATE
 40
2459559.412211007
  9
$TDUPDATE
 40
2459559.453877917
  9
$TDUUPDATE
 40
2459559.41221125
  9
$TDINDWG
 40
0.0000000116
  9
$TDUSRTIMER
 40
0.0000000116
  9
$USRTIMER
 70
     1
  9
$ANGBASE
 50
0.0
  9
$ANGDIR
 70
     0
  9
$PDMODE
 70
     0
  9
$PDSIZE
 40
-1.0
  9
$PLINEWID
 40
0.0
  9
$SPLFRAME
 70
     0
  9
$SPLINETYPE
 70
     6
  9
$SPLINESEGS
 70
     8
  9
$HANDSEED
  5
1B3
  9
$SURFTAB1
 70
     6
  9
$SURFTAB2
 70
     6
  9
$SURFTYPE
 70
     6
  9
$SURFU
 70
     6
  9
$SURFV
 70
     6
  9
$UCSBASE
  2

  9
$UCSNAME
  2

  9
$UCSORG
 10
0.0
 20
0.0
 30
0.0
  9
$UCSXDIR
 10
1.0
 20
0.0
 30
0.0
  9
$UCSYDIR
 10
0.0
 20
1.0
 30
0.0
  9
$UCSORTHOREF
  2

  9
$UCSORTHOVIEW
 70
     0
  9
$UCSORGTOP
 10
0.0
 20
0.0
 30
0.0
  9
$UCSORGBOTTOM
 10
0.0
 20
0.0
 30
0.0
  9
$UCSORGLEFT
 10
0.0
 20
0.0
 30
0.0
  9
$UCSORGRIGHT
 10
0.0
 20
0.0
 30
0.0
  9
$UCSORGFRONT
 10
0.0
 20
0.0
 30
0.0
  9
$UCSORGBACK
 10
0.0
 20
0.0
 30
0.0
  9
$PUCSBASE
  2

  9
$PUCSNAME
  2

  9
$PUCSORG
 10
0.0
 20
0.0
 30
0.0
  9
$PUCSXDIR
 10
1.0
 20
0.0
 30
0.0
  9
$PUCSYDIR
 10
0.0
 20
1.0
 30
0.0
  9
$PUCSORTHOREF
  2

  9
$PUCSORTHOVIEW
 70
     0
  9
$PUCSORGTOP
 10
0.0
 20
0.0
 30
0.0
  9
$PUCSORGBOTTOM
 10
0.0
 20
0.0
 30
0.0
  9
$PUCSORGLEFT
 10
0.0
 20
0.0
 30
0.0
  9
$PUCSORGRIGHT
 10
0.0
 20
0.0
 30
0.0
  9
$PUCSORGFRONT
 10
0.0
 20
0.0
 30
0.0
  9
$PUCSORGBACK
 10
0.0
 20
0.0
 30
0.0
  9
$USERI1
 70
     0
  9
$USERI2
 70
     0
  9
$USERI3
 70
     0
  9
$USERI4
 70
     0
  9
$USERI5
 70
     0
  9
$USERR1
 40
0.0
  9
$USERR2
 40
0.0
  9
$USERR3
 40
0.0
  9
$USERR4
 40
0.0
  9
$USERR5
 40
0.0
  9
$WORLDVIEW
 70
     1
  9
$SHADEDGE
 70
     3
  9
$SHADEDIF
 70
    70
  9
$TILEMODE
 70
     1
  9
$MAXACTVP
 70
    64
  9
$PINSBASE
 10
0.0
 20
0.0
 30
0.0
  9
$PLIMCHECK
 70
     0
  9
$PEXTMIN
 10
1.0000000000E+20
 20
1.0000000000E+20
 30
1.0000000000E+20
  9
$PEXTMAX
 10
-1.0000000000E+20
 20
-1.0000000000E+20
 30
-1.0000000000E+20
  9
$PLIMMIN
 10
0.0
 20
0.0
  9
$PLIMMAX
 10
420.0
 20
297.0
  9
$UNITMODE
 70
     0
  9
$VISRETAIN
 70
     1
  9
$PLINEGEN
 70
     0
  9
$PSLTSCALE
 70
     1
  9
$TREEDEPTH
 70
  3020
  9
$CMLSTYLE
  2
Standard
  9
$CMLJUST
 70
     0
  9
$CMLSCALE
 40
20.0
  9
$PROXYGRAPHICS
 70
     1
  9
$MEASUREMENT
 70
     1
  9
$CELWEIGHT
370
    -1
  9
$ENDCAPS
280
     0
  9
$JOINSTYLE
280
     0
  9
$LWDISPLAY
290
     1
  9
$INSUNITS
 70
     4
  9
$HYPERLINKBASE
  1

  9
$STYLESHEET
  1

  9
$XEDIT
290
     1
  9
$CEPSNTYPE
380
     0
  9
$PSTYLEMODE
290
     1
  9
$FINGERPRINTGUID
  2
{7d32a943-420d-455b-816c-2205b978efed}
  9
$VERSIONGUID
  2
{FAEB1C32-E019-11D5-929B-00C0DF256EC4}
  9
$EXTNAMES
290
     1
  9
$PSVPSCALE
 40
0.0
  9
$OLESTARTUP
290
     0
  0
ENDSEC
  0
SECTION
  2
CLASSES
  0
CLASS
  1
ACDBDICTIONARYWDFLT
  2
AcDbDictionaryWithDefault
  3
ObjectDBX Classes
 90
        0
280
     0
281
     0
  0
CLASS
  1
VISUALSTYLE
  2
AcDbVisualStyle
  3
ObjectDBX Classes
 90
     4095
280
     0
281
     0
  0
CLASS
  1
MATERIAL
  2
AcDbMaterial
  3
ObjectDBX Classes
 90
     1153
280
     0
281
     0
  0
CLASS
  1
SCALE
  2
AcDbScale
  3
ObjectDBX Classes
 90
     1153
280
     0
281
     0
  0
CLASS
  1
TABLESTYLE
  2
AcDbTableStyle
  3
ObjectDBX Classes
 90
     4095
280
     0
281
     0
  0
CLASS
  1
MLEADERSTYLE
  2
AcDbMLeaderStyle
  3
ACDB_MLEADERSTYLE_CLASS
 90
     4095
280
     0
281
     0
  0
CLASS
  1
SUN
  2
AcDbSun
  3
SCENEOE
 90
     1153
280
     0
281
     0
  0
CLASS
  1
ACDBPLACEHOLDER
  2
AcDbPlaceHolder
  3
ObjectDBX Classes
 90
        0
280
     0
281
     0
  0
CLASS
  1
LAYOUT
  2
AcDbLayout
  3
ObjectDBX Classes
 90
        0
280
     0
281
     0
  0
ENDSEC
  0
SECTION
  2
TABLES
  0
TABLE
  2
VPORT
  5
8
330
0
100
AcDbSymbolTable
 70
     1
  0
VPORT
  5
29
330
8
100
AcDbSymbolTableRecord
100
AcDbViewportTableRecord
  2
*Active
 70
     0
 10
0.0
 20
0.0
 11
1.0
 21
1.0
 12
215.9
 22
139.7
 13
0.0
 23
0.0
 14
10.0
 24
10.0
 15
10.0
 25
10.0
 16
0.0
 26
0.0
 36
1.0
 17
0.0
 27
0.0
 37
0.0
 40
279.4
 41
1.5454545455
 42
50.0
 43
0.0
 44
0.0
 50
0.0
 51
0.0
 71
     0
 72
  2000
 73
     1
 74
     3
 75
     0
 76
     0
 77
     0
 78
     0
281
     0
 65
     1
110
0.0
120
0.0
130
0.0
111
1.0
121
0.0
131
0.0
112
0.0
122
1.0
132
0.0
 79
     0
146
0.0
  0
ENDTAB
  0
TABLE
  2
LTYPE
  5
5
330
0
100
AcDbSymbolTable
 70
     6
  0
LTYPE
  5
14
330
5
100
AcDbSymbolTableRecord
100
AcDbLinetypeTableRecord
  2
ByBlock
 70
     0
  3

 72
    65
 73
     0
 40
0.0
  0
LTYPE
  5
15
330
5
100
AcDbSymbolTableRecord
100
AcDbLinetypeTableRecord
  2
ByLayer
 70
     0
  3

 72
    65
 73
     0
 40
0.0
  0
LTYPE
  5
16
330
5
100
AcDbSymbolTableRecord
100
AcDbLinetypeTableRecord
  2
Continuous
 70
     0
  3
Solid line
 72
    65
 73
     0
 40
0.0
  0
LTYPE
  5
6E
330
5
100
AcDbSymbolTableRecord
100
AcDbLinetypeTableRecord
  2
HIDDEN
 70
     0
  3
Hidden __ __ __ __ __ __ __ __ __ __ __ __ __ __
 72
    65
 73
     2
 40
1.905
 49
1.27
 74
     0
 49
-0.635
 74
     0
  0
LTYPE
  5
6F
330
5
100
AcDbSymbolTableRecord
100
AcDbLinetypeTableRecord
  2
PHANTOM
 70
     0
  3
Phantom ______  __  __  ______  __  __  ______
 72
    65
 73
     6
 40
12.7
 49
6.35
 74
     0
 49
-1.27
 74
     0
 49
1.27
 74
     0
 49
-1.27
 74
     0
 49
1.27
 74
     0
 49
-1.27
 74
     0
  0
LTYPE
  5
70
330
5
100
AcDbSymbolTableRecord
100
AcDbLinetypeTableRecord
  2
CENTER
 70
     0
  3
Center ____ _ ____ _ ____ _ ____ _ ____ _ ____
 72
    65
 73
     4
 40
10.16
 49
6.35
 74
     0
 49
-1.27
 74
     0
 49
1.27
 74
     0
 49
-1.27
 74
     0
  0
LTYPE
  5
71
330
5
100
AcDbSymbolTableRecord
100
AcDbLinetypeTableRecord
  2
CENTERX2
 70
     0
  3
Center (2x) ________  __  ________  __  _____
 72
    65
 73
     4
 40
20.32
 49
12.7
 74
     0
 49
-2.54
 74
     0
 49
2.54
 74
     0
 49
-2.54
 74
     0
  0
LTYPE
  5
72
330
5
100
AcDbSymbolTableRecord
100
AcDbLinetypeTableRecord
  2
DOT2
 70
     0
  3
Dot (.5x) ........................................
 72
    65
 73
     2
 40
0.635
 49
0.0
 74
     0
 49
-0.635
 74
     0
  0
ENDTAB
  0
TABLE
  2
LAYER
  5
2
330
0
100
AcDbSymbolTable
 70
     3
  0
LAYER
  5
10
330
2
100
AcDbSymbolTableRecord
100
AcDbLayerTableRecord
  2
0
 70
     0
 62
     7
  6
Continuous
370
    -3
390
F
  0
LAYER
  5
73
330
2
100
AcDbSymbolTableRecord
100
AcDbLayerTableRecord
  2
FRAME_&_TABLE
 70
     0
 62
     8
  6
Continuous
370
    50
390
F
  0
LAYER
  5
74
330
2
100
AcDbSymbolTableRecord
100
AcDbLayerTableRecord
  2
DIMENSIONS
 70
     0
 62
     7
  6
Continuous
370
    -3
390
F
  0
ENDTAB
  0
TABLE
  2
STYLE
  5
3
330
0
100
AcDbSymbolTable
 70
     1
  0
STYLE
  5
11
330
3
100
AcDbSymbolTableRecord
100
AcDbTextStyleTableRecord
  2
Standard
 70
     0
 40
0.0
 41
1.0
 50
0.0
 71
     0
 42
3.8805555556
  3
txt
  4

  0
ENDTAB
  0
TABLE
  2
VIEW
  5
6
330
0
100
AcDbSymbolTable
 70
     0
  0
ENDTAB
  0
TABLE
  2
UCS
  5
7
330
0
100
AcDbSymbolTable
 70
     0
  0
ENDTAB
  0
TABLE
  2
APPID
  5
9
330
0
100
AcDbSymbolTable
 70
     1
  0
APPID
  5
12
330
9
100
AcDbSymbolTableRecord
100
AcDbRegAppTableRecord
  2
ACAD
 70
     0
  0
ENDTAB
  0
TABLE
  2
DIMSTYLE
  5
A
330
0
100
AcDbSymbolTable
 70
     1
100
AcDbDimStyleTable
  0
DIMSTYLE
105
27
330
A
100
AcDbSymbolTableRecord
100
AcDbDimStyleTableRecord
  2
ISO-25
 70
     0
 41
2.5
 42
0.625
 43
3.75
 44
1.25
 73
     0
 74
     0
 77
     1
 78
     8
140
2.5
141
2.5
143
0.0393700787
147
0.625
171
     3
172
     1
178
     0
271
     2
272
     2
274
     3
278
    44
283
     0
284
     8
340
11
  0
ENDTAB
  0
TABLE
  2
BLOCK_RECORD
  5
1
330
0
100
AcDbSymbolTable
 70
     1
  0
BLOCK_RECORD
  5
1F
330
1
100
AcDbSymbolTableRecord
100
AcDbBlockTableRecord
  2
*Model_Space
340
22
  0
BLOCK_RECORD
  5
1B
330
1
100
AcDbSymbolTableRecord
100
AcDbBlockTableRecord
  2
*Paper_Space
340
1E
  0
BLOCK_RECORD
  5
23
330
1
100
AcDbSymbolTableRecord
100
AcDbBlockTableRecord
  2
*Paper_Space0
340
26
  0
ENDTAB
  0
ENDSEC
  0
SECTION
  2
BLOCKS
  0
BLOCK
  5
20
330
1F
100
AcDbEntity
  8
0
100
AcDbBlockBegin
  2
*Model_Space
 70
     0
 10
0.0
 20
0.0
 30
0.0
  3
*Model_Space
  1

  0
ENDBLK
  5
21
330
1F
100
AcDbEntity
  8
0
100
AcDbBlockEnd
  0
BLOCK
  5
1C
330
1B
100
AcDbEntity
 67
     1
  8
0
100
AcDbBlockBegin
  2
*Paper_Space
 70
     0
 10
0.0
 20
0.0
 30
0.0
  3
*Paper_Space
  1

  0
ENDBLK
  5
1D
330
1B
100
AcDbEntity
 67
     1
  8
0
100
AcDbBlockEnd
  0
BLOCK
  5
24
330
23
100
AcDbEntity
  8
0
100
AcDbBlockBegin
  2
*Paper_Space0
 70
     0
 10
0.0
 20
0.0
 30
0.0
  3
*Paper_Space0
  1

  0
ENDBLK
  5
25
330
23
100
AcDbEntity
  8
0
100
AcDbBlockEnd
  0
ENDSEC
  0
SECTION
  2
ENTITIES
  0
ARC
  5
75
330
1F
100
AcDbEntity
  8
0
  6
Continuous
 62
     7
370
    25
100
AcDbCircle
 10
1046.1173474877
 20
359.3982482041
 30
0.0
 40
1.44059161145941
100
AcDbArc
 50
299.8288240439
 51
56.7618177828
  0
LWPOLYLINE
  5
76
330
1F
100
AcDbEntity
  8
0
  6
Continuous
 62
     7
370
    25
100
AcDbPolyline
 90
       42
 70
   128
 43
0.0
 10
1046.9069656079
 20
360.6031579166
 10
1046.7289649676
 20
360.7213150765
 10
1046.40933598
 20
360.8884205953
 10
1045.9893285154
 20
361.054697528
 10
1045.5570753542
 20
361.1882445598
 10
1045.0501434169
 20
361.3142877214
 10
1044.5135433711
 20
361.4231052846
 10
1043.9440980496
 20
361.5184571995
 10
1043.3415475244
 20
361.6019541683
 10
1042.7077745165
 20
361.6741940837
 10
1042.0459095045
 20
361.7353288091
 10
1041.3598821683
 20
361.785312828
 10
1040.6541674586
 20
361.8240244646
 10
1039.9336213982
 20
361.8513300261
 10
1039.2033615874
 20
361.8671195473
 10
1038.4686711597
 20
361.8713269429
 10
1037.73491519
 20
361.8639406143
 10
1037.0075477436
 20
361.8450102154
 10
1036.2919162681
 20
361.8146457931
 10
1035.5931764125
 20
361.7730070753
 10
1034.916258275
 20
361.7202891608
 10
1034.2657726699
 20
361.6566970894
 10
1033.6458964304
 20
361.5824020634
 10
1033.0602190312
 20
361.4974641456
 10
1032.5115158968
 20
361.4016884019
 10
1032.0013759897
 20
361.2943368843
 10
1031.5295214578
 20
361.1734951128
 10
1031.0924377251
 20
361.0345028868
 10
1030.6805290518
 20
360.8654873745
 10
1030.3442741075
 20
360.6801823625
 10
1030.1088331137
 20
360.5053082394
 10
1029.9177133937
 20
360.3141968015
 10
1029.7629156826
 20
360.097684157
 10
1029.6482496743
 20
359.8528844852
 10
1029.5824264143
 20
359.5845815866
 10
1029.5749163774
 20
359.2803472706
 10
1029.6309845182
 20
358.9980974099
 10
1029.7358208714
 20
358.7495824961
 10
1029.8768266675
 20
358.5349887778
 10
1030.0477528326
 20
358.3488110703
 10
1030.2519458972
 20
358.1817859559
 10
1030.2948109586
 20
358.1549653343
  0
ARC
  5
77
330
1F
100
AcDbEntity
  8
0
  6
Continuous
 62
     7
370
    25
100
AcDbCircle
 10
1038.569592724
 20
369.938952458
 30
0.0
 40
14.40192307692327
100
AcDbArc
 50
234.7807176749
 51
305.2192823251
  0
LWPOLYLINE
  5
78
330
1F
100
AcDbEntity
  8
0
  6
Continuous
 62
     7
370
    25
100
AcDbPolyline
 90
       52
 70
   128
 43
0.0
 10
-603.0930343921
 20
335.6218102662
 10
-602.9166000881
 20
335.7670444117
 10
-602.734510675
 20
335.9647261003
 10
-602.5895419925
 20
336.1886390528
 10
-602.4867554848
 20
336.4403800429
 10
-602.4351237233
 20
336.7130812672
 10
-602.4436770066
 20
337.0134217801
 10
-602.5125520474
 20
337.2883112985
 10
-602.6268157179
 20
337.5286327929
 10
-602.7751012883
 20
337.7359012907
 10
-602.9531010247
 20
337.9166521424
 10
-603.1669551851
 20
338.0807896894
 10
-603.4379822677
 20
338.2401077012
 10
-603.8060239127
 20
338.4051337894
 10
-604.2278978636
 20
338.5512416248
 10
-604.7246375029
 20
338.6873231181
 10
-605.2478886582
 20
338.8030698331
 10
-605.8027625328
 20
338.9040171759
 10
-606.3909697055
 20
338.9925838073
 10
-607.0114143897
 20
339.0697093629
 10
-607.6614384885
 20
339.1356980682
 10
-608.3374225892
 20
339.1905706817
 10
-609.0351061458
 20
339.2342285149
 10
-609.7497831026
 20
339.2665374666
 10
-610.4764373785
 20
339.2873739877
 10
-611.2098473903
 20
339.2966510279
 10
-611.9446741162
 20
339.2943323275
 10
-612.6755140827
 20
339.2804397441
 10
-613.396922181
 20
339.2550583775
 10
-614.1036704732
 20
339.218327465
 10
-614.7907195322
 20
339.1704290028
 10
-615.4533063375
 20
339.1115677551
 10
-616.0870482362
 20
339.0419367668
 10
-616.6880764344
 20
338.9616573859
 10
-617.253224657
 20
338.8706704775
 10
-617.7803249741
 20
338.7685259876
 10
-618.2687238621
 20
338.6539399636
 10
-618.7202804868
 20
338.5237562306
 10
-619.1414500909
 20
338.3701671197
 10
-619.5469934135
 20
338.1723103438
 10
-619.808599329
 20
337.9982222899
 10
-620.0144628398
 20
337.8147252689
 10
-620.1829724023
 20
337.6084969723
 10
-620.3136850492
 20
337.3742592195
 10
-620.3990261357
 20
337.1137582125
 10
-620.430263286
 20
336.8057219087
 10
-620.393830274
 20
336.5142353121
 10
-620.3035888285
 20
336.2540947111
 10
-620.1735462162
 20
336.0285946334
 10
-620.0124004258
 20
335.8338421987
 10
-619.8203892854
 20
335.6616363606
 10
-619.6883396548
 20
335.5713727965
  0
ARC
  5
79
330
1F
100
AcDbEntity
  8
0
  6
Continuous
 62
     7
370
    25
100
AcDbCircle
 10
-611.430407276
 20
347.3646893613
 30
0.0
 40
14.40192307692313
100
AcDbArc
 50
234.7807176749
 51
305.2192823251
  0
LWPOLYLINE
  5
7A
330
1F
100
AcDbEntity
  8
0
  6
Continuous
 62
     7
370
    25
100
AcDbPolyline
 90
       52
 70
   128
 43
0.0
 10
-603.0930343921
 20
358.1960733629
 10
-602.9166000881
 20
358.3413075084
 10
-602.734510675
 20
358.538989197
 10
-602.5895419925
 20
358.7629021495
 10
-602.4867554848
 20
359.0146431396
 10
-602.4351237233
 20
359.2873443639
 10
-602.4436770066
 20
359.5876848768
 10
-602.5125520474
 20
359.8625743952
 10
-602.6268157179
 20
360.1028958896
 10
-602.7751012883
 20
360.3101643874
 10
-602.9531010247
 20
360.4909152391
 10
-603.1669551851
 20
360.6550527861
 10
-603.4379822677
 20
360.8143707979
 10
-603.8060239127
 20
360.9793968861
 10
-604.2278978636
 20
361.1255047215
 10
-604.7246375029
 20
361.2615862148
 10
-605.2478886582
 20
361.3773329298
 10
-605.8027625328
 20
361.4782802726
 10
-606.3909697055
 20
361.566846904
 10
-607.0114143897
 20
361.6439724596
 10
-607.6614384885
 20
361.7099611649
 10
-608.3374225892
 20
361.7648337784
 10
-609.0351061458
 20
361.8084916116
 10
-609.7497831026
 20
361.8408005633
 10
-610.4764373785
 20
361.8616370844
 10
-611.2098473903
 20
361.8709141246
 10
-611.9446741162
 20
361.8685954242
 10
-612.6755140827
 20
361.8547028408
 10
-613.396922181
 20
361.8293214742
 10
-614.1036704732
 20
361.7925905617
 10
-614.7907195322
 20
361.7446920995
 10
-615.4533063375
 20
361.6858308518
 10
-616.0870482362
 20
361.6161998635
 10
-616.6880764344
 20
361.5359204826
 10
-617.253224657
 20
361.4449335742
 10
-617.7803249741
 20
361.3427890843
 10
-618.2687238621
 20
361.2282030603
 10
-618.7202804868
 20
361.0980193273
 10
-619.1414500909
 20
360.9444302164
 10
-619.5469934135
 20
360.7465734405
 10
-619.808599329
 20
360.5724853866
 10
-620.0144628398
 20
360.3889883656
 10
-620.1829724023
 20
360.182760069
 10
-620.3136850492
 20
359.9485223162
 10
-620.3990261357
 20
359.6880213092
 10
-620.430263286
 20
359.3799850054
 10
-620.393830274
 20
359.0884984088
 10
-620.3035888285
 20
358.8283578078
 10
-620.1735462162
 20
358.6028577301
 10
-620.0124004258
 20
358.4081052954
 10
-619.8203892854
 20
358.2358994573
 10
-619.6883396548
 20
358.1456358932
  0
ARC
  5
7B
330
1F
100
AcDbEntity
  8
0
  6
Continuous
 62
     7
370
    25
100
AcDbCircle
 10
-611.430407276
 20
369.938952458
 30
0.0
 40
14.40192307692313
100
AcDbArc
 50
234.7807176749
 51
305.2192823251
  0
ARC
  5
7C
330
1F
100
AcDbEntity
  8
0
  6
Continuous
 62
     7
370
    25
100
AcDbCircle
 10
1046.1173474877
 20
336.8239851074
 30
0.0
 40
1.440591611459434
100
AcDbArc
 50
299.8288240439
 51
56.7618177828
  0
LWPOLYLINE
  5
7D
330
1F
100
AcDbEntity
  8
0
  6
Continuous
 62
     7
370
    25
100
AcDbPolyline
 90
       42
 70
   128
 43
0.0
 10
1046.9069656079
 20
338.0288948199
 10
1046.7289649676
 20
338.1470519798
 10
1046.40933598
 20
338.3141574986
 10
1045.9893285154
 20
338.4804344313
 10
1045.5570753542
 20
338.6139814631
 10
1045.0501434169
 20
338.7400246247
 10
1044.5135433711
 20
338.8488421879
 10
1043.9440980496
 20
338.9441941028
 10
1043.3415475244
 20
339.0276910716
 10
1042.7077745165
 20
339.099930987
 10
1042.0459095045
 20
339.1610657124
 10
1041.3598821683
 20
339.2110497313
 10
1040.6541674586
 20
339.2497613679
 10
1039.9336213982
 20
339.2770669294
 10
1039.2033615874
 20
339.2928564506
 10
1038.4686711597
 20
339.2970638462
 10
1037.73491519
 20
339.2896775176
 10
1037.0075477436
 20
339.2707471187
 10
1036.2919162681
 20
339.2403826964
 10
1035.5931764125
 20
339.1987439786
 10
1034.916258275
 20
339.1460260641
 10
1034.2657726699
 20
339.0824339927
 10
1033.6458964304
 20
339.0081389667
 10
1033.0602190312
 20
338.9232010489
 10
1032.5115158968
 20
338.8274253052
 10
1032.0013759897
 20
338.7200737876
 10
1031.5295214578
 20
338.5992320161
 10
1031.0924377251
 20
338.4602397901
 10
1030.6805290518
 20
338.2912242778
 10
1030.3442741075
 20
338.1059192658
 10
1030.1088331137
 20
337.9310451427
 10
1029.9177133937
 20
337.7399337048
 10
1029.7629156826
 20
337.5234210603
 10
1029.6482496743
 20
337.2786213885
 10
1029.5824264143
 20
337.0103184899
 10
1029.5749163774
 20
336.7060841739
 10
1029.6309845182
 20
336.4238343132
 10
1029.7358208714
 20
336.1753193994
 10
1029.8768266675
 20
335.9607256811
 10
1030.0477528326
 20
335.7745479736
 10
1030.2519458972
 20
335.6075228592
 10
1030.2948109586
 20
335.5807022376
  0
ARC
  5
7E
330
1F
100
AcDbEntity
  8
0
  6
Continuous
 62
     7
370
    25
100
AcDbCircle
 10
1038.569592724
 20
347.3646893613
 30
0.0
 40
14.40192307692327
100
AcDbArc
 50
234.7807176749
 51
305.2192823251
  0
CIRCLE
  5
7F
330
1F
100
AcDbEntity
  8
0
  6
Continuous
 62
     7
370
    25
100
AcDbCircle
 10
-611.430407276
 20
236.4389085861
 30
0.0
 40
11.14999999999998
  0
CIRCLE
  5
80
330
1F
100
AcDbEntity
  8
0
  6
Continuous
 62
     7
370
    25
100
AcDbCircle
 10
-611.430407276
 20
-23.5610914139
 30
0.0
 40
11.14999999999998
  0
CIRCLE
  5
81
330
1F
100
AcDbEntity
  8
0
  6
Continuous
 62
     7
370
    25
100
AcDbCircle
 10
1038.569592724
 20
-23.5610914139
 30
0.0
 40
11.14999999999986
  0
CIRCLE
  5
82
330
1F
100
AcDbEntity
  8
0
  6
Continuous
 62
     7
370
    25
100
AcDbCircle
 10
-611.430407276
 20
106.4389085861
 30
0.0
 40
11.14999999999998
  0
CIRCLE
  5
83
330
1F
100
AcDbEntity
  8
0
  6
Continuous
 62
     7
370
    25
100
AcDbCircle
 10
1038.569592724
 20
236.4389085861
 30
0.0
 40
11.14999999999986
  0
CIRCLE
  5
84
330
1F
100
AcDbEntity
  8
0
  6
Continuous
 62
     7
370
    25
100
AcDbCircle
 10
1038.569592724
 20
106.4389085861
 30
0.0
 40
11.14999999999986
  0
ARC
  5
85
330
1F
100
AcDbEntity
  8
0
  6
Continuous
 62
     7
370
    25
100
AcDbCircle
 10
-634.4236586319
 20
427.1498918771
 30
0.0
 40
2.006755017796058
100
AcDbArc
 50
89.4101498347
 51
180.1444060954
  0
ARC
  5
86
330
1F
100
AcDbEntity
  8
0
  6
Continuous
 62
     7
370
    25
100
AcDbCircle
 10
-588.4382785764
 20
427.1497497721
 30
0.0
 40
2.007877317544758
100
AcDbArc
 50
359.8597296701
 51
90.4850935876
  0
LINE
  5
87
330
1F
100
AcDbEntity
  8
0
  6
Continuous
 62
     7
370
    25
100
AcDbLine
 10
-588.445599523
 20
429.1600263807
 30
0.0
 11
-634.415215029
 21
429.1600263807
 31
0.0
  0
LINE
  5
88
330
1F
100
AcDbEntity
  8
0
  6
Continuous
 62
     7
370
    25
100
AcDbLine
 10
1061.554400477
 20
429.1600263807
 30
0.0
 11
1015.584784971
 21
429.1600263807
 31
0.0
  0
ARC
  5
89
330
1F
100
AcDbEntity
  8
0
  6
Continuous
 62
     7
370
    25
100
AcDbCircle
 10
1061.5617865173
 20
427.1497874692
 30
0.0
 40
2.007812316680587
100
AcDbArc
 50
359.8586493871
 51
90.4726111887
  0
ARC
  5
8A
330
1F
100
AcDbEntity
  8
0
  6
Continuous
 62
     7
370
    25
100
AcDbCircle
 10
1015.5762915502
 20
427.1499163633
 30
0.0
 40
2.00670526192636
100
AcDbArc
 50
89.3917844622
 51
180.1451088113
  0
LINE
  5
8B
330
1F
100
AcDbEntity
  8
0
  6
Continuous
 62
     7
370
    25
100
AcDbLine
 10
1044.819592724
 20
432.7823749214
 30
0.0
 11
1044.819592724
 21
434.6881683575
 31
0.0
  0
LINE
  5
8C
330
1F
100
AcDbEntity
  8
0
  6
Continuous
 62
     7
370
    25
100
AcDbLine
 10
1032.319592724
 20
434.6881683575
 30
0.0
 11
1032.319592724
 21
432.784281124
 31
0.0
  0
LINE
  5
8D
330
1F
100
AcDbEntity
  8
0
  6
Continuous
 62
     7
370
    25
100
AcDbLine
 10
1044.7777694276
 20
432.8069248149
 30
0.0
 11
1044.7590345306
 21
432.8170681383
 31
0.0
  0
ARC
  5
8E
330
1F
100
AcDbEntity
  8
0
  6
Continuous
 62
     7
370
    25
100
AcDbCircle
 10
1038.569592724
 20
434.6881683575
 30
0.0
 40
6.25
100
AcDbArc
 50
0.0
 51
180.0
  0
LINE
  5
8F
330
1F
100
AcDbEntity
  8
0
  6
Continuous
 62
     7
370
    25
100
AcDbLine
 10
1032.3801509174
 20
432.8170681383
 30
0.0
 11
1031.496630118
 21
432.3387181839
 31
0.0
  0
LINE
  5
90
330
1F
100
AcDbEntity
  8
0
  6
Continuous
 62
     7
370
    25
100
AcDbLine
 10
-605.180407276
 20
432.784281124
 30
0.0
 11
-605.180407276
 21
434.6881683575
 31
0.0
  0
LINE
  5
91
330
1F
100
AcDbEntity
  8
0
  6
Continuous
 62
     7
370
    25
100
AcDbLine
 10
-617.680407276
 20
434.6881683575
 30
0.0
 11
-617.680407276
 21
432.7823749214
 31
0.0
  0
LINE
  5
92
330
1F
100
AcDbEntity
  8
0
  6
Continuous
 62
     7
370
    25
100
AcDbLine
 10
-617.6198490826
 20
432.8170681383
 30
0.0
 11
-617.6385839797
 21
432.8069248149
 31
0.0
  0
ARC
  5
93
330
1F
100
AcDbEntity
  8
0
  6
Continuous
 62
     7
370
    25
100
AcDbCircle
 10
-611.430407276
 20
434.6881683575
 30
0.0
 40
6.25
100
AcDbArc
 50
0.0
 51
180.0
  0
LINE
  5
94
330
1F
100
AcDbEntity
  8
0
  6
Continuous
 62
     7
370
    25
100
AcDbLine
 10
-604.3577105921
 20
432.3388621576
 30
0.0
 11
-605.2409654694
 21
432.8170681383
 31
0.0
  0
ELLIPSE
  5
95
330
1F
100
AcDbEntity
  8
0
  6
Continuous
 62
     7
370
    25
100
AcDbEllipse
 10
1066.069592724
 20
321.813900997
 30
0.0
 11
2.5
 21
0.0
 31
0.0
210
0.0
220
0.0
230
1.0
 40
0.8390996312
 41
1.570796326794897
 42
3.141592653589766
  0
LINE
  5
96
330
1F
100
AcDbEntity
  8
0
  6
Continuous
 62
     7
370
    25
100
AcDbLine
 10
1066.069592724
 20
323.911650075
 30
0.0
 11
1111.069592724
 21
323.911650075
 31
0.0
  0
ELLIPSE
  5
97
330
1F
100
AcDbEntity
  8
0
  6
Continuous
 62
     7
370
    25
100
AcDbEllipse
 10
1111.069592724
 20
321.813900997
 30
0.0
 11
2.5
 21
0.0
 31
0.0
210
0.0
220
0.0
230
1.0
 40
0.8390996312
 41
0.0
 42
1.570796326794897
  0
ELLIPSE
  5
98
330
1F
100
AcDbEntity
  8
0
  6
Continuous
 62
     7
370
    25
100
AcDbEllipse
 10
1066.069592724
 20
430.6958115845
 30
0.0
 11
0.0
 21
-2.53856652971433
 31
0.0
210
0.0
220
0.0
230
1.0
 40
0.984807753
 41
3.141592653589793
 42
4.712388980384704
  0
LINE
  5
99
330
1F
100
AcDbEntity
  8
0
  6
Continuous
 62
     7
370
    25
100
AcDbLine
 10
1066.069592724
 20
433.2343781142
 30
0.0
 11
1066.069592724
 21
323.911650075
 31
0.0
  0
LINE
  5
9A
330
1F
100
AcDbEntity
  8
0
  6
Continuous
 62
     7
370
    25
100
AcDbLine
 10
1063.569592724
 20
430.6958115845
 30
0.0
 11
1063.569592724
 21
427.1448341337
 31
0.0
  0
LINE
  5
9B
330
1F
100
AcDbEntity
  8
0
  6
Continuous
 62
     7
370
    25
100
AcDbLine
 10
1063.569592724
 20
333.5698408684
 30
0.0
 11
1063.569592724
 21
321.813900997
 31
0.0
  0
LINE
  5
9C
330
1F
100
AcDbEntity
  8
0
  6
Continuous
 62
     7
370
    25
100
AcDbLine
 10
1066.069592724
 20
433.2343781142
 30
0.0
 11
1111.069592724
 21
433.2343781142
 31
0.0
  0
LINE
  5
9D
330
1F
100
AcDbEntity
  8
0
  6
Continuous
 62
     7
370
    25
100
AcDbLine
 10
1111.069592724
 20
433.2343781142
 30
0.0
 11
1111.069592724
 21
323.911650075
 31
0.0
  0
ELLIPSE
  5
9E
330
1F
100
AcDbEntity
  8
0
  6
Continuous
 62
     7
370
    25
100
AcDbEllipse
 10
1111.069592724
 20
430.6958115845
 30
0.0
 11
0.0
 21
-2.53856652971433
 31
0.0
210
0.0
220
0.0
230
1.0
 40
0.984807753
 41
1.570796326794897
 42
3.141592653589793
  0
LINE
  5
9F
330
1F
100
AcDbEntity
  8
0
  6
Continuous
 62
     7
370
    25
100
AcDbLine
 10
1113.569592724
 20
430.6958115845
 30
0.0
 11
1113.569592724
 21
321.813900997
 31
0.0
  0
LINE
  5
A0
330
1F
100
AcDbEntity
  8
0
  6
Continuous
 62
     7
370
    25
100
AcDbLine
 10
1111.069592724
 20
323.911650075
 30
0.0
 11
1111.069592724
 21
3.911650075
 31
0.0
  0
LINE
  5
A1
330
1F
100
AcDbEntity
  8
0
  6
Continuous
 62
     7
370
    25
100
AcDbLine
 10
1113.569592724
 20
321.813900997
 30
0.0
 11
1113.569592724
 21
6.0093991529
 31
0.0
  0
ELLIPSE
  5
A2
330
1F
100
AcDbEntity
  8
0
  6
Continuous
 62
     7
370
    25
100
AcDbEllipse
 10
1111.069592724
 20
6.0093991529
 30
0.0
 11
2.5
 21
0.0
 31
0.0
210
0.0
220
0.0
230
1.0
 40
0.8390996312
 41
4.712388980384701
 42
6.283185307179586
  0
ELLIPSE
  5
A3
330
1F
100
AcDbEntity
  8
0
  6
Continuous
 62
     7
370
    25
100
AcDbEllipse
 10
1111.069592724
 20
321.813900997
 30
0.0
 11
2.5
 21
0.0
 31
0.0
210
0.0
220
0.0
230
1.0
 40
0.8390996312
 41
0.0
 42
1.570796326794897
  0
LINE
  5
A4
330
1F
100
AcDbEntity
  8
0
  6
Continuous
 62
     7
370
    25
100
AcDbLine
 10
1066.069592724
 20
323.911650075
 30
0.0
 11
1066.069592724
 21
3.911650075
 31
0.0
  0
LINE
  5
A5
330
1F
100
AcDbEntity
  8
0
  6
Continuous
 62
     7
370
    25
100
AcDbLine
 10
1066.069592724
 20
3.911650075
 30
0.0
 11
1111.069592724
 21
3.911650075
 31
0.0
  0
LINE
  5
A6
330
1F
100
AcDbEntity
  8
0
  6
Continuous
 62
     7
370
    25
100
AcDbLine
 10
1063.569592724
 20
321.813900997
 30
0.0
 11
1063.569592724
 21
6.0093991529
 31
0.0
  0
ELLIPSE
  5
A7
330
1F
100
AcDbEntity
  8
0
  6
Continuous
 62
     7
370
    25
100
AcDbEllipse
 10
1066.069592724
 20
6.0093991529
 30
0.0
 11
2.5
 21
0.0
 31
0.0
210
0.0
220
0.0
230
1.0
 40
0.8390996312
 41
3.141592653589823
 42
4.712388980384701
  0
ELLIPSE
  5
A8
330
1F
100
AcDbEntity
  8
0
  6
Continuous
 62
     7
370
    25
100
AcDbEllipse
 10
1066.069592724
 20
321.813900997
 30
0.0
 11
2.5
 21
0.0
 31
0.0
210
0.0
220
0.0
230
1.0
 40
0.8390996312
 41
1.570796326794897
 42
3.141592653589793
  0
ELLIPSE
  5
A9
330
1F
100
AcDbEntity
  8
0
  6
Continuous
 62
     7
370
    25
100
AcDbEllipse
 10
1016.069592724
 20
323.0479122743
 30
0.0
 11
2.5
 21
0.0
 31
0.0
210
0.0
220
0.0
230
1.0
 40
0.8390996312
 41
3.141592653589837
 42
4.712388980384701
  0
ELLIPSE
  5
AA
330
1F
100
AcDbEntity
  8
0
  6
Continuous
 62
     7
370
    25
100
AcDbEllipse
 10
1061.069592724
 20
323.0479122743
 30
0.0
 11
2.5
 21
0.0
 31
0.0
210
0.0
220
0.0
230
1.0
 40
0.8390996312
 41
4.712388980384701
 42
6.283185307179586
  0
LINE
  5
AB
330
1F
100
AcDbEntity
  8
0
  6
Continuous
 62
     7
370
    25
100
AcDbLine
 10
1061.069592724
 20
320.9501631963
 30
0.0
 11
1016.069592724
 21
320.9501631963
 31
0.0
  0
LINE
  5
AC
330
1F
100
AcDbEntity
  8
0
  6
Continuous
 62
     7
370
    25
100
AcDbLine
 10
1013.569592724
 20
323.0479122743
 30
0.0
 11
1013.569592724
 21
281.4389085861
 31
0.0
  0
LINE
  5
AD
330
1F
100
AcDbEntity
  8
0
  6
Continuous
 62
     7
370
    25
100
AcDbLine
 10
1013.569592724
 20
191.4389085861
 30
0.0
 11
1013.569592724
 21
151.4389085861
 31
0.0
  0
LINE
  5
AE
330
1F
100
AcDbEntity
  8
0
  6
Continuous
 62
     7
370
    25
100
AcDbLine
 10
1013.569592724
 20
61.4389085861
 30
0.0
 11
1013.569592724
 21
21.4389085861
 31
0.0
  0
ELLIPSE
  5
AF
330
1F
100
AcDbEntity
  8
0
  6
Continuous
 62
     7
370
    25
100
AcDbEllipse
 10
1066.069592724
 20
-102.8725114346
 30
0.0
 11
0.0
 21
-2.538566529714345
 31
0.0
210
0.0
220
0.0
230
1.0
 40
0.984807753
 41
4.712388980384704
 42
6.283185307179586
  0
LINE
  5
B0
330
1F
100
AcDbEntity
  8
0
  6
Continuous
 62
     7
370
    25
100
AcDbLine
 10
1063.569592724
 20
6.0093991529
 30
0.0
 11
1063.569592724
 21
-29.3441604792
 31
0.0
  0
LINE
  5
B1
330
1F
100
AcDbEntity
  8
0
  6
Continuous
 62
     7
370
    25
100
AcDbLine
 10
1063.569592724
 20
-65.5610914139
 30
0.0
 11
1063.569592724
 21
-102.8725114346
 31
0.0
  0
ELLIPSE
  5
B2
330
1F
100
AcDbEntity
  8
0
  6
Continuous
 62
     7
370
    25
100
AcDbEllipse
 10
1066.069592724
 20
6.0093991529
 30
0.0
 11
2.5
 21
0.0
 31
0.0
210
0.0
220
0.0
230
1.0
 40
0.8390996312
 41
3.14159265358978
 42
4.712388980384701
  0
LINE
  5
B3
330
1F
100
AcDbEntity
  8
0
  6
Continuous
 62
     7
370
    25
100
AcDbLine
 10
1066.069592724
 20
3.911650075
 30
0.0
 11
1066.069592724
 21
-105.4110779643
 31
0.0
  0
LINE
  5
B4
330
1F
100
AcDbEntity
  8
0
  6
Continuous
 62
     7
370
    25
100
AcDbLine
 10
1111.069592724
 20
-105.4110779643
 30
0.0
 11
1066.069592724
 21
-105.4110779643
 31
0.0
  0
LINE
  5
B5
330
1F
100
AcDbEntity
  8
0
  6
Continuous
 62
     7
370
    25
100
AcDbLine
 10
1111.069592724
 20
3.911650075
 30
0.0
 11
1111.069592724
 21
-105.4110779643
 31
0.0
  0
ELLIPSE
  5
B6
330
1F
100
AcDbEntity
  8
0
  6
Continuous
 62
     7
370
    25
100
AcDbEllipse
 10
1111.069592724
 20
6.0093991529
 30
0.0
 11
2.5
 21
0.0
 31
0.0
210
0.0
220
0.0
230
1.0
 40
0.8390996312
 41
4.712388980384701
 42
6.283185307179586
  0
ELLIPSE
  5
B7
330
1F
100
AcDbEntity
  8
0
  6
Continuous
 62
     7
370
    25
100
AcDbEllipse
 10
1111.069592724
 20
-102.8725114346
 30
0.0
 11
0.0
 21
-2.538566529714345
 31
0.0
210
0.0
220
0.0
230
1.0
 40
0.984807753
 41
0.0
 42
1.570796326794897
  0
LINE
  5
B8
330
1F
100
AcDbEntity
  8
0
  6
Continuous
 62
     7
370
    25
100
AcDbLine
 10
1113.569592724
 20
6.0093991529
 30
0.0
 11
1113.569592724
 21
-102.8725114346
 31
0.0
  0
LINE
  5
B9
330
1F
100
AcDbEntity
  8
0
  6
Continuous
 62
     7
370
    25
100
AcDbLine
 10
1013.569592724
 20
330.6154176093
 30
0.0
 11
1013.569592724
 21
323.0479122743
 31
0.0
  0
ELLIPSE
  5
BA
330
1F
100
AcDbEntity
  8
0
  6
Continuous
 62
     7
370
    25
100
AcDbEllipse
 10
1016.069592724
 20
323.0479122743
 30
0.0
 11
2.5
 21
0.0
 31
0.0
210
0.0
220
0.0
230
1.0
 40
0.8390996312
 41
3.141592653589766
 42
4.712388980384701
  0
LINE
  5
BB
330
1F
100
AcDbEntity
  8
0
  6
Continuous
 62
     7
370
    25
100
AcDbLine
 10
1063.569592724
 20
406.1860342362
 30
0.0
 11
1063.569592724
 21
404.2140144915
 31
0.0
  0
ELLIPSE
  5
BC
330
1F
100
AcDbEntity
  8
0
  6
Continuous
 62
     7
370
    25
100
AcDbEllipse
 10
1061.069592724
 20
323.0479122743
 30
0.0
 11
2.5
 21
0.0
 31
0.0
210
0.0
220
0.0
230
1.0
 40
0.8390996312
 41
4.712388980384701
 42
6.283185307179586
  0
LINE
  5
BD
330
1F
100
AcDbEntity
  8
0
  6
Continuous
 62
     7
370
    25
100
AcDbLine
 10
-686.430407276
 20
321.813900997
 30
0.0
 11
-686.430407276
 21
6.0093991529
 31
0.0
  0
LINE
  5
BE
330
1F
100
AcDbEntity
  8
0
  6
Continuous
 62
     7
370
    25
100
AcDbLine
 10
-683.930407276
 20
323.911650075
 30
0.0
 11
-683.930407276
 21
3.911650075
 31
0.0
  0
ELLIPSE
  5
BF
330
1F
100
AcDbEntity
  8
0
  6
Continuous
 62
     7
370
    25
100
AcDbEllipse
 10
-683.930407276
 20
6.0093991529
 30
0.0
 11
2.499999999999886
 21
0.0
 31
0.0
210
0.0
220
0.0
230
1.0
 40
0.8390996312
 41
3.141592653589793
 42
4.712388980384701
  0
ELLIPSE
  5
C0
330
1F
100
AcDbEntity
  8
0
  6
Continuous
 62
     7
370
    25
100
AcDbEllipse
 10
-683.930407276
 20
321.813900997
 30
0.0
 11
2.499999999999886
 21
0.0
 31
0.0
210
0.0
220
0.0
230
1.0
 40
0.8390996312
 41
1.570796326794897
 42
3.141592653589793
  0
LINE
  5
C1
330
1F
100
AcDbEntity
  8
0
  6
Continuous
 62
     7
370
    25
100
AcDbLine
 10
-638.930407276
 20
323.911650075
 30
0.0
 11
-638.930407276
 21
3.911650075
 31
0.0
  0
LINE
  5
C2
330
1F
100
AcDbEntity
  8
0
  6
Continuous
 62
     7
370
    25
100
AcDbLine
 10
-638.930407276
 20
3.911650075
 30
0.0
 11
-683.930407276
 21
3.911650075
 31
0.0
  0
LINE
  5
C3
330
1F
100
AcDbEntity
  8
0
  6
Continuous
 62
     7
370
    25
100
AcDbLine
 10
-683.930407276
 20
323.911650075
 30
0.0
 11
-638.930407276
 21
323.911650075
 31
0.0
  0
LINE
  5
C4
330
1F
100
AcDbEntity
  8
0
  6
Continuous
 62
     7
370
    25
100
AcDbLine
 10
-636.430407276
 20
321.813900997
 30
0.0
 11
-636.430407276
 21
6.0093991529
 31
0.0
  0
ELLIPSE
  5
C5
330
1F
100
AcDbEntity
  8
0
  6
Continuous
 62
     7
370
    25
100
AcDbEllipse
 10
-638.930407276
 20
6.0093991529
 30
0.0
 11
2.499999999999886
 21
0.0
 31
0.0
210
0.0
220
0.0
230
1.0
 40
0.8390996312
 41
4.712388980384701
 42
6.283185307179586
  0
ELLIPSE
  5
C6
330
1F
100
AcDbEntity
  8
0
  6
Continuous
 62
     7
370
    25
100
AcDbEllipse
 10
-638.930407276
 20
321.813900997
 30
0.0
 11
2.499999999999886
 21
0.0
 31
0.0
210
0.0
220
0.0
230
1.0
 40
0.8390996312
 41
0.0
 42
1.570796326794897
  0
ELLIPSE
  5
C7
330
1F
100
AcDbEntity
  8
0
  6
Continuous
 62
     7
370
    25
100
AcDbEllipse
 10
-633.930407276
 20
323.0479122743
 30
0.0
 11
2.499999999999886
 21
0.0
 31
0.0
210
0.0
220
0.0
230
1.0
 40
0.8390996312
 41
3.141592653589739
 42
4.712388980384656
  0
ELLIPSE
  5
C8
330
1F
100
AcDbEntity
  8
0
  6
Continuous
 62
     7
370
    25
100
AcDbEllipse
 10
-588.930407276
 20
323.0479122743
 30
0.0
 11
2.5
 21
0.0
 31
0.0
210
0.0
220
0.0
230
1.0
 40
0.8390996312
 41
4.712388980384701
 42
6.283185307179586
  0
LINE
  5
C9
330
1F
100
AcDbEntity
  8
0
  6
Continuous
 62
     7
370
    25
100
AcDbLine
 10
-633.930407276
 20
320.9501631963
 30
0.0
 11
-588.930407276
 21
320.9501631963
 31
0.0
  0
LINE
  5
CA
330
1F
100
AcDbEntity
  8
0
  6
Continuous
 62
     7
370
    25
100
AcDbLine
 10
-586.430407276
 20
323.0479122743
 30
0.0
 11
-586.430407276
 21
281.4389085861
 31
0.0
  0
LINE
  5
CB
330
1F
100
AcDbEntity
  8
0
  6
Continuous
 62
     7
370
    25
100
AcDbLine
 10
-586.430407276
 20
191.4389085861
 30
0.0
 11
-586.430407276
 21
151.4389085861
 31
0.0
  0
LINE
  5
CC
330
1F
100
AcDbEntity
  8
0
  6
Continuous
 62
     7
370
    25
100
AcDbLine
 10
-586.430407276
 20
61.4389085861
 30
0.0
 11
-586.430407276
 21
21.4389085861
 31
0.0
  0
ELLIPSE
  5
CD
330
1F
100
AcDbEntity
  8
0
  6
Continuous
 62
     7
370
    25
100
AcDbEllipse
 10
-638.930407276
 20
321.813900997
 30
0.0
 11
2.499999999999886
 21
0.0
 31
0.0
210
0.0
220
0.0
230
1.0
 40
0.8390996312
 41
0.0
 42
1.570796326794897
  0
LINE
  5
CE
330
1F
100
AcDbEntity
  8
0
  6
Continuous
 62
     7
370
    25
100
AcDbLine
 10
-638.930407276
 20
433.2343781142
 30
0.0
 11
-638.930407276
 21
323.911650075
 31
0.0
  0
ELLIPSE
  5
CF
330
1F
100
AcDbEntity
  8
0
  6
Continuous
 62
     7
370
    25
100
AcDbEllipse
 10
-638.930407276
 20
430.6958115845
 30
0.0
 11
0.0
 21
-2.53856652971433
 31
0.0
210
0.0
220
0.0
230
1.0
 40
0.984807753
 41
1.570796326794897
 42
3.141592653589793
  0
LINE
  5
D0
330
1F
100
AcDbEntity
  8
0
  6
Continuous
 62
     7
370
    25
100
AcDbLine
 10
-636.430407276
 20
430.6958115845
 30
0.0
 11
-636.430407276
 21
427.1448341336
 31
0.0
  0
LINE
  5
D1
330
1F
100
AcDbEntity
  8
0
  6
Continuous
 62
     7
370
    25
100
AcDbLine
 10
-636.430407276
 20
333.5698408684
 30
0.0
 11
-636.430407276
 21
321.813900997
 31
0.0
  0
LINE
  5
D2
330
1F
100
AcDbEntity
  8
0
  6
Continuous
 62
     7
370
    25
100
AcDbLine
 10
-683.930407276
 20
433.2343781142
 30
0.0
 11
-683.930407276
 21
323.911650075
 31
0.0
  0
LINE
  5
D3
330
1F
100
AcDbEntity
  8
0
  6
Continuous
 62
     7
370
    25
100
AcDbLine
 10
-638.930407276
 20
433.2343781142
 30
0.0
 11
-683.930407276
 21
433.2343781142
 31
0.0
  0
ELLIPSE
  5
D4
330
1F
100
AcDbEntity
  8
0
  6
Continuous
 62
     7
370
    25
100
AcDbEllipse
 10
-683.930407276
 20
321.813900997
 30
0.0
 11
2.499999999999886
 21
0.0
 31
0.0
210
0.0
220
0.0
230
1.0
 40
0.8390996312
 41
1.570796326794897
 42
3.141592653589793
  0
LINE
  5
D5
330
1F
100
AcDbEntity
  8
0
  6
Continuous
 62
     7
370
    25
100
AcDbLine
 10
-686.430407276
 20
430.6958115845
 30
0.0
 11
-686.430407276
 21
321.813900997
 31
0.0
  0
ELLIPSE
  5
D6
330
1F
100
AcDbEntity
  8
0
  6
Continuous
 62
     7
370
    25
100
AcDbEllipse
 10
-683.930407276
 20
430.6958115845
 30
0.0
 11
0.0
 21
-2.53856652971433
 31
0.0
210
0.0
220
0.0
230
1.0
 40
0.984807753
 41
3.141592653589793
 42
4.712388980384704
  0
LINE
  5
D7
330
1F
100
AcDbEntity
  8
0
  6
Continuous
 62
     7
370
    25
100
AcDbLine
 10
-636.430407276
 20
406.1860342362
 30
0.0
 11
-636.430407276
 21
404.2140144915
 31
0.0
  0
ELLIPSE
  5
D8
330
1F
100
AcDbEntity
  8
0
  6
Continuous
 62
     7
370
    25
100
AcDbEllipse
 10
-633.930407276
 20
323.0479122743
 30
0.0
 11
2.499999999999886
 21
0.0
 31
0.0
210
0.0
220
0.0
230
1.0
 40
0.8390996312
 41
3.141592653589793
 42
4.712388980384656
  0
LINE
  5
D9
330
1F
100
AcDbEntity
  8
0
  6
Continuous
 62
     7
370
    25
100
AcDbLine
 10
-586.430407276
 20
330.6154176093
 30
0.0
 11
-586.430407276
 21
323.0479122743
 31
0.0
  0
ELLIPSE
  5
DA
330
1F
100
AcDbEntity
  8
0
  6
Continuous
 62
     7
370
    25
100
AcDbEllipse
 10
-588.930407276
 20
323.0479122743
 30
0.0
 11
2.5
 21
0.0
 31
0.0
210
0.0
220
0.0
230
1.0
 40
0.8390996312
 41
4.712388980384701
 42
6.283185307179586
  0
LINE
  5
DB
330
1F
100
AcDbEntity
  8
0
  6
Continuous
 62
     7
370
    25
100
AcDbLine
 10
-638.930407276
 20
3.911650075
 30
0.0
 11
-638.930407276
 21
-105.4110779643
 31
0.0
  0
LINE
  5
DC
330
1F
100
AcDbEntity
  8
0
  6
Continuous
 62
     7
370
    25
100
AcDbLine
 10
-683.930407276
 20
-105.4110779643
 30
0.0
 11
-638.930407276
 21
-105.4110779643
 31
0.0
  0
LINE
  5
DD
330
1F
100
AcDbEntity
  8
0
  6
Continuous
 62
     7
370
    25
100
AcDbLine
 10
-683.930407276
 20
3.911650075
 30
0.0
 11
-683.930407276
 21
-105.4110779643
 31
0.0
  0
ELLIPSE
  5
DE
330
1F
100
AcDbEntity
  8
0
  6
Continuous
 62
     7
370
    25
100
AcDbEllipse
 10
-638.930407276
 20
6.0093991529
 30
0.0
 11
2.499999999999886
 21
0.0
 31
0.0
210
0.0
220
0.0
230
1.0
 40
0.8390996312
 41
4.712388980384701
 42
6.283185307179586
  0
LINE
  5
DF
330
1F
100
AcDbEntity
  8
0
  6
Continuous
 62
     7
370
    25
100
AcDbLine
 10
-636.430407276
 20
6.0093991529
 30
0.0
 11
-636.430407276
 21
-29.3441604792
 31
0.0
  0
LINE
  5
E0
330
1F
100
AcDbEntity
  8
0
  6
Continuous
 62
     7
370
    25
100
AcDbLine
 10
-636.430407276
 20
-65.5610914139
 30
0.0
 11
-636.430407276
 21
-102.8725114346
 31
0.0
  0
ELLIPSE
  5
E1
330
1F
100
AcDbEntity
  8
0
  6
Continuous
 62
     7
370
    25
100
AcDbEllipse
 10
-638.930407276
 20
-102.8725114346
 30
0.0
 11
0.0
 21
-2.538566529714345
 31
0.0
210
0.0
220
0.0
230
1.0
 40
0.984807753
 41
0.0
 42
1.570796326794897
  0
ELLIPSE
  5
E2
330
1F
100
AcDbEntity
  8
0
  6
Continuous
 62
     7
370
    25
100
AcDbEllipse
 10
-683.930407276
 20
6.0093991529
 30
0.0
 11
2.499999999999886
 21
0.0
 31
0.0
210
0.0
220
0.0
230
1.0
 40
0.8390996312
 41
3.141592653589793
 42
4.712388980384701
  0
ELLIPSE
  5
E3
330
1F
100
AcDbEntity
  8
0
  6
Continuous
 62
     7
370
    25
100
AcDbEllipse
 10
-683.930407276
 20
-102.8725114346
 30
0.0
 11
0.0
 21
-2.538566529714345
 31
0.0
210
0.0
220
0.0
230
1.0
 40
0.984807753
 41
4.712388980384704
 42
6.283185307179586
  0
LINE
  5
E4
330
1F
100
AcDbEntity
  8
0
  6
Continuous
 62
     7
370
    25
100
AcDbLine
 10
-686.430407276
 20
6.0093991529
 30
0.0
 11
-686.430407276
 21
-102.8725114346
 31
0.0
  0
LINE
  5
E5
330
1F
100
AcDbEntity
  8
0
  6
Continuous
 62
     7
370
    25
100
AcDbLine
 10
255.569592724
 20
21.4389085861
 30
0.0
 11
255.569592724
 21
61.4389085861
 31
0.0
  0
LINE
  5
E6
330
1F
100
AcDbEntity
  8
0
  6
Continuous
 62
     7
370
    25
100
AcDbLine
 10
255.569592724
 20
151.4389085861
 30
0.0
 11
255.569592724
 21
191.4389085861
 31
0.0
  0
LINE
  5
E7
330
1F
100
AcDbEntity
  8
0
  6
Continuous
 62
     7
370
    25
100
AcDbLine
 10
258.569592724
 20
191.4389085861
 30
0.0
 11
258.569592724
 21
151.4389085861
 31
0.0
  0
LINE
  5
E8
330
1F
100
AcDbEntity
  8
0
  6
Continuous
 62
     7
370
    25
100
AcDbLine
 10
258.569592724
 20
61.4389085861
 30
0.0
 11
258.569592724
 21
21.4389085861
 31
0.0
  0
LINE
  5
E9
330
1F
100
AcDbEntity
  8
0
  6
Continuous
 62
     7
370
    25
100
AcDbLine
 10
168.569592724
 20
21.4389085861
 30
0.0
 11
168.569592724
 21
61.4389085861
 31
0.0
  0
LINE
  5
EA
330
1F
100
AcDbEntity
  8
0
  6
Continuous
 62
     7
370
    25
100
AcDbLine
 10
168.569592724
 20
151.4389085861
 30
0.0
 11
168.569592724
 21
191.4389085861
 31
0.0
  0
LINE
  5
EB
330
1F
100
AcDbEntity
  8
0
  6
Continuous
 62
     7
370
    25
100
AcDbLine
 10
171.569592724
 20
191.4389085861
 30
0.0
 11
171.569592724
 21
151.4389085861
 31
0.0
  0
LINE
  5
EC
330
1F
100
AcDbEntity
  8
0
  6
Continuous
 62
     7
370
    25
100
AcDbLine
 10
171.569592724
 20
61.4389085861
 30
0.0
 11
171.569592724
 21
21.4389085861
 31
0.0
  0
LINE
  5
ED
330
1F
100
AcDbEntity
  8
0
  6
Continuous
 62
     7
370
    25
100
AcDbLine
 10
-603.1257487463
 20
335.5982957816
 30
0.0
 11
-603.1075690949
 21
335.6113552079
 31
0.0
  0
LINE
  5
EE
330
1F
100
AcDbEntity
  8
0
  6
Continuous
 62
     7
370
    25
100
AcDbLine
 10
-603.1257487463
 20
358.1725588783
 30
0.0
 11
-603.1075690949
 21
358.1856183046
 31
0.0
  0
CIRCLE
  5
EF
330
1F
100
AcDbEntity
  8
0
  6
Continuous
 62
     7
370
    25
100
AcDbCircle
 10
-611.430407276
 20
236.4389085861
 30
0.0
 40
10.64999999999986
  0
CIRCLE
  5
F0
330
1F
100
AcDbEntity
  8
0
  6
Continuous
 62
     7
370
    25
100
AcDbCircle
 10
-611.430407276
 20
-23.5610914139
 30
0.0
 40
10.64999999999986
  0
CIRCLE
  5
F1
330
1F
100
AcDbEntity
  8
0
  6
Continuous
 62
     7
370
    25
100
AcDbCircle
 10
1038.569592724
 20
-23.5610914139
 30
0.0
 40
10.65000000000009
  0
CIRCLE
  5
F2
330
1F
100
AcDbEntity
  8
0
  6
Continuous
 62
     7
370
    25
100
AcDbCircle
 10
-611.430407276
 20
106.4389085861
 30
0.0
 40
10.64999999999986
  0
CIRCLE
  5
F3
330
1F
100
AcDbEntity
  8
0
  6
Continuous
 62
     7
370
    25
100
AcDbCircle
 10
1038.569592724
 20
236.4389085861
 30
0.0
 40
10.65000000000009
  0
CIRCLE
  5
F4
330
1F
100
AcDbEntity
  8
0
  6
Continuous
 62
     7
370
    25
100
AcDbCircle
 10
1038.569592724
 20
106.4389085861
 30
0.0
 40
10.65000000000009
  0
ELLIPSE
  5
F5
330
1F
100
AcDbEntity
  8
0
  6
Continuous
 62
     7
370
    25
100
AcDbEllipse
 10
-633.430407276
 20
407.4486790735
 30
0.0
 11
2.995834705233165
 21
1.010882551693157
 31
0.0
210
0.0
220
0.0
230
1.0
 40
0.1563316802
 41
1.518094277531247
 42
3.088890604326046
  0
LINE
  5
F6
330
1F
100
AcDbEntity
  8
0
  6
Continuous
 62
     7
370
    25
100
AcDbLine
 10
-633.430407276
 20
407.9696236065
 30
0.0
 11
-589.430407276
 21
407.9696236065
 31
0.0
  0
LINE
  5
F7
330
1F
100
AcDbEntity
  8
0
  6
Continuous
 62
     7
370
    25
100
AcDbLine
 10
-633.430407276
 20
426.6809709137
 30
0.0
 11
-633.430407276
 21
407.9696236065
 31
0.0
  0
LINE
  5
F8
330
1F
100
AcDbEntity
  8
0
  6
Continuous
 62
     7
370
    25
100
AcDbLine
 10
-636.430407276
 20
406.4638713205
 30
0.0
 11
-636.430407276
 21
427.1448341338
 31
0.0
  0
ELLIPSE
  5
F9
330
1F
100
AcDbEntity
  8
0
  6
Continuous
 62
     7
370
    25
100
AcDbEllipse
 10
-633.430407276
 20
426.1600263807
 30
0.0
 11
2.995834705233164
 21
-1.0108825516931
 31
0.0
210
0.0
220
0.0
230
1.0
 40
0.1563316802
 41
1.623498376058534
 42
3.194294702853638
  0
LINE
  5
FA
330
1F
100
AcDbEntity
  8
0
  6
Continuous
 62
     7
370
    25
100
AcDbLine
 10
-586.430407276
 20
427.1448341338
 30
0.0
 11
-586.430407276
 21
407.1684377505
 31
0.0
  0
LINE
  5
FB
330
1F
100
AcDbEntity
  8
0
  6
Continuous
 62
     7
370
    25
100
AcDbLine
 10
-589.430407276
 20
407.9696236065
 30
0.0
 11
-589.430407276
 21
426.6809709137
 31
0.0
  0
ELLIPSE
  5
FC
330
1F
100
AcDbEntity
  8
0
  6
Continuous
 62
     7
370
    25
100
AcDbEllipse
 10
-589.430407276
 20
426.1600263807
 30
0.0
 11
2.995834705233278
 21
1.010882551693157
 31
0.0
210
0.0
220
0.0
230
1.0
 40
0.1563316802
 41
6.230483257915881
 42
7.801279584710846
  0
LINE
  5
FD
330
1F
100
AcDbEntity
  8
0
  6
Continuous
 62
     7
370
    25
100
AcDbLine
 10
-589.430407276
 20
426.6809709137
 30
0.0
 11
-633.430407276
 21
426.6809709137
 31
0.0
  0
ARC
  5
FE
330
1F
100
AcDbEntity
  8
0
  6
Continuous
 62
     7
370
    25
100
AcDbCircle
 10
-634.4725575264
 20
406.1899535324
 30
0.0
 40
1.957853672543407
100
AcDbArc
 50
180.1146966603
 51
225.5588750913
  0
LINE
  5
FF
330
1F
100
AcDbEntity
  8
0
  6
Continuous
 62
     7
370
    25
100
AcDbLine
 10
-636.430407276
 20
406.4638713205
 30
0.0
 11
-636.430407276
 21
406.1860342362
 31
0.0
  0
LINE
  5
100
330
1F
100
AcDbEntity
  8
0
  6
Continuous
 62
     7
370
    25
100
AcDbLine
 10
1016.569592724
 20
407.9696236065
 30
0.0
 11
1060.569592724
 21
407.9696236065
 31
0.0
  0
ELLIPSE
  5
101
330
1F
100
AcDbEntity
  8
0
  6
Continuous
 62
     7
370
    25
100
AcDbEllipse
 10
1060.569592724
 20
407.4486790735
 30
0.0
 11
2.995834705233392
 21
-1.010882551693101
 31
0.0
210
0.0
220
0.0
230
1.0
 40
0.1563316802
 41
0.0527020492636501
 42
1.623498376058523
  0
LINE
  5
102
330
1F
100
AcDbEntity
  8
0
  6
Continuous
 62
     7
370
    25
100
AcDbLine
 10
1013.569592724
 20
407.1684377505
 30
0.0
 11
1013.569592724
 21
427.1448341338
 31
0.0
  0
ELLIPSE
  5
103
330
1F
100
AcDbEntity
  8
0
  6
Continuous
 62
     7
370
    25
100
AcDbEllipse
 10
1016.569592724
 20
426.1600263807
 30
0.0
 11
2.995834705233278
 21
-1.010882551693101
 31
0.0
210
0.0
220
0.0
230
1.0
 40
0.1563316802
 41
1.623498376058526
 42
3.194294702853355
  0
LINE
  5
104
330
1F
100
AcDbEntity
  8
0
  6
Continuous
 62
     7
370
    25
100
AcDbLine
 10
1016.569592724
 20
426.6809709137
 30
0.0
 11
1016.569592724
 21
407.9696236065
 31
0.0
  0
LINE
  5
105
330
1F
100
AcDbEntity
  8
0
  6
Continuous
 62
     7
370
    25
100
AcDbLine
 10
1060.569592724
 20
407.9696236065
 30
0.0
 11
1060.569592724
 21
426.6809709137
 31
0.0
  0
ELLIPSE
  5
106
330
1F
100
AcDbEntity
  8
0
  6
Continuous
 62
     7
370
    25
100
AcDbEllipse
 10
1060.569592724
 20
426.1600263807
 30
0.0
 11
2.995834705233392
 21
1.010882551693157
 31
0.0
210
0.0
220
0.0
230
1.0
 40
0.1563316802
 41
6.230483257915822
 42
7.801279584710839
  0
LINE
  5
107
330
1F
100
AcDbEntity
  8
0
  6
Continuous
 62
     7
370
    25
100
AcDbLine
 10
1063.569592724
 20
427.1448341338
 30
0.0
 11
1063.569592724
 21
406.4638713205
 31
0.0
  0
LINE
  5
108
330
1F
100
AcDbEntity
  8
0
  6
Continuous
 62
     7
370
    25
100
AcDbLine
 10
1060.569592724
 20
426.6809709137
 30
0.0
 11
1016.569592724
 21
426.6809709137
 31
0.0
  0
ARC
  5
109
330
1F
100
AcDbEntity
  8
0
  6
Continuous
 62
     7
370
    25
100
AcDbCircle
 10
1061.6131504081
 20
406.1893608381
 30
0.0
 40
1.956445144055481
100
AcDbArc
 50
314.4238500139
 51
359.9025782345
  0
LINE
  5
10A
330
1F
100
AcDbEntity
  8
0
  6
Continuous
 62
     7
370
    25
100
AcDbLine
 10
1063.569592724
 20
406.4638713205
 30
0.0
 11
1063.569592724
 21
406.1860342362
 31
0.0
  0
ARC
  5
10B
330
1F
100
AcDbEntity
  8
0
  6
Continuous
 62
     7
370
    25
100
AcDbCircle
 10
1039.69243771
 20
421.1417435304
 30
0.0
 40
12.43402716486006
100
AcDbArc
 50
69.5871453181
 51
86.5802062655
  0
LINE
  5
10C
330
1F
100
AcDbEntity
  8
0
  6
Continuous
 62
     7
370
    25
100
AcDbLine
 10
1044.0292065997
 20
432.7949605597
 30
0.0
 11
1044.0292065997
 21
429.1600263807
 31
0.0
  0
LINE
  5
10D
330
1F
100
AcDbEntity
  8
0
  6
Continuous
 62
     7
370
    25
100
AcDbLine
 10
1036.8390787938
 20
433.1688245405
 30
0.0
 11
1036.8390787938
 21
429.1600263807
 31
0.0
  0
ARC
  5
10E
330
1F
100
AcDbEntity
  8
0
  6
Continuous
 62
     7
370
    25
100
AcDbCircle
 10
1039.9033169964
 20
421.5269361182
 30
0.0
 40
12.03840196209224
100
AcDbArc
 50
87.4727595269
 51
104.7462478491
  0
ARC
  5
10F
330
1F
100
AcDbEntity
  8
0
  6
Continuous
 62
     7
370
    25
100
AcDbCircle
 10
1035.1687017894
 20
426.5366584748
 30
0.0
 40
6.83928256910605
100
AcDbArc
 50
75.8635019635
 51
98.9112091627
  0
LINE
  5
110
330
1F
100
AcDbEntity
  8
0
  6
Continuous
 62
     7
370
    25
100
AcDbLine
 10
1031.3794649181
 20
432.2744782695
 30
0.0
 11
1031.3794649181
 21
429.1600263807
 31
0.0
  0
ARC
  5
111
330
1F
100
AcDbEntity
  8
0
  6
Continuous
 62
     7
370
    25
100
AcDbCircle
 10
1035.5716679498
 20
425.2091878052
 30
0.0
 40
8.215405991404138
100
AcDbArc
 50
100.253668577
 51
120.6828524979
  0
ARC
  5
112
330
1F
100
AcDbEntity
  8
0
  6
Continuous
 62
     7
370
    25
100
AcDbCircle
 10
1038.5648142328
 20
401.9959859548
 30
0.0
 40
31.61295991363633
100
AcDbArc
 50
86.6100249232
 51
98.10226525
  0
ARC
  5
113
330
1F
100
AcDbEntity
  8
0
  6
Continuous
 62
     7
370
    25
100
AcDbCircle
 10
1044.4157484577
 20
432.1244027149
 30
0.0
 40
0.7739912345994541
100
AcDbArc
 50
51.7931769283
 51
119.9612209931
  0
ARC
  5
114
330
1F
100
AcDbEntity
  8
0
  6
Continuous
 62
     7
370
    25
100
AcDbCircle
 10
1040.6405902562
 20
422.1491998841
 30
0.0
 40
11.40629773585282
100
AcDbArc
 50
68.1029039151
 51
91.0370779403
  0
ARC
  5
115
330
1F
100
AcDbEntity
  8
0
  6
Continuous
 62
     7
370
    25
100
AcDbCircle
 10
1042.3974733838
 20
430.0275106364
 30
0.0
 40
3.68136190337369
100
AcDbArc
 50
24.0322865935
 51
47.290702159
  0
LINE
  5
116
330
1F
100
AcDbEntity
  8
0
  6
Continuous
 62
     7
370
    25
100
AcDbLine
 10
1045.7597205299
 20
431.5267503078
 30
0.0
 11
1045.7597205299
 21
429.1600263807
 31
0.0
  0
ARC
  5
117
330
1F
100
AcDbEntity
  8
0
  6
Continuous
 62
     7
370
    25
100
AcDbCircle
 10
1034.7126045747
 20
427.7265300949
 30
0.0
 40
5.59945690530251
100
AcDbArc
 50
96.1855389195
 51
114.6169640421
  0
ARC
  5
118
330
1F
100
AcDbEntity
  8
0
  6
Continuous
 62
     7
370
    25
100
AcDbCircle
 10
-612.7517742578
 20
421.6423849604
 30
0.0
 40
11.92362304397353
100
AcDbArc
 50
75.1699684975
 51
92.6110241266
  0
LINE
  5
119
330
1F
100
AcDbEntity
  8
0
  6
Continuous
 62
     7
370
    25
100
AcDbLine
 10
-609.6998933459
 20
433.1688245405
 30
0.0
 11
-609.6998933459
 21
429.1600263807
 31
0.0
  0
LINE
  5
11A
330
1F
100
AcDbEntity
  8
0
  6
Continuous
 62
     7
370
    25
100
AcDbLine
 10
-616.8900211518
 20
432.7949605597
 30
0.0
 11
-616.8900211518
 21
429.1600263807
 31
0.0
  0
ARC
  5
11B
330
1F
100
AcDbEntity
  8
0
  6
Continuous
 62
     7
370
    25
100
AcDbCircle
 10
-612.5219278633
 20
420.9933082146
 30
0.0
 40
12.58408665946575
100
AcDbArc
 50
93.5218467309
 51
110.3108016855
  0
ARC
  5
11C
330
1F
100
AcDbEntity
  8
0
  6
Continuous
 62
     7
370
    25
100
AcDbCircle
 10
-608.3840151117
 20
425.3390389685
 30
0.0
 40
8.079038517314597
100
AcDbArc
 50
59.1428354656
 51
79.9206434596
  0
LINE
  5
11D
330
1F
100
AcDbEntity
  8
0
  6
Continuous
 62
     7
370
    25
100
AcDbLine
 10
-604.2402794701
 20
432.2744782695
 30
0.0
 11
-604.2402794701
 21
429.1600263807
 31
0.0
  0
ARC
  5
11E
330
1F
100
AcDbEntity
  8
0
  6
Continuous
 62
     7
370
    25
100
AcDbCircle
 10
-608.0271918176
 20
426.4857165702
 30
0.0
 40
6.889257038733916
100
AcDbArc
 50
81.1735175407
 51
104.0517713331
  0
ARC
  5
11F
330
1F
100
AcDbEntity
  8
0
  6
Continuous
 62
     7
370
    25
100
AcDbCircle
 10
-611.4382691367
 20
401.6887762957
 30
0.0
 40
31.91889941312716
100
AcDbArc
 50
81.9529934658
 51
93.334716361
  0
ARC
  5
120
330
1F
100
AcDbEntity
  8
0
  6
Continuous
 62
     7
370
    25
100
AcDbCircle
 10
-617.2765630098
 20
432.1244027149
 30
0.0
 40
0.7739912345997824
100
AcDbArc
 50
60.0387790069
 51
128.2068230717
  0
ARC
  5
121
330
1F
100
AcDbEntity
  8
0
  6
Continuous
 62
     7
370
    25
100
AcDbCircle
 10
-613.5901300653
 20
422.6312038123
 30
0.0
 40
10.92641307973727
100
AcDbArc
 50
88.4519883869
 51
112.4080297577
  0
LINE
  5
122
330
1F
100
AcDbEntity
  8
0
  6
Continuous
 62
     7
370
    25
100
AcDbLine
 10
-618.6205350819
 20
431.5267503078
 30
0.0
 11
-618.6205350819
 21
429.1600263807
 31
0.0
  0
ARC
  5
123
330
1F
100
AcDbEntity
  8
0
  6
Continuous
 62
     7
370
    25
100
AcDbCircle
 10
-615.2582879359
 20
430.0275106364
 30
0.0
 40
3.681361903375675
100
AcDbArc
 50
132.709297841
 51
155.9677134065
  0
ARC
  5
124
330
1F
100
AcDbEntity
  8
0
  6
Continuous
 62
     7
370
    25
100
AcDbCircle
 10
-607.6648735776
 20
427.3945351293
 30
0.0
 40
5.93962917621381
100
AcDbArc
 50
65.9150409501
 51
83.2824560883
  0
LINE
  5
125
330
1F
100
AcDbEntity
  8
0
  6
Continuous
 62
     7
370
    25
100
AcDbLine
 10
-633.430407276
 20
61.4389085861
 30
0.0
 11
-636.430407276
 21
64.4389085861
 31
0.0
  0
LINE
  5
126
330
1F
100
AcDbEntity
  8
0
  6
Continuous
 62
     7
370
    25
100
AcDbLine
 10
-633.430407276
 20
64.4389085861
 30
0.0
 11
-636.430407276
 21
64.4389085861
 31
0.0
  0
LINE
  5
127
330
1F
100
AcDbEntity
  8
0
  6
Continuous
 62
     7
370
    25
100
AcDbLine
 10
-633.430407276
 20
64.4389085861
 30
0.0
 11
-633.430407276
 21
61.4389085861
 31
0.0
  0
LINE
  5
128
330
1F
100
AcDbEntity
  8
0
  6
Continuous
 62
     7
370
    25
100
AcDbLine
 10
1060.569592724
 20
151.4389085861
 30
0.0
 11
1063.569592724
 21
148.4389085861
 31
0.0
  0
LINE
  5
129
330
1F
100
AcDbEntity
  8
0
  6
Continuous
 62
     7
370
    25
100
AcDbLine
 10
1060.569592724
 20
148.4389085861
 30
0.0
 11
1063.569592724
 21
148.4389085861
 31
0.0
  0
LINE
  5
12A
330
1F
100
AcDbEntity
  8
0
  6
Continuous
 62
     7
370
    25
100
AcDbLine
 10
1060.569592724
 20
151.4389085861
 30
0.0
 11
1060.569592724
 21
148.4389085861
 31
0.0
  0
LINE
  5
12B
330
1F
100
AcDbEntity
  8
0
  6
Continuous
 62
     7
370
    25
100
AcDbLine
 10
1060.569592724
 20
148.4389085861
 30
0.0
 11
-633.430407276
 21
148.4389085861
 31
0.0
  0
LINE
  5
12C
330
1F
100
AcDbEntity
  8
0
  6
Continuous
 62
     7
370
    25
100
AcDbLine
 10
1060.569592724
 20
64.4389085861
 30
0.0
 11
1060.569592724
 21
148.4389085861
 31
0.0
  0
LINE
  5
12D
330
1F
100
AcDbEntity
  8
0
  6
Continuous
 62
     7
370
    25
100
AcDbLine
 10
-633.430407276
 20
64.4389085861
 30
0.0
 11
1060.569592724
 21
64.4389085861
 31
0.0
  0
LINE
  5
12E
330
1F
100
AcDbEntity
  8
0
  6
Continuous
 62
     7
370
    25
100
AcDbLine
 10
-633.430407276
 20
148.4389085861
 30
0.0
 11
-633.430407276
 21
64.4389085861
 31
0.0
  0
LINE
  5
12F
330
1F
100
AcDbEntity
  8
0
  6
Continuous
 62
     7
370
    25
100
AcDbLine
 10
-636.430407276
 20
148.4389085861
 30
0.0
 11
-633.430407276
 21
148.4389085861
 31
0.0
  0
LINE
  5
130
330
1F
100
AcDbEntity
  8
0
  6
Continuous
 62
     7
370
    25
100
AcDbLine
 10
1060.569592724
 20
64.4389085861
 30
0.0
 11
1060.569592724
 21
61.4389085861
 31
0.0
  0
LINE
  5
131
330
1F
100
AcDbEntity
  8
0
  6
Continuous
 62
     7
370
    25
100
AcDbLine
 10
1060.569592724
 20
61.4389085861
 30
0.0
 11
-633.430407276
 21
61.4389085861
 31
0.0
  0
LINE
  5
132
330
1F
100
AcDbEntity
  8
0
  6
Continuous
 62
     7
370
    25
100
AcDbLine
 10
-633.430407276
 20
151.4389085861
 30
0.0
 11
-633.430407276
 21
148.4389085861
 31
0.0
  0
LINE
  5
133
330
1F
100
AcDbEntity
  8
0
  6
Continuous
 62
     7
370
    25
100
AcDbLine
 10
-636.430407276
 20
148.4389085861
 30
0.0
 11
-633.430407276
 21
151.4389085861
 31
0.0
  0
LINE
  5
134
330
1F
100
AcDbEntity
  8
0
  6
Continuous
 62
     7
370
    25
100
AcDbLine
 10
1063.569592724
 20
64.4389085861
 30
0.0
 11
1060.569592724
 21
64.4389085861
 31
0.0
  0
LINE
  5
135
330
1F
100
AcDbEntity
  8
0
  6
Continuous
 62
     7
370
    25
100
AcDbLine
 10
-633.430407276
 20
151.4389085861
 30
0.0
 11
1060.569592724
 21
151.4389085861
 31
0.0
  0
LINE
  5
136
330
1F
100
AcDbEntity
  8
0
  6
Continuous
 62
     7
370
    25
100
AcDbLine
 10
1063.569592724
 20
64.4389085861
 30
0.0
 11
1060.569592724
 21
61.4389085861
 31
0.0
  0
LINE
  5
137
330
1F
100
AcDbEntity
  8
0
  6
Continuous
 62
     7
370
    25
100
AcDbLine
 10
1063.569592724
 20
-65.5610914139
 30
0.0
 11
1060.569592724
 21
-68.5610914139
 31
0.0
  0
LINE
  5
138
330
1F
100
AcDbEntity
  8
0
  6
Continuous
 62
     7
370
    25
100
AcDbLine
 10
1060.569592724
 20
-65.5610914139
 30
0.0
 11
1060.569592724
 21
-68.5610914139
 31
0.0
  0
LINE
  5
139
330
1F
100
AcDbEntity
  8
0
  6
Continuous
 62
     7
370
    25
100
AcDbLine
 10
1063.569592724
 20
-65.5610914139
 30
0.0
 11
1060.569592724
 21
-65.5610914139
 31
0.0
  0
LINE
  5
13A
330
1F
100
AcDbEntity
  8
0
  6
Continuous
 62
     7
370
    25
100
AcDbLine
 10
1060.569592724
 20
18.4389085861
 30
0.0
 11
-633.430407276
 21
18.4389085861
 31
0.0
  0
LINE
  5
13B
330
1F
100
AcDbEntity
  8
0
  6
Continuous
 62
     7
370
    25
100
AcDbLine
 10
1060.569592724
 20
-65.5610914139
 30
0.0
 11
1060.569592724
 21
18.4389085861
 31
0.0
  0
LINE
  5
13C
330
1F
100
AcDbEntity
  8
0
  6
Continuous
 62
     7
370
    25
100
AcDbLine
 10
-633.430407276
 20
-65.5610914139
 30
0.0
 11
1060.569592724
 21
-65.5610914139
 31
0.0
  0
LINE
  5
13D
330
1F
100
AcDbEntity
  8
0
  6
Continuous
 62
     7
370
    25
100
AcDbLine
 10
-633.430407276
 20
18.4389085861
 30
0.0
 11
-633.430407276
 21
-65.5610914139
 31
0.0
  0
LINE
  5
13E
330
1F
100
AcDbEntity
  8
0
  6
Continuous
 62
     7
370
    25
100
AcDbLine
 10
-633.430407276
 20
21.4389085861
 30
0.0
 11
1060.569592724
 21
21.4389085861
 31
0.0
  0
LINE
  5
13F
330
1F
100
AcDbEntity
  8
0
  6
Continuous
 62
     7
370
    25
100
AcDbLine
 10
1060.569592724
 20
21.4389085861
 30
0.0
 11
1060.569592724
 21
18.4389085861
 31
0.0
  0
LINE
  5
140
330
1F
100
AcDbEntity
  8
0
  6
Continuous
 62
     7
370
    25
100
AcDbLine
 10
-633.430407276
 20
21.4389085861
 30
0.0
 11
-633.430407276
 21
18.4389085861
 31
0.0
  0
LINE
  5
141
330
1F
100
AcDbEntity
  8
0
  6
Continuous
 62
     7
370
    25
100
AcDbLine
 10
-633.430407276
 20
-68.5610914139
 30
0.0
 11
-636.430407276
 21
-65.5610914139
 31
0.0
  0
LINE
  5
142
330
1F
100
AcDbEntity
  8
0
  6
Continuous
 62
     7
370
    25
100
AcDbLine
 10
-633.430407276
 20
-65.5610914139
 30
0.0
 11
-636.430407276
 21
-65.5610914139
 31
0.0
  0
LINE
  5
143
330
1F
100
AcDbEntity
  8
0
  6
Continuous
 62
     7
370
    25
100
AcDbLine
 10
-633.430407276
 20
-65.5610914139
 30
0.0
 11
-633.430407276
 21
-68.5610914139
 31
0.0
  0
LINE
  5
144
330
1F
100
AcDbEntity
  8
0
  6
Continuous
 62
     7
370
    25
100
AcDbLine
 10
-636.430407276
 20
18.4389085861
 30
0.0
 11
-633.430407276
 21
18.4389085861
 31
0.0
  0
LINE
  5
145
330
1F
100
AcDbEntity
  8
0
  6
Continuous
 62
     7
370
    25
100
AcDbLine
 10
-636.430407276
 20
18.4389085861
 30
0.0
 11
-633.430407276
 21
21.4389085861
 31
0.0
  0
LINE
  5
146
330
1F
100
AcDbEntity
  8
0
  6
Continuous
 62
     7
370
    25
100
AcDbLine
 10
1060.569592724
 20
-68.5610914139
 30
0.0
 11
-633.430407276
 21
-68.5610914139
 31
0.0
  0
LINE
  5
147
330
1F
100
AcDbEntity
  8
0
  6
Continuous
 62
     7
370
    25
100
AcDbLine
 10
1063.569592724
 20
-29.3441604792
 30
0.0
 11
1063.569592724
 21
-65.5610914139
 31
0.0
  0
LINE
  5
148
330
1F
100
AcDbEntity
  8
0
  6
Continuous
 62
     7
370
    25
100
AcDbLine
 10
1060.569592724
 20
18.4389085861
 30
0.0
 11
1063.569592724
 21
18.4389085861
 31
0.0
  0
LINE
  5
149
330
1F
100
AcDbEntity
  8
0
  6
Continuous
 62
     7
370
    25
100
AcDbLine
 10
1060.569592724
 20
21.4389085861
 30
0.0
 11
1063.569592724
 21
18.4389085861
 31
0.0
  0
LINE
  5
14A
330
1F
100
AcDbEntity
  8
0
  6
Continuous
 62
     7
370
    25
100
AcDbLine
 10
-636.430407276
 20
-65.5610914139
 30
0.0
 11
-636.430407276
 21
-29.3441604792
 31
0.0
  0
LINE
  5
14B
330
1F
100
AcDbEntity
  8
0
  6
Continuous
 62
     7
370
    25
100
AcDbLine
 10
1063.569592724
 20
194.4389085861
 30
0.0
 11
1060.569592724
 21
191.4389085861
 31
0.0
  0
LINE
  5
14C
330
1F
100
AcDbEntity
  8
0
  6
Continuous
 62
     7
370
    25
100
AcDbLine
 10
1060.569592724
 20
194.4389085861
 30
0.0
 11
1060.569592724
 21
191.4389085861
 31
0.0
  0
LINE
  5
14D
330
1F
100
AcDbEntity
  8
0
  6
Continuous
 62
     7
370
    25
100
AcDbLine
 10
1063.569592724
 20
194.4389085861
 30
0.0
 11
1060.569592724
 21
194.4389085861
 31
0.0
  0
LINE
  5
14E
330
1F
100
AcDbEntity
  8
0
  6
Continuous
 62
     7
370
    25
100
AcDbLine
 10
-633.430407276
 20
194.4389085861
 30
0.0
 11
1060.569592724
 21
194.4389085861
 31
0.0
  0
LINE
  5
14F
330
1F
100
AcDbEntity
  8
0
  6
Continuous
 62
     7
370
    25
100
AcDbLine
 10
1060.569592724
 20
191.4389085861
 30
0.0
 11
-633.430407276
 21
191.4389085861
 31
0.0
  0
LINE
  5
150
330
1F
100
AcDbEntity
  8
0
  6
Continuous
 62
     7
370
    25
100
AcDbLine
 10
-633.430407276
 20
194.4389085861
 30
0.0
 11
-633.430407276
 21
191.4389085861
 31
0.0
  0
LINE
  5
151
330
1F
100
AcDbEntity
  8
0
  6
Continuous
 62
     7
370
    25
100
AcDbLine
 10
1060.569592724
 20
278.4389085861
 30
0.0
 11
-633.430407276
 21
278.4389085861
 31
0.0
  0
LINE
  5
152
330
1F
100
AcDbEntity
  8
0
  6
Continuous
 62
     7
370
    25
100
AcDbLine
 10
1060.569592724
 20
194.4389085861
 30
0.0
 11
1060.569592724
 21
278.4389085861
 31
0.0
  0
LINE
  5
153
330
1F
100
AcDbEntity
  8
0
  6
Continuous
 62
     7
370
    25
100
AcDbLine
 10
-633.430407276
 20
278.4389085861
 30
0.0
 11
-633.430407276
 21
194.4389085861
 31
0.0
  0
LINE
  5
154
330
1F
100
AcDbEntity
  8
0
  6
Continuous
 62
     7
370
    25
100
AcDbLine
 10
-633.430407276
 20
281.4389085861
 30
0.0
 11
-633.430407276
 21
278.4389085861
 31
0.0
  0
LINE
  5
155
330
1F
100
AcDbEntity
  8
0
  6
Continuous
 62
     7
370
    25
100
AcDbLine
 10
-636.430407276
 20
278.4389085861
 30
0.0
 11
-633.430407276
 21
278.4389085861
 31
0.0
  0
LINE
  5
156
330
1F
100
AcDbEntity
  8
0
  6
Continuous
 62
     7
370
    25
100
AcDbLine
 10
-636.430407276
 20
278.4389085861
 30
0.0
 11
-633.430407276
 21
281.4389085861
 31
0.0
  0
LINE
  5
157
330
1F
100
AcDbEntity
  8
0
  6
Continuous
 62
     7
370
    25
100
AcDbLine
 10
-633.430407276
 20
191.4389085861
 30
0.0
 11
-636.430407276
 21
194.4389085861
 31
0.0
  0
LINE
  5
158
330
1F
100
AcDbEntity
  8
0
  6
Continuous
 62
     7
370
    25
100
AcDbLine
 10
-633.430407276
 20
194.4389085861
 30
0.0
 11
-636.430407276
 21
194.4389085861
 31
0.0
  0
LINE
  5
159
330
1F
100
AcDbEntity
  8
0
  6
Continuous
 62
     7
370
    25
100
AcDbLine
 10
1060.569592724
 20
278.4389085861
 30
0.0
 11
1063.569592724
 21
278.4389085861
 31
0.0
  0
LINE
  5
15A
330
1F
100
AcDbEntity
  8
0
  6
Continuous
 62
     7
370
    25
100
AcDbLine
 10
1060.569592724
 20
281.4389085861
 30
0.0
 11
1063.569592724
 21
278.4389085861
 31
0.0
  0
LINE
  5
15B
330
1F
100
AcDbEntity
  8
0
  6
Continuous
 62
     7
370
    25
100
AcDbLine
 10
1060.569592724
 20
281.4389085861
 30
0.0
 11
1060.569592724
 21
278.4389085861
 31
0.0
  0
LINE
  5
15C
330
1F
100
AcDbEntity
  8
0
  6
Continuous
 62
     7
370
    25
100
AcDbLine
 10
-633.430407276
 20
281.4389085861
 30
0.0
 11
1060.569592724
 21
281.4389085861
 31
0.0
  0
LINE
  5
15D
330
1F
100
AcDbEntity
  8
0
  6
Continuous
 62
     7
370
    25
100
AcDbLine
 10
-633.430407276
 20
348.6772323254
 30
0.0
 11
1060.569592724
 21
348.6772323254
 31
0.0
  0
LINE
  5
15E
330
1F
100
AcDbEntity
  8
0
  6
Continuous
 62
     7
370
    25
100
AcDbLine
 10
1060.569592724
 20
348.6772323254
 30
0.0
 11
1060.569592724
 21
345.2018645334
 31
0.0
  0
LINE
  5
15F
330
1F
100
AcDbEntity
  8
0
  6
Continuous
 62
     7
370
    25
100
AcDbLine
 10
1060.569592724
 20
345.2018645334
 30
0.0
 11
-633.430407276
 21
345.2018645334
 31
0.0
  0
LINE
  5
160
330
1F
100
AcDbEntity
  8
0
  6
Continuous
 62
     7
370
    25
100
AcDbLine
 10
-633.430407276
 20
348.6772323254
 30
0.0
 11
-633.430407276
 21
345.2018645334
 31
0.0
  0
LINE
  5
161
330
1F
100
AcDbEntity
  8
0
  6
Continuous
 62
     7
370
    25
100
AcDbLine
 10
-636.430407276
 20
348.1562877924
 30
0.0
 11
-633.430407276
 21
345.2018645334
 31
0.0
  0
LINE
  5
162
330
1F
100
AcDbEntity
  8
0
  6
Continuous
 62
     7
370
    25
100
AcDbLine
 10
-636.430407276
 20
348.1562877924
 30
0.0
 11
-633.430407276
 21
348.6772323254
 31
0.0
  0
LINE
  5
163
330
1F
100
AcDbEntity
  8
0
  6
Continuous
 62
     7
370
    25
100
AcDbLine
 10
1060.569592724
 20
348.6772323254
 30
0.0
 11
1063.569592724
 21
348.1562877924
 31
0.0
  0
LINE
  5
164
330
1F
100
AcDbEntity
  8
0
  6
Continuous
 62
     7
370
    25
100
AcDbLine
 10
1060.569592724
 20
345.2018645334
 30
0.0
 11
1063.569592724
 21
348.1562877924
 31
0.0
  0
LINE
  5
165
330
1F
100
AcDbEntity
  8
0
  6
Continuous
 62
     7
370
    25
100
AcDbLine
 10
-636.430407276
 20
348.1562877924
 30
0.0
 11
-636.430407276
 21
356.1441039651
 31
0.0
  0
LINE
  5
166
330
1F
100
AcDbEntity
  8
0
  6
Continuous
 62
     7
370
    25
100
AcDbLine
 10
-633.430407276
 20
353.189680706
 30
0.0
 11
-633.430407276
 21
348.6772323254
 31
0.0
  0
LINE
  5
167
330
1F
100
AcDbEntity
  8
0
  6
Continuous
 62
     7
370
    25
100
AcDbLine
 10
1060.569592724
 20
348.6772323254
 30
0.0
 11
1060.569592724
 21
353.189680706
 31
0.0
  0
LINE
  5
168
330
1F
100
AcDbEntity
  8
0
  6
Continuous
 62
     7
370
    25
100
AcDbLine
 10
1063.569592724
 20
356.1441039651
 30
0.0
 11
1063.569592724
 21
348.1562877924
 31
0.0
  0
LINE
  5
169
330
1F
100
AcDbEntity
  8
0
  6
Continuous
 62
     7
370
    25
100
AcDbLine
 10
1063.569592724
 20
348.1562877924
 30
0.0
 11
1063.569592724
 21
333.5698408684
 31
0.0
  0
LINE
  5
16A
330
1F
100
AcDbEntity
  8
0
  6
Continuous
 62
     7
370
    25
100
AcDbLine
 10
1063.569592724
 20
333.5698408684
 30
0.0
 11
1060.569592724
 21
330.6154176093
 31
0.0
  0
LINE
  5
16B
330
1F
100
AcDbEntity
  8
0
  6
Continuous
 62
     7
370
    25
100
AcDbLine
 10
1060.569592724
 20
330.6154176093
 30
0.0
 11
1060.569592724
 21
345.2018645334
 31
0.0
  0
LINE
  5
16C
330
1F
100
AcDbEntity
  8
0
  6
Continuous
 62
     7
370
    25
100
AcDbLine
 10
-636.430407276
 20
333.5698408684
 30
0.0
 11
-636.430407276
 21
348.1562877924
 31
0.0
  0
LINE
  5
16D
330
1F
100
AcDbEntity
  8
0
  6
Continuous
 62
     7
370
    25
100
AcDbLine
 10
-633.430407276
 20
345.2018645334
 30
0.0
 11
-633.430407276
 21
330.6154176093
 31
0.0
  0
LINE
  5
16E
330
1F
100
AcDbEntity
  8
0
  6
Continuous
 62
     7
370
    25
100
AcDbLine
 10
-633.430407276
 20
330.6154176093
 30
0.0
 11
-636.430407276
 21
333.5698408684
 31
0.0
  0
LINE
  5
16F
330
1F
100
AcDbEntity
  8
0
  6
Continuous
 62
     7
370
    25
100
AcDbLine
 10
-633.430407276
 20
330.6154176093
 30
0.0
 11
1060.569592724
 21
330.6154176093
 31
0.0
  0
LINE
  5
170
330
1F
100
AcDbEntity
  8
0
  6
Continuous
 62
     7
370
    25
100
AcDbLine
 10
-633.430407276
 20
371.2514954221
 30
0.0
 11
1060.569592724
 21
371.2514954221
 31
0.0
  0
LINE
  5
171
330
1F
100
AcDbEntity
  8
0
  6
Continuous
 62
     7
370
    25
100
AcDbLine
 10
1060.569592724
 20
371.2514954221
 30
0.0
 11
1060.569592724
 21
367.7761276301
 31
0.0
  0
LINE
  5
172
330
1F
100
AcDbEntity
  8
0
  6
Continuous
 62
     7
370
    25
100
AcDbLine
 10
1060.569592724
 20
367.7761276301
 30
0.0
 11
-633.430407276
 21
367.7761276301
 31
0.0
  0
LINE
  5
173
330
1F
100
AcDbEntity
  8
0
  6
Continuous
 62
     7
370
    25
100
AcDbLine
 10
-633.430407276
 20
371.2514954221
 30
0.0
 11
-633.430407276
 21
367.7761276301
 31
0.0
  0
LINE
  5
174
330
1F
100
AcDbEntity
  8
0
  6
Continuous
 62
     7
370
    25
100
AcDbLine
 10
1060.569592724
 20
371.2514954221
 30
0.0
 11
1063.569592724
 21
370.7305508891
 31
0.0
  0
LINE
  5
175
330
1F
100
AcDbEntity
  8
0
  6
Continuous
 62
     7
370
    25
100
AcDbLine
 10
1060.569592724
 20
367.7761276301
 30
0.0
 11
1063.569592724
 21
370.7305508891
 31
0.0
  0
LINE
  5
176
330
1F
100
AcDbEntity
  8
0
  6
Continuous
 62
     7
370
    25
100
AcDbLine
 10
-636.430407276
 20
370.7305508891
 30
0.0
 11
-633.430407276
 21
367.7761276301
 31
0.0
  0
LINE
  5
177
330
1F
100
AcDbEntity
  8
0
  6
Continuous
 62
     7
370
    25
100
AcDbLine
 10
-636.430407276
 20
370.7305508891
 30
0.0
 11
-633.430407276
 21
371.2514954221
 31
0.0
  0
LINE
  5
178
330
1F
100
AcDbEntity
  8
0
  6
Continuous
 62
     7
370
    25
100
AcDbLine
 10
1060.569592724
 20
371.2514954221
 30
0.0
 11
1060.569592724
 21
404.7349590245
 31
0.0
  0
LINE
  5
179
330
1F
100
AcDbEntity
  8
0
  6
Continuous
 62
     7
370
    25
100
AcDbLine
 10
1060.569592724
 20
404.7349590245
 30
0.0
 11
1063.569592724
 21
404.2140144915
 31
0.0
  0
LINE
  5
17A
330
1F
100
AcDbEntity
  8
0
  6
Continuous
 62
     7
370
    25
100
AcDbLine
 10
1063.569592724
 20
404.2140144915
 30
0.0
 11
1063.569592724
 21
370.7305508891
 31
0.0
  0
LINE
  5
17B
330
1F
100
AcDbEntity
  8
0
  6
Continuous
 62
     7
370
    25
100
AcDbLine
 10
-633.430407276
 20
404.7349590245
 30
0.0
 11
-633.430407276
 21
371.2514954221
 31
0.0
  0
LINE
  5
17C
330
1F
100
AcDbEntity
  8
0
  6
Continuous
 62
     7
370
    25
100
AcDbLine
 10
1060.569592724
 20
404.7349590245
 30
0.0
 11
-633.430407276
 21
404.7349590245
 31
0.0
  0
LINE
  5
17D
330
1F
100
AcDbEntity
  8
0
  6
Continuous
 62
     7
370
    25
100
AcDbLine
 10
-636.430407276
 20
370.7305508891
 30
0.0
 11
-636.430407276
 21
404.2140144915
 31
0.0
  0
LINE
  5
17E
330
1F
100
AcDbEntity
  8
0
  6
Continuous
 62
     7
370
    25
100
AcDbLine
 10
-636.430407276
 20
404.2140144915
 30
0.0
 11
-633.430407276
 21
404.7349590245
 31
0.0
  0
LINE
  5
17F
330
1F
100
AcDbEntity
  8
0
  6
Continuous
 62
     7
370
    25
100
AcDbLine
 10
1060.569592724
 20
353.189680706
 30
0.0
 11
1060.569592724
 21
367.7761276301
 31
0.0
  0
LINE
  5
180
330
1F
100
AcDbEntity
  8
0
  6
Continuous
 62
     7
370
    25
100
AcDbLine
 10
-633.430407276
 20
353.189680706
 30
0.0
 11
1060.569592724
 21
353.189680706
 31
0.0
  0
LINE
  5
181
330
1F
100
AcDbEntity
  8
0
  6
Continuous
 62
     7
370
    25
100
AcDbLine
 10
-633.430407276
 20
367.7761276301
 30
0.0
 11
-633.430407276
 21
353.189680706
 31
0.0
  0
LINE
  5
182
330
1F
100
AcDbEntity
  8
0
  6
Continuous
 62
     7
370
    25
100
AcDbLine
 10
-636.430407276
 20
356.1441039651
 30
0.0
 11
-636.430407276
 21
370.7305508891
 31
0.0
  0
LINE
  5
183
330
1F
100
AcDbEntity
  8
0
  6
Continuous
 62
     7
370
    25
100
AcDbLine
 10
-633.430407276
 20
353.189680706
 30
0.0
 11
-636.430407276
 21
356.1441039651
 31
0.0
  0
LINE
  5
184
330
1F
100
AcDbEntity
  8
0
  6
Continuous
 62
     7
370
    25
100
AcDbLine
 10
1063.569592724
 20
370.7305508891
 30
0.0
 11
1063.569592724
 21
356.1441039651
 31
0.0
  0
LINE
  5
185
330
1F
100
AcDbEntity
  8
0
  6
Continuous
 62
     7
370
    25
100
AcDbLine
 10
1063.569592724
 20
356.1441039651
 30
0.0
 11
1060.569592724
 21
353.189680706
 31
0.0
  0
LINE
  5
186
330
1F
100
AcDbEntity
  8
0
  6
Continuous
 62
     7
370
    25
100
AcDbLine
 10
-633.430407276
 20
407.1684377505
 30
0.0
 11
1060.569592724
 21
407.1684377505
 31
0.0
  0
LINE
  5
187
330
1F
100
AcDbEntity
  8
0
  6
Continuous
 62
     7
370
    25
100
AcDbLine
 10
1060.569592724
 20
407.1684377505
 30
0.0
 11
1060.569592724
 21
404.7349590245
 31
0.0
  0
LINE
  5
188
330
1F
100
AcDbEntity
  8
0
  6
Continuous
 62
     7
370
    25
100
AcDbLine
 10
-633.430407276
 20
407.1684377505
 30
0.0
 11
-633.430407276
 21
404.7349590245
 31
0.0
  0
LINE
  5
189
330
1F
100
AcDbEntity
  8
0
  6
Continuous
 62
     7
370
    25
100
AcDbLine
 10
1060.569592724
 20
407.1684377505
 30
0.0
 11
1063.569592724
 21
404.2140144915
 31
0.0
  0
LINE
  5
18A
330
1F
100
AcDbEntity
  8
0
  6
Continuous
 62
     7
370
    25
100
AcDbLine
 10
-633.430407276
 20
407.1684377505
 30
0.0
 11
-636.430407276
 21
404.2140144915
 31
0.0
  0
LINE
  5
18B
330
1F
100
AcDbEntity
  8
0
  6
Continuous
 62
     8
370
    25
100
AcDbLine
 10
1061.069592724
 20
320.9501631963
 30
0.0
 11
1061.069592724
 21
280.9389085861
 31
0.0
  0
LINE
  5
18C
330
1F
100
AcDbEntity
  8
0
  6
Continuous
 62
     8
370
    25
100
AcDbLine
 10
1061.069592724
 20
191.9389085861
 30
0.0
 11
1061.069592724
 21
150.9389085861
 31
0.0
  0
LINE
  5
18D
330
1F
100
AcDbEntity
  8
0
  6
Continuous
 62
     8
370
    25
100
AcDbLine
 10
1061.069592724
 20
61.9389085861
 30
0.0
 11
1061.069592724
 21
20.9389085861
 31
0.0
  0
LINE
  5
18E
330
1F
100
AcDbEntity
  8
0
  6
Continuous
 62
     8
370
    25
100
AcDbLine
 10
1016.069592724
 20
320.9501631963
 30
0.0
 11
1016.069592724
 21
281.4389085861
 31
0.0
  0
LINE
  5
18F
330
1F
100
AcDbEntity
  8
0
  6
Continuous
 62
     8
370
    25
100
AcDbLine
 10
1016.069592724
 20
191.4389085861
 30
0.0
 11
1016.069592724
 21
151.4389085861
 31
0.0
  0
LINE
  5
190
330
1F
100
AcDbEntity
  8
0
  6
Continuous
 62
     8
370
    25
100
AcDbLine
 10
1016.069592724
 20
61.4389085861
 30
0.0
 11
1016.069592724
 21
21.4389085861
 31
0.0
  0
LINE
  5
191
330
1F
100
AcDbEntity
  8
0
  6
Continuous
 62
     8
370
    25
100
AcDbLine
 10
1016.069592724
 20
330.6154176093
 30
0.0
 11
1016.069592724
 21
320.9501631963
 31
0.0
  0
LINE
  5
192
330
1F
100
AcDbEntity
  8
0
  6
Continuous
 62
     8
370
    25
100
AcDbLine
 10
1061.069592724
 20
331.1078214858
 30
0.0
 11
1061.069592724
 21
320.9501631963
 31
0.0
  0
LINE
  5
193
330
1F
100
AcDbEntity
  8
0
  6
Continuous
 62
     8
370
    25
100
AcDbLine
 10
-588.930407276
 20
320.9501631963
 30
0.0
 11
-588.930407276
 21
281.4389085861
 31
0.0
  0
LINE
  5
194
330
1F
100
AcDbEntity
  8
0
  6
Continuous
 62
     8
370
    25
100
AcDbLine
 10
-588.930407276
 20
191.4389085861
 30
0.0
 11
-588.930407276
 21
151.4389085861
 31
0.0
  0
LINE
  5
195
330
1F
100
AcDbEntity
  8
0
  6
Continuous
 62
     8
370
    25
100
AcDbLine
 10
-588.930407276
 20
61.4389085861
 30
0.0
 11
-588.930407276
 21
21.4389085861
 31
0.0
  0
LINE
  5
196
330
1F
100
AcDbEntity
  8
0
  6
Continuous
 62
     8
370
    25
100
AcDbLine
 10
-633.930407276
 20
320.9501631963
 30
0.0
 11
-633.930407276
 21
280.9389085861
 31
0.0
  0
LINE
  5
197
330
1F
100
AcDbEntity
  8
0
  6
Continuous
 62
     8
370
    25
100
AcDbLine
 10
-633.930407276
 20
191.9389085861
 30
0.0
 11
-633.930407276
 21
150.9389085861
 31
0.0
  0
LINE
  5
198
330
1F
100
AcDbEntity
  8
0
  6
Continuous
 62
     8
370
    25
100
AcDbLine
 10
-633.930407276
 20
61.9389085861
 30
0.0
 11
-633.930407276
 21
20.9389085861
 31
0.0
  0
LINE
  5
199
330
1F
100
AcDbEntity
  8
0
  6
Continuous
 62
     8
370
    25
100
AcDbLine
 10
-633.930407276
 20
331.1078214858
 30
0.0
 11
-633.930407276
 21
320.9501631963
 31
0.0
  0
LINE
  5
19A
330
1F
100
AcDbEntity
  8
0
  6
Continuous
 62
     8
370
    25
100
AcDbLine
 10
-588.930407276
 20
330.6154176093
 30
0.0
 11
-588.930407276
 21
320.9501631963
 31
0.0
  0
LWPOLYLINE
  5
19B
330
1F
100
AcDbEntity
  8
0
  6
Continuous
 62
     8
370
    25
100
AcDbPolyline
 90
       36
 70
   128
 43
0.0
 10
1046.8924309051
 20
358.8705160657
 10
1046.6749661427
 20
359.0024056874
 10
1046.3883491921
 20
359.1302484202
 10
1046.0350253682
 20
359.252953555
 10
1045.6180091052
 20
359.3694742149
 10
1045.1408582388
 20
359.4788162867
 10
1044.607643652
 20
359.5800469024
 10
1044.0229145436
 20
359.6723023981
 10
1043.3916596163
 20
359.7547956824
 10
1042.7192645145
 20
359.8268229516
 10
1042.0114658761
 20
359.8877696946
 10
1041.2743023895
 20
359.9371159352
 10
1040.5140632737
 20
359.9744406687
 10
1039.7372346207
 20
359.9994254536
 10
1038.9504440588
 20
360.0118571285
 10
1038.1604042076
 20
360.0116296309
 10
1037.3738554086
 20
359.9987449015
 10
1036.5975082187
 20
359.9733128684
 10
1035.8379861585
 20
359.9355505087
 10
1035.1017692023
 20
359.8857799975
 10
1034.3951384938
 20
359.8244259594
 10
1033.7241227568
 20
359.7520118452
 10
1033.0944468612
 20
359.6691554668
 10
1032.5114829795
 20
359.5765637255
 10
1031.9802047542
 20
359.4750265814
 10
1031.5051448637
 20
359.3654103136
 10
1031.0903563514
 20
359.2486501295
 10
1030.7393780468
 20
359.1257421858
 10
1030.455204373
 20
358.9977350897
 10
1030.2402597995
 20
358.8657209527
 10
1030.0963781577
 20
358.7308260727
 10
1030.024786995
 20
358.5942013254
 10
1030.026097102
 20
358.457012345
 10
1030.1002973012
 20
358.3204295794
 10
1030.2467545428
 20
358.1856183046
 10
1030.2638987601
 20
358.1732890219
  0
LWPOLYLINE
  5
19C
330
1F
100
AcDbEntity
  8
0
  6
Continuous
 62
     8
370
    25
100
AcDbPolyline
 90
        7
 70
   128
 43
0.0
 10
1046.8752866879
 20
358.1732890219
 10
1046.8989256485
 20
358.1904134177
 10
1047.0428072903
 20
358.3253082977
 10
1047.114398453
 20
358.4619330449
 10
1047.113088346
 20
358.5991220254
 10
1047.0388881467
 20
358.735704791
 10
1046.8924309051
 20
358.8705160657
  0
LWPOLYLINE
  5
19D
330
1F
100
AcDbEntity
  8
0
  6
Continuous
 62
     8
370
    25
100
AcDbPolyline
 90
       41
 70
   128
 43
0.0
 10
-603.1075690949
 20
335.6113552079
 10
-602.9611118533
 20
335.7461664827
 10
-602.886911654
 20
335.8827492483
 10
-602.885601547
 20
336.0199382287
 10
-602.9571927097
 20
336.156562976
 10
-603.1010743515
 20
336.291457856
 10
-603.316018925
 20
336.423471993
 10
-603.6001925989
 20
336.5514790891
 10
-603.9511709035
 20
336.6743870328
 10
-604.3659594157
 20
336.7911472169
 10
-604.8410193062
 20
336.9007634847
 10
-605.3722975315
 20
337.0023006288
 10
-605.9552614132
 20
337.0948923701
 10
-606.5849373088
 20
337.1777487485
 10
-607.2559530458
 20
337.2501628626
 10
-607.9625837544
 20
337.3115169008
 10
-608.6988007105
 20
337.361287412
 10
-609.4583227707
 20
337.3990497717
 10
-610.2346699606
 20
337.4244818048
 10
-611.0212187597
 20
337.4373665342
 10
-611.8112586109
 20
337.4375940318
 10
-612.5980491728
 20
337.4251623569
 10
-613.3748778257
 20
337.400177572
 10
-614.1351169415
 20
337.3628528385
 10
-614.8722804281
 20
337.3135065979
 10
-615.5800790665
 20
337.2525598549
 10
-616.2524741684
 20
337.1805325857
 10
-616.8837290957
 20
337.0980393014
 10
-617.468458204
 20
337.0057838057
 10
-618.0016727908
 20
336.90455319
 10
-618.4788236572
 20
336.7952111182
 10
-618.8958399202
 20
336.6786904583
 10
-619.2491637442
 20
336.5559853235
 10
-619.5357806947
 20
336.4281425907
 10
-619.7532454572
 20
336.296252969
 10
-619.8997026988
 20
336.1614416943
 10
-619.973902898
 20
336.0248589287
 10
-619.975213005
 20
335.8876699482
 10
-619.9036218423
 20
335.751045201
 10
-619.7597402005
 20
335.616150321
 10
-619.7361012399
 20
335.5990259252
  0
LWPOLYLINE
  5
19E
330
1F
100
AcDbEntity
  8
0
  6
Continuous
 62
     8
370
    25
100
AcDbPolyline
 90
       41
 70
   128
 43
0.0
 10
-603.1075690949
 20
358.1856183046
 10
-602.9611118533
 20
358.3204295794
 10
-602.886911654
 20
358.457012345
 10
-602.885601547
 20
358.5942013254
 10
-602.9571927097
 20
358.7308260727
 10
-603.1010743515
 20
358.8657209527
 10
-603.316018925
 20
358.9977350897
 10
-603.6001925989
 20
359.1257421858
 10
-603.9511709035
 20
359.2486501295
 10
-604.3659594157
 20
359.3654103136
 10
-604.8410193062
 20
359.4750265814
 10
-605.3722975315
 20
359.5765637255
 10
-605.9552614132
 20
359.6691554668
 10
-606.5849373088
 20
359.7520118452
 10
-607.2559530458
 20
359.8244259594
 10
-607.9625837544
 20
359.8857799975
 10
-608.6988007105
 20
359.9355505087
 10
-609.4583227707
 20
359.9733128684
 10
-610.2346699606
 20
359.9987449015
 10
-611.0212187597
 20
360.0116296309
 10
-611.8112586109
 20
360.0118571285
 10
-612.5980491728
 20
359.9994254536
 10
-613.3748778257
 20
359.9744406687
 10
-614.1351169415
 20
359.9371159352
 10
-614.8722804281
 20
359.8877696946
 10
-615.5800790665
 20
359.8268229516
 10
-616.2524741684
 20
359.7547956824
 10
-616.8837290957
 20
359.6723023981
 10
-617.468458204
 20
359.5800469024
 10
-618.0016727908
 20
359.4788162867
 10
-618.4788236572
 20
359.3694742149
 10
-618.8958399202
 20
359.252953555
 10
-619.2491637442
 20
359.1302484202
 10
-619.5357806947
 20
359.0024056874
 10
-619.7532454572
 20
358.8705160657
 10
-619.8997026988
 20
358.735704791
 10
-619.973902898
 20
358.5991220254
 10
-619.975213005
 20
358.4619330449
 10
-619.9036218423
 20
358.3253082977
 10
-619.7597402005
 20
358.1904134177
 10
-619.7361012399
 20
358.1732890219
  0
LWPOLYLINE
  5
19F
330
1F
100
AcDbEntity
  8
0
  6
Continuous
 62
     8
370
    25
100
AcDbPolyline
 90
       36
 70
   128
 43
0.0
 10
1046.8924309051
 20
336.296252969
 10
1046.6749661427
 20
336.4281425907
 10
1046.3883491921
 20
336.5559853235
 10
1046.0350253682
 20
336.6786904583
 10
1045.6180091052
 20
336.7952111182
 10
1045.1408582388
 20
336.90455319
 10
1044.607643652
 20
337.0057838057
 10
1044.0229145436
 20
337.0980393014
 10
1043.3916596163
 20
337.1805325857
 10
1042.7192645145
 20
337.2525598549
 10
1042.0114658761
 20
337.3135065979
 10
1041.2743023895
 20
337.3628528385
 10
1040.5140632737
 20
337.400177572
 10
1039.7372346207
 20
337.4251623569
 10
1038.9504440588
 20
337.4375940318
 10
1038.1604042076
 20
337.4373665342
 10
1037.3738554086
 20
337.4244818048
 10
1036.5975082187
 20
337.3990497717
 10
1035.8379861585
 20
337.361287412
 10
1035.1017692023
 20
337.3115169008
 10
1034.3951384938
 20
337.2501628626
 10
1033.7241227568
 20
337.1777487485
 10
1033.0944468612
 20
337.0948923701
 10
1032.5114829795
 20
337.0023006288
 10
1031.9802047542
 20
336.9007634847
 10
1031.5051448637
 20
336.7911472169
 10
1031.0903563514
 20
336.6743870328
 10
1030.7393780468
 20
336.5514790891
 10
1030.455204373
 20
336.423471993
 10
1030.2402597995
 20
336.291457856
 10
1030.0963781577
 20
336.156562976
 10
1030.024786995
 20
336.0199382287
 10
1030.026097102
 20
335.8827492483
 10
1030.1002973012
 20
335.7461664827
 10
1030.2467545428
 20
335.6113552079
 10
1030.2638987601
 20
335.5990259252
  0
LWPOLYLINE
  5
1A0
330
1F
100
AcDbEntity
  8
0
  6
Continuous
 62
     8
370
    25
100
AcDbPolyline
 90
        7
 70
   128
 43
0.0
 10
1046.8752866879
 20
335.5990259252
 10
1046.8989256485
 20
335.616150321
 10
1047.0428072903
 20
335.751045201
 10
1047.114398453
 20
335.8876699482
 10
1047.113088346
 20
336.0248589287
 10
1047.0388881467
 20
336.1614416943
 10
1046.8924309051
 20
336.296252969
  0
ELLIPSE
  5
1A1
330
1F
100
AcDbEntity
  8
0
  6
Continuous
 62
     8
370
    25
100
AcDbEllipse
 10
-633.430407276
 20
407.4486790735
 30
0.0
 11
0.9876483685978882
 21
2.999556355203367
 31
0.0
210
0.0
220
0.0
230
1.0
 40
0.0522366015
 41
1.413461380770588
 42
1.810020774840436
  0
ARC
  5
1A2
330
1F
100
AcDbEntity
  8
0
  6
Continuous
 62
     8
370
    25
100
AcDbCircle
 10
-634.4714423564
 20
406.467816538
 30
0.0
 40
1.958968892256148
100
AcDbArc
 50
180.1153895132
 51
231.3415983891
  0
ELLIPSE
  5
1A3
330
1F
100
AcDbEntity
  8
0
  6
Continuous
 62
     8
370
    25
100
AcDbEllipse
 10
-589.430407276
 20
407.4486790735
 30
0.0
 11
-0.9876483685978882
 21
2.999556355203367
 31
0.0
210
0.0
220
0.0
230
1.0
 40
0.0522366015
 41
4.601640833782204
 42
4.869723926408888
  0
ELLIPSE
  5
1A4
330
1F
100
AcDbEntity
  8
0
  6
Continuous
 62
     8
370
    25
100
AcDbEllipse
 10
-589.430407276
 20
407.4486790735
 30
0.0
 11
2.995834705233278
 21
-1.010882551693101
 31
0.0
210
0.0
220
0.0
230
1.0
 40
0.1563316802
 41
0.8826651800492947
 42
1.623498376058536
  0
ELLIPSE
  5
1A5
330
1F
100
AcDbEntity
  8
0
  6
Continuous
 62
     8
370
    25
100
AcDbEllipse
 10
-633.430407276
 20
426.1600263807
 30
0.0
 11
-0.9876483685978882
 21
2.999556355203367
 31
0.0
210
0.0
220
0.0
230
1.0
 40
0.0522366015
 41
4.869723926408989
 42
6.265459902686693
  0
ELLIPSE
  5
1A6
330
1F
100
AcDbEntity
  8
0
  6
Continuous
 62
     8
370
    25
100
AcDbEllipse
 10
-589.430407276
 20
426.1600263807
 30
0.0
 11
0.9876483685978883
 21
2.999556355203425
 31
0.0
210
0.0
220
0.0
230
1.0
 40
0.0522366015
 41
0.0176397171367186
 42
1.413461380770689
  0
ELLIPSE
  5
1A7
330
1F
100
AcDbEntity
  8
0
  6
Continuous
 62
     8
370
    25
100
AcDbEllipse
 10
1016.569592724
 20
407.4486790735
 30
0.0
 11
2.995834705233278
 21
1.010882551693157
 31
0.0
210
0.0
220
0.0
230
1.0
 40
0.1563316802
 41
1.518094277531252
 42
2.258927473540468
  0
ELLIPSE
  5
1A8
330
1F
100
AcDbEntity
  8
0
  6
Continuous
 62
     8
370
    25
100
AcDbEllipse
 10
1016.569592724
 20
407.4486790735
 30
0.0
 11
0.9876483685980021
 21
2.999556355203367
 31
0.0
210
0.0
220
0.0
230
1.0
 40
0.0522366015
 41
1.413461380770422
 42
1.681544473397668
  0
ELLIPSE
  5
1A9
330
1F
100
AcDbEntity
  8
0
  6
Continuous
 62
     8
370
    25
100
AcDbEllipse
 10
1060.569592724
 20
407.4486790735
 30
0.0
 11
-0.9876483685977746
 21
2.999556355203367
 31
0.0
210
0.0
220
0.0
230
1.0
 40
0.0522366015
 41
4.473164532339013
 42
4.869723926409328
  0
ARC
  5
1AA
330
1F
100
AcDbEntity
  8
0
  6
Continuous
 62
     8
370
    25
100
AcDbCircle
 10
1061.6091966278
 20
406.4685061936
 30
0.0
 40
1.960401575151182
100
AcDbArc
 50
308.6784735863
 51
359.8645385114
  0
ELLIPSE
  5
1AB
330
1F
100
AcDbEntity
  8
0
  6
Continuous
 62
     8
370
    25
100
AcDbEllipse
 10
1016.569592724
 20
426.1600263807
 30
0.0
 11
-0.9876483685977746
 21
2.999556355203367
 31
0.0
210
0.0
220
0.0
230
1.0
 40
0.0522366015
 41
4.869723926409227
 42
6.265987328003366
  0
ELLIPSE
  5
1AC
330
1F
100
AcDbEntity
  8
0
  6
Continuous
 62
     8
370
    25
100
AcDbEllipse
 10
1060.569592724
 20
426.1600263807
 30
0.0
 11
0.9876483685980021
 21
2.999556355203367
 31
0.0
210
0.0
220
0.0
230
1.0
 40
0.0522366015
 41
0.0171979791738545
 42
1.413461380770321
  0
ARC
  5
1AD
330
1F
100
AcDbEntity
  8
0
  6
Continuous
 62
     8
370
    25
100
AcDbCircle
 10
1038.5695922168
 20
411.9318247429
 30
0.0
 40
21.82472957736776
100
AcDbArc
 50
74.2587162117
 51
105.7412776586
  0
LWPOLYLINE
  5
1AE
330
1F
100
AcDbEntity
  8
0
  6
Continuous
 62
     8
370
    25
100
AcDbPolyline
 90
       28
 70
   128
 43
0.0
 10
1044.6511993017
 20
434.9384002278
 10
1044.4597461404
 20
435.0511135176
 10
1044.1992363156
 20
435.1595716073
 10
1043.872724067
 20
435.2625029248
 10
1043.4840374521
 20
435.3587006946
 10
1043.0377334661
 20
435.4470370859
 10
1042.5390446151
 20
435.5264764352
 10
1041.99381757
 20
435.5960873887
 10
1041.4084446194
 20
435.6550538217
 10
1040.7897887259
 20
435.7026844067
 10
1040.1451030642
 20
435.7384207186
 10
1039.4819459843
 20
435.7618437818
 10
1038.8080923966
 20
435.7726789823
 10
1038.1314426183
 20
435.7707992873
 10
1037.4599297494
 20
435.7562267346
 10
1036.8014266642
 20
435.7291321738
 10
1036.1636537095
 20
435.6898332642
 10
1035.55408819
 20
435.6387907493
 10
1034.979876704
 20
435.576603056
 10
1034.4477513562
 20
435.5039992782
 10
1033.9639508298
 20
435.4218306288
 10
1033.5341472437
 20
435.33106046
 10
1033.1633796519
 20
435.2327529691
 10
1032.8559949654
 20
435.1280607216
 10
1032.6155969886
 20
435.0182111383
 10
1032.445004168
 20
434.9044921052
 10
1032.3462165485
 20
434.7882368739
 10
1032.319592724
 20
434.6881683575
  0
ARC
  5
1AF
330
1F
100
AcDbEntity
  8
0
  6
Continuous
 62
     8
370
    25
100
AcDbCircle
 10
1044.5132858929
 20
434.6638153894
 30
0.0
 40
0.3072733991290157
100
AcDbArc
 50
4.5457471852
 51
63.331380437
  0
ARC
  5
1B0
330
1F
100
AcDbEntity
  8
0
  6
Continuous
 62
     8
370
    25
100
AcDbCircle
 10
-611.4304072759
 20
411.9311040956
 30
0.0
 40
21.82544266051708
100
AcDbArc
 50
74.2594847837
 51
105.7405152172
  0
LWPOLYLINE
  5
1B1
330
1F
100
AcDbEntity
  8
0
  6
Continuous
 62
     8
370
    25
100
AcDbPolyline
 90
       31
 70
   128
 43
0.0
 10
-605.180407276
 20
434.6881683575
 10
-605.2070311005
 20
434.7882368739
 10
-605.30581872
 20
434.9044921052
 10
-605.4764115406
 20
435.0182111383
 10
-605.7168095174
 20
435.1280607216
 10
-606.0241942039
 20
435.2327529691
 10
-606.3949617957
 20
435.33106046
 10
-606.8247653819
 20
435.4218306288
 10
-607.3085659082
 20
435.5039992782
 10
-607.840691256
 20
435.576603056
 10
-608.414902742
 20
435.6387907493
 10
-609.0244682615
 20
435.6898332642
 10
-609.6622412163
 20
435.7291321738
 10
-610.3207443014
 20
435.7562267346
 10
-610.9922571703
 20
435.7707992873
 10
-611.6689069486
 20
435.7726789823
 10
-612.3427605364
 20
435.7618437818
 10
-613.0059176163
 20
435.7384207186
 10
-613.6506032779
 20
435.7026844067
 10
-614.2692591714
 20
435.6550538217
 10
-614.854632122
 20
435.5960873887
 10
-615.3998591671
 20
435.5264764352
 10
-615.8985480181
 20
435.4470370859
 10
-616.3448520041
 20
435.3587006946
 10
-616.733538619
 20
435.2625029248
 10
-617.0600508677
 20
435.1595716073
 10
-617.3205606924
 20
435.0511135176
 10
-617.5120138537
 20
434.9384002278
 10
-617.6321657384
 20
434.8227531982
 10
-617.6796076755
 20
434.7055282843
 10
-617.680407276
 20
434.6881683575
  0
ENDSEC
  0
SECTION
  2
OBJECTS
  0
DICTIONARY
  5
C
330
0
100
AcDbDictionary
281
     1
  3
ACAD_GROUP
350
D
  3
ACAD_LAYOUT
350
1A
  3
ACAD_MLINESTYLE
350
17
  3
ACAD_PLOTSETTINGS
350
19
  3
ACAD_PLOTSTYLENAME
350
E
  3
ACAD_SCALELIST
350
47
  3
DWGPROPS
350
1B2
  0
DICTIONARY
  5
D
102
{ACAD_REACTORS
330
C
102
}
330
C
100
AcDbDictionary
281
     1
  0
DICTIONARY
  5
1A
102
{ACAD_REACTORS
330
C
102
}
330
C
100
AcDbDictionary
281
     1
  3
Layout1
350
1E
  3
Layout2
350
26
  3
Model
350
22
  0
DICTIONARY
  5
17
102
{ACAD_REACTORS
330
C
102
}
330
C
100
AcDbDictionary
281
     1
  3
Standard
350
18
  0
DICTIONARY
  5
19
102
{ACAD_REACTORS
330
C
102
}
330
C
100
AcDbDictionary
281
     1
  0
ACDBDICTIONARYWDFLT
  5
E
102
{ACAD_REACTORS
330
C
102
}
330
C
100
AcDbDictionary
281
     1
  3
Normal
350
F
100
AcDbDictionaryWithDefault
340
F
  0
DICTIONARY
  5
47
102
{ACAD_REACTORS
330
C
102
}
330
C
100
AcDbDictionary
281
     1
  3
A0
350
48
  3
A1
350
49
  3
A2
350
4A
  3
A3
350
4B
  3
A4
350
4C
  3
A5
350
4D
  3
A6
350
4E
  3
A7
350
4F
  3
A8
350
50
  3
A9
350
51
  3
B0
350
52
  3
B1
350
53
  3
B2
350
54
  3
B3
350
55
  3
B4
350
56
  3
B5
350
57
  3
B6
350
58
  3
B7
350
59
  3
B8
350
5A
  3
B9
350
5B
  3
C0
350
5C
  3
C1
350
5D
  3
C2
350
5E
  3
C3
350
5F
  3
C4
350
60
  3
C5
350
61
  3
C6
350
62
  3
C7
350
63
  3
C8
350
64
  3
C9
350
65
  3
D0
350
66
  3
D1
350
67
  3
D2
350
68
  0
XRECORD
  5
1B2
102
{ACAD_REACTORS
330
C
102
}
330
C
100
AcDbXrecord
280
     1
  1
DWGPROPS COOKIE
  2

  3

  4

  6

  7

  8
Swing
  9

300
=
301
=
302
=
303
=
304
=
305
=
306
=
307
=
308
=
309
=
 40
0.0
 41
2459559.412211007
 42
2459559.41221125
  1

 90
        0
  0
LAYOUT
  5
1E
102
{ACAD_REACTORS
330
1A
102
}
330
1A
100
AcDbPlotSettings
  1

  2
none_device
  4

  6

 40
0.0
 41
0.0
 42
0.0
 43
0.0
 44
0.0
 45
0.0
 46
0.0
 47
0.0
 48
0.0
 49
0.0
140
0.0
141
0.0
142
1.0
143
1.0
 70
   688
 72
     1
 73
     0
 74
     5
  7

 75
    16
147
1.0
148
0.0
149
0.0
100
AcDbLayout
  1
Layout1
 70
     1
 71
     1
 10
0.0
 20
0.0
 11
420.0
 21
297.0
 12
0.0
 22
0.0
 32
0.0
 14
1.0000000000E+20
 24
1.0000000000E+20
 34
1.0000000000E+20
 15
-1.0000000000E+20
 25
-1.0000000000E+20
 35
-1.0000000000E+20
146
0.0
 13
0.0
 23
0.0
 33
0.0
 16
1.0
 26
0.0
 36
0.0
 17
0.0
 27
1.0
 37
0.0
 76
     0
330
1B
  0
LAYOUT
  5
26
102
{ACAD_REACTORS
330
1A
102
}
330
1A
100
AcDbPlotSettings
  1

  2
none_device
  4

  6

 40
0.0
 41
0.0
 42
0.0
 43
0.0
 44
0.0
 45
0.0
 46
0.0
 47
0.0
 48
0.0
 49
0.0
140
0.0
141
0.0
142
1.0
143
1.0
 70
   688
 72
     1
 73
     0
 74
     5
  7

 75
    16
147
1.0
148
0.0
149
0.0
100
AcDbLayout
  1
Layout2
 70
     1
 71
     2
 10
0.0
 20
0.0
 11
0.0
 21
0.0
 12
0.0
 22
0.0
 32
0.0
 14
0.0
 24
0.0
 34
0.0
 15
0.0
 25
0.0
 35
0.0
146
0.0
 13
0.0
 23
0.0
 33
0.0
 16
1.0
 26
0.0
 36
0.0
 17
0.0
 27
1.0
 37
0.0
 76
     0
330
23
  0
LAYOUT
  5
22
102
{ACAD_REACTORS
330
1A
102
}
330
1A
100
AcDbPlotSettings
  1

  2
none_device
  4
Letter_(8.50_x_11.00_Inches)
  6

 40
6.35
 41
6.35
 42
6.35000508
 43
6.35000508
 44
215.9
 45
279.4
 46
0.0
 47
0.0
 48
0.0
 49
0.0
140
0.0
141
0.0
142
1.0
143
1.0
 70
  1712
 72
     1
 73
     0
 74
     0
  7

 75
     0
147
1.0
148
0.0
149
0.0
100
AcDbLayout
  1
Model
 70
     1
 71
     0
 10
0.0
 20
0.0
 11
431.8
 21
279.4
 12
0.0
 22
0.0
 32
0.0
 14
0.0
 24
0.0
 34
0.0
 15
431.8
 25
279.4
 35
0.0
146
0.0
 13
0.0
 23
0.0
 33
0.0
 16
1.0
 26
0.0
 36
0.0
 17
0.0
 27
1.0
 37
0.0
 76
     0
330
1F
331
29
  0
MLINESTYLE
  5
18
102
{ACAD_REACTORS
330
17
102
}
330
17
100
AcDbMlineStyle
  2
Standard
 70
     0
  3

 62
   256
 51
90.0
 52
90.0
 71
     2
 49
0.5
 62
   256
  6
BYLAYER
 49
-0.5
 62
   256
  6
BYLAYER
  0
ACDBPLACEHOLDER
  5
F
102
{ACAD_REACTORS
330
E
102
}
330
E
  0
SCALE
  5
48
102
{ACAD_REACTORS
330
47
102
}
330
47
100
AcDbScale
 70
     0
300
1:1
140
1.0
141
1.0
290
     1
  0
SCALE
  5
49
102
{ACAD_REACTORS
330
47
102
}
330
47
100
AcDbScale
 70
     0
300
1:2
140
1.0
141
2.0
290
     0
  0
SCALE
  5
4A
102
{ACAD_REACTORS
330
47
102
}
330
47
100
AcDbScale
 70
     0
300
1:4
140
1.0
141
4.0
290
     0
  0
SCALE
  5
4B
102
{ACAD_REACTORS
330
47
102
}
330
47
100
AcDbScale
 70
     0
300
1:5
140
1.0
141
5.0
290
     0
  0
SCALE
  5
4C
102
{ACAD_REACTORS
330
47
102
}
330
47
100
AcDbScale
 70
     0
300
1:8
140
1.0
141
8.0
290
     0
  0
SCALE
  5
4D
102
{ACAD_REACTORS
330
47
102
}
330
47
100
AcDbScale
 70
     0
300
1:10
140
1.0
141
10.0
290
     0
  0
SCALE
  5
4E
102
{ACAD_REACTORS
330
47
102
}
330
47
100
AcDbScale
 70
     0
300
1:16
140
1.0
141
16.0
290
     0
  0
SCALE
  5
4F
102
{ACAD_REACTORS
330
47
102
}
330
47
100
AcDbScale
 70
     0
300
1:20
140
1.0
141
20.0
290
     0
  0
SCALE
  5
50
102
{ACAD_REACTORS
330
47
102
}
330
47
100
AcDbScale
 70
     0
300
1:30
140
1.0
141
30.0
290
     0
  0
SCALE
  5
51
102
{ACAD_REACTORS
330
47
102
}
330
47
100
AcDbScale
 70
     0
300
1:40
140
1.0
141
40.0
290
     0
  0
SCALE
  5
52
102
{ACAD_REACTORS
330
47
102
}
330
47
100
AcDbScale
 70
     0
300
1:50
140
1.0
141
50.0
290
     0
  0
SCALE
  5
53
102
{ACAD_REACTORS
330
47
102
}
330
47
100
AcDbScale
 70
     0
300
1:100
140
1.0
141
100.0
290
     0
  0
SCALE
  5
54
102
{ACAD_REACTORS
330
47
102
}
330
47
100
AcDbScale
 70
     0
300
2:1
140
2.0
141
1.0
290
     0
  0
SCALE
  5
55
102
{ACAD_REACTORS
330
47
102
}
330
47
100
AcDbScale
 70
     0
300
4:1
140
4.0
141
1.0
290
     0
  0
SCALE
  5
56
102
{ACAD_REACTORS
330
47
102
}
330
47
100
AcDbScale
 70
     0
300
8:1
140
8.0
141
1.0
290
     0
  0
SCALE
  5
57
102
{ACAD_REACTORS
330
47
102
}
330
47
100
AcDbScale
 70
     0
300
10:1
140
10.0
141
1.0
290
     0
  0
SCALE
  5
58
102
{ACAD_REACTORS
330
47
102
}
330
47
100
AcDbScale
 70
     0
300
100:1
140
100.0
141
1.0
290
     0
  0
SCALE
  5
59
102
{ACAD_REACTORS
330
47
102
}
330
47
100
AcDbScale
 70
     0
300
1/128" = 1'-0"
140
0.0078125
141
12.0
290
     0
  0
SCALE
  5
5A
102
{ACAD_REACTORS
330
47
102
}
330
47
100
AcDbScale
 70
     0
300
1/64" = 1'-0"
140
0.015625
141
12.0
290
     0
  0
SCALE
  5
5B
102
{ACAD_REACTORS
330
47
102
}
330
47
100
AcDbScale
 70
     0
300
1/32" = 1'-0"
140
0.03125
141
12.0
290
     0
  0
SCALE
  5
5C
102
{ACAD_REACTORS
330
47
102
}
330
47
100
AcDbScale
 70
     0
300
1/16" = 1'-0"
140
0.0625
141
12.0
290
     0
  0
SCALE
  5
5D
102
{ACAD_REACTORS
330
47
102
}
330
47
100
AcDbScale
 70
     0
300
3/32" = 1'-0"
140
0.09375
141
12.0
290
     0
  0
SCALE
  5
5E
102
{ACAD_REACTORS
330
47
102
}
330
47
100
AcDbScale
 70
     0
300
1/8" = 1'-0"
140
0.125
141
12.0
290
     0
  0
SCALE
  5
5F
102
{ACAD_REACTORS
330
47
102
}
330
47
100
AcDbScale
 70
     0
300
3/16" = 1'-0"
140
0.1875
141
12.0
290
     0
  0
SCALE
  5
60
102
{ACAD_REACTORS
330
47
102
}
330
47
100
AcDbScale
 70
     0
300
1/4" = 1'-0"
140
0.25
141
12.0
290
     0
  0
SCALE
  5
61
102
{ACAD_REACTORS
330
47
102
}
330
47
100
AcDbScale
 70
     0
300
3/8" = 1'-0"
140
0.375
141
12.0
290
     0
  0
SCALE
  5
62
102
{ACAD_REACTORS
330
47
102
}
330
47
100
AcDbScale
 70
     0
300
1/2" = 1'-0"
140
0.5
141
12.0
290
     0
  0
SCALE
  5
63
102
{ACAD_REACTORS
330
47
102
}
330
47
100
AcDbScale
 70
     0
300
3/4" = 1'-0"
140
0.75
141
12.0
290
     0
  0
SCALE
  5
64
102
{ACAD_REACTORS
330
47
102
}
330
47
100
AcDbScale
 70
     0
300
1" = 1'-0"
140
1.0
141
12.0
290
     0
  0
SCALE
  5
65
102
{ACAD_REACTORS
330
47
102
}
330
47
100
AcDbScale
 70
     0
300
1-1/2" = 1'-0"
140
1.5
141
12.0
290
     0
  0
SCALE
  5
66
102
{ACAD_REACTORS
330
47
102
}
330
47
100
AcDbScale
 70
     0
300
3" = 1'-0"
140
3.0
141
12.0
290
     0
  0
SCALE
  5
67
102
{ACAD_REACTORS
330
47
102
}
330
47
100
AcDbScale
 70
     0
300
6" = 1'-0"
140
6.0
141
12.0
290
     0
  0
SCALE
  5
68
102
{ACAD_REACTORS
330
47
102
}
330
47
100
AcDbScale
 70
     0
300
1'-0" = 1'-0"
140
12.0
141
12.0
290
     0
  0
ENDSEC
  0
EOF
