  0
SECTION
  2
HEADER
  9
$ACADVER
  1
AC1015
  9
$ACADMAINTVER
 70
     6
  9
$DWGCODEPAGE
  3
ANSI_1250
  9
$INSBASE
 10
0.0
 20
0.0
 30
0.0
  9
$EXTMIN
 10
0.0
 20
0.0
 30
0.0
  9
$EXTMAX
 10
431.8
 20
279.4
 30
0.0
  9
$LIMMIN
 10
0.0
 20
0.0
  9
$LIMMAX
 10
431.8
 20
279.4
  9
$ORTHOMODE
 70
     0
  9
$REGENMODE
 70
     1
  9
$FILLMODE
 70
     1
  9
$QTEXTMODE
 70
     0
  9
$MIRRTEXT
 70
     1
  9
$LTSCALE
 40
1.0
  9
$ATTMODE
 70
     1
  9
$TEXTSIZE
 40
3.8805555556
  9
$TRACEWID
 40
1.0
  9
$TEXTSTYLE
  7
Standard
  9
$CLAYER
  8
0
  9
$CELTYPE
  6
ByLayer
  9
$CECOLOR
 62
   256
  9
$CELTSCALE
 40
1.0
  9
$DISPSILH
 70
     0
  9
$DIMSCALE
 40
1.0
  9
$DIMASZ
 40
3.302
  9
$DIMEXO
 40
1.0
  9
$DIMDLI
 40
3.75
  9
$DIMRND
 40
0.0
  9
$DIMDLE
 40
0.0
  9
$DIMEXE
 40
1.0
  9
$DIMTP
 40
0.0
  9
$DIMTM
 40
0.0
  9
$DIMTXT
 40
3.8805555556
  9
$DIMCEN
 40
2.5
  9
$DIMTSZ
 40
0.0
  9
$DIMTOL
 70
     0
  9
$DIMLIM
 70
     0
  9
$DIMTIH
 70
     1
  9
$DIMTOH
 70
     1
  9
$DIMSE1
 70
     0
  9
$DIMSE2
 70
     0
  9
$DIMTAD
 70
     1
  9
$DIMZIN
 70
     0
  9
$DIMBLK
  1

  9
$DIMASO
 70
     1
  9
$DIMSHO
 70
     1
  9
$DIMPOST
  1

  9
$DIMAPOST
  1

  9
$DIMALT
 70
     0
  9
$DIMALTD
 70
     3
  9
$DIMALTF
 40
0.0393700787
  9
$DIMLFAC
 40
1.0
  9
$DIMTOFL
 70
     1
  9
$DIMTVP
 40
0.0
  9
$DIMTIX
 70
     0
  9
$DIMSOXD
 70
     0
  9
$DIMSAH
 70
     0
  9
$DIMBLK1
  1

  9
$DIMBLK2
  1

  9
$DIMSTYLE
  2
ISO-25
  9
$DIMCLRD
 70
     0
  9
$DIMCLRE
 70
     0
  9
$DIMCLRT
 70
     0
  9
$DIMTFAC
 40
1.0
  9
$DIMGAP
 40
1.524
  9
$DIMJUST
 70
     0
  9
$DIMSD1
 70
     0
  9
$DIMSD2
 70
     0
  9
$DIMTOLJ
 70
     0
  9
$DIMTZIN
 70
     0
  9
$DIMALTZ
 70
     0
  9
$DIMALTTZ
 70
     0
  9
$DIMUPT
 70
     0
  9
$DIMDEC
 70
     1
  9
$DIMTDEC
 70
     1
  9
$DIMALTU
 70
     2
  9
$DIMALTTD
 70
     3
  9
$DIMTXSTY
  7
Standard
  9
$DIMAUNIT
 70
     0
  9
$DIMADEC
 70
     1
  9
$DIMALTRND
 40
0.0
  9
$DIMAZIN
 70
     0
  9
$DIMDSEP
 70
    44
  9
$DIMATFIT
 70
     3
  9
$DIMFRAC
 70
     0
  9
$DIMLDRBLK
  1

  9
$DIMLUNIT
 70
     2
  9
$DIMLWD
 70
    -2
  9
$DIMLWE
 70
    -2
  9
$DIMTMOVE
 70
     0
  9
$LUNITS
 70
     2
  9
$LUPREC
 70
     1
  9
$SKETCHINC
 40
1.0
  9
$FILLETRAD
 40
10.0
  9
$AUNITS
 70
     0
  9
$AUPREC
 70
     1
  9
$MENU
  1
.
  9
$ELEVATION
 40
0.0
  9
$PELEVATION
 40
0.0
  9
$THICKNESS
 40
0.0
  9
$LIMCHECK
 70
     0
  9
$CHAMFERA
 40
0.0
  9
$CHAMFERB
 40
0.0
  9
$CHAMFERC
 40
0.0
  9
$CHAMFERD
 40
0.0
  9
$SKPOLY
 70
     0
  9
$TDCREATE
 40
2459698.302050405
  9
$TDUCREATE
 40
2459698.218717072
  9
$TDUPDATE
 40
2459698.302050775
  9
$TDUUPDATE
 40
2459698.218717442
  9
$TDINDWG
 40
0.0000000116
  9
$TDUSRTIMER
 40
0.0000000116
  9
$USRTIMER
 70
     1
  9
$ANGBASE
 50
0.0
  9
$ANGDIR
 70
     0
  9
$PDMODE
 70
     0
  9
$PDSIZE
 40
-1.0
  9
$PLINEWID
 40
0.0
  9
$SPLFRAME
 70
     0
  9
$SPLINETYPE
 70
     6
  9
$SPLINESEGS
 70
     8
  9
$HANDSEED
  5
1C4
  9
$SURFTAB1
 70
     6
  9
$SURFTAB2
 70
     6
  9
$SURFTYPE
 70
     6
  9
$SURFU
 70
     6
  9
$SURFV
 70
     6
  9
$UCSBASE
  2

  9
$UCSNAME
  2

  9
$UCSORG
 10
0.0
 20
0.0
 30
0.0
  9
$UCSXDIR
 10
1.0
 20
0.0
 30
0.0
  9
$UCSYDIR
 10
0.0
 20
1.0
 30
0.0
  9
$UCSORTHOREF
  2

  9
$UCSORTHOVIEW
 70
     0
  9
$UCSORGTOP
 10
0.0
 20
0.0
 30
0.0
  9
$UCSORGBOTTOM
 10
0.0
 20
0.0
 30
0.0
  9
$UCSORGLEFT
 10
0.0
 20
0.0
 30
0.0
  9
$UCSORGRIGHT
 10
0.0
 20
0.0
 30
0.0
  9
$UCSORGFRONT
 10
0.0
 20
0.0
 30
0.0
  9
$UCSORGBACK
 10
0.0
 20
0.0
 30
0.0
  9
$PUCSBASE
  2

  9
$PUCSNAME
  2

  9
$PUCSORG
 10
0.0
 20
0.0
 30
0.0
  9
$PUCSXDIR
 10
1.0
 20
0.0
 30
0.0
  9
$PUCSYDIR
 10
0.0
 20
1.0
 30
0.0
  9
$PUCSORTHOREF
  2

  9
$PUCSORTHOVIEW
 70
     0
  9
$PUCSORGTOP
 10
0.0
 20
0.0
 30
0.0
  9
$PUCSORGBOTTOM
 10
0.0
 20
0.0
 30
0.0
  9
$PUCSORGLEFT
 10
0.0
 20
0.0
 30
0.0
  9
$PUCSORGRIGHT
 10
0.0
 20
0.0
 30
0.0
  9
$PUCSORGFRONT
 10
0.0
 20
0.0
 30
0.0
  9
$PUCSORGBACK
 10
0.0
 20
0.0
 30
0.0
  9
$USERI1
 70
     0
  9
$USERI2
 70
     0
  9
$USERI3
 70
     0
  9
$USERI4
 70
     0
  9
$USERI5
 70
     0
  9
$USERR1
 40
0.0
  9
$USERR2
 40
0.0
  9
$USERR3
 40
0.0
  9
$USERR4
 40
0.0
  9
$USERR5
 40
0.0
  9
$WORLDVIEW
 70
     1
  9
$SHADEDGE
 70
     3
  9
$SHADEDIF
 70
    70
  9
$TILEMODE
 70
     1
  9
$MAXACTVP
 70
    64
  9
$PINSBASE
 10
0.0
 20
0.0
 30
0.0
  9
$PLIMCHECK
 70
     0
  9
$PEXTMIN
 10
1.0000000000E+20
 20
1.0000000000E+20
 30
1.0000000000E+20
  9
$PEXTMAX
 10
-1.0000000000E+20
 20
-1.0000000000E+20
 30
-1.0000000000E+20
  9
$PLIMMIN
 10
0.0
 20
0.0
  9
$PLIMMAX
 10
420.0
 20
297.0
  9
$UNITMODE
 70
     0
  9
$VISRETAIN
 70
     1
  9
$PLINEGEN
 70
     0
  9
$PSLTSCALE
 70
     1
  9
$TREEDEPTH
 70
  3020
  9
$CMLSTYLE
  2
Standard
  9
$CMLJUST
 70
     0
  9
$CMLSCALE
 40
20.0
  9
$PROXYGRAPHICS
 70
     1
  9
$MEASUREMENT
 70
     1
  9
$CELWEIGHT
370
    -1
  9
$ENDCAPS
280
     0
  9
$JOINSTYLE
280
     0
  9
$LWDISPLAY
290
     1
  9
$INSUNITS
 70
     4
  9
$HYPERLINKBASE
  1

  9
$STYLESHEET
  1

  9
$XEDIT
290
     1
  9
$CEPSNTYPE
380
     0
  9
$PSTYLEMODE
290
     1
  9
$FINGERPRINTGUID
  2
{ec4843da-478f-4873-9e94-7460b2c56fca}
  9
$VERSIONGUID
  2
{FAEB1C32-E019-11D5-929B-00C0DF256EC4}
  9
$EXTNAMES
290
     1
  9
$PSVPSCALE
 40
0.0
  9
$OLESTARTUP
290
     0
  0
ENDSEC
  0
SECTION
  2
CLASSES
  0
CLASS
  1
ACDBDICTIONARYWDFLT
  2
AcDbDictionaryWithDefault
  3
ObjectDBX Classes
 90
        0
280
     0
281
     0
  0
CLASS
  1
VISUALSTYLE
  2
AcDbVisualStyle
  3
ObjectDBX Classes
 90
     4095
280
     0
281
     0
  0
CLASS
  1
MATERIAL
  2
AcDbMaterial
  3
ObjectDBX Classes
 90
     1153
280
     0
281
     0
  0
CLASS
  1
SCALE
  2
AcDbScale
  3
ObjectDBX Classes
 90
     1153
280
     0
281
     0
  0
CLASS
  1
TABLESTYLE
  2
AcDbTableStyle
  3
ObjectDBX Classes
 90
     4095
280
     0
281
     0
  0
CLASS
  1
MLEADERSTYLE
  2
AcDbMLeaderStyle
  3
ACDB_MLEADERSTYLE_CLASS
 90
     4095
280
     0
281
     0
  0
CLASS
  1
SUN
  2
AcDbSun
  3
SCENEOE
 90
     1153
280
     0
281
     0
  0
CLASS
  1
ACDBPLACEHOLDER
  2
AcDbPlaceHolder
  3
ObjectDBX Classes
 90
        0
280
     0
281
     0
  0
CLASS
  1
LAYOUT
  2
AcDbLayout
  3
ObjectDBX Classes
 90
        0
280
     0
281
     0
  0
ENDSEC
  0
SECTION
  2
TABLES
  0
TABLE
  2
VPORT
  5
8
330
0
100
AcDbSymbolTable
 70
     1
  0
VPORT
  5
29
330
8
100
AcDbSymbolTableRecord
100
AcDbViewportTableRecord
  2
*Active
 70
     0
 10
0.0
 20
0.0
 11
1.0
 21
1.0
 12
215.9
 22
139.7
 13
0.0
 23
0.0
 14
10.0
 24
10.0
 15
10.0
 25
10.0
 16
0.0
 26
0.0
 36
1.0
 17
0.0
 27
0.0
 37
0.0
 40
279.4
 41
1.5454545455
 42
50.0
 43
0.0
 44
0.0
 50
0.0
 51
0.0
 71
     0
 72
  2000
 73
     1
 74
     3
 75
     0
 76
     0
 77
     0
 78
     0
281
     0
 65
     1
110
0.0
120
0.0
130
0.0
111
1.0
121
0.0
131
0.0
112
0.0
122
1.0
132
0.0
 79
     0
146
0.0
  0
ENDTAB
  0
TABLE
  2
LTYPE
  5
5
330
0
100
AcDbSymbolTable
 70
     6
  0
LTYPE
  5
14
330
5
100
AcDbSymbolTableRecord
100
AcDbLinetypeTableRecord
  2
ByBlock
 70
     0
  3

 72
    65
 73
     0
 40
0.0
  0
LTYPE
  5
15
330
5
100
AcDbSymbolTableRecord
100
AcDbLinetypeTableRecord
  2
ByLayer
 70
     0
  3

 72
    65
 73
     0
 40
0.0
  0
LTYPE
  5
16
330
5
100
AcDbSymbolTableRecord
100
AcDbLinetypeTableRecord
  2
Continuous
 70
     0
  3
Solid line
 72
    65
 73
     0
 40
0.0
  0
LTYPE
  5
6E
330
5
100
AcDbSymbolTableRecord
100
AcDbLinetypeTableRecord
  2
HIDDEN
 70
     0
  3
Hidden __ __ __ __ __ __ __ __ __ __ __ __ __ __
 72
    65
 73
     2
 40
1.905
 49
1.27
 74
     0
 49
-0.635
 74
     0
  0
LTYPE
  5
6F
330
5
100
AcDbSymbolTableRecord
100
AcDbLinetypeTableRecord
  2
PHANTOM
 70
     0
  3
Phantom ______  __  __  ______  __  __  ______
 72
    65
 73
     6
 40
12.7
 49
6.35
 74
     0
 49
-1.27
 74
     0
 49
1.27
 74
     0
 49
-1.27
 74
     0
 49
1.27
 74
     0
 49
-1.27
 74
     0
  0
LTYPE
  5
70
330
5
100
AcDbSymbolTableRecord
100
AcDbLinetypeTableRecord
  2
CENTER
 70
     0
  3
Center ____ _ ____ _ ____ _ ____ _ ____ _ ____
 72
    65
 73
     4
 40
10.16
 49
6.35
 74
     0
 49
-1.27
 74
     0
 49
1.27
 74
     0
 49
-1.27
 74
     0
  0
LTYPE
  5
71
330
5
100
AcDbSymbolTableRecord
100
AcDbLinetypeTableRecord
  2
CENTERX2
 70
     0
  3
Center (2x) ________  __  ________  __  _____
 72
    65
 73
     4
 40
20.32
 49
12.7
 74
     0
 49
-2.54
 74
     0
 49
2.54
 74
     0
 49
-2.54
 74
     0
  0
LTYPE
  5
72
330
5
100
AcDbSymbolTableRecord
100
AcDbLinetypeTableRecord
  2
DOT2
 70
     0
  3
Dot (.5x) ........................................
 72
    65
 73
     2
 40
0.635
 49
0.0
 74
     0
 49
-0.635
 74
     0
  0
ENDTAB
  0
TABLE
  2
LAYER
  5
2
330
0
100
AcDbSymbolTable
 70
     3
  0
LAYER
  5
10
330
2
100
AcDbSymbolTableRecord
100
AcDbLayerTableRecord
  2
0
 70
     0
 62
     7
  6
Continuous
370
    -3
390
F
  0
LAYER
  5
73
330
2
100
AcDbSymbolTableRecord
100
AcDbLayerTableRecord
  2
FRAME_&_TABLE
 70
     0
 62
     8
  6
Continuous
370
    50
390
F
  0
LAYER
  5
74
330
2
100
AcDbSymbolTableRecord
100
AcDbLayerTableRecord
  2
DIMENSIONS
 70
     0
 62
     7
  6
Continuous
370
    -3
390
F
  0
ENDTAB
  0
TABLE
  2
STYLE
  5
3
330
0
100
AcDbSymbolTable
 70
     1
  0
STYLE
  5
11
330
3
100
AcDbSymbolTableRecord
100
AcDbTextStyleTableRecord
  2
Standard
 70
     0
 40
0.0
 41
1.0
 50
0.0
 71
     0
 42
3.8805555556
  3
txt
  4

  0
ENDTAB
  0
TABLE
  2
VIEW
  5
6
330
0
100
AcDbSymbolTable
 70
     0
  0
ENDTAB
  0
TABLE
  2
UCS
  5
7
330
0
100
AcDbSymbolTable
 70
     0
  0
ENDTAB
  0
TABLE
  2
APPID
  5
9
330
0
100
AcDbSymbolTable
 70
     1
  0
APPID
  5
12
330
9
100
AcDbSymbolTableRecord
100
AcDbRegAppTableRecord
  2
ACAD
 70
     0
  0
ENDTAB
  0
TABLE
  2
DIMSTYLE
  5
A
330
0
100
AcDbSymbolTable
 70
     1
100
AcDbDimStyleTable
  0
DIMSTYLE
105
27
330
A
100
AcDbSymbolTableRecord
100
AcDbDimStyleTableRecord
  2
ISO-25
 70
     0
 41
2.5
 42
0.625
 43
3.75
 44
1.25
 73
     0
 74
     0
 77
     1
 78
     8
140
2.5
141
2.5
143
0.0393700787
147
0.625
171
     3
172
     1
178
     0
271
     2
272
     2
274
     3
278
    44
283
     0
284
     8
340
11
  0
ENDTAB
  0
TABLE
  2
BLOCK_RECORD
  5
1
330
0
100
AcDbSymbolTable
 70
     1
  0
BLOCK_RECORD
  5
1F
330
1
100
AcDbSymbolTableRecord
100
AcDbBlockTableRecord
  2
*Model_Space
340
22
  0
BLOCK_RECORD
  5
1B
330
1
100
AcDbSymbolTableRecord
100
AcDbBlockTableRecord
  2
*Paper_Space
340
1E
  0
BLOCK_RECORD
  5
23
330
1
100
AcDbSymbolTableRecord
100
AcDbBlockTableRecord
  2
*Paper_Space0
340
26
  0
ENDTAB
  0
ENDSEC
  0
SECTION
  2
BLOCKS
  0
BLOCK
  5
20
330
1F
100
AcDbEntity
  8
0
100
AcDbBlockBegin
  2
*Model_Space
 70
     0
 10
0.0
 20
0.0
 30
0.0
  3
*Model_Space
  1

  0
ENDBLK
  5
21
330
1F
100
AcDbEntity
  8
0
100
AcDbBlockEnd
  0
BLOCK
  5
1C
330
1B
100
AcDbEntity
 67
     1
  8
0
100
AcDbBlockBegin
  2
*Paper_Space
 70
     0
 10
0.0
 20
0.0
 30
0.0
  3
*Paper_Space
  1

  0
ENDBLK
  5
1D
330
1B
100
AcDbEntity
 67
     1
  8
0
100
AcDbBlockEnd
  0
BLOCK
  5
24
330
23
100
AcDbEntity
  8
0
100
AcDbBlockBegin
  2
*Paper_Space0
 70
     0
 10
0.0
 20
0.0
 30
0.0
  3
*Paper_Space0
  1

  0
ENDBLK
  5
25
330
23
100
AcDbEntity
  8
0
100
AcDbBlockEnd
  0
ENDSEC
  0
SECTION
  2
ENTITIES
  0
CIRCLE
  5
75
330
1F
100
AcDbEntity
  8
0
  6
Continuous
 62
     7
370
    25
100
AcDbCircle
 10
397.27768028
 20
225.7926231038
 30
0.0
 40
7.100000000000009
  0
CIRCLE
  5
76
330
1F
100
AcDbEntity
  8
0
  6
Continuous
 62
     7
370
    25
100
AcDbCircle
 10
397.27768028
 20
115.7926231038
 30
0.0
 40
7.100000000000007
  0
CIRCLE
  5
77
330
1F
100
AcDbEntity
  8
0
  6
Continuous
 62
     7
370
    25
100
AcDbCircle
 10
-417.72231972
 20
10.7926231039
 30
0.0
 40
7.100000000000006
  0
CIRCLE
  5
78
330
1F
100
AcDbEntity
  8
0
  6
Continuous
 62
     7
370
    25
100
AcDbCircle
 10
747.27768028
 20
225.7926231038
 30
0.0
 40
7.10000000000012
  0
CIRCLE
  5
79
330
1F
100
AcDbEntity
  8
0
  6
Continuous
 62
     7
370
    25
100
AcDbCircle
 10
812.27768028
 20
10.7926231039
 30
0.0
 40
7.100000000000118
  0
CIRCLE
  5
7A
330
1F
100
AcDbEntity
  8
0
  6
Continuous
 62
     7
370
    25
100
AcDbCircle
 10
-2.72231972
 20
115.7926231038
 30
0.0
 40
7.099999999999992
  0
CIRCLE
  5
7B
330
1F
100
AcDbEntity
  8
0
  6
Continuous
 62
     7
370
    25
100
AcDbCircle
 10
-352.72231972
 20
115.7926231038
 30
0.0
 40
7.100000000000007
  0
CIRCLE
  5
7C
330
1F
100
AcDbEntity
  8
0
  6
Continuous
 62
     7
370
    25
100
AcDbCircle
 10
-417.72231972
 20
160.7926231039
 30
0.0
 40
7.100000000000004
  0
CIRCLE
  5
7D
330
1F
100
AcDbEntity
  8
0
  6
Continuous
 62
     7
370
    25
100
AcDbCircle
 10
-2.72231972
 20
225.7926231038
 30
0.0
 40
7.099999999999993
  0
CIRCLE
  5
7E
330
1F
100
AcDbEntity
  8
0
  6
Continuous
 62
     7
370
    25
100
AcDbCircle
 10
747.27768028
 20
115.7926231038
 30
0.0
 40
7.100000000000119
  0
CIRCLE
  5
7F
330
1F
100
AcDbEntity
  8
0
  6
Continuous
 62
     7
370
    25
100
AcDbCircle
 10
812.27768028
 20
160.7926231039
 30
0.0
 40
7.100000000000116
  0
CIRCLE
  5
80
330
1F
100
AcDbEntity
  8
0
  6
Continuous
 62
     7
370
    25
100
AcDbCircle
 10
-352.72231972
 20
225.7926231038
 30
0.0
 40
7.100000000000009
  0
ARC
  5
81
330
1F
100
AcDbEntity
  8
0
  6
Continuous
 62
     7
370
    25
100
AcDbCircle
 10
717.0650615438
 20
-60.7304776751
 30
0.0
 40
3.000000000000016
100
AcDbArc
 50
149.6373848415
 51
239.1283337065
  0
LINE
  5
82
330
1F
100
AcDbEntity
  8
0
  6
Continuous
 62
     7
370
    25
100
AcDbLine
 10
713.9863603714
 20
-65.8803902075
 30
0.0
 11
715.5257109576
 21
-63.3054339413
 31
0.0
  0
ARC
  5
83
330
1F
100
AcDbEntity
  8
0
  6
Continuous
 62
     7
370
    25
100
AcDbCircle
 10
717.0650615438
 20
-60.7304776751
 30
0.0
 40
6.000000000000036
100
AcDbArc
 50
149.6373848415
 51
239.1283337065
  0
LINE
  5
84
330
1F
100
AcDbEntity
  8
0
  6
Continuous
 62
     7
370
    25
100
AcDbLine
 10
714.4765305433
 20
-59.2140650467
 30
0.0
 11
711.8879995428
 21
-57.6976524184
 31
0.0
  0
ARC
  5
85
330
1F
100
AcDbEntity
  8
0
  6
Continuous
 62
     7
370
    25
100
AcDbCircle
 10
605.7623497474
 20
-3.2180162182
 30
0.0
 40
5.99999999999994
100
AcDbArc
 50
246.2189590082
 51
335.7099078732
  0
LINE
  5
86
330
1F
100
AcDbEntity
  8
0
  6
Continuous
 62
     7
370
    25
100
AcDbLine
 10
603.3428946469
 20
-8.7085751166
 30
0.0
 11
604.5526221972
 21
-5.9632956674
 31
0.0
  0
ARC
  5
87
330
1F
100
AcDbEntity
  8
0
  6
Continuous
 62
     7
370
    25
100
AcDbCircle
 10
605.7623497474
 20
-3.2180162182
 30
0.0
 40
2.999999999999989
100
AcDbArc
 50
246.2189590082
 51
335.7099078732
  0
LINE
  5
88
330
1F
100
AcDbEntity
  8
0
  6
Continuous
 62
     7
370
    25
100
AcDbLine
 10
611.2311962922
 20
-5.6861567064
 30
0.0
 11
608.4967730198
 21
-4.4520864623
 31
0.0
  0
ARC
  5
89
330
1F
100
AcDbEntity
  8
0
  6
Continuous
 62
     7
370
    25
100
AcDbCircle
 10
197.27768028
 20
-930.2073768961
 30
0.0
 40
1344.0
100
AcDbArc
 50
53.9934056672
 51
59.2528465217
  0
LINE
  5
8A
330
1F
100
AcDbEntity
  8
0
  6
Continuous
 62
     7
370
    25
100
AcDbLine
 10
884.398203264
 20
224.8689785428
 30
0.0
 11
885.9319544314
 21
227.4472739791
 31
0.0
  0
ARC
  5
8B
330
1F
100
AcDbEntity
  8
0
  6
Continuous
 62
     7
370
    25
100
AcDbCircle
 10
197.27768028
 20
-930.2073768961
 30
0.0
 40
1347.0
100
AcDbArc
 50
53.9934056672
 51
59.2528465217
  0
LINE
  5
8C
330
1F
100
AcDbEntity
  8
0
  6
Continuous
 62
     7
370
    25
100
AcDbLine
 10
987.3861967197
 20
157.020534928
 30
0.0
 11
989.149831801
 21
159.4473829455
 31
0.0
  0
ARC
  5
8D
330
1F
100
AcDbEntity
  8
0
  6
Continuous
 62
     7
370
    25
100
AcDbCircle
 10
983.2710481966
 20
151.3578895539
 30
0.0
 40
7.00000000000001
100
AcDbArc
 50
323.5648618098
 51
53.9934056672
  0
ARC
  5
8E
330
1F
100
AcDbEntity
  8
0
  6
Continuous
 62
     7
370
    25
100
AcDbCircle
 10
983.2710481966
 20
151.3578895539
 30
0.0
 40
10.00000000000016
100
AcDbArc
 50
323.5648618098
 51
53.9934056672
  0
LINE
  5
8F
330
1F
100
AcDbEntity
  8
0
  6
Continuous
 62
     7
370
    25
100
AcDbLine
 10
991.3163453545
 20
145.4187655747
 30
0.0
 11
988.9027562071
 21
147.2005027685
 31
0.0
  0
LINE
  5
90
330
1F
100
AcDbEntity
  8
0
  6
Continuous
 62
     7
370
    25
100
AcDbLine
 10
872.5103280947
 20
228.3563336201
 30
0.0
 11
706.7109375418
 21
-54.6648271616
 31
0.0
  0
LINE
  5
91
330
1F
100
AcDbEntity
  8
0
  6
Continuous
 62
     7
370
    25
100
AcDbLine
 10
706.7109375418
 20
-54.6648271616
 30
0.0
 11
704.1224065413
 21
-53.1484145332
 31
0.0
  0
LINE
  5
92
330
1F
100
AcDbEntity
  8
0
  6
Continuous
 62
     7
370
    25
100
AcDbLine
 10
704.1224065413
 20
-53.1484145332
 30
0.0
 11
869.9217970942
 21
229.8727462485
 31
0.0
  0
LINE
  5
93
330
1F
100
AcDbEntity
  8
0
  6
Continuous
 62
     7
370
    25
100
AcDbLine
 10
872.5103280947
 20
228.3563336201
 30
0.0
 11
869.9217970942
 21
229.8727462485
 31
0.0
  0
LINE
  5
94
330
1F
100
AcDbEntity
  8
0
  6
Continuous
 62
     7
370
    25
100
AcDbLine
 10
476.4677516849
 20
381.3801741385
 30
0.0
 11
407.4586817108
 21
60.711866351
 31
0.0
  0
LINE
  5
95
330
1F
100
AcDbEntity
  8
0
  6
Continuous
 62
     7
370
    25
100
AcDbLine
 10
407.4586817108
 20
60.711866351
 30
0.0
 11
404.5258273147
 21
61.3430280509
 31
0.0
  0
LINE
  5
96
330
1F
100
AcDbEntity
  8
0
  6
Continuous
 62
     7
370
    25
100
AcDbLine
 10
404.5258273147
 20
61.3430280509
 30
0.0
 11
473.5348972888
 21
382.0113358383
 31
0.0
  0
LINE
  5
97
330
1F
100
AcDbEntity
  8
0
  6
Continuous
 62
     7
370
    25
100
AcDbLine
 10
476.4677516849
 20
381.3801741385
 30
0.0
 11
473.5348972888
 21
382.0113358383
 31
0.0
  0
ARC
  5
98
330
1F
100
AcDbEntity
  8
0
  6
Continuous
 62
     7
370
    25
100
AcDbCircle
 10
793.2120918693
 20
-106.1010869773
 30
0.0
 40
10.00000000000025
100
AcDbArc
 50
234.1282512181
 51
323.5648618098
  0
LINE
  5
99
330
1F
100
AcDbEntity
  8
0
  6
Continuous
 62
     7
370
    25
100
AcDbLine
 10
787.3523631418
 20
-114.2043936629
 30
0.0
 11
789.1102817601
 21
-111.7734016572
 31
0.0
  0
ARC
  5
9A
330
1F
100
AcDbEntity
  8
0
  6
Continuous
 62
     7
370
    25
100
AcDbCircle
 10
793.2120918693
 20
-106.1010869773
 30
0.0
 40
7.000000000000151
100
AcDbArc
 50
234.1282512181
 51
323.5648618098
  0
LINE
  5
9B
330
1F
100
AcDbEntity
  8
0
  6
Continuous
 62
     7
370
    25
100
AcDbLine
 10
801.2573890273
 20
-112.0402109566
 30
0.0
 11
798.8437998799
 21
-110.2584737628
 31
0.0
  0
LINE
  5
9C
330
1F
100
AcDbEntity
  8
0
  6
Continuous
 62
     7
370
    25
100
AcDbLine
 10
880.2759210962
 20
223.807095735
 30
0.0
 11
714.4765305433
 21
-59.2140650467
 31
0.0
  0
LINE
  5
9D
330
1F
100
AcDbEntity
  8
0
  6
Continuous
 62
     7
370
    25
100
AcDbLine
 10
877.6873900957
 20
225.3235083633
 30
0.0
 11
711.8879995428
 21
-57.6976524184
 31
0.0
  0
LINE
  5
9E
330
1F
100
AcDbEntity
  8
0
  6
Continuous
 62
     7
370
    25
100
AcDbLine
 10
880.2759210962
 20
223.807095735
 30
0.0
 11
877.6873900957
 21
225.3235083633
 31
0.0
  0
ARC
  5
9F
330
1F
100
AcDbEntity
  8
0
  6
Continuous
 62
     7
370
    25
100
AcDbCircle
 10
197.27768028
 20
-930.2073768961
 30
0.0
 40
1344.0
100
AcDbArc
 50
66.094446193
 51
71.3978925851
  0
LINE
  5
A0
330
1F
100
AcDbEntity
  8
0
  6
Continuous
 62
     7
370
    25
100
AcDbLine
 10
626.0058437706
 20
343.5775978268
 30
0.0
 11
626.9628262784
 21
346.4208678597
 31
0.0
  0
ARC
  5
A1
330
1F
100
AcDbEntity
  8
0
  6
Continuous
 62
     7
370
    25
100
AcDbCircle
 10
197.27768028
 20
-930.2073768961
 30
0.0
 40
1347.0
100
AcDbArc
 50
66.094446193
 51
71.3978925851
  0
LINE
  5
A2
330
1F
100
AcDbEntity
  8
0
  6
Continuous
 62
     7
370
    25
100
AcDbLine
 10
741.907076526
 20
298.4971525758
 30
0.0
 11
743.1227671426
 21
301.2397966148
 31
0.0
  0
ARC
  5
A3
330
1F
100
AcDbEntity
  8
0
  6
Continuous
 62
     7
370
    25
100
AcDbCircle
 10
522.5044097603
 20
29.1656342062
 30
0.0
 40
2.999999999999987
100
AcDbArc
 50
161.7824309049
 51
251.2733797699
  0
LINE
  5
A4
330
1F
100
AcDbEntity
  8
0
  6
Continuous
 62
     7
370
    25
100
AcDbLine
 10
520.5780915206
 20
23.4832669144
 30
0.0
 11
521.5412506404
 21
26.3244505603
 31
0.0
  0
ARC
  5
A5
330
1F
100
AcDbEntity
  8
0
  6
Continuous
 62
     7
370
    25
100
AcDbCircle
 10
522.5044097603
 20
29.1656342062
 30
0.0
 40
6.000000000000082
100
AcDbArc
 50
161.7824309049
 51
251.2733797699
  0
LINE
  5
A6
330
1F
100
AcDbEntity
  8
0
  6
Continuous
 62
     7
370
    25
100
AcDbLine
 10
519.6547810615
 20
30.1035128118
 30
0.0
 11
516.8051523627
 21
31.0413914175
 31
0.0
  0
ARC
  5
A7
330
1F
100
AcDbEntity
  8
0
  6
Continuous
 62
     7
370
    25
100
AcDbCircle
 10
757.0979255437
 20
288.3500870722
 30
0.0
 40
3.000000000000066
100
AcDbArc
 50
65.3253695534
 51
155.7099078732
  0
ARC
  5
A8
330
1F
100
AcDbEntity
  8
0
  6
Continuous
 62
     7
370
    25
100
AcDbCircle
 10
197.27768028
 20
-930.2073768961
 30
0.0
 40
1344.0
100
AcDbArc
 50
60.0219231613
 51
65.3253695534
  0
ARC
  5
A9
330
1F
100
AcDbEntity
  8
0
  6
Continuous
 62
     7
370
    25
100
AcDbCircle
 10
867.3332660937
 20
231.3891588769
 30
0.0
 40
2.999999999999993
100
AcDbArc
 50
329.6373848415
 51
60.0219231613
  0
ARC
  5
AA
330
1F
100
AcDbEntity
  8
0
  6
Continuous
 62
     7
370
    25
100
AcDbCircle
 10
701.5338755408
 20
-51.6320019048
 30
0.0
 40
3.000000000000068
100
AcDbArc
 50
240.1464359765
 51
329.6373848415
  0
ARC
  5
AB
330
1F
100
AcDbEntity
  8
0
  6
Continuous
 62
     7
370
    25
100
AcDbCircle
 10
197.27768028
 20
-930.2073768961
 30
0.0
 40
1010.0
100
AcDbArc
 50
60.1464359765
 51
65.2008567382
  0
ARC
  5
AC
330
1F
100
AcDbEntity
  8
0
  6
Continuous
 62
     7
370
    25
100
AcDbCircle
 10
622.1688893818
 20
-10.6224376828
 30
0.0
 40
3.000000000000171
100
AcDbArc
 50
155.7099078732
 51
245.2008567382
  0
LINE
  5
AD
330
1F
100
AcDbEntity
  8
0
  6
Continuous
 62
     7
370
    25
100
AcDbLine
 10
754.3635022713
 20
289.5841573163
 30
0.0
 11
619.4344661094
 21
-9.3883674387
 31
0.0
  0
LINE
  5
AE
330
1F
100
AcDbEntity
  8
0
  6
Continuous
 62
     7
370
    25
100
AcDbLine
 10
613.6503464675
 20
344.4858422166
 30
0.0
 11
511.1058949651
 21
32.9171486288
 31
0.0
  0
LINE
  5
AF
330
1F
100
AcDbEntity
  8
0
  6
Continuous
 62
     7
370
    25
100
AcDbLine
 10
511.1058949651
 20
32.9171486288
 30
0.0
 11
508.2562662663
 21
33.8550272344
 31
0.0
  0
LINE
  5
B0
330
1F
100
AcDbEntity
  8
0
  6
Continuous
 62
     7
370
    25
100
AcDbLine
 10
508.2562662663
 20
33.8550272344
 30
0.0
 11
610.8007177687
 21
345.4237208222
 31
0.0
  0
LINE
  5
B1
330
1F
100
AcDbEntity
  8
0
  6
Continuous
 62
     7
370
    25
100
AcDbLine
 10
613.6503464675
 20
344.4858422166
 30
0.0
 11
610.8007177687
 21
345.4237208222
 31
0.0
  0
ARC
  5
B2
330
1F
100
AcDbEntity
  8
0
  6
Continuous
 62
     7
370
    25
100
AcDbCircle
 10
625.0488612628
 20
340.734327794
 30
0.0
 40
3.000000000000214
100
AcDbArc
 50
71.3978925851
 51
161.7824309049
  0
ARC
  5
B3
330
1F
100
AcDbEntity
  8
0
  6
Continuous
 62
     7
370
    25
100
AcDbCircle
 10
740.6913859093
 20
295.7545085368
 30
0.0
 40
3.000000000000118
100
AcDbArc
 50
335.7099078732
 51
66.094446193
  0
LINE
  5
B4
330
1F
100
AcDbEntity
  8
0
  6
Continuous
 62
     7
370
    25
100
AcDbLine
 10
608.4967730198
 20
-4.4520864623
 30
0.0
 11
743.4258091817
 21
294.5204382927
 31
0.0
  0
ARC
  5
B5
330
1F
100
AcDbEntity
  8
0
  6
Continuous
 62
     7
370
    25
100
AcDbCircle
 10
197.27768028
 20
-930.2073768961
 30
0.0
 40
1010.0
100
AcDbArc
 50
66.2189590082
 51
71.2733797699
  0
LINE
  5
B6
330
1F
100
AcDbEntity
  8
0
  6
Continuous
 62
     7
370
    25
100
AcDbLine
 10
622.199232564
 20
341.6722063996
 30
0.0
 11
519.6547810615
 21
30.1035128118
 31
0.0
  0
LINE
  5
B7
330
1F
100
AcDbEntity
  8
0
  6
Continuous
 62
     7
370
    25
100
AcDbLine
 10
619.6522583309
 20
-16.0691401855
 30
0.0
 11
620.9105738563
 21
-13.3457889342
 31
0.0
  0
ARC
  5
B8
330
1F
100
AcDbEntity
  8
0
  6
Continuous
 62
     7
370
    25
100
AcDbCircle
 10
622.1688893818
 20
-10.6224376828
 30
0.0
 40
5.999999999999985
100
AcDbArc
 50
155.7099078732
 51
245.2008567382
  0
LINE
  5
B9
330
1F
100
AcDbEntity
  8
0
  6
Continuous
 62
     7
370
    25
100
AcDbLine
 10
619.4344661094
 20
-9.3883674387
 30
0.0
 11
616.700042837
 21
-8.1542971946
 31
0.0
  0
LINE
  5
BA
330
1F
100
AcDbEntity
  8
0
  6
Continuous
 62
     7
370
    25
100
AcDbLine
 10
868.8322718785
 20
233.987808845
 30
0.0
 11
870.3312776634
 21
236.5864588132
 31
0.0
  0
ARC
  5
BB
330
1F
100
AcDbEntity
  8
0
  6
Continuous
 62
     7
370
    25
100
AcDbCircle
 10
867.3332660937
 20
231.3891588769
 30
0.0
 40
6.000000000000033
100
AcDbArc
 50
329.6373848415
 51
60.0219231613
  0
LINE
  5
BC
330
1F
100
AcDbEntity
  8
0
  6
Continuous
 62
     7
370
    25
100
AcDbLine
 10
758.3503198284
 20
291.0761664099
 30
0.0
 11
759.6027141131
 21
293.8022457476
 31
0.0
  0
ARC
  5
BD
330
1F
100
AcDbEntity
  8
0
  6
Continuous
 62
     7
370
    25
100
AcDbCircle
 10
197.27768028
 20
-930.2073768961
 30
0.0
 40
1347.0
100
AcDbArc
 50
60.0219231613
 51
65.3253695534
  0
ARC
  5
BE
330
1F
100
AcDbEntity
  8
0
  6
Continuous
 62
     7
370
    25
100
AcDbCircle
 10
882.8644520967
 20
222.2906831066
 30
0.0
 40
3.000000000000359
100
AcDbArc
 50
59.2528465217
 51
149.6373848415
  0
ARC
  5
BF
330
1F
100
AcDbEntity
  8
0
  6
Continuous
 62
     7
370
    25
100
AcDbCircle
 10
882.8644520967
 20
222.2906831066
 30
0.0
 40
6.000000000000074
100
AcDbArc
 50
59.2528465217
 51
149.6373848415
  0
ARC
  5
C0
330
1F
100
AcDbEntity
  8
0
  6
Continuous
 62
     7
370
    25
100
AcDbCircle
 10
197.27768028
 20
-930.2073768961
 30
0.0
 40
1007.000000000001
100
AcDbArc
 50
66.2189590082
 51
71.2733797699
  0
LINE
  5
C1
330
1F
100
AcDbEntity
  8
0
  6
Continuous
 62
     7
370
    25
100
AcDbLine
 10
798.8437998799
 20
-110.2584737628
 30
0.0
 11
988.9027562071
 21
147.2005027685
 31
0.0
  0
ARC
  5
C2
330
1F
100
AcDbEntity
  8
0
  6
Continuous
 62
     7
370
    25
100
AcDbCircle
 10
197.27768028
 20
-930.2073768961
 30
0.0
 40
1010.0
100
AcDbArc
 50
54.1282512181
 51
59.1283337065
  0
LINE
  5
C3
330
1F
100
AcDbEntity
  8
0
  6
Continuous
 62
     7
370
    25
100
AcDbLine
 10
746.1602324541
 20
293.2863680486
 30
0.0
 11
611.2311962922
 21
-5.6861567064
 31
0.0
  0
LINE
  5
C4
330
1F
100
AcDbEntity
  8
0
  6
Continuous
 62
     7
370
    25
100
AcDbLine
 10
746.1602324541
 20
293.2863680486
 30
0.0
 11
743.4258091817
 21
294.5204382927
 31
0.0
  0
ARC
  5
C5
330
1F
100
AcDbEntity
  8
0
  6
Continuous
 62
     7
370
    25
100
AcDbCircle
 10
197.27768028
 20
-930.2073768961
 30
0.0
 40
1007.0
100
AcDbArc
 50
54.1282512181
 51
59.1283337065
  0
LINE
  5
C6
330
1F
100
AcDbEntity
  8
0
  6
Continuous
 62
     7
370
    25
100
AcDbLine
 10
991.3163453545
 20
145.4187655747
 30
0.0
 11
801.2573890273
 21
-112.0402109566
 31
0.0
  0
ARC
  5
C7
330
1F
100
AcDbEntity
  8
0
  6
Continuous
 62
     7
370
    25
100
AcDbCircle
 10
488.1991692692
 20
378.8555273389
 30
0.0
 40
3.000000000000008
100
AcDbArc
 50
77.4704156168
 51
167.8549539366
  0
ARC
  5
C8
330
1F
100
AcDbEntity
  8
0
  6
Continuous
 62
     7
370
    25
100
AcDbCircle
 10
197.27768028
 20
-930.2073768961
 30
0.0
 40
1344.0
100
AcDbArc
 50
72.1669692247
 51
77.4704156168
  0
ARC
  5
C9
330
1F
100
AcDbEntity
  8
0
  6
Continuous
 62
     7
370
    25
100
AcDbCircle
 10
607.9510890699
 20
346.3615994279
 30
0.0
 40
3.000000000000106
100
AcDbArc
 50
341.7824309049
 51
72.1669692247
  0
ARC
  5
CA
330
1F
100
AcDbEntity
  8
0
  6
Continuous
 62
     7
370
    25
100
AcDbCircle
 10
505.4066375675
 20
34.7929058401
 30
0.0
 40
3.000000000000041
100
AcDbArc
 50
252.2914820399
 51
341.7824309049
  0
ARC
  5
CB
330
1F
100
AcDbEntity
  8
0
  6
Continuous
 62
     7
370
    25
100
AcDbCircle
 10
197.27768028
 20
-930.2073768961
 30
0.0
 40
1010.0
100
AcDbArc
 50
72.2914820399
 51
77.3459028016
  0
ARC
  5
CC
330
1F
100
AcDbEntity
  8
0
  6
Continuous
 62
     7
370
    25
100
AcDbCircle
 10
419.1900992951
 20
58.1872195515
 30
0.0
 40
3.000000000000055
100
AcDbArc
 50
167.8549539366
 51
257.3459028016
  0
LINE
  5
CD
330
1F
100
AcDbEntity
  8
0
  6
Continuous
 62
     7
370
    25
100
AcDbLine
 10
485.2663148731
 20
379.4866890388
 30
0.0
 11
416.257244899
 21
58.8183812514
 31
0.0
  0
ARC
  5
CE
330
1F
100
AcDbEntity
  8
0
  6
Continuous
 62
     7
370
    25
100
AcDbCircle
 10
401.5929729186
 20
61.9741897508
 30
0.0
 40
6.000000000000003
100
AcDbArc
 50
258.3640050716
 51
347.8549539366
  0
LINE
  5
CF
330
1F
100
AcDbEntity
  8
0
  6
Continuous
 62
     7
370
    25
100
AcDbLine
 10
400.3828132386
 20
56.0974973521
 30
0.0
 11
400.9878930786
 21
59.0358435515
 31
0.0
  0
ARC
  5
D0
330
1F
100
AcDbEntity
  8
0
  6
Continuous
 62
     7
370
    25
100
AcDbCircle
 10
401.5929729186
 20
61.9741897508
 30
0.0
 40
3.000000000000001
100
AcDbArc
 50
258.3640050716
 51
347.8549539366
  0
ARC
  5
D1
330
1F
100
AcDbEntity
  8
0
  6
Continuous
 62
     7
370
    25
100
AcDbCircle
 10
197.27768028
 20
-930.2073768961
 30
0.0
 40
1007.0
100
AcDbArc
 50
60.1464359765
 51
65.2008567382
  0
LINE
  5
D2
330
1F
100
AcDbEntity
  8
0
  6
Continuous
 62
     7
370
    25
100
AcDbLine
 10
698.5471655985
 20
-56.8358047182
 30
0.0
 11
700.0405205697
 21
-54.2339033115
 31
0.0
  0
ARC
  5
D3
330
1F
100
AcDbEntity
  8
0
  6
Continuous
 62
     7
370
    25
100
AcDbCircle
 10
197.27768028
 20
-930.2073768961
 30
0.0
 40
1007.000000000001
100
AcDbArc
 50
72.2914820399
 51
77.3459028016
  0
LINE
  5
D4
330
1F
100
AcDbEntity
  8
0
  6
Continuous
 62
     7
370
    25
100
AcDbLine
 10
417.8757118182
 20
52.332957381
 30
0.0
 11
418.5329055566
 21
55.2600884663
 31
0.0
  0
LINE
  5
D5
330
1F
100
AcDbEntity
  8
0
  6
Continuous
 62
     7
370
    25
100
AcDbLine
 10
503.5815894493
 20
29.0772082128
 30
0.0
 11
504.4941135084
 21
31.9350570264
 31
0.0
  0
LINE
  5
D6
330
1F
100
AcDbEntity
  8
0
  6
Continuous
 62
     7
370
    25
100
AcDbLine
 10
754.3635022713
 20
289.5841573163
 30
0.0
 11
751.6290789989
 21
290.8182275604
 31
0.0
  0
ARC
  5
D7
330
1F
100
AcDbEntity
  8
0
  6
Continuous
 62
     7
370
    25
100
AcDbCircle
 10
757.0979255437
 20
288.3500870722
 30
0.0
 40
5.999999999999929
100
AcDbArc
 50
65.3253695534
 51
155.7099078732
  0
LINE
  5
D8
330
1F
100
AcDbEntity
  8
0
  6
Continuous
 62
     7
370
    25
100
AcDbLine
 10
619.3496038652
 20
342.6100850053
 30
0.0
 11
516.8051523627
 21
31.0413914175
 31
0.0
  0
LINE
  5
D9
330
1F
100
AcDbEntity
  8
0
  6
Continuous
 62
     7
370
    25
100
AcDbLine
 10
622.199232564
 20
341.6722063996
 30
0.0
 11
619.3496038652
 21
342.6100850053
 31
0.0
  0
LINE
  5
DA
330
1F
100
AcDbEntity
  8
0
  6
Continuous
 62
     7
370
    25
100
AcDbLine
 10
416.257244899
 20
58.8183812514
 30
0.0
 11
413.3243905029
 21
59.4495429513
 31
0.0
  0
LINE
  5
DB
330
1F
100
AcDbEntity
  8
0
  6
Continuous
 62
     7
370
    25
100
AcDbLine
 10
482.333460477
 20
380.1178507387
 30
0.0
 11
413.3243905029
 21
59.4495429513
 31
0.0
  0
LINE
  5
DC
330
1F
100
AcDbEntity
  8
0
  6
Continuous
 62
     7
370
    25
100
AcDbLine
 10
485.2663148731
 20
379.4866890388
 30
0.0
 11
482.333460477
 21
380.1178507387
 31
0.0
  0
ARC
  5
DD
330
1F
100
AcDbEntity
  8
0
  6
Continuous
 62
     7
370
    25
100
AcDbCircle
 10
348.0846342373
 20
402.2858736076
 30
0.0
 40
2.999999999999969
100
AcDbArc
 50
83.5429386485
 51
173.9274769683
  0
ARC
  5
DE
330
1F
100
AcDbEntity
  8
0
  6
Continuous
 62
     7
370
    25
100
AcDbCircle
 10
197.27768028
 20
-930.2073768961
 30
0.0
 40
1344.0
100
AcDbArc
 50
78.2394922564
 51
83.5429386485
  0
ARC
  5
DF
330
1F
100
AcDbEntity
  8
0
  6
Continuous
 62
     7
370
    25
100
AcDbCircle
 10
470.6020428927
 20
382.6424975382
 30
0.0
 40
3.000000000000105
100
AcDbArc
 50
347.8549539366
 51
78.2394922564
  0
ARC
  5
E0
330
1F
100
AcDbEntity
  8
0
  6
Continuous
 62
     7
370
    25
100
AcDbCircle
 10
197.27768028
 20
-930.2073768961
 30
0.0
 40
1010.0
100
AcDbArc
 50
78.3640050716
 51
83.4184258333
  0
ARC
  5
E1
330
1F
100
AcDbEntity
  8
0
  6
Continuous
 62
     7
370
    25
100
AcDbCircle
 10
313.3853945353
 20
76.1166259431
 30
0.0
 40
3.000000000000094
100
AcDbArc
 50
173.9274769683
 51
263.4184258333
  0
LINE
  5
E2
330
1F
100
AcDbEntity
  8
0
  6
Continuous
 62
     7
370
    25
100
AcDbLine
 10
345.1014678668
 20
402.6032352403
 30
0.0
 11
310.4022281648
 21
76.4339875758
 31
0.0
  0
ARC
  5
E3
330
1F
100
AcDbEntity
  8
0
  6
Continuous
 62
     7
370
    25
100
AcDbCircle
 10
505.4066375675
 20
34.7929058401
 30
0.0
 40
6.000000000000082
100
AcDbArc
 50
252.2914820399
 51
341.7824309049
  0
ARC
  5
E4
330
1F
100
AcDbEntity
  8
0
  6
Continuous
 62
     7
370
    25
100
AcDbCircle
 10
701.5338755408
 20
-51.6320019048
 30
0.0
 40
5.999999999999986
100
AcDbArc
 50
240.1464359765
 51
329.6373848415
  0
LINE
  5
E5
330
1F
100
AcDbEntity
  8
0
  6
Continuous
 62
     7
370
    25
100
AcDbLine
 10
751.6290789989
 20
290.8182275604
 30
0.0
 11
616.700042837
 21
-8.1542971946
 31
0.0
  0
ARC
  5
E6
330
1F
100
AcDbEntity
  8
0
  6
Continuous
 62
     7
370
    25
100
AcDbCircle
 10
-76.0466823326
 20
382.6424975382
 30
0.0
 40
3.000000000000006
100
AcDbArc
 50
101.7605077436
 51
192.1450460634
  0
ARC
  5
E7
330
1F
100
AcDbEntity
  8
0
  6
Continuous
 62
     7
370
    25
100
AcDbCircle
 10
197.27768028
 20
-930.2073768961
 30
0.0
 40
1344.0
100
AcDbArc
 50
96.4570613515
 51
101.7605077436
  0
ARC
  5
E8
330
1F
100
AcDbEntity
  8
0
  6
Continuous
 62
     7
370
    25
100
AcDbCircle
 10
46.4707263228
 20
402.2858736076
 30
0.0
 40
3.000000000000147
100
AcDbArc
 50
6.0725230317
 51
96.4570613515
  0
LINE
  5
E9
330
1F
100
AcDbEntity
  8
0
  6
Continuous
 62
     7
370
    25
100
AcDbLine
 10
84.1531323953
 20
76.4339875758
 30
0.0
 11
49.4538926933
 21
402.6032352403
 31
0.0
  0
ARC
  5
EA
330
1F
100
AcDbEntity
  8
0
  6
Continuous
 62
     7
370
    25
100
AcDbCircle
 10
81.1699660248
 20
76.1166259431
 30
0.0
 40
3.00000000000001
100
AcDbArc
 50
276.5815741667
 51
6.0725230317
  0
ARC
  5
EB
330
1F
100
AcDbEntity
  8
0
  6
Continuous
 62
     7
370
    25
100
AcDbCircle
 10
197.27768028
 20
-930.2073768961
 30
0.0
 40
1010.0
100
AcDbArc
 50
96.5815741667
 51
101.6359949284
  0
ARC
  5
EC
330
1F
100
AcDbEntity
  8
0
  6
Continuous
 62
     7
370
    25
100
AcDbCircle
 10
-7.0376123585
 20
61.9741897508
 30
0.0
 40
3.000000000000177
100
AcDbArc
 50
192.1450460634
 51
281.6359949284
  0
LINE
  5
ED
330
1F
100
AcDbEntity
  8
0
  6
Continuous
 62
     7
370
    25
100
AcDbLine
 10
-78.9795367287
 20
382.0113358383
 30
0.0
 11
-9.9704667546
 21
61.3430280509
 31
0.0
  0
LINE
  5
EE
330
1F
100
AcDbEntity
  8
0
  6
Continuous
 62
     7
370
    25
100
AcDbLine
 10
348.4220099732
 20
405.2668428481
 30
0.0
 11
348.7593857092
 21
408.2478120886
 31
0.0
  0
ARC
  5
EF
330
1F
100
AcDbEntity
  8
0
  6
Continuous
 62
     7
370
    25
100
AcDbCircle
 10
197.27768028
 20
-930.2073768961
 30
0.0
 40
1347.0
100
AcDbArc
 50
78.2394922564
 51
83.5429386485
  0
LINE
  5
F0
330
1F
100
AcDbEntity
  8
0
  6
Continuous
 62
     7
370
    25
100
AcDbLine
 10
471.2135067912
 20
385.5795218658
 30
0.0
 11
471.8249706897
 21
388.5165461934
 31
0.0
  0
LINE
  5
F1
330
1F
100
AcDbEntity
  8
0
  6
Continuous
 62
     7
370
    25
100
AcDbLine
 10
608.8698215281
 20
349.2174584353
 30
0.0
 11
609.7885539862
 21
352.0733174427
 31
0.0
  0
ARC
  5
F2
330
1F
100
AcDbEntity
  8
0
  6
Continuous
 62
     7
370
    25
100
AcDbCircle
 10
607.9510890699
 20
346.3615994279
 30
0.0
 40
6.000000000000012
100
AcDbArc
 50
341.7824309049
 51
72.1669692247
  0
LINE
  5
F3
330
1F
100
AcDbEntity
  8
0
  6
Continuous
 62
     7
370
    25
100
AcDbLine
 10
194.27768028
 20
410.7624214215
 30
0.0
 11
194.27768028
 21
82.7526420582
 31
0.0
  0
LINE
  5
F4
330
1F
100
AcDbEntity
  8
0
  6
Continuous
 62
     7
370
    25
100
AcDbLine
 10
194.27768028
 20
82.7526420582
 30
0.0
 11
191.27768028
 21
82.7526420582
 31
0.0
  0
LINE
  5
F5
330
1F
100
AcDbEntity
  8
0
  6
Continuous
 62
     7
370
    25
100
AcDbLine
 10
191.27768028
 20
82.7526420582
 30
0.0
 11
191.27768028
 21
410.7624214215
 31
0.0
  0
LINE
  5
F6
330
1F
100
AcDbEntity
  8
0
  6
Continuous
 62
     7
370
    25
100
AcDbLine
 10
194.27768028
 20
410.7624214215
 30
0.0
 11
191.27768028
 21
410.7624214215
 31
0.0
  0
ARC
  5
F7
330
1F
100
AcDbEntity
  8
0
  6
Continuous
 62
     7
370
    25
100
AcDbCircle
 10
-93.6438087091
 20
378.8555273389
 30
0.0
 40
3.00000000000002
100
AcDbArc
 50
12.1450460634
 51
102.5295843832
  0
LINE
  5
F8
330
1F
100
AcDbEntity
  8
0
  6
Continuous
 62
     7
370
    25
100
AcDbLine
 10
-94.2946397807
 20
381.7840796974
 30
0.0
 11
-94.9454708522
 21
384.7126320558
 31
0.0
  0
ARC
  5
F9
330
1F
100
AcDbEntity
  8
0
  6
Continuous
 62
     7
370
    25
100
AcDbCircle
 10
-93.6438087091
 20
378.8555273389
 30
0.0
 40
6.000000000000081
100
AcDbArc
 50
12.1450460634
 51
102.5295843832
  0
LINE
  5
FA
330
1F
100
AcDbEntity
  8
0
  6
Continuous
 62
     7
370
    25
100
AcDbLine
 10
-87.778099917
 20
380.1178507387
 30
0.0
 11
-90.710954313
 21
379.4866890388
 31
0.0
  0
LINE
  5
FB
330
1F
100
AcDbEntity
  8
0
  6
Continuous
 62
     7
370
    25
100
AcDbLine
 10
312.6976884291
 20
70.1561678809
 30
0.0
 11
313.0415414822
 21
73.136396912
 31
0.0
  0
ARC
  5
FC
330
1F
100
AcDbEntity
  8
0
  6
Continuous
 62
     7
370
    25
100
AcDbCircle
 10
313.3853945353
 20
76.1166259431
 30
0.0
 40
5.99999999999999
100
AcDbArc
 50
173.9274769683
 51
263.4184258333
  0
LINE
  5
FD
330
1F
100
AcDbEntity
  8
0
  6
Continuous
 62
     7
370
    25
100
AcDbLine
 10
310.4022281648
 20
76.4339875758
 30
0.0
 11
307.4190617943
 21
76.7513492084
 31
0.0
  0
ARC
  5
FE
330
1F
100
AcDbEntity
  8
0
  6
Continuous
 62
     7
370
    25
100
AcDbCircle
 10
197.27768028
 20
-930.2073768961
 30
0.0
 40
1344.0
100
AcDbArc
 50
102.5295843832
 51
107.8330307753
  0
LINE
  5
FF
330
1F
100
AcDbEntity
  8
0
  6
Continuous
 62
     7
370
    25
100
AcDbLine
 10
-214.314460968
 20
349.2174584353
 30
0.0
 11
-215.2331934261
 21
352.0733174427
 31
0.0
  0
ARC
  5
100
330
1F
100
AcDbEntity
  8
0
  6
Continuous
 62
     7
370
    25
100
AcDbCircle
 10
197.27768028
 20
-930.2073768961
 30
0.0
 40
1347.0
100
AcDbArc
 50
102.5295843832
 51
107.8330307753
  0
LINE
  5
101
330
1F
100
AcDbEntity
  8
0
  6
Continuous
 62
     7
370
    25
100
AcDbLine
 10
203.27768028
 20
410.7624214215
 30
0.0
 11
203.27768028
 21
82.7526420582
 31
0.0
  0
LINE
  5
102
330
1F
100
AcDbEntity
  8
0
  6
Continuous
 62
     7
370
    25
100
AcDbLine
 10
203.27768028
 20
82.7526420582
 30
0.0
 11
200.27768028
 21
82.7526420582
 31
0.0
  0
LINE
  5
103
330
1F
100
AcDbEntity
  8
0
  6
Continuous
 62
     7
370
    25
100
AcDbLine
 10
200.27768028
 20
410.7624214215
 30
0.0
 11
200.27768028
 21
82.7526420582
 31
0.0
  0
LINE
  5
104
330
1F
100
AcDbEntity
  8
0
  6
Continuous
 62
     7
370
    25
100
AcDbLine
 10
203.27768028
 20
410.7624214215
 30
0.0
 11
200.27768028
 21
410.7624214215
 31
0.0
  0
ARC
  5
105
330
1F
100
AcDbEntity
  8
0
  6
Continuous
 62
     7
370
    25
100
AcDbCircle
 10
-362.5425649836
 20
288.3500870722
 30
0.0
 40
3.000000000000066
100
AcDbArc
 50
24.2900921268
 51
114.6746304466
  0
LINE
  5
106
330
1F
100
AcDbEntity
  8
0
  6
Continuous
 62
     7
370
    25
100
AcDbLine
 10
-363.7949592683
 20
291.0761664099
 30
0.0
 11
-365.047353553
 21
293.8022457476
 31
0.0
  0
ARC
  5
107
330
1F
100
AcDbEntity
  8
0
  6
Continuous
 62
     7
370
    25
100
AcDbCircle
 10
-362.5425649836
 20
288.3500870722
 30
0.0
 40
6.000000000000159
100
AcDbArc
 50
24.2900921268
 51
114.6746304466
  0
LINE
  5
108
330
1F
100
AcDbEntity
  8
0
  6
Continuous
 62
     7
370
    25
100
AcDbLine
 10
-357.0737184388
 20
290.8182275604
 30
0.0
 11
-359.8081417112
 21
289.5841573163
 31
0.0
  0
LINE
  5
109
330
1F
100
AcDbEntity
  8
0
  6
Continuous
 62
     7
370
    25
100
AcDbLine
 10
-216.2453572086
 20
345.4237208222
 30
0.0
 11
-113.7009057062
 21
33.8550272344
 31
0.0
  0
LINE
  5
10A
330
1F
100
AcDbEntity
  8
0
  6
Continuous
 62
     7
370
    25
100
AcDbLine
 10
-113.7009057062
 20
33.8550272344
 30
0.0
 11
-116.550534405
 21
32.9171486288
 31
0.0
  0
LINE
  5
10B
330
1F
100
AcDbEntity
  8
0
  6
Continuous
 62
     7
370
    25
100
AcDbLine
 10
-219.0949859074
 20
344.4858422166
 30
0.0
 11
-116.550534405
 21
32.9171486288
 31
0.0
  0
LINE
  5
10C
330
1F
100
AcDbEntity
  8
0
  6
Continuous
 62
     7
370
    25
100
AcDbLine
 10
-216.2453572086
 20
345.4237208222
 30
0.0
 11
-219.0949859074
 21
344.4858422166
 31
0.0
  0
ARC
  5
10D
330
1F
100
AcDbEntity
  8
0
  6
Continuous
 62
     7
370
    25
100
AcDbCircle
 10
295.4863963123
 20
78.020795739
 30
0.0
 40
5.999999999999968
100
AcDbArc
 50
264.4365281033
 51
353.9274769683
  0
LINE
  5
10E
330
1F
100
AcDbEntity
  8
0
  6
Continuous
 62
     7
370
    25
100
AcDbLine
 10
294.9047059902
 20
72.0490592772
 30
0.0
 11
295.1955511513
 21
75.0349275081
 31
0.0
  0
ARC
  5
10F
330
1F
100
AcDbEntity
  8
0
  6
Continuous
 62
     7
370
    25
100
AcDbCircle
 10
295.4863963123
 20
78.020795739
 30
0.0
 40
3.000000000000057
100
AcDbArc
 50
264.4365281033
 51
353.9274769683
  0
LINE
  5
110
330
1F
100
AcDbEntity
  8
0
  6
Continuous
 62
     7
370
    25
100
AcDbLine
 10
301.4527290533
 20
77.3860724737
 30
0.0
 11
298.4695626828
 21
77.7034341064
 31
0.0
  0
ARC
  5
111
330
1F
100
AcDbEntity
  8
0
  6
Continuous
 62
     7
370
    25
100
AcDbCircle
 10
330.1856360143
 20
404.1900434036
 30
0.0
 40
3.00000000000008
100
AcDbArc
 50
353.9274769683
 51
84.3120152881
  0
LINE
  5
112
330
1F
100
AcDbEntity
  8
0
  6
Continuous
 62
     7
370
    25
100
AcDbLine
 10
330.4829692486
 20
407.1752725318
 30
0.0
 11
330.7803024829
 21
410.1605016599
 31
0.0
  0
ARC
  5
113
330
1F
100
AcDbEntity
  8
0
  6
Continuous
 62
     7
370
    25
100
AcDbCircle
 10
330.1856360143
 20
404.1900434036
 30
0.0
 40
6.000000000000046
100
AcDbArc
 50
353.9274769683
 51
84.3120152881
  0
LINE
  5
114
330
1F
100
AcDbEntity
  8
0
  6
Continuous
 62
     7
370
    25
100
AcDbLine
 10
336.1519687553
 20
403.5553201383
 30
0.0
 11
333.1688023848
 21
403.8726817709
 31
0.0
  0
ARC
  5
115
330
1F
100
AcDbEntity
  8
0
  6
Continuous
 62
     7
370
    25
100
AcDbCircle
 10
197.27768028
 20
-930.2073768961
 30
0.0
 40
1344.0
100
AcDbArc
 50
90.3845383198
 51
95.6879847119
  0
LINE
  5
116
330
1F
100
AcDbEntity
  8
0
  6
Continuous
 62
     7
370
    25
100
AcDbLine
 10
64.0723913115
 20
407.1752725318
 30
0.0
 11
63.7750580772
 21
410.1605016599
 31
0.0
  0
ARC
  5
117
330
1F
100
AcDbEntity
  8
0
  6
Continuous
 62
     7
370
    25
100
AcDbCircle
 10
197.27768028
 20
-930.2073768961
 30
0.0
 40
1347.0
100
AcDbArc
 50
90.3845383198
 51
95.6879847119
  0
LINE
  5
118
330
1F
100
AcDbEntity
  8
0
  6
Continuous
 62
     7
370
    25
100
AcDbLine
 10
188.2575460519
 20
413.7623538562
 30
0.0
 11
188.2374118237
 21
416.7622862909
 31
0.0
  0
ARC
  5
119
330
1F
100
AcDbEntity
  8
0
  6
Continuous
 62
     7
370
    25
100
AcDbCircle
 10
-322.5097009837
 20
-60.7304776751
 30
0.0
 40
6.00000000000004
100
AcDbArc
 50
300.8716662935
 51
30.3626151585
  0
LINE
  5
11A
330
1F
100
AcDbEntity
  8
0
  6
Continuous
 62
     7
370
    25
100
AcDbLine
 10
-319.4309998113
 20
-65.8803902075
 30
0.0
 11
-320.9703503975
 21
-63.3054339413
 31
0.0
  0
ARC
  5
11B
330
1F
100
AcDbEntity
  8
0
  6
Continuous
 62
     7
370
    25
100
AcDbCircle
 10
-322.5097009837
 20
-60.7304776751
 30
0.0
 40
3.00000000000002
100
AcDbArc
 50
300.8716662935
 51
30.3626151585
  0
LINE
  5
11C
330
1F
100
AcDbEntity
  8
0
  6
Continuous
 62
     7
370
    25
100
AcDbLine
 10
-317.3326389827
 20
-57.6976524184
 30
0.0
 11
-319.9211699832
 21
-59.2140650467
 31
0.0
  0
ARC
  5
11D
330
1F
100
AcDbEntity
  8
0
  6
Continuous
 62
     7
370
    25
100
AcDbCircle
 10
64.3697245458
 20
404.1900434036
 30
0.0
 40
3.000000000000306
100
AcDbArc
 50
95.6879847119
 51
186.0725230317
  0
ARC
  5
11E
330
1F
100
AcDbEntity
  8
0
  6
Continuous
 62
     7
370
    25
100
AcDbCircle
 10
188.27768028
 20
410.7624214215
 30
0.0
 40
3.000000000000028
100
AcDbArc
 50
0.0
 51
90.3845383198
  0
ARC
  5
11F
330
1F
100
AcDbEntity
  8
0
  6
Continuous
 62
     7
370
    25
100
AcDbCircle
 10
188.27768028
 20
82.7526420582
 30
0.0
 40
3.000000000000061
100
AcDbArc
 50
270.509051135
 51
0.0
  0
ARC
  5
120
330
1F
100
AcDbEntity
  8
0
  6
Continuous
 62
     7
370
    25
100
AcDbCircle
 10
197.27768028
 20
-930.2073768961
 30
0.0
 40
1010.0
100
AcDbArc
 50
90.509051135
 51
95.5634718967
  0
ARC
  5
121
330
1F
100
AcDbEntity
  8
0
  6
Continuous
 62
     7
370
    25
100
AcDbCircle
 10
99.0689642478
 20
78.020795739
 30
0.0
 40
3.000000000000009
100
AcDbArc
 50
186.0725230317
 51
275.5634718967
  0
LINE
  5
122
330
1F
100
AcDbEntity
  8
0
  6
Continuous
 62
     7
370
    25
100
AcDbLine
 10
61.3865581753
 20
403.8726817709
 30
0.0
 11
96.0857978773
 21
77.7034341064
 31
0.0
  0
ARC
  5
123
330
1F
100
AcDbEntity
  8
0
  6
Continuous
 62
     7
370
    25
100
AcDbCircle
 10
81.1699660248
 20
76.1166259431
 30
0.0
 40
6.00000000000002
100
AcDbArc
 50
276.5815741667
 51
6.0725230317
  0
LINE
  5
124
330
1F
100
AcDbEntity
  8
0
  6
Continuous
 62
     7
370
    25
100
AcDbLine
 10
81.857672131
 20
70.1561678809
 30
0.0
 11
81.5138190779
 21
73.136396912
 31
0.0
  0
LINE
  5
125
330
1F
100
AcDbEntity
  8
0
  6
Continuous
 62
     7
370
    25
100
AcDbLine
 10
87.1362987658
 20
76.7513492084
 30
0.0
 11
84.1531323953
 21
76.4339875758
 31
0.0
  0
LINE
  5
126
330
1F
100
AcDbEntity
  8
0
  6
Continuous
 62
     7
370
    25
100
AcDbLine
 10
-475.3664365341
 20
229.8727462485
 30
0.0
 11
-309.5670459812
 21
-53.1484145332
 31
0.0
  0
LINE
  5
127
330
1F
100
AcDbEntity
  8
0
  6
Continuous
 62
     7
370
    25
100
AcDbLine
 10
-309.5670459812
 20
-53.1484145332
 30
0.0
 11
-312.1555769817
 21
-54.6648271616
 31
0.0
  0
LINE
  5
128
330
1F
100
AcDbEntity
  8
0
  6
Continuous
 62
     7
370
    25
100
AcDbLine
 10
-477.9549675346
 20
228.3563336201
 30
0.0
 11
-312.1555769817
 21
-54.6648271616
 31
0.0
  0
LINE
  5
129
330
1F
100
AcDbEntity
  8
0
  6
Continuous
 62
     7
370
    25
100
AcDbLine
 10
-475.3664365341
 20
229.8727462485
 30
0.0
 11
-477.9549675346
 21
228.3563336201
 31
0.0
  0
ARC
  5
12A
330
1F
100
AcDbEntity
  8
0
  6
Continuous
 62
     7
370
    25
100
AcDbCircle
 10
-588.7156876365
 20
151.3578895539
 30
0.0
 40
7.00000000000003
100
AcDbArc
 50
126.0065943328
 51
216.4351381902
  0
LINE
  5
12B
330
1F
100
AcDbEntity
  8
0
  6
Continuous
 62
     7
370
    25
100
AcDbLine
 10
-594.347395647
 20
147.2005027685
 30
0.0
 11
-596.7609847944
 21
145.4187655747
 31
0.0
  0
ARC
  5
12C
330
1F
100
AcDbEntity
  8
0
  6
Continuous
 62
     7
370
    25
100
AcDbCircle
 10
-588.7156876365
 20
151.3578895539
 30
0.0
 40
10.00000000000004
100
AcDbArc
 50
126.0065943328
 51
216.4351381902
  0
LINE
  5
12D
330
1F
100
AcDbEntity
  8
0
  6
Continuous
 62
     7
370
    25
100
AcDbLine
 10
-592.8308361596
 20
157.020534928
 30
0.0
 11
-594.594471241
 21
159.4473829455
 31
0.0
  0
ARC
  5
12E
330
1F
100
AcDbEntity
  8
0
  6
Continuous
 62
     7
370
    25
100
AcDbCircle
 10
197.27768028
 20
-930.2073768961
 30
0.0
 40
1007.000000000001
100
AcDbArc
 50
78.3640050716
 51
83.4184258333
  0
ARC
  5
12F
330
1F
100
AcDbEntity
  8
0
  6
Continuous
 62
     7
370
    25
100
AcDbCircle
 10
419.1900992951
 20
58.1872195515
 30
0.0
 40
6.000000000000081
100
AcDbArc
 50
167.8549539366
 51
257.3459028016
  0
ARC
  5
130
330
1F
100
AcDbEntity
  8
0
  6
Continuous
 62
     7
370
    25
100
AcDbCircle
 10
470.6020428927
 20
382.6424975382
 30
0.0
 40
6.000000000000026
100
AcDbArc
 50
347.8549539366
 51
78.2394922564
  0
ARC
  5
131
330
1F
100
AcDbEntity
  8
0
  6
Continuous
 62
     7
370
    25
100
AcDbCircle
 10
197.27768028
 20
-930.2073768961
 30
0.0
 40
1344.0
100
AcDbArc
 50
114.6746304466
 51
119.9780768387
  0
LINE
  5
132
330
1F
100
AcDbEntity
  8
0
  6
Continuous
 62
     7
370
    25
100
AcDbLine
 10
-474.2769113185
 20
233.987808845
 30
0.0
 11
-475.7759171033
 21
236.5864588132
 31
0.0
  0
ARC
  5
133
330
1F
100
AcDbEntity
  8
0
  6
Continuous
 62
     7
370
    25
100
AcDbCircle
 10
197.27768028
 20
-930.2073768961
 30
0.0
 40
1347.0
100
AcDbArc
 50
114.6746304466
 51
119.9780768387
  0
LINE
  5
134
330
1F
100
AcDbEntity
  8
0
  6
Continuous
 62
     7
370
    25
100
AcDbLine
 10
345.1014678668
 20
402.6032352403
 30
0.0
 11
342.1183014963
 21
402.9205968729
 31
0.0
  0
ARC
  5
135
330
1F
100
AcDbEntity
  8
0
  6
Continuous
 62
     7
370
    25
100
AcDbCircle
 10
348.0846342373
 20
402.2858736076
 30
0.0
 40
5.999999999999996
100
AcDbArc
 50
83.5429386485
 51
173.9274769683
  0
LINE
  5
136
330
1F
100
AcDbEntity
  8
0
  6
Continuous
 62
     7
370
    25
100
AcDbLine
 10
-594.347395647
 20
147.2005027685
 30
0.0
 11
-404.2884393198
 21
-110.2584737628
 31
0.0
  0
LINE
  5
137
330
1F
100
AcDbEntity
  8
0
  6
Continuous
 62
     7
370
    25
100
AcDbLine
 10
-404.2884393198
 20
-110.2584737628
 30
0.0
 11
-406.7020284672
 21
-112.0402109566
 31
0.0
  0
LINE
  5
138
330
1F
100
AcDbEntity
  8
0
  6
Continuous
 62
     7
370
    25
100
AcDbLine
 10
-406.7020284672
 20
-112.0402109566
 30
0.0
 11
-596.7609847944
 21
145.4187655747
 31
0.0
  0
LINE
  5
139
330
1F
100
AcDbEntity
  8
0
  6
Continuous
 62
     7
370
    25
100
AcDbLine
 10
99.6506545698
 20
72.0490592772
 30
0.0
 11
99.3598094088
 21
75.0349275081
 31
0.0
  0
ARC
  5
13A
330
1F
100
AcDbEntity
  8
0
  6
Continuous
 62
     7
370
    25
100
AcDbCircle
 10
99.0689642478
 20
78.020795739
 30
0.0
 40
6.000000000000019
100
AcDbArc
 50
186.0725230317
 51
275.5634718967
  0
LINE
  5
13B
330
1F
100
AcDbEntity
  8
0
  6
Continuous
 62
     7
370
    25
100
AcDbLine
 10
96.0857978773
 20
77.7034341064
 30
0.0
 11
93.1026315068
 21
77.3860724737
 31
0.0
  0
ARC
  5
13C
330
1F
100
AcDbEntity
  8
0
  6
Continuous
 62
     7
370
    25
100
AcDbCircle
 10
-110.8512770074
 20
34.7929058401
 30
0.0
 40
2.99999999999996
100
AcDbArc
 50
198.2175690951
 51
287.7085179601
  0
LINE
  5
13D
330
1F
100
AcDbEntity
  8
0
  6
Continuous
 62
     7
370
    25
100
AcDbLine
 10
-109.0262288892
 20
29.0772082128
 30
0.0
 11
-109.9387529483
 21
31.9350570264
 31
0.0
  0
ARC
  5
13E
330
1F
100
AcDbEntity
  8
0
  6
Continuous
 62
     7
370
    25
100
AcDbCircle
 10
-110.8512770074
 20
34.7929058401
 30
0.0
 40
5.999999999999982
100
AcDbArc
 50
198.2175690951
 51
287.7085179601
  0
LINE
  5
13F
330
1F
100
AcDbEntity
  8
0
  6
Continuous
 62
     7
370
    25
100
AcDbLine
 10
488.8500003408
 20
381.7840796974
 30
0.0
 11
489.5008314123
 21
384.7126320558
 31
0.0
  0
ARC
  5
140
330
1F
100
AcDbEntity
  8
0
  6
Continuous
 62
     7
370
    25
100
AcDbCircle
 10
197.27768028
 20
-930.2073768961
 30
0.0
 40
1347.0
100
AcDbArc
 50
72.1669692247
 51
77.4704156168
  0
ARC
  5
141
330
1F
100
AcDbEntity
  8
0
  6
Continuous
 62
     7
370
    25
100
AcDbCircle
 10
-346.1360253492
 20
295.7545085368
 30
0.0
 40
3.000000000000208
100
AcDbArc
 50
113.905553807
 51
204.2900921268
  0
ARC
  5
142
330
1F
100
AcDbEntity
  8
0
  6
Continuous
 62
     7
370
    25
100
AcDbCircle
 10
197.27768028
 20
-930.2073768961
 30
0.0
 40
1344.0
100
AcDbArc
 50
108.6021074149
 51
113.905553807
  0
ARC
  5
143
330
1F
100
AcDbEntity
  8
0
  6
Continuous
 62
     7
370
    25
100
AcDbCircle
 10
-230.4935007027
 20
340.734327794
 30
0.0
 40
2.999999999999974
100
AcDbArc
 50
18.2175690951
 51
108.6021074149
  0
LINE
  5
144
330
1F
100
AcDbEntity
  8
0
  6
Continuous
 62
     7
370
    25
100
AcDbLine
 10
-125.0994205014
 20
30.1035128118
 30
0.0
 11
-227.6438720039
 21
341.6722063996
 31
0.0
  0
ARC
  5
145
330
1F
100
AcDbEntity
  8
0
  6
Continuous
 62
     7
370
    25
100
AcDbCircle
 10
-127.9490492002
 20
29.1656342062
 30
0.0
 40
3.000000000000014
100
AcDbArc
 50
288.7266202301
 51
18.2175690951
  0
ARC
  5
146
330
1F
100
AcDbEntity
  8
0
  6
Continuous
 62
     7
370
    25
100
AcDbCircle
 10
197.27768028
 20
-930.2073768961
 30
0.0
 40
1010.0
100
AcDbArc
 50
108.7266202301
 51
113.7810409918
  0
ARC
  5
147
330
1F
100
AcDbEntity
  8
0
  6
Continuous
 62
     7
370
    25
100
AcDbCircle
 10
-211.2069891873
 20
-3.2180162182
 30
0.0
 40
3.000000000000012
100
AcDbArc
 50
204.2900921268
 51
293.7810409918
  0
LINE
  5
148
330
1F
100
AcDbEntity
  8
0
  6
Continuous
 62
     7
370
    25
100
AcDbLine
 10
-348.8704486216
 20
294.5204382927
 30
0.0
 11
-213.9414124597
 21
-4.4520864623
 31
0.0
  0
LINE
  5
149
330
1F
100
AcDbEntity
  8
0
  6
Continuous
 62
     7
370
    25
100
AcDbLine
 10
336.1519687553
 20
403.5553201383
 30
0.0
 11
301.4527290533
 21
77.3860724737
 31
0.0
  0
LINE
  5
14A
330
1F
100
AcDbEntity
  8
0
  6
Continuous
 62
     7
370
    25
100
AcDbLine
 10
298.4695626828
 20
77.7034341064
 30
0.0
 11
333.1688023848
 21
403.8726817709
 31
0.0
  0
ARC
  5
14B
330
1F
100
AcDbEntity
  8
0
  6
Continuous
 62
     7
370
    25
100
AcDbCircle
 10
206.27768028
 20
410.7624214215
 30
0.0
 40
3.000000000000185
100
AcDbArc
 50
89.6154616802
 51
180.0
  0
ARC
  5
14C
330
1F
100
AcDbEntity
  8
0
  6
Continuous
 62
     7
370
    25
100
AcDbCircle
 10
206.27768028
 20
410.7624214215
 30
0.0
 40
6.000000000000085
100
AcDbArc
 50
89.6154616802
 51
180.0
  0
LINE
  5
14D
330
1F
100
AcDbEntity
  8
0
  6
Continuous
 62
     7
370
    25
100
AcDbLine
 10
206.2978145082
 20
413.7623538562
 30
0.0
 11
206.3179487364
 21
416.7622862909
 31
0.0
  0
ARC
  5
14E
330
1F
100
AcDbEntity
  8
0
  6
Continuous
 62
     7
370
    25
100
AcDbCircle
 10
197.27768028
 20
-930.2073768961
 30
0.0
 40
1344.0
100
AcDbArc
 50
84.3120152881
 51
89.6154616802
  0
ARC
  5
14F
330
1F
100
AcDbEntity
  8
0
  6
Continuous
 62
     7
370
    25
100
AcDbCircle
 10
197.27768028
 20
-930.2073768961
 30
0.0
 40
1010.0
100
AcDbArc
 50
84.4365281033
 51
89.490948865
  0
ARC
  5
150
330
1F
100
AcDbEntity
  8
0
  6
Continuous
 62
     7
370
    25
100
AcDbCircle
 10
206.27768028
 20
82.7526420582
 30
0.0
 40
3.000000000000061
100
AcDbArc
 50
180.0
 51
269.490948865
  0
ARC
  5
151
330
1F
100
AcDbEntity
  8
0
  6
Continuous
 62
     7
370
    25
100
AcDbCircle
 10
-398.6567313092
 20
-106.1010869773
 30
0.0
 40
7.000000000000269
100
AcDbArc
 50
216.4351381902
 51
305.8717487819
  0
LINE
  5
152
330
1F
100
AcDbEntity
  8
0
  6
Continuous
 62
     7
370
    25
100
AcDbLine
 10
-392.7970025817
 20
-114.2043936629
 30
0.0
 11
-394.5549212
 21
-111.7734016572
 31
0.0
  0
ARC
  5
153
330
1F
100
AcDbEntity
  8
0
  6
Continuous
 62
     7
370
    25
100
AcDbCircle
 10
-398.6567313092
 20
-106.1010869773
 30
0.0
 40
10.0000000000002
100
AcDbArc
 50
216.4351381902
 51
305.8717487819
  0
LINE
  5
154
330
1F
100
AcDbEntity
  8
0
  6
Continuous
 62
     7
370
    25
100
AcDbLine
 10
206.2243732712
 20
76.752878866
 30
0.0
 11
206.2510267756
 21
79.7527604621
 31
0.0
  0
ARC
  5
155
330
1F
100
AcDbEntity
  8
0
  6
Continuous
 62
     7
370
    25
100
AcDbCircle
 10
206.27768028
 20
82.7526420582
 30
0.0
 40
6.0
100
AcDbArc
 50
180.0
 51
269.490948865
  0
ARC
  5
156
330
1F
100
AcDbEntity
  8
0
  6
Continuous
 62
     7
370
    25
100
AcDbCircle
 10
188.27768028
 20
410.7624214215
 30
0.0
 40
6.000000000000085
100
AcDbArc
 50
0.0
 51
90.3845383198
  0
ARC
  5
157
330
1F
100
AcDbEntity
  8
0
  6
Continuous
 62
     7
370
    25
100
AcDbCircle
 10
197.27768028
 20
-930.2073768961
 30
0.0
 40
1344.0
100
AcDbArc
 50
120.7471534783
 51
126.0065943328
  0
ARC
  5
158
330
1F
100
AcDbEntity
  8
0
  6
Continuous
 62
     7
370
    25
100
AcDbCircle
 10
197.27768028
 20
-930.2073768961
 30
0.0
 40
1347.0
100
AcDbArc
 50
120.7471534783
 51
126.0065943328
  0
LINE
  5
159
330
1F
100
AcDbEntity
  8
0
  6
Continuous
 62
     7
370
    25
100
AcDbLine
 10
-489.8428427039
 20
224.8689785428
 30
0.0
 11
-491.3765938713
 21
227.4472739791
 31
0.0
  0
ARC
  5
15A
330
1F
100
AcDbEntity
  8
0
  6
Continuous
 62
     7
370
    25
100
AcDbCircle
 10
-227.6135288217
 20
-10.6224376828
 30
0.0
 40
5.999999999999966
100
AcDbArc
 50
294.7991432618
 51
24.2900921268
  0
LINE
  5
15B
330
1F
100
AcDbEntity
  8
0
  6
Continuous
 62
     7
370
    25
100
AcDbLine
 10
-225.0968977708
 20
-16.0691401855
 30
0.0
 11
-226.3552132962
 21
-13.3457889342
 31
0.0
  0
ARC
  5
15C
330
1F
100
AcDbEntity
  8
0
  6
Continuous
 62
     7
370
    25
100
AcDbCircle
 10
-227.6135288217
 20
-10.6224376828
 30
0.0
 40
2.999999999999987
100
AcDbArc
 50
294.7991432618
 51
24.2900921268
  0
LINE
  5
15D
330
1F
100
AcDbEntity
  8
0
  6
Continuous
 62
     7
370
    25
100
AcDbLine
 10
-222.1446822769
 20
-8.1542971946
 30
0.0
 11
-224.8791055493
 21
-9.3883674387
 31
0.0
  0
ARC
  5
15E
330
1F
100
AcDbEntity
  8
0
  6
Continuous
 62
     7
370
    25
100
AcDbCircle
 10
188.27768028
 20
82.7526420582
 30
0.0
 40
6.0
100
AcDbArc
 50
270.509051135
 51
0.0
  0
LINE
  5
15F
330
1F
100
AcDbEntity
  8
0
  6
Continuous
 62
     7
370
    25
100
AcDbLine
 10
188.3309872889
 20
76.752878866
 30
0.0
 11
188.3043337845
 21
79.7527604621
 31
0.0
  0
ARC
  5
160
330
1F
100
AcDbEntity
  8
0
  6
Continuous
 62
     7
370
    25
100
AcDbCircle
 10
197.27768028
 20
-930.2073768961
 30
0.0
 40
1007.0
100
AcDbArc
 50
102.6540971984
 51
107.7085179601
  0
ARC
  5
161
330
1F
100
AcDbEntity
  8
0
  6
Continuous
 62
     7
370
    25
100
AcDbCircle
 10
197.27768028
 20
-930.2073768961
 30
0.0
 40
1010.0
100
AcDbArc
 50
102.6540971984
 51
107.7085179601
  0
LINE
  5
162
330
1F
100
AcDbEntity
  8
0
  6
Continuous
 62
     7
370
    25
100
AcDbLine
 10
-23.3203512581
 20
52.332957381
 30
0.0
 11
-23.9775449965
 21
55.2600884663
 31
0.0
  0
ARC
  5
163
330
1F
100
AcDbEntity
  8
0
  6
Continuous
 62
     7
370
    25
100
AcDbCircle
 10
197.27768028
 20
-930.2073768961
 30
0.0
 40
1007.0
100
AcDbArc
 50
90.509051135
 51
95.5634718967
  0
ARC
  5
164
330
1F
100
AcDbEntity
  8
0
  6
Continuous
 62
     7
370
    25
100
AcDbCircle
 10
197.27768028
 20
-930.2073768961
 30
0.0
 40
1007.000000000001
100
AcDbArc
 50
114.7991432618
 51
119.8535640235
  0
LINE
  5
165
330
1F
100
AcDbEntity
  8
0
  6
Continuous
 62
     7
370
    25
100
AcDbLine
 10
-303.9918050384
 20
-56.8358047182
 30
0.0
 11
-305.4851600096
 21
-54.2339033115
 31
0.0
  0
ARC
  5
166
330
1F
100
AcDbEntity
  8
0
  6
Continuous
 62
     7
370
    25
100
AcDbCircle
 10
197.27768028
 20
-930.2073768961
 30
0.0
 40
1010.0
100
AcDbArc
 50
114.7991432618
 51
119.8535640235
  0
ARC
  5
167
330
1F
100
AcDbEntity
  8
0
  6
Continuous
 62
     7
370
    25
100
AcDbCircle
 10
-213.3957285098
 20
346.3615994279
 30
0.0
 40
3.000000000000018
100
AcDbArc
 50
107.8330307753
 51
198.2175690951
  0
LINE
  5
168
330
1F
100
AcDbEntity
  8
0
  6
Continuous
 62
     7
370
    25
100
AcDbLine
 10
-21.7018843389
 20
58.8183812514
 30
0.0
 11
-90.710954313
 21
379.4866890388
 31
0.0
  0
ARC
  5
169
330
1F
100
AcDbEntity
  8
0
  6
Continuous
 62
     7
370
    25
100
AcDbCircle
 10
-24.634738735
 20
58.1872195515
 30
0.0
 40
3.00000000000027
100
AcDbArc
 50
282.6540971984
 51
12.1450460634
  0
ARC
  5
16A
330
1F
100
AcDbEntity
  8
0
  6
Continuous
 62
     7
370
    25
100
AcDbCircle
 10
-306.9785149807
 20
-51.6320019048
 30
0.0
 40
3.00000000000004
100
AcDbArc
 50
210.3626151585
 51
299.8535640235
  0
ARC
  5
16B
330
1F
100
AcDbEntity
  8
0
  6
Continuous
 62
     7
370
    25
100
AcDbCircle
 10
-306.9785149807
 20
-51.6320019048
 30
0.0
 40
5.999999999999942
100
AcDbArc
 50
210.3626151585
 51
299.8535640235
  0
LINE
  5
16C
330
1F
100
AcDbEntity
  8
0
  6
Continuous
 62
     7
370
    25
100
AcDbLine
 10
52.4370590638
 20
402.9205968729
 30
0.0
 11
87.1362987658
 21
76.7513492084
 31
0.0
  0
LINE
  5
16D
330
1F
100
AcDbEntity
  8
0
  6
Continuous
 62
     7
370
    25
100
AcDbLine
 10
52.4370590638
 20
402.9205968729
 30
0.0
 11
49.4538926933
 21
402.6032352403
 31
0.0
  0
LINE
  5
16E
330
1F
100
AcDbEntity
  8
0
  6
Continuous
 62
     7
370
    25
100
AcDbLine
 10
-78.9795367287
 20
382.0113358383
 30
0.0
 11
-81.9123911248
 21
381.3801741385
 31
0.0
  0
ARC
  5
16F
330
1F
100
AcDbEntity
  8
0
  6
Continuous
 62
     7
370
    25
100
AcDbCircle
 10
-76.0466823326
 20
382.6424975382
 30
0.0
 40
6.000000000000069
100
AcDbArc
 50
101.7605077436
 51
192.1450460634
  0
LINE
  5
170
330
1F
100
AcDbEntity
  8
0
  6
Continuous
 62
     7
370
    25
100
AcDbLine
 10
-76.6581462311
 20
385.5795218658
 30
0.0
 11
-77.2696101296
 21
388.5165461934
 31
0.0
  0
LINE
  5
171
330
1F
100
AcDbEntity
  8
0
  6
Continuous
 62
     7
370
    25
100
AcDbLine
 10
-9.9704667546
 20
61.3430280509
 30
0.0
 11
-12.9033211507
 21
60.711866351
 31
0.0
  0
LINE
  5
172
330
1F
100
AcDbEntity
  8
0
  6
Continuous
 62
     7
370
    25
100
AcDbLine
 10
-81.9123911248
 20
381.3801741385
 30
0.0
 11
-12.9033211507
 21
60.711866351
 31
0.0
  0
ARC
  5
173
330
1F
100
AcDbEntity
  8
0
  6
Continuous
 62
     7
370
    25
100
AcDbCircle
 10
197.27768028
 20
-930.2073768961
 30
0.0
 40
1007.0
100
AcDbArc
 50
96.5815741667
 51
101.6359949284
  0
LINE
  5
174
330
1F
100
AcDbEntity
  8
0
  6
Continuous
 62
     7
370
    25
100
AcDbLine
 10
-5.8274526785
 20
56.0974973521
 30
0.0
 11
-6.4325325185
 21
59.0358435515
 31
0.0
  0
ARC
  5
175
330
1F
100
AcDbEntity
  8
0
  6
Continuous
 62
     7
370
    25
100
AcDbCircle
 10
-7.0376123585
 20
61.9741897508
 30
0.0
 40
6.000000000000029
100
AcDbArc
 50
192.1450460634
 51
281.6359949284
  0
LINE
  5
176
330
1F
100
AcDbEntity
  8
0
  6
Continuous
 62
     7
370
    25
100
AcDbLine
 10
-87.778099917
 20
380.1178507387
 30
0.0
 11
-18.7690299428
 21
59.4495429513
 31
0.0
  0
LINE
  5
177
330
1F
100
AcDbEntity
  8
0
  6
Continuous
 62
     7
370
    25
100
AcDbLine
 10
-18.7690299428
 20
59.4495429513
 30
0.0
 11
-21.7018843389
 21
58.8183812514
 31
0.0
  0
ARC
  5
178
330
1F
100
AcDbEntity
  8
0
  6
Continuous
 62
     7
370
    25
100
AcDbCircle
 10
-213.3957285098
 20
346.3615994279
 30
0.0
 40
6.000000000000036
100
AcDbArc
 50
107.8330307753
 51
198.2175690951
  0
ARC
  5
179
330
1F
100
AcDbEntity
  8
0
  6
Continuous
 62
     7
370
    25
100
AcDbCircle
 10
-24.634738735
 20
58.1872195515
 30
0.0
 40
6.000000000000079
100
AcDbArc
 50
282.6540971984
 51
12.1450460634
  0
LINE
  5
17A
330
1F
100
AcDbEntity
  8
0
  6
Continuous
 62
     7
370
    25
100
AcDbLine
 10
342.1183014963
 20
402.9205968729
 30
0.0
 11
307.4190617943
 21
76.7513492084
 31
0.0
  0
ARC
  5
17B
330
1F
100
AcDbEntity
  8
0
  6
Continuous
 62
     7
370
    25
100
AcDbCircle
 10
-472.7779055336
 20
231.3891588769
 30
0.0
 40
3.000000000000444
100
AcDbArc
 50
119.9780768387
 51
210.3626151585
  0
LINE
  5
17C
330
1F
100
AcDbEntity
  8
0
  6
Continuous
 62
     7
370
    25
100
AcDbLine
 10
-224.8791055493
 20
-9.3883674387
 30
0.0
 11
-359.8081417112
 21
289.5841573163
 31
0.0
  0
ARC
  5
17D
330
1F
100
AcDbEntity
  8
0
  6
Continuous
 62
     7
370
    25
100
AcDbCircle
 10
197.27768028
 20
-930.2073768961
 30
0.0
 40
1347.0
100
AcDbArc
 50
84.3120152881
 51
89.6154616802
  0
LINE
  5
17E
330
1F
100
AcDbEntity
  8
0
  6
Continuous
 62
     7
370
    25
100
AcDbLine
 10
-224.7942433051
 20
342.6100850053
 30
0.0
 11
-122.2497918026
 21
31.0413914175
 31
0.0
  0
LINE
  5
17F
330
1F
100
AcDbEntity
  8
0
  6
Continuous
 62
     7
370
    25
100
AcDbLine
 10
-122.2497918026
 20
31.0413914175
 30
0.0
 11
-125.0994205014
 21
30.1035128118
 31
0.0
  0
LINE
  5
180
330
1F
100
AcDbEntity
  8
0
  6
Continuous
 62
     7
370
    25
100
AcDbLine
 10
-224.7942433051
 20
342.6100850053
 30
0.0
 11
-227.6438720039
 21
341.6722063996
 31
0.0
  0
LINE
  5
181
330
1F
100
AcDbEntity
  8
0
  6
Continuous
 62
     7
370
    25
100
AcDbLine
 10
-348.8704486216
 20
294.5204382927
 30
0.0
 11
-351.604871894
 21
293.2863680486
 31
0.0
  0
ARC
  5
182
330
1F
100
AcDbEntity
  8
0
  6
Continuous
 62
     7
370
    25
100
AcDbCircle
 10
-346.1360253492
 20
295.7545085368
 30
0.0
 40
6.000000000000042
100
AcDbArc
 50
113.905553807
 51
204.2900921268
  0
LINE
  5
183
330
1F
100
AcDbEntity
  8
0
  6
Continuous
 62
     7
370
    25
100
AcDbLine
 10
-347.3517159659
 20
298.4971525758
 30
0.0
 11
-348.5674065825
 21
301.2397966148
 31
0.0
  0
ARC
  5
184
330
1F
100
AcDbEntity
  8
0
  6
Continuous
 62
     7
370
    25
100
AcDbCircle
 10
625.0488612628
 20
340.734327794
 30
0.0
 40
6.000000000000177
100
AcDbArc
 50
71.3978925851
 51
161.7824309049
  0
ARC
  5
185
330
1F
100
AcDbEntity
  8
0
  6
Continuous
 62
     7
370
    25
100
AcDbCircle
 10
-127.9490492002
 20
29.1656342062
 30
0.0
 40
6.000000000000014
100
AcDbArc
 50
288.7266202301
 51
18.2175690951
  0
LINE
  5
186
330
1F
100
AcDbEntity
  8
0
  6
Continuous
 62
     7
370
    25
100
AcDbLine
 10
-126.0227309605
 20
23.4832669144
 30
0.0
 11
-126.9858900804
 21
26.3244505603
 31
0.0
  0
ARC
  5
187
330
1F
100
AcDbEntity
  8
0
  6
Continuous
 62
     7
370
    25
100
AcDbCircle
 10
197.27768028
 20
-930.2073768961
 30
0.0
 40
1007.000000000001
100
AcDbArc
 50
84.4365281033
 51
89.490948865
  0
LINE
  5
188
330
1F
100
AcDbEntity
  8
0
  6
Continuous
 62
     7
370
    25
100
AcDbLine
 10
-208.7875340868
 20
-8.7085751166
 30
0.0
 11
-209.9972616371
 21
-5.9632956674
 31
0.0
  0
ARC
  5
189
330
1F
100
AcDbEntity
  8
0
  6
Continuous
 62
     7
370
    25
100
AcDbCircle
 10
-211.2069891873
 20
-3.2180162182
 30
0.0
 40
5.999999999999966
100
AcDbArc
 50
204.2900921268
 51
293.7810409918
  0
LINE
  5
18A
330
1F
100
AcDbEntity
  8
0
  6
Continuous
 62
     7
370
    25
100
AcDbLine
 10
-213.9414124597
 20
-4.4520864623
 30
0.0
 11
-216.6758357321
 21
-5.6861567064
 31
0.0
  0
ARC
  5
18B
330
1F
100
AcDbEntity
  8
0
  6
Continuous
 62
     7
370
    25
100
AcDbCircle
 10
-488.3090915366
 20
222.2906831066
 30
0.0
 40
3.000000000000076
100
AcDbArc
 50
30.3626151585
 51
120.7471534783
  0
ARC
  5
18C
330
1F
100
AcDbEntity
  8
0
  6
Continuous
 62
     7
370
    25
100
AcDbCircle
 10
-488.3090915366
 20
222.2906831066
 30
0.0
 40
6.000000000000044
100
AcDbArc
 50
30.3626151585
 51
120.7471534783
  0
LINE
  5
18D
330
1F
100
AcDbEntity
  8
0
  6
Continuous
 62
     7
370
    25
100
AcDbLine
 10
-483.1320295356
 20
225.3235083634
 30
0.0
 11
-485.7205605361
 21
223.807095735
 31
0.0
  0
LINE
  5
18E
330
1F
100
AcDbEntity
  8
0
  6
Continuous
 62
     7
370
    25
100
AcDbLine
 10
-231.4504832105
 20
343.5775978268
 30
0.0
 11
-232.4074657183
 21
346.4208678597
 31
0.0
  0
ARC
  5
18F
330
1F
100
AcDbEntity
  8
0
  6
Continuous
 62
     7
370
    25
100
AcDbCircle
 10
-230.4935007027
 20
340.734327794
 30
0.0
 40
6.000000000000046
100
AcDbArc
 50
18.2175690951
 51
108.6021074149
  0
ARC
  5
190
330
1F
100
AcDbEntity
  8
0
  6
Continuous
 62
     7
370
    25
100
AcDbCircle
 10
740.6913859093
 20
295.7545085368
 30
0.0
 40
6.000000000000273
100
AcDbArc
 50
335.7099078732
 51
66.094446193
  0
LINE
  5
191
330
1F
100
AcDbEntity
  8
0
  6
Continuous
 62
     7
370
    25
100
AcDbLine
 10
61.3865581753
 20
403.8726817709
 30
0.0
 11
58.4033918048
 21
403.5553201383
 31
0.0
  0
ARC
  5
192
330
1F
100
AcDbEntity
  8
0
  6
Continuous
 62
     7
370
    25
100
AcDbCircle
 10
64.3697245458
 20
404.1900434036
 30
0.0
 40
6.000000000000093
100
AcDbArc
 50
95.6879847119
 51
186.0725230317
  0
ARC
  5
193
330
1F
100
AcDbEntity
  8
0
  6
Continuous
 62
     7
370
    25
100
AcDbCircle
 10
-472.7779055336
 20
231.3891588769
 30
0.0
 40
6.000000000000159
100
AcDbArc
 50
119.9780768387
 51
210.3626151585
  0
ARC
  5
194
330
1F
100
AcDbEntity
  8
0
  6
Continuous
 62
     7
370
    25
100
AcDbCircle
 10
488.1991692692
 20
378.8555273389
 30
0.0
 40
6.000000000000015
100
AcDbArc
 50
77.4704156168
 51
167.8549539366
  0
LINE
  5
195
330
1F
100
AcDbEntity
  8
0
  6
Continuous
 62
     7
370
    25
100
AcDbLine
 10
58.4033918048
 20
403.5553201383
 30
0.0
 11
93.1026315068
 21
77.3860724737
 31
0.0
  0
ARC
  5
196
330
1F
100
AcDbEntity
  8
0
  6
Continuous
 62
     7
370
    25
100
AcDbCircle
 10
197.27768028
 20
-930.2073768961
 30
0.0
 40
1007.0
100
AcDbArc
 50
120.8716662935
 51
125.8717487819
  0
ARC
  5
197
330
1F
100
AcDbEntity
  8
0
  6
Continuous
 62
     7
370
    25
100
AcDbCircle
 10
197.27768028
 20
-930.2073768961
 30
0.0
 40
1010.0
100
AcDbArc
 50
120.8716662935
 51
125.8717487819
  0
ARC
  5
198
330
1F
100
AcDbEntity
  8
0
  6
Continuous
 62
     7
370
    25
100
AcDbCircle
 10
197.27768028
 20
-930.2073768961
 30
0.0
 40
1347.0
100
AcDbArc
 50
96.4570613515
 51
101.7605077436
  0
LINE
  5
199
330
1F
100
AcDbEntity
  8
0
  6
Continuous
 62
     7
370
    25
100
AcDbLine
 10
46.1333505869
 20
405.2668428481
 30
0.0
 11
45.7959748509
 21
408.2478120886
 31
0.0
  0
ARC
  5
19A
330
1F
100
AcDbEntity
  8
0
  6
Continuous
 62
     7
370
    25
100
AcDbCircle
 10
46.4707263228
 20
402.2858736076
 30
0.0
 40
6.000000000000024
100
AcDbArc
 50
6.0725230317
 51
96.4570613515
  0
LINE
  5
19B
330
1F
100
AcDbEntity
  8
0
  6
Continuous
 62
     7
370
    25
100
AcDbLine
 10
-351.604871894
 20
293.2863680486
 30
0.0
 11
-216.6758357321
 21
-5.6861567064
 31
0.0
  0
LINE
  5
19C
330
1F
100
AcDbEntity
  8
0
  6
Continuous
 62
     7
370
    25
100
AcDbLine
 10
-357.0737184388
 20
290.8182275604
 30
0.0
 11
-222.1446822769
 21
-8.1542971946
 31
0.0
  0
LINE
  5
19D
330
1F
100
AcDbEntity
  8
0
  6
Continuous
 62
     7
370
    25
100
AcDbLine
 10
-483.1320295356
 20
225.3235083634
 30
0.0
 11
-317.3326389827
 21
-57.6976524184
 31
0.0
  0
LINE
  5
19E
330
1F
100
AcDbEntity
  8
0
  6
Continuous
 62
     7
370
    25
100
AcDbLine
 10
-319.9211699832
 20
-59.2140650467
 30
0.0
 11
-485.7205605361
 21
223.807095735
 31
0.0
  0
ARC
  5
19F
330
1F
100
AcDbEntity
  8
0
  6
Continuous
 62
     7
370
    25
100
AcDbCircle
 10
197.27768028
 20
-930.2073768961
 30
0.0
 40
1007.0
100
AcDbArc
 50
108.7266202301
 51
113.7810409918
  0
ARC
  5
1A0
330
1F
100
AcDbEntity
  8
0
  6
Continuous
 62
     7
370
    25
100
AcDbCircle
 10
197.27768028
 20
-930.2073768961
 30
0.0
 40
1347.0
100
AcDbArc
 50
108.6021074149
 51
113.905553807
  0
ARC
  5
1A1
330
1F
100
AcDbEntity
  8
0
  6
Continuous
 62
     7
370
    25
100
AcDbCircle
 10
197.27768028
 20
-930.2073768961
 30
0.0
 40
1347.0
100
AcDbArc
 50
83.5429386485
 51
84.3120152881
  0
ARC
  5
1A2
330
1F
100
AcDbEntity
  8
0
  6
Continuous
 62
     7
370
    25
100
AcDbCircle
 10
197.27768028
 20
-930.2073768961
 30
0.0
 40
1007.000000000001
100
AcDbArc
 50
83.4184258333
 51
84.4365281033
  0
ARC
  5
1A3
330
1F
100
AcDbEntity
  8
0
  6
Continuous
 62
     7
370
    25
100
AcDbCircle
 10
197.27768028
 20
-930.2073768961
 30
0.0
 40
1347.0
100
AcDbArc
 50
65.3253695534
 51
66.094446193
  0
ARC
  5
1A4
330
1F
100
AcDbEntity
  8
0
  6
Continuous
 62
     7
370
    25
100
AcDbCircle
 10
197.27768028
 20
-930.2073768961
 30
0.0
 40
1007.0
100
AcDbArc
 50
65.2008567382
 51
66.2189590082
  0
ARC
  5
1A5
330
1F
100
AcDbEntity
  8
0
  6
Continuous
 62
     7
370
    25
100
AcDbCircle
 10
197.27768028
 20
-930.2073768961
 30
0.0
 40
1347.0
100
AcDbArc
 50
77.4704156168
 51
78.2394922564
  0
ARC
  5
1A6
330
1F
100
AcDbEntity
  8
0
  6
Continuous
 62
     7
370
    25
100
AcDbCircle
 10
197.27768028
 20
-930.2073768961
 30
0.0
 40
1007.000000000001
100
AcDbArc
 50
77.3459028016
 51
78.3640050716
  0
ARC
  5
1A7
330
1F
100
AcDbEntity
  8
0
  6
Continuous
 62
     7
370
    25
100
AcDbCircle
 10
197.27768028
 20
-930.2073768961
 30
0.0
 40
1007.0
100
AcDbArc
 50
59.1283337065
 51
60.1464359765
  0
ARC
  5
1A8
330
1F
100
AcDbEntity
  8
0
  6
Continuous
 62
     7
370
    25
100
AcDbCircle
 10
197.27768028
 20
-930.2073768961
 30
0.0
 40
1347.0
100
AcDbArc
 50
59.2528465217
 51
60.0219231613
  0
ARC
  5
1A9
330
1F
100
AcDbEntity
  8
0
  6
Continuous
 62
     7
370
    25
100
AcDbCircle
 10
197.27768028
 20
-930.2073768961
 30
0.0
 40
1007.000000000001
100
AcDbArc
 50
71.2733797699
 51
72.2914820399
  0
ARC
  5
1AA
330
1F
100
AcDbEntity
  8
0
  6
Continuous
 62
     7
370
    25
100
AcDbCircle
 10
197.27768028
 20
-930.2073768961
 30
0.0
 40
1347.0
100
AcDbArc
 50
71.3978925851
 51
72.1669692247
  0
ARC
  5
1AB
330
1F
100
AcDbEntity
  8
0
  6
Continuous
 62
     7
370
    25
100
AcDbCircle
 10
197.27768028
 20
-930.2073768961
 30
0.0
 40
1007.0
100
AcDbArc
 50
89.490948865
 51
90.509051135
  0
ARC
  5
1AC
330
1F
100
AcDbEntity
  8
0
  6
Continuous
 62
     7
370
    25
100
AcDbCircle
 10
197.27768028
 20
-930.2073768961
 30
0.0
 40
1347.0
100
AcDbArc
 50
89.6154616802
 51
90.3845383198
  0
ARC
  5
1AD
330
1F
100
AcDbEntity
  8
0
  6
Continuous
 62
     7
370
    25
100
AcDbCircle
 10
197.27768028
 20
-930.2073768961
 30
0.0
 40
1007.0
100
AcDbArc
 50
95.5634718967
 51
96.5815741667
  0
ARC
  5
1AE
330
1F
100
AcDbEntity
  8
0
  6
Continuous
 62
     7
370
    25
100
AcDbCircle
 10
197.27768028
 20
-930.2073768961
 30
0.0
 40
1347.0
100
AcDbArc
 50
95.6879847119
 51
96.4570613515
  0
ARC
  5
1AF
330
1F
100
AcDbEntity
  8
0
  6
Continuous
 62
     7
370
    25
100
AcDbCircle
 10
197.27768028
 20
-930.2073768961
 30
0.0
 40
1007.000000000001
100
AcDbArc
 50
113.7810409918
 51
114.7991432618
  0
ARC
  5
1B0
330
1F
100
AcDbEntity
  8
0
  6
Continuous
 62
     7
370
    25
100
AcDbCircle
 10
197.27768028
 20
-930.2073768961
 30
0.0
 40
1347.0
100
AcDbArc
 50
113.905553807
 51
114.6746304466
  0
ARC
  5
1B1
330
1F
100
AcDbEntity
  8
0
  6
Continuous
 62
     7
370
    25
100
AcDbCircle
 10
197.27768028
 20
-930.2073768961
 30
0.0
 40
1007.0
100
AcDbArc
 50
101.6359949284
 51
102.6540971984
  0
ARC
  5
1B2
330
1F
100
AcDbEntity
  8
0
  6
Continuous
 62
     7
370
    25
100
AcDbCircle
 10
197.27768028
 20
-930.2073768961
 30
0.0
 40
1347.0
100
AcDbArc
 50
101.7605077436
 51
102.5295843832
  0
ARC
  5
1B3
330
1F
100
AcDbEntity
  8
0
  6
Continuous
 62
     7
370
    25
100
AcDbCircle
 10
197.27768028
 20
-930.2073768961
 30
0.0
 40
1007.0
100
AcDbArc
 50
119.8535640235
 51
120.8716662935
  0
ARC
  5
1B4
330
1F
100
AcDbEntity
  8
0
  6
Continuous
 62
     7
370
    25
100
AcDbCircle
 10
197.27768028
 20
-930.2073768961
 30
0.0
 40
1347.0
100
AcDbArc
 50
119.9780768387
 51
120.7471534783
  0
ARC
  5
1B5
330
1F
100
AcDbEntity
  8
0
  6
Continuous
 62
     7
370
    25
100
AcDbCircle
 10
197.27768028
 20
-930.2073768961
 30
0.0
 40
1007.0
100
AcDbArc
 50
107.7085179601
 51
108.7266202301
  0
ARC
  5
1B6
330
1F
100
AcDbEntity
  8
0
  6
Continuous
 62
     7
370
    25
100
AcDbCircle
 10
197.27768028
 20
-930.2073768961
 30
0.0
 40
1347.0
100
AcDbArc
 50
107.8330307753
 51
108.6021074149
  0
CIRCLE
  5
1B7
330
1F
100
AcDbEntity
  8
0
  6
Continuous
 62
     7
370
    25
100
AcDbCircle
 10
397.27768028
 20
225.7926231038
 30
0.0
 40
6.637921400061369
  0
CIRCLE
  5
1B8
330
1F
100
AcDbEntity
  8
0
  6
Continuous
 62
     7
370
    25
100
AcDbCircle
 10
397.27768028
 20
115.7926231038
 30
0.0
 40
6.637921400061397
  0
CIRCLE
  5
1B9
330
1F
100
AcDbEntity
  8
0
  6
Continuous
 62
     7
370
    25
100
AcDbCircle
 10
-417.72231972
 20
10.7926231039
 30
0.0
 40
6.63792140006137
  0
CIRCLE
  5
1BA
330
1F
100
AcDbEntity
  8
0
  6
Continuous
 62
     7
370
    25
100
AcDbCircle
 10
747.27768028
 20
225.7926231038
 30
0.0
 40
6.637921400061378
  0
CIRCLE
  5
1BB
330
1F
100
AcDbEntity
  8
0
  6
Continuous
 62
     7
370
    25
100
AcDbCircle
 10
812.27768028
 20
10.7926231039
 30
0.0
 40
6.637921400061381
  0
CIRCLE
  5
1BC
330
1F
100
AcDbEntity
  8
0
  6
Continuous
 62
     7
370
    25
100
AcDbCircle
 10
-2.72231972
 20
115.7926231038
 30
0.0
 40
6.637921400061375
  0
CIRCLE
  5
1BD
330
1F
100
AcDbEntity
  8
0
  6
Continuous
 62
     7
370
    25
100
AcDbCircle
 10
-352.72231972
 20
115.7926231038
 30
0.0
 40
6.63792140006137
  0
CIRCLE
  5
1BE
330
1F
100
AcDbEntity
  8
0
  6
Continuous
 62
     7
370
    25
100
AcDbCircle
 10
-417.72231972
 20
160.7926231039
 30
0.0
 40
6.637921400061379
  0
CIRCLE
  5
1BF
330
1F
100
AcDbEntity
  8
0
  6
Continuous
 62
     7
370
    25
100
AcDbCircle
 10
-2.72231972
 20
225.7926231038
 30
0.0
 40
6.637921400061347
  0
CIRCLE
  5
1C0
330
1F
100
AcDbEntity
  8
0
  6
Continuous
 62
     7
370
    25
100
AcDbCircle
 10
747.27768028
 20
115.7926231038
 30
0.0
 40
6.637921400061406
  0
CIRCLE
  5
1C1
330
1F
100
AcDbEntity
  8
0
  6
Continuous
 62
     7
370
    25
100
AcDbCircle
 10
812.27768028
 20
160.7926231039
 30
0.0
 40
6.637921400061388
  0
CIRCLE
  5
1C2
330
1F
100
AcDbEntity
  8
0
  6
Continuous
 62
     7
370
    25
100
AcDbCircle
 10
-352.72231972
 20
225.7926231038
 30
0.0
 40
6.637921400061343
  0
ENDSEC
  0
SECTION
  2
OBJECTS
  0
DICTIONARY
  5
C
330
0
100
AcDbDictionary
281
     1
  3
ACAD_GROUP
350
D
  3
ACAD_LAYOUT
350
1A
  3
ACAD_MLINESTYLE
350
17
  3
ACAD_PLOTSETTINGS
350
19
  3
ACAD_PLOTSTYLENAME
350
E
  3
ACAD_SCALELIST
350
47
  3
DWGPROPS
350
1C3
  0
DICTIONARY
  5
D
102
{ACAD_REACTORS
330
C
102
}
330
C
100
AcDbDictionary
281
     1
  0
DICTIONARY
  5
1A
102
{ACAD_REACTORS
330
C
102
}
330
C
100
AcDbDictionary
281
     1
  3
Layout1
350
1E
  3
Layout2
350
26
  3
Model
350
22
  0
DICTIONARY
  5
17
102
{ACAD_REACTORS
330
C
102
}
330
C
100
AcDbDictionary
281
     1
  3
Standard
350
18
  0
DICTIONARY
  5
19
102
{ACAD_REACTORS
330
C
102
}
330
C
100
AcDbDictionary
281
     1
  0
ACDBDICTIONARYWDFLT
  5
E
102
{ACAD_REACTORS
330
C
102
}
330
C
100
AcDbDictionary
281
     1
  3
Normal
350
F
100
AcDbDictionaryWithDefault
340
F
  0
DICTIONARY
  5
47
102
{ACAD_REACTORS
330
C
102
}
330
C
100
AcDbDictionary
281
     1
  3
A0
350
48
  3
A1
350
49
  3
A2
350
4A
  3
A3
350
4B
  3
A4
350
4C
  3
A5
350
4D
  3
A6
350
4E
  3
A7
350
4F
  3
A8
350
50
  3
A9
350
51
  3
B0
350
52
  3
B1
350
53
  3
B2
350
54
  3
B3
350
55
  3
B4
350
56
  3
B5
350
57
  3
B6
350
58
  3
B7
350
59
  3
B8
350
5A
  3
B9
350
5B
  3
C0
350
5C
  3
C1
350
5D
  3
C2
350
5E
  3
C3
350
5F
  3
C4
350
60
  3
C5
350
61
  3
C6
350
62
  3
C7
350
63
  3
C8
350
64
  3
C9
350
65
  3
D0
350
66
  3
D1
350
67
  3
D2
350
68
  0
XRECORD
  5
1C3
102
{ACAD_REACTORS
330
C
102
}
330
C
100
AcDbXrecord
280
     1
  1
DWGPROPS COOKIE
  2

  3

  4

  6

  7

  8
Swing
  9

300
=
301
=
302
=
303
=
304
=
305
=
306
=
307
=
308
=
309
=
 40
0.0
 41
2459698.218717072
 42
2459698.218717442
  1

 90
        0
  0
LAYOUT
  5
1E
102
{ACAD_REACTORS
330
1A
102
}
330
1A
100
AcDbPlotSettings
  1

  2
none_device
  4

  6

 40
0.0
 41
0.0
 42
0.0
 43
0.0
 44
0.0
 45
0.0
 46
0.0
 47
0.0
 48
0.0
 49
0.0
140
0.0
141
0.0
142
1.0
143
1.0
 70
   688
 72
     1
 73
     0
 74
     5
  7

 75
    16
147
1.0
148
0.0
149
0.0
100
AcDbLayout
  1
Layout1
 70
     1
 71
     1
 10
0.0
 20
0.0
 11
420.0
 21
297.0
 12
0.0
 22
0.0
 32
0.0
 14
1.0000000000E+20
 24
1.0000000000E+20
 34
1.0000000000E+20
 15
-1.0000000000E+20
 25
-1.0000000000E+20
 35
-1.0000000000E+20
146
0.0
 13
0.0
 23
0.0
 33
0.0
 16
1.0
 26
0.0
 36
0.0
 17
0.0
 27
1.0
 37
0.0
 76
     0
330
1B
  0
LAYOUT
  5
26
102
{ACAD_REACTORS
330
1A
102
}
330
1A
100
AcDbPlotSettings
  1

  2
none_device
  4

  6

 40
0.0
 41
0.0
 42
0.0
 43
0.0
 44
0.0
 45
0.0
 46
0.0
 47
0.0
 48
0.0
 49
0.0
140
0.0
141
0.0
142
1.0
143
1.0
 70
   688
 72
     1
 73
     0
 74
     5
  7

 75
    16
147
1.0
148
0.0
149
0.0
100
AcDbLayout
  1
Layout2
 70
     1
 71
     2
 10
0.0
 20
0.0
 11
0.0
 21
0.0
 12
0.0
 22
0.0
 32
0.0
 14
0.0
 24
0.0
 34
0.0
 15
0.0
 25
0.0
 35
0.0
146
0.0
 13
0.0
 23
0.0
 33
0.0
 16
1.0
 26
0.0
 36
0.0
 17
0.0
 27
1.0
 37
0.0
 76
     0
330
23
  0
LAYOUT
  5
22
102
{ACAD_REACTORS
330
1A
102
}
330
1A
100
AcDbPlotSettings
  1

  2
none_device
  4
Letter_(8.50_x_11.00_Inches)
  6

 40
6.35
 41
6.35
 42
6.35000508
 43
6.35000508
 44
215.9
 45
279.4
 46
0.0
 47
0.0
 48
0.0
 49
0.0
140
0.0
141
0.0
142
1.0
143
1.0
 70
  1712
 72
     1
 73
     0
 74
     0
  7

 75
     0
147
1.0
148
0.0
149
0.0
100
AcDbLayout
  1
Model
 70
     1
 71
     0
 10
0.0
 20
0.0
 11
431.8
 21
279.4
 12
0.0
 22
0.0
 32
0.0
 14
0.0
 24
0.0
 34
0.0
 15
431.8
 25
279.4
 35
0.0
146
0.0
 13
0.0
 23
0.0
 33
0.0
 16
1.0
 26
0.0
 36
0.0
 17
0.0
 27
1.0
 37
0.0
 76
     0
330
1F
331
29
  0
MLINESTYLE
  5
18
102
{ACAD_REACTORS
330
17
102
}
330
17
100
AcDbMlineStyle
  2
Standard
 70
     0
  3

 62
   256
 51
90.0
 52
90.0
 71
     2
 49
0.5
 62
   256
  6
BYLAYER
 49
-0.5
 62
   256
  6
BYLAYER
  0
ACDBPLACEHOLDER
  5
F
102
{ACAD_REACTORS
330
E
102
}
330
E
  0
SCALE
  5
48
102
{ACAD_REACTORS
330
47
102
}
330
47
100
AcDbScale
 70
     0
300
1:1
140
1.0
141
1.0
290
     1
  0
SCALE
  5
49
102
{ACAD_REACTORS
330
47
102
}
330
47
100
AcDbScale
 70
     0
300
1:2
140
1.0
141
2.0
290
     0
  0
SCALE
  5
4A
102
{ACAD_REACTORS
330
47
102
}
330
47
100
AcDbScale
 70
     0
300
1:4
140
1.0
141
4.0
290
     0
  0
SCALE
  5
4B
102
{ACAD_REACTORS
330
47
102
}
330
47
100
AcDbScale
 70
     0
300
1:5
140
1.0
141
5.0
290
     0
  0
SCALE
  5
4C
102
{ACAD_REACTORS
330
47
102
}
330
47
100
AcDbScale
 70
     0
300
1:8
140
1.0
141
8.0
290
     0
  0
SCALE
  5
4D
102
{ACAD_REACTORS
330
47
102
}
330
47
100
AcDbScale
 70
     0
300
1:10
140
1.0
141
10.0
290
     0
  0
SCALE
  5
4E
102
{ACAD_REACTORS
330
47
102
}
330
47
100
AcDbScale
 70
     0
300
1:16
140
1.0
141
16.0
290
     0
  0
SCALE
  5
4F
102
{ACAD_REACTORS
330
47
102
}
330
47
100
AcDbScale
 70
     0
300
1:20
140
1.0
141
20.0
290
     0
  0
SCALE
  5
50
102
{ACAD_REACTORS
330
47
102
}
330
47
100
AcDbScale
 70
     0
300
1:30
140
1.0
141
30.0
290
     0
  0
SCALE
  5
51
102
{ACAD_REACTORS
330
47
102
}
330
47
100
AcDbScale
 70
     0
300
1:40
140
1.0
141
40.0
290
     0
  0
SCALE
  5
52
102
{ACAD_REACTORS
330
47
102
}
330
47
100
AcDbScale
 70
     0
300
1:50
140
1.0
141
50.0
290
     0
  0
SCALE
  5
53
102
{ACAD_REACTORS
330
47
102
}
330
47
100
AcDbScale
 70
     0
300
1:100
140
1.0
141
100.0
290
     0
  0
SCALE
  5
54
102
{ACAD_REACTORS
330
47
102
}
330
47
100
AcDbScale
 70
     0
300
2:1
140
2.0
141
1.0
290
     0
  0
SCALE
  5
55
102
{ACAD_REACTORS
330
47
102
}
330
47
100
AcDbScale
 70
     0
300
4:1
140
4.0
141
1.0
290
     0
  0
SCALE
  5
56
102
{ACAD_REACTORS
330
47
102
}
330
47
100
AcDbScale
 70
     0
300
8:1
140
8.0
141
1.0
290
     0
  0
SCALE
  5
57
102
{ACAD_REACTORS
330
47
102
}
330
47
100
AcDbScale
 70
     0
300
10:1
140
10.0
141
1.0
290
     0
  0
SCALE
  5
58
102
{ACAD_REACTORS
330
47
102
}
330
47
100
AcDbScale
 70
     0
300
100:1
140
100.0
141
1.0
290
     0
  0
SCALE
  5
59
102
{ACAD_REACTORS
330
47
102
}
330
47
100
AcDbScale
 70
     0
300
1/128" = 1'-0"
140
0.0078125
141
12.0
290
     0
  0
SCALE
  5
5A
102
{ACAD_REACTORS
330
47
102
}
330
47
100
AcDbScale
 70
     0
300
1/64" = 1'-0"
140
0.015625
141
12.0
290
     0
  0
SCALE
  5
5B
102
{ACAD_REACTORS
330
47
102
}
330
47
100
AcDbScale
 70
     0
300
1/32" = 1'-0"
140
0.03125
141
12.0
290
     0
  0
SCALE
  5
5C
102
{ACAD_REACTORS
330
47
102
}
330
47
100
AcDbScale
 70
     0
300
1/16" = 1'-0"
140
0.0625
141
12.0
290
     0
  0
SCALE
  5
5D
102
{ACAD_REACTORS
330
47
102
}
330
47
100
AcDbScale
 70
     0
300
3/32" = 1'-0"
140
0.09375
141
12.0
290
     0
  0
SCALE
  5
5E
102
{ACAD_REACTORS
330
47
102
}
330
47
100
AcDbScale
 70
     0
300
1/8" = 1'-0"
140
0.125
141
12.0
290
     0
  0
SCALE
  5
5F
102
{ACAD_REACTORS
330
47
102
}
330
47
100
AcDbScale
 70
     0
300
3/16" = 1'-0"
140
0.1875
141
12.0
290
     0
  0
SCALE
  5
60
102
{ACAD_REACTORS
330
47
102
}
330
47
100
AcDbScale
 70
     0
300
1/4" = 1'-0"
140
0.25
141
12.0
290
     0
  0
SCALE
  5
61
102
{ACAD_REACTORS
330
47
102
}
330
47
100
AcDbScale
 70
     0
300
3/8" = 1'-0"
140
0.375
141
12.0
290
     0
  0
SCALE
  5
62
102
{ACAD_REACTORS
330
47
102
}
330
47
100
AcDbScale
 70
     0
300
1/2" = 1'-0"
140
0.5
141
12.0
290
     0
  0
SCALE
  5
63
102
{ACAD_REACTORS
330
47
102
}
330
47
100
AcDbScale
 70
     0
300
3/4" = 1'-0"
140
0.75
141
12.0
290
     0
  0
SCALE
  5
64
102
{ACAD_REACTORS
330
47
102
}
330
47
100
AcDbScale
 70
     0
300
1" = 1'-0"
140
1.0
141
12.0
290
     0
  0
SCALE
  5
65
102
{ACAD_REACTORS
330
47
102
}
330
47
100
AcDbScale
 70
     0
300
1-1/2" = 1'-0"
140
1.5
141
12.0
290
     0
  0
SCALE
  5
66
102
{ACAD_REACTORS
330
47
102
}
330
47
100
AcDbScale
 70
     0
300
3" = 1'-0"
140
3.0
141
12.0
290
     0
  0
SCALE
  5
67
102
{ACAD_REACTORS
330
47
102
}
330
47
100
AcDbScale
 70
     0
300
6" = 1'-0"
140
6.0
141
12.0
290
     0
  0
SCALE
  5
68
102
{ACAD_REACTORS
330
47
102
}
330
47
100
AcDbScale
 70
     0
300
1'-0" = 1'-0"
140
12.0
141
12.0
290
     0
  0
ENDSEC
  0
EOF
