  0
SECTION
  2
HEADER
  9
$ACADVER
  1
AC1015
  9
$ACADMAINTVER
 70
     6
  9
$DWGCODEPAGE
  3
ANSI_1250
  9
$INSBASE
 10
0.0
 20
0.0
 30
0.0
  9
$EXTMIN
 10
0.0
 20
0.0
 30
0.0
  9
$EXTMAX
 10
431.8
 20
279.4
 30
0.0
  9
$LIMMIN
 10
0.0
 20
0.0
  9
$LIMMAX
 10
431.8
 20
279.4
  9
$ORTHOMODE
 70
     0
  9
$REGENMODE
 70
     1
  9
$FILLMODE
 70
     1
  9
$QTEXTMODE
 70
     0
  9
$MIRRTEXT
 70
     1
  9
$LTSCALE
 40
1.0
  9
$ATTMODE
 70
     1
  9
$TEXTSIZE
 40
3.8805555556
  9
$TRACEWID
 40
1.0
  9
$TEXTSTYLE
  7
Standard
  9
$CLAYER
  8
0
  9
$CELTYPE
  6
ByLayer
  9
$CECOLOR
 62
   256
  9
$CELTSCALE
 40
1.0
  9
$DISPSILH
 70
     0
  9
$DIMSCALE
 40
1.0
  9
$DIMASZ
 40
3.302
  9
$DIMEXO
 40
1.0
  9
$DIMDLI
 40
3.75
  9
$DIMRND
 40
0.0
  9
$DIMDLE
 40
0.0
  9
$DIMEXE
 40
1.0
  9
$DIMTP
 40
0.0
  9
$DIMTM
 40
0.0
  9
$DIMTXT
 40
3.8805555556
  9
$DIMCEN
 40
2.5
  9
$DIMTSZ
 40
0.0
  9
$DIMTOL
 70
     0
  9
$DIMLIM
 70
     0
  9
$DIMTIH
 70
     1
  9
$DIMTOH
 70
     1
  9
$DIMSE1
 70
     0
  9
$DIMSE2
 70
     0
  9
$DIMTAD
 70
     1
  9
$DIMZIN
 70
     0
  9
$DIMBLK
  1

  9
$DIMASO
 70
     1
  9
$DIMSHO
 70
     1
  9
$DIMPOST
  1

  9
$DIMAPOST
  1

  9
$DIMALT
 70
     0
  9
$DIMALTD
 70
     3
  9
$DIMALTF
 40
0.0393700787
  9
$DIMLFAC
 40
1.0
  9
$DIMTOFL
 70
     1
  9
$DIMTVP
 40
0.0
  9
$DIMTIX
 70
     0
  9
$DIMSOXD
 70
     0
  9
$DIMSAH
 70
     0
  9
$DIMBLK1
  1

  9
$DIMBLK2
  1

  9
$DIMSTYLE
  2
ISO-25
  9
$DIMCLRD
 70
     0
  9
$DIMCLRE
 70
     0
  9
$DIMCLRT
 70
     0
  9
$DIMTFAC
 40
1.0
  9
$DIMGAP
 40
1.524
  9
$DIMJUST
 70
     0
  9
$DIMSD1
 70
     0
  9
$DIMSD2
 70
     0
  9
$DIMTOLJ
 70
     0
  9
$DIMTZIN
 70
     0
  9
$DIMALTZ
 70
     0
  9
$DIMALTTZ
 70
     0
  9
$DIMUPT
 70
     0
  9
$DIMDEC
 70
     1
  9
$DIMTDEC
 70
     1
  9
$DIMALTU
 70
     2
  9
$DIMALTTD
 70
     3
  9
$DIMTXSTY
  7
Standard
  9
$DIMAUNIT
 70
     0
  9
$DIMADEC
 70
     1
  9
$DIMALTRND
 40
0.0
  9
$DIMAZIN
 70
     0
  9
$DIMDSEP
 70
    44
  9
$DIMATFIT
 70
     3
  9
$DIMFRAC
 70
     0
  9
$DIMLDRBLK
  1

  9
$DIMLUNIT
 70
     2
  9
$DIMLWD
 70
    -2
  9
$DIMLWE
 70
    -2
  9
$DIMTMOVE
 70
     0
  9
$LUNITS
 70
     2
  9
$LUPREC
 70
     1
  9
$SKETCHINC
 40
1.0
  9
$FILLETRAD
 40
10.0
  9
$AUNITS
 70
     0
  9
$AUPREC
 70
     1
  9
$MENU
  1
.
  9
$ELEVATION
 40
0.0
  9
$PELEVATION
 40
0.0
  9
$THICKNESS
 40
0.0
  9
$LIMCHECK
 70
     0
  9
$CHAMFERA
 40
0.0
  9
$CHAMFERB
 40
0.0
  9
$CHAMFERC
 40
0.0
  9
$CHAMFERD
 40
0.0
  9
$SKPOLY
 70
     0
  9
$TDCREATE
 40
2459698.3874525
  9
$TDUCREATE
 40
2459698.304119166
  9
$TDUPDATE
 40
2459698.387452697
  9
$TDUUPDATE
 40
2459698.304119363
  9
$TDINDWG
 40
0.0000000116
  9
$TDUSRTIMER
 40
0.0000000116
  9
$USRTIMER
 70
     1
  9
$ANGBASE
 50
0.0
  9
$ANGDIR
 70
     0
  9
$PDMODE
 70
     0
  9
$PDSIZE
 40
-1.0
  9
$PLINEWID
 40
0.0
  9
$SPLFRAME
 70
     0
  9
$SPLINETYPE
 70
     6
  9
$SPLINESEGS
 70
     8
  9
$HANDSEED
  5
1A2
  9
$SURFTAB1
 70
     6
  9
$SURFTAB2
 70
     6
  9
$SURFTYPE
 70
     6
  9
$SURFU
 70
     6
  9
$SURFV
 70
     6
  9
$UCSBASE
  2

  9
$UCSNAME
  2

  9
$UCSORG
 10
0.0
 20
0.0
 30
0.0
  9
$UCSXDIR
 10
1.0
 20
0.0
 30
0.0
  9
$UCSYDIR
 10
0.0
 20
1.0
 30
0.0
  9
$UCSORTHOREF
  2

  9
$UCSORTHOVIEW
 70
     0
  9
$UCSORGTOP
 10
0.0
 20
0.0
 30
0.0
  9
$UCSORGBOTTOM
 10
0.0
 20
0.0
 30
0.0
  9
$UCSORGLEFT
 10
0.0
 20
0.0
 30
0.0
  9
$UCSORGRIGHT
 10
0.0
 20
0.0
 30
0.0
  9
$UCSORGFRONT
 10
0.0
 20
0.0
 30
0.0
  9
$UCSORGBACK
 10
0.0
 20
0.0
 30
0.0
  9
$PUCSBASE
  2

  9
$PUCSNAME
  2

  9
$PUCSORG
 10
0.0
 20
0.0
 30
0.0
  9
$PUCSXDIR
 10
1.0
 20
0.0
 30
0.0
  9
$PUCSYDIR
 10
0.0
 20
1.0
 30
0.0
  9
$PUCSORTHOREF
  2

  9
$PUCSORTHOVIEW
 70
     0
  9
$PUCSORGTOP
 10
0.0
 20
0.0
 30
0.0
  9
$PUCSORGBOTTOM
 10
0.0
 20
0.0
 30
0.0
  9
$PUCSORGLEFT
 10
0.0
 20
0.0
 30
0.0
  9
$PUCSORGRIGHT
 10
0.0
 20
0.0
 30
0.0
  9
$PUCSORGFRONT
 10
0.0
 20
0.0
 30
0.0
  9
$PUCSORGBACK
 10
0.0
 20
0.0
 30
0.0
  9
$USERI1
 70
     0
  9
$USERI2
 70
     0
  9
$USERI3
 70
     0
  9
$USERI4
 70
     0
  9
$USERI5
 70
     0
  9
$USERR1
 40
0.0
  9
$USERR2
 40
0.0
  9
$USERR3
 40
0.0
  9
$USERR4
 40
0.0
  9
$USERR5
 40
0.0
  9
$WORLDVIEW
 70
     1
  9
$SHADEDGE
 70
     3
  9
$SHADEDIF
 70
    70
  9
$TILEMODE
 70
     1
  9
$MAXACTVP
 70
    64
  9
$PINSBASE
 10
0.0
 20
0.0
 30
0.0
  9
$PLIMCHECK
 70
     0
  9
$PEXTMIN
 10
1.0000000000E+20
 20
1.0000000000E+20
 30
1.0000000000E+20
  9
$PEXTMAX
 10
-1.0000000000E+20
 20
-1.0000000000E+20
 30
-1.0000000000E+20
  9
$PLIMMIN
 10
0.0
 20
0.0
  9
$PLIMMAX
 10
420.0
 20
297.0
  9
$UNITMODE
 70
     0
  9
$VISRETAIN
 70
     1
  9
$PLINEGEN
 70
     0
  9
$PSLTSCALE
 70
     1
  9
$TREEDEPTH
 70
  3020
  9
$CMLSTYLE
  2
Standard
  9
$CMLJUST
 70
     0
  9
$CMLSCALE
 40
20.0
  9
$PROXYGRAPHICS
 70
     1
  9
$MEASUREMENT
 70
     1
  9
$CELWEIGHT
370
    -1
  9
$ENDCAPS
280
     0
  9
$JOINSTYLE
280
     0
  9
$LWDISPLAY
290
     1
  9
$INSUNITS
 70
     4
  9
$HYPERLINKBASE
  1

  9
$STYLESHEET
  1

  9
$XEDIT
290
     1
  9
$CEPSNTYPE
380
     0
  9
$PSTYLEMODE
290
     1
  9
$FINGERPRINTGUID
  2
{3e934a05-41ff-4938-b2e4-2b3a0932e1f2}
  9
$VERSIONGUID
  2
{FAEB1C32-E019-11D5-929B-00C0DF256EC4}
  9
$EXTNAMES
290
     1
  9
$PSVPSCALE
 40
0.0
  9
$OLESTARTUP
290
     0
  0
ENDSEC
  0
SECTION
  2
CLASSES
  0
CLASS
  1
ACDBDICTIONARYWDFLT
  2
AcDbDictionaryWithDefault
  3
ObjectDBX Classes
 90
        0
280
     0
281
     0
  0
CLASS
  1
VISUALSTYLE
  2
AcDbVisualStyle
  3
ObjectDBX Classes
 90
     4095
280
     0
281
     0
  0
CLASS
  1
MATERIAL
  2
AcDbMaterial
  3
ObjectDBX Classes
 90
     1153
280
     0
281
     0
  0
CLASS
  1
SCALE
  2
AcDbScale
  3
ObjectDBX Classes
 90
     1153
280
     0
281
     0
  0
CLASS
  1
TABLESTYLE
  2
AcDbTableStyle
  3
ObjectDBX Classes
 90
     4095
280
     0
281
     0
  0
CLASS
  1
MLEADERSTYLE
  2
AcDbMLeaderStyle
  3
ACDB_MLEADERSTYLE_CLASS
 90
     4095
280
     0
281
     0
  0
CLASS
  1
SUN
  2
AcDbSun
  3
SCENEOE
 90
     1153
280
     0
281
     0
  0
CLASS
  1
ACDBPLACEHOLDER
  2
AcDbPlaceHolder
  3
ObjectDBX Classes
 90
        0
280
     0
281
     0
  0
CLASS
  1
LAYOUT
  2
AcDbLayout
  3
ObjectDBX Classes
 90
        0
280
     0
281
     0
  0
ENDSEC
  0
SECTION
  2
TABLES
  0
TABLE
  2
VPORT
  5
8
330
0
100
AcDbSymbolTable
 70
     1
  0
VPORT
  5
29
330
8
100
AcDbSymbolTableRecord
100
AcDbViewportTableRecord
  2
*Active
 70
     0
 10
0.0
 20
0.0
 11
1.0
 21
1.0
 12
215.9
 22
139.7
 13
0.0
 23
0.0
 14
10.0
 24
10.0
 15
10.0
 25
10.0
 16
0.0
 26
0.0
 36
1.0
 17
0.0
 27
0.0
 37
0.0
 40
279.4
 41
1.5454545455
 42
50.0
 43
0.0
 44
0.0
 50
0.0
 51
0.0
 71
     0
 72
  2000
 73
     1
 74
     3
 75
     0
 76
     0
 77
     0
 78
     0
281
     0
 65
     1
110
0.0
120
0.0
130
0.0
111
1.0
121
0.0
131
0.0
112
0.0
122
1.0
132
0.0
 79
     0
146
0.0
  0
ENDTAB
  0
TABLE
  2
LTYPE
  5
5
330
0
100
AcDbSymbolTable
 70
     6
  0
LTYPE
  5
14
330
5
100
AcDbSymbolTableRecord
100
AcDbLinetypeTableRecord
  2
ByBlock
 70
     0
  3

 72
    65
 73
     0
 40
0.0
  0
LTYPE
  5
15
330
5
100
AcDbSymbolTableRecord
100
AcDbLinetypeTableRecord
  2
ByLayer
 70
     0
  3

 72
    65
 73
     0
 40
0.0
  0
LTYPE
  5
16
330
5
100
AcDbSymbolTableRecord
100
AcDbLinetypeTableRecord
  2
Continuous
 70
     0
  3
Solid line
 72
    65
 73
     0
 40
0.0
  0
LTYPE
  5
6E
330
5
100
AcDbSymbolTableRecord
100
AcDbLinetypeTableRecord
  2
HIDDEN
 70
     0
  3
Hidden __ __ __ __ __ __ __ __ __ __ __ __ __ __
 72
    65
 73
     2
 40
1.905
 49
1.27
 74
     0
 49
-0.635
 74
     0
  0
LTYPE
  5
6F
330
5
100
AcDbSymbolTableRecord
100
AcDbLinetypeTableRecord
  2
PHANTOM
 70
     0
  3
Phantom ______  __  __  ______  __  __  ______
 72
    65
 73
     6
 40
12.7
 49
6.35
 74
     0
 49
-1.27
 74
     0
 49
1.27
 74
     0
 49
-1.27
 74
     0
 49
1.27
 74
     0
 49
-1.27
 74
     0
  0
LTYPE
  5
70
330
5
100
AcDbSymbolTableRecord
100
AcDbLinetypeTableRecord
  2
CENTER
 70
     0
  3
Center ____ _ ____ _ ____ _ ____ _ ____ _ ____
 72
    65
 73
     4
 40
10.16
 49
6.35
 74
     0
 49
-1.27
 74
     0
 49
1.27
 74
     0
 49
-1.27
 74
     0
  0
LTYPE
  5
71
330
5
100
AcDbSymbolTableRecord
100
AcDbLinetypeTableRecord
  2
CENTERX2
 70
     0
  3
Center (2x) ________  __  ________  __  _____
 72
    65
 73
     4
 40
20.32
 49
12.7
 74
     0
 49
-2.54
 74
     0
 49
2.54
 74
     0
 49
-2.54
 74
     0
  0
LTYPE
  5
72
330
5
100
AcDbSymbolTableRecord
100
AcDbLinetypeTableRecord
  2
DOT2
 70
     0
  3
Dot (.5x) ........................................
 72
    65
 73
     2
 40
0.635
 49
0.0
 74
     0
 49
-0.635
 74
     0
  0
ENDTAB
  0
TABLE
  2
LAYER
  5
2
330
0
100
AcDbSymbolTable
 70
     3
  0
LAYER
  5
10
330
2
100
AcDbSymbolTableRecord
100
AcDbLayerTableRecord
  2
0
 70
     0
 62
     7
  6
Continuous
370
    -3
390
F
  0
LAYER
  5
73
330
2
100
AcDbSymbolTableRecord
100
AcDbLayerTableRecord
  2
FRAME_&_TABLE
 70
     0
 62
     8
  6
Continuous
370
    50
390
F
  0
LAYER
  5
74
330
2
100
AcDbSymbolTableRecord
100
AcDbLayerTableRecord
  2
DIMENSIONS
 70
     0
 62
     7
  6
Continuous
370
    -3
390
F
  0
ENDTAB
  0
TABLE
  2
STYLE
  5
3
330
0
100
AcDbSymbolTable
 70
     1
  0
STYLE
  5
11
330
3
100
AcDbSymbolTableRecord
100
AcDbTextStyleTableRecord
  2
Standard
 70
     0
 40
0.0
 41
1.0
 50
0.0
 71
     0
 42
3.8805555556
  3
txt
  4

  0
ENDTAB
  0
TABLE
  2
VIEW
  5
6
330
0
100
AcDbSymbolTable
 70
     0
  0
ENDTAB
  0
TABLE
  2
UCS
  5
7
330
0
100
AcDbSymbolTable
 70
     0
  0
ENDTAB
  0
TABLE
  2
APPID
  5
9
330
0
100
AcDbSymbolTable
 70
     1
  0
APPID
  5
12
330
9
100
AcDbSymbolTableRecord
100
AcDbRegAppTableRecord
  2
ACAD
 70
     0
  0
ENDTAB
  0
TABLE
  2
DIMSTYLE
  5
A
330
0
100
AcDbSymbolTable
 70
     1
100
AcDbDimStyleTable
  0
DIMSTYLE
105
27
330
A
100
AcDbSymbolTableRecord
100
AcDbDimStyleTableRecord
  2
ISO-25
 70
     0
 41
2.5
 42
0.625
 43
3.75
 44
1.25
 73
     0
 74
     0
 77
     1
 78
     8
140
2.5
141
2.5
143
0.0393700787
147
0.625
171
     3
172
     1
178
     0
271
     2
272
     2
274
     3
278
    44
283
     0
284
     8
340
11
  0
ENDTAB
  0
TABLE
  2
BLOCK_RECORD
  5
1
330
0
100
AcDbSymbolTable
 70
     1
  0
BLOCK_RECORD
  5
1F
330
1
100
AcDbSymbolTableRecord
100
AcDbBlockTableRecord
  2
*Model_Space
340
22
  0
BLOCK_RECORD
  5
1B
330
1
100
AcDbSymbolTableRecord
100
AcDbBlockTableRecord
  2
*Paper_Space
340
1E
  0
BLOCK_RECORD
  5
23
330
1
100
AcDbSymbolTableRecord
100
AcDbBlockTableRecord
  2
*Paper_Space0
340
26
  0
ENDTAB
  0
ENDSEC
  0
SECTION
  2
BLOCKS
  0
BLOCK
  5
20
330
1F
100
AcDbEntity
  8
0
100
AcDbBlockBegin
  2
*Model_Space
 70
     0
 10
0.0
 20
0.0
 30
0.0
  3
*Model_Space
  1

  0
ENDBLK
  5
21
330
1F
100
AcDbEntity
  8
0
100
AcDbBlockEnd
  0
BLOCK
  5
1C
330
1B
100
AcDbEntity
 67
     1
  8
0
100
AcDbBlockBegin
  2
*Paper_Space
 70
     0
 10
0.0
 20
0.0
 30
0.0
  3
*Paper_Space
  1

  0
ENDBLK
  5
1D
330
1B
100
AcDbEntity
 67
     1
  8
0
100
AcDbBlockEnd
  0
BLOCK
  5
24
330
23
100
AcDbEntity
  8
0
100
AcDbBlockBegin
  2
*Paper_Space0
 70
     0
 10
0.0
 20
0.0
 30
0.0
  3
*Paper_Space0
  1

  0
ENDBLK
  5
25
330
23
100
AcDbEntity
  8
0
100
AcDbBlockEnd
  0
ENDSEC
  0
SECTION
  2
ENTITIES
  0
LINE
  5
75
330
1F
100
AcDbEntity
  8
0
  6
Continuous
 62
     7
370
    25
100
AcDbLine
 10
-719.8096126021
 20
380.4204712663
 30
0.0
 11
-719.8096126021
 21
381.2040015822
 31
0.0
  0
LINE
  5
76
330
1F
100
AcDbEntity
  8
0
  6
Continuous
 62
     7
370
    25
100
AcDbLine
 10
-732.3096126021
 20
381.2040015822
 30
0.0
 11
-732.3096126021
 21
380.4204712663
 31
0.0
  0
ARC
  5
77
330
1F
100
AcDbEntity
  8
0
  6
Continuous
 62
     7
370
    25
100
AcDbCircle
 10
-726.0596126021
 20
381.2040015822
 30
0.0
 40
6.250000000000114
100
AcDbArc
 50
0.0
 51
180.0
  0
LINE
  5
78
330
1F
100
AcDbEntity
  8
0
  6
Continuous
 62
     7
370
    25
100
AcDbLine
 10
930.1903873979
 20
380.4204712663
 30
0.0
 11
930.1903873979
 21
381.2040015822
 31
0.0
  0
LINE
  5
79
330
1F
100
AcDbEntity
  8
0
  6
Continuous
 62
     7
370
    25
100
AcDbLine
 10
917.6903873979
 20
381.2040015822
 30
0.0
 11
917.6903873979
 21
380.4204712663
 31
0.0
  0
ARC
  5
7A
330
1F
100
AcDbEntity
  8
0
  6
Continuous
 62
     7
370
    25
100
AcDbCircle
 10
923.9403873979
 20
381.2040015822
 30
0.0
 40
6.250000000000114
100
AcDbArc
 50
0.0
 51
180.0
  0
LWPOLYLINE
  5
7B
330
1F
100
AcDbEntity
  8
0
  6
Continuous
 62
     7
370
    25
100
AcDbPolyline
 90
       41
 70
   128
 43
0.0
 10
922.4003957567
 20
-173.4595437051
 10
921.6035697952
 20
-173.6331875014
 10
920.2273183416
 20
-174.1197465971
 10
918.947960859
 20
-174.8205032161
 10
917.8005427377
 20
-175.716619517
 10
916.8154630405
 20
-176.7843325711
 10
916.0187697552
 20
-177.9953073286
 10
915.4314592228
 20
-179.3174192533
 10
915.0689262924
 20
-180.7156433074
 10
914.9405832369
 20
-182.1530130835
 10
915.0496514648
 20
-183.5916137373
 10
915.393110246
 20
-184.9935478099
 10
915.9618003142
 20
-186.3219423503
 10
916.7407090404
 20
-187.5419247986
 10
917.7093637394
 20
-188.6214601006
 10
918.8423467957
 20
-189.5321579243
 10
920.1099285094
 20
-190.2500018926
 10
921.4788117557
 20
-190.7559836276
 10
922.9129776031
 20
-191.0366217319
 10
924.3746147738
 20
-191.0843462609
 10
925.8251104428
 20
-190.8977324675
 10
927.2260353256
 20
-190.4815880728
 10
928.5402614515
 20
-189.8468468062
 10
929.7329508875
 20
-189.0102821823
 10
930.7724976637
 20
-187.9940647702
 10
931.6313934979
 20
-186.8251598249
 10
932.2869745721
 20
-185.5345832955
 10
932.7220221249
 20
-184.1565425847
 10
932.9251979882
 20
-182.7274956514
 10
932.8913073668
 20
-181.2851650085
 10
932.62139468
 20
-179.8675497245
 10
932.1227005314
 20
-178.5119740974
 10
931.4084199786
 20
-177.2540304043
 10
930.497346098
 20
-176.1267432248
 10
929.4133930194
 20
-175.1597403984
 10
928.1849998858
 20
-174.3784974108
 10
926.8444207238
 20
-173.8036711173
 10
925.4269092527
 20
-173.4505421207
 10
923.9698137693
 20
-173.3285857385
 10
922.5875095177
 20
-173.429470467
 10
922.4003957567
 20
-173.4595437051
  0
LWPOLYLINE
  5
7C
330
1F
100
AcDbEntity
  8
0
  6
Continuous
 62
     7
370
    25
100
AcDbPolyline
 90
       41
 70
   128
 43
0.0
 10
922.4003957567
 20
-60.1615955182
 10
921.6035697952
 20
-60.3352393144
 10
920.2273183416
 20
-60.8217984102
 10
918.947960859
 20
-61.5225550292
 10
917.8005427377
 20
-62.4186713301
 10
916.8154630405
 20
-63.4863843842
 10
916.0187697552
 20
-64.6973591417
 10
915.4314592228
 20
-66.0194710663
 10
915.0689262924
 20
-67.4176951205
 10
914.9405832369
 20
-68.8550648966
 10
915.0496514648
 20
-70.2936655503
 10
915.393110246
 20
-71.695599623
 10
915.9618003142
 20
-73.0239941634
 10
916.7407090404
 20
-74.2439766117
 10
917.7093637394
 20
-75.3235119137
 10
918.8423467957
 20
-76.2342097374
 10
920.1099285094
 20
-76.9520537056
 10
921.4788117557
 20
-77.4580354406
 10
922.9129776031
 20
-77.738673545
 10
924.3746147738
 20
-77.786398074
 10
925.8251104428
 20
-77.5997842805
 10
927.2260353256
 20
-77.1836398859
 10
928.5402614515
 20
-76.5488986193
 10
929.7329508875
 20
-75.7123339954
 10
930.7724976637
 20
-74.6961165832
 10
931.6313934979
 20
-73.527211638
 10
932.2869745721
 20
-72.2366351086
 10
932.7220221249
 20
-70.8585943978
 10
932.9251979882
 20
-69.4295474645
 10
932.8913073668
 20
-67.9872168215
 10
932.62139468
 20
-66.5696015376
 10
932.1227005314
 20
-65.2140259105
 10
931.4084199786
 20
-63.9560822174
 10
930.497346098
 20
-62.8287950379
 10
929.4133930194
 20
-61.8617922114
 10
928.1849998858
 20
-61.0805492239
 10
926.8444207238
 20
-60.5057229303
 10
925.4269092527
 20
-60.1525939338
 10
923.9698137693
 20
-60.0306375516
 10
922.5875095177
 20
-60.1315222801
 10
922.4003957567
 20
-60.1615955182
  0
LWPOLYLINE
  5
7D
330
1F
100
AcDbEntity
  8
0
  6
Continuous
 62
     7
370
    25
100
AcDbPolyline
 90
       41
 70
   128
 43
0.0
 10
-727.5996042433
 20
-77.665737506
 10
-726.7902059306
 20
-77.767426817
 10
-725.3287173987
 20
-77.7674025455
 10
-723.8852003845
 20
-77.5335930517
 10
-722.4989355276
 20
-77.0719848738
 10
-721.2066593501
 20
-76.394725009
 10
-720.0426283024
 20
-75.519724013
 10
-719.0376829767
 20
-74.4701796273
 10
-718.2184040522
 20
-73.2739439469
 10
-717.6063932118
 20
-71.962753617
 10
-717.217704872
 20
-70.5713511235
 10
-717.0624454835
 20
-69.1365317808
 10
-717.1445457378
 20
-67.6961529023
 10
-717.4616936576
 20
-66.2881598294
 10
-718.0054158012
 20
-64.9495984728
 10
-718.7613478045
 20
-63.715609992
 10
-719.7096142961
 20
-62.6185941814
 10
-720.8253303699
 20
-61.6873942789
 10
-722.0792212744
 20
-60.9465580693
 10
-723.4383547884
 20
-60.4156920361
 10
-724.8669761023
 20
-60.108928276
 10
-726.3274287914
 20
-60.0345238314
 10
-727.781139901
 20
-60.194609126
 10
-729.1896079375
 20
-60.5850846785
 10
-730.515502606
 20
-61.195701687
 10
-731.7236774143
 20
-62.0103316805
 10
-732.7821132259
 20
-63.0073904588
 10
-733.6627955492
 20
-64.1604230755
 10
-734.3424763349
 20
-65.4388328902
 10
-734.8032923359
 20
-66.8087292862
 10
-735.0332200268
 20
-68.2338611157
 10
-735.0263580535
 20
-69.6765993803
 10
-734.7830398536
 20
-71.0989327405
 10
-734.3098109821
 20
-72.4633981222
 10
-733.6192050286
 20
-73.7341665785
 10
-732.729400122
 20
-74.8778784534
 10
-731.6637557722
 20
-75.8644799794
 10
-730.4502301625
 20
-76.6679879672
 10
-729.1206826454
 20
-77.2671671723
 10
-727.7848554566
 20
-77.6320084361
 10
-727.5996042433
 20
-77.665737506
  0
LWPOLYLINE
  5
7E
330
1F
100
AcDbEntity
  8
0
  6
Continuous
 62
     7
370
    25
100
AcDbPolyline
 90
       41
 70
   128
 43
0.0
 10
-727.5996042433
 20
-190.9636856929
 10
-726.7902059306
 20
-191.0653750039
 10
-725.3287173987
 20
-191.0653507324
 10
-723.8852003845
 20
-190.8315412386
 10
-722.4989355276
 20
-190.3699330607
 10
-721.2066593501
 20
-189.6926731959
 10
-720.0426283024
 20
-188.8176721999
 10
-719.0376829767
 20
-187.7681278143
 10
-718.2184040522
 20
-186.5718921339
 10
-717.6063932118
 20
-185.2607018039
 10
-717.217704872
 20
-183.8692993104
 10
-717.0624454835
 20
-182.4344799677
 10
-717.1445457378
 20
-180.9941010893
 10
-717.4616936576
 20
-179.5861080163
 10
-718.0054158012
 20
-178.2475466598
 10
-718.7613478045
 20
-177.013558179
 10
-719.7096142961
 20
-175.9165423683
 10
-720.8253303699
 20
-174.9853424658
 10
-722.0792212744
 20
-174.2445062562
 10
-723.4383547884
 20
-173.713640223
 10
-724.8669761023
 20
-173.4068764629
 10
-726.3274287914
 20
-173.3324720183
 10
-727.781139901
 20
-173.4925573129
 10
-729.1896079375
 20
-173.8830328654
 10
-730.515502606
 20
-174.4936498739
 10
-731.7236774143
 20
-175.3082798674
 10
-732.7821132259
 20
-176.3053386457
 10
-733.6627955492
 20
-177.4583712624
 10
-734.3424763349
 20
-178.7367810771
 10
-734.8032923359
 20
-180.1066774731
 10
-735.0332200268
 20
-181.5318093026
 10
-735.0263580535
 20
-182.9745475673
 10
-734.7830398536
 20
-184.3968809275
 10
-734.3098109821
 20
-185.7613463091
 10
-733.6192050286
 20
-187.0321147654
 10
-732.729400122
 20
-188.1758266403
 10
-731.6637557722
 20
-189.1624281663
 10
-730.4502301625
 20
-189.9659361541
 10
-729.1206826454
 20
-190.5651153593
 10
-727.7848554566
 20
-190.9299566231
 10
-727.5996042433
 20
-190.9636856929
  0
ARC
  5
7F
330
1F
100
AcDbEntity
  8
0
  6
Continuous
 62
     7
370
    25
100
AcDbCircle
 10
933.7623208303
 20
-238.6863537332
 30
0.0
 40
2.594775743078926
100
AcDbArc
 50
266.2917120108
 51
339.8631642645
  0
ARC
  5
80
330
1F
100
AcDbEntity
  8
0
  6
Continuous
 62
     7
370
    25
100
AcDbCircle
 10
914.1766911853
 20
-238.5598533219
 30
0.0
 40
2.717828778261168
100
AcDbArc
 50
191.8442437758
 51
272.0994260321
  0
LINE
  5
81
330
1F
100
AcDbEntity
  8
0
  6
Continuous
 62
     7
370
    25
100
AcDbLine
 10
914.2689760571
 20
-241.2972550821
 30
0.0
 11
933.6117987387
 21
-241.2972550821
 31
0.0
  0
ARC
  5
82
330
1F
100
AcDbEntity
  8
0
  6
Continuous
 62
     7
370
    25
100
AcDbCircle
 10
-735.8233088147
 20
-238.5598533219
 30
0.0
 40
2.717828778260688
100
AcDbArc
 50
191.8442437758
 51
272.0994260321
  0
LINE
  5
83
330
1F
100
AcDbEntity
  8
0
  6
Continuous
 62
     7
370
    25
100
AcDbLine
 10
-735.7310239429
 20
-241.2972550821
 30
0.0
 11
-716.3882012613
 21
-241.2972550821
 31
0.0
  0
ARC
  5
84
330
1F
100
AcDbEntity
  8
0
  6
Continuous
 62
     7
370
    25
100
AcDbCircle
 10
-716.2376791697
 20
-238.6863537332
 30
0.0
 40
2.594775743078425
100
AcDbArc
 50
266.2917120108
 51
339.8631642645
  0
LINE
  5
85
330
1F
100
AcDbEntity
  8
0
  6
Continuous
 62
     7
370
    25
100
AcDbLine
 10
1498.9403873979
 20
223.8092532089
 30
0.0
 11
1498.9403873979
 21
218.8092532089
 31
0.0
  0
LINE
  5
86
330
1F
100
AcDbEntity
  8
0
  6
Continuous
 62
     7
370
    25
100
AcDbLine
 10
1500.9403873979
 20
223.8092532089
 30
0.0
 11
1498.9403873979
 21
223.8092532089
 31
0.0
  0
LINE
  5
87
330
1F
100
AcDbEntity
  8
0
  6
Continuous
 62
     7
370
    25
100
AcDbLine
 10
1500.9403873979
 20
218.8092532089
 30
0.0
 11
1500.9403873979
 21
223.8092532089
 31
0.0
  0
LINE
  5
88
330
1F
100
AcDbEntity
  8
0
  6
Continuous
 62
     7
370
    25
100
AcDbLine
 10
1500.9403873979
 20
218.8092532089
 30
0.0
 11
1498.9403873979
 21
218.8092532089
 31
0.0
  0
LINE
  5
89
330
1F
100
AcDbEntity
  8
0
  6
Continuous
 62
     7
370
    25
100
AcDbLine
 10
1498.9403873979
 20
218.8092532089
 30
0.0
 11
1498.9403873979
 21
108.8092532089
 31
0.0
  0
LINE
  5
8A
330
1F
100
AcDbEntity
  8
0
  6
Continuous
 62
     7
370
    25
100
AcDbLine
 10
1500.9403873979
 20
108.8092532089
 30
0.0
 11
1500.9403873979
 21
218.8092532089
 31
0.0
  0
LINE
  5
8B
330
1F
100
AcDbEntity
  8
0
  6
Continuous
 62
     7
370
    25
100
AcDbLine
 10
1500.9403873979
 20
108.8092532089
 30
0.0
 11
1498.9403873979
 21
108.8092532089
 31
0.0
  0
LINE
  5
8C
330
1F
100
AcDbEntity
  8
0
  6
Continuous
 62
     7
370
    25
100
AcDbLine
 10
1500.9403873979
 20
103.8092532089
 30
0.0
 11
1500.9403873979
 21
108.8092532089
 31
0.0
  0
LINE
  5
8D
330
1F
100
AcDbEntity
  8
0
  6
Continuous
 62
     7
370
    25
100
AcDbLine
 10
1500.9403873979
 20
103.8092532089
 30
0.0
 11
1498.9403873979
 21
103.8092532089
 31
0.0
  0
LINE
  5
8E
330
1F
100
AcDbEntity
  8
0
  6
Continuous
 62
     7
370
    25
100
AcDbLine
 10
1498.9403873979
 20
108.8092532089
 30
0.0
 11
1498.9403873979
 21
103.8092532089
 31
0.0
  0
LINE
  5
8F
330
1F
100
AcDbEntity
  8
0
  6
Continuous
 62
     7
370
    25
100
AcDbLine
 10
1503.9403873979
 20
218.8092532089
 30
0.0
 11
1503.9403873979
 21
108.8092532089
 31
0.0
  0
LINE
  5
90
330
1F
100
AcDbEntity
  8
0
  6
Continuous
 62
     7
370
    25
100
AcDbLine
 10
1500.9403873979
 20
108.8092532089
 30
0.0
 11
1503.9403873979
 21
108.8092532089
 31
0.0
  0
LINE
  5
91
330
1F
100
AcDbEntity
  8
0
  6
Continuous
 62
     7
370
    25
100
AcDbLine
 10
1503.9403873979
 20
218.8092532089
 30
0.0
 11
1500.9403873979
 21
218.8092532089
 31
0.0
  0
LINE
  5
92
330
1F
100
AcDbEntity
  8
0
  6
Continuous
 62
     7
370
    25
100
AcDbLine
 10
1503.9403873979
 20
108.8092532089
 30
0.0
 11
1503.9403873979
 21
106.8092532089
 31
0.0
  0
ARC
  5
93
330
1F
100
AcDbEntity
  8
0
  6
Continuous
 62
     7
370
    25
100
AcDbCircle
 10
1500.9403873979
 20
106.8092532089
 30
0.0
 40
3.0
100
AcDbArc
 50
270.0
 51
0.0
  0
LINE
  5
94
330
1F
100
AcDbEntity
  8
0
  6
Continuous
 62
     7
370
    25
100
AcDbLine
 10
1503.9403873979
 20
220.8092532089
 30
0.0
 11
1503.9403873979
 21
218.8092532089
 31
0.0
  0
ARC
  5
95
330
1F
100
AcDbEntity
  8
0
  6
Continuous
 62
     7
370
    25
100
AcDbCircle
 10
1500.9403873979
 20
220.8092532089
 30
0.0
 40
3.000000000000028
100
AcDbArc
 50
0.0
 51
90.0
  0
LINE
  5
96
330
1F
100
AcDbEntity
  8
0
  6
Continuous
 62
     7
370
    25
100
AcDbLine
 10
-1303.0596126021
 20
103.8092532089
 30
0.0
 11
-1301.0596126021
 21
103.8092532089
 31
0.0
  0
LINE
  5
97
330
1F
100
AcDbEntity
  8
0
  6
Continuous
 62
     7
370
    25
100
AcDbLine
 10
-1303.0596126021
 20
108.8092532089
 30
0.0
 11
-1303.0596126021
 21
103.8092532089
 31
0.0
  0
LINE
  5
98
330
1F
100
AcDbEntity
  8
0
  6
Continuous
 62
     7
370
    25
100
AcDbLine
 10
-1303.0596126021
 20
108.8092532089
 30
0.0
 11
-1301.0596126021
 21
108.8092532089
 31
0.0
  0
LINE
  5
99
330
1F
100
AcDbEntity
  8
0
  6
Continuous
 62
     7
370
    25
100
AcDbLine
 10
-1301.0596126021
 20
103.8092532089
 30
0.0
 11
-1301.0596126021
 21
108.8092532089
 31
0.0
  0
LINE
  5
9A
330
1F
100
AcDbEntity
  8
0
  6
Continuous
 62
     7
370
    25
100
AcDbLine
 10
-1303.0596126021
 20
218.8092532089
 30
0.0
 11
-1303.0596126021
 21
108.8092532089
 31
0.0
  0
LINE
  5
9B
330
1F
100
AcDbEntity
  8
0
  6
Continuous
 62
     7
370
    25
100
AcDbLine
 10
-1303.0596126021
 20
218.8092532089
 30
0.0
 11
-1301.0596126021
 21
218.8092532089
 31
0.0
  0
LINE
  5
9C
330
1F
100
AcDbEntity
  8
0
  6
Continuous
 62
     7
370
    25
100
AcDbLine
 10
-1301.0596126021
 20
108.8092532089
 30
0.0
 11
-1301.0596126021
 21
218.8092532089
 31
0.0
  0
LINE
  5
9D
330
1F
100
AcDbEntity
  8
0
  6
Continuous
 62
     7
370
    25
100
AcDbLine
 10
-1303.0596126021
 20
223.8092532089
 30
0.0
 11
-1303.0596126021
 21
218.8092532089
 31
0.0
  0
LINE
  5
9E
330
1F
100
AcDbEntity
  8
0
  6
Continuous
 62
     7
370
    25
100
AcDbLine
 10
-1303.0596126021
 20
223.8092532089
 30
0.0
 11
-1301.0596126021
 21
223.8092532089
 31
0.0
  0
LINE
  5
9F
330
1F
100
AcDbEntity
  8
0
  6
Continuous
 62
     7
370
    25
100
AcDbLine
 10
-1301.0596126021
 20
218.8092532089
 30
0.0
 11
-1301.0596126021
 21
223.8092532089
 31
0.0
  0
LINE
  5
A0
330
1F
100
AcDbEntity
  8
0
  6
Continuous
 62
     7
370
    25
100
AcDbLine
 10
-1303.0596126021
 20
218.8092532089
 30
0.0
 11
-1306.0596126021
 21
218.8092532089
 31
0.0
  0
LINE
  5
A1
330
1F
100
AcDbEntity
  8
0
  6
Continuous
 62
     7
370
    25
100
AcDbLine
 10
-1306.0596126021
 20
218.8092532089
 30
0.0
 11
-1306.0596126021
 21
220.8092532089
 31
0.0
  0
ARC
  5
A2
330
1F
100
AcDbEntity
  8
0
  6
Continuous
 62
     7
370
    25
100
AcDbCircle
 10
-1303.0596126021
 20
220.8092532089
 30
0.0
 40
3.000000000000028
100
AcDbArc
 50
90.0
 51
180.0
  0
LINE
  5
A3
330
1F
100
AcDbEntity
  8
0
  6
Continuous
 62
     7
370
    25
100
AcDbLine
 10
-1303.0596126021
 20
108.8092532089
 30
0.0
 11
-1306.0596126021
 21
108.8092532089
 31
0.0
  0
LINE
  5
A4
330
1F
100
AcDbEntity
  8
0
  6
Continuous
 62
     7
370
    25
100
AcDbLine
 10
-1306.0596126021
 20
108.8092532089
 30
0.0
 11
-1306.0596126021
 21
218.8092532089
 31
0.0
  0
ARC
  5
A5
330
1F
100
AcDbEntity
  8
0
  6
Continuous
 62
     7
370
    25
100
AcDbCircle
 10
-1303.0596126021
 20
106.8092532089
 30
0.0
 40
3.000000000000227
100
AcDbArc
 50
180.0
 51
270.0
  0
LINE
  5
A6
330
1F
100
AcDbEntity
  8
0
  6
Continuous
 62
     7
370
    25
100
AcDbLine
 10
-1306.0596126021
 20
106.8092532089
 30
0.0
 11
-1306.0596126021
 21
108.8092532089
 31
0.0
  0
LWPOLYLINE
  5
A7
330
1F
100
AcDbEntity
  8
0
  6
Continuous
 62
     7
370
    25
100
AcDbPolyline
 90
       36
 70
   128
 43
0.0
 10
922.4742566623
 20
-173.7579392146
 10
920.9931732318
 20
-174.1492685843
 10
919.6068156896
 20
-174.7948526959
 10
918.3597427077
 20
-175.6739419447
 10
917.292036238
 20
-176.7582816791
 10
916.4380132448
 20
-178.0130203277
 10
915.8251227298
 20
-179.3978295581
 10
915.4730634986
 20
-180.868200462
 10
915.3931510244
 20
-182.3768741089
 10
915.58795376
 20
-183.8753604863
 10
916.051210585
 20
-185.3154970092
 10
916.7680320441
 20
-186.6509965047
 10
917.7153789057
 20
-187.8389349203
 10
918.8628026622
 20
-188.8411309378
 10
920.1734241699
 20
-189.6253731525
 10
921.6051189753
 20
-190.1664553745
 10
923.1118712292
 20
-190.4469867759
 10
924.6452526745
 20
-190.4579508466
 10
926.1559791698
 20
-190.1989951924
 10
927.5954947226
 20
-189.6784428611
 10
928.9175321185
 20
-188.913024833
 10
930.079599988
 20
-187.9273422732
 10
931.0443485134
 20
-186.7530758302
 10
931.7807698834
 20
-185.4279673937
 10
932.2651949092
 20
-183.9946070392
 10
932.4820537719
 20
-182.4990641478
 10
932.4243764493
 20
-180.9894066986
 10
932.0940167379
 20
-179.5141563241
 10
931.5015926707
 20
-178.1207287853
 10
930.6661452446
 20
-176.8539099897
 10
929.6145264274
 20
-175.7544165358
 10
928.3805361131
 20
-174.8575870478
 10
927.0038357657
 20
-174.1922463635
 10
925.5286736671
 20
-173.7797790798
 10
924.002462741
 20
-173.6334422346
 10
922.4742566623
 20
-173.7579392146
  0
LWPOLYLINE
  5
A8
330
1F
100
AcDbEntity
  8
0
  6
Continuous
 62
     7
370
    25
100
AcDbPolyline
 90
       36
 70
   128
 43
0.0
 10
922.4742566623
 20
-60.4599910277
 10
920.9931732318
 20
-60.8513203974
 10
919.6068156896
 20
-61.4969045089
 10
918.3597427077
 20
-62.3759937578
 10
917.292036238
 20
-63.4603334922
 10
916.4380132448
 20
-64.7150721408
 10
915.8251227298
 20
-66.0998813711
 10
915.4730634986
 20
-67.5702522751
 10
915.3931510244
 20
-69.0789259219
 10
915.58795376
 20
-70.5774122994
 10
916.051210585
 20
-72.0175488223
 10
916.7680320441
 20
-73.3530483178
 10
917.7153789057
 20
-74.5409867334
 10
918.8628026622
 20
-75.5431827508
 10
920.1734241699
 20
-76.3274249656
 10
921.6051189753
 20
-76.8685071875
 10
923.1118712292
 20
-77.1490385889
 10
924.6452526745
 20
-77.1600026597
 10
926.1559791698
 20
-76.9010470055
 10
927.5954947226
 20
-76.3804946742
 10
928.9175321185
 20
-75.6150766461
 10
930.079599988
 20
-74.6293940862
 10
931.0443485134
 20
-73.4551276433
 10
931.7807698834
 20
-72.1300192068
 10
932.2651949092
 20
-70.6966588523
 10
932.4820537719
 20
-69.2011159609
 10
932.4243764493
 20
-67.6914585116
 10
932.0940167379
 20
-66.2162081372
 10
931.5015926707
 20
-64.8227805984
 10
930.6661452446
 20
-63.5559618028
 10
929.6145264274
 20
-62.4564683489
 10
928.3805361131
 20
-61.5596388609
 10
927.0038357657
 20
-60.8942981766
 10
925.5286736671
 20
-60.4818308929
 10
924.002462741
 20
-60.3354940477
 10
922.4742566623
 20
-60.4599910277
  0
LWPOLYLINE
  5
A9
330
1F
100
AcDbEntity
  8
0
  6
Continuous
 62
     7
370
    25
100
AcDbPolyline
 90
       36
 70
   128
 43
0.0
 10
-727.5257433377
 20
-77.0639461535
 10
-725.997537259
 20
-77.1884431335
 10
-724.4713263329
 20
-77.0421062883
 10
-722.9961642343
 20
-76.6296390046
 10
-721.6194638869
 20
-75.9642983202
 10
-720.3854735726
 20
-75.0674688323
 10
-719.3338547554
 20
-73.9679753784
 10
-718.4984073293
 20
-72.7011565828
 10
-717.9059832621
 20
-71.307729044
 10
-717.5756235507
 20
-69.8324786695
 10
-717.5179462281
 20
-68.3228212203
 10
-717.7348050908
 20
-66.8272783289
 10
-718.2192301166
 20
-65.3939179744
 10
-718.9556514866
 20
-64.0688095379
 10
-719.920400012
 20
-62.8945430949
 10
-721.0824678815
 20
-61.9088605351
 10
-722.4045052774
 20
-61.143442507
 10
-723.8440208302
 20
-60.6228901757
 10
-725.3547473255
 20
-60.3639345215
 10
-726.8881287708
 20
-60.3748985922
 10
-728.3948810247
 20
-60.6554299936
 10
-729.8265758301
 20
-61.1965122156
 10
-731.1371973378
 20
-61.9807544303
 10
-732.2846210943
 20
-62.9829504478
 10
-733.2319679559
 20
-64.1708888633
 10
-733.948789415
 20
-65.5063883589
 10
-734.41204624
 20
-66.9465248818
 10
-734.6068489756
 20
-68.4450112592
 10
-734.5269365014
 20
-69.9536849061
 10
-734.1748772702
 20
-71.42405581
 10
-733.5619867552
 20
-72.8088650404
 10
-732.707963762
 20
-74.063603689
 10
-731.6402572923
 20
-75.1479434234
 10
-730.3931843104
 20
-76.0270326722
 10
-729.0068267682
 20
-76.6726167838
 10
-727.5257433377
 20
-77.0639461535
  0
LWPOLYLINE
  5
AA
330
1F
100
AcDbEntity
  8
0
  6
Continuous
 62
     7
370
    25
100
AcDbPolyline
 90
       36
 70
   128
 43
0.0
 10
-727.5257433377
 20
-190.3618943404
 10
-725.997537259
 20
-190.4863913204
 10
-724.4713263329
 20
-190.3400544752
 10
-722.9961642343
 20
-189.9275871915
 10
-721.6194638869
 20
-189.2622465072
 10
-720.3854735726
 20
-188.3654170192
 10
-719.3338547554
 20
-187.2659235653
 10
-718.4984073293
 20
-185.9991047697
 10
-717.9059832621
 20
-184.6056772309
 10
-717.5756235507
 20
-183.1304268564
 10
-717.5179462281
 20
-181.6207694072
 10
-717.7348050908
 20
-180.1252265158
 10
-718.2192301166
 20
-178.6918661613
 10
-718.9556514866
 20
-177.3667577248
 10
-719.920400012
 20
-176.1924912818
 10
-721.0824678815
 20
-175.206808722
 10
-722.4045052774
 20
-174.4413906939
 10
-723.8440208302
 20
-173.9208383626
 10
-725.3547473255
 20
-173.6618827084
 10
-726.8881287708
 20
-173.6728467792
 10
-728.3948810247
 20
-173.9533781805
 10
-729.8265758301
 20
-174.4944604025
 10
-731.1371973378
 20
-175.2787026173
 10
-732.2846210943
 20
-176.2808986347
 10
-733.2319679559
 20
-177.4688370503
 10
-733.948789415
 20
-178.8043365458
 10
-734.41204624
 20
-180.2444730687
 10
-734.6068489756
 20
-181.7429594461
 10
-734.5269365014
 20
-183.251633093
 10
-734.1748772702
 20
-184.722003997
 10
-733.5619867552
 20
-186.1068132273
 10
-732.707963762
 20
-187.3615518759
 10
-731.6402572923
 20
-188.4458916103
 10
-730.3931843104
 20
-189.3249808592
 10
-729.0068267682
 20
-189.9705649707
 10
-727.5257433377
 20
-190.3618943404
  0
LINE
  5
AB
330
1F
100
AcDbEntity
  8
0
  6
Continuous
 62
     7
370
    25
100
AcDbLine
 10
861.9403873979
 20
-41.909275931
 30
0.0
 11
858.9403873979
 21
-38.9536772827
 31
0.0
  0
LINE
  5
AC
330
1F
100
AcDbEntity
  8
0
  6
Continuous
 62
     7
370
    25
100
AcDbLine
 10
861.9403873979
 20
-38.4394432602
 30
0.0
 11
858.9403873979
 21
-38.9536772827
 31
0.0
  0
LINE
  5
AD
330
1F
100
AcDbEntity
  8
0
  6
Continuous
 62
     7
370
    25
100
AcDbLine
 10
861.9403873979
 20
-41.909275931
 30
0.0
 11
861.9403873979
 21
-38.4394432602
 31
0.0
  0
LINE
  5
AE
330
1F
100
AcDbEntity
  8
0
  6
Continuous
 62
     7
370
    25
100
AcDbLine
 10
945.9403873979
 20
-41.909275931
 30
0.0
 11
861.9403873979
 21
-41.909275931
 31
0.0
  0
LINE
  5
AF
330
1F
100
AcDbEntity
  8
0
  6
Continuous
 62
     7
370
    25
100
AcDbLine
 10
861.9403873979
 20
-38.4394432602
 30
0.0
 11
945.9403873979
 21
-38.4394432602
 31
0.0
  0
LINE
  5
B0
330
1F
100
AcDbEntity
  8
0
  6
Continuous
 62
     7
370
    25
100
AcDbLine
 10
945.9403873979
 20
-38.4394432602
 30
0.0
 11
945.9403873979
 21
-41.909275931
 31
0.0
  0
LINE
  5
B1
330
1F
100
AcDbEntity
  8
0
  6
Continuous
 62
     7
370
    25
100
AcDbLine
 10
948.9403873979
 20
-38.9536772827
 30
0.0
 11
945.9403873979
 21
-41.909275931
 31
0.0
  0
LINE
  5
B2
330
1F
100
AcDbEntity
  8
0
  6
Continuous
 62
     7
370
    25
100
AcDbLine
 10
948.9403873979
 20
-38.9536772827
 30
0.0
 11
945.9403873979
 21
-38.4394432602
 31
0.0
  0
LINE
  5
B3
330
1F
100
AcDbEntity
  8
0
  6
Continuous
 62
     7
370
    25
100
AcDbLine
 10
861.9403873979
 20
235.7153420926
 30
0.0
 11
861.9403873979
 21
223.8092532089
 31
0.0
  0
LINE
  5
B4
330
1F
100
AcDbEntity
  8
0
  6
Continuous
 62
     7
370
    25
100
AcDbLine
 10
861.9403873979
 20
103.8092532089
 30
0.0
 11
861.9403873979
 21
-38.4394432602
 31
0.0
  0
LINE
  5
B5
330
1F
100
AcDbEntity
  8
0
  6
Continuous
 62
     7
370
    25
100
AcDbLine
 10
858.9403873979
 20
-38.9536772827
 30
0.0
 11
858.9403873979
 21
103.8092532089
 31
0.0
  0
LINE
  5
B6
330
1F
100
AcDbEntity
  8
0
  6
Continuous
 62
     7
370
    25
100
AcDbLine
 10
858.9403873979
 20
223.8092532089
 30
0.0
 11
858.9403873979
 21
235.7153420926
 31
0.0
  0
LINE
  5
B7
330
1F
100
AcDbEntity
  8
0
  6
Continuous
 62
     7
370
    25
100
AcDbLine
 10
945.9403873979
 20
-38.4394432602
 30
0.0
 11
945.9403873979
 21
103.8092532089
 31
0.0
  0
LINE
  5
B8
330
1F
100
AcDbEntity
  8
0
  6
Continuous
 62
     7
370
    25
100
AcDbLine
 10
945.9403873979
 20
223.8092532089
 30
0.0
 11
945.9403873979
 21
235.7153420926
 31
0.0
  0
LINE
  5
B9
330
1F
100
AcDbEntity
  8
0
  6
Continuous
 62
     7
370
    25
100
AcDbLine
 10
948.9403873979
 20
238.670940741
 30
0.0
 11
948.9403873979
 21
223.8092532089
 31
0.0
  0
LINE
  5
BA
330
1F
100
AcDbEntity
  8
0
  6
Continuous
 62
     7
370
    25
100
AcDbLine
 10
948.9403873979
 20
103.8092532089
 30
0.0
 11
948.9403873979
 21
-38.9536772827
 31
0.0
  0
LINE
  5
BB
330
1F
100
AcDbEntity
  8
0
  6
Continuous
 62
     7
370
    25
100
AcDbLine
 10
861.9403873979
 20
-41.909275931
 30
0.0
 11
861.9403873979
 21
-47.7372615188
 31
0.0
  0
LINE
  5
BC
330
1F
100
AcDbEntity
  8
0
  6
Continuous
 62
     7
370
    25
100
AcDbLine
 10
861.9403873979
 20
-47.7372615188
 30
0.0
 11
858.9403873979
 21
-44.7816628705
 31
0.0
  0
LINE
  5
BD
330
1F
100
AcDbEntity
  8
0
  6
Continuous
 62
     7
370
    25
100
AcDbLine
 10
858.9403873979
 20
-44.7816628705
 30
0.0
 11
858.9403873979
 21
-38.9536772827
 31
0.0
  0
LINE
  5
BE
330
1F
100
AcDbEntity
  8
0
  6
Continuous
 62
     7
370
    25
100
AcDbLine
 10
945.9403873979
 20
-47.7372615188
 30
0.0
 11
945.9403873979
 21
-41.909275931
 31
0.0
  0
LINE
  5
BF
330
1F
100
AcDbEntity
  8
0
  6
Continuous
 62
     7
370
    25
100
AcDbLine
 10
861.9403873979
 20
-47.7372615188
 30
0.0
 11
945.9403873979
 21
-47.7372615188
 31
0.0
  0
LINE
  5
C0
330
1F
100
AcDbEntity
  8
0
  6
Continuous
 62
     7
370
    25
100
AcDbLine
 10
948.9403873979
 20
-38.9536772827
 30
0.0
 11
948.9403873979
 21
-44.7816628705
 31
0.0
  0
LINE
  5
C1
330
1F
100
AcDbEntity
  8
0
  6
Continuous
 62
     7
370
    25
100
AcDbLine
 10
948.9403873979
 20
-44.7816628705
 30
0.0
 11
945.9403873979
 21
-47.7372615188
 31
0.0
  0
LINE
  5
C2
330
1F
100
AcDbEntity
  8
0
  6
Continuous
 62
     7
370
    25
100
AcDbLine
 10
-661.0596126021
 20
-38.9536772827
 30
0.0
 11
-664.0596126021
 21
-41.909275931
 31
0.0
  0
LINE
  5
C3
330
1F
100
AcDbEntity
  8
0
  6
Continuous
 62
     7
370
    25
100
AcDbLine
 10
-664.0596126021
 20
-38.4394432602
 30
0.0
 11
-664.0596126021
 21
-41.909275931
 31
0.0
  0
LINE
  5
C4
330
1F
100
AcDbEntity
  8
0
  6
Continuous
 62
     7
370
    25
100
AcDbLine
 10
-664.0596126021
 20
-38.4394432602
 30
0.0
 11
-661.0596126021
 21
-38.9536772827
 31
0.0
  0
LINE
  5
C5
330
1F
100
AcDbEntity
  8
0
  6
Continuous
 62
     7
370
    25
100
AcDbLine
 10
-751.0596126021
 20
-38.9536772827
 30
0.0
 11
-748.0596126021
 21
-38.4394432602
 31
0.0
  0
LINE
  5
C6
330
1F
100
AcDbEntity
  8
0
  6
Continuous
 62
     7
370
    25
100
AcDbLine
 10
-748.0596126021
 20
-41.909275931
 30
0.0
 11
-748.0596126021
 21
-38.4394432602
 31
0.0
  0
LINE
  5
C7
330
1F
100
AcDbEntity
  8
0
  6
Continuous
 62
     7
370
    25
100
AcDbLine
 10
-748.0596126021
 20
-41.909275931
 30
0.0
 11
-751.0596126021
 21
-38.9536772827
 31
0.0
  0
LINE
  5
C8
330
1F
100
AcDbEntity
  8
0
  6
Continuous
 62
     7
370
    25
100
AcDbLine
 10
-664.0596126021
 20
-41.909275931
 30
0.0
 11
-748.0596126021
 21
-41.909275931
 31
0.0
  0
LINE
  5
C9
330
1F
100
AcDbEntity
  8
0
  6
Continuous
 62
     7
370
    25
100
AcDbLine
 10
-748.0596126021
 20
-38.4394432602
 30
0.0
 11
-664.0596126021
 21
-38.4394432602
 31
0.0
  0
LINE
  5
CA
330
1F
100
AcDbEntity
  8
0
  6
Continuous
 62
     7
370
    25
100
AcDbLine
 10
-751.0596126021
 20
-38.9536772827
 30
0.0
 11
-751.0596126021
 21
103.8092532089
 31
0.0
  0
LINE
  5
CB
330
1F
100
AcDbEntity
  8
0
  6
Continuous
 62
     7
370
    25
100
AcDbLine
 10
-751.0596126021
 20
223.8092532089
 30
0.0
 11
-751.0596126021
 21
238.670940741
 31
0.0
  0
LINE
  5
CC
330
1F
100
AcDbEntity
  8
0
  6
Continuous
 62
     7
370
    25
100
AcDbLine
 10
-748.0596126021
 20
235.7153420926
 30
0.0
 11
-748.0596126021
 21
223.8092532089
 31
0.0
  0
LINE
  5
CD
330
1F
100
AcDbEntity
  8
0
  6
Continuous
 62
     7
370
    25
100
AcDbLine
 10
-748.0596126021
 20
103.8092532089
 30
0.0
 11
-748.0596126021
 21
-38.4394432602
 31
0.0
  0
LINE
  5
CE
330
1F
100
AcDbEntity
  8
0
  6
Continuous
 62
     7
370
    25
100
AcDbLine
 10
-664.0596126021
 20
-38.4394432602
 30
0.0
 11
-664.0596126021
 21
103.8092532089
 31
0.0
  0
LINE
  5
CF
330
1F
100
AcDbEntity
  8
0
  6
Continuous
 62
     7
370
    25
100
AcDbLine
 10
-664.0596126021
 20
223.8092532089
 30
0.0
 11
-664.0596126021
 21
235.7153420926
 31
0.0
  0
LINE
  5
D0
330
1F
100
AcDbEntity
  8
0
  6
Continuous
 62
     7
370
    25
100
AcDbLine
 10
-661.0596126021
 20
235.7153420926
 30
0.0
 11
-661.0596126021
 21
223.8092532089
 31
0.0
  0
LINE
  5
D1
330
1F
100
AcDbEntity
  8
0
  6
Continuous
 62
     7
370
    25
100
AcDbLine
 10
-661.0596126021
 20
103.8092532089
 30
0.0
 11
-661.0596126021
 21
-38.9536772827
 31
0.0
  0
LINE
  5
D2
330
1F
100
AcDbEntity
  8
0
  6
Continuous
 62
     7
370
    25
100
AcDbLine
 10
-748.0596126021
 20
-41.909275931
 30
0.0
 11
-748.0596126021
 21
-47.7372615188
 31
0.0
  0
LINE
  5
D3
330
1F
100
AcDbEntity
  8
0
  6
Continuous
 62
     7
370
    25
100
AcDbLine
 10
-748.0596126021
 20
-47.7372615188
 30
0.0
 11
-751.0596126021
 21
-44.7816628705
 31
0.0
  0
LINE
  5
D4
330
1F
100
AcDbEntity
  8
0
  6
Continuous
 62
     7
370
    25
100
AcDbLine
 10
-751.0596126021
 20
-44.7816628705
 30
0.0
 11
-751.0596126021
 21
-38.9536772827
 31
0.0
  0
LINE
  5
D5
330
1F
100
AcDbEntity
  8
0
  6
Continuous
 62
     7
370
    25
100
AcDbLine
 10
-748.0596126021
 20
-47.7372615188
 30
0.0
 11
-664.0596126021
 21
-47.7372615188
 31
0.0
  0
LINE
  5
D6
330
1F
100
AcDbEntity
  8
0
  6
Continuous
 62
     7
370
    25
100
AcDbLine
 10
-664.0596126021
 20
-47.7372615188
 30
0.0
 11
-664.0596126021
 21
-41.909275931
 31
0.0
  0
LINE
  5
D7
330
1F
100
AcDbEntity
  8
0
  6
Continuous
 62
     7
370
    25
100
AcDbLine
 10
-661.0596126021
 20
-38.9536772827
 30
0.0
 11
-661.0596126021
 21
-44.7816628705
 31
0.0
  0
LINE
  5
D8
330
1F
100
AcDbEntity
  8
0
  6
Continuous
 62
     7
370
    25
100
AcDbLine
 10
-661.0596126021
 20
-44.7816628705
 30
0.0
 11
-664.0596126021
 21
-47.7372615188
 31
0.0
  0
LINE
  5
D9
330
1F
100
AcDbEntity
  8
0
  6
Continuous
 62
     7
370
    25
100
AcDbLine
 10
933.4403873979
 20
-233.7107547345
 30
0.0
 11
914.4403873979
 21
-233.7107547345
 31
0.0
  0
LINE
  5
DA
330
1F
100
AcDbEntity
  8
0
  6
Continuous
 62
     7
370
    25
100
AcDbLine
 10
914.4403873979
 20
-233.7107547345
 30
0.0
 11
914.4403873979
 21
-241.2528537305
 31
0.0
  0
ELLIPSE
  5
DB
330
1F
100
AcDbEntity
  8
0
  6
Continuous
 62
     7
370
    25
100
AcDbEllipse
 10
914.4403873979
 20
-238.2972550821
 30
0.0
 11
2.398597461442137
 21
1.912249004648913
 31
0.0
210
0.0
220
0.0
230
1.0
 40
0.9422771463
 41
2.497312760966281
 42
4.068109087761147
  0
LINE
  5
DC
330
1F
100
AcDbEntity
  8
0
  6
Continuous
 62
     7
370
    25
100
AcDbLine
 10
911.4403873979
 20
-238.4686664229
 30
0.0
 11
911.4403873979
 21
-233.0763665094
 31
0.0
  0
LINE
  5
DD
330
1F
100
AcDbEntity
  8
0
  6
Continuous
 62
     7
370
    25
100
AcDbLine
 10
933.4403873979
 20
-241.2528537305
 30
0.0
 11
933.4403873979
 21
-233.7107547345
 31
0.0
  0
LINE
  5
DE
330
1F
100
AcDbEntity
  8
0
  6
Continuous
 62
     7
370
    25
100
AcDbLine
 10
936.4403873979
 20
-233.0763665094
 30
0.0
 11
936.4403873979
 21
-238.4686664229
 31
0.0
  0
ELLIPSE
  5
DF
330
1F
100
AcDbEntity
  8
0
  6
Continuous
 62
     7
370
    25
100
AcDbEllipse
 10
933.4403873979
 20
-238.2972550821
 30
0.0
 11
2.398597461442251
 21
-1.912249004648942
 31
0.0
210
0.0
220
0.0
230
1.0
 40
0.9422771463
 41
5.356668873008233
 42
6.927465199803095
  0
LINE
  5
E0
330
1F
100
AcDbEntity
  8
0
  6
Continuous
 62
     7
370
    25
100
AcDbLine
 10
914.4403873979
 20
-241.2528537305
 30
0.0
 11
933.4403873979
 21
-241.2528537305
 31
0.0
  0
LINE
  5
E1
330
1F
100
AcDbEntity
  8
0
  6
Continuous
 62
     7
370
    25
100
AcDbLine
 10
-716.5596126021
 20
-233.7107547345
 30
0.0
 11
-735.5596126021
 21
-233.7107547345
 31
0.0
  0
LINE
  5
E2
330
1F
100
AcDbEntity
  8
0
  6
Continuous
 62
     7
370
    25
100
AcDbLine
 10
-735.5596126021
 20
-233.7107547345
 30
0.0
 11
-735.5596126021
 21
-241.2528537305
 31
0.0
  0
ELLIPSE
  5
E3
330
1F
100
AcDbEntity
  8
0
  6
Continuous
 62
     7
370
    25
100
AcDbEllipse
 10
-735.5596126021
 20
-238.2972550821
 30
0.0
 11
2.39859746144225
 21
1.912249004648914
 31
0.0
210
0.0
220
0.0
230
1.0
 40
0.9422771463
 41
2.497312760966279
 42
4.068109087761195
  0
LINE
  5
E4
330
1F
100
AcDbEntity
  8
0
  6
Continuous
 62
     7
370
    25
100
AcDbLine
 10
-738.5596126021
 20
-238.4686664229
 30
0.0
 11
-738.5596126021
 21
-233.0763665094
 31
0.0
  0
LINE
  5
E5
330
1F
100
AcDbEntity
  8
0
  6
Continuous
 62
     7
370
    25
100
AcDbLine
 10
-716.5596126021
 20
-241.2528537305
 30
0.0
 11
-716.5596126021
 21
-233.7107547345
 31
0.0
  0
LINE
  5
E6
330
1F
100
AcDbEntity
  8
0
  6
Continuous
 62
     7
370
    25
100
AcDbLine
 10
-713.5596126021
 20
-233.0763665094
 30
0.0
 11
-713.5596126021
 21
-238.4686664229
 31
0.0
  0
ELLIPSE
  5
E7
330
1F
100
AcDbEntity
  8
0
  6
Continuous
 62
     7
370
    25
100
AcDbEllipse
 10
-716.5596126021
 20
-238.2972550821
 30
0.0
 11
2.398597461442136
 21
-1.912249004648941
 31
0.0
210
0.0
220
0.0
230
1.0
 40
0.9422771463
 41
5.356668873008269
 42
6.9274651998031
  0
LINE
  5
E8
330
1F
100
AcDbEntity
  8
0
  6
Continuous
 62
     7
370
    25
100
AcDbLine
 10
-735.5596126021
 20
-241.2528537305
 30
0.0
 11
-716.5596126021
 21
-241.2528537305
 31
0.0
  0
LINE
  5
E9
330
1F
100
AcDbEntity
  8
0
  6
Continuous
 62
     7
370
    25
100
AcDbLine
 10
858.9403873979
 20
-0.6524845478
 30
0.0
 11
-661.0596126021
 21
-0.6524845478
 31
0.0
  0
LINE
  5
EA
330
1F
100
AcDbEntity
  8
0
  6
Continuous
 62
     7
370
    25
100
AcDbLine
 10
-661.0596126021
 20
2.817348123
 30
0.0
 11
858.9403873979
 21
2.817348123
 31
0.0
  0
LINE
  5
EB
330
1F
100
AcDbEntity
  8
0
  6
Continuous
 62
     7
370
    25
100
AcDbLine
 10
858.9403873979
 20
85.5741102769
 30
0.0
 11
-661.0596126021
 21
85.5741102769
 31
0.0
  0
LINE
  5
EC
330
1F
100
AcDbEntity
  8
0
  6
Continuous
 62
     7
370
    25
100
AcDbLine
 10
-661.0596126021
 20
-6.4804701356
 30
0.0
 11
858.9403873979
 21
-6.4804701356
 31
0.0
  0
LINE
  5
ED
330
1F
100
AcDbEntity
  8
0
  6
Continuous
 62
     7
370
    25
100
AcDbLine
 10
-661.0596126021
 20
88.0154749028
 30
0.0
 11
858.9403873979
 21
88.0154749028
 31
0.0
  0
LINE
  5
EE
330
1F
100
AcDbEntity
  8
0
  6
Continuous
 62
     7
370
    25
100
AcDbLine
 10
945.9403873979
 20
289.5385031091
 30
0.0
 11
936.4403873979
 21
289.5385031091
 31
0.0
  0
LINE
  5
EF
330
1F
100
AcDbEntity
  8
0
  6
Continuous
 62
     7
370
    25
100
AcDbLine
 10
911.4403873979
 20
289.5385031091
 30
0.0
 11
-713.5596126021
 21
289.5385031091
 31
0.0
  0
LINE
  5
F0
330
1F
100
AcDbEntity
  8
0
  6
Continuous
 62
     7
370
    25
100
AcDbLine
 10
-738.5596126021
 20
289.5385031091
 30
0.0
 11
-748.0596126021
 21
289.5385031091
 31
0.0
  0
LINE
  5
F1
330
1F
100
AcDbEntity
  8
0
  6
Continuous
 62
     7
370
    25
100
AcDbLine
 10
-748.0596126021
 20
289.5385031091
 30
0.0
 11
-748.0596126021
 21
293.0083357799
 31
0.0
  0
LINE
  5
F2
330
1F
100
AcDbEntity
  8
0
  6
Continuous
 62
     7
370
    25
100
AcDbLine
 10
-748.0596126021
 20
293.0083357799
 30
0.0
 11
-738.5596126021
 21
293.0083357799
 31
0.0
  0
LINE
  5
F3
330
1F
100
AcDbEntity
  8
0
  6
Continuous
 62
     7
370
    25
100
AcDbLine
 10
-713.5596126021
 20
293.0083357799
 30
0.0
 11
911.4403873979
 21
293.0083357799
 31
0.0
  0
LINE
  5
F4
330
1F
100
AcDbEntity
  8
0
  6
Continuous
 62
     7
370
    25
100
AcDbLine
 10
936.4403873979
 20
293.0083357799
 30
0.0
 11
945.9403873979
 21
293.0083357799
 31
0.0
  0
LINE
  5
F5
330
1F
100
AcDbEntity
  8
0
  6
Continuous
 62
     7
370
    25
100
AcDbLine
 10
945.9403873979
 20
289.5385031091
 30
0.0
 11
945.9403873979
 21
293.0083357799
 31
0.0
  0
LINE
  5
F6
330
1F
100
AcDbEntity
  8
0
  6
Continuous
 62
     7
370
    25
100
AcDbLine
 10
-748.0596126021
 20
289.5385031091
 30
0.0
 11
-751.0596126021
 21
292.4941017574
 31
0.0
  0
LINE
  5
F7
330
1F
100
AcDbEntity
  8
0
  6
Continuous
 62
     7
370
    25
100
AcDbLine
 10
-748.0596126021
 20
293.0083357799
 30
0.0
 11
-751.0596126021
 21
292.4941017574
 31
0.0
  0
LINE
  5
F8
330
1F
100
AcDbEntity
  8
0
  6
Continuous
 62
     7
370
    25
100
AcDbLine
 10
948.9403873979
 20
292.4941017574
 30
0.0
 11
945.9403873979
 21
293.0083357799
 31
0.0
  0
LINE
  5
F9
330
1F
100
AcDbEntity
  8
0
  6
Continuous
 62
     7
370
    25
100
AcDbLine
 10
945.9403873979
 20
289.5385031091
 30
0.0
 11
948.9403873979
 21
292.4941017574
 31
0.0
  0
LINE
  5
FA
330
1F
100
AcDbEntity
  8
0
  6
Continuous
 62
     7
370
    25
100
AcDbLine
 10
-748.0596126021
 20
326.5051204612
 30
0.0
 11
-748.0596126021
 21
293.0083357799
 31
0.0
  0
LINE
  5
FB
330
1F
100
AcDbEntity
  8
0
  6
Continuous
 62
     7
370
    25
100
AcDbLine
 10
-751.0596126021
 20
292.4941017574
 30
0.0
 11
-751.0596126021
 21
325.9908864388
 31
0.0
  0
LINE
  5
FC
330
1F
100
AcDbEntity
  8
0
  6
Continuous
 62
     7
370
    25
100
AcDbLine
 10
-748.0596126021
 20
326.5051204612
 30
0.0
 11
-751.0596126021
 21
325.9908864388
 31
0.0
  0
LINE
  5
FD
330
1F
100
AcDbEntity
  8
0
  6
Continuous
 62
     7
370
    25
100
AcDbLine
 10
945.9403873979
 20
293.0083357799
 30
0.0
 11
945.9403873979
 21
326.5051204612
 31
0.0
  0
LINE
  5
FE
330
1F
100
AcDbEntity
  8
0
  6
Continuous
 62
     7
370
    25
100
AcDbLine
 10
945.9403873979
 20
326.5051204612
 30
0.0
 11
936.4403873979
 21
326.5051204612
 31
0.0
  0
LINE
  5
FF
330
1F
100
AcDbEntity
  8
0
  6
Continuous
 62
     7
370
    25
100
AcDbLine
 10
911.4403873979
 20
326.5051204612
 30
0.0
 11
-713.5596126021
 21
326.5051204612
 31
0.0
  0
LINE
  5
100
330
1F
100
AcDbEntity
  8
0
  6
Continuous
 62
     7
370
    25
100
AcDbLine
 10
-738.5596126021
 20
326.5051204612
 30
0.0
 11
-748.0596126021
 21
326.5051204612
 31
0.0
  0
LINE
  5
101
330
1F
100
AcDbEntity
  8
0
  6
Continuous
 62
     7
370
    25
100
AcDbLine
 10
948.9403873979
 20
325.9908864388
 30
0.0
 11
948.9403873979
 21
292.4941017574
 31
0.0
  0
LINE
  5
102
330
1F
100
AcDbEntity
  8
0
  6
Continuous
 62
     7
370
    25
100
AcDbLine
 10
948.9403873979
 20
325.9908864388
 30
0.0
 11
945.9403873979
 21
326.5051204612
 31
0.0
  0
LINE
  5
103
330
1F
100
AcDbEntity
  8
0
  6
Continuous
 62
     7
370
    25
100
AcDbLine
 10
945.9403873979
 20
275.1399504805
 30
0.0
 11
945.9403873979
 21
289.5385031091
 31
0.0
  0
LINE
  5
104
330
1F
100
AcDbEntity
  8
0
  6
Continuous
 62
     7
370
    25
100
AcDbLine
 10
-748.0596126021
 20
275.1399504805
 30
0.0
 11
-738.5596126021
 21
275.1399504805
 31
0.0
  0
LINE
  5
105
330
1F
100
AcDbEntity
  8
0
  6
Continuous
 62
     7
370
    25
100
AcDbLine
 10
-713.5596126021
 20
275.1399504805
 30
0.0
 11
911.4403873979
 21
275.1399504805
 31
0.0
  0
LINE
  5
106
330
1F
100
AcDbEntity
  8
0
  6
Continuous
 62
     7
370
    25
100
AcDbLine
 10
936.4403873979
 20
275.1399504805
 30
0.0
 11
945.9403873979
 21
275.1399504805
 31
0.0
  0
LINE
  5
107
330
1F
100
AcDbEntity
  8
0
  6
Continuous
 62
     7
370
    25
100
AcDbLine
 10
-748.0596126021
 20
289.5385031091
 30
0.0
 11
-748.0596126021
 21
275.1399504805
 31
0.0
  0
LINE
  5
108
330
1F
100
AcDbEntity
  8
0
  6
Continuous
 62
     7
370
    25
100
AcDbLine
 10
-751.0596126021
 20
278.0955491288
 30
0.0
 11
-751.0596126021
 21
292.4941017574
 31
0.0
  0
LINE
  5
109
330
1F
100
AcDbEntity
  8
0
  6
Continuous
 62
     7
370
    25
100
AcDbLine
 10
-751.0596126021
 20
278.0955491288
 30
0.0
 11
-748.0596126021
 21
275.1399504805
 31
0.0
  0
LINE
  5
10A
330
1F
100
AcDbEntity
  8
0
  6
Continuous
 62
     7
370
    25
100
AcDbLine
 10
948.9403873979
 20
292.4941017574
 30
0.0
 11
948.9403873979
 21
278.0955491288
 31
0.0
  0
LINE
  5
10B
330
1F
100
AcDbEntity
  8
0
  6
Continuous
 62
     7
370
    25
100
AcDbLine
 10
948.9403873979
 20
278.0955491288
 30
0.0
 11
945.9403873979
 21
275.1399504805
 31
0.0
  0
LINE
  5
10C
330
1F
100
AcDbEntity
  8
0
  6
Continuous
 62
     7
370
    25
100
AcDbLine
 10
-748.0596126021
 20
328.9464850871
 30
0.0
 11
-751.0596126021
 21
325.9908864388
 31
0.0
  0
LINE
  5
10D
330
1F
100
AcDbEntity
  8
0
  6
Continuous
 62
     7
370
    25
100
AcDbLine
 10
-748.0596126021
 20
326.5051204612
 30
0.0
 11
-748.0596126021
 21
328.9464850871
 31
0.0
  0
LINE
  5
10E
330
1F
100
AcDbEntity
  8
0
  6
Continuous
 62
     7
370
    25
100
AcDbLine
 10
-748.0596126021
 20
328.9464850871
 30
0.0
 11
-738.5596126021
 21
328.9464850871
 31
0.0
  0
LINE
  5
10F
330
1F
100
AcDbEntity
  8
0
  6
Continuous
 62
     7
370
    25
100
AcDbLine
 10
-713.5596126021
 20
328.9464850871
 30
0.0
 11
911.4403873979
 21
328.9464850871
 31
0.0
  0
LINE
  5
110
330
1F
100
AcDbEntity
  8
0
  6
Continuous
 62
     7
370
    25
100
AcDbLine
 10
936.4403873979
 20
328.9464850871
 30
0.0
 11
945.9403873979
 21
328.9464850871
 31
0.0
  0
LINE
  5
111
330
1F
100
AcDbEntity
  8
0
  6
Continuous
 62
     7
370
    25
100
AcDbLine
 10
945.9403873979
 20
326.5051204612
 30
0.0
 11
945.9403873979
 21
328.9464850871
 31
0.0
  0
LINE
  5
112
330
1F
100
AcDbEntity
  8
0
  6
Continuous
 62
     7
370
    25
100
AcDbLine
 10
948.9403873979
 20
325.9908864388
 30
0.0
 11
945.9403873979
 21
328.9464850871
 31
0.0
  0
LINE
  5
113
330
1F
100
AcDbEntity
  8
0
  6
Continuous
 62
     7
370
    25
100
AcDbLine
 10
858.9403873979
 20
225.1078613878
 30
0.0
 11
-661.0596126021
 21
225.1078613878
 31
0.0
  0
LINE
  5
114
330
1F
100
AcDbEntity
  8
0
  6
Continuous
 62
     7
370
    25
100
AcDbLine
 10
-661.0596126021
 20
225.1174959539
 30
0.0
 11
858.9403873979
 21
225.1174959539
 31
0.0
  0
LINE
  5
115
330
1F
100
AcDbEntity
  8
0
  6
Continuous
 62
     7
370
    25
100
AcDbLine
 10
-748.0596126021
 20
269.8261989152
 30
0.0
 11
-751.0596126021
 21
272.7817975635
 31
0.0
  0
LINE
  5
116
330
1F
100
AcDbEntity
  8
0
  6
Continuous
 62
     7
370
    25
100
AcDbLine
 10
-748.0596126021
 20
273.296031586
 30
0.0
 11
-751.0596126021
 21
272.7817975635
 31
0.0
  0
LINE
  5
117
330
1F
100
AcDbEntity
  8
0
  6
Continuous
 62
     7
370
    25
100
AcDbLine
 10
-748.0596126021
 20
269.8261989152
 30
0.0
 11
-748.0596126021
 21
273.296031586
 31
0.0
  0
LINE
  5
118
330
1F
100
AcDbEntity
  8
0
  6
Continuous
 62
     7
370
    25
100
AcDbLine
 10
945.9403873979
 20
269.8261989152
 30
0.0
 11
936.4403873979
 21
269.8261989152
 31
0.0
  0
LINE
  5
119
330
1F
100
AcDbEntity
  8
0
  6
Continuous
 62
     7
370
    25
100
AcDbLine
 10
911.4403873979
 20
269.8261989152
 30
0.0
 11
-713.5596126021
 21
269.8261989152
 31
0.0
  0
LINE
  5
11A
330
1F
100
AcDbEntity
  8
0
  6
Continuous
 62
     7
370
    25
100
AcDbLine
 10
-738.5596126021
 20
269.8261989152
 30
0.0
 11
-748.0596126021
 21
269.8261989152
 31
0.0
  0
LINE
  5
11B
330
1F
100
AcDbEntity
  8
0
  6
Continuous
 62
     7
370
    25
100
AcDbLine
 10
-748.0596126021
 20
273.296031586
 30
0.0
 11
-738.5596126021
 21
273.296031586
 31
0.0
  0
LINE
  5
11C
330
1F
100
AcDbEntity
  8
0
  6
Continuous
 62
     7
370
    25
100
AcDbLine
 10
-713.5596126021
 20
273.296031586
 30
0.0
 11
911.4403873979
 21
273.296031586
 31
0.0
  0
LINE
  5
11D
330
1F
100
AcDbEntity
  8
0
  6
Continuous
 62
     7
370
    25
100
AcDbLine
 10
936.4403873979
 20
273.296031586
 30
0.0
 11
945.9403873979
 21
273.296031586
 31
0.0
  0
LINE
  5
11E
330
1F
100
AcDbEntity
  8
0
  6
Continuous
 62
     7
370
    25
100
AcDbLine
 10
945.9403873979
 20
269.8261989152
 30
0.0
 11
945.9403873979
 21
273.296031586
 31
0.0
  0
LINE
  5
11F
330
1F
100
AcDbEntity
  8
0
  6
Continuous
 62
     7
370
    25
100
AcDbLine
 10
948.9403873979
 20
272.7817975635
 30
0.0
 11
945.9403873979
 21
273.296031586
 31
0.0
  0
LINE
  5
120
330
1F
100
AcDbEntity
  8
0
  6
Continuous
 62
     7
370
    25
100
AcDbLine
 10
945.9403873979
 20
269.8261989152
 30
0.0
 11
948.9403873979
 21
272.7817975635
 31
0.0
  0
LINE
  5
121
330
1F
100
AcDbEntity
  8
0
  6
Continuous
 62
     7
370
    25
100
AcDbLine
 10
-748.0596126021
 20
275.1399504805
 30
0.0
 11
-748.0596126021
 21
273.296031586
 31
0.0
  0
LINE
  5
122
330
1F
100
AcDbEntity
  8
0
  6
Continuous
 62
     7
370
    25
100
AcDbLine
 10
-751.0596126021
 20
272.7817975635
 30
0.0
 11
-751.0596126021
 21
278.0955491288
 31
0.0
  0
LINE
  5
123
330
1F
100
AcDbEntity
  8
0
  6
Continuous
 62
     7
370
    25
100
AcDbLine
 10
945.9403873979
 20
273.296031586
 30
0.0
 11
945.9403873979
 21
275.1399504805
 31
0.0
  0
LINE
  5
124
330
1F
100
AcDbEntity
  8
0
  6
Continuous
 62
     7
370
    25
100
AcDbLine
 10
948.9403873979
 20
278.0955491288
 30
0.0
 11
948.9403873979
 21
272.7817975635
 31
0.0
  0
LINE
  5
125
330
1F
100
AcDbEntity
  8
0
  6
Continuous
 62
     7
370
    25
100
AcDbLine
 10
945.9403873979
 20
255.4276462866
 30
0.0
 11
945.9403873979
 21
269.8261989152
 31
0.0
  0
LINE
  5
126
330
1F
100
AcDbEntity
  8
0
  6
Continuous
 62
     7
370
    25
100
AcDbLine
 10
-748.0596126021
 20
255.4276462866
 30
0.0
 11
-738.5596126021
 21
255.4276462866
 31
0.0
  0
LINE
  5
127
330
1F
100
AcDbEntity
  8
0
  6
Continuous
 62
     7
370
    25
100
AcDbLine
 10
-713.5596126021
 20
255.4276462866
 30
0.0
 11
911.4403873979
 21
255.4276462866
 31
0.0
  0
LINE
  5
128
330
1F
100
AcDbEntity
  8
0
  6
Continuous
 62
     7
370
    25
100
AcDbLine
 10
936.4403873979
 20
255.4276462866
 30
0.0
 11
945.9403873979
 21
255.4276462866
 31
0.0
  0
LINE
  5
129
330
1F
100
AcDbEntity
  8
0
  6
Continuous
 62
     7
370
    25
100
AcDbLine
 10
-748.0596126021
 20
269.8261989152
 30
0.0
 11
-748.0596126021
 21
255.4276462866
 31
0.0
  0
LINE
  5
12A
330
1F
100
AcDbEntity
  8
0
  6
Continuous
 62
     7
370
    25
100
AcDbLine
 10
-751.0596126021
 20
258.3832449349
 30
0.0
 11
-751.0596126021
 21
272.7817975635
 31
0.0
  0
LINE
  5
12B
330
1F
100
AcDbEntity
  8
0
  6
Continuous
 62
     7
370
    25
100
AcDbLine
 10
-751.0596126021
 20
258.3832449349
 30
0.0
 11
-748.0596126021
 21
255.4276462866
 31
0.0
  0
LINE
  5
12C
330
1F
100
AcDbEntity
  8
0
  6
Continuous
 62
     7
370
    25
100
AcDbLine
 10
948.9403873979
 20
272.7817975635
 30
0.0
 11
948.9403873979
 21
258.3832449349
 31
0.0
  0
LINE
  5
12D
330
1F
100
AcDbEntity
  8
0
  6
Continuous
 62
     7
370
    25
100
AcDbLine
 10
948.9403873979
 20
258.3832449349
 30
0.0
 11
945.9403873979
 21
255.4276462866
 31
0.0
  0
LINE
  5
12E
330
1F
100
AcDbEntity
  8
0
  6
Continuous
 62
     7
370
    25
100
AcDbLine
 10
-748.0596126021
 20
-227.2483809216
 30
0.0
 11
-751.0596126021
 21
-224.2927822733
 31
0.0
  0
LINE
  5
12F
330
1F
100
AcDbEntity
  8
0
  6
Continuous
 62
     7
370
    25
100
AcDbLine
 10
-748.0596126021
 20
-223.7785482508
 30
0.0
 11
-751.0596126021
 21
-224.2927822733
 31
0.0
  0
LINE
  5
130
330
1F
100
AcDbEntity
  8
0
  6
Continuous
 62
     7
370
    25
100
AcDbLine
 10
-748.0596126021
 20
-227.2483809216
 30
0.0
 11
-748.0596126021
 21
-223.7785482508
 31
0.0
  0
LINE
  5
131
330
1F
100
AcDbEntity
  8
0
  6
Continuous
 62
     7
370
    25
100
AcDbLine
 10
945.9403873979
 20
-227.2483809216
 30
0.0
 11
-748.0596126021
 21
-227.2483809216
 31
0.0
  0
LINE
  5
132
330
1F
100
AcDbEntity
  8
0
  6
Continuous
 62
     7
370
    25
100
AcDbLine
 10
-748.0596126021
 20
-223.7785482508
 30
0.0
 11
945.9403873979
 21
-223.7785482508
 31
0.0
  0
LINE
  5
133
330
1F
100
AcDbEntity
  8
0
  6
Continuous
 62
     7
370
    25
100
AcDbLine
 10
945.9403873979
 20
-227.2483809216
 30
0.0
 11
945.9403873979
 21
-223.7785482508
 31
0.0
  0
LINE
  5
134
330
1F
100
AcDbEntity
  8
0
  6
Continuous
 62
     7
370
    25
100
AcDbLine
 10
948.9403873979
 20
-224.2927822733
 30
0.0
 11
945.9403873979
 21
-223.7785482508
 31
0.0
  0
LINE
  5
135
330
1F
100
AcDbEntity
  8
0
  6
Continuous
 62
     7
370
    25
100
AcDbLine
 10
948.9403873979
 20
-224.2927822733
 30
0.0
 11
945.9403873979
 21
-227.2483809216
 31
0.0
  0
LINE
  5
136
330
1F
100
AcDbEntity
  8
0
  6
Continuous
 62
     7
370
    25
100
AcDbLine
 10
-748.0596126021
 20
-141.0217860969
 30
0.0
 11
-748.0596126021
 21
-223.7785482508
 31
0.0
  0
LINE
  5
137
330
1F
100
AcDbEntity
  8
0
  6
Continuous
 62
     7
370
    25
100
AcDbLine
 10
945.9403873979
 20
-141.0217860969
 30
0.0
 11
-748.0596126021
 21
-141.0217860969
 31
0.0
  0
LINE
  5
138
330
1F
100
AcDbEntity
  8
0
  6
Continuous
 62
     7
370
    25
100
AcDbLine
 10
945.9403873979
 20
-223.7785482508
 30
0.0
 11
945.9403873979
 21
-141.0217860969
 31
0.0
  0
LINE
  5
139
330
1F
100
AcDbEntity
  8
0
  6
Continuous
 62
     7
370
    25
100
AcDbLine
 10
-751.0596126021
 20
-224.2927822733
 30
0.0
 11
-751.0596126021
 21
-141.5360201194
 31
0.0
  0
LINE
  5
13A
330
1F
100
AcDbEntity
  8
0
  6
Continuous
 62
     7
370
    25
100
AcDbLine
 10
-751.0596126021
 20
-141.5360201194
 30
0.0
 11
-748.0596126021
 21
-141.0217860969
 31
0.0
  0
LINE
  5
13B
330
1F
100
AcDbEntity
  8
0
  6
Continuous
 62
     7
370
    25
100
AcDbLine
 10
948.9403873979
 20
-141.5360201194
 30
0.0
 11
948.9403873979
 21
-224.2927822733
 31
0.0
  0
LINE
  5
13C
330
1F
100
AcDbEntity
  8
0
  6
Continuous
 62
     7
370
    25
100
AcDbLine
 10
945.9403873979
 20
-141.0217860969
 30
0.0
 11
948.9403873979
 21
-141.5360201194
 31
0.0
  0
LINE
  5
13D
330
1F
100
AcDbEntity
  8
0
  6
Continuous
 62
     7
370
    25
100
AcDbLine
 10
-748.0596126021
 20
-227.2483809216
 30
0.0
 11
-748.0596126021
 21
-233.0763665094
 31
0.0
  0
LINE
  5
13E
330
1F
100
AcDbEntity
  8
0
  6
Continuous
 62
     7
370
    25
100
AcDbLine
 10
-748.0596126021
 20
-233.0763665094
 30
0.0
 11
-751.0596126021
 21
-230.1207678611
 31
0.0
  0
LINE
  5
13F
330
1F
100
AcDbEntity
  8
0
  6
Continuous
 62
     7
370
    25
100
AcDbLine
 10
-751.0596126021
 20
-230.1207678611
 30
0.0
 11
-751.0596126021
 21
-224.2927822733
 31
0.0
  0
LINE
  5
140
330
1F
100
AcDbEntity
  8
0
  6
Continuous
 62
     7
370
    25
100
AcDbLine
 10
945.9403873979
 20
-233.0763665094
 30
0.0
 11
945.9403873979
 21
-227.2483809216
 31
0.0
  0
LINE
  5
141
330
1F
100
AcDbEntity
  8
0
  6
Continuous
 62
     7
370
    25
100
AcDbLine
 10
-748.0596126021
 20
-233.0763665094
 30
0.0
 11
945.9403873979
 21
-233.0763665094
 31
0.0
  0
LINE
  5
142
330
1F
100
AcDbEntity
  8
0
  6
Continuous
 62
     7
370
    25
100
AcDbLine
 10
948.9403873979
 20
-224.2927822733
 30
0.0
 11
948.9403873979
 21
-230.1207678611
 31
0.0
  0
LINE
  5
143
330
1F
100
AcDbEntity
  8
0
  6
Continuous
 62
     7
370
    25
100
AcDbLine
 10
948.9403873979
 20
-230.1207678611
 30
0.0
 11
945.9403873979
 21
-233.0763665094
 31
0.0
  0
LINE
  5
144
330
1F
100
AcDbEntity
  8
0
  6
Continuous
 62
     7
370
    25
100
AcDbLine
 10
-748.0596126021
 20
-141.0217860969
 30
0.0
 11
-748.0596126021
 21
-138.580421471
 31
0.0
  0
LINE
  5
145
330
1F
100
AcDbEntity
  8
0
  6
Continuous
 62
     7
370
    25
100
AcDbLine
 10
-748.0596126021
 20
-138.580421471
 30
0.0
 11
945.9403873979
 21
-138.580421471
 31
0.0
  0
LINE
  5
146
330
1F
100
AcDbEntity
  8
0
  6
Continuous
 62
     7
370
    25
100
AcDbLine
 10
945.9403873979
 20
-141.0217860969
 30
0.0
 11
945.9403873979
 21
-138.580421471
 31
0.0
  0
LINE
  5
147
330
1F
100
AcDbEntity
  8
0
  6
Continuous
 62
     7
370
    25
100
AcDbLine
 10
-751.0596126021
 20
-141.5360201194
 30
0.0
 11
-748.0596126021
 21
-138.580421471
 31
0.0
  0
LINE
  5
148
330
1F
100
AcDbEntity
  8
0
  6
Continuous
 62
     7
370
    25
100
AcDbLine
 10
945.9403873979
 20
-138.580421471
 30
0.0
 11
948.9403873979
 21
-141.5360201194
 31
0.0
  0
LINE
  5
149
330
1F
100
AcDbEntity
  8
0
  6
Continuous
 62
     7
370
    25
100
AcDbLine
 10
945.9403873979
 20
-113.9504327347
 30
0.0
 11
-748.0596126021
 21
-113.9504327347
 31
0.0
  0
LINE
  5
14A
330
1F
100
AcDbEntity
  8
0
  6
Continuous
 62
     7
370
    25
100
AcDbLine
 10
-748.0596126021
 20
-113.9504327347
 30
0.0
 11
-748.0596126021
 21
-110.4806000639
 31
0.0
  0
LINE
  5
14B
330
1F
100
AcDbEntity
  8
0
  6
Continuous
 62
     7
370
    25
100
AcDbLine
 10
-748.0596126021
 20
-110.4806000639
 30
0.0
 11
945.9403873979
 21
-110.4806000639
 31
0.0
  0
LINE
  5
14C
330
1F
100
AcDbEntity
  8
0
  6
Continuous
 62
     7
370
    25
100
AcDbLine
 10
945.9403873979
 20
-113.9504327347
 30
0.0
 11
945.9403873979
 21
-110.4806000639
 31
0.0
  0
LINE
  5
14D
330
1F
100
AcDbEntity
  8
0
  6
Continuous
 62
     7
370
    25
100
AcDbLine
 10
-748.0596126021
 20
-113.9504327347
 30
0.0
 11
-751.0596126021
 21
-110.9948340864
 31
0.0
  0
LINE
  5
14E
330
1F
100
AcDbEntity
  8
0
  6
Continuous
 62
     7
370
    25
100
AcDbLine
 10
-748.0596126021
 20
-110.4806000639
 30
0.0
 11
-751.0596126021
 21
-110.9948340864
 31
0.0
  0
LINE
  5
14F
330
1F
100
AcDbEntity
  8
0
  6
Continuous
 62
     7
370
    25
100
AcDbLine
 10
948.9403873979
 20
-110.9948340864
 30
0.0
 11
945.9403873979
 21
-110.4806000639
 31
0.0
  0
LINE
  5
150
330
1F
100
AcDbEntity
  8
0
  6
Continuous
 62
     7
370
    25
100
AcDbLine
 10
948.9403873979
 20
-110.9948340864
 30
0.0
 11
945.9403873979
 21
-113.9504327347
 31
0.0
  0
LINE
  5
151
330
1F
100
AcDbEntity
  8
0
  6
Continuous
 62
     7
370
    25
100
AcDbLine
 10
-748.0596126021
 20
-47.7372615188
 30
0.0
 11
-748.0596126021
 21
-110.4806000639
 31
0.0
  0
LINE
  5
152
330
1F
100
AcDbEntity
  8
0
  6
Continuous
 62
     7
370
    25
100
AcDbLine
 10
858.9403873979
 20
-27.72383791
 30
0.0
 11
-661.0596126021
 21
-27.72383791
 31
0.0
  0
LINE
  5
153
330
1F
100
AcDbEntity
  8
0
  6
Continuous
 62
     7
370
    25
100
AcDbLine
 10
945.9403873979
 20
-110.4806000639
 30
0.0
 11
945.9403873979
 21
-47.7372615188
 31
0.0
  0
LINE
  5
154
330
1F
100
AcDbEntity
  8
0
  6
Continuous
 62
     7
370
    25
100
AcDbLine
 10
-751.0596126021
 20
-110.9948340864
 30
0.0
 11
-751.0596126021
 21
-44.7816628705
 31
0.0
  0
LINE
  5
155
330
1F
100
AcDbEntity
  8
0
  6
Continuous
 62
     7
370
    25
100
AcDbLine
 10
948.9403873979
 20
-44.7816628705
 30
0.0
 11
948.9403873979
 21
-110.9948340864
 31
0.0
  0
LINE
  5
156
330
1F
100
AcDbEntity
  8
0
  6
Continuous
 62
     7
370
    25
100
AcDbLine
 10
-748.0596126021
 20
-113.9504327347
 30
0.0
 11
-748.0596126021
 21
-119.7784183225
 31
0.0
  0
LINE
  5
157
330
1F
100
AcDbEntity
  8
0
  6
Continuous
 62
     7
370
    25
100
AcDbLine
 10
-748.0596126021
 20
-119.7784183225
 30
0.0
 11
-751.0596126021
 21
-116.8228196741
 31
0.0
  0
LINE
  5
158
330
1F
100
AcDbEntity
  8
0
  6
Continuous
 62
     7
370
    25
100
AcDbLine
 10
-751.0596126021
 20
-116.8228196741
 30
0.0
 11
-751.0596126021
 21
-110.9948340864
 31
0.0
  0
LINE
  5
159
330
1F
100
AcDbEntity
  8
0
  6
Continuous
 62
     7
370
    25
100
AcDbLine
 10
945.9403873979
 20
-119.7784183225
 30
0.0
 11
945.9403873979
 21
-113.9504327347
 31
0.0
  0
LINE
  5
15A
330
1F
100
AcDbEntity
  8
0
  6
Continuous
 62
     7
370
    25
100
AcDbLine
 10
-748.0596126021
 20
-119.7784183225
 30
0.0
 11
945.9403873979
 21
-119.7784183225
 31
0.0
  0
LINE
  5
15B
330
1F
100
AcDbEntity
  8
0
  6
Continuous
 62
     7
370
    25
100
AcDbLine
 10
948.9403873979
 20
-110.9948340864
 30
0.0
 11
948.9403873979
 21
-116.8228196741
 31
0.0
  0
LINE
  5
15C
330
1F
100
AcDbEntity
  8
0
  6
Continuous
 62
     7
370
    25
100
AcDbLine
 10
948.9403873979
 20
-116.8228196741
 30
0.0
 11
945.9403873979
 21
-119.7784183225
 31
0.0
  0
LINE
  5
15D
330
1F
100
AcDbEntity
  8
0
  6
Continuous
 62
     7
370
    25
100
AcDbLine
 10
-661.0596126021
 20
-25.2824732841
 30
0.0
 11
858.9403873979
 21
-25.2824732841
 31
0.0
  0
LINE
  5
15E
330
1F
100
AcDbEntity
  8
0
  6
Continuous
 62
     7
370
    25
100
AcDbLine
 10
-748.0596126021
 20
250.1138947212
 30
0.0
 11
-751.0596126021
 21
253.0694933696
 31
0.0
  0
LINE
  5
15F
330
1F
100
AcDbEntity
  8
0
  6
Continuous
 62
     7
370
    25
100
AcDbLine
 10
-748.0596126021
 20
253.583727392
 30
0.0
 11
-751.0596126021
 21
253.0694933696
 31
0.0
  0
LINE
  5
160
330
1F
100
AcDbEntity
  8
0
  6
Continuous
 62
     7
370
    25
100
AcDbLine
 10
-748.0596126021
 20
250.1138947212
 30
0.0
 11
-748.0596126021
 21
253.583727392
 31
0.0
  0
LINE
  5
161
330
1F
100
AcDbEntity
  8
0
  6
Continuous
 62
     7
370
    25
100
AcDbLine
 10
945.9403873979
 20
250.1138947212
 30
0.0
 11
936.4403873979
 21
250.1138947212
 31
0.0
  0
LINE
  5
162
330
1F
100
AcDbEntity
  8
0
  6
Continuous
 62
     7
370
    25
100
AcDbLine
 10
911.4403873979
 20
250.1138947212
 30
0.0
 11
-713.5596126021
 21
250.1138947212
 31
0.0
  0
LINE
  5
163
330
1F
100
AcDbEntity
  8
0
  6
Continuous
 62
     7
370
    25
100
AcDbLine
 10
-738.5596126021
 20
250.1138947212
 30
0.0
 11
-748.0596126021
 21
250.1138947212
 31
0.0
  0
LINE
  5
164
330
1F
100
AcDbEntity
  8
0
  6
Continuous
 62
     7
370
    25
100
AcDbLine
 10
-748.0596126021
 20
253.583727392
 30
0.0
 11
-738.5596126021
 21
253.583727392
 31
0.0
  0
LINE
  5
165
330
1F
100
AcDbEntity
  8
0
  6
Continuous
 62
     7
370
    25
100
AcDbLine
 10
-713.5596126021
 20
253.583727392
 30
0.0
 11
911.4403873979
 21
253.583727392
 31
0.0
  0
LINE
  5
166
330
1F
100
AcDbEntity
  8
0
  6
Continuous
 62
     7
370
    25
100
AcDbLine
 10
936.4403873979
 20
253.583727392
 30
0.0
 11
945.9403873979
 21
253.583727392
 31
0.0
  0
LINE
  5
167
330
1F
100
AcDbEntity
  8
0
  6
Continuous
 62
     7
370
    25
100
AcDbLine
 10
945.9403873979
 20
250.1138947212
 30
0.0
 11
945.9403873979
 21
253.583727392
 31
0.0
  0
LINE
  5
168
330
1F
100
AcDbEntity
  8
0
  6
Continuous
 62
     7
370
    25
100
AcDbLine
 10
948.9403873979
 20
253.0694933696
 30
0.0
 11
945.9403873979
 21
253.583727392
 31
0.0
  0
LINE
  5
169
330
1F
100
AcDbEntity
  8
0
  6
Continuous
 62
     7
370
    25
100
AcDbLine
 10
945.9403873979
 20
250.1138947212
 30
0.0
 11
948.9403873979
 21
253.0694933696
 31
0.0
  0
LINE
  5
16A
330
1F
100
AcDbEntity
  8
0
  6
Continuous
 62
     7
370
    25
100
AcDbLine
 10
-748.0596126021
 20
255.4276462866
 30
0.0
 11
-748.0596126021
 21
253.583727392
 31
0.0
  0
LINE
  5
16B
330
1F
100
AcDbEntity
  8
0
  6
Continuous
 62
     7
370
    25
100
AcDbLine
 10
-751.0596126021
 20
253.0694933696
 30
0.0
 11
-751.0596126021
 21
258.3832449349
 31
0.0
  0
LINE
  5
16C
330
1F
100
AcDbEntity
  8
0
  6
Continuous
 62
     7
370
    25
100
AcDbLine
 10
945.9403873979
 20
253.583727392
 30
0.0
 11
945.9403873979
 21
255.4276462866
 31
0.0
  0
LINE
  5
16D
330
1F
100
AcDbEntity
  8
0
  6
Continuous
 62
     7
370
    25
100
AcDbLine
 10
948.9403873979
 20
258.3832449349
 30
0.0
 11
948.9403873979
 21
253.0694933696
 31
0.0
  0
LINE
  5
16E
330
1F
100
AcDbEntity
  8
0
  6
Continuous
 62
     7
370
    25
100
AcDbLine
 10
-751.0596126021
 20
238.670940741
 30
0.0
 11
-751.0596126021
 21
253.0694933696
 31
0.0
  0
LINE
  5
16F
330
1F
100
AcDbEntity
  8
0
  6
Continuous
 62
     7
370
    25
100
AcDbLine
 10
-748.0596126021
 20
250.1138947212
 30
0.0
 11
-748.0596126021
 21
235.7153420926
 31
0.0
  0
LINE
  5
170
330
1F
100
AcDbEntity
  8
0
  6
Continuous
 62
     7
370
    25
100
AcDbLine
 10
-751.0596126021
 20
238.670940741
 30
0.0
 11
-748.0596126021
 21
235.7153420926
 31
0.0
  0
LINE
  5
171
330
1F
100
AcDbEntity
  8
0
  6
Continuous
 62
     7
370
    25
100
AcDbLine
 10
945.9403873979
 20
235.7153420926
 30
0.0
 11
945.9403873979
 21
250.1138947212
 31
0.0
  0
LINE
  5
172
330
1F
100
AcDbEntity
  8
0
  6
Continuous
 62
     7
370
    25
100
AcDbLine
 10
-748.0596126021
 20
235.7153420926
 30
0.0
 11
-738.5596126021
 21
235.7153420926
 31
0.0
  0
LINE
  5
173
330
1F
100
AcDbEntity
  8
0
  6
Continuous
 62
     7
370
    25
100
AcDbLine
 10
-713.5596126021
 20
235.7153420926
 30
0.0
 11
911.4403873979
 21
235.7153420926
 31
0.0
  0
LINE
  5
174
330
1F
100
AcDbEntity
  8
0
  6
Continuous
 62
     7
370
    25
100
AcDbLine
 10
936.4403873979
 20
235.7153420926
 30
0.0
 11
945.9403873979
 21
235.7153420926
 31
0.0
  0
LINE
  5
175
330
1F
100
AcDbEntity
  8
0
  6
Continuous
 62
     7
370
    25
100
AcDbLine
 10
948.9403873979
 20
253.0694933696
 30
0.0
 11
948.9403873979
 21
238.670940741
 31
0.0
  0
LINE
  5
176
330
1F
100
AcDbEntity
  8
0
  6
Continuous
 62
     7
370
    25
100
AcDbLine
 10
948.9403873979
 20
238.670940741
 30
0.0
 11
945.9403873979
 21
235.7153420926
 31
0.0
  0
ELLIPSE
  5
177
330
1F
100
AcDbEntity
  8
0
  6
Continuous
 62
     7
370
    25
100
AcDbEllipse
 10
933.4403873979
 20
377.3741992854
 30
0.0
 11
0.0
 21
3.046271980910603
 31
0.0
210
0.0
220
0.0
230
1.0
 40
0.9848102923
 41
4.712388980384666
 42
6.283185307179586
  0
LINE
  5
178
330
1F
100
AcDbEntity
  8
0
  6
Continuous
 62
     7
370
    25
100
AcDbLine
 10
936.4403873979
 20
223.8092532089
 30
0.0
 11
936.4403873979
 21
377.3741992854
 31
0.0
  0
ELLIPSE
  5
179
330
1F
100
AcDbEntity
  8
0
  6
Continuous
 62
     7
370
    25
100
AcDbEllipse
 10
914.4403873979
 20
377.3741992854
 30
0.0
 11
0.0
 21
3.046271980910603
 31
0.0
210
0.0
220
0.0
230
1.0
 40
0.9848102923
 41
0.0
 42
1.570796326794934
  0
LINE
  5
17A
330
1F
100
AcDbEntity
  8
0
  6
Continuous
 62
     7
370
    25
100
AcDbLine
 10
911.4403873979
 20
223.8092532089
 30
0.0
 11
911.4403873979
 21
377.3741992854
 31
0.0
  0
LINE
  5
17B
330
1F
100
AcDbEntity
  8
0
  6
Continuous
 62
     7
370
    25
100
AcDbLine
 10
933.4403873979
 20
380.4204712663
 30
0.0
 11
914.4403873979
 21
380.4204712663
 31
0.0
  0
LINE
  5
17C
330
1F
100
AcDbEntity
  8
0
  6
Continuous
 62
     7
370
    25
100
AcDbLine
 10
936.4403873979
 20
-119.7784183225
 30
0.0
 11
936.4403873979
 21
-138.580421471
 31
0.0
  0
LINE
  5
17D
330
1F
100
AcDbEntity
  8
0
  6
Continuous
 62
     7
370
    25
100
AcDbLine
 10
911.4403873979
 20
-119.7784183225
 30
0.0
 11
911.4403873979
 21
-138.580421471
 31
0.0
  0
ELLIPSE
  5
17E
330
1F
100
AcDbEntity
  8
0
  6
Continuous
 62
     7
370
    25
100
AcDbEllipse
 10
-716.5596126021
 20
377.3741992854
 30
0.0
 11
0.0
 21
3.04627198091066
 31
0.0
210
0.0
220
0.0
230
1.0
 40
0.9848102923
 41
4.712388980384666
 42
6.283185307179586
  0
LINE
  5
17F
330
1F
100
AcDbEntity
  8
0
  6
Continuous
 62
     7
370
    25
100
AcDbLine
 10
-713.5596126021
 20
223.8092532089
 30
0.0
 11
-713.5596126021
 21
377.3741992854
 31
0.0
  0
ELLIPSE
  5
180
330
1F
100
AcDbEntity
  8
0
  6
Continuous
 62
     7
370
    25
100
AcDbEllipse
 10
-735.5596126021
 20
377.3741992854
 30
0.0
 11
0.0
 21
3.04627198091066
 31
0.0
210
0.0
220
0.0
230
1.0
 40
0.9848102923
 41
0.0
 42
1.570796326794934
  0
LINE
  5
181
330
1F
100
AcDbEntity
  8
0
  6
Continuous
 62
     7
370
    25
100
AcDbLine
 10
-738.5596126021
 20
223.8092532089
 30
0.0
 11
-738.5596126021
 21
377.3741992854
 31
0.0
  0
LINE
  5
182
330
1F
100
AcDbEntity
  8
0
  6
Continuous
 62
     7
370
    25
100
AcDbLine
 10
-735.5596126021
 20
380.4204712663
 30
0.0
 11
-716.5596126021
 21
380.4204712663
 31
0.0
  0
LINE
  5
183
330
1F
100
AcDbEntity
  8
0
  6
Continuous
 62
     7
370
    25
100
AcDbLine
 10
-713.5596126021
 20
-119.7784183225
 30
0.0
 11
-713.5596126021
 21
-138.580421471
 31
0.0
  0
LINE
  5
184
330
1F
100
AcDbEntity
  8
0
  6
Continuous
 62
     7
370
    25
100
AcDbLine
 10
-738.5596126021
 20
-119.7784183225
 30
0.0
 11
-738.5596126021
 21
-138.580421471
 31
0.0
  0
LINE
  5
185
330
1F
100
AcDbEntity
  8
0
  6
Continuous
 62
     7
370
    25
100
AcDbLine
 10
-1301.0596126021
 20
109.8092532089
 30
0.0
 11
1498.9403873979
 21
109.8092532089
 31
0.0
  0
LINE
  5
186
330
1F
100
AcDbEntity
  8
0
  6
Continuous
 62
     7
370
    25
100
AcDbLine
 10
-1301.0596126021
 20
109.8092532089
 30
0.0
 11
-1301.0596126021
 21
217.8092532089
 31
0.0
  0
LINE
  5
187
330
1F
100
AcDbEntity
  8
0
  6
Continuous
 62
     7
370
    25
100
AcDbLine
 10
-1301.0596126021
 20
217.8092532089
 30
0.0
 11
1498.9403873979
 21
217.8092532089
 31
0.0
  0
LINE
  5
188
330
1F
100
AcDbEntity
  8
0
  6
Continuous
 62
     7
370
    25
100
AcDbLine
 10
1498.9403873979
 20
109.8092532089
 30
0.0
 11
1498.9403873979
 21
217.8092532089
 31
0.0
  0
LINE
  5
189
330
1F
100
AcDbEntity
  8
0
  6
Continuous
 62
     7
370
    25
100
AcDbLine
 10
-1301.0596126021
 20
103.8092532089
 30
0.0
 11
1498.9403873979
 21
103.8092532089
 31
0.0
  0
LINE
  5
18A
330
1F
100
AcDbEntity
  8
0
  6
Continuous
 62
     7
370
    25
100
AcDbLine
 10
-1301.0596126021
 20
223.8092532089
 30
0.0
 11
1498.9403873979
 21
223.8092532089
 31
0.0
  0
LWPOLYLINE
  5
18B
330
1F
100
AcDbEntity
  8
0
  6
Continuous
 62
     8
370
    25
100
AcDbPolyline
 90
       17
 70
   128
 43
0.0
 10
-719.8096126021
 20
381.2040015822
 10
-719.8139313694
 20
381.2438214141
 10
-719.9987135607
 20
381.4655374768
 10
-720.4483861236
 20
381.6758231659
 10
-721.1432962092
 20
381.8654879877
 10
-722.0530729123
 20
382.0262426795
 10
-723.1379546253
 20
382.1510614898
 10
-724.3505268116
 20
382.2344892375
 10
-725.6377942481
 20
382.27287973
 10
-726.9434971707
 20
382.2645551183
 10
-728.2105700964
 20
382.209879228
 10
-729.3836358581
 20
382.1112416578
 10
-730.411425853
 20
381.972953343
 10
-731.2490207266
 20
381.8010581463
 10
-731.8598135636
 20
381.6030687128
 10
-732.2171097862
 20
381.3876381307
 10
-732.3096126021
 20
381.2040015822
  0
LWPOLYLINE
  5
18C
330
1F
100
AcDbEntity
  8
0
  6
Continuous
 62
     8
370
    25
100
AcDbPolyline
 90
       17
 70
   128
 43
0.0
 10
930.1903873979
 20
381.2040015822
 10
930.097884582
 20
381.3876381307
 10
929.7405883594
 20
381.6030687128
 10
929.1297955224
 20
381.8010581463
 10
928.2922006488
 20
381.972953343
 10
927.2644106539
 20
382.1112416578
 10
926.0913448922
 20
382.209879228
 10
924.8242719665
 20
382.2645551183
 10
923.5185690439
 20
382.27287973
 10
922.2313016074
 20
382.2344892375
 10
921.0187294211
 20
382.1510614898
 10
919.9338477081
 20
382.0262426795
 10
919.024071005
 20
381.8654879877
 10
918.3291609194
 20
381.6758231659
 10
917.8794883565
 20
381.4655374768
 10
917.6947061652
 20
381.2438214141
 10
917.6903873979
 20
381.2040015822
  0
ELLIPSE
  5
18D
330
1F
100
AcDbEntity
  8
0
  6
Continuous
 62
     8
370
    25
100
AcDbEllipse
 10
914.4403873979
 20
-230.7551560862
 30
0.0
 11
-0.1920053882375896
 21
2.999342103038487
 31
0.0
210
0.0
220
0.0
230
1.0
 40
0.3272030458
 41
2.434571906231211
 42
2.948387505783057
  0
ELLIPSE
  5
18E
330
1F
100
AcDbEntity
  8
0
  6
Continuous
 62
     8
370
    25
100
AcDbEllipse
 10
933.4403873979
 20
-230.7551560862
 30
0.0
 11
0.1920053882375896
 21
2.999342103038487
 31
0.0
210
0.0
220
0.0
230
1.0
 40
0.3272030458
 41
3.334797801396505
 42
3.848613400948141
  0
ELLIPSE
  5
18F
330
1F
100
AcDbEntity
  8
0
  6
Continuous
 62
     8
370
    25
100
AcDbEllipse
 10
914.4403873979
 20
-230.7551560862
 30
0.0
 11
2.398597461442136
 21
-1.912249004648941
 31
0.0
210
0.0
220
0.0
230
1.0
 40
0.9422771463
 41
4.744956037832569
 42
5.356668873008269
  0
ELLIPSE
  5
190
330
1F
100
AcDbEntity
  8
0
  6
Continuous
 62
     8
370
    25
100
AcDbEllipse
 10
933.4403873979
 20
-230.7551560862
 30
0.0
 11
2.39859746144225
 21
1.912249004648914
 31
0.0
210
0.0
220
0.0
230
1.0
 40
0.9422771463
 41
4.068109087761179
 42
4.679821922936836
  0
ELLIPSE
  5
191
330
1F
100
AcDbEntity
  8
0
  6
Continuous
 62
     8
370
    25
100
AcDbEllipse
 10
933.4403873979
 20
-238.2972550821
 30
0.0
 11
-0.1920053882375896
 21
2.999342103038458
 31
0.0
210
0.0
220
0.0
230
1.0
 40
0.3272030458
 41
2.948387505783079
 42
3.117246795974692
  0
ELLIPSE
  5
192
330
1F
100
AcDbEntity
  8
0
  6
Continuous
 62
     8
370
    25
100
AcDbEllipse
 10
914.4403873979
 20
-238.2972550821
 30
0.0
 11
0.1920053882375896
 21
2.999342103038458
 31
0.0
210
0.0
220
0.0
230
1.0
 40
0.3272030458
 41
3.163935358361023
 42
3.334797801396505
  0
ELLIPSE
  5
193
330
1F
100
AcDbEntity
  8
0
  6
Continuous
 62
     8
370
    25
100
AcDbEllipse
 10
-735.5596126021
 20
-230.7551560862
 30
0.0
 11
2.39859746144225
 21
-1.912249004648914
 31
0.0
210
0.0
220
0.0
230
1.0
 40
0.9422771463
 41
4.744956037832569
 42
5.356668873008217
  0
ELLIPSE
  5
194
330
1F
100
AcDbEntity
  8
0
  6
Continuous
 62
     8
370
    25
100
AcDbEllipse
 10
-735.5596126021
 20
-230.7551560862
 30
0.0
 11
-0.1920053882375896
 21
2.999342103038487
 31
0.0
210
0.0
220
0.0
230
1.0
 40
0.3272030458
 41
2.434571906231199
 42
2.948387505783079
  0
ELLIPSE
  5
195
330
1F
100
AcDbEntity
  8
0
  6
Continuous
 62
     8
370
    25
100
AcDbEllipse
 10
-716.5596126021
 20
-230.7551560862
 30
0.0
 11
0.1920053882375896
 21
2.999342103038487
 31
0.0
210
0.0
220
0.0
230
1.0
 40
0.3272030458
 41
3.334797801396505
 42
3.848613400948121
  0
ELLIPSE
  5
196
330
1F
100
AcDbEntity
  8
0
  6
Continuous
 62
     8
370
    25
100
AcDbEllipse
 10
-716.5596126021
 20
-230.7551560862
 30
0.0
 11
2.398597461442137
 21
1.912249004648913
 31
0.0
210
0.0
220
0.0
230
1.0
 40
0.9422771463
 41
4.068109087761142
 42
4.679821922936813
  0
ELLIPSE
  5
197
330
1F
100
AcDbEntity
  8
0
  6
Continuous
 62
     8
370
    25
100
AcDbEllipse
 10
-735.5596126021
 20
-238.2972550821
 30
0.0
 11
0.1920053882377033
 21
2.999342103038487
 31
0.0
210
0.0
220
0.0
230
1.0
 40
0.3272030458
 41
3.163935358360909
 42
3.334797801396639
  0
ELLIPSE
  5
198
330
1F
100
AcDbEntity
  8
0
  6
Continuous
 62
     8
370
    25
100
AcDbEllipse
 10
-716.5596126021
 20
-238.2972550821
 30
0.0
 11
-0.1920053882375896
 21
2.999342103038487
 31
0.0
210
0.0
220
0.0
230
1.0
 40
0.3272030458
 41
2.948387505783057
 42
3.120649540020568
  0
LINE
  5
199
330
1F
100
AcDbEntity
  8
0
  6
Continuous
 62
     8
370
    25
100
AcDbLine
 10
933.4403873979
 20
223.8092532089
 30
0.0
 11
933.4403873979
 21
380.4204712663
 31
0.0
  0
LINE
  5
19A
330
1F
100
AcDbEntity
  8
0
  6
Continuous
 62
     8
370
    25
100
AcDbLine
 10
914.4403873979
 20
223.8092532089
 30
0.0
 11
914.4403873979
 21
380.4204712663
 31
0.0
  0
LINE
  5
19B
330
1F
100
AcDbEntity
  8
0
  6
Continuous
 62
     8
370
    25
100
AcDbLine
 10
933.4403873979
 20
-119.7784183225
 30
0.0
 11
933.4403873979
 21
-138.580421471
 31
0.0
  0
LINE
  5
19C
330
1F
100
AcDbEntity
  8
0
  6
Continuous
 62
     8
370
    25
100
AcDbLine
 10
914.4403873979
 20
-119.7784183225
 30
0.0
 11
914.4403873979
 21
-138.580421471
 31
0.0
  0
LINE
  5
19D
330
1F
100
AcDbEntity
  8
0
  6
Continuous
 62
     8
370
    25
100
AcDbLine
 10
-716.5596126021
 20
223.8092532089
 30
0.0
 11
-716.5596126021
 21
380.4204712663
 31
0.0
  0
LINE
  5
19E
330
1F
100
AcDbEntity
  8
0
  6
Continuous
 62
     8
370
    25
100
AcDbLine
 10
-735.5596126021
 20
223.8092532089
 30
0.0
 11
-735.5596126021
 21
380.4204712663
 31
0.0
  0
LINE
  5
19F
330
1F
100
AcDbEntity
  8
0
  6
Continuous
 62
     8
370
    25
100
AcDbLine
 10
-716.5596126021
 20
-119.7784183225
 30
0.0
 11
-716.5596126021
 21
-138.580421471
 31
0.0
  0
LINE
  5
1A0
330
1F
100
AcDbEntity
  8
0
  6
Continuous
 62
     8
370
    25
100
AcDbLine
 10
-735.5596126021
 20
-119.7784183225
 30
0.0
 11
-735.5596126021
 21
-138.580421471
 31
0.0
  0
ENDSEC
  0
SECTION
  2
OBJECTS
  0
DICTIONARY
  5
C
330
0
100
AcDbDictionary
281
     1
  3
ACAD_GROUP
350
D
  3
ACAD_LAYOUT
350
1A
  3
ACAD_MLINESTYLE
350
17
  3
ACAD_PLOTSETTINGS
350
19
  3
ACAD_PLOTSTYLENAME
350
E
  3
ACAD_SCALELIST
350
47
  3
DWGPROPS
350
1A1
  0
DICTIONARY
  5
D
102
{ACAD_REACTORS
330
C
102
}
330
C
100
AcDbDictionary
281
     1
  0
DICTIONARY
  5
1A
102
{ACAD_REACTORS
330
C
102
}
330
C
100
AcDbDictionary
281
     1
  3
Layout1
350
1E
  3
Layout2
350
26
  3
Model
350
22
  0
DICTIONARY
  5
17
102
{ACAD_REACTORS
330
C
102
}
330
C
100
AcDbDictionary
281
     1
  3
Standard
350
18
  0
DICTIONARY
  5
19
102
{ACAD_REACTORS
330
C
102
}
330
C
100
AcDbDictionary
281
     1
  0
ACDBDICTIONARYWDFLT
  5
E
102
{ACAD_REACTORS
330
C
102
}
330
C
100
AcDbDictionary
281
     1
  3
Normal
350
F
100
AcDbDictionaryWithDefault
340
F
  0
DICTIONARY
  5
47
102
{ACAD_REACTORS
330
C
102
}
330
C
100
AcDbDictionary
281
     1
  3
A0
350
48
  3
A1
350
49
  3
A2
350
4A
  3
A3
350
4B
  3
A4
350
4C
  3
A5
350
4D
  3
A6
350
4E
  3
A7
350
4F
  3
A8
350
50
  3
A9
350
51
  3
B0
350
52
  3
B1
350
53
  3
B2
350
54
  3
B3
350
55
  3
B4
350
56
  3
B5
350
57
  3
B6
350
58
  3
B7
350
59
  3
B8
350
5A
  3
B9
350
5B
  3
C0
350
5C
  3
C1
350
5D
  3
C2
350
5E
  3
C3
350
5F
  3
C4
350
60
  3
C5
350
61
  3
C6
350
62
  3
C7
350
63
  3
C8
350
64
  3
C9
350
65
  3
D0
350
66
  3
D1
350
67
  3
D2
350
68
  0
XRECORD
  5
1A1
102
{ACAD_REACTORS
330
C
102
}
330
C
100
AcDbXrecord
280
     1
  1
DWGPROPS COOKIE
  2

  3

  4

  6

  7

  8
Swing
  9

300
=
301
=
302
=
303
=
304
=
305
=
306
=
307
=
308
=
309
=
 40
0.0
 41
2459698.304119166
 42
2459698.304119363
  1

 90
        0
  0
LAYOUT
  5
1E
102
{ACAD_REACTORS
330
1A
102
}
330
1A
100
AcDbPlotSettings
  1

  2
none_device
  4

  6

 40
0.0
 41
0.0
 42
0.0
 43
0.0
 44
0.0
 45
0.0
 46
0.0
 47
0.0
 48
0.0
 49
0.0
140
0.0
141
0.0
142
1.0
143
1.0
 70
   688
 72
     1
 73
     0
 74
     5
  7

 75
    16
147
1.0
148
0.0
149
0.0
100
AcDbLayout
  1
Layout1
 70
     1
 71
     1
 10
0.0
 20
0.0
 11
420.0
 21
297.0
 12
0.0
 22
0.0
 32
0.0
 14
1.0000000000E+20
 24
1.0000000000E+20
 34
1.0000000000E+20
 15
-1.0000000000E+20
 25
-1.0000000000E+20
 35
-1.0000000000E+20
146
0.0
 13
0.0
 23
0.0
 33
0.0
 16
1.0
 26
0.0
 36
0.0
 17
0.0
 27
1.0
 37
0.0
 76
     0
330
1B
  0
LAYOUT
  5
26
102
{ACAD_REACTORS
330
1A
102
}
330
1A
100
AcDbPlotSettings
  1

  2
none_device
  4

  6

 40
0.0
 41
0.0
 42
0.0
 43
0.0
 44
0.0
 45
0.0
 46
0.0
 47
0.0
 48
0.0
 49
0.0
140
0.0
141
0.0
142
1.0
143
1.0
 70
   688
 72
     1
 73
     0
 74
     5
  7

 75
    16
147
1.0
148
0.0
149
0.0
100
AcDbLayout
  1
Layout2
 70
     1
 71
     2
 10
0.0
 20
0.0
 11
0.0
 21
0.0
 12
0.0
 22
0.0
 32
0.0
 14
0.0
 24
0.0
 34
0.0
 15
0.0
 25
0.0
 35
0.0
146
0.0
 13
0.0
 23
0.0
 33
0.0
 16
1.0
 26
0.0
 36
0.0
 17
0.0
 27
1.0
 37
0.0
 76
     0
330
23
  0
LAYOUT
  5
22
102
{ACAD_REACTORS
330
1A
102
}
330
1A
100
AcDbPlotSettings
  1

  2
none_device
  4
Letter_(8.50_x_11.00_Inches)
  6

 40
6.35
 41
6.35
 42
6.35000508
 43
6.35000508
 44
215.9
 45
279.4
 46
0.0
 47
0.0
 48
0.0
 49
0.0
140
0.0
141
0.0
142
1.0
143
1.0
 70
  1712
 72
     1
 73
     0
 74
     0
  7

 75
     0
147
1.0
148
0.0
149
0.0
100
AcDbLayout
  1
Model
 70
     1
 71
     0
 10
0.0
 20
0.0
 11
431.8
 21
279.4
 12
0.0
 22
0.0
 32
0.0
 14
0.0
 24
0.0
 34
0.0
 15
431.8
 25
279.4
 35
0.0
146
0.0
 13
0.0
 23
0.0
 33
0.0
 16
1.0
 26
0.0
 36
0.0
 17
0.0
 27
1.0
 37
0.0
 76
     0
330
1F
331
29
  0
MLINESTYLE
  5
18
102
{ACAD_REACTORS
330
17
102
}
330
17
100
AcDbMlineStyle
  2
Standard
 70
     0
  3

 62
   256
 51
90.0
 52
90.0
 71
     2
 49
0.5
 62
   256
  6
BYLAYER
 49
-0.5
 62
   256
  6
BYLAYER
  0
ACDBPLACEHOLDER
  5
F
102
{ACAD_REACTORS
330
E
102
}
330
E
  0
SCALE
  5
48
102
{ACAD_REACTORS
330
47
102
}
330
47
100
AcDbScale
 70
     0
300
1:1
140
1.0
141
1.0
290
     1
  0
SCALE
  5
49
102
{ACAD_REACTORS
330
47
102
}
330
47
100
AcDbScale
 70
     0
300
1:2
140
1.0
141
2.0
290
     0
  0
SCALE
  5
4A
102
{ACAD_REACTORS
330
47
102
}
330
47
100
AcDbScale
 70
     0
300
1:4
140
1.0
141
4.0
290
     0
  0
SCALE
  5
4B
102
{ACAD_REACTORS
330
47
102
}
330
47
100
AcDbScale
 70
     0
300
1:5
140
1.0
141
5.0
290
     0
  0
SCALE
  5
4C
102
{ACAD_REACTORS
330
47
102
}
330
47
100
AcDbScale
 70
     0
300
1:8
140
1.0
141
8.0
290
     0
  0
SCALE
  5
4D
102
{ACAD_REACTORS
330
47
102
}
330
47
100
AcDbScale
 70
     0
300
1:10
140
1.0
141
10.0
290
     0
  0
SCALE
  5
4E
102
{ACAD_REACTORS
330
47
102
}
330
47
100
AcDbScale
 70
     0
300
1:16
140
1.0
141
16.0
290
     0
  0
SCALE
  5
4F
102
{ACAD_REACTORS
330
47
102
}
330
47
100
AcDbScale
 70
     0
300
1:20
140
1.0
141
20.0
290
     0
  0
SCALE
  5
50
102
{ACAD_REACTORS
330
47
102
}
330
47
100
AcDbScale
 70
     0
300
1:30
140
1.0
141
30.0
290
     0
  0
SCALE
  5
51
102
{ACAD_REACTORS
330
47
102
}
330
47
100
AcDbScale
 70
     0
300
1:40
140
1.0
141
40.0
290
     0
  0
SCALE
  5
52
102
{ACAD_REACTORS
330
47
102
}
330
47
100
AcDbScale
 70
     0
300
1:50
140
1.0
141
50.0
290
     0
  0
SCALE
  5
53
102
{ACAD_REACTORS
330
47
102
}
330
47
100
AcDbScale
 70
     0
300
1:100
140
1.0
141
100.0
290
     0
  0
SCALE
  5
54
102
{ACAD_REACTORS
330
47
102
}
330
47
100
AcDbScale
 70
     0
300
2:1
140
2.0
141
1.0
290
     0
  0
SCALE
  5
55
102
{ACAD_REACTORS
330
47
102
}
330
47
100
AcDbScale
 70
     0
300
4:1
140
4.0
141
1.0
290
     0
  0
SCALE
  5
56
102
{ACAD_REACTORS
330
47
102
}
330
47
100
AcDbScale
 70
     0
300
8:1
140
8.0
141
1.0
290
     0
  0
SCALE
  5
57
102
{ACAD_REACTORS
330
47
102
}
330
47
100
AcDbScale
 70
     0
300
10:1
140
10.0
141
1.0
290
     0
  0
SCALE
  5
58
102
{ACAD_REACTORS
330
47
102
}
330
47
100
AcDbScale
 70
     0
300
100:1
140
100.0
141
1.0
290
     0
  0
SCALE
  5
59
102
{ACAD_REACTORS
330
47
102
}
330
47
100
AcDbScale
 70
     0
300
1/128" = 1'-0"
140
0.0078125
141
12.0
290
     0
  0
SCALE
  5
5A
102
{ACAD_REACTORS
330
47
102
}
330
47
100
AcDbScale
 70
     0
300
1/64" = 1'-0"
140
0.015625
141
12.0
290
     0
  0
SCALE
  5
5B
102
{ACAD_REACTORS
330
47
102
}
330
47
100
AcDbScale
 70
     0
300
1/32" = 1'-0"
140
0.03125
141
12.0
290
     0
  0
SCALE
  5
5C
102
{ACAD_REACTORS
330
47
102
}
330
47
100
AcDbScale
 70
     0
300
1/16" = 1'-0"
140
0.0625
141
12.0
290
     0
  0
SCALE
  5
5D
102
{ACAD_REACTORS
330
47
102
}
330
47
100
AcDbScale
 70
     0
300
3/32" = 1'-0"
140
0.09375
141
12.0
290
     0
  0
SCALE
  5
5E
102
{ACAD_REACTORS
330
47
102
}
330
47
100
AcDbScale
 70
     0
300
1/8" = 1'-0"
140
0.125
141
12.0
290
     0
  0
SCALE
  5
5F
102
{ACAD_REACTORS
330
47
102
}
330
47
100
AcDbScale
 70
     0
300
3/16" = 1'-0"
140
0.1875
141
12.0
290
     0
  0
SCALE
  5
60
102
{ACAD_REACTORS
330
47
102
}
330
47
100
AcDbScale
 70
     0
300
1/4" = 1'-0"
140
0.25
141
12.0
290
     0
  0
SCALE
  5
61
102
{ACAD_REACTORS
330
47
102
}
330
47
100
AcDbScale
 70
     0
300
3/8" = 1'-0"
140
0.375
141
12.0
290
     0
  0
SCALE
  5
62
102
{ACAD_REACTORS
330
47
102
}
330
47
100
AcDbScale
 70
     0
300
1/2" = 1'-0"
140
0.5
141
12.0
290
     0
  0
SCALE
  5
63
102
{ACAD_REACTORS
330
47
102
}
330
47
100
AcDbScale
 70
     0
300
3/4" = 1'-0"
140
0.75
141
12.0
290
     0
  0
SCALE
  5
64
102
{ACAD_REACTORS
330
47
102
}
330
47
100
AcDbScale
 70
     0
300
1" = 1'-0"
140
1.0
141
12.0
290
     0
  0
SCALE
  5
65
102
{ACAD_REACTORS
330
47
102
}
330
47
100
AcDbScale
 70
     0
300
1-1/2" = 1'-0"
140
1.5
141
12.0
290
     0
  0
SCALE
  5
66
102
{ACAD_REACTORS
330
47
102
}
330
47
100
AcDbScale
 70
     0
300
3" = 1'-0"
140
3.0
141
12.0
290
     0
  0
SCALE
  5
67
102
{ACAD_REACTORS
330
47
102
}
330
47
100
AcDbScale
 70
     0
300
6" = 1'-0"
140
6.0
141
12.0
290
     0
  0
SCALE
  5
68
102
{ACAD_REACTORS
330
47
102
}
330
47
100
AcDbScale
 70
     0
300
1'-0" = 1'-0"
140
12.0
141
12.0
290
     0
  0
ENDSEC
  0
EOF
