  0
SECTION
  2
HEADER
  9
$ACADVER
  1
AC1015
  9
$ACADMAINTVER
 70
     6
  9
$DWGCODEPAGE
  3
ANSI_1250
  9
$INSBASE
 10
0.0
 20
0.0
 30
0.0
  9
$EXTMIN
 10
0.0
 20
0.0
 30
0.0
  9
$EXTMAX
 10
431.8
 20
279.4
 30
0.0
  9
$LIMMIN
 10
0.0
 20
0.0
  9
$LIMMAX
 10
431.8
 20
279.4
  9
$ORTHOMODE
 70
     0
  9
$REGENMODE
 70
     1
  9
$FILLMODE
 70
     1
  9
$QTEXTMODE
 70
     0
  9
$MIRRTEXT
 70
     1
  9
$LTSCALE
 40
1.0
  9
$ATTMODE
 70
     1
  9
$TEXTSIZE
 40
3.8805555556
  9
$TRACEWID
 40
1.0
  9
$TEXTSTYLE
  7
Standard
  9
$CLAYER
  8
0
  9
$CELTYPE
  6
ByLayer
  9
$CECOLOR
 62
   256
  9
$CELTSCALE
 40
1.0
  9
$DISPSILH
 70
     0
  9
$DIMSCALE
 40
1.0
  9
$DIMASZ
 40
3.302
  9
$DIMEXO
 40
1.0
  9
$DIMDLI
 40
3.75
  9
$DIMRND
 40
0.0
  9
$DIMDLE
 40
0.0
  9
$DIMEXE
 40
1.0
  9
$DIMTP
 40
0.0
  9
$DIMTM
 40
0.0
  9
$DIMTXT
 40
3.8805555556
  9
$DIMCEN
 40
2.5
  9
$DIMTSZ
 40
0.0
  9
$DIMTOL
 70
     0
  9
$DIMLIM
 70
     0
  9
$DIMTIH
 70
     1
  9
$DIMTOH
 70
     1
  9
$DIMSE1
 70
     0
  9
$DIMSE2
 70
     0
  9
$DIMTAD
 70
     1
  9
$DIMZIN
 70
     0
  9
$DIMBLK
  1

  9
$DIMASO
 70
     1
  9
$DIMSHO
 70
     1
  9
$DIMPOST
  1

  9
$DIMAPOST
  1

  9
$DIMALT
 70
     0
  9
$DIMALTD
 70
     3
  9
$DIMALTF
 40
0.0393700787
  9
$DIMLFAC
 40
1.0
  9
$DIMTOFL
 70
     1
  9
$DIMTVP
 40
0.0
  9
$DIMTIX
 70
     0
  9
$DIMSOXD
 70
     0
  9
$DIMSAH
 70
     0
  9
$DIMBLK1
  1

  9
$DIMBLK2
  1

  9
$DIMSTYLE
  2
ISO-25
  9
$DIMCLRD
 70
     0
  9
$DIMCLRE
 70
     0
  9
$DIMCLRT
 70
     0
  9
$DIMTFAC
 40
1.0
  9
$DIMGAP
 40
1.524
  9
$DIMJUST
 70
     0
  9
$DIMSD1
 70
     0
  9
$DIMSD2
 70
     0
  9
$DIMTOLJ
 70
     0
  9
$DIMTZIN
 70
     0
  9
$DIMALTZ
 70
     0
  9
$DIMALTTZ
 70
     0
  9
$DIMUPT
 70
     0
  9
$DIMDEC
 70
     1
  9
$DIMTDEC
 70
     1
  9
$DIMALTU
 70
     2
  9
$DIMALTTD
 70
     3
  9
$DIMTXSTY
  7
Standard
  9
$DIMAUNIT
 70
     0
  9
$DIMADEC
 70
     1
  9
$DIMALTRND
 40
0.0
  9
$DIMAZIN
 70
     0
  9
$DIMDSEP
 70
    44
  9
$DIMATFIT
 70
     3
  9
$DIMFRAC
 70
     0
  9
$DIMLDRBLK
  1

  9
$DIMLUNIT
 70
     2
  9
$DIMLWD
 70
    -2
  9
$DIMLWE
 70
    -2
  9
$DIMTMOVE
 70
     0
  9
$LUNITS
 70
     2
  9
$LUPREC
 70
     1
  9
$SKETCHINC
 40
1.0
  9
$FILLETRAD
 40
10.0
  9
$AUNITS
 70
     0
  9
$AUPREC
 70
     1
  9
$MENU
  1
.
  9
$ELEVATION
 40
0.0
  9
$PELEVATION
 40
0.0
  9
$THICKNESS
 40
0.0
  9
$LIMCHECK
 70
     0
  9
$CHAMFERA
 40
0.0
  9
$CHAMFERB
 40
0.0
  9
$CHAMFERC
 40
0.0
  9
$CHAMFERD
 40
0.0
  9
$SKPOLY
 70
     0
  9
$TDCREATE
 40
2459698.385808541
  9
$TDUCREATE
 40
2459698.302475208
  9
$TDUPDATE
 40
2459698.385808738
  9
$TDUUPDATE
 40
2459698.302475405
  9
$TDINDWG
 40
0.0000000116
  9
$TDUSRTIMER
 40
0.0000000116
  9
$USRTIMER
 70
     1
  9
$ANGBASE
 50
0.0
  9
$ANGDIR
 70
     0
  9
$PDMODE
 70
     0
  9
$PDSIZE
 40
-1.0
  9
$PLINEWID
 40
0.0
  9
$SPLFRAME
 70
     0
  9
$SPLINETYPE
 70
     6
  9
$SPLINESEGS
 70
     8
  9
$HANDSEED
  5
2E6
  9
$SURFTAB1
 70
     6
  9
$SURFTAB2
 70
     6
  9
$SURFTYPE
 70
     6
  9
$SURFU
 70
     6
  9
$SURFV
 70
     6
  9
$UCSBASE
  2

  9
$UCSNAME
  2

  9
$UCSORG
 10
0.0
 20
0.0
 30
0.0
  9
$UCSXDIR
 10
1.0
 20
0.0
 30
0.0
  9
$UCSYDIR
 10
0.0
 20
1.0
 30
0.0
  9
$UCSORTHOREF
  2

  9
$UCSORTHOVIEW
 70
     0
  9
$UCSORGTOP
 10
0.0
 20
0.0
 30
0.0
  9
$UCSORGBOTTOM
 10
0.0
 20
0.0
 30
0.0
  9
$UCSORGLEFT
 10
0.0
 20
0.0
 30
0.0
  9
$UCSORGRIGHT
 10
0.0
 20
0.0
 30
0.0
  9
$UCSORGFRONT
 10
0.0
 20
0.0
 30
0.0
  9
$UCSORGBACK
 10
0.0
 20
0.0
 30
0.0
  9
$PUCSBASE
  2

  9
$PUCSNAME
  2

  9
$PUCSORG
 10
0.0
 20
0.0
 30
0.0
  9
$PUCSXDIR
 10
1.0
 20
0.0
 30
0.0
  9
$PUCSYDIR
 10
0.0
 20
1.0
 30
0.0
  9
$PUCSORTHOREF
  2

  9
$PUCSORTHOVIEW
 70
     0
  9
$PUCSORGTOP
 10
0.0
 20
0.0
 30
0.0
  9
$PUCSORGBOTTOM
 10
0.0
 20
0.0
 30
0.0
  9
$PUCSORGLEFT
 10
0.0
 20
0.0
 30
0.0
  9
$PUCSORGRIGHT
 10
0.0
 20
0.0
 30
0.0
  9
$PUCSORGFRONT
 10
0.0
 20
0.0
 30
0.0
  9
$PUCSORGBACK
 10
0.0
 20
0.0
 30
0.0
  9
$USERI1
 70
     0
  9
$USERI2
 70
     0
  9
$USERI3
 70
     0
  9
$USERI4
 70
     0
  9
$USERI5
 70
     0
  9
$USERR1
 40
0.0
  9
$USERR2
 40
0.0
  9
$USERR3
 40
0.0
  9
$USERR4
 40
0.0
  9
$USERR5
 40
0.0
  9
$WORLDVIEW
 70
     1
  9
$SHADEDGE
 70
     3
  9
$SHADEDIF
 70
    70
  9
$TILEMODE
 70
     1
  9
$MAXACTVP
 70
    64
  9
$PINSBASE
 10
0.0
 20
0.0
 30
0.0
  9
$PLIMCHECK
 70
     0
  9
$PEXTMIN
 10
1.0000000000E+20
 20
1.0000000000E+20
 30
1.0000000000E+20
  9
$PEXTMAX
 10
-1.0000000000E+20
 20
-1.0000000000E+20
 30
-1.0000000000E+20
  9
$PLIMMIN
 10
0.0
 20
0.0
  9
$PLIMMAX
 10
420.0
 20
297.0
  9
$UNITMODE
 70
     0
  9
$VISRETAIN
 70
     1
  9
$PLINEGEN
 70
     0
  9
$PSLTSCALE
 70
     1
  9
$TREEDEPTH
 70
  3020
  9
$CMLSTYLE
  2
Standard
  9
$CMLJUST
 70
     0
  9
$CMLSCALE
 40
20.0
  9
$PROXYGRAPHICS
 70
     1
  9
$MEASUREMENT
 70
     1
  9
$CELWEIGHT
370
    -1
  9
$ENDCAPS
280
     0
  9
$JOINSTYLE
280
     0
  9
$LWDISPLAY
290
     1
  9
$INSUNITS
 70
     4
  9
$HYPERLINKBASE
  1

  9
$STYLESHEET
  1

  9
$XEDIT
290
     1
  9
$CEPSNTYPE
380
     0
  9
$PSTYLEMODE
290
     1
  9
$FINGERPRINTGUID
  2
{abcceff2-7c70-4cec-9f36-b4f64eee205e}
  9
$VERSIONGUID
  2
{FAEB1C32-E019-11D5-929B-00C0DF256EC4}
  9
$EXTNAMES
290
     1
  9
$PSVPSCALE
 40
0.0
  9
$OLESTARTUP
290
     0
  0
ENDSEC
  0
SECTION
  2
CLASSES
  0
CLASS
  1
ACDBDICTIONARYWDFLT
  2
AcDbDictionaryWithDefault
  3
ObjectDBX Classes
 90
        0
280
     0
281
     0
  0
CLASS
  1
VISUALSTYLE
  2
AcDbVisualStyle
  3
ObjectDBX Classes
 90
     4095
280
     0
281
     0
  0
CLASS
  1
MATERIAL
  2
AcDbMaterial
  3
ObjectDBX Classes
 90
     1153
280
     0
281
     0
  0
CLASS
  1
SCALE
  2
AcDbScale
  3
ObjectDBX Classes
 90
     1153
280
     0
281
     0
  0
CLASS
  1
TABLESTYLE
  2
AcDbTableStyle
  3
ObjectDBX Classes
 90
     4095
280
     0
281
     0
  0
CLASS
  1
MLEADERSTYLE
  2
AcDbMLeaderStyle
  3
ACDB_MLEADERSTYLE_CLASS
 90
     4095
280
     0
281
     0
  0
CLASS
  1
SUN
  2
AcDbSun
  3
SCENEOE
 90
     1153
280
     0
281
     0
  0
CLASS
  1
ACDBPLACEHOLDER
  2
AcDbPlaceHolder
  3
ObjectDBX Classes
 90
        0
280
     0
281
     0
  0
CLASS
  1
LAYOUT
  2
AcDbLayout
  3
ObjectDBX Classes
 90
        0
280
     0
281
     0
  0
ENDSEC
  0
SECTION
  2
TABLES
  0
TABLE
  2
VPORT
  5
8
330
0
100
AcDbSymbolTable
 70
     1
  0
VPORT
  5
29
330
8
100
AcDbSymbolTableRecord
100
AcDbViewportTableRecord
  2
*Active
 70
     0
 10
0.0
 20
0.0
 11
1.0
 21
1.0
 12
215.9
 22
139.7
 13
0.0
 23
0.0
 14
10.0
 24
10.0
 15
10.0
 25
10.0
 16
0.0
 26
0.0
 36
1.0
 17
0.0
 27
0.0
 37
0.0
 40
279.4
 41
1.5454545455
 42
50.0
 43
0.0
 44
0.0
 50
0.0
 51
0.0
 71
     0
 72
  2000
 73
     1
 74
     3
 75
     0
 76
     0
 77
     0
 78
     0
281
     0
 65
     1
110
0.0
120
0.0
130
0.0
111
1.0
121
0.0
131
0.0
112
0.0
122
1.0
132
0.0
 79
     0
146
0.0
  0
ENDTAB
  0
TABLE
  2
LTYPE
  5
5
330
0
100
AcDbSymbolTable
 70
     6
  0
LTYPE
  5
14
330
5
100
AcDbSymbolTableRecord
100
AcDbLinetypeTableRecord
  2
ByBlock
 70
     0
  3

 72
    65
 73
     0
 40
0.0
  0
LTYPE
  5
15
330
5
100
AcDbSymbolTableRecord
100
AcDbLinetypeTableRecord
  2
ByLayer
 70
     0
  3

 72
    65
 73
     0
 40
0.0
  0
LTYPE
  5
16
330
5
100
AcDbSymbolTableRecord
100
AcDbLinetypeTableRecord
  2
Continuous
 70
     0
  3
Solid line
 72
    65
 73
     0
 40
0.0
  0
LTYPE
  5
6E
330
5
100
AcDbSymbolTableRecord
100
AcDbLinetypeTableRecord
  2
HIDDEN
 70
     0
  3
Hidden __ __ __ __ __ __ __ __ __ __ __ __ __ __
 72
    65
 73
     2
 40
1.905
 49
1.27
 74
     0
 49
-0.635
 74
     0
  0
LTYPE
  5
6F
330
5
100
AcDbSymbolTableRecord
100
AcDbLinetypeTableRecord
  2
PHANTOM
 70
     0
  3
Phantom ______  __  __  ______  __  __  ______
 72
    65
 73
     6
 40
12.7
 49
6.35
 74
     0
 49
-1.27
 74
     0
 49
1.27
 74
     0
 49
-1.27
 74
     0
 49
1.27
 74
     0
 49
-1.27
 74
     0
  0
LTYPE
  5
70
330
5
100
AcDbSymbolTableRecord
100
AcDbLinetypeTableRecord
  2
CENTER
 70
     0
  3
Center ____ _ ____ _ ____ _ ____ _ ____ _ ____
 72
    65
 73
     4
 40
10.16
 49
6.35
 74
     0
 49
-1.27
 74
     0
 49
1.27
 74
     0
 49
-1.27
 74
     0
  0
LTYPE
  5
71
330
5
100
AcDbSymbolTableRecord
100
AcDbLinetypeTableRecord
  2
CENTERX2
 70
     0
  3
Center (2x) ________  __  ________  __  _____
 72
    65
 73
     4
 40
20.32
 49
12.7
 74
     0
 49
-2.54
 74
     0
 49
2.54
 74
     0
 49
-2.54
 74
     0
  0
LTYPE
  5
72
330
5
100
AcDbSymbolTableRecord
100
AcDbLinetypeTableRecord
  2
DOT2
 70
     0
  3
Dot (.5x) ........................................
 72
    65
 73
     2
 40
0.635
 49
0.0
 74
     0
 49
-0.635
 74
     0
  0
ENDTAB
  0
TABLE
  2
LAYER
  5
2
330
0
100
AcDbSymbolTable
 70
     3
  0
LAYER
  5
10
330
2
100
AcDbSymbolTableRecord
100
AcDbLayerTableRecord
  2
0
 70
     0
 62
     7
  6
Continuous
370
    -3
390
F
  0
LAYER
  5
73
330
2
100
AcDbSymbolTableRecord
100
AcDbLayerTableRecord
  2
FRAME_&_TABLE
 70
     0
 62
     8
  6
Continuous
370
    50
390
F
  0
LAYER
  5
74
330
2
100
AcDbSymbolTableRecord
100
AcDbLayerTableRecord
  2
DIMENSIONS
 70
     0
 62
     7
  6
Continuous
370
    -3
390
F
  0
ENDTAB
  0
TABLE
  2
STYLE
  5
3
330
0
100
AcDbSymbolTable
 70
     1
  0
STYLE
  5
11
330
3
100
AcDbSymbolTableRecord
100
AcDbTextStyleTableRecord
  2
Standard
 70
     0
 40
0.0
 41
1.0
 50
0.0
 71
     0
 42
3.8805555556
  3
txt
  4

  0
ENDTAB
  0
TABLE
  2
VIEW
  5
6
330
0
100
AcDbSymbolTable
 70
     0
  0
ENDTAB
  0
TABLE
  2
UCS
  5
7
330
0
100
AcDbSymbolTable
 70
     0
  0
ENDTAB
  0
TABLE
  2
APPID
  5
9
330
0
100
AcDbSymbolTable
 70
     1
  0
APPID
  5
12
330
9
100
AcDbSymbolTableRecord
100
AcDbRegAppTableRecord
  2
ACAD
 70
     0
  0
ENDTAB
  0
TABLE
  2
DIMSTYLE
  5
A
330
0
100
AcDbSymbolTable
 70
     1
100
AcDbDimStyleTable
  0
DIMSTYLE
105
27
330
A
100
AcDbSymbolTableRecord
100
AcDbDimStyleTableRecord
  2
ISO-25
 70
     0
 41
2.5
 42
0.625
 43
3.75
 44
1.25
 73
     0
 74
     0
 77
     1
 78
     8
140
2.5
141
2.5
143
0.0393700787
147
0.625
171
     3
172
     1
178
     0
271
     2
272
     2
274
     3
278
    44
283
     0
284
     8
340
11
  0
ENDTAB
  0
TABLE
  2
BLOCK_RECORD
  5
1
330
0
100
AcDbSymbolTable
 70
     1
  0
BLOCK_RECORD
  5
1F
330
1
100
AcDbSymbolTableRecord
100
AcDbBlockTableRecord
  2
*Model_Space
340
22
  0
BLOCK_RECORD
  5
1B
330
1
100
AcDbSymbolTableRecord
100
AcDbBlockTableRecord
  2
*Paper_Space
340
1E
  0
BLOCK_RECORD
  5
23
330
1
100
AcDbSymbolTableRecord
100
AcDbBlockTableRecord
  2
*Paper_Space0
340
26
  0
ENDTAB
  0
ENDSEC
  0
SECTION
  2
BLOCKS
  0
BLOCK
  5
20
330
1F
100
AcDbEntity
  8
0
100
AcDbBlockBegin
  2
*Model_Space
 70
     0
 10
0.0
 20
0.0
 30
0.0
  3
*Model_Space
  1

  0
ENDBLK
  5
21
330
1F
100
AcDbEntity
  8
0
100
AcDbBlockEnd
  0
BLOCK
  5
1C
330
1B
100
AcDbEntity
 67
     1
  8
0
100
AcDbBlockBegin
  2
*Paper_Space
 70
     0
 10
0.0
 20
0.0
 30
0.0
  3
*Paper_Space
  1

  0
ENDBLK
  5
1D
330
1B
100
AcDbEntity
 67
     1
  8
0
100
AcDbBlockEnd
  0
BLOCK
  5
24
330
23
100
AcDbEntity
  8
0
100
AcDbBlockBegin
  2
*Paper_Space0
 70
     0
 10
0.0
 20
0.0
 30
0.0
  3
*Paper_Space0
  1

  0
ENDBLK
  5
25
330
23
100
AcDbEntity
  8
0
100
AcDbBlockEnd
  0
ENDSEC
  0
SECTION
  2
ENTITIES
  0
LINE
  5
75
330
1F
100
AcDbEntity
  8
0
  6
Continuous
 62
     7
370
    25
100
AcDbLine
 10
-362.4937012835
 20
384.5040614251
 30
0.0
 11
-362.4937012835
 21
385.8595815122
 31
0.0
  0
LINE
  5
76
330
1F
100
AcDbEntity
  8
0
  6
Continuous
 62
     7
370
    25
100
AcDbLine
 10
-374.9937012835
 20
385.8595815122
 30
0.0
 11
-374.9937012835
 21
385.0760511963
 31
0.0
  0
ARC
  5
77
330
1F
100
AcDbEntity
  8
0
  6
Continuous
 62
     7
370
    25
100
AcDbCircle
 10
-368.7437012835
 20
385.8595815122
 30
0.0
 40
6.25
100
AcDbArc
 50
0.0
 51
180.0
  0
LINE
  5
78
330
1F
100
AcDbEntity
  8
0
  6
Continuous
 62
     7
370
    25
100
AcDbLine
 10
-2012.4937012835
 20
385.0760511963
 30
0.0
 11
-2012.4937012835
 21
385.8595815122
 31
0.0
  0
LINE
  5
79
330
1F
100
AcDbEntity
  8
0
  6
Continuous
 62
     7
370
    25
100
AcDbLine
 10
-2024.9937012835
 20
385.8595815122
 30
0.0
 11
-2024.9937012835
 21
384.5040614251
 31
0.0
  0
ARC
  5
7A
330
1F
100
AcDbEntity
  8
0
  6
Continuous
 62
     7
370
    25
100
AcDbCircle
 10
-2018.7437012835
 20
385.8595815122
 30
0.0
 40
6.250000000000227
100
AcDbArc
 50
0.0
 51
180.0
  0
LINE
  5
7B
330
1F
100
AcDbEntity
  8
0
  6
Continuous
 62
     7
370
    25
100
AcDbLine
 10
787.5062987165
 20
385.0760511963
 30
0.0
 11
787.5062987165
 21
385.8595815122
 31
0.0
  0
LINE
  5
7C
330
1F
100
AcDbEntity
  8
0
  6
Continuous
 62
     7
370
    25
100
AcDbLine
 10
775.0062987165
 20
385.8595815122
 30
0.0
 11
775.0062987165
 21
385.0760511963
 31
0.0
  0
ARC
  5
7D
330
1F
100
AcDbEntity
  8
0
  6
Continuous
 62
     7
370
    25
100
AcDbCircle
 10
781.2562987165
 20
385.8595815122
 30
0.0
 40
6.25
100
AcDbArc
 50
0.0
 51
180.0
  0
LINE
  5
7E
330
1F
100
AcDbEntity
  8
0
  6
Continuous
 62
     7
370
    25
100
AcDbLine
 10
2437.5062987165
 20
385.0760511963
 30
0.0
 11
2437.5062987165
 21
385.8595815122
 31
0.0
  0
LINE
  5
7F
330
1F
100
AcDbEntity
  8
0
  6
Continuous
 62
     7
370
    25
100
AcDbLine
 10
2425.0062987165
 20
385.8595815122
 30
0.0
 11
2425.0062987165
 21
385.0760511963
 31
0.0
  0
ARC
  5
80
330
1F
100
AcDbEntity
  8
0
  6
Continuous
 62
     7
370
    25
100
AcDbCircle
 10
2431.2562987165
 20
385.8595815122
 30
0.0
 40
6.25
100
AcDbArc
 50
0.0
 51
180.0
  0
LINE
  5
81
330
1F
100
AcDbEntity
  8
0
  6
Continuous
 62
     7
370
    25
100
AcDbLine
 10
-2026.7437012835
 20
357.5267812606
 30
0.0
 11
-2026.7437012835
 21
355.9504619815
 31
0.0
  0
LINE
  5
82
330
1F
100
AcDbEntity
  8
0
  6
Continuous
 62
     7
370
    25
100
AcDbLine
 10
-2026.7437012835
 20
377.2390854545
 30
0.0
 11
-2026.7437012835
 21
375.6627661754
 31
0.0
  0
LINE
  5
83
330
1F
100
AcDbEntity
  8
0
  6
Continuous
 62
     7
370
    25
100
AcDbLine
 10
-2026.7437012835
 20
337.8144770667
 30
0.0
 11
-2026.7437012835
 21
336.2381577876
 31
0.0
  0
LINE
  5
84
330
1F
100
AcDbEntity
  8
0
  6
Continuous
 62
     7
370
    25
100
AcDbLine
 10
-360.7437012835
 20
336.2381577876
 30
0.0
 11
-360.7437012835
 21
337.8144770667
 31
0.0
  0
LINE
  5
85
330
1F
100
AcDbEntity
  8
0
  6
Continuous
 62
     7
370
    25
100
AcDbLine
 10
-360.7437012835
 20
355.9504619815
 30
0.0
 11
-360.7437012835
 21
357.5267812606
 31
0.0
  0
LINE
  5
86
330
1F
100
AcDbEntity
  8
0
  6
Continuous
 62
     7
370
    25
100
AcDbLine
 10
-360.7437012835
 20
375.6627661754
 30
0.0
 11
-360.7437012835
 21
377.2390854545
 31
0.0
  0
LWPOLYLINE
  5
87
330
1F
100
AcDbEntity
  8
0
  6
Continuous
 62
     7
370
    25
100
AcDbPolyline
 90
       36
 70
   128
 43
0.0
 10
2429.7163070753
 20
-55.5060155882
 10
2428.8274127902
 20
-55.7046090349
 10
2427.3002871708
 20
-56.2791576308
 10
2425.9021713015
 20
-57.1178619938
 10
2424.6809882431
 20
-58.1925378579
 10
2423.6771884615
 20
-59.4675364168
 10
2422.9239270373
 20
-60.9005423326
 10
2422.44595725
 20
-62.4440408788
 10
2422.2588409997
 20
-64.0469596316
 10
2422.3685007962
 20
-65.6564011761
 10
2422.7710941841
 20
-67.2193582803
 10
2423.453186845
 20
-68.6844437594
 10
2424.3922741838
 20
-70.0035986213
 10
2425.5575173663
 20
-71.1335311623
 10
2426.9107085669
 20
-72.0370782046
 10
2428.4074573431
 20
-72.6844040124
 10
2429.9985832942
 20
-73.053998656
 10
2431.6316866532
 20
-73.1334328772
 10
2433.2528535934
 20
-72.9198303617
 10
2434.8083902832
 20
-72.4200500622
 10
2436.2467335022
 20
-71.6505083025
 10
2437.5201955867
 20
-70.63664233
 10
2438.5865809612
 20
-69.4120665919
 10
2439.410634044
 20
-68.0174232708
 10
2439.9652298736
 20
-66.4989729045
 10
2440.2322540871
 20
-64.9069916017
 10
2440.20314394
 20
-63.2940549761
 10
2439.8790935361
 20
-61.7132968107
 10
2439.270976987
 20
-60.2167415027
 10
2438.3989010559
 20
-58.8534885757
 10
2437.2915293084
 20
-57.6682637637
 10
2435.9851784527
 20
-56.7000189337
 10
2434.5226909076
 20
-55.9806857241
 10
2432.9520959596
 20
-55.534118565
 10
2431.3250837545
 20
-55.3752695786
 10
2429.7163070753
 20
-55.5060155882
  0
LWPOLYLINE
  5
88
330
1F
100
AcDbEntity
  8
0
  6
Continuous
 62
     7
370
    25
100
AcDbPolyline
 90
       36
 70
   128
 43
0.0
 10
779.7163070753
 20
-186.3081057629
 10
780.620883985
 20
-186.4169448267
 10
782.2543796783
 20
-186.3843199685
 10
783.8567763889
 20
-186.060226408
 10
785.3735218252
 20
-185.4551121703
 10
786.7543377189
 20
-184.5889132805
 10
787.9534467686
 20
-183.4903028538
 10
788.9311422238
 20
-182.1957268094
 10
789.6551451536
 20
-180.7481487133
 10
790.101681708
 20
-179.1955577838
 10
790.2562355625
 20
-177.5893131352
 10
790.1139583334
 20
-175.9824059612
 10
789.6797640256
 20
-174.4277558944
 10
788.9681152326
 20
-172.9764572249
 10
788.0024744221
 20
-171.6761150955
 10
786.8145431404
 20
-170.5694104764
 10
785.4432719521
 20
-169.6927552429
 10
783.933650431
 20
-169.0751133134
 10
782.3352932369
 20
-168.7370269887
 10
780.7008523326
 20
-168.6898914286
 10
779.0843000068
 20
-168.9355154902
 10
777.5391967076
 20
-169.4659706253
 10
776.1167572208
 20
-170.2638159369
 10
774.8641419005
 20
-171.3026666735
 10
773.82284903
 20
-172.5480731222
 10
773.0272920672
 20
-173.9587013139
 10
772.5036409852
 20
-175.4877672998
 10
772.268978753
 20
-177.0846564578
 10
772.3307981009
 20
-178.6966470146
 10
772.6868291185
 20
-180.2706411885
 10
773.3251544551
 20
-181.75485856
 10
774.2246880706
 20
-183.100608404
 10
775.3558753837
 20
-184.2637346359
 10
776.6816220024
 20
-185.2060003516
 10
778.1584451869
 20
-185.8963152662
 10
779.7163070753
 20
-186.3081057629
  0
LWPOLYLINE
  5
89
330
1F
100
AcDbEntity
  8
0
  6
Continuous
 62
     7
370
    25
100
AcDbPolyline
 90
       36
 70
   128
 43
0.0
 10
779.7163070753
 20
-73.010157576
 10
780.620883985
 20
-73.1189966398
 10
782.2543796783
 20
-73.0863717815
 10
783.8567763889
 20
-72.762278221
 10
785.3735218252
 20
-72.1571639834
 10
786.7543377189
 20
-71.2909650936
 10
787.9534467686
 20
-70.1923546669
 10
788.9311422238
 20
-68.8977786225
 10
789.6551451536
 20
-67.4502005264
 10
790.101681708
 20
-65.8976095969
 10
790.2562355625
 20
-64.2913649483
 10
790.1139583334
 20
-62.6844577743
 10
789.6797640256
 20
-61.1298077075
 10
788.9681152326
 20
-59.678509038
 10
788.0024744221
 20
-58.3781669086
 10
786.8145431404
 20
-57.2714622895
 10
785.4432719521
 20
-56.394807056
 10
783.933650431
 20
-55.7771651265
 10
782.3352932369
 20
-55.4390788018
 10
780.7008523326
 20
-55.3919432416
 10
779.0843000068
 20
-55.6375673033
 10
777.5391967076
 20
-56.1680224384
 10
776.1167572208
 20
-56.96586775
 10
774.8641419005
 20
-58.0047184866
 10
773.82284903
 20
-59.2501249353
 10
773.0272920672
 20
-60.660753127
 10
772.5036409852
 20
-62.1898191129
 10
772.268978753
 20
-63.7867082709
 10
772.3307981009
 20
-65.3986988277
 10
772.6868291185
 20
-66.9726930016
 10
773.3251544551
 20
-68.4569103731
 10
774.2246880706
 20
-69.8026602171
 10
775.3558753837
 20
-70.965786449
 10
776.6816220024
 20
-71.9080521647
 10
778.1584451869
 20
-72.5983670793
 10
779.7163070753
 20
-73.010157576
  0
LWPOLYLINE
  5
8A
330
1F
100
AcDbEntity
  8
0
  6
Continuous
 62
     7
370
    25
100
AcDbPolyline
 90
        9
 70
   128
 43
0.0
 10
-2026.2437012835
 20
287.5089240174
 10
-2026.6994800093
 20
287.3386875054
 10
-2027.1759036371
 20
287.0372349705
 10
-2027.5172455499
 20
286.6607698955
 10
-2027.7257930696
 20
286.128907749
 10
-2027.6885146296
 20
285.5309331001
 10
-2027.4397608251
 20
285.0530300594
 10
-2027.0980562265
 20
284.7241017954
 10
-2027.0024529098
 20
284.668153437
  0
LINE
  5
8B
330
1F
100
AcDbEntity
  8
0
  6
Continuous
 62
     7
370
    25
100
AcDbLine
 10
-2027.0560194512
 20
284.6936325742
 30
0.0
 11
-2026.2437012835
 21
284.1596835732
 31
0.0
  0
LWPOLYLINE
  5
8C
330
1F
100
AcDbEntity
  8
0
  6
Continuous
 62
     7
370
    25
100
AcDbPolyline
 90
       36
 70
   128
 43
0.0
 10
-2020.2836929247
 20
-186.3081057629
 10
-2019.379116015
 20
-186.4169448267
 10
-2017.7456203217
 20
-186.3843199685
 10
-2016.1432236111
 20
-186.060226408
 10
-2014.6264781748
 20
-185.4551121703
 10
-2013.2456622811
 20
-184.5889132805
 10
-2012.0465532314
 20
-183.4903028538
 10
-2011.0688577762
 20
-182.1957268094
 10
-2010.3448548464
 20
-180.7481487133
 10
-2009.898318292
 20
-179.1955577838
 10
-2009.7437644375
 20
-177.5893131352
 10
-2009.8860416666
 20
-175.9824059612
 10
-2010.3202359744
 20
-174.4277558944
 10
-2011.0318847674
 20
-172.9764572249
 10
-2011.9975255779
 20
-171.6761150955
 10
-2013.1854568596
 20
-170.5694104764
 10
-2014.5567280479
 20
-169.6927552429
 10
-2016.066349569
 20
-169.0751133134
 10
-2017.6647067631
 20
-168.7370269887
 10
-2019.2991476674
 20
-168.6898914286
 10
-2020.9156999932
 20
-168.9355154902
 10
-2022.4608032924
 20
-169.4659706253
 10
-2023.8832427792
 20
-170.2638159369
 10
-2025.1358580995
 20
-171.3026666735
 10
-2026.17715097
 20
-172.5480731222
 10
-2026.9727079328
 20
-173.9587013139
 10
-2027.4963590148
 20
-175.4877672998
 10
-2027.731021247
 20
-177.0846564578
 10
-2027.6692018991
 20
-178.6966470146
 10
-2027.3131708815
 20
-180.2706411885
 10
-2026.6748455449
 20
-181.75485856
 10
-2025.7753119294
 20
-183.100608404
 10
-2024.6441246163
 20
-184.2637346359
 10
-2023.3183779976
 20
-185.2060003516
 10
-2021.8415548131
 20
-185.8963152662
 10
-2020.2836929247
 20
-186.3081057629
  0
LWPOLYLINE
  5
8D
330
1F
100
AcDbEntity
  8
0
  6
Continuous
 62
     7
370
    25
100
AcDbPolyline
 90
        9
 70
   128
 43
0.0
 10
-2026.2437012835
 20
248.0843156296
 10
-2026.6994800093
 20
247.9140791176
 10
-2027.1759036371
 20
247.6126265827
 10
-2027.5172455499
 20
247.2361615076
 10
-2027.7257930696
 20
246.7042993612
 10
-2027.6885146296
 20
246.1063247122
 10
-2027.4397608251
 20
245.6284216715
 10
-2027.0980562265
 20
245.2994934076
 10
-2027.0024529098
 20
245.2435450491
  0
LINE
  5
8E
330
1F
100
AcDbEntity
  8
0
  6
Continuous
 62
     7
370
    25
100
AcDbLine
 10
-2027.0560194512
 20
245.2690241864
 30
0.0
 11
-2026.2437012835
 21
244.7350751854
 31
0.0
  0
LWPOLYLINE
  5
8F
330
1F
100
AcDbEntity
  8
0
  6
Continuous
 62
     7
370
    25
100
AcDbPolyline
 90
       36
 70
   128
 43
0.0
 10
-370.2836929247
 20
-168.8039637751
 10
-371.1725872098
 20
-169.0025572218
 10
-372.6997128292
 20
-169.5771058177
 10
-374.0978286985
 20
-170.4158101807
 10
-375.3190117569
 20
-171.4904860448
 10
-376.3228115385
 20
-172.7654846038
 10
-377.0760729627
 20
-174.1984905195
 10
-377.55404275
 20
-175.7419890657
 10
-377.7411590003
 20
-177.3449078185
 10
-377.6314992038
 20
-178.954349363
 10
-377.2289058159
 20
-180.5173064672
 10
-376.546813155
 20
-181.9823919464
 10
-375.6077258162
 20
-183.3015468083
 10
-374.4424826337
 20
-184.4314793493
 10
-373.0892914331
 20
-185.3350263915
 10
-371.5925426569
 20
-185.9823521993
 10
-370.0014167058
 20
-186.3519468429
 10
-368.3683133468
 20
-186.4313810641
 10
-366.7471464066
 20
-186.2177785486
 10
-365.1916097168
 20
-185.7179982491
 10
-363.7532664978
 20
-184.9484564895
 10
-362.4798044133
 20
-183.9345905169
 10
-361.4134190388
 20
-182.7100147789
 10
-360.589365956
 20
-181.3153714577
 10
-360.0347701264
 20
-179.7969210914
 10
-359.7677459129
 20
-178.2049397886
 10
-359.79685606
 20
-176.592003163
 10
-360.1209064639
 20
-175.0112449976
 10
-360.729023013
 20
-173.5146896896
 10
-361.6010989441
 20
-172.1514367626
 10
-362.7084706916
 20
-170.9662119506
 10
-364.0148215473
 20
-169.9979671206
 10
-365.4773090924
 20
-169.278633911
 10
-367.0479040404
 20
-168.832066752
 10
-368.6749162455
 20
-168.6732177656
 10
-370.2836929247
 20
-168.8039637751
  0
LWPOLYLINE
  5
90
330
1F
100
AcDbEntity
  8
0
  6
Continuous
 62
     7
370
    25
100
AcDbPolyline
 90
       36
 70
   128
 43
0.0
 10
-370.2836929247
 20
-55.5060155882
 10
-371.1725872098
 20
-55.7046090349
 10
-372.6997128292
 20
-56.2791576308
 10
-374.0978286985
 20
-57.1178619938
 10
-375.3190117569
 20
-58.1925378579
 10
-376.3228115385
 20
-59.4675364168
 10
-377.0760729627
 20
-60.9005423326
 10
-377.55404275
 20
-62.4440408788
 10
-377.7411590003
 20
-64.0469596316
 10
-377.6314992038
 20
-65.6564011761
 10
-377.2289058159
 20
-67.2193582803
 10
-376.546813155
 20
-68.6844437594
 10
-375.6077258162
 20
-70.0035986213
 10
-374.4424826337
 20
-71.1335311623
 10
-373.0892914331
 20
-72.0370782046
 10
-371.5925426569
 20
-72.6844040124
 10
-370.0014167058
 20
-73.053998656
 10
-368.3683133468
 20
-73.1334328772
 10
-366.7471464066
 20
-72.9198303617
 10
-365.1916097168
 20
-72.4200500622
 10
-363.7532664978
 20
-71.6505083025
 10
-362.4798044133
 20
-70.63664233
 10
-361.4134190388
 20
-69.4120665919
 10
-360.589365956
 20
-68.0174232708
 10
-360.0347701264
 20
-66.4989729045
 10
-359.7677459129
 20
-64.9069916017
 10
-359.79685606
 20
-63.2940549761
 10
-360.1209064639
 20
-61.7132968107
 10
-360.729023013
 20
-60.2167415027
 10
-361.6010989441
 20
-58.8534885757
 10
-362.7084706916
 20
-57.6682637637
 10
-364.0148215473
 20
-56.7000189337
 10
-365.4773090924
 20
-55.9806857241
 10
-367.0479040404
 20
-55.534118565
 10
-368.6749162455
 20
-55.3752695786
 10
-370.2836929247
 20
-55.5060155882
  0
LWPOLYLINE
  5
91
330
1F
100
AcDbEntity
  8
0
  6
Continuous
 62
     7
370
    25
100
AcDbPolyline
 90
        9
 70
   128
 43
0.0
 10
-360.4701647669
 20
264.9658915947
 10
-360.1190303074
 20
265.2558032438
 10
-359.8336131366
 20
265.716179502
 10
-359.7479740545
 20
266.3054061813
 10
-359.9245576708
 20
266.8735550835
 10
-360.1886277761
 20
267.214494244
 10
-360.5646780279
 20
267.5037270827
 10
-361.1432062308
 20
267.7806138923
 10
-361.2437012835
 20
267.8107776474
  0
LINE
  5
92
330
1F
100
AcDbEntity
  8
0
  6
Continuous
 62
     7
370
    25
100
AcDbLine
 10
-361.2437012835
 20
264.4473793793
 30
0.0
 11
-360.4313831159
 21
264.9813283803
 31
0.0
  0
LWPOLYLINE
  5
93
330
1F
100
AcDbEntity
  8
0
  6
Continuous
 62
     7
370
    25
100
AcDbPolyline
 90
        9
 70
   128
 43
0.0
 10
-2026.2437012835
 20
267.7966198235
 10
-2026.6994800093
 20
267.6263833115
 10
-2027.1759036371
 20
267.3249307766
 10
-2027.5172455499
 20
266.9484657016
 10
-2027.7257930696
 20
266.4166035551
 10
-2027.6885146296
 20
265.8186289062
 10
-2027.4397608251
 20
265.3407258654
 10
-2027.0980562265
 20
265.0117976015
 10
-2027.0024529098
 20
264.9558492431
  0
LINE
  5
94
330
1F
100
AcDbEntity
  8
0
  6
Continuous
 62
     7
370
    25
100
AcDbLine
 10
-2027.0560194512
 20
264.9813283803
 30
0.0
 11
-2026.2437012835
 21
264.4473793793
 31
0.0
  0
LWPOLYLINE
  5
95
330
1F
100
AcDbEntity
  8
0
  6
Continuous
 62
     7
370
    25
100
AcDbPolyline
 90
        9
 70
   128
 43
0.0
 10
-360.4701647669
 20
245.2535874008
 10
-360.1190303074
 20
245.5434990499
 10
-359.8336131366
 20
246.0038753081
 10
-359.7479740545
 20
246.5931019874
 10
-359.9245576708
 20
247.1612508895
 10
-360.1886277761
 20
247.5021900501
 10
-360.5646780279
 20
247.7914228888
 10
-361.1432062308
 20
248.0683096984
 10
-361.2437012835
 20
248.0984734535
  0
LINE
  5
96
330
1F
100
AcDbEntity
  8
0
  6
Continuous
 62
     7
370
    25
100
AcDbLine
 10
-361.2437012835
 20
244.7350751854
 30
0.0
 11
-360.4313831159
 21
245.2690241864
 31
0.0
  0
LWPOLYLINE
  5
97
330
1F
100
AcDbEntity
  8
0
  6
Continuous
 62
     7
370
    25
100
AcDbPolyline
 90
       36
 70
   128
 43
0.0
 10
2429.7163070753
 20
-168.8039637751
 10
2428.8274127902
 20
-169.0025572218
 10
2427.3002871708
 20
-169.5771058177
 10
2425.9021713015
 20
-170.4158101807
 10
2424.6809882431
 20
-171.4904860448
 10
2423.6771884615
 20
-172.7654846038
 10
2422.9239270373
 20
-174.1984905195
 10
2422.44595725
 20
-175.7419890657
 10
2422.2588409997
 20
-177.3449078185
 10
2422.3685007962
 20
-178.954349363
 10
2422.7710941841
 20
-180.5173064672
 10
2423.453186845
 20
-181.9823919464
 10
2424.3922741838
 20
-183.3015468083
 10
2425.5575173663
 20
-184.4314793493
 10
2426.9107085669
 20
-185.3350263915
 10
2428.4074573431
 20
-185.9823521993
 10
2429.9985832942
 20
-186.3519468429
 10
2431.6316866532
 20
-186.4313810641
 10
2433.2528535934
 20
-186.2177785486
 10
2434.8083902832
 20
-185.7179982491
 10
2436.2467335022
 20
-184.9484564895
 10
2437.5201955867
 20
-183.9345905169
 10
2438.5865809612
 20
-182.7100147789
 10
2439.410634044
 20
-181.3153714577
 10
2439.9652298736
 20
-179.7969210914
 10
2440.2322540871
 20
-178.2049397886
 10
2440.20314394
 20
-176.592003163
 10
2439.8790935361
 20
-175.0112449976
 10
2439.270976987
 20
-173.5146896896
 10
2438.3989010559
 20
-172.1514367626
 10
2437.2915293084
 20
-170.9662119506
 10
2435.9851784527
 20
-169.9979671206
 10
2434.5226909076
 20
-169.278633911
 10
2432.9520959596
 20
-168.832066752
 10
2431.3250837545
 20
-168.6732177656
 10
2429.7163070753
 20
-168.8039637751
  0
LWPOLYLINE
  5
98
330
1F
100
AcDbEntity
  8
0
  6
Continuous
 62
     7
370
    25
100
AcDbPolyline
 90
       36
 70
   128
 43
0.0
 10
-2020.2836929247
 20
-73.010157576
 10
-2019.379116015
 20
-73.1189966398
 10
-2017.7456203217
 20
-73.0863717815
 10
-2016.1432236111
 20
-72.762278221
 10
-2014.6264781748
 20
-72.1571639834
 10
-2013.2456622811
 20
-71.2909650936
 10
-2012.0465532314
 20
-70.1923546669
 10
-2011.0688577762
 20
-68.8977786225
 10
-2010.3448548464
 20
-67.4502005264
 10
-2009.898318292
 20
-65.8976095969
 10
-2009.7437644375
 20
-64.2913649483
 10
-2009.8860416666
 20
-62.6844577743
 10
-2010.3202359744
 20
-61.1298077075
 10
-2011.0318847674
 20
-59.678509038
 10
-2011.9975255779
 20
-58.3781669086
 10
-2013.1854568596
 20
-57.2714622895
 10
-2014.5567280479
 20
-56.394807056
 10
-2016.066349569
 20
-55.7771651265
 10
-2017.6647067631
 20
-55.4390788018
 10
-2019.2991476674
 20
-55.3919432416
 10
-2020.9156999932
 20
-55.6375673033
 10
-2022.4608032924
 20
-56.1680224384
 10
-2023.8832427792
 20
-56.96586775
 10
-2025.1358580995
 20
-58.0047184866
 10
-2026.17715097
 20
-59.2501249353
 10
-2026.9727079328
 20
-60.660753127
 10
-2027.4963590148
 20
-62.1898191129
 10
-2027.731021247
 20
-63.7867082709
 10
-2027.6692018991
 20
-65.3986988277
 10
-2027.3131708815
 20
-66.9726930016
 10
-2026.6748455449
 20
-68.4569103731
 10
-2025.7753119294
 20
-69.8026602171
 10
-2024.6441246163
 20
-70.965786449
 10
-2023.3183779976
 20
-71.9080521647
 10
-2021.8415548131
 20
-72.5983670793
 10
-2020.2836929247
 20
-73.010157576
  0
LWPOLYLINE
  5
99
330
1F
100
AcDbEntity
  8
0
  6
Continuous
 62
     7
370
    25
100
AcDbPolyline
 90
        9
 70
   128
 43
0.0
 10
-360.4701647669
 20
284.6781957886
 10
-360.1190303074
 20
284.9681074377
 10
-359.8336131366
 20
285.4284836959
 10
-359.7479740545
 20
286.0177103753
 10
-359.9245576708
 20
286.5858592774
 10
-360.1886277761
 20
286.9267984379
 10
-360.5646780279
 20
287.2160312767
 10
-361.1432062308
 20
287.4929180862
 10
-361.2437012835
 20
287.5230818413
  0
LINE
  5
9A
330
1F
100
AcDbEntity
  8
0
  6
Continuous
 62
     7
370
    25
100
AcDbLine
 10
-361.2437012835
 20
284.1596835732
 30
0.0
 11
-360.4313831159
 21
284.6936325742
 31
0.0
  0
ARC
  5
9B
330
1F
100
AcDbEntity
  8
0
  6
Continuous
 62
     7
370
    25
100
AcDbCircle
 10
-2028.5427733427
 20
-233.9997583274
 30
0.0
 40
2.635232793285091
100
AcDbArc
 50
194.4882769439
 51
273.2380452654
  0
LINE
  5
9C
330
1F
100
AcDbEntity
  8
0
  6
Continuous
 62
     7
370
    25
100
AcDbLine
 10
-2028.4151126244
 20
-236.6416751521
 30
0.0
 11
-2009.0722899427
 21
-236.6416751521
 31
0.0
  0
ARC
  5
9D
330
1F
100
AcDbEntity
  8
0
  6
Continuous
 62
     7
370
    25
100
AcDbCircle
 10
-2008.9271382841
 20
-234.0025333166
 30
0.0
 40
2.615285139102568
100
AcDbArc
 50
266.4880435759
 51
333.1777715907
  0
ARC
  5
9E
330
1F
100
AcDbEntity
  8
0
  6
Continuous
 62
     7
370
    25
100
AcDbCircle
 10
2421.4572266573
 20
-233.9997583274
 30
0.0
 40
2.635232793285617
100
AcDbArc
 50
194.4882769439
 51
273.2380452654
  0
LINE
  5
9F
330
1F
100
AcDbEntity
  8
0
  6
Continuous
 62
     7
370
    25
100
AcDbLine
 10
2421.5848873756
 20
-236.6416751521
 30
0.0
 11
2440.9277100573
 21
-236.6416751521
 31
0.0
  0
ARC
  5
A0
330
1F
100
AcDbEntity
  8
0
  6
Continuous
 62
     7
370
    25
100
AcDbCircle
 10
2441.0728617159
 20
-234.0025333166
 30
0.0
 40
2.615285139103359
100
AcDbArc
 50
266.4880435759
 51
333.1777715907
  0
ARC
  5
A1
330
1F
100
AcDbEntity
  8
0
  6
Continuous
 62
     7
370
    25
100
AcDbCircle
 10
-358.9271382841
 20
-234.0025333166
 30
0.0
 40
2.615285139103085
100
AcDbArc
 50
266.4880435759
 51
333.1777715907
  0
LINE
  5
A2
330
1F
100
AcDbEntity
  8
0
  6
Continuous
 62
     7
370
    25
100
AcDbLine
 10
-378.4151126244
 20
-236.6416751521
 30
0.0
 11
-359.0722899427
 21
-236.6416751521
 31
0.0
  0
ARC
  5
A3
330
1F
100
AcDbEntity
  8
0
  6
Continuous
 62
     7
370
    25
100
AcDbCircle
 10
-378.5427733427
 20
-233.9997583274
 30
0.0
 40
2.635232793285473
100
AcDbArc
 50
194.4882769439
 51
273.2380452654
  0
ARC
  5
A4
330
1F
100
AcDbEntity
  8
0
  6
Continuous
 62
     7
370
    25
100
AcDbCircle
 10
791.0728617159
 20
-234.0025333166
 30
0.0
 40
2.615285139102989
100
AcDbArc
 50
266.4880435759
 51
333.1777715907
  0
ARC
  5
A5
330
1F
100
AcDbEntity
  8
0
  6
Continuous
 62
     7
370
    25
100
AcDbCircle
 10
771.4572266573
 20
-233.9997583274
 30
0.0
 40
2.635232793285631
100
AcDbArc
 50
194.4882769439
 51
273.2380452654
  0
LINE
  5
A6
330
1F
100
AcDbEntity
  8
0
  6
Continuous
 62
     7
370
    25
100
AcDbLine
 10
771.5848873756
 20
-236.6416751521
 30
0.0
 11
790.9277100573
 21
-236.6416751521
 31
0.0
  0
LINE
  5
A7
330
1F
100
AcDbEntity
  8
0
  6
Continuous
 62
     7
370
    25
100
AcDbLine
 10
-2593.7437012835
 20
113.4648331389
 30
0.0
 11
-2593.7437012835
 21
223.4648331389
 31
0.0
  0
LINE
  5
A8
330
1F
100
AcDbEntity
  8
0
  6
Continuous
 62
     7
370
    25
100
AcDbLine
 10
-2595.7437012835
 20
113.4648331389
 30
0.0
 11
-2593.7437012835
 21
113.4648331389
 31
0.0
  0
LINE
  5
A9
330
1F
100
AcDbEntity
  8
0
  6
Continuous
 62
     7
370
    25
100
AcDbLine
 10
-2595.7437012835
 20
223.4648331389
 30
0.0
 11
-2595.7437012835
 21
113.4648331389
 31
0.0
  0
LINE
  5
AA
330
1F
100
AcDbEntity
  8
0
  6
Continuous
 62
     7
370
    25
100
AcDbLine
 10
-2595.7437012835
 20
223.4648331389
 30
0.0
 11
-2593.7437012835
 21
223.4648331389
 31
0.0
  0
LINE
  5
AB
330
1F
100
AcDbEntity
  8
0
  6
Continuous
 62
     7
370
    25
100
AcDbLine
 10
-2593.7437012835
 20
223.4648331389
 30
0.0
 11
-2593.7437012835
 21
228.4648331389
 31
0.0
  0
LINE
  5
AC
330
1F
100
AcDbEntity
  8
0
  6
Continuous
 62
     7
370
    25
100
AcDbLine
 10
-2595.7437012835
 20
228.4648331389
 30
0.0
 11
-2595.7437012835
 21
223.4648331389
 31
0.0
  0
LINE
  5
AD
330
1F
100
AcDbEntity
  8
0
  6
Continuous
 62
     7
370
    25
100
AcDbLine
 10
-2595.7437012835
 20
228.4648331389
 30
0.0
 11
-2593.7437012835
 21
228.4648331389
 31
0.0
  0
LINE
  5
AE
330
1F
100
AcDbEntity
  8
0
  6
Continuous
 62
     7
370
    25
100
AcDbLine
 10
-2598.7437012835
 20
113.4648331389
 30
0.0
 11
-2598.7437012835
 21
223.4648331389
 31
0.0
  0
LINE
  5
AF
330
1F
100
AcDbEntity
  8
0
  6
Continuous
 62
     7
370
    25
100
AcDbLine
 10
-2598.7437012835
 20
223.4648331389
 30
0.0
 11
-2595.7437012835
 21
223.4648331389
 31
0.0
  0
LINE
  5
B0
330
1F
100
AcDbEntity
  8
0
  6
Continuous
 62
     7
370
    25
100
AcDbLine
 10
-2595.7437012835
 20
113.4648331389
 30
0.0
 11
-2598.7437012835
 21
113.4648331389
 31
0.0
  0
LINE
  5
B1
330
1F
100
AcDbEntity
  8
0
  6
Continuous
 62
     7
370
    25
100
AcDbLine
 10
-2598.7437012835
 20
223.4648331389
 30
0.0
 11
-2598.7437012835
 21
225.4648331389
 31
0.0
  0
ARC
  5
B2
330
1F
100
AcDbEntity
  8
0
  6
Continuous
 62
     7
370
    25
100
AcDbCircle
 10
-2595.7437012835
 20
225.4648331389
 30
0.0
 40
3.0
100
AcDbArc
 50
90.0
 51
180.0
  0
LINE
  5
B3
330
1F
100
AcDbEntity
  8
0
  6
Continuous
 62
     7
370
    25
100
AcDbLine
 10
-2595.7437012835
 20
108.4648331389
 30
0.0
 11
-2593.7437012835
 21
108.4648331389
 31
0.0
  0
LINE
  5
B4
330
1F
100
AcDbEntity
  8
0
  6
Continuous
 62
     7
370
    25
100
AcDbLine
 10
-2595.7437012835
 20
113.4648331389
 30
0.0
 11
-2595.7437012835
 21
108.4648331389
 31
0.0
  0
LINE
  5
B5
330
1F
100
AcDbEntity
  8
0
  6
Continuous
 62
     7
370
    25
100
AcDbLine
 10
-2593.7437012835
 20
108.4648331389
 30
0.0
 11
-2593.7437012835
 21
113.4648331389
 31
0.0
  0
ARC
  5
B6
330
1F
100
AcDbEntity
  8
0
  6
Continuous
 62
     7
370
    25
100
AcDbCircle
 10
-2595.7437012835
 20
111.4648331389
 30
0.0
 40
3.0
100
AcDbArc
 50
180.0
 51
270.0
  0
LINE
  5
B7
330
1F
100
AcDbEntity
  8
0
  6
Continuous
 62
     7
370
    25
100
AcDbLine
 10
-2598.7437012835
 20
111.4648331389
 30
0.0
 11
-2598.7437012835
 21
113.4648331389
 31
0.0
  0
LINE
  5
B8
330
1F
100
AcDbEntity
  8
0
  6
Continuous
 62
     7
370
    25
100
AcDbLine
 10
3008.2562987165
 20
113.4648331389
 30
0.0
 11
3006.2562987165
 21
113.4648331389
 31
0.0
  0
LINE
  5
B9
330
1F
100
AcDbEntity
  8
0
  6
Continuous
 62
     7
370
    25
100
AcDbLine
 10
3008.2562987165
 20
108.4648331389
 30
0.0
 11
3008.2562987165
 21
113.4648331389
 31
0.0
  0
LINE
  5
BA
330
1F
100
AcDbEntity
  8
0
  6
Continuous
 62
     7
370
    25
100
AcDbLine
 10
3008.2562987165
 20
108.4648331389
 30
0.0
 11
3006.2562987165
 21
108.4648331389
 31
0.0
  0
LINE
  5
BB
330
1F
100
AcDbEntity
  8
0
  6
Continuous
 62
     7
370
    25
100
AcDbLine
 10
3006.2562987165
 20
113.4648331389
 30
0.0
 11
3006.2562987165
 21
108.4648331389
 31
0.0
  0
LINE
  5
BC
330
1F
100
AcDbEntity
  8
0
  6
Continuous
 62
     7
370
    25
100
AcDbLine
 10
3008.2562987165
 20
113.4648331389
 30
0.0
 11
3011.2562987165
 21
113.4648331389
 31
0.0
  0
LINE
  5
BD
330
1F
100
AcDbEntity
  8
0
  6
Continuous
 62
     7
370
    25
100
AcDbLine
 10
3011.2562987165
 20
113.4648331389
 30
0.0
 11
3011.2562987165
 21
111.4648331389
 31
0.0
  0
ARC
  5
BE
330
1F
100
AcDbEntity
  8
0
  6
Continuous
 62
     7
370
    25
100
AcDbCircle
 10
3008.2562987165
 20
111.4648331389
 30
0.0
 40
3.0
100
AcDbArc
 50
270.0
 51
0.0
  0
LINE
  5
BF
330
1F
100
AcDbEntity
  8
0
  6
Continuous
 62
     7
370
    25
100
AcDbLine
 10
3008.2562987165
 20
228.4648331389
 30
0.0
 11
3006.2562987165
 21
228.4648331389
 31
0.0
  0
LINE
  5
C0
330
1F
100
AcDbEntity
  8
0
  6
Continuous
 62
     7
370
    25
100
AcDbLine
 10
3008.2562987165
 20
223.4648331389
 30
0.0
 11
3008.2562987165
 21
228.4648331389
 31
0.0
  0
LINE
  5
C1
330
1F
100
AcDbEntity
  8
0
  6
Continuous
 62
     7
370
    25
100
AcDbLine
 10
3008.2562987165
 20
223.4648331389
 30
0.0
 11
3006.2562987165
 21
223.4648331389
 31
0.0
  0
LINE
  5
C2
330
1F
100
AcDbEntity
  8
0
  6
Continuous
 62
     7
370
    25
100
AcDbLine
 10
3006.2562987165
 20
228.4648331389
 30
0.0
 11
3006.2562987165
 21
223.4648331389
 31
0.0
  0
LINE
  5
C3
330
1F
100
AcDbEntity
  8
0
  6
Continuous
 62
     7
370
    25
100
AcDbLine
 10
3008.2562987165
 20
113.4648331389
 30
0.0
 11
3008.2562987165
 21
223.4648331389
 31
0.0
  0
LINE
  5
C4
330
1F
100
AcDbEntity
  8
0
  6
Continuous
 62
     7
370
    25
100
AcDbLine
 10
3006.2562987165
 20
223.4648331389
 30
0.0
 11
3006.2562987165
 21
113.4648331389
 31
0.0
  0
LINE
  5
C5
330
1F
100
AcDbEntity
  8
0
  6
Continuous
 62
     7
370
    25
100
AcDbLine
 10
3011.2562987165
 20
223.4648331389
 30
0.0
 11
3011.2562987165
 21
113.4648331389
 31
0.0
  0
LINE
  5
C6
330
1F
100
AcDbEntity
  8
0
  6
Continuous
 62
     7
370
    25
100
AcDbLine
 10
3011.2562987165
 20
223.4648331389
 30
0.0
 11
3008.2562987165
 21
223.4648331389
 31
0.0
  0
LINE
  5
C7
330
1F
100
AcDbEntity
  8
0
  6
Continuous
 62
     7
370
    25
100
AcDbLine
 10
3011.2562987165
 20
225.4648331389
 30
0.0
 11
3011.2562987165
 21
223.4648331389
 31
0.0
  0
ARC
  5
C8
330
1F
100
AcDbEntity
  8
0
  6
Continuous
 62
     7
370
    25
100
AcDbCircle
 10
3008.2562987165
 20
225.4648331389
 30
0.0
 40
3.0
100
AcDbArc
 50
0.0
 51
90.0
  0
LWPOLYLINE
  5
C9
330
1F
100
AcDbEntity
  8
0
  6
Continuous
 62
     7
370
    25
100
AcDbPolyline
 90
        5
 70
   128
 43
0.0
 10
-2026.2437012835
 20
355.4732730041
 10
-2026.6252976792
 20
355.7154071994
 10
-2026.7381732614
 20
356.0014313663
 10
-2026.5016520565
 20
356.2852279265
 10
-2026.2437012835
 20
356.4276509589
  0
LWPOLYLINE
  5
CA
330
1F
100
AcDbEntity
  8
0
  6
Continuous
 62
     7
370
    25
100
AcDbPolyline
 90
        4
 70
   128
 43
0.0
 10
-2026.7437012835
 20
357.5267812606
 10
-2026.7381732614
 20
357.5777506454
 10
-2026.5016520565
 20
357.8615472057
 10
-2026.2437012835
 20
358.003970238
  0
LWPOLYLINE
  5
CB
330
1F
100
AcDbEntity
  8
0
  6
Continuous
 62
     7
370
    25
100
AcDbPolyline
 90
        5
 70
   128
 43
0.0
 10
-2026.2437012835
 20
375.185577198
 10
-2026.6252976792
 20
375.4277113933
 10
-2026.7381732614
 20
375.7137355602
 10
-2026.5016520565
 20
375.9975321205
 10
-2026.2437012835
 20
376.1399551528
  0
LWPOLYLINE
  5
CC
330
1F
100
AcDbEntity
  8
0
  6
Continuous
 62
     7
370
    25
100
AcDbPolyline
 90
        4
 70
   128
 43
0.0
 10
-2026.7437012835
 20
377.2390854545
 10
-2026.7381732614
 20
377.2900548394
 10
-2026.5016520565
 20
377.5738513996
 10
-2026.2437012835
 20
377.7162744319
  0
LWPOLYLINE
  5
CD
330
1F
100
AcDbEntity
  8
0
  6
Continuous
 62
     7
370
    25
100
AcDbPolyline
 90
        5
 70
   128
 43
0.0
 10
-2026.2437012835
 20
335.7609688102
 10
-2026.6252976792
 20
336.0031030055
 10
-2026.7381732614
 20
336.2891271724
 10
-2026.5016520565
 20
336.5729237326
 10
-2026.2437012835
 20
336.7153467649
  0
LWPOLYLINE
  5
CE
330
1F
100
AcDbEntity
  8
0
  6
Continuous
 62
     7
370
    25
100
AcDbPolyline
 90
        4
 70
   128
 43
0.0
 10
-2026.7437012835
 20
337.8144770667
 10
-2026.7381732614
 20
337.8654464515
 10
-2026.5016520565
 20
338.1492430117
 10
-2026.2437012835
 20
338.2916660441
  0
LWPOLYLINE
  5
CF
330
1F
100
AcDbEntity
  8
0
  6
Continuous
 62
     7
370
    25
100
AcDbPolyline
 90
        5
 70
   128
 43
0.0
 10
-361.2437012835
 20
336.7153467649
 10
-360.9857505106
 20
336.5729237326
 10
-360.7492293057
 20
336.2891271724
 10
-360.8621048879
 20
336.0031030055
 10
-361.2437012835
 20
335.7609688102
  0
LWPOLYLINE
  5
D0
330
1F
100
AcDbEntity
  8
0
  6
Continuous
 62
     7
370
    25
100
AcDbPolyline
 90
        4
 70
   128
 43
0.0
 10
-361.2437012835
 20
338.2916660441
 10
-360.9857505106
 20
338.1492430117
 10
-360.7492293057
 20
337.8654464515
 10
-360.7437012835
 20
337.8144770667
  0
LWPOLYLINE
  5
D1
330
1F
100
AcDbEntity
  8
0
  6
Continuous
 62
     7
370
    25
100
AcDbPolyline
 90
        5
 70
   128
 43
0.0
 10
-361.2437012835
 20
356.4276509589
 10
-360.9857505106
 20
356.2852279265
 10
-360.7492293057
 20
356.0014313663
 10
-360.8621048879
 20
355.7154071994
 10
-361.2437012835
 20
355.4732730041
  0
LWPOLYLINE
  5
D2
330
1F
100
AcDbEntity
  8
0
  6
Continuous
 62
     7
370
    25
100
AcDbPolyline
 90
        4
 70
   128
 43
0.0
 10
-361.2437012835
 20
358.003970238
 10
-360.9857505106
 20
357.8615472057
 10
-360.7492293057
 20
357.5777506454
 10
-360.7437012835
 20
357.5267812606
  0
LWPOLYLINE
  5
D3
330
1F
100
AcDbEntity
  8
0
  6
Continuous
 62
     7
370
    25
100
AcDbPolyline
 90
        5
 70
   128
 43
0.0
 10
-361.2437012835
 20
376.1399551528
 10
-360.9857505106
 20
375.9975321205
 10
-360.7492293057
 20
375.7137355602
 10
-360.8621048879
 20
375.4277113933
 10
-361.2437012835
 20
375.185577198
  0
LWPOLYLINE
  5
D4
330
1F
100
AcDbEntity
  8
0
  6
Continuous
 62
     7
370
    25
100
AcDbPolyline
 90
        4
 70
   128
 43
0.0
 10
-361.2437012835
 20
377.7162744319
 10
-360.9857505106
 20
377.5738513996
 10
-360.7492293057
 20
377.2900548394
 10
-360.7437012835
 20
377.2390854545
  0
LWPOLYLINE
  5
D5
330
1F
100
AcDbEntity
  8
0
  6
Continuous
 62
     7
370
    25
100
AcDbPolyline
 90
       32
 70
   128
 43
0.0
 10
2429.7901679809
 20
-55.8044110977
 10
2428.1238982351
 20
-56.2651149572
 10
2426.585869333
 20
-57.0468414835
 10
2425.2390483587
 20
-58.1175867007
 10
2424.138574321
 20
-59.4335141738
 10
2423.3295007563
 20
-60.9407496774
 10
2422.8449512315
 20
-62.5775868129
 10
2422.704763261
 20
-64.2770132757
 10
2422.9146761568
 20
-65.9694543467
 10
2423.4660960603
 20
-67.5856212896
 10
2424.3364477759
 20
-69.0593480399
 10
2425.490099002
 20
-70.3303000513
 10
2426.879819122
 20
-71.346444399
 10
2428.4487128307
 20
-72.0661800141
 10
2430.1325494355
 20
-72.460040836
 10
2431.8623924679
 20
-72.5119021563
 10
2433.5674219508
 20
-72.2196407665
 10
2435.1778337771
 20
-71.5952218822
 10
2436.6276974971
 20
-70.6642092859
 10
2437.85765552
 20
-69.4647187427
 10
2438.8173532197
 20
-68.0458575364
 10
2439.4675004597
 20
-66.4657140114
 10
2439.7814801355
 20
-64.7889794294
 10
2439.7464378824
 20
-63.084299501
 10
2439.3638083343
 20
-61.421464023
 10
2438.6492563898
 20
-59.8685496751
 10
2437.6320358895
 20
-58.4891329531
 10
2436.3537919603
 20
-57.3396873399
 10
2434.8668560587
 20
-56.4672712737
 10
2433.2321035153
 20
-55.907601571
 10
2431.5164612913
 20
-55.683591175
 10
2429.7901679809
 20
-55.8044110977
  0
LWPOLYLINE
  5
D6
330
1F
100
AcDbEntity
  8
0
  6
Continuous
 62
     7
370
    25
100
AcDbPolyline
 90
       32
 70
   128
 43
0.0
 10
779.7901679809
 20
-185.7063144104
 10
781.5164612913
 20
-185.8271343331
 10
783.2321035153
 20
-185.6031239371
 10
784.8668560587
 20
-185.0434542344
 10
786.3537919603
 20
-184.1710381682
 10
787.6320358895
 20
-183.021592555
 10
788.6492563898
 20
-181.642175833
 10
789.3638083343
 20
-180.0892614851
 10
789.7464378824
 20
-178.4264260071
 10
789.7814801355
 20
-176.7217460787
 10
789.4675004597
 20
-175.0450114967
 10
788.8173532197
 20
-173.4648679717
 10
787.85765552
 20
-172.0460067654
 10
786.6276974971
 20
-170.8465162222
 10
785.1778337771
 20
-169.9155036259
 10
783.5674219508
 20
-169.2910847416
 10
781.8623924679
 20
-168.9988233518
 10
780.1325494355
 20
-169.0506846721
 10
778.4487128307
 20
-169.444545494
 10
776.879819122
 20
-170.1642811091
 10
775.490099002
 20
-171.1804254568
 10
774.3364477759
 20
-172.4513774682
 10
773.4660960603
 20
-173.9251042185
 10
772.9146761568
 20
-175.5412711614
 10
772.704763261
 20
-177.2337122324
 10
772.8449512315
 20
-178.9331386952
 10
773.3295007563
 20
-180.5699758307
 10
774.138574321
 20
-182.0772113343
 10
775.2390483587
 20
-183.3931388074
 10
776.585869333
 20
-184.4638840246
 10
778.1238982351
 20
-185.2456105509
 10
779.7901679809
 20
-185.7063144104
  0
LWPOLYLINE
  5
D7
330
1F
100
AcDbEntity
  8
0
  6
Continuous
 62
     7
370
    25
100
AcDbPolyline
 90
       32
 70
   128
 43
0.0
 10
779.7901679809
 20
-72.4083662235
 10
781.5164612913
 20
-72.5291861462
 10
783.2321035153
 20
-72.3051757502
 10
784.8668560587
 20
-71.7455060475
 10
786.3537919603
 20
-70.8730899813
 10
787.6320358895
 20
-69.7236443681
 10
788.6492563898
 20
-68.3442276461
 10
789.3638083343
 20
-66.7913132982
 10
789.7464378824
 20
-65.1284778202
 10
789.7814801355
 20
-63.4237978918
 10
789.4675004597
 20
-61.7470633098
 10
788.8173532197
 20
-60.1669197848
 10
787.85765552
 20
-58.7480585784
 10
786.6276974971
 20
-57.5485680352
 10
785.1778337771
 20
-56.617555439
 10
783.5674219508
 20
-55.9931365547
 10
781.8623924679
 20
-55.7008751648
 10
780.1325494355
 20
-55.7527364852
 10
778.4487128307
 20
-56.146597307
 10
776.879819122
 20
-56.8663329222
 10
775.490099002
 20
-57.8824772699
 10
774.3364477759
 20
-59.1534292813
 10
773.4660960603
 20
-60.6271560316
 10
772.9146761568
 20
-62.2433229745
 10
772.704763261
 20
-63.9357640455
 10
772.8449512315
 20
-65.6351905083
 10
773.3295007563
 20
-67.2720276438
 10
774.138574321
 20
-68.7792631474
 10
775.2390483587
 20
-70.0951906205
 10
776.585869333
 20
-71.1659358377
 10
778.1238982351
 20
-71.947662364
 10
779.7901679809
 20
-72.4083662235
  0
LWPOLYLINE
  5
D8
330
1F
100
AcDbEntity
  8
0
  6
Continuous
 62
     7
370
    25
100
AcDbPolyline
 90
       32
 70
   128
 43
0.0
 10
-2020.2098320191
 20
-185.7063144104
 10
-2018.4835387087
 20
-185.8271343331
 10
-2016.7678964847
 20
-185.6031239371
 10
-2015.1331439413
 20
-185.0434542344
 10
-2013.6462080397
 20
-184.1710381682
 10
-2012.3679641105
 20
-183.021592555
 10
-2011.3507436102
 20
-181.642175833
 10
-2010.6361916657
 20
-180.0892614851
 10
-2010.2535621176
 20
-178.4264260071
 10
-2010.2185198645
 20
-176.7217460787
 10
-2010.5324995403
 20
-175.0450114967
 10
-2011.1826467803
 20
-173.4648679717
 10
-2012.14234448
 20
-172.0460067654
 10
-2013.3723025029
 20
-170.8465162222
 10
-2014.8221662229
 20
-169.9155036259
 10
-2016.4325780492
 20
-169.2910847416
 10
-2018.1376075321
 20
-168.9988233518
 10
-2019.8674505645
 20
-169.0506846721
 10
-2021.5512871693
 20
-169.444545494
 10
-2023.120180878
 20
-170.1642811091
 10
-2024.509900998
 20
-171.1804254568
 10
-2025.6635522241
 20
-172.4513774682
 10
-2026.5339039397
 20
-173.9251042185
 10
-2027.0853238432
 20
-175.5412711614
 10
-2027.295236739
 20
-177.2337122324
 10
-2027.1550487685
 20
-178.9331386952
 10
-2026.6704992437
 20
-180.5699758307
 10
-2025.861425679
 20
-182.0772113343
 10
-2024.7609516413
 20
-183.3931388074
 10
-2023.414130667
 20
-184.4638840246
 10
-2021.8761017649
 20
-185.2456105509
 10
-2020.2098320191
 20
-185.7063144104
  0
LWPOLYLINE
  5
D9
330
1F
100
AcDbEntity
  8
0
  6
Continuous
 62
     7
370
    25
100
AcDbPolyline
 90
       32
 70
   128
 43
0.0
 10
-370.2098320191
 20
-169.1023592846
 10
-371.8761017649
 20
-169.5630631442
 10
-373.414130667
 20
-170.3447896705
 10
-374.7609516413
 20
-171.4155348876
 10
-375.861425679
 20
-172.7314623607
 10
-376.6704992437
 20
-174.2386978643
 10
-377.1550487685
 20
-175.8755349998
 10
-377.295236739
 20
-177.5749614626
 10
-377.0853238432
 20
-179.2674025336
 10
-376.5339039397
 20
-180.8835694766
 10
-375.6635522241
 20
-182.3572962268
 10
-374.509900998
 20
-183.6282482382
 10
-373.120180878
 20
-184.6443925859
 10
-371.5512871693
 20
-185.3641282011
 10
-369.8674505645
 20
-185.757989023
 10
-368.1376075321
 20
-185.8098503433
 10
-366.4325780492
 20
-185.5175889535
 10
-364.8221662229
 20
-184.8931700692
 10
-363.3723025029
 20
-183.9621574729
 10
-362.14234448
 20
-182.7626669297
 10
-361.1826467803
 20
-181.3438057233
 10
-360.5324995403
 20
-179.7636621983
 10
-360.2185198645
 20
-178.0869276163
 10
-360.2535621176
 20
-176.3822476879
 10
-360.6361916657
 20
-174.7194122099
 10
-361.3507436102
 20
-173.166497862
 10
-362.3679641105
 20
-171.7870811401
 10
-363.6462080397
 20
-170.6376355268
 10
-365.1331439413
 20
-169.7652194606
 10
-366.7678964847
 20
-169.2055497579
 10
-368.4835387087
 20
-168.9815393619
 10
-370.2098320191
 20
-169.1023592846
  0
LWPOLYLINE
  5
DA
330
1F
100
AcDbEntity
  8
0
  6
Continuous
 62
     7
370
    25
100
AcDbPolyline
 90
       32
 70
   128
 43
0.0
 10
-370.2098320191
 20
-55.8044110977
 10
-371.8761017649
 20
-56.2651149572
 10
-373.414130667
 20
-57.0468414835
 10
-374.7609516413
 20
-58.1175867007
 10
-375.861425679
 20
-59.4335141738
 10
-376.6704992437
 20
-60.9407496774
 10
-377.1550487685
 20
-62.5775868129
 10
-377.295236739
 20
-64.2770132757
 10
-377.0853238432
 20
-65.9694543467
 10
-376.5339039397
 20
-67.5856212896
 10
-375.6635522241
 20
-69.0593480399
 10
-374.509900998
 20
-70.3303000513
 10
-373.120180878
 20
-71.346444399
 10
-371.5512871693
 20
-72.0661800141
 10
-369.8674505645
 20
-72.460040836
 10
-368.1376075321
 20
-72.5119021563
 10
-366.4325780492
 20
-72.2196407665
 10
-364.8221662229
 20
-71.5952218822
 10
-363.3723025029
 20
-70.6642092859
 10
-362.14234448
 20
-69.4647187427
 10
-361.1826467803
 20
-68.0458575364
 10
-360.5324995403
 20
-66.4657140114
 10
-360.2185198645
 20
-64.7889794294
 10
-360.2535621176
 20
-63.084299501
 10
-360.6361916657
 20
-61.421464023
 10
-361.3507436102
 20
-59.8685496751
 10
-362.3679641105
 20
-58.4891329531
 10
-363.6462080397
 20
-57.3396873399
 10
-365.1331439413
 20
-56.4672712737
 10
-366.7678964847
 20
-55.907601571
 10
-368.4835387087
 20
-55.683591175
 10
-370.2098320191
 20
-55.8044110977
  0
LWPOLYLINE
  5
DB
330
1F
100
AcDbEntity
  8
0
  6
Continuous
 62
     7
370
    25
100
AcDbPolyline
 90
       32
 70
   128
 43
0.0
 10
2429.7901679809
 20
-169.1023592846
 10
2428.1238982351
 20
-169.5630631442
 10
2426.585869333
 20
-170.3447896705
 10
2425.2390483587
 20
-171.4155348876
 10
2424.138574321
 20
-172.7314623607
 10
2423.3295007563
 20
-174.2386978643
 10
2422.8449512315
 20
-175.8755349998
 10
2422.704763261
 20
-177.5749614626
 10
2422.9146761568
 20
-179.2674025336
 10
2423.4660960603
 20
-180.8835694766
 10
2424.3364477759
 20
-182.3572962268
 10
2425.490099002
 20
-183.6282482382
 10
2426.879819122
 20
-184.6443925859
 10
2428.4487128307
 20
-185.3641282011
 10
2430.1325494355
 20
-185.757989023
 10
2431.8623924679
 20
-185.8098503433
 10
2433.5674219508
 20
-185.5175889535
 10
2435.1778337771
 20
-184.8931700692
 10
2436.6276974971
 20
-183.9621574729
 10
2437.85765552
 20
-182.7626669297
 10
2438.8173532197
 20
-181.3438057233
 10
2439.4675004597
 20
-179.7636621983
 10
2439.7814801355
 20
-178.0869276163
 10
2439.7464378824
 20
-176.3822476879
 10
2439.3638083343
 20
-174.7194122099
 10
2438.6492563898
 20
-173.166497862
 10
2437.6320358895
 20
-171.7870811401
 10
2436.3537919603
 20
-170.6376355268
 10
2434.8668560587
 20
-169.7652194606
 10
2433.2321035153
 20
-169.2055497579
 10
2431.5164612913
 20
-168.9815393619
 10
2429.7901679809
 20
-169.1023592846
  0
LWPOLYLINE
  5
DC
330
1F
100
AcDbEntity
  8
0
  6
Continuous
 62
     7
370
    25
100
AcDbPolyline
 90
       32
 70
   128
 43
0.0
 10
-2020.2098320191
 20
-72.4083662235
 10
-2018.4835387087
 20
-72.5291861462
 10
-2016.7678964847
 20
-72.3051757502
 10
-2015.1331439413
 20
-71.7455060475
 10
-2013.6462080397
 20
-70.8730899813
 10
-2012.3679641105
 20
-69.7236443681
 10
-2011.3507436102
 20
-68.3442276461
 10
-2010.6361916657
 20
-66.7913132982
 10
-2010.2535621176
 20
-65.1284778202
 10
-2010.2185198645
 20
-63.4237978918
 10
-2010.5324995403
 20
-61.7470633098
 10
-2011.1826467803
 20
-60.1669197848
 10
-2012.14234448
 20
-58.7480585784
 10
-2013.3723025029
 20
-57.5485680352
 10
-2014.8221662229
 20
-56.617555439
 10
-2016.4325780492
 20
-55.9931365547
 10
-2018.1376075321
 20
-55.7008751648
 10
-2019.8674505645
 20
-55.7527364852
 10
-2021.5512871693
 20
-56.146597307
 10
-2023.120180878
 20
-56.8663329222
 10
-2024.509900998
 20
-57.8824772699
 10
-2025.6635522241
 20
-59.1534292813
 10
-2026.5339039397
 20
-60.6271560316
 10
-2027.0853238432
 20
-62.2433229745
 10
-2027.295236739
 20
-63.9357640455
 10
-2027.1550487685
 20
-65.6351905083
 10
-2026.6704992437
 20
-67.2720276438
 10
-2025.861425679
 20
-68.7792631474
 10
-2024.7609516413
 20
-70.0951906205
 10
-2023.414130667
 20
-71.1659358377
 10
-2021.8761017649
 20
-71.947662364
 10
-2020.2098320191
 20
-72.4083662235
  0
LINE
  5
DD
330
1F
100
AcDbEntity
  8
0
  6
Continuous
 62
     7
370
    25
100
AcDbLine
 10
-1953.7437012835
 20
-34.2980973527
 30
0.0
 11
-1956.7437012835
 21
-37.2536960011
 31
0.0
  0
LINE
  5
DE
330
1F
100
AcDbEntity
  8
0
  6
Continuous
 62
     7
370
    25
100
AcDbLine
 10
-1956.7437012835
 20
-33.7838633302
 30
0.0
 11
-1956.7437012835
 21
-37.2536960011
 31
0.0
  0
LINE
  5
DF
330
1F
100
AcDbEntity
  8
0
  6
Continuous
 62
     7
370
    25
100
AcDbLine
 10
-1956.7437012835
 20
-33.7838633302
 30
0.0
 11
-1953.7437012835
 21
-34.2980973527
 31
0.0
  0
LINE
  5
E0
330
1F
100
AcDbEntity
  8
0
  6
Continuous
 62
     7
370
    25
100
AcDbLine
 10
-1956.7437012835
 20
-37.2536960011
 30
0.0
 11
-2040.7437012835
 21
-37.2536960011
 31
0.0
  0
LINE
  5
E1
330
1F
100
AcDbEntity
  8
0
  6
Continuous
 62
     7
370
    25
100
AcDbLine
 10
-2040.7437012835
 20
-37.2536960011
 30
0.0
 11
-2040.7437012835
 21
-33.7838633302
 31
0.0
  0
LINE
  5
E2
330
1F
100
AcDbEntity
  8
0
  6
Continuous
 62
     7
370
    25
100
AcDbLine
 10
-2040.7437012835
 20
-33.7838633302
 30
0.0
 11
-1956.7437012835
 21
-33.7838633302
 31
0.0
  0
LINE
  5
E3
330
1F
100
AcDbEntity
  8
0
  6
Continuous
 62
     7
370
    25
100
AcDbLine
 10
-2043.7437012835
 20
-34.2980973527
 30
0.0
 11
-2040.7437012835
 21
-33.7838633302
 31
0.0
  0
LINE
  5
E4
330
1F
100
AcDbEntity
  8
0
  6
Continuous
 62
     7
370
    25
100
AcDbLine
 10
-2040.7437012835
 20
-37.2536960011
 30
0.0
 11
-2043.7437012835
 21
-34.2980973527
 31
0.0
  0
LINE
  5
E5
330
1F
100
AcDbEntity
  8
0
  6
Continuous
 62
     7
370
    25
100
AcDbLine
 10
-2040.7437012835
 20
240.3709220226
 30
0.0
 11
-2040.7437012835
 21
228.4648331389
 31
0.0
  0
LINE
  5
E6
330
1F
100
AcDbEntity
  8
0
  6
Continuous
 62
     7
370
    25
100
AcDbLine
 10
-2040.7437012835
 20
108.4648331389
 30
0.0
 11
-2040.7437012835
 21
-33.7838633302
 31
0.0
  0
LINE
  5
E7
330
1F
100
AcDbEntity
  8
0
  6
Continuous
 62
     7
370
    25
100
AcDbLine
 10
-1956.7437012835
 20
-33.7838633302
 30
0.0
 11
-1956.7437012835
 21
108.4648331389
 31
0.0
  0
LINE
  5
E8
330
1F
100
AcDbEntity
  8
0
  6
Continuous
 62
     7
370
    25
100
AcDbLine
 10
-1956.7437012835
 20
228.4648331389
 30
0.0
 11
-1956.7437012835
 21
240.3709220226
 31
0.0
  0
LINE
  5
E9
330
1F
100
AcDbEntity
  8
0
  6
Continuous
 62
     7
370
    25
100
AcDbLine
 10
-2043.7437012835
 20
-34.2980973527
 30
0.0
 11
-2043.7437012835
 21
108.4648331389
 31
0.0
  0
LINE
  5
EA
330
1F
100
AcDbEntity
  8
0
  6
Continuous
 62
     7
370
    25
100
AcDbLine
 10
-2043.7437012835
 20
228.4648331389
 30
0.0
 11
-2043.7437012835
 21
243.326520671
 31
0.0
  0
LINE
  5
EB
330
1F
100
AcDbEntity
  8
0
  6
Continuous
 62
     7
370
    25
100
AcDbLine
 10
-1953.7437012835
 20
240.3709220226
 30
0.0
 11
-1953.7437012835
 21
228.4648331389
 31
0.0
  0
LINE
  5
EC
330
1F
100
AcDbEntity
  8
0
  6
Continuous
 62
     7
370
    25
100
AcDbLine
 10
-1953.7437012835
 20
108.4648331389
 30
0.0
 11
-1953.7437012835
 21
-34.2980973527
 31
0.0
  0
LINE
  5
ED
330
1F
100
AcDbEntity
  8
0
  6
Continuous
 62
     7
370
    25
100
AcDbLine
 10
-1953.7437012835
 20
-34.2980973527
 30
0.0
 11
-1953.7437012835
 21
-40.1260829405
 31
0.0
  0
LINE
  5
EE
330
1F
100
AcDbEntity
  8
0
  6
Continuous
 62
     7
370
    25
100
AcDbLine
 10
-1953.7437012835
 20
-40.1260829405
 30
0.0
 11
-1956.7437012835
 21
-43.0816815888
 31
0.0
  0
LINE
  5
EF
330
1F
100
AcDbEntity
  8
0
  6
Continuous
 62
     7
370
    25
100
AcDbLine
 10
-1956.7437012835
 20
-43.0816815888
 30
0.0
 11
-1956.7437012835
 21
-37.2536960011
 31
0.0
  0
LINE
  5
F0
330
1F
100
AcDbEntity
  8
0
  6
Continuous
 62
     7
370
    25
100
AcDbLine
 10
-2040.7437012835
 20
-37.2536960011
 30
0.0
 11
-2040.7437012835
 21
-43.0816815888
 31
0.0
  0
LINE
  5
F1
330
1F
100
AcDbEntity
  8
0
  6
Continuous
 62
     7
370
    25
100
AcDbLine
 10
-2040.7437012835
 20
-43.0816815888
 30
0.0
 11
-2043.7437012835
 21
-40.1260829405
 31
0.0
  0
LINE
  5
F2
330
1F
100
AcDbEntity
  8
0
  6
Continuous
 62
     7
370
    25
100
AcDbLine
 10
-2043.7437012835
 20
-40.1260829405
 30
0.0
 11
-2043.7437012835
 21
-34.2980973527
 31
0.0
  0
LINE
  5
F3
330
1F
100
AcDbEntity
  8
0
  6
Continuous
 62
     7
370
    25
100
AcDbLine
 10
-2040.7437012835
 20
-43.0816815888
 30
0.0
 11
-1956.7437012835
 21
-43.0816815888
 31
0.0
  0
LINE
  5
F4
330
1F
100
AcDbEntity
  8
0
  6
Continuous
 62
     7
370
    25
100
AcDbLine
 10
-343.7437012835
 20
-34.2980973527
 30
0.0
 11
-346.7437012835
 21
-37.2536960011
 31
0.0
  0
LINE
  5
F5
330
1F
100
AcDbEntity
  8
0
  6
Continuous
 62
     7
370
    25
100
AcDbLine
 10
-346.7437012835
 20
-33.7838633302
 30
0.0
 11
-346.7437012835
 21
-37.2536960011
 31
0.0
  0
LINE
  5
F6
330
1F
100
AcDbEntity
  8
0
  6
Continuous
 62
     7
370
    25
100
AcDbLine
 10
-343.7437012835
 20
-34.2980973527
 30
0.0
 11
-346.7437012835
 21
-33.7838633302
 31
0.0
  0
LINE
  5
F7
330
1F
100
AcDbEntity
  8
0
  6
Continuous
 62
     7
370
    25
100
AcDbLine
 10
-430.7437012835
 20
-37.2536960011
 30
0.0
 11
-433.7437012835
 21
-34.2980973527
 31
0.0
  0
LINE
  5
F8
330
1F
100
AcDbEntity
  8
0
  6
Continuous
 62
     7
370
    25
100
AcDbLine
 10
-430.7437012835
 20
-33.7838633302
 30
0.0
 11
-433.7437012835
 21
-34.2980973527
 31
0.0
  0
LINE
  5
F9
330
1F
100
AcDbEntity
  8
0
  6
Continuous
 62
     7
370
    25
100
AcDbLine
 10
-430.7437012835
 20
-37.2536960011
 30
0.0
 11
-430.7437012835
 21
-33.7838633302
 31
0.0
  0
LINE
  5
FA
330
1F
100
AcDbEntity
  8
0
  6
Continuous
 62
     7
370
    25
100
AcDbLine
 10
-346.7437012835
 20
-37.2536960011
 30
0.0
 11
-430.7437012835
 21
-37.2536960011
 31
0.0
  0
LINE
  5
FB
330
1F
100
AcDbEntity
  8
0
  6
Continuous
 62
     7
370
    25
100
AcDbLine
 10
-430.7437012835
 20
-33.7838633302
 30
0.0
 11
-346.7437012835
 21
-33.7838633302
 31
0.0
  0
LINE
  5
FC
330
1F
100
AcDbEntity
  8
0
  6
Continuous
 62
     7
370
    25
100
AcDbLine
 10
-430.7437012835
 20
240.3709220226
 30
0.0
 11
-430.7437012835
 21
228.4648331389
 31
0.0
  0
LINE
  5
FD
330
1F
100
AcDbEntity
  8
0
  6
Continuous
 62
     7
370
    25
100
AcDbLine
 10
-430.7437012835
 20
108.4648331389
 30
0.0
 11
-430.7437012835
 21
-33.7838633302
 31
0.0
  0
LINE
  5
FE
330
1F
100
AcDbEntity
  8
0
  6
Continuous
 62
     7
370
    25
100
AcDbLine
 10
-433.7437012835
 20
-34.2980973527
 30
0.0
 11
-433.7437012835
 21
108.4648331389
 31
0.0
  0
LINE
  5
FF
330
1F
100
AcDbEntity
  8
0
  6
Continuous
 62
     7
370
    25
100
AcDbLine
 10
-433.7437012835
 20
228.4648331389
 30
0.0
 11
-433.7437012835
 21
240.3709220226
 31
0.0
  0
LINE
  5
100
330
1F
100
AcDbEntity
  8
0
  6
Continuous
 62
     7
370
    25
100
AcDbLine
 10
-343.7437012835
 20
243.326520671
 30
0.0
 11
-343.7437012835
 21
228.4648331389
 31
0.0
  0
LINE
  5
101
330
1F
100
AcDbEntity
  8
0
  6
Continuous
 62
     7
370
    25
100
AcDbLine
 10
-343.7437012835
 20
108.4648331389
 30
0.0
 11
-343.7437012835
 21
-34.2980973527
 31
0.0
  0
LINE
  5
102
330
1F
100
AcDbEntity
  8
0
  6
Continuous
 62
     7
370
    25
100
AcDbLine
 10
-346.7437012835
 20
-33.7838633302
 30
0.0
 11
-346.7437012835
 21
108.4648331389
 31
0.0
  0
LINE
  5
103
330
1F
100
AcDbEntity
  8
0
  6
Continuous
 62
     7
370
    25
100
AcDbLine
 10
-346.7437012835
 20
228.4648331389
 30
0.0
 11
-346.7437012835
 21
240.3709220226
 31
0.0
  0
LINE
  5
104
330
1F
100
AcDbEntity
  8
0
  6
Continuous
 62
     7
370
    25
100
AcDbLine
 10
-346.7437012835
 20
-43.0816815888
 30
0.0
 11
-346.7437012835
 21
-37.2536960011
 31
0.0
  0
LINE
  5
105
330
1F
100
AcDbEntity
  8
0
  6
Continuous
 62
     7
370
    25
100
AcDbLine
 10
-430.7437012835
 20
-43.0816815888
 30
0.0
 11
-346.7437012835
 21
-43.0816815888
 31
0.0
  0
LINE
  5
106
330
1F
100
AcDbEntity
  8
0
  6
Continuous
 62
     7
370
    25
100
AcDbLine
 10
-430.7437012835
 20
-37.2536960011
 30
0.0
 11
-430.7437012835
 21
-43.0816815888
 31
0.0
  0
LINE
  5
107
330
1F
100
AcDbEntity
  8
0
  6
Continuous
 62
     7
370
    25
100
AcDbLine
 10
-343.7437012835
 20
-34.2980973527
 30
0.0
 11
-343.7437012835
 21
-40.1260829405
 31
0.0
  0
LINE
  5
108
330
1F
100
AcDbEntity
  8
0
  6
Continuous
 62
     7
370
    25
100
AcDbLine
 10
-343.7437012835
 20
-40.1260829405
 30
0.0
 11
-346.7437012835
 21
-43.0816815888
 31
0.0
  0
LINE
  5
109
330
1F
100
AcDbEntity
  8
0
  6
Continuous
 62
     7
370
    25
100
AcDbLine
 10
-430.7437012835
 20
-43.0816815888
 30
0.0
 11
-433.7437012835
 21
-40.1260829405
 31
0.0
  0
LINE
  5
10A
330
1F
100
AcDbEntity
  8
0
  6
Continuous
 62
     7
370
    25
100
AcDbLine
 10
-433.7437012835
 20
-40.1260829405
 30
0.0
 11
-433.7437012835
 21
-34.2980973527
 31
0.0
  0
LINE
  5
10B
330
1F
100
AcDbEntity
  8
0
  6
Continuous
 62
     7
370
    25
100
AcDbLine
 10
846.2562987165
 20
-34.2980973527
 30
0.0
 11
843.2562987165
 21
-37.2536960011
 31
0.0
  0
LINE
  5
10C
330
1F
100
AcDbEntity
  8
0
  6
Continuous
 62
     7
370
    25
100
AcDbLine
 10
843.2562987165
 20
-33.7838633302
 30
0.0
 11
843.2562987165
 21
-37.2536960011
 31
0.0
  0
LINE
  5
10D
330
1F
100
AcDbEntity
  8
0
  6
Continuous
 62
     7
370
    25
100
AcDbLine
 10
843.2562987165
 20
-33.7838633302
 30
0.0
 11
846.2562987165
 21
-34.2980973527
 31
0.0
  0
LINE
  5
10E
330
1F
100
AcDbEntity
  8
0
  6
Continuous
 62
     7
370
    25
100
AcDbLine
 10
843.2562987165
 20
-37.2536960011
 30
0.0
 11
759.2562987165
 21
-37.2536960011
 31
0.0
  0
LINE
  5
10F
330
1F
100
AcDbEntity
  8
0
  6
Continuous
 62
     7
370
    25
100
AcDbLine
 10
759.2562987165
 20
-37.2536960011
 30
0.0
 11
759.2562987165
 21
-33.7838633302
 31
0.0
  0
LINE
  5
110
330
1F
100
AcDbEntity
  8
0
  6
Continuous
 62
     7
370
    25
100
AcDbLine
 10
759.2562987165
 20
-33.7838633302
 30
0.0
 11
843.2562987165
 21
-33.7838633302
 31
0.0
  0
LINE
  5
111
330
1F
100
AcDbEntity
  8
0
  6
Continuous
 62
     7
370
    25
100
AcDbLine
 10
756.2562987165
 20
-34.2980973527
 30
0.0
 11
759.2562987165
 21
-33.7838633302
 31
0.0
  0
LINE
  5
112
330
1F
100
AcDbEntity
  8
0
  6
Continuous
 62
     7
370
    25
100
AcDbLine
 10
759.2562987165
 20
-37.2536960011
 30
0.0
 11
756.2562987165
 21
-34.2980973527
 31
0.0
  0
LINE
  5
113
330
1F
100
AcDbEntity
  8
0
  6
Continuous
 62
     7
370
    25
100
AcDbLine
 10
759.2562987165
 20
240.3709220226
 30
0.0
 11
759.2562987165
 21
228.4648331389
 31
0.0
  0
LINE
  5
114
330
1F
100
AcDbEntity
  8
0
  6
Continuous
 62
     7
370
    25
100
AcDbLine
 10
759.2562987165
 20
108.4648331389
 30
0.0
 11
759.2562987165
 21
-33.7838633302
 31
0.0
  0
LINE
  5
115
330
1F
100
AcDbEntity
  8
0
  6
Continuous
 62
     7
370
    25
100
AcDbLine
 10
843.2562987165
 20
-33.7838633302
 30
0.0
 11
843.2562987165
 21
108.4648331389
 31
0.0
  0
LINE
  5
116
330
1F
100
AcDbEntity
  8
0
  6
Continuous
 62
     7
370
    25
100
AcDbLine
 10
843.2562987165
 20
228.4648331389
 30
0.0
 11
843.2562987165
 21
240.3709220226
 31
0.0
  0
LINE
  5
117
330
1F
100
AcDbEntity
  8
0
  6
Continuous
 62
     7
370
    25
100
AcDbLine
 10
846.2562987165
 20
240.3709220226
 30
0.0
 11
846.2562987165
 21
228.4648331389
 31
0.0
  0
LINE
  5
118
330
1F
100
AcDbEntity
  8
0
  6
Continuous
 62
     7
370
    25
100
AcDbLine
 10
846.2562987165
 20
108.4648331389
 30
0.0
 11
846.2562987165
 21
-34.2980973527
 31
0.0
  0
LINE
  5
119
330
1F
100
AcDbEntity
  8
0
  6
Continuous
 62
     7
370
    25
100
AcDbLine
 10
756.2562987165
 20
-34.2980973527
 30
0.0
 11
756.2562987165
 21
108.4648331389
 31
0.0
  0
LINE
  5
11A
330
1F
100
AcDbEntity
  8
0
  6
Continuous
 62
     7
370
    25
100
AcDbLine
 10
756.2562987165
 20
228.4648331389
 30
0.0
 11
756.2562987165
 21
243.326520671
 31
0.0
  0
LINE
  5
11B
330
1F
100
AcDbEntity
  8
0
  6
Continuous
 62
     7
370
    25
100
AcDbLine
 10
759.2562987165
 20
-43.0816815888
 30
0.0
 11
843.2562987165
 21
-43.0816815888
 31
0.0
  0
LINE
  5
11C
330
1F
100
AcDbEntity
  8
0
  6
Continuous
 62
     7
370
    25
100
AcDbLine
 10
759.2562987165
 20
-37.2536960011
 30
0.0
 11
759.2562987165
 21
-43.0816815888
 31
0.0
  0
LINE
  5
11D
330
1F
100
AcDbEntity
  8
0
  6
Continuous
 62
     7
370
    25
100
AcDbLine
 10
843.2562987165
 20
-43.0816815888
 30
0.0
 11
843.2562987165
 21
-37.2536960011
 31
0.0
  0
LINE
  5
11E
330
1F
100
AcDbEntity
  8
0
  6
Continuous
 62
     7
370
    25
100
AcDbLine
 10
846.2562987165
 20
-34.2980973527
 30
0.0
 11
846.2562987165
 21
-40.1260829405
 31
0.0
  0
LINE
  5
11F
330
1F
100
AcDbEntity
  8
0
  6
Continuous
 62
     7
370
    25
100
AcDbLine
 10
846.2562987165
 20
-40.1260829405
 30
0.0
 11
843.2562987165
 21
-43.0816815888
 31
0.0
  0
LINE
  5
120
330
1F
100
AcDbEntity
  8
0
  6
Continuous
 62
     7
370
    25
100
AcDbLine
 10
759.2562987165
 20
-43.0816815888
 30
0.0
 11
756.2562987165
 21
-40.1260829405
 31
0.0
  0
LINE
  5
121
330
1F
100
AcDbEntity
  8
0
  6
Continuous
 62
     7
370
    25
100
AcDbLine
 10
756.2562987165
 20
-40.1260829405
 30
0.0
 11
756.2562987165
 21
-34.2980973527
 31
0.0
  0
LINE
  5
122
330
1F
100
AcDbEntity
  8
0
  6
Continuous
 62
     7
370
    25
100
AcDbLine
 10
2456.2562987165
 20
-34.2980973527
 30
0.0
 11
2453.2562987165
 21
-37.2536960011
 31
0.0
  0
LINE
  5
123
330
1F
100
AcDbEntity
  8
0
  6
Continuous
 62
     7
370
    25
100
AcDbLine
 10
2453.2562987165
 20
-33.7838633302
 30
0.0
 11
2453.2562987165
 21
-37.2536960011
 31
0.0
  0
LINE
  5
124
330
1F
100
AcDbEntity
  8
0
  6
Continuous
 62
     7
370
    25
100
AcDbLine
 10
2456.2562987165
 20
-34.2980973527
 30
0.0
 11
2453.2562987165
 21
-33.7838633302
 31
0.0
  0
LINE
  5
125
330
1F
100
AcDbEntity
  8
0
  6
Continuous
 62
     7
370
    25
100
AcDbLine
 10
2453.2562987165
 20
-37.2536960011
 30
0.0
 11
2369.2562987165
 21
-37.2536960011
 31
0.0
  0
LINE
  5
126
330
1F
100
AcDbEntity
  8
0
  6
Continuous
 62
     7
370
    25
100
AcDbLine
 10
2369.2562987165
 20
-37.2536960011
 30
0.0
 11
2369.2562987165
 21
-33.7838633302
 31
0.0
  0
LINE
  5
127
330
1F
100
AcDbEntity
  8
0
  6
Continuous
 62
     7
370
    25
100
AcDbLine
 10
2369.2562987165
 20
-33.7838633302
 30
0.0
 11
2453.2562987165
 21
-33.7838633302
 31
0.0
  0
LINE
  5
128
330
1F
100
AcDbEntity
  8
0
  6
Continuous
 62
     7
370
    25
100
AcDbLine
 10
2369.2562987165
 20
-37.2536960011
 30
0.0
 11
2366.2562987165
 21
-34.2980973527
 31
0.0
  0
LINE
  5
129
330
1F
100
AcDbEntity
  8
0
  6
Continuous
 62
     7
370
    25
100
AcDbLine
 10
2369.2562987165
 20
-33.7838633302
 30
0.0
 11
2366.2562987165
 21
-34.2980973527
 31
0.0
  0
LINE
  5
12A
330
1F
100
AcDbEntity
  8
0
  6
Continuous
 62
     7
370
    25
100
AcDbLine
 10
2369.2562987165
 20
240.3709220226
 30
0.0
 11
2369.2562987165
 21
228.4648331389
 31
0.0
  0
LINE
  5
12B
330
1F
100
AcDbEntity
  8
0
  6
Continuous
 62
     7
370
    25
100
AcDbLine
 10
2369.2562987165
 20
108.4648331389
 30
0.0
 11
2369.2562987165
 21
-33.7838633302
 31
0.0
  0
LINE
  5
12C
330
1F
100
AcDbEntity
  8
0
  6
Continuous
 62
     7
370
    25
100
AcDbLine
 10
2366.2562987165
 20
-34.2980973527
 30
0.0
 11
2366.2562987165
 21
108.4648331389
 31
0.0
  0
LINE
  5
12D
330
1F
100
AcDbEntity
  8
0
  6
Continuous
 62
     7
370
    25
100
AcDbLine
 10
2366.2562987165
 20
228.4648331389
 30
0.0
 11
2366.2562987165
 21
240.3709220226
 31
0.0
  0
LINE
  5
12E
330
1F
100
AcDbEntity
  8
0
  6
Continuous
 62
     7
370
    25
100
AcDbLine
 10
2453.2562987165
 20
-33.7838633302
 30
0.0
 11
2453.2562987165
 21
108.4648331389
 31
0.0
  0
LINE
  5
12F
330
1F
100
AcDbEntity
  8
0
  6
Continuous
 62
     7
370
    25
100
AcDbLine
 10
2453.2562987165
 20
228.4648331389
 30
0.0
 11
2453.2562987165
 21
240.3709220226
 31
0.0
  0
LINE
  5
130
330
1F
100
AcDbEntity
  8
0
  6
Continuous
 62
     7
370
    25
100
AcDbLine
 10
2456.2562987165
 20
243.326520671
 30
0.0
 11
2456.2562987165
 21
228.4648331389
 31
0.0
  0
LINE
  5
131
330
1F
100
AcDbEntity
  8
0
  6
Continuous
 62
     7
370
    25
100
AcDbLine
 10
2456.2562987165
 20
108.4648331389
 30
0.0
 11
2456.2562987165
 21
-34.2980973527
 31
0.0
  0
LINE
  5
132
330
1F
100
AcDbEntity
  8
0
  6
Continuous
 62
     7
370
    25
100
AcDbLine
 10
2453.2562987165
 20
-43.0816815888
 30
0.0
 11
2453.2562987165
 21
-37.2536960011
 31
0.0
  0
LINE
  5
133
330
1F
100
AcDbEntity
  8
0
  6
Continuous
 62
     7
370
    25
100
AcDbLine
 10
2369.2562987165
 20
-43.0816815888
 30
0.0
 11
2453.2562987165
 21
-43.0816815888
 31
0.0
  0
LINE
  5
134
330
1F
100
AcDbEntity
  8
0
  6
Continuous
 62
     7
370
    25
100
AcDbLine
 10
2369.2562987165
 20
-37.2536960011
 30
0.0
 11
2369.2562987165
 21
-43.0816815888
 31
0.0
  0
LINE
  5
135
330
1F
100
AcDbEntity
  8
0
  6
Continuous
 62
     7
370
    25
100
AcDbLine
 10
2369.2562987165
 20
-43.0816815888
 30
0.0
 11
2366.2562987165
 21
-40.1260829405
 31
0.0
  0
LINE
  5
136
330
1F
100
AcDbEntity
  8
0
  6
Continuous
 62
     7
370
    25
100
AcDbLine
 10
2366.2562987165
 20
-40.1260829405
 30
0.0
 11
2366.2562987165
 21
-34.2980973527
 31
0.0
  0
LINE
  5
137
330
1F
100
AcDbEntity
  8
0
  6
Continuous
 62
     7
370
    25
100
AcDbLine
 10
2456.2562987165
 20
-34.2980973527
 30
0.0
 11
2456.2562987165
 21
-40.1260829405
 31
0.0
  0
LINE
  5
138
330
1F
100
AcDbEntity
  8
0
  6
Continuous
 62
     7
370
    25
100
AcDbLine
 10
2456.2562987165
 20
-40.1260829405
 30
0.0
 11
2453.2562987165
 21
-43.0816815888
 31
0.0
  0
LINE
  5
139
330
1F
100
AcDbEntity
  8
0
  6
Continuous
 62
     7
370
    25
100
AcDbLine
 10
-2009.2437012835
 20
-229.0551748045
 30
0.0
 11
-2028.2437012835
 21
-229.0551748045
 31
0.0
  0
LINE
  5
13A
330
1F
100
AcDbEntity
  8
0
  6
Continuous
 62
     7
370
    25
100
AcDbLine
 10
-2009.2437012835
 20
-236.5972738005
 30
0.0
 11
-2009.2437012835
 21
-229.0551748045
 31
0.0
  0
LINE
  5
13B
330
1F
100
AcDbEntity
  8
0
  6
Continuous
 62
     7
370
    25
100
AcDbLine
 10
-2006.2437012835
 20
-228.4207865794
 30
0.0
 11
-2006.2437012835
 21
-233.8130864929
 31
0.0
  0
ELLIPSE
  5
13C
330
1F
100
AcDbEntity
  8
0
  6
Continuous
 62
     7
370
    25
100
AcDbEllipse
 10
-2009.2437012835
 20
-233.6416751521
 30
0.0
 11
2.398597461442023
 21
-1.912249004648913
 31
0.0
210
0.0
220
0.0
230
1.0
 40
0.9422771463
 41
0.1698051437037212
 42
0.6442798926235321
  0
LINE
  5
13D
330
1F
100
AcDbEntity
  8
0
  6
Continuous
 62
     7
370
    25
100
AcDbLine
 10
-2028.2437012835
 20
-229.0551748045
 30
0.0
 11
-2028.2437012835
 21
-236.5972738005
 31
0.0
  0
ELLIPSE
  5
13E
330
1F
100
AcDbEntity
  8
0
  6
Continuous
 62
     7
370
    25
100
AcDbEllipse
 10
-2028.2437012835
 20
-233.6416751521
 30
0.0
 11
2.398597461442023
 21
1.912249004648913
 31
0.0
210
0.0
220
0.0
230
1.0
 40
0.9422771463
 41
2.497312760966266
 42
4.068109087761118
  0
LINE
  5
13F
330
1F
100
AcDbEntity
  8
0
  6
Continuous
 62
     7
370
    25
100
AcDbLine
 10
-2031.2437012835
 20
-233.8130864929
 30
0.0
 11
-2031.2437012835
 21
-228.4207865794
 31
0.0
  0
LINE
  5
140
330
1F
100
AcDbEntity
  8
0
  6
Continuous
 62
     7
370
    25
100
AcDbLine
 10
-2028.2437012835
 20
-236.5972738005
 30
0.0
 11
-2009.2437012835
 21
-236.5972738005
 31
0.0
  0
LINE
  5
141
330
1F
100
AcDbEntity
  8
0
  6
Continuous
 62
     7
370
    25
100
AcDbLine
 10
2440.7562987165
 20
-229.0551748045
 30
0.0
 11
2421.7562987165
 21
-229.0551748045
 31
0.0
  0
LINE
  5
142
330
1F
100
AcDbEntity
  8
0
  6
Continuous
 62
     7
370
    25
100
AcDbLine
 10
2421.7562987165
 20
-229.0551748045
 30
0.0
 11
2421.7562987165
 21
-236.5972738005
 31
0.0
  0
ELLIPSE
  5
143
330
1F
100
AcDbEntity
  8
0
  6
Continuous
 62
     7
370
    25
100
AcDbEllipse
 10
2421.7562987165
 20
-233.6416751521
 30
0.0
 11
2.398597461442022
 21
1.912249004648942
 31
0.0
210
0.0
220
0.0
230
1.0
 40
0.9422771463
 41
2.497312760966294
 42
4.068109087761066
  0
LINE
  5
144
330
1F
100
AcDbEntity
  8
0
  6
Continuous
 62
     7
370
    25
100
AcDbLine
 10
2418.7562987165
 20
-233.8130864929
 30
0.0
 11
2418.7562987165
 21
-228.4207865794
 31
0.0
  0
LINE
  5
145
330
1F
100
AcDbEntity
  8
0
  6
Continuous
 62
     7
370
    25
100
AcDbLine
 10
2440.7562987165
 20
-236.5972738005
 30
0.0
 11
2440.7562987165
 21
-229.0551748045
 31
0.0
  0
LINE
  5
146
330
1F
100
AcDbEntity
  8
0
  6
Continuous
 62
     7
370
    25
100
AcDbLine
 10
2443.7562987165
 20
-228.4207865794
 30
0.0
 11
2443.7562987165
 21
-233.8130864929
 31
0.0
  0
ELLIPSE
  5
147
330
1F
100
AcDbEntity
  8
0
  6
Continuous
 62
     7
370
    25
100
AcDbEllipse
 10
2440.7562987165
 20
-233.6416751521
 30
0.0
 11
2.398597461442023
 21
-1.912249004648913
 31
0.0
210
0.0
220
0.0
230
1.0
 40
0.9422771463
 41
0.1698051437037212
 42
0.6442798926235278
  0
LINE
  5
148
330
1F
100
AcDbEntity
  8
0
  6
Continuous
 62
     7
370
    25
100
AcDbLine
 10
2421.7562987165
 20
-236.5972738005
 30
0.0
 11
2440.7562987165
 21
-236.5972738005
 31
0.0
  0
LINE
  5
149
330
1F
100
AcDbEntity
  8
0
  6
Continuous
 62
     7
370
    25
100
AcDbLine
 10
-359.2437012835
 20
-229.0551748045
 30
0.0
 11
-378.2437012835
 21
-229.0551748045
 31
0.0
  0
LINE
  5
14A
330
1F
100
AcDbEntity
  8
0
  6
Continuous
 62
     7
370
    25
100
AcDbLine
 10
-378.2437012835
 20
-229.0551748045
 30
0.0
 11
-378.2437012835
 21
-236.5972738005
 31
0.0
  0
ELLIPSE
  5
14B
330
1F
100
AcDbEntity
  8
0
  6
Continuous
 62
     7
370
    25
100
AcDbEllipse
 10
-378.2437012835
 20
-233.6416751521
 30
0.0
 11
2.398597461442251
 21
1.912249004648942
 31
0.0
210
0.0
220
0.0
230
1.0
 40
0.9422771463
 41
2.497312760966269
 42
4.068109087761192
  0
LINE
  5
14C
330
1F
100
AcDbEntity
  8
0
  6
Continuous
 62
     7
370
    25
100
AcDbLine
 10
-381.2437012835
 20
-233.8130864929
 30
0.0
 11
-381.2437012835
 21
-228.4207865794
 31
0.0
  0
LINE
  5
14D
330
1F
100
AcDbEntity
  8
0
  6
Continuous
 62
     7
370
    25
100
AcDbLine
 10
-359.2437012835
 20
-236.5972738005
 30
0.0
 11
-359.2437012835
 21
-229.0551748045
 31
0.0
  0
LINE
  5
14E
330
1F
100
AcDbEntity
  8
0
  6
Continuous
 62
     7
370
    25
100
AcDbLine
 10
-356.2437012835
 20
-228.4207865794
 30
0.0
 11
-356.2437012835
 21
-233.8130864929
 31
0.0
  0
ELLIPSE
  5
14F
330
1F
100
AcDbEntity
  8
0
  6
Continuous
 62
     7
370
    25
100
AcDbEllipse
 10
-359.2437012835
 20
-233.6416751521
 30
0.0
 11
2.398597461442193
 21
-1.912249004648913
 31
0.0
210
0.0
220
0.0
230
1.0
 40
0.9422771463
 41
0.169805143703692
 42
0.644279892623517
  0
LINE
  5
150
330
1F
100
AcDbEntity
  8
0
  6
Continuous
 62
     7
370
    25
100
AcDbLine
 10
-378.2437012835
 20
-236.5972738005
 30
0.0
 11
-359.2437012835
 21
-236.5972738005
 31
0.0
  0
LINE
  5
151
330
1F
100
AcDbEntity
  8
0
  6
Continuous
 62
     7
370
    25
100
AcDbLine
 10
790.7562987165
 20
-229.0551748045
 30
0.0
 11
771.7562987165
 21
-229.0551748045
 31
0.0
  0
LINE
  5
152
330
1F
100
AcDbEntity
  8
0
  6
Continuous
 62
     7
370
    25
100
AcDbLine
 10
790.7562987165
 20
-236.5972738005
 30
0.0
 11
790.7562987165
 21
-229.0551748045
 31
0.0
  0
LINE
  5
153
330
1F
100
AcDbEntity
  8
0
  6
Continuous
 62
     7
370
    25
100
AcDbLine
 10
793.7562987165
 20
-228.4207865794
 30
0.0
 11
793.7562987165
 21
-233.8130864929
 31
0.0
  0
ELLIPSE
  5
154
330
1F
100
AcDbEntity
  8
0
  6
Continuous
 62
     7
370
    25
100
AcDbEllipse
 10
790.7562987165
 20
-233.6416751521
 30
0.0
 11
2.39859746144225
 21
-1.912249004648914
 31
0.0
210
0.0
220
0.0
230
1.0
 40
0.9422771463
 41
0.169805143703696
 42
0.6442798926235264
  0
LINE
  5
155
330
1F
100
AcDbEntity
  8
0
  6
Continuous
 62
     7
370
    25
100
AcDbLine
 10
771.7562987165
 20
-229.0551748045
 30
0.0
 11
771.7562987165
 21
-236.5972738005
 31
0.0
  0
ELLIPSE
  5
156
330
1F
100
AcDbEntity
  8
0
  6
Continuous
 62
     7
370
    25
100
AcDbEllipse
 10
771.7562987165
 20
-233.6416751521
 30
0.0
 11
2.398597461442251
 21
1.912249004648942
 31
0.0
210
0.0
220
0.0
230
1.0
 40
0.9422771463
 41
2.497312760966263
 42
4.068109087761198
  0
LINE
  5
157
330
1F
100
AcDbEntity
  8
0
  6
Continuous
 62
     7
370
    25
100
AcDbLine
 10
768.7562987165
 20
-233.8130864929
 30
0.0
 11
768.7562987165
 21
-228.4207865794
 31
0.0
  0
LINE
  5
158
330
1F
100
AcDbEntity
  8
0
  6
Continuous
 62
     7
370
    25
100
AcDbLine
 10
771.7562987165
 20
-236.5972738005
 30
0.0
 11
790.7562987165
 21
-236.5972738005
 31
0.0
  0
LINE
  5
159
330
1F
100
AcDbEntity
  8
0
  6
Continuous
 62
     7
370
    25
100
AcDbLine
 10
-433.7437012835
 20
4.0030953822
 30
0.0
 11
-1953.7437012835
 21
4.0030953822
 31
0.0
  0
LINE
  5
15A
330
1F
100
AcDbEntity
  8
0
  6
Continuous
 62
     7
370
    25
100
AcDbLine
 10
-1953.7437012835
 20
7.472928053
 30
0.0
 11
-433.7437012835
 21
7.472928053
 31
0.0
  0
LINE
  5
15B
330
1F
100
AcDbEntity
  8
0
  6
Continuous
 62
     7
370
    25
100
AcDbLine
 10
-433.7437012835
 20
90.2296902069
 30
0.0
 11
-1953.7437012835
 21
90.2296902069
 31
0.0
  0
LINE
  5
15C
330
1F
100
AcDbEntity
  8
0
  6
Continuous
 62
     7
370
    25
100
AcDbLine
 10
-1953.7437012835
 20
-1.8248902056
 30
0.0
 11
-433.7437012835
 21
-1.8248902056
 31
0.0
  0
LINE
  5
15D
330
1F
100
AcDbEntity
  8
0
  6
Continuous
 62
     7
370
    25
100
AcDbLine
 10
-1953.7437012835
 20
92.6710548328
 30
0.0
 11
-433.7437012835
 21
92.6710548328
 31
0.0
  0
LINE
  5
15E
330
1F
100
AcDbEntity
  8
0
  6
Continuous
 62
     7
370
    25
100
AcDbLine
 10
2453.2562987165
 20
294.1940830391
 30
0.0
 11
2443.7562987165
 21
294.1940830391
 31
0.0
  0
LINE
  5
15F
330
1F
100
AcDbEntity
  8
0
  6
Continuous
 62
     7
370
    25
100
AcDbLine
 10
2418.7562987165
 20
294.1940830391
 30
0.0
 11
793.7562987165
 21
294.1940830391
 31
0.0
  0
LINE
  5
160
330
1F
100
AcDbEntity
  8
0
  6
Continuous
 62
     7
370
    25
100
AcDbLine
 10
768.7562987165
 20
294.1940830391
 30
0.0
 11
759.2562987165
 21
294.1940830391
 31
0.0
  0
LINE
  5
161
330
1F
100
AcDbEntity
  8
0
  6
Continuous
 62
     7
370
    25
100
AcDbLine
 10
759.2562987165
 20
294.1940830391
 30
0.0
 11
759.2562987165
 21
297.6639157099
 31
0.0
  0
LINE
  5
162
330
1F
100
AcDbEntity
  8
0
  6
Continuous
 62
     7
370
    25
100
AcDbLine
 10
759.2562987165
 20
297.6639157099
 30
0.0
 11
768.7562987165
 21
297.6639157099
 31
0.0
  0
LINE
  5
163
330
1F
100
AcDbEntity
  8
0
  6
Continuous
 62
     7
370
    25
100
AcDbLine
 10
793.7562987165
 20
297.6639157099
 30
0.0
 11
2418.7562987165
 21
297.6639157099
 31
0.0
  0
LINE
  5
164
330
1F
100
AcDbEntity
  8
0
  6
Continuous
 62
     7
370
    25
100
AcDbLine
 10
2443.7562987165
 20
297.6639157099
 30
0.0
 11
2453.2562987165
 21
297.6639157099
 31
0.0
  0
LINE
  5
165
330
1F
100
AcDbEntity
  8
0
  6
Continuous
 62
     7
370
    25
100
AcDbLine
 10
2453.2562987165
 20
294.1940830391
 30
0.0
 11
2453.2562987165
 21
297.6639157099
 31
0.0
  0
LINE
  5
166
330
1F
100
AcDbEntity
  8
0
  6
Continuous
 62
     7
370
    25
100
AcDbLine
 10
759.2562987165
 20
294.1940830391
 30
0.0
 11
756.2562987165
 21
297.1496816874
 31
0.0
  0
LINE
  5
167
330
1F
100
AcDbEntity
  8
0
  6
Continuous
 62
     7
370
    25
100
AcDbLine
 10
759.2562987165
 20
297.6639157099
 30
0.0
 11
756.2562987165
 21
297.1496816874
 31
0.0
  0
LINE
  5
168
330
1F
100
AcDbEntity
  8
0
  6
Continuous
 62
     7
370
    25
100
AcDbLine
 10
2456.2562987165
 20
297.1496816874
 30
0.0
 11
2453.2562987165
 21
297.6639157099
 31
0.0
  0
LINE
  5
169
330
1F
100
AcDbEntity
  8
0
  6
Continuous
 62
     7
370
    25
100
AcDbLine
 10
2453.2562987165
 20
294.1940830391
 30
0.0
 11
2456.2562987165
 21
297.1496816874
 31
0.0
  0
LINE
  5
16A
330
1F
100
AcDbEntity
  8
0
  6
Continuous
 62
     7
370
    25
100
AcDbLine
 10
2453.2562987165
 20
297.6639157099
 30
0.0
 11
2453.2562987165
 21
331.1607003912
 31
0.0
  0
LINE
  5
16B
330
1F
100
AcDbEntity
  8
0
  6
Continuous
 62
     7
370
    25
100
AcDbLine
 10
759.2562987165
 20
331.1607003912
 30
0.0
 11
759.2562987165
 21
297.6639157099
 31
0.0
  0
LINE
  5
16C
330
1F
100
AcDbEntity
  8
0
  6
Continuous
 62
     7
370
    25
100
AcDbLine
 10
2453.2562987165
 20
331.1607003912
 30
0.0
 11
2443.7562987165
 21
331.1607003912
 31
0.0
  0
LINE
  5
16D
330
1F
100
AcDbEntity
  8
0
  6
Continuous
 62
     7
370
    25
100
AcDbLine
 10
2418.7562987165
 20
331.1607003912
 30
0.0
 11
793.7562987165
 21
331.1607003912
 31
0.0
  0
LINE
  5
16E
330
1F
100
AcDbEntity
  8
0
  6
Continuous
 62
     7
370
    25
100
AcDbLine
 10
768.7562987165
 20
331.1607003912
 30
0.0
 11
759.2562987165
 21
331.1607003912
 31
0.0
  0
LINE
  5
16F
330
1F
100
AcDbEntity
  8
0
  6
Continuous
 62
     7
370
    25
100
AcDbLine
 10
756.2562987165
 20
297.1496816874
 30
0.0
 11
756.2562987165
 21
330.6464663688
 31
0.0
  0
LINE
  5
170
330
1F
100
AcDbEntity
  8
0
  6
Continuous
 62
     7
370
    25
100
AcDbLine
 10
759.2562987165
 20
331.1607003912
 30
0.0
 11
756.2562987165
 21
330.6464663688
 31
0.0
  0
LINE
  5
171
330
1F
100
AcDbEntity
  8
0
  6
Continuous
 62
     7
370
    25
100
AcDbLine
 10
2456.2562987165
 20
330.6464663688
 30
0.0
 11
2456.2562987165
 21
297.1496816874
 31
0.0
  0
LINE
  5
172
330
1F
100
AcDbEntity
  8
0
  6
Continuous
 62
     7
370
    25
100
AcDbLine
 10
2456.2562987165
 20
330.6464663688
 30
0.0
 11
2453.2562987165
 21
331.1607003912
 31
0.0
  0
LINE
  5
173
330
1F
100
AcDbEntity
  8
0
  6
Continuous
 62
     7
370
    25
100
AcDbLine
 10
2453.2562987165
 20
279.7955304105
 30
0.0
 11
2453.2562987165
 21
294.1940830391
 31
0.0
  0
LINE
  5
174
330
1F
100
AcDbEntity
  8
0
  6
Continuous
 62
     7
370
    25
100
AcDbLine
 10
759.2562987165
 20
279.7955304105
 30
0.0
 11
768.7562987165
 21
279.7955304105
 31
0.0
  0
LINE
  5
175
330
1F
100
AcDbEntity
  8
0
  6
Continuous
 62
     7
370
    25
100
AcDbLine
 10
793.7562987165
 20
279.7955304105
 30
0.0
 11
2418.7562987165
 21
279.7955304105
 31
0.0
  0
LINE
  5
176
330
1F
100
AcDbEntity
  8
0
  6
Continuous
 62
     7
370
    25
100
AcDbLine
 10
2443.7562987165
 20
279.7955304105
 30
0.0
 11
2453.2562987165
 21
279.7955304105
 31
0.0
  0
LINE
  5
177
330
1F
100
AcDbEntity
  8
0
  6
Continuous
 62
     7
370
    25
100
AcDbLine
 10
759.2562987165
 20
294.1940830391
 30
0.0
 11
759.2562987165
 21
279.7955304105
 31
0.0
  0
LINE
  5
178
330
1F
100
AcDbEntity
  8
0
  6
Continuous
 62
     7
370
    25
100
AcDbLine
 10
756.2562987165
 20
282.7511290588
 30
0.0
 11
756.2562987165
 21
297.1496816874
 31
0.0
  0
LINE
  5
179
330
1F
100
AcDbEntity
  8
0
  6
Continuous
 62
     7
370
    25
100
AcDbLine
 10
756.2562987165
 20
282.7511290588
 30
0.0
 11
759.2562987165
 21
279.7955304105
 31
0.0
  0
LINE
  5
17A
330
1F
100
AcDbEntity
  8
0
  6
Continuous
 62
     7
370
    25
100
AcDbLine
 10
2456.2562987165
 20
297.1496816874
 30
0.0
 11
2456.2562987165
 21
282.7511290588
 31
0.0
  0
LINE
  5
17B
330
1F
100
AcDbEntity
  8
0
  6
Continuous
 62
     7
370
    25
100
AcDbLine
 10
2456.2562987165
 20
282.7511290588
 30
0.0
 11
2453.2562987165
 21
279.7955304105
 31
0.0
  0
LINE
  5
17C
330
1F
100
AcDbEntity
  8
0
  6
Continuous
 62
     7
370
    25
100
AcDbLine
 10
759.2562987165
 20
333.6020650171
 30
0.0
 11
756.2562987165
 21
330.6464663688
 31
0.0
  0
LINE
  5
17D
330
1F
100
AcDbEntity
  8
0
  6
Continuous
 62
     7
370
    25
100
AcDbLine
 10
759.2562987165
 20
331.1607003912
 30
0.0
 11
759.2562987165
 21
333.6020650171
 31
0.0
  0
LINE
  5
17E
330
1F
100
AcDbEntity
  8
0
  6
Continuous
 62
     7
370
    25
100
AcDbLine
 10
759.2562987165
 20
333.6020650171
 30
0.0
 11
768.7562987165
 21
333.6020650171
 31
0.0
  0
LINE
  5
17F
330
1F
100
AcDbEntity
  8
0
  6
Continuous
 62
     7
370
    25
100
AcDbLine
 10
793.7562987165
 20
333.6020650171
 30
0.0
 11
2418.7562987165
 21
333.6020650171
 31
0.0
  0
LINE
  5
180
330
1F
100
AcDbEntity
  8
0
  6
Continuous
 62
     7
370
    25
100
AcDbLine
 10
2443.7562987165
 20
333.6020650171
 30
0.0
 11
2453.2562987165
 21
333.6020650171
 31
0.0
  0
LINE
  5
181
330
1F
100
AcDbEntity
  8
0
  6
Continuous
 62
     7
370
    25
100
AcDbLine
 10
2453.2562987165
 20
331.1607003912
 30
0.0
 11
2453.2562987165
 21
333.6020650171
 31
0.0
  0
LINE
  5
182
330
1F
100
AcDbEntity
  8
0
  6
Continuous
 62
     7
370
    25
100
AcDbLine
 10
2456.2562987165
 20
330.6464663688
 30
0.0
 11
2453.2562987165
 21
333.6020650171
 31
0.0
  0
LINE
  5
183
330
1F
100
AcDbEntity
  8
0
  6
Continuous
 62
     7
370
    25
100
AcDbLine
 10
-433.7437012835
 20
229.7634413178
 30
0.0
 11
-1953.7437012835
 21
229.7634413178
 31
0.0
  0
LINE
  5
184
330
1F
100
AcDbEntity
  8
0
  6
Continuous
 62
     7
370
    25
100
AcDbLine
 10
-1953.7437012835
 20
229.7730758839
 30
0.0
 11
-433.7437012835
 21
229.7730758839
 31
0.0
  0
LINE
  5
185
330
1F
100
AcDbEntity
  8
0
  6
Continuous
 62
     7
370
    25
100
AcDbLine
 10
-346.7437012835
 20
-109.2948528047
 30
0.0
 11
-2040.7437012835
 21
-109.2948528047
 31
0.0
  0
LINE
  5
186
330
1F
100
AcDbEntity
  8
0
  6
Continuous
 62
     7
370
    25
100
AcDbLine
 10
-2040.7437012835
 20
-109.2948528047
 30
0.0
 11
-2040.7437012835
 21
-105.8250201339
 31
0.0
  0
LINE
  5
187
330
1F
100
AcDbEntity
  8
0
  6
Continuous
 62
     7
370
    25
100
AcDbLine
 10
-2040.7437012835
 20
-105.8250201339
 30
0.0
 11
-346.7437012835
 21
-105.8250201339
 31
0.0
  0
LINE
  5
188
330
1F
100
AcDbEntity
  8
0
  6
Continuous
 62
     7
370
    25
100
AcDbLine
 10
-346.7437012835
 20
-109.2948528047
 30
0.0
 11
-346.7437012835
 21
-105.8250201339
 31
0.0
  0
LINE
  5
189
330
1F
100
AcDbEntity
  8
0
  6
Continuous
 62
     7
370
    25
100
AcDbLine
 10
-343.7437012835
 20
-106.3392541564
 30
0.0
 11
-346.7437012835
 21
-105.8250201339
 31
0.0
  0
LINE
  5
18A
330
1F
100
AcDbEntity
  8
0
  6
Continuous
 62
     7
370
    25
100
AcDbLine
 10
-343.7437012835
 20
-106.3392541564
 30
0.0
 11
-346.7437012835
 21
-109.2948528047
 31
0.0
  0
LINE
  5
18B
330
1F
100
AcDbEntity
  8
0
  6
Continuous
 62
     7
370
    25
100
AcDbLine
 10
-2040.7437012835
 20
-109.2948528047
 30
0.0
 11
-2043.7437012835
 21
-106.3392541564
 31
0.0
  0
LINE
  5
18C
330
1F
100
AcDbEntity
  8
0
  6
Continuous
 62
     7
370
    25
100
AcDbLine
 10
-2040.7437012835
 20
-105.8250201339
 30
0.0
 11
-2043.7437012835
 21
-106.3392541564
 31
0.0
  0
LINE
  5
18D
330
1F
100
AcDbEntity
  8
0
  6
Continuous
 62
     7
370
    25
100
AcDbLine
 10
-2040.7437012835
 20
-43.0816815888
 30
0.0
 11
-2040.7437012835
 21
-105.8250201339
 31
0.0
  0
LINE
  5
18E
330
1F
100
AcDbEntity
  8
0
  6
Continuous
 62
     7
370
    25
100
AcDbLine
 10
-433.7437012835
 20
-23.06825798
 30
0.0
 11
-1953.7437012835
 21
-23.06825798
 31
0.0
  0
LINE
  5
18F
330
1F
100
AcDbEntity
  8
0
  6
Continuous
 62
     7
370
    25
100
AcDbLine
 10
-346.7437012835
 20
-105.8250201339
 30
0.0
 11
-346.7437012835
 21
-43.0816815888
 31
0.0
  0
LINE
  5
190
330
1F
100
AcDbEntity
  8
0
  6
Continuous
 62
     7
370
    25
100
AcDbLine
 10
-343.7437012835
 20
-40.1260829405
 30
0.0
 11
-343.7437012835
 21
-106.3392541564
 31
0.0
  0
LINE
  5
191
330
1F
100
AcDbEntity
  8
0
  6
Continuous
 62
     7
370
    25
100
AcDbLine
 10
-2043.7437012835
 20
-106.3392541564
 30
0.0
 11
-2043.7437012835
 21
-40.1260829405
 31
0.0
  0
LINE
  5
192
330
1F
100
AcDbEntity
  8
0
  6
Continuous
 62
     7
370
    25
100
AcDbLine
 10
-2040.7437012835
 20
-109.2948528047
 30
0.0
 11
-2040.7437012835
 21
-115.1228383925
 31
0.0
  0
LINE
  5
193
330
1F
100
AcDbEntity
  8
0
  6
Continuous
 62
     7
370
    25
100
AcDbLine
 10
-2040.7437012835
 20
-115.1228383925
 30
0.0
 11
-2043.7437012835
 21
-112.1672397441
 31
0.0
  0
LINE
  5
194
330
1F
100
AcDbEntity
  8
0
  6
Continuous
 62
     7
370
    25
100
AcDbLine
 10
-2043.7437012835
 20
-112.1672397441
 30
0.0
 11
-2043.7437012835
 21
-106.3392541564
 31
0.0
  0
LINE
  5
195
330
1F
100
AcDbEntity
  8
0
  6
Continuous
 62
     7
370
    25
100
AcDbLine
 10
-346.7437012835
 20
-115.1228383925
 30
0.0
 11
-346.7437012835
 21
-109.2948528047
 31
0.0
  0
LINE
  5
196
330
1F
100
AcDbEntity
  8
0
  6
Continuous
 62
     7
370
    25
100
AcDbLine
 10
-2040.7437012835
 20
-115.1228383925
 30
0.0
 11
-346.7437012835
 21
-115.1228383925
 31
0.0
  0
LINE
  5
197
330
1F
100
AcDbEntity
  8
0
  6
Continuous
 62
     7
370
    25
100
AcDbLine
 10
-343.7437012835
 20
-106.3392541564
 30
0.0
 11
-343.7437012835
 21
-112.1672397441
 31
0.0
  0
LINE
  5
198
330
1F
100
AcDbEntity
  8
0
  6
Continuous
 62
     7
370
    25
100
AcDbLine
 10
-343.7437012835
 20
-112.1672397441
 30
0.0
 11
-346.7437012835
 21
-115.1228383925
 31
0.0
  0
LINE
  5
199
330
1F
100
AcDbEntity
  8
0
  6
Continuous
 62
     7
370
    25
100
AcDbLine
 10
-1953.7437012835
 20
-20.6268933541
 30
0.0
 11
-433.7437012835
 21
-20.6268933541
 31
0.0
  0
LINE
  5
19A
330
1F
100
AcDbEntity
  8
0
  6
Continuous
 62
     7
370
    25
100
AcDbLine
 10
-346.7437012835
 20
274.4817788451
 30
0.0
 11
-346.7437012835
 21
277.951611516
 31
0.0
  0
LINE
  5
19B
330
1F
100
AcDbEntity
  8
0
  6
Continuous
 62
     7
370
    25
100
AcDbLine
 10
-343.7437012835
 20
277.4373774935
 30
0.0
 11
-346.7437012835
 21
277.951611516
 31
0.0
  0
LINE
  5
19C
330
1F
100
AcDbEntity
  8
0
  6
Continuous
 62
     7
370
    25
100
AcDbLine
 10
-346.7437012835
 20
274.4817788451
 30
0.0
 11
-343.7437012835
 21
277.4373774935
 31
0.0
  0
LINE
  5
19D
330
1F
100
AcDbEntity
  8
0
  6
Continuous
 62
     7
370
    25
100
AcDbLine
 10
-346.7437012835
 20
274.4817788451
 30
0.0
 11
-361.2437012835
 21
274.4817788451
 31
0.0
  0
LINE
  5
19E
330
1F
100
AcDbEntity
  8
0
  6
Continuous
 62
     7
370
    25
100
AcDbLine
 10
-386.2437012835
 20
274.4817788451
 30
0.0
 11
-2001.2437012835
 21
274.4817788451
 31
0.0
  0
LINE
  5
19F
330
1F
100
AcDbEntity
  8
0
  6
Continuous
 62
     7
370
    25
100
AcDbLine
 10
-2026.2437012835
 20
274.4817788451
 30
0.0
 11
-2040.7437012835
 21
274.4817788451
 31
0.0
  0
LINE
  5
1A0
330
1F
100
AcDbEntity
  8
0
  6
Continuous
 62
     7
370
    25
100
AcDbLine
 10
-2040.7437012835
 20
274.4817788451
 30
0.0
 11
-2040.7437012835
 21
277.951611516
 31
0.0
  0
LINE
  5
1A1
330
1F
100
AcDbEntity
  8
0
  6
Continuous
 62
     7
370
    25
100
AcDbLine
 10
-2040.7437012835
 20
277.951611516
 30
0.0
 11
-2026.2437012835
 21
277.951611516
 31
0.0
  0
LINE
  5
1A2
330
1F
100
AcDbEntity
  8
0
  6
Continuous
 62
     7
370
    25
100
AcDbLine
 10
-2001.2437012835
 20
277.951611516
 30
0.0
 11
-386.2437012835
 21
277.951611516
 31
0.0
  0
LINE
  5
1A3
330
1F
100
AcDbEntity
  8
0
  6
Continuous
 62
     7
370
    25
100
AcDbLine
 10
-361.2437012835
 20
277.951611516
 30
0.0
 11
-346.7437012835
 21
277.951611516
 31
0.0
  0
LINE
  5
1A4
330
1F
100
AcDbEntity
  8
0
  6
Continuous
 62
     7
370
    25
100
AcDbLine
 10
-2040.7437012835
 20
274.4817788451
 30
0.0
 11
-2043.7437012835
 21
277.4373774935
 31
0.0
  0
LINE
  5
1A5
330
1F
100
AcDbEntity
  8
0
  6
Continuous
 62
     7
370
    25
100
AcDbLine
 10
-2040.7437012835
 20
277.951611516
 30
0.0
 11
-2043.7437012835
 21
277.4373774935
 31
0.0
  0
LINE
  5
1A6
330
1F
100
AcDbEntity
  8
0
  6
Continuous
 62
     7
370
    25
100
AcDbLine
 10
-343.7437012835
 20
282.7511290588
 30
0.0
 11
-343.7437012835
 21
277.4373774935
 31
0.0
  0
LINE
  5
1A7
330
1F
100
AcDbEntity
  8
0
  6
Continuous
 62
     7
370
    25
100
AcDbLine
 10
-346.7437012835
 20
277.951611516
 30
0.0
 11
-346.7437012835
 21
279.7955304105
 31
0.0
  0
LINE
  5
1A8
330
1F
100
AcDbEntity
  8
0
  6
Continuous
 62
     7
370
    25
100
AcDbLine
 10
-2040.7437012835
 20
279.7955304105
 30
0.0
 11
-2040.7437012835
 21
277.951611516
 31
0.0
  0
LINE
  5
1A9
330
1F
100
AcDbEntity
  8
0
  6
Continuous
 62
     7
370
    25
100
AcDbLine
 10
-2043.7437012835
 20
277.4373774935
 30
0.0
 11
-2043.7437012835
 21
282.7511290588
 31
0.0
  0
LINE
  5
1AA
330
1F
100
AcDbEntity
  8
0
  6
Continuous
 62
     7
370
    25
100
AcDbLine
 10
-346.7437012835
 20
260.0832262165
 30
0.0
 11
-346.7437012835
 21
274.4817788451
 31
0.0
  0
LINE
  5
1AB
330
1F
100
AcDbEntity
  8
0
  6
Continuous
 62
     7
370
    25
100
AcDbLine
 10
-343.7437012835
 20
277.4373774935
 30
0.0
 11
-343.7437012835
 21
263.0388248649
 31
0.0
  0
LINE
  5
1AC
330
1F
100
AcDbEntity
  8
0
  6
Continuous
 62
     7
370
    25
100
AcDbLine
 10
-343.7437012835
 20
263.0388248649
 30
0.0
 11
-346.7437012835
 21
260.0832262165
 31
0.0
  0
LINE
  5
1AD
330
1F
100
AcDbEntity
  8
0
  6
Continuous
 62
     7
370
    25
100
AcDbLine
 10
-2040.7437012835
 20
260.0832262165
 30
0.0
 11
-2026.2437012835
 21
260.0832262165
 31
0.0
  0
LINE
  5
1AE
330
1F
100
AcDbEntity
  8
0
  6
Continuous
 62
     7
370
    25
100
AcDbLine
 10
-2001.2437012835
 20
260.0832262165
 30
0.0
 11
-386.2437012835
 21
260.0832262165
 31
0.0
  0
LINE
  5
1AF
330
1F
100
AcDbEntity
  8
0
  6
Continuous
 62
     7
370
    25
100
AcDbLine
 10
-361.2437012835
 20
260.0832262165
 30
0.0
 11
-346.7437012835
 21
260.0832262165
 31
0.0
  0
LINE
  5
1B0
330
1F
100
AcDbEntity
  8
0
  6
Continuous
 62
     7
370
    25
100
AcDbLine
 10
-2040.7437012835
 20
274.4817788451
 30
0.0
 11
-2040.7437012835
 21
260.0832262165
 31
0.0
  0
LINE
  5
1B1
330
1F
100
AcDbEntity
  8
0
  6
Continuous
 62
     7
370
    25
100
AcDbLine
 10
-2043.7437012835
 20
263.0388248649
 30
0.0
 11
-2043.7437012835
 21
277.4373774935
 31
0.0
  0
LINE
  5
1B2
330
1F
100
AcDbEntity
  8
0
  6
Continuous
 62
     7
370
    25
100
AcDbLine
 10
-2043.7437012835
 20
263.0388248649
 30
0.0
 11
-2040.7437012835
 21
260.0832262165
 31
0.0
  0
LINE
  5
1B3
330
1F
100
AcDbEntity
  8
0
  6
Continuous
 62
     7
370
    25
100
AcDbLine
 10
-346.7437012835
 20
-222.5928009916
 30
0.0
 11
-2040.7437012835
 21
-222.5928009916
 31
0.0
  0
LINE
  5
1B4
330
1F
100
AcDbEntity
  8
0
  6
Continuous
 62
     7
370
    25
100
AcDbLine
 10
-2040.7437012835
 20
-222.5928009916
 30
0.0
 11
-2040.7437012835
 21
-219.1229683208
 31
0.0
  0
LINE
  5
1B5
330
1F
100
AcDbEntity
  8
0
  6
Continuous
 62
     7
370
    25
100
AcDbLine
 10
-2040.7437012835
 20
-219.1229683208
 30
0.0
 11
-346.7437012835
 21
-219.1229683208
 31
0.0
  0
LINE
  5
1B6
330
1F
100
AcDbEntity
  8
0
  6
Continuous
 62
     7
370
    25
100
AcDbLine
 10
-346.7437012835
 20
-222.5928009916
 30
0.0
 11
-346.7437012835
 21
-219.1229683208
 31
0.0
  0
LINE
  5
1B7
330
1F
100
AcDbEntity
  8
0
  6
Continuous
 62
     7
370
    25
100
AcDbLine
 10
-343.7437012835
 20
-219.6372023433
 30
0.0
 11
-346.7437012835
 21
-219.1229683208
 31
0.0
  0
LINE
  5
1B8
330
1F
100
AcDbEntity
  8
0
  6
Continuous
 62
     7
370
    25
100
AcDbLine
 10
-343.7437012835
 20
-219.6372023433
 30
0.0
 11
-346.7437012835
 21
-222.5928009916
 31
0.0
  0
LINE
  5
1B9
330
1F
100
AcDbEntity
  8
0
  6
Continuous
 62
     7
370
    25
100
AcDbLine
 10
-2040.7437012835
 20
-222.5928009916
 30
0.0
 11
-2043.7437012835
 21
-219.6372023433
 31
0.0
  0
LINE
  5
1BA
330
1F
100
AcDbEntity
  8
0
  6
Continuous
 62
     7
370
    25
100
AcDbLine
 10
-2040.7437012835
 20
-219.1229683208
 30
0.0
 11
-2043.7437012835
 21
-219.6372023433
 31
0.0
  0
LINE
  5
1BB
330
1F
100
AcDbEntity
  8
0
  6
Continuous
 62
     7
370
    25
100
AcDbLine
 10
-343.7437012835
 20
-136.8804401894
 30
0.0
 11
-343.7437012835
 21
-219.6372023433
 31
0.0
  0
LINE
  5
1BC
330
1F
100
AcDbEntity
  8
0
  6
Continuous
 62
     7
370
    25
100
AcDbLine
 10
-346.7437012835
 20
-219.1229683208
 30
0.0
 11
-346.7437012835
 21
-136.3662061669
 31
0.0
  0
LINE
  5
1BD
330
1F
100
AcDbEntity
  8
0
  6
Continuous
 62
     7
370
    25
100
AcDbLine
 10
-346.7437012835
 20
-136.3662061669
 30
0.0
 11
-343.7437012835
 21
-136.8804401894
 31
0.0
  0
LINE
  5
1BE
330
1F
100
AcDbEntity
  8
0
  6
Continuous
 62
     7
370
    25
100
AcDbLine
 10
-2040.7437012835
 20
-136.3662061669
 30
0.0
 11
-2040.7437012835
 21
-219.1229683208
 31
0.0
  0
LINE
  5
1BF
330
1F
100
AcDbEntity
  8
0
  6
Continuous
 62
     7
370
    25
100
AcDbLine
 10
-346.7437012835
 20
-136.3662061669
 30
0.0
 11
-2040.7437012835
 21
-136.3662061669
 31
0.0
  0
LINE
  5
1C0
330
1F
100
AcDbEntity
  8
0
  6
Continuous
 62
     7
370
    25
100
AcDbLine
 10
-2043.7437012835
 20
-219.6372023433
 30
0.0
 11
-2043.7437012835
 21
-136.8804401894
 31
0.0
  0
LINE
  5
1C1
330
1F
100
AcDbEntity
  8
0
  6
Continuous
 62
     7
370
    25
100
AcDbLine
 10
-2043.7437012835
 20
-136.8804401894
 30
0.0
 11
-2040.7437012835
 21
-136.3662061669
 31
0.0
  0
LINE
  5
1C2
330
1F
100
AcDbEntity
  8
0
  6
Continuous
 62
     7
370
    25
100
AcDbLine
 10
-2040.7437012835
 20
-222.5928009916
 30
0.0
 11
-2040.7437012835
 21
-228.4207865794
 31
0.0
  0
LINE
  5
1C3
330
1F
100
AcDbEntity
  8
0
  6
Continuous
 62
     7
370
    25
100
AcDbLine
 10
-2040.7437012835
 20
-228.4207865794
 30
0.0
 11
-2043.7437012835
 21
-225.4651879311
 31
0.0
  0
LINE
  5
1C4
330
1F
100
AcDbEntity
  8
0
  6
Continuous
 62
     7
370
    25
100
AcDbLine
 10
-2043.7437012835
 20
-225.4651879311
 30
0.0
 11
-2043.7437012835
 21
-219.6372023433
 31
0.0
  0
LINE
  5
1C5
330
1F
100
AcDbEntity
  8
0
  6
Continuous
 62
     7
370
    25
100
AcDbLine
 10
-343.7437012835
 20
-219.6372023433
 30
0.0
 11
-343.7437012835
 21
-225.4651879311
 31
0.0
  0
LINE
  5
1C6
330
1F
100
AcDbEntity
  8
0
  6
Continuous
 62
     7
370
    25
100
AcDbLine
 10
-343.7437012835
 20
-225.4651879311
 30
0.0
 11
-346.7437012835
 21
-228.4207865794
 31
0.0
  0
LINE
  5
1C7
330
1F
100
AcDbEntity
  8
0
  6
Continuous
 62
     7
370
    25
100
AcDbLine
 10
-346.7437012835
 20
-228.4207865794
 30
0.0
 11
-346.7437012835
 21
-222.5928009916
 31
0.0
  0
LINE
  5
1C8
330
1F
100
AcDbEntity
  8
0
  6
Continuous
 62
     7
370
    25
100
AcDbLine
 10
-2040.7437012835
 20
-228.4207865794
 30
0.0
 11
-346.7437012835
 21
-228.4207865794
 31
0.0
  0
LINE
  5
1C9
330
1F
100
AcDbEntity
  8
0
  6
Continuous
 62
     7
370
    25
100
AcDbLine
 10
-2040.7437012835
 20
-136.3662061669
 30
0.0
 11
-2040.7437012835
 21
-133.924841541
 31
0.0
  0
LINE
  5
1CA
330
1F
100
AcDbEntity
  8
0
  6
Continuous
 62
     7
370
    25
100
AcDbLine
 10
-2040.7437012835
 20
-133.924841541
 30
0.0
 11
-346.7437012835
 21
-133.924841541
 31
0.0
  0
LINE
  5
1CB
330
1F
100
AcDbEntity
  8
0
  6
Continuous
 62
     7
370
    25
100
AcDbLine
 10
-346.7437012835
 20
-136.3662061669
 30
0.0
 11
-346.7437012835
 21
-133.924841541
 31
0.0
  0
LINE
  5
1CC
330
1F
100
AcDbEntity
  8
0
  6
Continuous
 62
     7
370
    25
100
AcDbLine
 10
-346.7437012835
 20
-133.924841541
 30
0.0
 11
-343.7437012835
 21
-136.8804401894
 31
0.0
  0
LINE
  5
1CD
330
1F
100
AcDbEntity
  8
0
  6
Continuous
 62
     7
370
    25
100
AcDbLine
 10
-2043.7437012835
 20
-136.8804401894
 30
0.0
 11
-2040.7437012835
 21
-133.924841541
 31
0.0
  0
LINE
  5
1CE
330
1F
100
AcDbEntity
  8
0
  6
Continuous
 62
     7
370
    25
100
AcDbLine
 10
-346.7437012835
 20
294.1940830391
 30
0.0
 11
-346.7437012835
 21
297.6639157099
 31
0.0
  0
LINE
  5
1CF
330
1F
100
AcDbEntity
  8
0
  6
Continuous
 62
     7
370
    25
100
AcDbLine
 10
-343.7437012835
 20
297.1496816874
 30
0.0
 11
-346.7437012835
 21
297.6639157099
 31
0.0
  0
LINE
  5
1D0
330
1F
100
AcDbEntity
  8
0
  6
Continuous
 62
     7
370
    25
100
AcDbLine
 10
-346.7437012835
 20
294.1940830391
 30
0.0
 11
-343.7437012835
 21
297.1496816874
 31
0.0
  0
LINE
  5
1D1
330
1F
100
AcDbEntity
  8
0
  6
Continuous
 62
     7
370
    25
100
AcDbLine
 10
-346.7437012835
 20
294.1940830391
 30
0.0
 11
-361.2437012835
 21
294.1940830391
 31
0.0
  0
LINE
  5
1D2
330
1F
100
AcDbEntity
  8
0
  6
Continuous
 62
     7
370
    25
100
AcDbLine
 10
-386.2437012835
 20
294.1940830391
 30
0.0
 11
-2001.2437012835
 21
294.1940830391
 31
0.0
  0
LINE
  5
1D3
330
1F
100
AcDbEntity
  8
0
  6
Continuous
 62
     7
370
    25
100
AcDbLine
 10
-2026.2437012835
 20
294.1940830391
 30
0.0
 11
-2040.7437012835
 21
294.1940830391
 31
0.0
  0
LINE
  5
1D4
330
1F
100
AcDbEntity
  8
0
  6
Continuous
 62
     7
370
    25
100
AcDbLine
 10
-2040.7437012835
 20
294.1940830391
 30
0.0
 11
-2040.7437012835
 21
297.6639157099
 31
0.0
  0
LINE
  5
1D5
330
1F
100
AcDbEntity
  8
0
  6
Continuous
 62
     7
370
    25
100
AcDbLine
 10
-2040.7437012835
 20
297.6639157099
 30
0.0
 11
-2026.2437012835
 21
297.6639157099
 31
0.0
  0
LINE
  5
1D6
330
1F
100
AcDbEntity
  8
0
  6
Continuous
 62
     7
370
    25
100
AcDbLine
 10
-2001.2437012835
 20
297.6639157099
 30
0.0
 11
-386.2437012835
 21
297.6639157099
 31
0.0
  0
LINE
  5
1D7
330
1F
100
AcDbEntity
  8
0
  6
Continuous
 62
     7
370
    25
100
AcDbLine
 10
-361.2437012835
 20
297.6639157099
 30
0.0
 11
-346.7437012835
 21
297.6639157099
 31
0.0
  0
LINE
  5
1D8
330
1F
100
AcDbEntity
  8
0
  6
Continuous
 62
     7
370
    25
100
AcDbLine
 10
-2040.7437012835
 20
294.1940830391
 30
0.0
 11
-2043.7437012835
 21
297.1496816874
 31
0.0
  0
LINE
  5
1D9
330
1F
100
AcDbEntity
  8
0
  6
Continuous
 62
     7
370
    25
100
AcDbLine
 10
-2040.7437012835
 20
297.6639157099
 30
0.0
 11
-2043.7437012835
 21
297.1496816874
 31
0.0
  0
LINE
  5
1DA
330
1F
100
AcDbEntity
  8
0
  6
Continuous
 62
     7
370
    25
100
AcDbLine
 10
-346.7437012835
 20
297.6639157099
 30
0.0
 11
-346.7437012835
 21
331.1607003912
 31
0.0
  0
LINE
  5
1DB
330
1F
100
AcDbEntity
  8
0
  6
Continuous
 62
     7
370
    25
100
AcDbLine
 10
-2040.7437012835
 20
331.1607003912
 30
0.0
 11
-2040.7437012835
 21
297.6639157099
 31
0.0
  0
LINE
  5
1DC
330
1F
100
AcDbEntity
  8
0
  6
Continuous
 62
     7
370
    25
100
AcDbLine
 10
-346.7437012835
 20
331.1607003912
 30
0.0
 11
-361.2437012835
 21
331.1607003912
 31
0.0
  0
LINE
  5
1DD
330
1F
100
AcDbEntity
  8
0
  6
Continuous
 62
     7
370
    25
100
AcDbLine
 10
-386.2437012835
 20
331.1607003912
 30
0.0
 11
-2001.2437012835
 21
331.1607003912
 31
0.0
  0
LINE
  5
1DE
330
1F
100
AcDbEntity
  8
0
  6
Continuous
 62
     7
370
    25
100
AcDbLine
 10
-2026.2437012835
 20
331.1607003912
 30
0.0
 11
-2040.7437012835
 21
331.1607003912
 31
0.0
  0
LINE
  5
1DF
330
1F
100
AcDbEntity
  8
0
  6
Continuous
 62
     7
370
    25
100
AcDbLine
 10
-343.7437012835
 20
330.6464663688
 30
0.0
 11
-343.7437012835
 21
297.1496816874
 31
0.0
  0
LINE
  5
1E0
330
1F
100
AcDbEntity
  8
0
  6
Continuous
 62
     7
370
    25
100
AcDbLine
 10
-343.7437012835
 20
330.6464663688
 30
0.0
 11
-346.7437012835
 21
331.1607003912
 31
0.0
  0
LINE
  5
1E1
330
1F
100
AcDbEntity
  8
0
  6
Continuous
 62
     7
370
    25
100
AcDbLine
 10
-2043.7437012835
 20
297.1496816874
 30
0.0
 11
-2043.7437012835
 21
330.6464663688
 31
0.0
  0
LINE
  5
1E2
330
1F
100
AcDbEntity
  8
0
  6
Continuous
 62
     7
370
    25
100
AcDbLine
 10
-2040.7437012835
 20
331.1607003912
 30
0.0
 11
-2043.7437012835
 21
330.6464663688
 31
0.0
  0
LINE
  5
1E3
330
1F
100
AcDbEntity
  8
0
  6
Continuous
 62
     7
370
    25
100
AcDbLine
 10
-346.7437012835
 20
279.7955304105
 30
0.0
 11
-346.7437012835
 21
294.1940830391
 31
0.0
  0
LINE
  5
1E4
330
1F
100
AcDbEntity
  8
0
  6
Continuous
 62
     7
370
    25
100
AcDbLine
 10
-343.7437012835
 20
297.1496816874
 30
0.0
 11
-343.7437012835
 21
282.7511290588
 31
0.0
  0
LINE
  5
1E5
330
1F
100
AcDbEntity
  8
0
  6
Continuous
 62
     7
370
    25
100
AcDbLine
 10
-343.7437012835
 20
282.7511290588
 30
0.0
 11
-346.7437012835
 21
279.7955304105
 31
0.0
  0
LINE
  5
1E6
330
1F
100
AcDbEntity
  8
0
  6
Continuous
 62
     7
370
    25
100
AcDbLine
 10
-2040.7437012835
 20
279.7955304105
 30
0.0
 11
-2026.2437012835
 21
279.7955304105
 31
0.0
  0
LINE
  5
1E7
330
1F
100
AcDbEntity
  8
0
  6
Continuous
 62
     7
370
    25
100
AcDbLine
 10
-2001.2437012835
 20
279.7955304105
 30
0.0
 11
-386.2437012835
 21
279.7955304105
 31
0.0
  0
LINE
  5
1E8
330
1F
100
AcDbEntity
  8
0
  6
Continuous
 62
     7
370
    25
100
AcDbLine
 10
-361.2437012835
 20
279.7955304105
 30
0.0
 11
-346.7437012835
 21
279.7955304105
 31
0.0
  0
LINE
  5
1E9
330
1F
100
AcDbEntity
  8
0
  6
Continuous
 62
     7
370
    25
100
AcDbLine
 10
-2040.7437012835
 20
294.1940830391
 30
0.0
 11
-2040.7437012835
 21
279.7955304105
 31
0.0
  0
LINE
  5
1EA
330
1F
100
AcDbEntity
  8
0
  6
Continuous
 62
     7
370
    25
100
AcDbLine
 10
-2043.7437012835
 20
282.7511290588
 30
0.0
 11
-2043.7437012835
 21
297.1496816874
 31
0.0
  0
LINE
  5
1EB
330
1F
100
AcDbEntity
  8
0
  6
Continuous
 62
     7
370
    25
100
AcDbLine
 10
-2043.7437012835
 20
282.7511290588
 30
0.0
 11
-2040.7437012835
 21
279.7955304105
 31
0.0
  0
LINE
  5
1EC
330
1F
100
AcDbEntity
  8
0
  6
Continuous
 62
     7
370
    25
100
AcDbLine
 10
-346.7437012835
 20
331.1607003912
 30
0.0
 11
-346.7437012835
 21
333.6020650171
 31
0.0
  0
LINE
  5
1ED
330
1F
100
AcDbEntity
  8
0
  6
Continuous
 62
     7
370
    25
100
AcDbLine
 10
-343.7437012835
 20
330.6464663688
 30
0.0
 11
-346.7437012835
 21
333.6020650171
 31
0.0
  0
LINE
  5
1EE
330
1F
100
AcDbEntity
  8
0
  6
Continuous
 62
     7
370
    25
100
AcDbLine
 10
-2040.7437012835
 20
331.1607003912
 30
0.0
 11
-2040.7437012835
 21
333.6020650171
 31
0.0
  0
LINE
  5
1EF
330
1F
100
AcDbEntity
  8
0
  6
Continuous
 62
     7
370
    25
100
AcDbLine
 10
-2040.7437012835
 20
333.6020650171
 30
0.0
 11
-2026.2437012835
 21
333.6020650171
 31
0.0
  0
LINE
  5
1F0
330
1F
100
AcDbEntity
  8
0
  6
Continuous
 62
     7
370
    25
100
AcDbLine
 10
-2001.2437012835
 20
333.6020650171
 30
0.0
 11
-386.2437012835
 21
333.6020650171
 31
0.0
  0
LINE
  5
1F1
330
1F
100
AcDbEntity
  8
0
  6
Continuous
 62
     7
370
    25
100
AcDbLine
 10
-361.2437012835
 20
333.6020650171
 30
0.0
 11
-346.7437012835
 21
333.6020650171
 31
0.0
  0
LINE
  5
1F2
330
1F
100
AcDbEntity
  8
0
  6
Continuous
 62
     7
370
    25
100
AcDbLine
 10
-2040.7437012835
 20
333.6020650171
 30
0.0
 11
-2043.7437012835
 21
330.6464663688
 31
0.0
  0
LINE
  5
1F3
330
1F
100
AcDbEntity
  8
0
  6
Continuous
 62
     7
370
    25
100
AcDbLine
 10
2453.2562987165
 20
274.4817788451
 30
0.0
 11
2443.7562987165
 21
274.4817788451
 31
0.0
  0
LINE
  5
1F4
330
1F
100
AcDbEntity
  8
0
  6
Continuous
 62
     7
370
    25
100
AcDbLine
 10
2418.7562987165
 20
274.4817788451
 30
0.0
 11
793.7562987165
 21
274.4817788451
 31
0.0
  0
LINE
  5
1F5
330
1F
100
AcDbEntity
  8
0
  6
Continuous
 62
     7
370
    25
100
AcDbLine
 10
768.7562987165
 20
274.4817788451
 30
0.0
 11
759.2562987165
 21
274.4817788451
 31
0.0
  0
LINE
  5
1F6
330
1F
100
AcDbEntity
  8
0
  6
Continuous
 62
     7
370
    25
100
AcDbLine
 10
759.2562987165
 20
274.4817788451
 30
0.0
 11
759.2562987165
 21
277.951611516
 31
0.0
  0
LINE
  5
1F7
330
1F
100
AcDbEntity
  8
0
  6
Continuous
 62
     7
370
    25
100
AcDbLine
 10
759.2562987165
 20
277.951611516
 30
0.0
 11
768.7562987165
 21
277.951611516
 31
0.0
  0
LINE
  5
1F8
330
1F
100
AcDbEntity
  8
0
  6
Continuous
 62
     7
370
    25
100
AcDbLine
 10
793.7562987165
 20
277.951611516
 30
0.0
 11
2418.7562987165
 21
277.951611516
 31
0.0
  0
LINE
  5
1F9
330
1F
100
AcDbEntity
  8
0
  6
Continuous
 62
     7
370
    25
100
AcDbLine
 10
2443.7562987165
 20
277.951611516
 30
0.0
 11
2453.2562987165
 21
277.951611516
 31
0.0
  0
LINE
  5
1FA
330
1F
100
AcDbEntity
  8
0
  6
Continuous
 62
     7
370
    25
100
AcDbLine
 10
2453.2562987165
 20
274.4817788451
 30
0.0
 11
2453.2562987165
 21
277.951611516
 31
0.0
  0
LINE
  5
1FB
330
1F
100
AcDbEntity
  8
0
  6
Continuous
 62
     7
370
    25
100
AcDbLine
 10
759.2562987165
 20
274.4817788451
 30
0.0
 11
756.2562987165
 21
277.4373774935
 31
0.0
  0
LINE
  5
1FC
330
1F
100
AcDbEntity
  8
0
  6
Continuous
 62
     7
370
    25
100
AcDbLine
 10
759.2562987165
 20
277.951611516
 30
0.0
 11
756.2562987165
 21
277.4373774935
 31
0.0
  0
LINE
  5
1FD
330
1F
100
AcDbEntity
  8
0
  6
Continuous
 62
     7
370
    25
100
AcDbLine
 10
2456.2562987165
 20
277.4373774935
 30
0.0
 11
2453.2562987165
 21
277.951611516
 31
0.0
  0
LINE
  5
1FE
330
1F
100
AcDbEntity
  8
0
  6
Continuous
 62
     7
370
    25
100
AcDbLine
 10
2453.2562987165
 20
274.4817788451
 30
0.0
 11
2456.2562987165
 21
277.4373774935
 31
0.0
  0
LINE
  5
1FF
330
1F
100
AcDbEntity
  8
0
  6
Continuous
 62
     7
370
    25
100
AcDbLine
 10
2453.2562987165
 20
277.951611516
 30
0.0
 11
2453.2562987165
 21
279.7955304105
 31
0.0
  0
LINE
  5
200
330
1F
100
AcDbEntity
  8
0
  6
Continuous
 62
     7
370
    25
100
AcDbLine
 10
759.2562987165
 20
279.7955304105
 30
0.0
 11
759.2562987165
 21
277.951611516
 31
0.0
  0
LINE
  5
201
330
1F
100
AcDbEntity
  8
0
  6
Continuous
 62
     7
370
    25
100
AcDbLine
 10
756.2562987165
 20
277.4373774935
 30
0.0
 11
756.2562987165
 21
282.7511290588
 31
0.0
  0
LINE
  5
202
330
1F
100
AcDbEntity
  8
0
  6
Continuous
 62
     7
370
    25
100
AcDbLine
 10
2456.2562987165
 20
282.7511290588
 30
0.0
 11
2456.2562987165
 21
277.4373774935
 31
0.0
  0
LINE
  5
203
330
1F
100
AcDbEntity
  8
0
  6
Continuous
 62
     7
370
    25
100
AcDbLine
 10
2453.2562987165
 20
260.0832262165
 30
0.0
 11
2453.2562987165
 21
274.4817788451
 31
0.0
  0
LINE
  5
204
330
1F
100
AcDbEntity
  8
0
  6
Continuous
 62
     7
370
    25
100
AcDbLine
 10
759.2562987165
 20
260.0832262165
 30
0.0
 11
768.7562987165
 21
260.0832262165
 31
0.0
  0
LINE
  5
205
330
1F
100
AcDbEntity
  8
0
  6
Continuous
 62
     7
370
    25
100
AcDbLine
 10
793.7562987165
 20
260.0832262165
 30
0.0
 11
2418.7562987165
 21
260.0832262165
 31
0.0
  0
LINE
  5
206
330
1F
100
AcDbEntity
  8
0
  6
Continuous
 62
     7
370
    25
100
AcDbLine
 10
2443.7562987165
 20
260.0832262165
 30
0.0
 11
2453.2562987165
 21
260.0832262165
 31
0.0
  0
LINE
  5
207
330
1F
100
AcDbEntity
  8
0
  6
Continuous
 62
     7
370
    25
100
AcDbLine
 10
759.2562987165
 20
274.4817788451
 30
0.0
 11
759.2562987165
 21
260.0832262165
 31
0.0
  0
LINE
  5
208
330
1F
100
AcDbEntity
  8
0
  6
Continuous
 62
     7
370
    25
100
AcDbLine
 10
756.2562987165
 20
263.0388248649
 30
0.0
 11
756.2562987165
 21
277.4373774935
 31
0.0
  0
LINE
  5
209
330
1F
100
AcDbEntity
  8
0
  6
Continuous
 62
     7
370
    25
100
AcDbLine
 10
756.2562987165
 20
263.0388248649
 30
0.0
 11
759.2562987165
 21
260.0832262165
 31
0.0
  0
LINE
  5
20A
330
1F
100
AcDbEntity
  8
0
  6
Continuous
 62
     7
370
    25
100
AcDbLine
 10
2456.2562987165
 20
277.4373774935
 30
0.0
 11
2456.2562987165
 21
263.0388248649
 31
0.0
  0
LINE
  5
20B
330
1F
100
AcDbEntity
  8
0
  6
Continuous
 62
     7
370
    25
100
AcDbLine
 10
2456.2562987165
 20
263.0388248649
 30
0.0
 11
2453.2562987165
 21
260.0832262165
 31
0.0
  0
LINE
  5
20C
330
1F
100
AcDbEntity
  8
0
  6
Continuous
 62
     7
370
    25
100
AcDbLine
 10
-346.7437012835
 20
254.7694746512
 30
0.0
 11
-361.2437012835
 21
254.7694746512
 31
0.0
  0
LINE
  5
20D
330
1F
100
AcDbEntity
  8
0
  6
Continuous
 62
     7
370
    25
100
AcDbLine
 10
-386.2437012835
 20
254.7694746512
 30
0.0
 11
-2001.2437012835
 21
254.7694746512
 31
0.0
  0
LINE
  5
20E
330
1F
100
AcDbEntity
  8
0
  6
Continuous
 62
     7
370
    25
100
AcDbLine
 10
-2026.2437012835
 20
254.7694746512
 30
0.0
 11
-2040.7437012835
 21
254.7694746512
 31
0.0
  0
LINE
  5
20F
330
1F
100
AcDbEntity
  8
0
  6
Continuous
 62
     7
370
    25
100
AcDbLine
 10
-2040.7437012835
 20
254.7694746512
 30
0.0
 11
-2040.7437012835
 21
258.239307322
 31
0.0
  0
LINE
  5
210
330
1F
100
AcDbEntity
  8
0
  6
Continuous
 62
     7
370
    25
100
AcDbLine
 10
-2040.7437012835
 20
258.239307322
 30
0.0
 11
-2026.2437012835
 21
258.239307322
 31
0.0
  0
LINE
  5
211
330
1F
100
AcDbEntity
  8
0
  6
Continuous
 62
     7
370
    25
100
AcDbLine
 10
-2001.2437012835
 20
258.239307322
 30
0.0
 11
-386.2437012835
 21
258.239307322
 31
0.0
  0
LINE
  5
212
330
1F
100
AcDbEntity
  8
0
  6
Continuous
 62
     7
370
    25
100
AcDbLine
 10
-361.2437012835
 20
258.239307322
 30
0.0
 11
-346.7437012835
 21
258.239307322
 31
0.0
  0
LINE
  5
213
330
1F
100
AcDbEntity
  8
0
  6
Continuous
 62
     7
370
    25
100
AcDbLine
 10
-346.7437012835
 20
254.7694746512
 30
0.0
 11
-346.7437012835
 21
258.239307322
 31
0.0
  0
LINE
  5
214
330
1F
100
AcDbEntity
  8
0
  6
Continuous
 62
     7
370
    25
100
AcDbLine
 10
-343.7437012835
 20
257.7250732996
 30
0.0
 11
-346.7437012835
 21
258.239307322
 31
0.0
  0
LINE
  5
215
330
1F
100
AcDbEntity
  8
0
  6
Continuous
 62
     7
370
    25
100
AcDbLine
 10
-346.7437012835
 20
254.7694746512
 30
0.0
 11
-343.7437012835
 21
257.7250732996
 31
0.0
  0
LINE
  5
216
330
1F
100
AcDbEntity
  8
0
  6
Continuous
 62
     7
370
    25
100
AcDbLine
 10
-2040.7437012835
 20
254.7694746512
 30
0.0
 11
-2043.7437012835
 21
257.7250732996
 31
0.0
  0
LINE
  5
217
330
1F
100
AcDbEntity
  8
0
  6
Continuous
 62
     7
370
    25
100
AcDbLine
 10
-2040.7437012835
 20
258.239307322
 30
0.0
 11
-2043.7437012835
 21
257.7250732996
 31
0.0
  0
LINE
  5
218
330
1F
100
AcDbEntity
  8
0
  6
Continuous
 62
     7
370
    25
100
AcDbLine
 10
-346.7437012835
 20
258.239307322
 30
0.0
 11
-346.7437012835
 21
260.0832262165
 31
0.0
  0
LINE
  5
219
330
1F
100
AcDbEntity
  8
0
  6
Continuous
 62
     7
370
    25
100
AcDbLine
 10
-2040.7437012835
 20
260.0832262165
 30
0.0
 11
-2040.7437012835
 21
258.239307322
 31
0.0
  0
LINE
  5
21A
330
1F
100
AcDbEntity
  8
0
  6
Continuous
 62
     7
370
    25
100
AcDbLine
 10
-343.7437012835
 20
263.0388248649
 30
0.0
 11
-343.7437012835
 21
257.7250732996
 31
0.0
  0
LINE
  5
21B
330
1F
100
AcDbEntity
  8
0
  6
Continuous
 62
     7
370
    25
100
AcDbLine
 10
-2043.7437012835
 20
257.7250732996
 30
0.0
 11
-2043.7437012835
 21
263.0388248649
 31
0.0
  0
LINE
  5
21C
330
1F
100
AcDbEntity
  8
0
  6
Continuous
 62
     7
370
    25
100
AcDbLine
 10
-346.7437012835
 20
240.3709220226
 30
0.0
 11
-346.7437012835
 21
254.7694746512
 31
0.0
  0
LINE
  5
21D
330
1F
100
AcDbEntity
  8
0
  6
Continuous
 62
     7
370
    25
100
AcDbLine
 10
-343.7437012835
 20
257.7250732996
 30
0.0
 11
-343.7437012835
 21
243.326520671
 31
0.0
  0
LINE
  5
21E
330
1F
100
AcDbEntity
  8
0
  6
Continuous
 62
     7
370
    25
100
AcDbLine
 10
-343.7437012835
 20
243.326520671
 30
0.0
 11
-346.7437012835
 21
240.3709220226
 31
0.0
  0
LINE
  5
21F
330
1F
100
AcDbEntity
  8
0
  6
Continuous
 62
     7
370
    25
100
AcDbLine
 10
-2040.7437012835
 20
240.3709220226
 30
0.0
 11
-2026.2437012835
 21
240.3709220226
 31
0.0
  0
LINE
  5
220
330
1F
100
AcDbEntity
  8
0
  6
Continuous
 62
     7
370
    25
100
AcDbLine
 10
-2001.2437012835
 20
240.3709220226
 30
0.0
 11
-386.2437012835
 21
240.3709220226
 31
0.0
  0
LINE
  5
221
330
1F
100
AcDbEntity
  8
0
  6
Continuous
 62
     7
370
    25
100
AcDbLine
 10
-361.2437012835
 20
240.3709220226
 30
0.0
 11
-346.7437012835
 21
240.3709220226
 31
0.0
  0
LINE
  5
222
330
1F
100
AcDbEntity
  8
0
  6
Continuous
 62
     7
370
    25
100
AcDbLine
 10
-2040.7437012835
 20
254.7694746512
 30
0.0
 11
-2040.7437012835
 21
240.3709220226
 31
0.0
  0
LINE
  5
223
330
1F
100
AcDbEntity
  8
0
  6
Continuous
 62
     7
370
    25
100
AcDbLine
 10
-2043.7437012835
 20
243.326520671
 30
0.0
 11
-2043.7437012835
 21
257.7250732996
 31
0.0
  0
LINE
  5
224
330
1F
100
AcDbEntity
  8
0
  6
Continuous
 62
     7
370
    25
100
AcDbLine
 10
-2043.7437012835
 20
243.326520671
 30
0.0
 11
-2040.7437012835
 21
240.3709220226
 31
0.0
  0
LINE
  5
225
330
1F
100
AcDbEntity
  8
0
  6
Continuous
 62
     7
370
    25
100
AcDbLine
 10
2453.2562987165
 20
-109.2948528047
 30
0.0
 11
759.2562987165
 21
-109.2948528047
 31
0.0
  0
LINE
  5
226
330
1F
100
AcDbEntity
  8
0
  6
Continuous
 62
     7
370
    25
100
AcDbLine
 10
759.2562987165
 20
-109.2948528047
 30
0.0
 11
759.2562987165
 21
-105.8250201339
 31
0.0
  0
LINE
  5
227
330
1F
100
AcDbEntity
  8
0
  6
Continuous
 62
     7
370
    25
100
AcDbLine
 10
759.2562987165
 20
-105.8250201339
 30
0.0
 11
2453.2562987165
 21
-105.8250201339
 31
0.0
  0
LINE
  5
228
330
1F
100
AcDbEntity
  8
0
  6
Continuous
 62
     7
370
    25
100
AcDbLine
 10
2453.2562987165
 20
-109.2948528047
 30
0.0
 11
2453.2562987165
 21
-105.8250201339
 31
0.0
  0
LINE
  5
229
330
1F
100
AcDbEntity
  8
0
  6
Continuous
 62
     7
370
    25
100
AcDbLine
 10
759.2562987165
 20
-109.2948528047
 30
0.0
 11
756.2562987165
 21
-106.3392541564
 31
0.0
  0
LINE
  5
22A
330
1F
100
AcDbEntity
  8
0
  6
Continuous
 62
     7
370
    25
100
AcDbLine
 10
759.2562987165
 20
-105.8250201339
 30
0.0
 11
756.2562987165
 21
-106.3392541564
 31
0.0
  0
LINE
  5
22B
330
1F
100
AcDbEntity
  8
0
  6
Continuous
 62
     7
370
    25
100
AcDbLine
 10
2456.2562987165
 20
-106.3392541564
 30
0.0
 11
2453.2562987165
 21
-105.8250201339
 31
0.0
  0
LINE
  5
22C
330
1F
100
AcDbEntity
  8
0
  6
Continuous
 62
     7
370
    25
100
AcDbLine
 10
2456.2562987165
 20
-106.3392541564
 30
0.0
 11
2453.2562987165
 21
-109.2948528047
 31
0.0
  0
LINE
  5
22D
330
1F
100
AcDbEntity
  8
0
  6
Continuous
 62
     7
370
    25
100
AcDbLine
 10
759.2562987165
 20
-43.0816815888
 30
0.0
 11
759.2562987165
 21
-105.8250201339
 31
0.0
  0
LINE
  5
22E
330
1F
100
AcDbEntity
  8
0
  6
Continuous
 62
     7
370
    25
100
AcDbLine
 10
2366.2562987165
 20
-23.06825798
 30
0.0
 11
846.2562987165
 21
-23.06825798
 31
0.0
  0
LINE
  5
22F
330
1F
100
AcDbEntity
  8
0
  6
Continuous
 62
     7
370
    25
100
AcDbLine
 10
2453.2562987165
 20
-105.8250201339
 30
0.0
 11
2453.2562987165
 21
-43.0816815888
 31
0.0
  0
LINE
  5
230
330
1F
100
AcDbEntity
  8
0
  6
Continuous
 62
     7
370
    25
100
AcDbLine
 10
756.2562987165
 20
-106.3392541564
 30
0.0
 11
756.2562987165
 21
-40.1260829405
 31
0.0
  0
LINE
  5
231
330
1F
100
AcDbEntity
  8
0
  6
Continuous
 62
     7
370
    25
100
AcDbLine
 10
2456.2562987165
 20
-40.1260829405
 30
0.0
 11
2456.2562987165
 21
-106.3392541564
 31
0.0
  0
LINE
  5
232
330
1F
100
AcDbEntity
  8
0
  6
Continuous
 62
     7
370
    25
100
AcDbLine
 10
759.2562987165
 20
-109.2948528047
 30
0.0
 11
759.2562987165
 21
-115.1228383925
 31
0.0
  0
LINE
  5
233
330
1F
100
AcDbEntity
  8
0
  6
Continuous
 62
     7
370
    25
100
AcDbLine
 10
759.2562987165
 20
-115.1228383925
 30
0.0
 11
756.2562987165
 21
-112.1672397441
 31
0.0
  0
LINE
  5
234
330
1F
100
AcDbEntity
  8
0
  6
Continuous
 62
     7
370
    25
100
AcDbLine
 10
756.2562987165
 20
-112.1672397441
 30
0.0
 11
756.2562987165
 21
-106.3392541564
 31
0.0
  0
LINE
  5
235
330
1F
100
AcDbEntity
  8
0
  6
Continuous
 62
     7
370
    25
100
AcDbLine
 10
2456.2562987165
 20
-106.3392541564
 30
0.0
 11
2456.2562987165
 21
-112.1672397441
 31
0.0
  0
LINE
  5
236
330
1F
100
AcDbEntity
  8
0
  6
Continuous
 62
     7
370
    25
100
AcDbLine
 10
2456.2562987165
 20
-112.1672397441
 30
0.0
 11
2453.2562987165
 21
-115.1228383925
 31
0.0
  0
LINE
  5
237
330
1F
100
AcDbEntity
  8
0
  6
Continuous
 62
     7
370
    25
100
AcDbLine
 10
2453.2562987165
 20
-115.1228383925
 30
0.0
 11
2453.2562987165
 21
-109.2948528047
 31
0.0
  0
LINE
  5
238
330
1F
100
AcDbEntity
  8
0
  6
Continuous
 62
     7
370
    25
100
AcDbLine
 10
759.2562987165
 20
-115.1228383925
 30
0.0
 11
2453.2562987165
 21
-115.1228383925
 31
0.0
  0
LINE
  5
239
330
1F
100
AcDbEntity
  8
0
  6
Continuous
 62
     7
370
    25
100
AcDbLine
 10
846.2562987165
 20
-20.6268933541
 30
0.0
 11
2366.2562987165
 21
-20.6268933541
 31
0.0
  0
LINE
  5
23A
330
1F
100
AcDbEntity
  8
0
  6
Continuous
 62
     7
370
    25
100
AcDbLine
 10
759.2562987165
 20
254.7694746512
 30
0.0
 11
756.2562987165
 21
257.7250732996
 31
0.0
  0
LINE
  5
23B
330
1F
100
AcDbEntity
  8
0
  6
Continuous
 62
     7
370
    25
100
AcDbLine
 10
759.2562987165
 20
258.239307322
 30
0.0
 11
756.2562987165
 21
257.7250732996
 31
0.0
  0
LINE
  5
23C
330
1F
100
AcDbEntity
  8
0
  6
Continuous
 62
     7
370
    25
100
AcDbLine
 10
759.2562987165
 20
254.7694746512
 30
0.0
 11
759.2562987165
 21
258.239307322
 31
0.0
  0
LINE
  5
23D
330
1F
100
AcDbEntity
  8
0
  6
Continuous
 62
     7
370
    25
100
AcDbLine
 10
2453.2562987165
 20
254.7694746512
 30
0.0
 11
2443.7562987165
 21
254.7694746512
 31
0.0
  0
LINE
  5
23E
330
1F
100
AcDbEntity
  8
0
  6
Continuous
 62
     7
370
    25
100
AcDbLine
 10
2418.7562987165
 20
254.7694746512
 30
0.0
 11
793.7562987165
 21
254.7694746512
 31
0.0
  0
LINE
  5
23F
330
1F
100
AcDbEntity
  8
0
  6
Continuous
 62
     7
370
    25
100
AcDbLine
 10
768.7562987165
 20
254.7694746512
 30
0.0
 11
759.2562987165
 21
254.7694746512
 31
0.0
  0
LINE
  5
240
330
1F
100
AcDbEntity
  8
0
  6
Continuous
 62
     7
370
    25
100
AcDbLine
 10
759.2562987165
 20
258.239307322
 30
0.0
 11
768.7562987165
 21
258.239307322
 31
0.0
  0
LINE
  5
241
330
1F
100
AcDbEntity
  8
0
  6
Continuous
 62
     7
370
    25
100
AcDbLine
 10
793.7562987165
 20
258.239307322
 30
0.0
 11
2418.7562987165
 21
258.239307322
 31
0.0
  0
LINE
  5
242
330
1F
100
AcDbEntity
  8
0
  6
Continuous
 62
     7
370
    25
100
AcDbLine
 10
2443.7562987165
 20
258.239307322
 30
0.0
 11
2453.2562987165
 21
258.239307322
 31
0.0
  0
LINE
  5
243
330
1F
100
AcDbEntity
  8
0
  6
Continuous
 62
     7
370
    25
100
AcDbLine
 10
2453.2562987165
 20
254.7694746512
 30
0.0
 11
2453.2562987165
 21
258.239307322
 31
0.0
  0
LINE
  5
244
330
1F
100
AcDbEntity
  8
0
  6
Continuous
 62
     7
370
    25
100
AcDbLine
 10
2456.2562987165
 20
257.7250732996
 30
0.0
 11
2453.2562987165
 21
258.239307322
 31
0.0
  0
LINE
  5
245
330
1F
100
AcDbEntity
  8
0
  6
Continuous
 62
     7
370
    25
100
AcDbLine
 10
2453.2562987165
 20
254.7694746512
 30
0.0
 11
2456.2562987165
 21
257.7250732996
 31
0.0
  0
LINE
  5
246
330
1F
100
AcDbEntity
  8
0
  6
Continuous
 62
     7
370
    25
100
AcDbLine
 10
759.2562987165
 20
260.0832262165
 30
0.0
 11
759.2562987165
 21
258.239307322
 31
0.0
  0
LINE
  5
247
330
1F
100
AcDbEntity
  8
0
  6
Continuous
 62
     7
370
    25
100
AcDbLine
 10
756.2562987165
 20
257.7250732996
 30
0.0
 11
756.2562987165
 21
263.0388248649
 31
0.0
  0
LINE
  5
248
330
1F
100
AcDbEntity
  8
0
  6
Continuous
 62
     7
370
    25
100
AcDbLine
 10
2453.2562987165
 20
258.239307322
 30
0.0
 11
2453.2562987165
 21
260.0832262165
 31
0.0
  0
LINE
  5
249
330
1F
100
AcDbEntity
  8
0
  6
Continuous
 62
     7
370
    25
100
AcDbLine
 10
2456.2562987165
 20
263.0388248649
 30
0.0
 11
2456.2562987165
 21
257.7250732996
 31
0.0
  0
LINE
  5
24A
330
1F
100
AcDbEntity
  8
0
  6
Continuous
 62
     7
370
    25
100
AcDbLine
 10
756.2562987165
 20
243.326520671
 30
0.0
 11
756.2562987165
 21
257.7250732996
 31
0.0
  0
LINE
  5
24B
330
1F
100
AcDbEntity
  8
0
  6
Continuous
 62
     7
370
    25
100
AcDbLine
 10
759.2562987165
 20
254.7694746512
 30
0.0
 11
759.2562987165
 21
240.3709220226
 31
0.0
  0
LINE
  5
24C
330
1F
100
AcDbEntity
  8
0
  6
Continuous
 62
     7
370
    25
100
AcDbLine
 10
756.2562987165
 20
243.326520671
 30
0.0
 11
759.2562987165
 21
240.3709220226
 31
0.0
  0
LINE
  5
24D
330
1F
100
AcDbEntity
  8
0
  6
Continuous
 62
     7
370
    25
100
AcDbLine
 10
2453.2562987165
 20
240.3709220226
 30
0.0
 11
2453.2562987165
 21
254.7694746512
 31
0.0
  0
LINE
  5
24E
330
1F
100
AcDbEntity
  8
0
  6
Continuous
 62
     7
370
    25
100
AcDbLine
 10
759.2562987165
 20
240.3709220226
 30
0.0
 11
768.7562987165
 21
240.3709220226
 31
0.0
  0
LINE
  5
24F
330
1F
100
AcDbEntity
  8
0
  6
Continuous
 62
     7
370
    25
100
AcDbLine
 10
793.7562987165
 20
240.3709220226
 30
0.0
 11
2418.7562987165
 21
240.3709220226
 31
0.0
  0
LINE
  5
250
330
1F
100
AcDbEntity
  8
0
  6
Continuous
 62
     7
370
    25
100
AcDbLine
 10
2443.7562987165
 20
240.3709220226
 30
0.0
 11
2453.2562987165
 21
240.3709220226
 31
0.0
  0
LINE
  5
251
330
1F
100
AcDbEntity
  8
0
  6
Continuous
 62
     7
370
    25
100
AcDbLine
 10
2456.2562987165
 20
257.7250732996
 30
0.0
 11
2456.2562987165
 21
243.326520671
 31
0.0
  0
LINE
  5
252
330
1F
100
AcDbEntity
  8
0
  6
Continuous
 62
     7
370
    25
100
AcDbLine
 10
2456.2562987165
 20
243.326520671
 30
0.0
 11
2453.2562987165
 21
240.3709220226
 31
0.0
  0
LINE
  5
253
330
1F
100
AcDbEntity
  8
0
  6
Continuous
 62
     7
370
    25
100
AcDbLine
 10
759.2562987165
 20
-222.5928009917
 30
0.0
 11
756.2562987165
 21
-219.6372023433
 31
0.0
  0
LINE
  5
254
330
1F
100
AcDbEntity
  8
0
  6
Continuous
 62
     7
370
    25
100
AcDbLine
 10
759.2562987165
 20
-219.1229683208
 30
0.0
 11
756.2562987165
 21
-219.6372023433
 31
0.0
  0
LINE
  5
255
330
1F
100
AcDbEntity
  8
0
  6
Continuous
 62
     7
370
    25
100
AcDbLine
 10
759.2562987165
 20
-222.5928009917
 30
0.0
 11
759.2562987165
 21
-219.1229683208
 31
0.0
  0
LINE
  5
256
330
1F
100
AcDbEntity
  8
0
  6
Continuous
 62
     7
370
    25
100
AcDbLine
 10
2453.2562987165
 20
-222.5928009916
 30
0.0
 11
759.2562987165
 21
-222.5928009917
 31
0.0
  0
LINE
  5
257
330
1F
100
AcDbEntity
  8
0
  6
Continuous
 62
     7
370
    25
100
AcDbLine
 10
759.2562987165
 20
-219.1229683208
 30
0.0
 11
2453.2562987165
 21
-219.1229683208
 31
0.0
  0
LINE
  5
258
330
1F
100
AcDbEntity
  8
0
  6
Continuous
 62
     7
370
    25
100
AcDbLine
 10
2453.2562987165
 20
-222.5928009916
 30
0.0
 11
2453.2562987165
 21
-219.1229683208
 31
0.0
  0
LINE
  5
259
330
1F
100
AcDbEntity
  8
0
  6
Continuous
 62
     7
370
    25
100
AcDbLine
 10
2456.2562987165
 20
-219.6372023433
 30
0.0
 11
2453.2562987165
 21
-219.1229683208
 31
0.0
  0
LINE
  5
25A
330
1F
100
AcDbEntity
  8
0
  6
Continuous
 62
     7
370
    25
100
AcDbLine
 10
2456.2562987165
 20
-219.6372023433
 30
0.0
 11
2453.2562987165
 21
-222.5928009916
 31
0.0
  0
LINE
  5
25B
330
1F
100
AcDbEntity
  8
0
  6
Continuous
 62
     7
370
    25
100
AcDbLine
 10
759.2562987165
 20
-136.3662061669
 30
0.0
 11
759.2562987165
 21
-219.1229683208
 31
0.0
  0
LINE
  5
25C
330
1F
100
AcDbEntity
  8
0
  6
Continuous
 62
     7
370
    25
100
AcDbLine
 10
2453.2562987165
 20
-136.3662061669
 30
0.0
 11
759.2562987165
 21
-136.3662061669
 31
0.0
  0
LINE
  5
25D
330
1F
100
AcDbEntity
  8
0
  6
Continuous
 62
     7
370
    25
100
AcDbLine
 10
2453.2562987165
 20
-219.1229683208
 30
0.0
 11
2453.2562987165
 21
-136.3662061669
 31
0.0
  0
LINE
  5
25E
330
1F
100
AcDbEntity
  8
0
  6
Continuous
 62
     7
370
    25
100
AcDbLine
 10
756.2562987165
 20
-219.6372023433
 30
0.0
 11
756.2562987165
 21
-136.8804401894
 31
0.0
  0
LINE
  5
25F
330
1F
100
AcDbEntity
  8
0
  6
Continuous
 62
     7
370
    25
100
AcDbLine
 10
756.2562987165
 20
-136.8804401894
 30
0.0
 11
759.2562987165
 21
-136.3662061669
 31
0.0
  0
LINE
  5
260
330
1F
100
AcDbEntity
  8
0
  6
Continuous
 62
     7
370
    25
100
AcDbLine
 10
2456.2562987165
 20
-136.8804401894
 30
0.0
 11
2456.2562987165
 21
-219.6372023433
 31
0.0
  0
LINE
  5
261
330
1F
100
AcDbEntity
  8
0
  6
Continuous
 62
     7
370
    25
100
AcDbLine
 10
2453.2562987165
 20
-136.3662061669
 30
0.0
 11
2456.2562987165
 21
-136.8804401894
 31
0.0
  0
LINE
  5
262
330
1F
100
AcDbEntity
  8
0
  6
Continuous
 62
     7
370
    25
100
AcDbLine
 10
2456.2562987165
 20
-219.6372023433
 30
0.0
 11
2456.2562987165
 21
-225.4651879311
 31
0.0
  0
LINE
  5
263
330
1F
100
AcDbEntity
  8
0
  6
Continuous
 62
     7
370
    25
100
AcDbLine
 10
2456.2562987165
 20
-225.4651879311
 30
0.0
 11
2453.2562987165
 21
-228.4207865794
 31
0.0
  0
LINE
  5
264
330
1F
100
AcDbEntity
  8
0
  6
Continuous
 62
     7
370
    25
100
AcDbLine
 10
2453.2562987165
 20
-228.4207865794
 30
0.0
 11
2453.2562987165
 21
-222.5928009916
 31
0.0
  0
LINE
  5
265
330
1F
100
AcDbEntity
  8
0
  6
Continuous
 62
     7
370
    25
100
AcDbLine
 10
759.2562987165
 20
-228.4207865794
 30
0.0
 11
2453.2562987165
 21
-228.4207865794
 31
0.0
  0
LINE
  5
266
330
1F
100
AcDbEntity
  8
0
  6
Continuous
 62
     7
370
    25
100
AcDbLine
 10
759.2562987165
 20
-222.5928009917
 30
0.0
 11
759.2562987165
 21
-228.4207865794
 31
0.0
  0
LINE
  5
267
330
1F
100
AcDbEntity
  8
0
  6
Continuous
 62
     7
370
    25
100
AcDbLine
 10
759.2562987165
 20
-228.4207865794
 30
0.0
 11
756.2562987165
 21
-225.4651879311
 31
0.0
  0
LINE
  5
268
330
1F
100
AcDbEntity
  8
0
  6
Continuous
 62
     7
370
    25
100
AcDbLine
 10
756.2562987165
 20
-225.4651879311
 30
0.0
 11
756.2562987165
 21
-219.6372023433
 31
0.0
  0
LINE
  5
269
330
1F
100
AcDbEntity
  8
0
  6
Continuous
 62
     7
370
    25
100
AcDbLine
 10
756.2562987165
 20
-136.8804401894
 30
0.0
 11
759.2562987165
 21
-133.924841541
 31
0.0
  0
LINE
  5
26A
330
1F
100
AcDbEntity
  8
0
  6
Continuous
 62
     7
370
    25
100
AcDbLine
 10
759.2562987165
 20
-136.3662061669
 30
0.0
 11
759.2562987165
 21
-133.924841541
 31
0.0
  0
LINE
  5
26B
330
1F
100
AcDbEntity
  8
0
  6
Continuous
 62
     7
370
    25
100
AcDbLine
 10
759.2562987165
 20
-133.924841541
 30
0.0
 11
2453.2562987165
 21
-133.924841541
 31
0.0
  0
LINE
  5
26C
330
1F
100
AcDbEntity
  8
0
  6
Continuous
 62
     7
370
    25
100
AcDbLine
 10
2453.2562987165
 20
-136.3662061669
 30
0.0
 11
2453.2562987165
 21
-133.924841541
 31
0.0
  0
LINE
  5
26D
330
1F
100
AcDbEntity
  8
0
  6
Continuous
 62
     7
370
    25
100
AcDbLine
 10
2453.2562987165
 20
-133.924841541
 30
0.0
 11
2456.2562987165
 21
-136.8804401894
 31
0.0
  0
LINE
  5
26E
330
1F
100
AcDbEntity
  8
0
  6
Continuous
 62
     7
370
    25
100
AcDbLine
 10
2366.2562987165
 20
4.0030953822
 30
0.0
 11
846.2562987165
 21
4.0030953822
 31
0.0
  0
LINE
  5
26F
330
1F
100
AcDbEntity
  8
0
  6
Continuous
 62
     7
370
    25
100
AcDbLine
 10
846.2562987165
 20
7.472928053
 30
0.0
 11
2366.2562987165
 21
7.472928053
 31
0.0
  0
LINE
  5
270
330
1F
100
AcDbEntity
  8
0
  6
Continuous
 62
     7
370
    25
100
AcDbLine
 10
2366.2562987165
 20
90.2296902069
 30
0.0
 11
846.2562987165
 21
90.2296902069
 31
0.0
  0
LINE
  5
271
330
1F
100
AcDbEntity
  8
0
  6
Continuous
 62
     7
370
    25
100
AcDbLine
 10
846.2562987165
 20
-1.8248902056
 30
0.0
 11
2366.2562987165
 21
-1.8248902056
 31
0.0
  0
LINE
  5
272
330
1F
100
AcDbEntity
  8
0
  6
Continuous
 62
     7
370
    25
100
AcDbLine
 10
846.2562987165
 20
92.6710548328
 30
0.0
 11
2366.2562987165
 21
92.6710548328
 31
0.0
  0
LINE
  5
273
330
1F
100
AcDbEntity
  8
0
  6
Continuous
 62
     7
370
    25
100
AcDbLine
 10
2366.2562987165
 20
229.7634413178
 30
0.0
 11
846.2562987165
 21
229.7634413178
 31
0.0
  0
LINE
  5
274
330
1F
100
AcDbEntity
  8
0
  6
Continuous
 62
     7
370
    25
100
AcDbLine
 10
846.2562987165
 20
229.7730758839
 30
0.0
 11
2366.2562987165
 21
229.7730758839
 31
0.0
  0
ELLIPSE
  5
275
330
1F
100
AcDbEntity
  8
0
  6
Continuous
 62
     7
370
    25
100
AcDbEllipse
 10
-2004.2437012835
 20
382.0297792154
 30
0.0
 11
0.0
 21
3.046271980910603
 31
0.0
210
0.0
220
0.0
230
1.0
 40
0.9848102923
 41
4.712388980384666
 42
6.283185307179586
  0
LINE
  5
276
330
1F
100
AcDbEntity
  8
0
  6
Continuous
 62
     7
370
    25
100
AcDbLine
 10
-2001.2437012835
 20
228.4648331389
 30
0.0
 11
-2001.2437012835
 21
382.0297792154
 31
0.0
  0
ELLIPSE
  5
277
330
1F
100
AcDbEntity
  8
0
  6
Continuous
 62
     7
370
    25
100
AcDbEllipse
 10
-2023.2437012835
 20
382.0297792154
 30
0.0
 11
0.0
 21
3.046271980910603
 31
0.0
210
0.0
220
0.0
230
1.0
 40
0.9848102923
 41
0.0
 42
1.570796326794915
  0
LINE
  5
278
330
1F
100
AcDbEntity
  8
0
  6
Continuous
 62
     7
370
    25
100
AcDbLine
 10
-2026.2437012835
 20
228.4648331389
 30
0.0
 11
-2026.2437012835
 21
382.0297792154
 31
0.0
  0
LINE
  5
279
330
1F
100
AcDbEntity
  8
0
  6
Continuous
 62
     7
370
    25
100
AcDbLine
 10
-2004.2437012835
 20
385.0760511963
 30
0.0
 11
-2023.2437012835
 21
385.0760511963
 31
0.0
  0
LINE
  5
27A
330
1F
100
AcDbEntity
  8
0
  6
Continuous
 62
     7
370
    25
100
AcDbLine
 10
-2006.2437012835
 20
-232.2367672138
 30
0.0
 11
-2004.2437012835
 21
-232.2367672138
 31
0.0
  0
ARC
  5
27B
330
1F
100
AcDbEntity
  8
0
  6
Continuous
 62
     7
370
    25
100
AcDbCircle
 10
-2004.0010467455
 20
-230.6497287803
 30
0.0
 40
1.605481925890194
100
AcDbArc
 50
261.3069308061
 51
298.1463081776
  0
LINE
  5
27C
330
1F
100
AcDbEntity
  8
0
  6
Continuous
 62
     7
370
    25
100
AcDbLine
 10
-2003.2437012835
 20
-232.065355873
 30
0.0
 11
-2003.2437012835
 21
-228.4207865794
 31
0.0
  0
LINE
  5
27D
330
1F
100
AcDbEntity
  8
0
  6
Continuous
 62
     7
370
    25
100
AcDbLine
 10
-2004.2437012835
 20
-232.5795898955
 30
0.0
 11
-2006.2437012835
 21
-232.5795898955
 31
0.0
  0
LINE
  5
27E
330
1F
100
AcDbEntity
  8
0
  6
Continuous
 62
     7
370
    25
100
AcDbLine
 10
-2001.2437012835
 20
-228.4207865794
 30
0.0
 11
-2001.2437012835
 21
-232.065355873
 31
0.0
  0
ARC
  5
27F
330
1F
100
AcDbEntity
  8
0
  6
Continuous
 62
     7
370
    25
100
AcDbCircle
 10
-2003.5157376694
 20
-227.8184745948
 30
0.0
 40
4.81644577767819
100
AcDbArc
 50
261.3069308062
 51
298.1463081775
  0
LINE
  5
280
330
1F
100
AcDbEntity
  8
0
  6
Continuous
 62
     7
370
    25
100
AcDbLine
 10
-2001.2437012835
 20
-115.1228383925
 30
0.0
 11
-2001.2437012835
 21
-133.924841541
 31
0.0
  0
LINE
  5
281
330
1F
100
AcDbEntity
  8
0
  6
Continuous
 62
     7
370
    25
100
AcDbLine
 10
-2026.2437012835
 20
-115.1228383925
 30
0.0
 11
-2026.2437012835
 21
-133.924841541
 31
0.0
  0
ELLIPSE
  5
282
330
1F
100
AcDbEntity
  8
0
  6
Continuous
 62
     7
370
    25
100
AcDbEllipse
 10
2421.7562987165
 20
382.0297792154
 30
0.0
 11
0.0
 21
3.046271980910603
 31
0.0
210
0.0
220
0.0
230
1.0
 40
0.9848102923
 41
0.0
 42
1.570796326794915
  0
LINE
  5
283
330
1F
100
AcDbEntity
  8
0
  6
Continuous
 62
     7
370
    25
100
AcDbLine
 10
2418.7562987165
 20
228.4648331389
 30
0.0
 11
2418.7562987165
 21
382.0297792154
 31
0.0
  0
ELLIPSE
  5
284
330
1F
100
AcDbEntity
  8
0
  6
Continuous
 62
     7
370
    25
100
AcDbEllipse
 10
2440.7562987165
 20
382.0297792154
 30
0.0
 11
0.0
 21
3.046271980910603
 31
0.0
210
0.0
220
0.0
230
1.0
 40
0.9848102923
 41
4.712388980384666
 42
6.283185307179586
  0
LINE
  5
285
330
1F
100
AcDbEntity
  8
0
  6
Continuous
 62
     7
370
    25
100
AcDbLine
 10
2443.7562987165
 20
228.4648331389
 30
0.0
 11
2443.7562987165
 21
382.0297792154
 31
0.0
  0
LINE
  5
286
330
1F
100
AcDbEntity
  8
0
  6
Continuous
 62
     7
370
    25
100
AcDbLine
 10
2440.7562987165
 20
385.0760511963
 30
0.0
 11
2421.7562987165
 21
385.0760511963
 31
0.0
  0
LINE
  5
287
330
1F
100
AcDbEntity
  8
0
  6
Continuous
 62
     7
370
    25
100
AcDbLine
 10
2418.7562987165
 20
-115.1228383925
 30
0.0
 11
2418.7562987165
 21
-133.924841541
 31
0.0
  0
LINE
  5
288
330
1F
100
AcDbEntity
  8
0
  6
Continuous
 62
     7
370
    25
100
AcDbLine
 10
2443.7562987165
 20
-115.1228383925
 30
0.0
 11
2443.7562987165
 21
-133.924841541
 31
0.0
  0
ELLIPSE
  5
289
330
1F
100
AcDbEntity
  8
0
  6
Continuous
 62
     7
370
    25
100
AcDbEllipse
 10
771.7562987165
 20
382.0297792154
 30
0.0
 11
0.0
 21
3.04627198091066
 31
0.0
210
0.0
220
0.0
230
1.0
 40
0.9848102923
 41
0.0
 42
1.570796326794934
  0
LINE
  5
28A
330
1F
100
AcDbEntity
  8
0
  6
Continuous
 62
     7
370
    25
100
AcDbLine
 10
768.7562987165
 20
228.4648331389
 30
0.0
 11
768.7562987165
 21
382.0297792154
 31
0.0
  0
ELLIPSE
  5
28B
330
1F
100
AcDbEntity
  8
0
  6
Continuous
 62
     7
370
    25
100
AcDbEllipse
 10
790.7562987165
 20
382.0297792154
 30
0.0
 11
0.0
 21
3.04627198091066
 31
0.0
210
0.0
220
0.0
230
1.0
 40
0.9848102923
 41
4.712388980384684
 42
6.283185307179586
  0
LINE
  5
28C
330
1F
100
AcDbEntity
  8
0
  6
Continuous
 62
     7
370
    25
100
AcDbLine
 10
793.7562987165
 20
228.4648331389
 30
0.0
 11
793.7562987165
 21
382.0297792154
 31
0.0
  0
LINE
  5
28D
330
1F
100
AcDbEntity
  8
0
  6
Continuous
 62
     7
370
    25
100
AcDbLine
 10
771.7562987165
 20
385.0760511963
 30
0.0
 11
790.7562987165
 21
385.0760511963
 31
0.0
  0
LINE
  5
28E
330
1F
100
AcDbEntity
  8
0
  6
Continuous
 62
     7
370
    25
100
AcDbLine
 10
768.7562987165
 20
-115.1228383925
 30
0.0
 11
768.7562987165
 21
-133.924841541
 31
0.0
  0
LINE
  5
28F
330
1F
100
AcDbEntity
  8
0
  6
Continuous
 62
     7
370
    25
100
AcDbLine
 10
793.7562987165
 20
-115.1228383925
 30
0.0
 11
793.7562987165
 21
-133.924841541
 31
0.0
  0
ELLIPSE
  5
290
330
1F
100
AcDbEntity
  8
0
  6
Continuous
 62
     7
370
    25
100
AcDbEllipse
 10
-364.2437012835
 20
382.0297792154
 30
0.0
 11
0.0
 21
3.046271980910603
 31
0.0
210
0.0
220
0.0
230
1.0
 40
0.9848102923
 41
4.712388980384666
 42
6.283185307179586
  0
LINE
  5
291
330
1F
100
AcDbEntity
  8
0
  6
Continuous
 62
     7
370
    25
100
AcDbLine
 10
-361.2437012835
 20
228.4648331389
 30
0.0
 11
-361.2437012835
 21
382.0297792154
 31
0.0
  0
ELLIPSE
  5
292
330
1F
100
AcDbEntity
  8
0
  6
Continuous
 62
     7
370
    25
100
AcDbEllipse
 10
-383.2437012835
 20
382.0297792154
 30
0.0
 11
0.0
 21
3.046271980910603
 31
0.0
210
0.0
220
0.0
230
1.0
 40
0.9848102923
 41
0.0
 42
1.570796326794934
  0
LINE
  5
293
330
1F
100
AcDbEntity
  8
0
  6
Continuous
 62
     7
370
    25
100
AcDbLine
 10
-386.2437012835
 20
228.4648331389
 30
0.0
 11
-386.2437012835
 21
382.0297792154
 31
0.0
  0
LINE
  5
294
330
1F
100
AcDbEntity
  8
0
  6
Continuous
 62
     7
370
    25
100
AcDbLine
 10
-383.2437012835
 20
385.0760511963
 30
0.0
 11
-364.2437012835
 21
385.0760511963
 31
0.0
  0
LINE
  5
295
330
1F
100
AcDbEntity
  8
0
  6
Continuous
 62
     7
370
    25
100
AcDbLine
 10
-384.2437012835
 20
-232.065355873
 30
0.0
 11
-384.2437012835
 21
-228.4207865794
 31
0.0
  0
ARC
  5
296
330
1F
100
AcDbEntity
  8
0
  6
Continuous
 62
     7
370
    25
100
AcDbCircle
 10
-383.4863558216
 20
-230.6497287803
 30
0.0
 40
1.605481925891521
100
AcDbArc
 50
241.8536918225
 51
278.6930691939
  0
LINE
  5
297
330
1F
100
AcDbEntity
  8
0
  6
Continuous
 62
     7
370
    25
100
AcDbLine
 10
-381.2437012835
 20
-232.2367672138
 30
0.0
 11
-383.2437012835
 21
-232.2367672138
 31
0.0
  0
LINE
  5
298
330
1F
100
AcDbEntity
  8
0
  6
Continuous
 62
     7
370
    25
100
AcDbLine
 10
-386.2437012835
 20
-228.4207865794
 30
0.0
 11
-386.2437012835
 21
-232.065355873
 31
0.0
  0
LINE
  5
299
330
1F
100
AcDbEntity
  8
0
  6
Continuous
 62
     7
370
    25
100
AcDbLine
 10
-383.2437012835
 20
-232.5795898955
 30
0.0
 11
-381.2437012835
 21
-232.5795898955
 31
0.0
  0
ARC
  5
29A
330
1F
100
AcDbEntity
  8
0
  6
Continuous
 62
     7
370
    25
100
AcDbCircle
 10
-383.9716648977
 20
-227.8184745948
 30
0.0
 40
4.81644577767779
100
AcDbArc
 50
241.8536918225
 51
278.6930691938
  0
LINE
  5
29B
330
1F
100
AcDbEntity
  8
0
  6
Continuous
 62
     7
370
    25
100
AcDbLine
 10
-386.2437012835
 20
-115.1228383925
 30
0.0
 11
-386.2437012835
 21
-133.924841541
 31
0.0
  0
LINE
  5
29C
330
1F
100
AcDbEntity
  8
0
  6
Continuous
 62
     7
370
    25
100
AcDbLine
 10
-361.2437012835
 20
-115.1228383925
 30
0.0
 11
-361.2437012835
 21
-133.924841541
 31
0.0
  0
LINE
  5
29D
330
1F
100
AcDbEntity
  8
0
  6
Continuous
 62
     7
370
    25
100
AcDbLine
 10
206.2562987165
 20
228.4648331389
 30
0.0
 11
-2593.7437012835
 21
228.4648331389
 31
0.0
  0
LINE
  5
29E
330
1F
100
AcDbEntity
  8
0
  6
Continuous
 62
     7
370
    25
100
AcDbLine
 10
206.2562987165
 20
222.4648331389
 30
0.0
 11
-2593.7437012835
 21
222.4648331389
 31
0.0
  0
LINE
  5
29F
330
1F
100
AcDbEntity
  8
0
  6
Continuous
 62
     7
370
    25
100
AcDbLine
 10
206.2562987165
 20
228.4648331389
 30
0.0
 11
206.2562987165
 21
222.4648331389
 31
0.0
  0
LINE
  5
2A0
330
1F
100
AcDbEntity
  8
0
  6
Continuous
 62
     7
370
    25
100
AcDbLine
 10
206.2562987165
 20
114.4648331389
 30
0.0
 11
-2593.7437012835
 21
114.4648331389
 31
0.0
  0
LINE
  5
2A1
330
1F
100
AcDbEntity
  8
0
  6
Continuous
 62
     7
370
    25
100
AcDbLine
 10
-2593.7437012835
 20
222.4648331389
 30
0.0
 11
-2593.7437012835
 21
114.4648331389
 31
0.0
  0
LINE
  5
2A2
330
1F
100
AcDbEntity
  8
0
  6
Continuous
 62
     7
370
    25
100
AcDbLine
 10
206.2562987165
 20
222.4648331389
 30
0.0
 11
206.2562987165
 21
114.4648331389
 31
0.0
  0
LINE
  5
2A3
330
1F
100
AcDbEntity
  8
0
  6
Continuous
 62
     7
370
    25
100
AcDbLine
 10
206.2562987165
 20
108.4648331389
 30
0.0
 11
-2593.7437012835
 21
108.4648331389
 31
0.0
  0
LINE
  5
2A4
330
1F
100
AcDbEntity
  8
0
  6
Continuous
 62
     7
370
    25
100
AcDbLine
 10
206.2562987165
 20
114.4648331389
 30
0.0
 11
206.2562987165
 21
108.4648331389
 31
0.0
  0
LINE
  5
2A5
330
1F
100
AcDbEntity
  8
0
  6
Continuous
 62
     7
370
    25
100
AcDbLine
 10
206.2562987165
 20
222.4648331389
 30
0.0
 11
3006.2562987165
 21
222.4648331389
 31
0.0
  0
LINE
  5
2A6
330
1F
100
AcDbEntity
  8
0
  6
Continuous
 62
     7
370
    25
100
AcDbLine
 10
206.2562987165
 20
228.4648331389
 30
0.0
 11
3006.2562987165
 21
228.4648331389
 31
0.0
  0
LINE
  5
2A7
330
1F
100
AcDbEntity
  8
0
  6
Continuous
 62
     7
370
    25
100
AcDbLine
 10
206.2562987165
 20
108.4648331389
 30
0.0
 11
3006.2562987165
 21
108.4648331389
 31
0.0
  0
LINE
  5
2A8
330
1F
100
AcDbEntity
  8
0
  6
Continuous
 62
     7
370
    25
100
AcDbLine
 10
206.2562987165
 20
114.4648331389
 30
0.0
 11
3006.2562987165
 21
114.4648331389
 31
0.0
  0
LINE
  5
2A9
330
1F
100
AcDbEntity
  8
0
  6
Continuous
 62
     7
370
    25
100
AcDbLine
 10
3006.2562987165
 20
114.4648331389
 30
0.0
 11
3006.2562987165
 21
222.4648331389
 31
0.0
  0
LWPOLYLINE
  5
2AA
330
1F
100
AcDbEntity
  8
0
  6
Continuous
 62
     8
370
    25
100
AcDbPolyline
 90
       15
 70
   128
 43
0.0
 10
-362.4937012835
 20
385.8595815122
 10
-362.5862040995
 20
386.0432180607
 10
-362.9992438306
 20
386.2816750589
 10
-363.7219687499
 20
386.4973768846
 10
-364.7154165699
 20
386.6786949968
 10
-365.9260302615
 20
386.815854489
 10
-367.2885453272
 20
386.9014610574
 10
-368.7295082272
 20
386.93089963
 10
-370.1712362786
 20
386.9025831655
 10
-371.5360055488
 20
386.8180382119
 10
-372.7502409734
 20
386.6818226095
 10
-373.7484828062
 20
386.5012797767
 10
-374.4769155717
 20
386.2861428245
 10
-374.8962692709
 20
386.0480098414
 10
-374.9937012835
 20
385.8595815122
  0
LWPOLYLINE
  5
2AB
330
1F
100
AcDbEntity
  8
0
  6
Continuous
 62
     8
370
    25
100
AcDbPolyline
 90
       16
 70
   128
 43
0.0
 10
-2012.4937012835
 20
385.8595815122
 10
-2012.5051166354
 20
385.9243018557
 10
-2012.7603528844
 20
386.1691696572
 10
-2013.3381529944
 20
386.3973474817
 10
-2014.2073676119
 20
386.5965342036
 10
-2015.3211371517
 20
386.7559916151
 10
-2016.6194180099
 20
386.867123326
 10
-2018.0322195291
 20
386.9239381968
 10
-2019.4833772139
 20
386.9233733234
 10
-2020.8946587778
 20
386.865459158
 10
-2022.1899816665
 20
386.7533178684
 10
-2023.2995146876
 20
386.5929950205
 10
-2024.163442629
 20
386.3931336605
 10
-2024.7351909115
 20
386.1645083661
 10
-2024.9839364374
 20
385.9194443861
 10
-2024.9937012835
 20
385.8595815122
  0
LWPOLYLINE
  5
2AC
330
1F
100
AcDbEntity
  8
0
  6
Continuous
 62
     8
370
    25
100
AcDbPolyline
 90
       16
 70
   128
 43
0.0
 10
787.5062987165
 20
385.8595815122
 10
787.4948833646
 20
385.9243018557
 10
787.2396471156
 20
386.1691696572
 10
786.6618470056
 20
386.3973474817
 10
785.7926323881
 20
386.5965342036
 10
784.6788628483
 20
386.7559916151
 10
783.3805819901
 20
386.867123326
 10
781.9677804709
 20
386.9239381968
 10
780.5166227861
 20
386.9233733234
 10
779.1053412222
 20
386.865459158
 10
777.8100183335
 20
386.7533178684
 10
776.7004853124
 20
386.5929950205
 10
775.836557371
 20
386.3931336605
 10
775.2648090885
 20
386.1645083661
 10
775.0160635626
 20
385.9194443861
 10
775.0062987165
 20
385.8595815122
  0
LWPOLYLINE
  5
2AD
330
1F
100
AcDbEntity
  8
0
  6
Continuous
 62
     8
370
    25
100
AcDbPolyline
 90
       15
 70
   128
 43
0.0
 10
2437.5062987165
 20
385.8595815122
 10
2437.4137959005
 20
386.0432180607
 10
2437.0007561694
 20
386.2816750589
 10
2436.2780312501
 20
386.4973768846
 10
2435.2845834301
 20
386.6786949968
 10
2434.0739697385
 20
386.815854489
 10
2432.7114546728
 20
386.9014610574
 10
2431.2704917728
 20
386.93089963
 10
2429.8287637214
 20
386.9025831655
 10
2428.4639944512
 20
386.8180382119
 10
2427.2497590266
 20
386.6818226095
 10
2426.2515171938
 20
386.5012797767
 10
2425.5230844283
 20
386.2861428245
 10
2425.1037307291
 20
386.0480098414
 10
2425.0062987165
 20
385.8595815122
  0
LWPOLYLINE
  5
2AE
330
1F
100
AcDbEntity
  8
0
  6
Continuous
 62
     8
370
    25
100
AcDbPolyline
 90
        6
 70
   128
 43
0.0
 10
-2026.2437012835
 20
285.7440398116
 10
-2026.3450377091
 20
285.7113876113
 10
-2026.97883711
 20
285.4353447609
 10
-2027.2754890827
 20
285.1430833711
 10
-2027.2228486604
 20
284.8465686575
 10
-2027.0275289629
 20
284.6740837938
  0
LWPOLYLINE
  5
2AF
330
1F
100
AcDbEntity
  8
0
  6
Continuous
 62
     8
370
    25
100
AcDbPolyline
 90
        6
 70
   128
 43
0.0
 10
-2026.2437012835
 20
246.3194314237
 10
-2026.3450377091
 20
246.2867792235
 10
-2026.97883711
 20
246.0107363731
 10
-2027.2754890827
 20
245.7184749833
 10
-2027.2228486604
 20
245.4219602697
 10
-2027.0275289629
 20
245.2494754059
  0
LWPOLYLINE
  5
2B0
330
1F
100
AcDbEntity
  8
0
  6
Continuous
 62
     8
370
    25
100
AcDbPolyline
 90
        3
 70
   128
 43
0.0
 10
-360.3170048163
 20
265.5781992698
 10
-360.7846297353
 20
265.8638168011
 10
-361.2437012835
 20
266.0317356176
  0
LWPOLYLINE
  5
2B1
330
1F
100
AcDbEntity
  8
0
  6
Continuous
 62
     8
370
    25
100
AcDbPolyline
 90
        4
 70
   128
 43
0.0
 10
-360.4520207172
 20
264.9670552104
 10
-360.4217454989
 20
264.9882124848
 10
-360.1943698407
 20
265.2822930188
 10
-360.3170048163
 20
265.5781992698
  0
LWPOLYLINE
  5
2B2
330
1F
100
AcDbEntity
  8
0
  6
Continuous
 62
     8
370
    25
100
AcDbPolyline
 90
        6
 70
   128
 43
0.0
 10
-2026.2437012835
 20
266.0317356176
 10
-2026.3450377091
 20
265.9990834174
 10
-2026.97883711
 20
265.723040567
 10
-2027.2754890827
 20
265.4307791772
 10
-2027.2228486604
 20
265.1342644636
 10
-2027.0275289629
 20
264.9617795999
  0
LWPOLYLINE
  5
2B3
330
1F
100
AcDbEntity
  8
0
  6
Continuous
 62
     8
370
    25
100
AcDbPolyline
 90
        3
 70
   128
 43
0.0
 10
-360.3170048163
 20
245.8658950759
 10
-360.7846297353
 20
246.1515126072
 10
-361.2437012835
 20
246.3194314237
  0
LWPOLYLINE
  5
2B4
330
1F
100
AcDbEntity
  8
0
  6
Continuous
 62
     8
370
    25
100
AcDbPolyline
 90
        4
 70
   128
 43
0.0
 10
-360.4520207172
 20
245.2547510165
 10
-360.4217454989
 20
245.2759082909
 10
-360.1943698407
 20
245.5699888249
 10
-360.3170048163
 20
245.8658950759
  0
LWPOLYLINE
  5
2B5
330
1F
100
AcDbEntity
  8
0
  6
Continuous
 62
     8
370
    25
100
AcDbPolyline
 90
        3
 70
   128
 43
0.0
 10
-360.3170048163
 20
285.2905034637
 10
-360.7846297353
 20
285.576120995
 10
-361.2437012835
 20
285.7440398115
  0
LWPOLYLINE
  5
2B6
330
1F
100
AcDbEntity
  8
0
  6
Continuous
 62
     8
370
    25
100
AcDbPolyline
 90
        4
 70
   128
 43
0.0
 10
-360.4520207172
 20
284.6793594043
 10
-360.4217454989
 20
284.7005166788
 10
-360.1943698407
 20
284.9945972128
 10
-360.3170048163
 20
285.2905034637
  0
ELLIPSE
  5
2B7
330
1F
100
AcDbEntity
  8
0
  6
Continuous
 62
     8
370
    25
100
AcDbEllipse
 10
-2009.2437012835
 20
-226.0995761562
 30
0.0
 11
0.1920053882377033
 21
2.999342103038487
 31
0.0
210
0.0
220
0.0
230
1.0
 40
0.3272030458
 41
3.334797801396682
 42
3.848613400949401
  0
ELLIPSE
  5
2B8
330
1F
100
AcDbEntity
  8
0
  6
Continuous
 62
     8
370
    25
100
AcDbEllipse
 10
-2009.2437012835
 20
-226.0995761562
 30
0.0
 11
2.398597461442022
 21
1.912249004648942
 31
0.0
210
0.0
220
0.0
230
1.0
 40
0.9422771463
 41
4.068109087761113
 42
4.67982192293749
  0
ELLIPSE
  5
2B9
330
1F
100
AcDbEntity
  8
0
  6
Continuous
 62
     8
370
    25
100
AcDbEllipse
 10
-2028.2437012835
 20
-226.0995761562
 30
0.0
 11
-0.1920053882374759
 21
2.999342103038487
 31
0.0
210
0.0
220
0.0
230
1.0
 40
0.3272030458
 41
2.434571906230651
 42
2.948387505783213
  0
ELLIPSE
  5
2BA
330
1F
100
AcDbEntity
  8
0
  6
Continuous
 62
     8
370
    25
100
AcDbEllipse
 10
-2028.2437012835
 20
-226.0995761562
 30
0.0
 11
2.398597461442023
 21
-1.912249004648913
 31
0.0
210
0.0
220
0.0
230
1.0
 40
0.9422771463
 41
4.744956037831908
 42
5.356668873008286
  0
ELLIPSE
  5
2BB
330
1F
100
AcDbEntity
  8
0
  6
Continuous
 62
     8
370
    25
100
AcDbEllipse
 10
-2009.2437012835
 20
-233.6416751521
 30
0.0
 11
2.398597461442023
 21
-1.912249004648913
 31
0.0
210
0.0
220
0.0
230
1.0
 40
0.9422771463
 41
5.35666887300829
 42
6.452990450883306
  0
ELLIPSE
  5
2BC
330
1F
100
AcDbEntity
  8
0
  6
Continuous
 62
     8
370
    25
100
AcDbEllipse
 10
-2028.2437012835
 20
-233.6416751521
 30
0.0
 11
0.1920053882377033
 21
2.999342103038487
 31
0.0
210
0.0
220
0.0
230
1.0
 40
0.3272030458
 41
3.166857043886643
 42
3.334797801396682
  0
ELLIPSE
  5
2BD
330
1F
100
AcDbEntity
  8
0
  6
Continuous
 62
     8
370
    25
100
AcDbEllipse
 10
-2009.2437012835
 20
-233.6416751521
 30
0.0
 11
-0.1920053882377033
 21
2.999342103038487
 31
0.0
210
0.0
220
0.0
230
1.0
 40
0.3272030458
 41
2.948387505782945
 42
3.120649540020684
  0
ELLIPSE
  5
2BE
330
1F
100
AcDbEntity
  8
0
  6
Continuous
 62
     8
370
    25
100
AcDbEllipse
 10
2421.7562987165
 20
-226.0995761562
 30
0.0
 11
2.398597461442023
 21
-1.912249004648913
 31
0.0
210
0.0
220
0.0
230
1.0
 40
0.9422771463
 41
4.744956037832528
 42
5.356668873008333
  0
ELLIPSE
  5
2BF
330
1F
100
AcDbEntity
  8
0
  6
Continuous
 62
     8
370
    25
100
AcDbEllipse
 10
2421.7562987165
 20
-226.0995761562
 30
0.0
 11
-0.1920053882377033
 21
2.999342103038487
 31
0.0
210
0.0
220
0.0
230
1.0
 40
0.3272030458
 41
2.434571906230866
 42
2.948387505782902
  0
ELLIPSE
  5
2C0
330
1F
100
AcDbEntity
  8
0
  6
Continuous
 62
     8
370
    25
100
AcDbEllipse
 10
2440.7562987165
 20
-226.0995761562
 30
0.0
 11
0.1920053882377033
 21
2.999342103038487
 31
0.0
210
0.0
220
0.0
230
1.0
 40
0.3272030458
 41
3.334797801396639
 42
3.848613400948163
  0
ELLIPSE
  5
2C1
330
1F
100
AcDbEntity
  8
0
  6
Continuous
 62
     8
370
    25
100
AcDbEllipse
 10
2440.7562987165
 20
-226.0995761562
 30
0.0
 11
2.398597461442022
 21
1.912249004648942
 31
0.0
210
0.0
220
0.0
230
1.0
 40
0.9422771463
 41
4.068109087761113
 42
4.679821922936755
  0
ELLIPSE
  5
2C2
330
1F
100
AcDbEntity
  8
0
  6
Continuous
 62
     8
370
    25
100
AcDbEllipse
 10
2440.7562987165
 20
-233.6416751521
 30
0.0
 11
2.398597461442023
 21
-1.912249004648913
 31
0.0
210
0.0
220
0.0
230
1.0
 40
0.9422771463
 41
5.35666887300829
 42
6.452990450883306
  0
ELLIPSE
  5
2C3
330
1F
100
AcDbEntity
  8
0
  6
Continuous
 62
     8
370
    25
100
AcDbEllipse
 10
2421.7562987165
 20
-233.6416751521
 30
0.0
 11
0.1920053882372485
 21
2.999342103038486
 31
0.0
210
0.0
220
0.0
230
1.0
 40
0.3272030458
 41
3.166857043885713
 42
3.334797801396191
  0
ELLIPSE
  5
2C4
330
1F
100
AcDbEntity
  8
0
  6
Continuous
 62
     8
370
    25
100
AcDbEllipse
 10
2440.7562987165
 20
-233.6416751521
 30
0.0
 11
-0.1920053882377033
 21
2.999342103038487
 31
0.0
210
0.0
220
0.0
230
1.0
 40
0.3272030458
 41
2.948387505782989
 42
3.120649540020919
  0
ELLIPSE
  5
2C5
330
1F
100
AcDbEntity
  8
0
  6
Continuous
 62
     8
370
    25
100
AcDbEllipse
 10
-378.2437012835
 20
-226.0995761562
 30
0.0
 11
-0.1920053882375896
 21
2.999342103038458
 31
0.0
210
0.0
220
0.0
230
1.0
 40
0.3272030458
 41
2.434571906230527
 42
2.948387505783101
  0
ELLIPSE
  5
2C6
330
1F
100
AcDbEntity
  8
0
  6
Continuous
 62
     8
370
    25
100
AcDbEllipse
 10
-359.2437012835
 20
-226.0995761562
 30
0.0
 11
0.1920053882375896
 21
2.999342103038458
 31
0.0
210
0.0
220
0.0
230
1.0
 40
0.3272030458
 41
3.334797801396526
 42
3.848613400949086
  0
ELLIPSE
  5
2C7
330
1F
100
AcDbEntity
  8
0
  6
Continuous
 62
     8
370
    25
100
AcDbEllipse
 10
-378.2437012835
 20
-226.0995761562
 30
0.0
 11
2.398597461442251
 21
-1.912249004648942
 31
0.0
210
0.0
220
0.0
230
1.0
 40
0.9422771463
 41
4.744956037831813
 42
5.356668873008215
  0
ELLIPSE
  5
2C8
330
1F
100
AcDbEntity
  8
0
  6
Continuous
 62
     8
370
    25
100
AcDbEllipse
 10
-359.2437012835
 20
-226.0995761562
 30
0.0
 11
2.398597461442193
 21
1.912249004648913
 31
0.0
210
0.0
220
0.0
230
1.0
 40
0.9422771463
 41
4.068109087761176
 42
4.679821922937547
  0
ELLIPSE
  5
2C9
330
1F
100
AcDbEntity
  8
0
  6
Continuous
 62
     8
370
    25
100
AcDbEllipse
 10
-359.2437012835
 20
-233.6416751521
 30
0.0
 11
2.398597461442193
 21
-1.912249004648913
 31
0.0
210
0.0
220
0.0
230
1.0
 40
0.9422771463
 41
5.356668873008231
 42
6.452990450883278
  0
ELLIPSE
  5
2CA
330
1F
100
AcDbEntity
  8
0
  6
Continuous
 62
     8
370
    25
100
AcDbEllipse
 10
-359.2437012835
 20
-233.6416751521
 30
0.0
 11
-0.1920053882376465
 21
2.999342103038487
 31
0.0
210
0.0
220
0.0
230
1.0
 40
0.3272030458
 41
2.948387505783034
 42
3.11779316738594
  0
ELLIPSE
  5
2CB
330
1F
100
AcDbEntity
  8
0
  6
Continuous
 62
     8
370
    25
100
AcDbEllipse
 10
-378.2437012835
 20
-233.6416751521
 30
0.0
 11
0.1920053882375896
 21
2.999342103038487
 31
0.0
210
0.0
220
0.0
230
1.0
 40
0.3272030458
 41
3.162535767158885
 42
3.334797801396538
  0
ELLIPSE
  5
2CC
330
1F
100
AcDbEntity
  8
0
  6
Continuous
 62
     8
370
    25
100
AcDbEllipse
 10
771.7562987165
 20
-226.0995761562
 30
0.0
 11
2.398597461442251
 21
-1.912249004648942
 31
0.0
210
0.0
220
0.0
230
1.0
 40
0.9422771463
 41
4.744956037832627
 42
5.356668873008209
  0
ELLIPSE
  5
2CD
330
1F
100
AcDbEntity
  8
0
  6
Continuous
 62
     8
370
    25
100
AcDbEllipse
 10
771.7562987165
 20
-226.0995761562
 30
0.0
 11
-0.1920053882375896
 21
2.999342103038458
 31
0.0
210
0.0
220
0.0
230
1.0
 40
0.3272030458
 41
2.434571906231357
 42
2.948387505783101
  0
ELLIPSE
  5
2CE
330
1F
100
AcDbEntity
  8
0
  6
Continuous
 62
     8
370
    25
100
AcDbEllipse
 10
790.7562987165
 20
-226.0995761562
 30
0.0
 11
0.1920053882377033
 21
2.999342103038458
 31
0.0
210
0.0
220
0.0
230
1.0
 40
0.3272030458
 41
3.334797801396661
 42
3.848613400948475
  0
ELLIPSE
  5
2CF
330
1F
100
AcDbEntity
  8
0
  6
Continuous
 62
     8
370
    25
100
AcDbEllipse
 10
790.7562987165
 20
-226.0995761562
 30
0.0
 11
2.39859746144225
 21
1.912249004648914
 31
0.0
210
0.0
220
0.0
230
1.0
 40
0.9422771463
 41
4.068109087761206
 42
4.679821922936826
  0
ELLIPSE
  5
2D0
330
1F
100
AcDbEntity
  8
0
  6
Continuous
 62
     8
370
    25
100
AcDbEllipse
 10
790.7562987165
 20
-233.6416751521
 30
0.0
 11
2.39859746144225
 21
-1.912249004648914
 31
0.0
210
0.0
220
0.0
230
1.0
 40
0.9422771463
 41
5.356668873008201
 42
6.452990450883282
  0
ELLIPSE
  5
2D1
330
1F
100
AcDbEntity
  8
0
  6
Continuous
 62
     8
370
    25
100
AcDbEllipse
 10
790.7562987165
 20
-233.6416751521
 30
0.0
 11
-0.1920053882375896
 21
2.999342103038487
 31
0.0
210
0.0
220
0.0
230
1.0
 40
0.3272030458
 41
2.948387505783101
 42
3.117793167386057
  0
ELLIPSE
  5
2D2
330
1F
100
AcDbEntity
  8
0
  6
Continuous
 62
     8
370
    25
100
AcDbEllipse
 10
771.7562987165
 20
-233.6416751521
 30
0.0
 11
0.1920053882375896
 21
2.999342103038487
 31
0.0
210
0.0
220
0.0
230
1.0
 40
0.3272030458
 41
3.166857043886062
 42
3.334797801396549
  0
LINE
  5
2D3
330
1F
100
AcDbEntity
  8
0
  6
Continuous
 62
     8
370
    25
100
AcDbLine
 10
-2004.2437012835
 20
228.4648331389
 30
0.0
 11
-2004.2437012835
 21
385.0760511963
 31
0.0
  0
LINE
  5
2D4
330
1F
100
AcDbEntity
  8
0
  6
Continuous
 62
     8
370
    25
100
AcDbLine
 10
-2023.2437012835
 20
228.4648331389
 30
0.0
 11
-2023.2437012835
 21
385.0760511963
 31
0.0
  0
LINE
  5
2D5
330
1F
100
AcDbEntity
  8
0
  6
Continuous
 62
     8
370
    25
100
AcDbLine
 10
-2004.2437012835
 20
-115.1228383925
 30
0.0
 11
-2004.2437012835
 21
-133.924841541
 31
0.0
  0
LINE
  5
2D6
330
1F
100
AcDbEntity
  8
0
  6
Continuous
 62
     8
370
    25
100
AcDbLine
 10
-2023.2437012835
 20
-115.1228383925
 30
0.0
 11
-2023.2437012835
 21
-133.924841541
 31
0.0
  0
LINE
  5
2D7
330
1F
100
AcDbEntity
  8
0
  6
Continuous
 62
     8
370
    25
100
AcDbLine
 10
-2004.2437012835
 20
-228.4207865794
 30
0.0
 11
-2004.2437012835
 21
-232.2367672138
 31
0.0
  0
LINE
  5
2D8
330
1F
100
AcDbEntity
  8
0
  6
Continuous
 62
     8
370
    25
100
AcDbLine
 10
2421.7562987165
 20
228.4648331389
 30
0.0
 11
2421.7562987165
 21
385.0760511963
 31
0.0
  0
LINE
  5
2D9
330
1F
100
AcDbEntity
  8
0
  6
Continuous
 62
     8
370
    25
100
AcDbLine
 10
2440.7562987165
 20
228.4648331389
 30
0.0
 11
2440.7562987165
 21
385.0760511963
 31
0.0
  0
LINE
  5
2DA
330
1F
100
AcDbEntity
  8
0
  6
Continuous
 62
     8
370
    25
100
AcDbLine
 10
2421.7562987165
 20
-115.1228383925
 30
0.0
 11
2421.7562987165
 21
-133.924841541
 31
0.0
  0
LINE
  5
2DB
330
1F
100
AcDbEntity
  8
0
  6
Continuous
 62
     8
370
    25
100
AcDbLine
 10
2440.7562987165
 20
-115.1228383925
 30
0.0
 11
2440.7562987165
 21
-133.924841541
 31
0.0
  0
LINE
  5
2DC
330
1F
100
AcDbEntity
  8
0
  6
Continuous
 62
     8
370
    25
100
AcDbLine
 10
771.7562987165
 20
228.4648331389
 30
0.0
 11
771.7562987165
 21
385.0760511963
 31
0.0
  0
LINE
  5
2DD
330
1F
100
AcDbEntity
  8
0
  6
Continuous
 62
     8
370
    25
100
AcDbLine
 10
790.7562987165
 20
228.4648331389
 30
0.0
 11
790.7562987165
 21
385.0760511963
 31
0.0
  0
LINE
  5
2DE
330
1F
100
AcDbEntity
  8
0
  6
Continuous
 62
     8
370
    25
100
AcDbLine
 10
771.7562987165
 20
-115.1228383925
 30
0.0
 11
771.7562987165
 21
-133.924841541
 31
0.0
  0
LINE
  5
2DF
330
1F
100
AcDbEntity
  8
0
  6
Continuous
 62
     8
370
    25
100
AcDbLine
 10
790.7562987165
 20
-115.1228383925
 30
0.0
 11
790.7562987165
 21
-133.924841541
 31
0.0
  0
LINE
  5
2E0
330
1F
100
AcDbEntity
  8
0
  6
Continuous
 62
     8
370
    25
100
AcDbLine
 10
-364.2437012835
 20
228.4648331389
 30
0.0
 11
-364.2437012835
 21
385.0760511963
 31
0.0
  0
LINE
  5
2E1
330
1F
100
AcDbEntity
  8
0
  6
Continuous
 62
     8
370
    25
100
AcDbLine
 10
-383.2437012835
 20
228.4648331389
 30
0.0
 11
-383.2437012835
 21
385.0760511963
 31
0.0
  0
LINE
  5
2E2
330
1F
100
AcDbEntity
  8
0
  6
Continuous
 62
     8
370
    25
100
AcDbLine
 10
-383.2437012835
 20
-115.1228383925
 30
0.0
 11
-383.2437012835
 21
-133.924841541
 31
0.0
  0
LINE
  5
2E3
330
1F
100
AcDbEntity
  8
0
  6
Continuous
 62
     8
370
    25
100
AcDbLine
 10
-364.2437012835
 20
-115.1228383925
 30
0.0
 11
-364.2437012835
 21
-133.924841541
 31
0.0
  0
LINE
  5
2E4
330
1F
100
AcDbEntity
  8
0
  6
Continuous
 62
     8
370
    25
100
AcDbLine
 10
-383.2437012835
 20
-228.4207865794
 30
0.0
 11
-383.2437012835
 21
-232.2367672138
 31
0.0
  0
ENDSEC
  0
SECTION
  2
OBJECTS
  0
DICTIONARY
  5
C
330
0
100
AcDbDictionary
281
     1
  3
ACAD_GROUP
350
D
  3
ACAD_LAYOUT
350
1A
  3
ACAD_MLINESTYLE
350
17
  3
ACAD_PLOTSETTINGS
350
19
  3
ACAD_PLOTSTYLENAME
350
E
  3
ACAD_SCALELIST
350
47
  3
DWGPROPS
350
2E5
  0
DICTIONARY
  5
D
102
{ACAD_REACTORS
330
C
102
}
330
C
100
AcDbDictionary
281
     1
  0
DICTIONARY
  5
1A
102
{ACAD_REACTORS
330
C
102
}
330
C
100
AcDbDictionary
281
     1
  3
Layout1
350
1E
  3
Layout2
350
26
  3
Model
350
22
  0
DICTIONARY
  5
17
102
{ACAD_REACTORS
330
C
102
}
330
C
100
AcDbDictionary
281
     1
  3
Standard
350
18
  0
DICTIONARY
  5
19
102
{ACAD_REACTORS
330
C
102
}
330
C
100
AcDbDictionary
281
     1
  0
ACDBDICTIONARYWDFLT
  5
E
102
{ACAD_REACTORS
330
C
102
}
330
C
100
AcDbDictionary
281
     1
  3
Normal
350
F
100
AcDbDictionaryWithDefault
340
F
  0
DICTIONARY
  5
47
102
{ACAD_REACTORS
330
C
102
}
330
C
100
AcDbDictionary
281
     1
  3
A0
350
48
  3
A1
350
49
  3
A2
350
4A
  3
A3
350
4B
  3
A4
350
4C
  3
A5
350
4D
  3
A6
350
4E
  3
A7
350
4F
  3
A8
350
50
  3
A9
350
51
  3
B0
350
52
  3
B1
350
53
  3
B2
350
54
  3
B3
350
55
  3
B4
350
56
  3
B5
350
57
  3
B6
350
58
  3
B7
350
59
  3
B8
350
5A
  3
B9
350
5B
  3
C0
350
5C
  3
C1
350
5D
  3
C2
350
5E
  3
C3
350
5F
  3
C4
350
60
  3
C5
350
61
  3
C6
350
62
  3
C7
350
63
  3
C8
350
64
  3
C9
350
65
  3
D0
350
66
  3
D1
350
67
  3
D2
350
68
  0
XRECORD
  5
2E5
102
{ACAD_REACTORS
330
C
102
}
330
C
100
AcDbXrecord
280
     1
  1
DWGPROPS COOKIE
  2

  3

  4

  6

  7

  8
Swing
  9

300
=
301
=
302
=
303
=
304
=
305
=
306
=
307
=
308
=
309
=
 40
0.0
 41
2459698.302475208
 42
2459698.302475405
  1

 90
        0
  0
LAYOUT
  5
1E
102
{ACAD_REACTORS
330
1A
102
}
330
1A
100
AcDbPlotSettings
  1

  2
none_device
  4

  6

 40
0.0
 41
0.0
 42
0.0
 43
0.0
 44
0.0
 45
0.0
 46
0.0
 47
0.0
 48
0.0
 49
0.0
140
0.0
141
0.0
142
1.0
143
1.0
 70
   688
 72
     1
 73
     0
 74
     5
  7

 75
    16
147
1.0
148
0.0
149
0.0
100
AcDbLayout
  1
Layout1
 70
     1
 71
     1
 10
0.0
 20
0.0
 11
420.0
 21
297.0
 12
0.0
 22
0.0
 32
0.0
 14
1.0000000000E+20
 24
1.0000000000E+20
 34
1.0000000000E+20
 15
-1.0000000000E+20
 25
-1.0000000000E+20
 35
-1.0000000000E+20
146
0.0
 13
0.0
 23
0.0
 33
0.0
 16
1.0
 26
0.0
 36
0.0
 17
0.0
 27
1.0
 37
0.0
 76
     0
330
1B
  0
LAYOUT
  5
26
102
{ACAD_REACTORS
330
1A
102
}
330
1A
100
AcDbPlotSettings
  1

  2
none_device
  4

  6

 40
0.0
 41
0.0
 42
0.0
 43
0.0
 44
0.0
 45
0.0
 46
0.0
 47
0.0
 48
0.0
 49
0.0
140
0.0
141
0.0
142
1.0
143
1.0
 70
   688
 72
     1
 73
     0
 74
     5
  7

 75
    16
147
1.0
148
0.0
149
0.0
100
AcDbLayout
  1
Layout2
 70
     1
 71
     2
 10
0.0
 20
0.0
 11
0.0
 21
0.0
 12
0.0
 22
0.0
 32
0.0
 14
0.0
 24
0.0
 34
0.0
 15
0.0
 25
0.0
 35
0.0
146
0.0
 13
0.0
 23
0.0
 33
0.0
 16
1.0
 26
0.0
 36
0.0
 17
0.0
 27
1.0
 37
0.0
 76
     0
330
23
  0
LAYOUT
  5
22
102
{ACAD_REACTORS
330
1A
102
}
330
1A
100
AcDbPlotSettings
  1

  2
none_device
  4
Letter_(8.50_x_11.00_Inches)
  6

 40
6.35
 41
6.35
 42
6.35000508
 43
6.35000508
 44
215.9
 45
279.4
 46
0.0
 47
0.0
 48
0.0
 49
0.0
140
0.0
141
0.0
142
1.0
143
1.0
 70
  1712
 72
     1
 73
     0
 74
     0
  7

 75
     0
147
1.0
148
0.0
149
0.0
100
AcDbLayout
  1
Model
 70
     1
 71
     0
 10
0.0
 20
0.0
 11
431.8
 21
279.4
 12
0.0
 22
0.0
 32
0.0
 14
0.0
 24
0.0
 34
0.0
 15
431.8
 25
279.4
 35
0.0
146
0.0
 13
0.0
 23
0.0
 33
0.0
 16
1.0
 26
0.0
 36
0.0
 17
0.0
 27
1.0
 37
0.0
 76
     0
330
1F
331
29
  0
MLINESTYLE
  5
18
102
{ACAD_REACTORS
330
17
102
}
330
17
100
AcDbMlineStyle
  2
Standard
 70
     0
  3

 62
   256
 51
90.0
 52
90.0
 71
     2
 49
0.5
 62
   256
  6
BYLAYER
 49
-0.5
 62
   256
  6
BYLAYER
  0
ACDBPLACEHOLDER
  5
F
102
{ACAD_REACTORS
330
E
102
}
330
E
  0
SCALE
  5
48
102
{ACAD_REACTORS
330
47
102
}
330
47
100
AcDbScale
 70
     0
300
1:1
140
1.0
141
1.0
290
     1
  0
SCALE
  5
49
102
{ACAD_REACTORS
330
47
102
}
330
47
100
AcDbScale
 70
     0
300
1:2
140
1.0
141
2.0
290
     0
  0
SCALE
  5
4A
102
{ACAD_REACTORS
330
47
102
}
330
47
100
AcDbScale
 70
     0
300
1:4
140
1.0
141
4.0
290
     0
  0
SCALE
  5
4B
102
{ACAD_REACTORS
330
47
102
}
330
47
100
AcDbScale
 70
     0
300
1:5
140
1.0
141
5.0
290
     0
  0
SCALE
  5
4C
102
{ACAD_REACTORS
330
47
102
}
330
47
100
AcDbScale
 70
     0
300
1:8
140
1.0
141
8.0
290
     0
  0
SCALE
  5
4D
102
{ACAD_REACTORS
330
47
102
}
330
47
100
AcDbScale
 70
     0
300
1:10
140
1.0
141
10.0
290
     0
  0
SCALE
  5
4E
102
{ACAD_REACTORS
330
47
102
}
330
47
100
AcDbScale
 70
     0
300
1:16
140
1.0
141
16.0
290
     0
  0
SCALE
  5
4F
102
{ACAD_REACTORS
330
47
102
}
330
47
100
AcDbScale
 70
     0
300
1:20
140
1.0
141
20.0
290
     0
  0
SCALE
  5
50
102
{ACAD_REACTORS
330
47
102
}
330
47
100
AcDbScale
 70
     0
300
1:30
140
1.0
141
30.0
290
     0
  0
SCALE
  5
51
102
{ACAD_REACTORS
330
47
102
}
330
47
100
AcDbScale
 70
     0
300
1:40
140
1.0
141
40.0
290
     0
  0
SCALE
  5
52
102
{ACAD_REACTORS
330
47
102
}
330
47
100
AcDbScale
 70
     0
300
1:50
140
1.0
141
50.0
290
     0
  0
SCALE
  5
53
102
{ACAD_REACTORS
330
47
102
}
330
47
100
AcDbScale
 70
     0
300
1:100
140
1.0
141
100.0
290
     0
  0
SCALE
  5
54
102
{ACAD_REACTORS
330
47
102
}
330
47
100
AcDbScale
 70
     0
300
2:1
140
2.0
141
1.0
290
     0
  0
SCALE
  5
55
102
{ACAD_REACTORS
330
47
102
}
330
47
100
AcDbScale
 70
     0
300
4:1
140
4.0
141
1.0
290
     0
  0
SCALE
  5
56
102
{ACAD_REACTORS
330
47
102
}
330
47
100
AcDbScale
 70
     0
300
8:1
140
8.0
141
1.0
290
     0
  0
SCALE
  5
57
102
{ACAD_REACTORS
330
47
102
}
330
47
100
AcDbScale
 70
     0
300
10:1
140
10.0
141
1.0
290
     0
  0
SCALE
  5
58
102
{ACAD_REACTORS
330
47
102
}
330
47
100
AcDbScale
 70
     0
300
100:1
140
100.0
141
1.0
290
     0
  0
SCALE
  5
59
102
{ACAD_REACTORS
330
47
102
}
330
47
100
AcDbScale
 70
     0
300
1/128" = 1'-0"
140
0.0078125
141
12.0
290
     0
  0
SCALE
  5
5A
102
{ACAD_REACTORS
330
47
102
}
330
47
100
AcDbScale
 70
     0
300
1/64" = 1'-0"
140
0.015625
141
12.0
290
     0
  0
SCALE
  5
5B
102
{ACAD_REACTORS
330
47
102
}
330
47
100
AcDbScale
 70
     0
300
1/32" = 1'-0"
140
0.03125
141
12.0
290
     0
  0
SCALE
  5
5C
102
{ACAD_REACTORS
330
47
102
}
330
47
100
AcDbScale
 70
     0
300
1/16" = 1'-0"
140
0.0625
141
12.0
290
     0
  0
SCALE
  5
5D
102
{ACAD_REACTORS
330
47
102
}
330
47
100
AcDbScale
 70
     0
300
3/32" = 1'-0"
140
0.09375
141
12.0
290
     0
  0
SCALE
  5
5E
102
{ACAD_REACTORS
330
47
102
}
330
47
100
AcDbScale
 70
     0
300
1/8" = 1'-0"
140
0.125
141
12.0
290
     0
  0
SCALE
  5
5F
102
{ACAD_REACTORS
330
47
102
}
330
47
100
AcDbScale
 70
     0
300
3/16" = 1'-0"
140
0.1875
141
12.0
290
     0
  0
SCALE
  5
60
102
{ACAD_REACTORS
330
47
102
}
330
47
100
AcDbScale
 70
     0
300
1/4" = 1'-0"
140
0.25
141
12.0
290
     0
  0
SCALE
  5
61
102
{ACAD_REACTORS
330
47
102
}
330
47
100
AcDbScale
 70
     0
300
3/8" = 1'-0"
140
0.375
141
12.0
290
     0
  0
SCALE
  5
62
102
{ACAD_REACTORS
330
47
102
}
330
47
100
AcDbScale
 70
     0
300
1/2" = 1'-0"
140
0.5
141
12.0
290
     0
  0
SCALE
  5
63
102
{ACAD_REACTORS
330
47
102
}
330
47
100
AcDbScale
 70
     0
300
3/4" = 1'-0"
140
0.75
141
12.0
290
     0
  0
SCALE
  5
64
102
{ACAD_REACTORS
330
47
102
}
330
47
100
AcDbScale
 70
     0
300
1" = 1'-0"
140
1.0
141
12.0
290
     0
  0
SCALE
  5
65
102
{ACAD_REACTORS
330
47
102
}
330
47
100
AcDbScale
 70
     0
300
1-1/2" = 1'-0"
140
1.5
141
12.0
290
     0
  0
SCALE
  5
66
102
{ACAD_REACTORS
330
47
102
}
330
47
100
AcDbScale
 70
     0
300
3" = 1'-0"
140
3.0
141
12.0
290
     0
  0
SCALE
  5
67
102
{ACAD_REACTORS
330
47
102
}
330
47
100
AcDbScale
 70
     0
300
6" = 1'-0"
140
6.0
141
12.0
290
     0
  0
SCALE
  5
68
102
{ACAD_REACTORS
330
47
102
}
330
47
100
AcDbScale
 70
     0
300
1'-0" = 1'-0"
140
12.0
141
12.0
290
     0
  0
ENDSEC
  0
EOF
