  0
SECTION
  2
HEADER
  9
$ACADVER
  1
AC1015
  9
$ACADMAINTVER
 70
     6
  9
$DWGCODEPAGE
  3
ANSI_1250
  9
$INSBASE
 10
0.0
 20
0.0
 30
0.0
  9
$EXTMIN
 10
0.0
 20
0.0
 30
0.0
  9
$EXTMAX
 10
431.8
 20
279.4
 30
0.0
  9
$LIMMIN
 10
0.0
 20
0.0
  9
$LIMMAX
 10
431.8
 20
279.4
  9
$ORTHOMODE
 70
     0
  9
$REGENMODE
 70
     1
  9
$FILLMODE
 70
     1
  9
$QTEXTMODE
 70
     0
  9
$MIRRTEXT
 70
     1
  9
$LTSCALE
 40
1.0
  9
$ATTMODE
 70
     1
  9
$TEXTSIZE
 40
3.8805555556
  9
$TRACEWID
 40
1.0
  9
$TEXTSTYLE
  7
Standard
  9
$CLAYER
  8
0
  9
$CELTYPE
  6
ByLayer
  9
$CECOLOR
 62
   256
  9
$CELTSCALE
 40
1.0
  9
$DISPSILH
 70
     0
  9
$DIMSCALE
 40
1.0
  9
$DIMASZ
 40
3.302
  9
$DIMEXO
 40
1.0
  9
$DIMDLI
 40
3.75
  9
$DIMRND
 40
0.0
  9
$DIMDLE
 40
0.0
  9
$DIMEXE
 40
1.0
  9
$DIMTP
 40
0.0
  9
$DIMTM
 40
0.0
  9
$DIMTXT
 40
3.8805555556
  9
$DIMCEN
 40
2.5
  9
$DIMTSZ
 40
0.0
  9
$DIMTOL
 70
     0
  9
$DIMLIM
 70
     0
  9
$DIMTIH
 70
     1
  9
$DIMTOH
 70
     1
  9
$DIMSE1
 70
     0
  9
$DIMSE2
 70
     0
  9
$DIMTAD
 70
     1
  9
$DIMZIN
 70
     0
  9
$DIMBLK
  1

  9
$DIMASO
 70
     1
  9
$DIMSHO
 70
     1
  9
$DIMPOST
  1

  9
$DIMAPOST
  1

  9
$DIMALT
 70
     0
  9
$DIMALTD
 70
     3
  9
$DIMALTF
 40
0.0393700787
  9
$DIMLFAC
 40
1.0
  9
$DIMTOFL
 70
     1
  9
$DIMTVP
 40
0.0
  9
$DIMTIX
 70
     0
  9
$DIMSOXD
 70
     0
  9
$DIMSAH
 70
     0
  9
$DIMBLK1
  1

  9
$DIMBLK2
  1

  9
$DIMSTYLE
  2
ISO-25
  9
$DIMCLRD
 70
     0
  9
$DIMCLRE
 70
     0
  9
$DIMCLRT
 70
     0
  9
$DIMTFAC
 40
1.0
  9
$DIMGAP
 40
1.524
  9
$DIMJUST
 70
     0
  9
$DIMSD1
 70
     0
  9
$DIMSD2
 70
     0
  9
$DIMTOLJ
 70
     0
  9
$DIMTZIN
 70
     0
  9
$DIMALTZ
 70
     0
  9
$DIMALTTZ
 70
     0
  9
$DIMUPT
 70
     0
  9
$DIMDEC
 70
     1
  9
$DIMTDEC
 70
     1
  9
$DIMALTU
 70
     2
  9
$DIMALTTD
 70
     3
  9
$DIMTXSTY
  7
Standard
  9
$DIMAUNIT
 70
     0
  9
$DIMADEC
 70
     1
  9
$DIMALTRND
 40
0.0
  9
$DIMAZIN
 70
     0
  9
$DIMDSEP
 70
    44
  9
$DIMATFIT
 70
     3
  9
$DIMFRAC
 70
     0
  9
$DIMLDRBLK
  1

  9
$DIMLUNIT
 70
     2
  9
$DIMLWD
 70
    -2
  9
$DIMLWE
 70
    -2
  9
$DIMTMOVE
 70
     0
  9
$LUNITS
 70
     2
  9
$LUPREC
 70
     1
  9
$SKETCHINC
 40
1.0
  9
$FILLETRAD
 40
10.0
  9
$AUNITS
 70
     0
  9
$AUPREC
 70
     1
  9
$MENU
  1
.
  9
$ELEVATION
 40
0.0
  9
$PELEVATION
 40
0.0
  9
$THICKNESS
 40
0.0
  9
$LIMCHECK
 70
     0
  9
$CHAMFERA
 40
0.0
  9
$CHAMFERB
 40
0.0
  9
$CHAMFERC
 40
0.0
  9
$CHAMFERD
 40
0.0
  9
$SKPOLY
 70
     0
  9
$TDCREATE
 40
2459564.419855127
  9
$TDUCREATE
 40
2459564.378188461
  9
$TDUPDATE
 40
2459564.419855474
  9
$TDUUPDATE
 40
2459564.378188808
  9
$TDINDWG
 40
0.0000000116
  9
$TDUSRTIMER
 40
0.0000000116
  9
$USRTIMER
 70
     1
  9
$ANGBASE
 50
0.0
  9
$ANGDIR
 70
     0
  9
$PDMODE
 70
     0
  9
$PDSIZE
 40
-1.0
  9
$PLINEWID
 40
0.0
  9
$SPLFRAME
 70
     0
  9
$SPLINETYPE
 70
     6
  9
$SPLINESEGS
 70
     8
  9
$HANDSEED
  5
503
  9
$SURFTAB1
 70
     6
  9
$SURFTAB2
 70
     6
  9
$SURFTYPE
 70
     6
  9
$SURFU
 70
     6
  9
$SURFV
 70
     6
  9
$UCSBASE
  2

  9
$UCSNAME
  2

  9
$UCSORG
 10
0.0
 20
0.0
 30
0.0
  9
$UCSXDIR
 10
1.0
 20
0.0
 30
0.0
  9
$UCSYDIR
 10
0.0
 20
1.0
 30
0.0
  9
$UCSORTHOREF
  2

  9
$UCSORTHOVIEW
 70
     0
  9
$UCSORGTOP
 10
0.0
 20
0.0
 30
0.0
  9
$UCSORGBOTTOM
 10
0.0
 20
0.0
 30
0.0
  9
$UCSORGLEFT
 10
0.0
 20
0.0
 30
0.0
  9
$UCSORGRIGHT
 10
0.0
 20
0.0
 30
0.0
  9
$UCSORGFRONT
 10
0.0
 20
0.0
 30
0.0
  9
$UCSORGBACK
 10
0.0
 20
0.0
 30
0.0
  9
$PUCSBASE
  2

  9
$PUCSNAME
  2

  9
$PUCSORG
 10
0.0
 20
0.0
 30
0.0
  9
$PUCSXDIR
 10
1.0
 20
0.0
 30
0.0
  9
$PUCSYDIR
 10
0.0
 20
1.0
 30
0.0
  9
$PUCSORTHOREF
  2

  9
$PUCSORTHOVIEW
 70
     0
  9
$PUCSORGTOP
 10
0.0
 20
0.0
 30
0.0
  9
$PUCSORGBOTTOM
 10
0.0
 20
0.0
 30
0.0
  9
$PUCSORGLEFT
 10
0.0
 20
0.0
 30
0.0
  9
$PUCSORGRIGHT
 10
0.0
 20
0.0
 30
0.0
  9
$PUCSORGFRONT
 10
0.0
 20
0.0
 30
0.0
  9
$PUCSORGBACK
 10
0.0
 20
0.0
 30
0.0
  9
$USERI1
 70
     0
  9
$USERI2
 70
     0
  9
$USERI3
 70
     0
  9
$USERI4
 70
     0
  9
$USERI5
 70
     0
  9
$USERR1
 40
0.0
  9
$USERR2
 40
0.0
  9
$USERR3
 40
0.0
  9
$USERR4
 40
0.0
  9
$USERR5
 40
0.0
  9
$WORLDVIEW
 70
     1
  9
$SHADEDGE
 70
     3
  9
$SHADEDIF
 70
    70
  9
$TILEMODE
 70
     1
  9
$MAXACTVP
 70
    64
  9
$PINSBASE
 10
0.0
 20
0.0
 30
0.0
  9
$PLIMCHECK
 70
     0
  9
$PEXTMIN
 10
1.0000000000E+20
 20
1.0000000000E+20
 30
1.0000000000E+20
  9
$PEXTMAX
 10
-1.0000000000E+20
 20
-1.0000000000E+20
 30
-1.0000000000E+20
  9
$PLIMMIN
 10
0.0
 20
0.0
  9
$PLIMMAX
 10
420.0
 20
297.0
  9
$UNITMODE
 70
     0
  9
$VISRETAIN
 70
     1
  9
$PLINEGEN
 70
     0
  9
$PSLTSCALE
 70
     1
  9
$TREEDEPTH
 70
  3020
  9
$CMLSTYLE
  2
Standard
  9
$CMLJUST
 70
     0
  9
$CMLSCALE
 40
20.0
  9
$PROXYGRAPHICS
 70
     1
  9
$MEASUREMENT
 70
     1
  9
$CELWEIGHT
370
    -1
  9
$ENDCAPS
280
     0
  9
$JOINSTYLE
280
     0
  9
$LWDISPLAY
290
     1
  9
$INSUNITS
 70
     4
  9
$HYPERLINKBASE
  1

  9
$STYLESHEET
  1

  9
$XEDIT
290
     1
  9
$CEPSNTYPE
380
     0
  9
$PSTYLEMODE
290
     1
  9
$FINGERPRINTGUID
  2
{5690b04b-271d-4e8a-a8b9-86f6f609ebd3}
  9
$VERSIONGUID
  2
{FAEB1C32-E019-11D5-929B-00C0DF256EC4}
  9
$EXTNAMES
290
     1
  9
$PSVPSCALE
 40
0.0
  9
$OLESTARTUP
290
     0
  0
ENDSEC
  0
SECTION
  2
CLASSES
  0
CLASS
  1
ACDBDICTIONARYWDFLT
  2
AcDbDictionaryWithDefault
  3
ObjectDBX Classes
 90
        0
280
     0
281
     0
  0
CLASS
  1
VISUALSTYLE
  2
AcDbVisualStyle
  3
ObjectDBX Classes
 90
     4095
280
     0
281
     0
  0
CLASS
  1
MATERIAL
  2
AcDbMaterial
  3
ObjectDBX Classes
 90
     1153
280
     0
281
     0
  0
CLASS
  1
SCALE
  2
AcDbScale
  3
ObjectDBX Classes
 90
     1153
280
     0
281
     0
  0
CLASS
  1
TABLESTYLE
  2
AcDbTableStyle
  3
ObjectDBX Classes
 90
     4095
280
     0
281
     0
  0
CLASS
  1
MLEADERSTYLE
  2
AcDbMLeaderStyle
  3
ACDB_MLEADERSTYLE_CLASS
 90
     4095
280
     0
281
     0
  0
CLASS
  1
SUN
  2
AcDbSun
  3
SCENEOE
 90
     1153
280
     0
281
     0
  0
CLASS
  1
ACDBPLACEHOLDER
  2
AcDbPlaceHolder
  3
ObjectDBX Classes
 90
        0
280
     0
281
     0
  0
CLASS
  1
LAYOUT
  2
AcDbLayout
  3
ObjectDBX Classes
 90
        0
280
     0
281
     0
  0
ENDSEC
  0
SECTION
  2
TABLES
  0
TABLE
  2
VPORT
  5
8
330
0
100
AcDbSymbolTable
 70
     1
  0
VPORT
  5
29
330
8
100
AcDbSymbolTableRecord
100
AcDbViewportTableRecord
  2
*Active
 70
     0
 10
0.0
 20
0.0
 11
1.0
 21
1.0
 12
215.9
 22
139.7
 13
0.0
 23
0.0
 14
10.0
 24
10.0
 15
10.0
 25
10.0
 16
0.0
 26
0.0
 36
1.0
 17
0.0
 27
0.0
 37
0.0
 40
279.4
 41
1.5454545455
 42
50.0
 43
0.0
 44
0.0
 50
0.0
 51
0.0
 71
     0
 72
  2000
 73
     1
 74
     3
 75
     0
 76
     0
 77
     0
 78
     0
281
     0
 65
     1
110
0.0
120
0.0
130
0.0
111
1.0
121
0.0
131
0.0
112
0.0
122
1.0
132
0.0
 79
     0
146
0.0
  0
ENDTAB
  0
TABLE
  2
LTYPE
  5
5
330
0
100
AcDbSymbolTable
 70
     6
  0
LTYPE
  5
14
330
5
100
AcDbSymbolTableRecord
100
AcDbLinetypeTableRecord
  2
ByBlock
 70
     0
  3

 72
    65
 73
     0
 40
0.0
  0
LTYPE
  5
15
330
5
100
AcDbSymbolTableRecord
100
AcDbLinetypeTableRecord
  2
ByLayer
 70
     0
  3

 72
    65
 73
     0
 40
0.0
  0
LTYPE
  5
16
330
5
100
AcDbSymbolTableRecord
100
AcDbLinetypeTableRecord
  2
Continuous
 70
     0
  3
Solid line
 72
    65
 73
     0
 40
0.0
  0
LTYPE
  5
6E
330
5
100
AcDbSymbolTableRecord
100
AcDbLinetypeTableRecord
  2
HIDDEN
 70
     0
  3
Hidden __ __ __ __ __ __ __ __ __ __ __ __ __ __
 72
    65
 73
     2
 40
1.905
 49
1.27
 74
     0
 49
-0.635
 74
     0
  0
LTYPE
  5
6F
330
5
100
AcDbSymbolTableRecord
100
AcDbLinetypeTableRecord
  2
PHANTOM
 70
     0
  3
Phantom ______  __  __  ______  __  __  ______
 72
    65
 73
     6
 40
12.7
 49
6.35
 74
     0
 49
-1.27
 74
     0
 49
1.27
 74
     0
 49
-1.27
 74
     0
 49
1.27
 74
     0
 49
-1.27
 74
     0
  0
LTYPE
  5
70
330
5
100
AcDbSymbolTableRecord
100
AcDbLinetypeTableRecord
  2
CENTER
 70
     0
  3
Center ____ _ ____ _ ____ _ ____ _ ____ _ ____
 72
    65
 73
     4
 40
10.16
 49
6.35
 74
     0
 49
-1.27
 74
     0
 49
1.27
 74
     0
 49
-1.27
 74
     0
  0
LTYPE
  5
71
330
5
100
AcDbSymbolTableRecord
100
AcDbLinetypeTableRecord
  2
CENTERX2
 70
     0
  3
Center (2x) ________  __  ________  __  _____
 72
    65
 73
     4
 40
20.32
 49
12.7
 74
     0
 49
-2.54
 74
     0
 49
2.54
 74
     0
 49
-2.54
 74
     0
  0
LTYPE
  5
72
330
5
100
AcDbSymbolTableRecord
100
AcDbLinetypeTableRecord
  2
DOT2
 70
     0
  3
Dot (.5x) ........................................
 72
    65
 73
     2
 40
0.635
 49
0.0
 74
     0
 49
-0.635
 74
     0
  0
ENDTAB
  0
TABLE
  2
LAYER
  5
2
330
0
100
AcDbSymbolTable
 70
     3
  0
LAYER
  5
10
330
2
100
AcDbSymbolTableRecord
100
AcDbLayerTableRecord
  2
0
 70
     0
 62
     7
  6
Continuous
370
    -3
390
F
  0
LAYER
  5
73
330
2
100
AcDbSymbolTableRecord
100
AcDbLayerTableRecord
  2
FRAME_&_TABLE
 70
     0
 62
     8
  6
Continuous
370
    50
390
F
  0
LAYER
  5
74
330
2
100
AcDbSymbolTableRecord
100
AcDbLayerTableRecord
  2
DIMENSIONS
 70
     0
 62
     7
  6
Continuous
370
    -3
390
F
  0
ENDTAB
  0
TABLE
  2
STYLE
  5
3
330
0
100
AcDbSymbolTable
 70
     1
  0
STYLE
  5
11
330
3
100
AcDbSymbolTableRecord
100
AcDbTextStyleTableRecord
  2
Standard
 70
     0
 40
0.0
 41
1.0
 50
0.0
 71
     0
 42
3.8805555556
  3
txt
  4

  0
ENDTAB
  0
TABLE
  2
VIEW
  5
6
330
0
100
AcDbSymbolTable
 70
     0
  0
ENDTAB
  0
TABLE
  2
UCS
  5
7
330
0
100
AcDbSymbolTable
 70
     0
  0
ENDTAB
  0
TABLE
  2
APPID
  5
9
330
0
100
AcDbSymbolTable
 70
     1
  0
APPID
  5
12
330
9
100
AcDbSymbolTableRecord
100
AcDbRegAppTableRecord
  2
ACAD
 70
     0
  0
ENDTAB
  0
TABLE
  2
DIMSTYLE
  5
A
330
0
100
AcDbSymbolTable
 70
     1
100
AcDbDimStyleTable
  0
DIMSTYLE
105
27
330
A
100
AcDbSymbolTableRecord
100
AcDbDimStyleTableRecord
  2
ISO-25
 70
     0
 41
2.5
 42
0.625
 43
3.75
 44
1.25
 73
     0
 74
     0
 77
     1
 78
     8
140
2.5
141
2.5
143
0.0393700787
147
0.625
171
     3
172
     1
178
     0
271
     2
272
     2
274
     3
278
    44
283
     0
284
     8
340
11
  0
ENDTAB
  0
TABLE
  2
BLOCK_RECORD
  5
1
330
0
100
AcDbSymbolTable
 70
     1
  0
BLOCK_RECORD
  5
1F
330
1
100
AcDbSymbolTableRecord
100
AcDbBlockTableRecord
  2
*Model_Space
340
22
  0
BLOCK_RECORD
  5
1B
330
1
100
AcDbSymbolTableRecord
100
AcDbBlockTableRecord
  2
*Paper_Space
340
1E
  0
BLOCK_RECORD
  5
23
330
1
100
AcDbSymbolTableRecord
100
AcDbBlockTableRecord
  2
*Paper_Space0
340
26
  0
ENDTAB
  0
ENDSEC
  0
SECTION
  2
BLOCKS
  0
BLOCK
  5
20
330
1F
100
AcDbEntity
  8
0
100
AcDbBlockBegin
  2
*Model_Space
 70
     0
 10
0.0
 20
0.0
 30
0.0
  3
*Model_Space
  1

  0
ENDBLK
  5
21
330
1F
100
AcDbEntity
  8
0
100
AcDbBlockEnd
  0
BLOCK
  5
1C
330
1B
100
AcDbEntity
 67
     1
  8
0
100
AcDbBlockBegin
  2
*Paper_Space
 70
     0
 10
0.0
 20
0.0
 30
0.0
  3
*Paper_Space
  1

  0
ENDBLK
  5
1D
330
1B
100
AcDbEntity
 67
     1
  8
0
100
AcDbBlockEnd
  0
BLOCK
  5
24
330
23
100
AcDbEntity
  8
0
100
AcDbBlockBegin
  2
*Paper_Space0
 70
     0
 10
0.0
 20
0.0
 30
0.0
  3
*Paper_Space0
  1

  0
ENDBLK
  5
25
330
23
100
AcDbEntity
  8
0
100
AcDbBlockEnd
  0
ENDSEC
  0
SECTION
  2
ENTITIES
  0
LINE
  5
75
330
1F
100
AcDbEntity
  8
0
  6
Continuous
 62
     7
370
    25
100
AcDbLine
 10
695.8872935872
 20
444.0378080033
 30
0.0
 11
695.180186806
 21
443.3307012222
 31
0.0
  0
LINE
  5
76
330
1F
100
AcDbEntity
  8
0
  6
Continuous
 62
     7
370
    25
100
AcDbLine
 10
717.1004970228
 20
421.4103910054
 30
0.0
 11
717.807603804
 21
422.1174977866
 31
0.0
  0
ARC
  5
77
330
1F
100
AcDbEntity
  8
0
  6
Continuous
 62
     7
370
    25
100
AcDbCircle
 10
705.5774477005
 20
432.9334403277
 30
0.0
 40
16.29605263157894
100
AcDbArc
 50
270.1144932694
 51
315.0
  0
ARC
  5
78
330
1F
100
AcDbEntity
  8
0
  6
Continuous
 62
     7
370
    25
100
AcDbCircle
 10
706.7032361284
 20
431.8076518998
 30
0.0
 40
16.29605263157882
100
AcDbArc
 50
135.0
 51
179.8855067306
  0
ARC
  5
79
330
1F
100
AcDbEntity
  8
0
  6
Continuous
 62
     7
370
    25
100
AcDbCircle
 10
771.7570599976
 20
496.861475769
 30
0.0
 40
16.296052631579
100
AcDbArc
 50
90.1144932694
 51
135.0
  0
ARC
  5
7A
330
1F
100
AcDbEntity
  8
0
  6
Continuous
 62
     7
370
    25
100
AcDbCircle
 10
770.6312715696
 20
497.9872641969
 30
0.0
 40
16.29605263157892
100
AcDbArc
 50
315.0
 51
359.8855067306
  0
LINE
  5
7B
330
1F
100
AcDbEntity
  8
0
  6
Continuous
 62
     7
370
    25
100
AcDbLine
 10
781.4472141108
 20
485.7571080934
 30
0.0
 11
782.154320892
 21
486.4642148745
 31
0.0
  0
LINE
  5
7C
330
1F
100
AcDbEntity
  8
0
  6
Continuous
 62
     7
370
    25
100
AcDbLine
 10
760.2340106752
 20
508.3845250913
 30
0.0
 11
759.526903894
 21
507.6774183101
 31
0.0
  0
ARC
  5
7D
330
1F
100
AcDbEntity
  8
0
  6
Continuous
 62
     7
370
    25
100
AcDbCircle
 10
706.7032361284
 20
497.9872641969
 30
0.0
 40
16.29605263157906
100
AcDbArc
 50
180.1144932694
 51
225.0
  0
ARC
  5
7E
330
1F
100
AcDbEntity
  8
0
  6
Continuous
 62
     7
370
    25
100
AcDbCircle
 10
705.5774477005
 20
496.861475769
 30
0.0
 40
16.29605263157901
100
AcDbArc
 50
45.0
 51
89.8855067306
  0
LINE
  5
7F
330
1F
100
AcDbEntity
  8
0
  6
Continuous
 62
     7
370
    25
100
AcDbLine
 10
717.807603804
 20
507.6774183101
 30
0.0
 11
717.1004970228
 21
508.3845250913
 31
0.0
  0
LINE
  5
80
330
1F
100
AcDbEntity
  8
0
  6
Continuous
 62
     7
370
    25
100
AcDbLine
 10
695.180186806
 20
486.4642148745
 30
0.0
 11
695.8872935872
 21
485.7571080934
 31
0.0
  0
ARC
  5
81
330
1F
100
AcDbEntity
  8
0
  6
Continuous
 62
     7
370
    25
100
AcDbCircle
 10
770.6312715696
 20
431.8076518998
 30
0.0
 40
16.29605263157906
100
AcDbArc
 50
0.1144932694
 51
45.0
  0
ARC
  5
82
330
1F
100
AcDbEntity
  8
0
  6
Continuous
 62
     7
370
    25
100
AcDbCircle
 10
771.7570599976
 20
432.9334403278
 30
0.0
 40
16.29605263157896
100
AcDbArc
 50
225.0
 51
269.8855067306
  0
LINE
  5
83
330
1F
100
AcDbEntity
  8
0
  6
Continuous
 62
     7
370
    25
100
AcDbLine
 10
759.526903894
 20
422.1174977866
 30
0.0
 11
760.2340106752
 21
421.4103910054
 31
0.0
  0
LINE
  5
84
330
1F
100
AcDbEntity
  8
0
  6
Continuous
 62
     7
370
    25
100
AcDbLine
 10
782.154320892
 20
443.3307012222
 30
0.0
 11
781.4472141108
 21
444.0378080034
 31
0.0
  0
LINE
  5
85
330
1F
100
AcDbEntity
  8
0
  6
Continuous
 62
     7
370
    25
100
AcDbLine
 10
705.6100118285
 20
513.1574958643
 30
0.0
 11
705.1962482821
 21
513.5712594107
 31
0.0
  0
LINE
  5
86
330
1F
100
AcDbEntity
  8
0
  6
Continuous
 62
     7
370
    25
100
AcDbLine
 10
689.9934524866
 20
498.3684636152
 30
0.0
 11
690.407216033
 21
497.9547000688
 31
0.0
  0
ARC
  5
87
330
1F
100
AcDbEntity
  8
0
  6
Continuous
 62
     7
370
    25
100
AcDbCircle
 10
704.7719842134
 20
513.146995342
 30
0.0
 40
0.5999999999999888
100
AcDbArc
 50
45.0
 51
114.724946748
  0
ARC
  5
88
330
1F
100
AcDbEntity
  8
0
  6
Continuous
 62
     7
370
    25
100
AcDbCircle
 10
690.4177165553
 20
498.7927276839
 30
0.0
 40
0.5999999999999894
100
AcDbArc
 50
155.275053252
 51
225.0
  0
ARC
  5
89
330
1F
100
AcDbEntity
  8
0
  6
Continuous
 62
     7
370
    25
100
AcDbCircle
 10
717.0231572186
 20
486.5415546787
 30
0.0
 40
29.89062499999996
100
AcDbArc
 50
114.724946748
 51
155.275053252
  0
LINE
  5
8A
330
1F
100
AcDbEntity
  8
0
  6
Continuous
 62
     7
370
    25
100
AcDbLine
 10
771.7244958695
 20
416.6374202324
 30
0.0
 11
772.1382594159
 21
416.223656686
 31
0.0
  0
LINE
  5
8B
330
1F
100
AcDbEntity
  8
0
  6
Continuous
 62
     7
370
    25
100
AcDbLine
 10
787.3410552114
 20
431.4264524815
 30
0.0
 11
786.927291665
 21
431.8402160279
 31
0.0
  0
ARC
  5
8C
330
1F
100
AcDbEntity
  8
0
  6
Continuous
 62
     7
370
    25
100
AcDbCircle
 10
772.5625234846
 20
416.6479207547
 30
0.0
 40
0.6000000000000132
100
AcDbArc
 50
225.0
 51
294.724946748
  0
ARC
  5
8D
330
1F
100
AcDbEntity
  8
0
  6
Continuous
 62
     7
370
    25
100
AcDbCircle
 10
786.9167911427
 20
431.0021884128
 30
0.0
 40
0.6000000000000691
100
AcDbArc
 50
335.275053252
 51
45.0
  0
ARC
  5
8E
330
1F
100
AcDbEntity
  8
0
  6
Continuous
 62
     7
370
    25
100
AcDbCircle
 10
760.3113504794
 20
443.253361418
 30
0.0
 40
29.89062499999991
100
AcDbArc
 50
294.724946748
 51
335.275053252
  0
LINE
  5
8F
330
1F
100
AcDbEntity
  8
0
  6
Continuous
 62
     7
370
    25
100
AcDbLine
 10
786.927291665
 20
497.9547000688
 30
0.0
 11
787.3410552114
 21
498.3684636152
 31
0.0
  0
LINE
  5
90
330
1F
100
AcDbEntity
  8
0
  6
Continuous
 62
     7
370
    25
100
AcDbLine
 10
772.1382594159
 20
513.5712594107
 30
0.0
 11
771.7244958695
 21
513.1574958643
 31
0.0
  0
ARC
  5
91
330
1F
100
AcDbEntity
  8
0
  6
Continuous
 62
     7
370
    25
100
AcDbCircle
 10
786.9167911427
 20
498.7927276839
 30
0.0
 40
0.6000000000000927
100
AcDbArc
 50
315.0
 51
24.724946748
  0
ARC
  5
92
330
1F
100
AcDbEntity
  8
0
  6
Continuous
 62
     7
370
    25
100
AcDbCircle
 10
772.5625234846
 20
513.146995342
 30
0.0
 40
0.6000000000000132
100
AcDbArc
 50
65.275053252
 51
135.0
  0
ARC
  5
93
330
1F
100
AcDbEntity
  8
0
  6
Continuous
 62
     7
370
    25
100
AcDbCircle
 10
760.3113504794
 20
486.5415546787
 30
0.0
 40
29.89062500000001
100
AcDbArc
 50
24.724946748
 51
65.275053252
  0
LINE
  5
94
330
1F
100
AcDbEntity
  8
0
  6
Continuous
 62
     7
370
    25
100
AcDbLine
 10
690.407216033
 20
431.8402160279
 30
0.0
 11
689.9934524866
 21
431.4264524815
 31
0.0
  0
LINE
  5
95
330
1F
100
AcDbEntity
  8
0
  6
Continuous
 62
     7
370
    25
100
AcDbLine
 10
705.1962482821
 20
416.223656686
 30
0.0
 11
705.6100118285
 21
416.6374202324
 31
0.0
  0
ARC
  5
96
330
1F
100
AcDbEntity
  8
0
  6
Continuous
 62
     7
370
    25
100
AcDbCircle
 10
690.4177165553
 20
431.0021884128
 30
0.0
 40
0.6000000000001093
100
AcDbArc
 50
135.0
 51
204.724946748
  0
ARC
  5
97
330
1F
100
AcDbEntity
  8
0
  6
Continuous
 62
     7
370
    25
100
AcDbCircle
 10
704.7719842134
 20
416.6479207547
 30
0.0
 40
0.6000000000000691
100
AcDbArc
 50
245.275053252
 51
315.0
  0
ARC
  5
98
330
1F
100
AcDbEntity
  8
0
  6
Continuous
 62
     7
370
    25
100
AcDbCircle
 10
717.0231572186
 20
443.253361418
 30
0.0
 40
29.89062500000009
100
AcDbArc
 50
204.724946748
 51
245.275053252
  0
LINE
  5
99
330
1F
100
AcDbEntity
  8
0
  6
Continuous
 62
     7
370
    25
100
AcDbLine
 10
783.0523465041
 20
575.7223038637
 30
0.0
 11
783.3210470809
 21
575.4536032869
 31
0.0
  0
LINE
  5
9A
330
1F
100
AcDbEntity
  8
0
  6
Continuous
 62
     7
370
    25
100
AcDbLine
 10
790.7456682834
 20
582.8782244893
 30
0.0
 11
790.4769677066
 21
583.1469250662
 31
0.0
  0
ARC
  5
9B
330
1F
100
AcDbEntity
  8
0
  6
Continuous
 62
     7
370
    25
100
AcDbCircle
 10
788.2352303473
 20
577.964041223
 30
0.0
 40
5.646916974785977
100
AcDbArc
 50
162.7008659176
 51
203.3897871106
  0
ARC
  5
9C
330
1F
100
AcDbEntity
  8
0
  6
Continuous
 62
     7
370
    25
100
AcDbCircle
 10
788.2352303473
 20
577.964041223
 30
0.0
 40
5.646916974785792
100
AcDbArc
 50
66.6102128894
 51
107.2991340824
  0
ARC
  5
9D
330
1F
100
AcDbEntity
  8
0
  6
Continuous
 62
     7
370
    25
100
AcDbCircle
 10
851.7338370236
 20
415.32948155
 30
0.0
 40
5.646916974785776
100
AcDbArc
 50
72.7008659176
 51
113.3897871106
  0
ARC
  5
9E
330
1F
100
AcDbEntity
  8
0
  6
Continuous
 62
     7
370
    25
100
AcDbCircle
 10
851.7338370236
 20
415.32948155
 30
0.0
 40
5.646916974785883
100
AcDbArc
 50
336.6102128894
 51
17.2991340824
  0
LINE
  5
9F
330
1F
100
AcDbEntity
  8
0
  6
Continuous
 62
     7
370
    25
100
AcDbLine
 10
849.4920996644
 20
420.5123653933
 30
0.0
 11
849.2233990875
 21
420.2436648164
 31
0.0
  0
LINE
  5
A0
330
1F
100
AcDbEntity
  8
0
  6
Continuous
 62
     7
370
    25
100
AcDbLine
 10
856.64802029
 20
412.819043614
 30
0.0
 11
856.9167208668
 21
413.0877441908
 31
0.0
  0
ARC
  5
A1
330
1F
100
AcDbEntity
  8
0
  6
Continuous
 62
     7
370
    25
100
AcDbCircle
 10
689.0992773507
 20
351.8308748737
 30
0.0
 40
5.6469169747859
100
AcDbArc
 50
342.7008659176
 51
23.3897871106
  0
ARC
  5
A2
330
1F
100
AcDbEntity
  8
0
  6
Continuous
 62
     7
370
    25
100
AcDbCircle
 10
689.0992773507
 20
351.8308748737
 30
0.0
 40
5.64691697478588
100
AcDbArc
 50
246.6102128894
 51
287.2991340824
  0
LINE
  5
A3
330
1F
100
AcDbEntity
  8
0
  6
Continuous
 62
     7
370
    25
100
AcDbLine
 10
694.2821611939
 20
354.072612233
 30
0.0
 11
694.0134606171
 21
354.3413128098
 31
0.0
  0
LINE
  5
A4
330
1F
100
AcDbEntity
  8
0
  6
Continuous
 62
     7
370
    25
100
AcDbLine
 10
686.5888394146
 20
346.9166916074
 30
0.0
 11
686.8575399915
 21
346.6479910305
 31
0.0
  0
ARC
  5
A5
330
1F
100
AcDbEntity
  8
0
  6
Continuous
 62
     7
370
    25
100
AcDbCircle
 10
625.6006706744
 20
514.4654345467
 30
0.0
 40
5.646916974785865
100
AcDbArc
 50
252.7008659176
 51
293.3897871106
  0
ARC
  5
A6
330
1F
100
AcDbEntity
  8
0
  6
Continuous
 62
     7
370
    25
100
AcDbCircle
 10
625.6006706744
 20
514.4654345467
 30
0.0
 40
5.646916974785723
100
AcDbArc
 50
156.6102128894
 51
197.2991340824
  0
LINE
  5
A7
330
1F
100
AcDbEntity
  8
0
  6
Continuous
 62
     7
370
    25
100
AcDbLine
 10
627.8424080336
 20
509.2825507034
 30
0.0
 11
628.1111086105
 21
509.5512512803
 31
0.0
  0
LINE
  5
A8
330
1F
100
AcDbEntity
  8
0
  6
Continuous
 62
     7
370
    25
100
AcDbLine
 10
620.686487408
 20
516.9758724827
 30
0.0
 11
620.4177868312
 21
516.7071719059
 31
0.0
  0
ARC
  5
A9
330
1F
100
AcDbEntity
  8
0
  6
Continuous
 62
     7
370
    25
100
AcDbCircle
 10
691.2910995095
 20
417.5213037088
 30
0.0
 40
7.100000000000007
100
AcDbArc
 50
270.0
 51
23.6358684803
  0
ARC
  5
AA
330
1F
100
AcDbEntity
  8
0
  6
Continuous
 62
     7
370
    25
100
AcDbCircle
 10
691.2910995095
 20
417.5213037088
 30
0.0
 40
7.100000000000068
100
AcDbArc
 50
66.3641315197
 51
270.0
  0
ARC
  5
AB
330
1F
100
AcDbEntity
  8
0
  6
Continuous
 62
     7
370
    25
100
AcDbCircle
 10
691.2910995095
 20
512.2736123878
 30
0.0
 40
7.099999999999966
100
AcDbArc
 50
270.0
 51
293.6358684803
  0
ARC
  5
AC
330
1F
100
AcDbEntity
  8
0
  6
Continuous
 62
     7
370
    25
100
AcDbCircle
 10
691.2910995095
 20
512.2736123878
 30
0.0
 40
7.099999999999966
100
AcDbArc
 50
336.3641315197
 51
270.0
  0
LINE
  5
AD
330
1F
100
AcDbEntity
  8
0
  6
Continuous
 62
     7
370
    25
100
AcDbLine
 10
694.543790703
 20
354.8716428957
 30
0.0
 11
693.4124198531
 21
356.0030137456
 31
0.0
  0
LINE
  5
AE
330
1F
100
AcDbEntity
  8
0
  6
Continuous
 62
     7
370
    25
100
AcDbLine
 10
684.9271384788
 20
347.5177323714
 30
0.0
 11
686.0585093287
 21
346.3863615215
 31
0.0
  0
LINE
  5
AF
330
1F
100
AcDbEntity
  8
0
  6
Continuous
 62
     7
370
    25
100
AcDbLine
 10
628.6414386964
 20
509.0209211944
 30
0.0
 11
629.7728095463
 21
510.1522920443
 31
0.0
  0
LINE
  5
B0
330
1F
100
AcDbEntity
  8
0
  6
Continuous
 62
     7
370
    25
100
AcDbLine
 10
621.287528172
 20
518.6375734185
 30
0.0
 11
620.1561573221
 21
517.5062025686
 31
0.0
  0
LINE
  5
B1
330
1F
100
AcDbEntity
  8
0
  6
Continuous
 62
     7
370
    25
100
AcDbLine
 10
782.7907169951
 20
574.923273201
 30
0.0
 11
783.922087845
 21
573.7919023511
 31
0.0
  0
LINE
  5
B2
330
1F
100
AcDbEntity
  8
0
  6
Continuous
 62
     7
370
    25
100
AcDbLine
 10
792.4073692192
 20
582.2771837253
 30
0.0
 11
791.2759983693
 21
583.4085545752
 31
0.0
  0
LINE
  5
B3
330
1F
100
AcDbEntity
  8
0
  6
Continuous
 62
     7
370
    25
100
AcDbLine
 10
848.6930690016
 20
420.7739949023
 30
0.0
 11
847.5616981517
 21
419.6426240524
 31
0.0
  0
LINE
  5
B4
330
1F
100
AcDbEntity
  8
0
  6
Continuous
 62
     7
370
    25
100
AcDbLine
 10
856.046979526
 20
411.1573426782
 30
0.0
 11
857.1783503759
 21
412.2887135281
 31
0.0
  0
CIRCLE
  5
B5
330
1F
100
AcDbEntity
  8
0
  6
Continuous
 62
     7
370
    25
100
AcDbCircle
 10
274.9912674505
 20
428.0194325277
 30
0.0
 40
7.099999999999966
  0
CIRCLE
  5
B6
330
1F
100
AcDbEntity
  8
0
  6
Continuous
 62
     7
370
    25
100
AcDbCircle
 10
-241.044558418
 20
-188.3389536076
 30
0.0
 40
7.099999999999994
  0
CIRCLE
  5
B7
330
1F
100
AcDbEntity
  8
0
  6
Continuous
 62
     7
370
    25
100
AcDbCircle
 10
-43.9373275545
 20
-92.1685863351
 30
0.0
 40
7.099999999999994
  0
CIRCLE
  5
B8
330
1F
100
AcDbEntity
  8
0
  6
Continuous
 62
     7
370
    25
100
AcDbCircle
 10
-262.8802705617
 20
168.0321244263
 30
0.0
 40
7.099999999999994
  0
CIRCLE
  5
B9
330
1F
100
AcDbEntity
  8
0
  6
Continuous
 62
     7
370
    25
100
AcDbCircle
 10
-104.8102734475
 20
467.5225117538
 30
0.0
 40
7.099999999999966
  0
CIRCLE
  5
BA
330
1F
100
AcDbEntity
  8
0
  6
Continuous
 62
     7
370
    25
100
AcDbCircle
 10
208.0862315615
 20
636.8823449193
 30
0.0
 40
7.099999999999909
  0
CIRCLE
  5
BB
330
1F
100
AcDbEntity
  8
0
  6
Continuous
 62
     7
370
    25
100
AcDbCircle
 10
-43.9112189673
 20
155.6808312207
 30
0.0
 40
7.099999999999994
  0
CIRCLE
  5
BC
330
1F
100
AcDbEntity
  8
0
  6
Continuous
 62
     7
370
    25
100
AcDbCircle
 10
58.8736081423
 20
321.5513265571
 30
0.0
 40
7.099999999999966
  0
LINE
  5
BD
330
1F
100
AcDbEntity
  8
0
  6
Continuous
 62
     7
370
    25
100
AcDbLine
 10
826.3030395957
 20
680.5195711898
 30
0.0
 11
826.6565929863
 21
680.1660177992
 31
0.0
  0
LINE
  5
BE
330
1F
100
AcDbEntity
  8
0
  6
Continuous
 62
     7
370
    25
100
AcDbLine
 10
833.7276607982
 20
687.2370856111
 30
0.0
 11
833.3741074076
 21
687.5906390017
 31
0.0
  0
ARC
  5
BF
330
1F
100
AcDbEntity
  8
0
  6
Continuous
 62
     7
370
    25
100
AcDbCircle
 10
832.6670006264
 20
685.8228720487
 30
0.0
 40
0.2500000000000422
100
AcDbArc
 50
135.0
 51
173.0970841453
  0
ARC
  5
C0
330
1F
100
AcDbEntity
  8
0
  6
Continuous
 62
     7
370
    25
100
AcDbCircle
 10
828.0708065487
 20
681.226677971
 30
0.0
 40
0.2500000000000281
100
AcDbArc
 50
96.9029158552
 51
135.0
  0
LINE
  5
C1
330
1F
100
AcDbEntity
  8
0
  6
Continuous
 62
     7
370
    25
100
AcDbLine
 10
831.0220904224
 20
690.0984321025
 30
0.0
 11
830.8992336734
 21
690.0655127358
 31
0.0
  0
LINE
  5
C2
330
1F
100
AcDbEntity
  8
0
  6
Continuous
 62
     7
370
    25
100
AcDbLine
 10
848.403927702
 20
661.2471102083
 30
0.0
 11
859.8906117021
 21
649.7604262082
 31
0.0
  0
LINE
  5
C3
330
1F
100
AcDbEntity
  8
0
  6
Continuous
 62
     7
370
    25
100
AcDbLine
 10
864.1332523892
 20
654.0030668953
 30
0.0
 11
847.3115314737
 21
670.8247878108
 31
0.0
  0
LINE
  5
C4
330
1F
100
AcDbEntity
  8
0
  6
Continuous
 62
     7
370
    25
100
AcDbLine
 10
843.7759975678
 20
674.3603217167
 30
0.0
 11
842.9272963905
 21
675.209022894
 31
0.0
  0
LINE
  5
C5
330
1F
100
AcDbEntity
  8
0
  6
Continuous
 62
     7
370
    25
100
AcDbLine
 10
823.8281658616
 20
682.994444924
 30
0.0
 11
823.7952464949
 21
682.871588175
 31
0.0
  0
LINE
  5
C6
330
1F
100
AcDbEntity
  8
0
  6
Continuous
 62
     7
370
    25
100
AcDbLine
 10
961.3604348023
 20
559.6043116069
 30
0.0
 11
961.0068814118
 21
559.9578649975
 31
0.0
  0
LINE
  5
C7
330
1F
100
AcDbEntity
  8
0
  6
Continuous
 62
     7
370
    25
100
AcDbLine
 10
953.9358135999
 20
552.8867971856
 30
0.0
 11
954.2893669905
 21
552.5332437951
 31
0.0
  0
ARC
  5
C8
330
1F
100
AcDbEntity
  8
0
  6
Continuous
 62
     7
370
    25
100
AcDbCircle
 10
954.9964737717
 20
554.301010748
 30
0.0
 40
0.2500000000001226
100
AcDbArc
 50
315.0
 51
353.0970841449
  0
ARC
  5
C9
330
1F
100
AcDbEntity
  8
0
  6
Continuous
 62
     7
370
    25
100
AcDbCircle
 10
959.5926678494
 20
558.8972048257
 30
0.0
 40
0.2499999999999087
100
AcDbArc
 50
276.9029158547
 51
315.0
  0
LINE
  5
CA
330
1F
100
AcDbEntity
  8
0
  6
Continuous
 62
     7
370
    25
100
AcDbLine
 10
963.8353085365
 20
557.1294378728
 30
0.0
 11
963.8682279032
 21
557.2522946217
 31
0.0
  0
LINE
  5
CB
330
1F
100
AcDbEntity
  8
0
  6
Continuous
 62
     7
370
    25
100
AcDbLine
 10
948.972081656
 20
569.1642376285
 30
0.0
 11
948.1301175174
 21
570.0062017671
 31
0.0
  0
LINE
  5
CC
330
1F
100
AcDbEntity
  8
0
  6
Continuous
 62
     7
370
    25
100
AcDbLine
 10
944.5945836114
 20
573.5417356731
 30
0.0
 11
924.6294195002
 21
593.5068997843
 31
0.0
  0
LINE
  5
CD
330
1F
100
AcDbEntity
  8
0
  6
Continuous
 62
     7
370
    25
100
AcDbLine
 10
920.3867788131
 20
589.2642590972
 30
0.0
 11
935.0169060089
 21
574.6341319013
 31
0.0
  0
LINE
  5
CE
330
1F
100
AcDbEntity
  8
0
  6
Continuous
 62
     7
370
    25
100
AcDbLine
 10
924.6294195002
 20
593.5068997843
 30
0.0
 11
923.8452380799
 21
593.5068997843
 31
0.0
  0
LINE
  5
CF
330
1F
100
AcDbEntity
  8
0
  6
Continuous
 62
     7
370
    25
100
AcDbLine
 10
920.3867788131
 20
590.0484405175
 30
0.0
 11
920.3867788131
 21
589.2642590972
 31
0.0
  0
LINE
  5
D0
330
1F
100
AcDbEntity
  8
0
  6
Continuous
 62
     7
370
    25
100
AcDbLine
 10
956.6413839757
 20
550.0254506942
 30
0.0
 11
956.7642407246
 21
550.0583700609
 31
0.0
  0
LWPOLYLINE
  5
D1
330
1F
100
AcDbEntity
  8
0
  6
Continuous
 62
     7
370
    25
100
AcDbPolyline
 90
       21
 70
   128
 43
0.0
 10
834.3066581722
 20
539.3236589359
 10
835.1531993422
 20
538.997970443
 10
836.8864900581
 20
538.482874752
 10
838.59466309
 20
538.1361668258
 10
840.2630452396
 20
537.9700883299
 10
841.8687181054
 20
537.9957501867
 10
843.3839956466
 20
538.2183371813
 10
844.7793561083
 20
538.6331927924
 10
846.0315304227
 20
539.2258235065
 10
847.1276145327
 20
539.9768484639
 10
848.0629933879
 20
540.8673687547
 10
848.837358938
 20
541.8820624495
 10
849.4495834644
 20
543.005966492
 10
849.9014783598
 20
544.2323759992
 10
850.1927958998
 20
545.5601847717
 10
850.3196525669
 20
546.9892388671
 10
850.2759948863
 20
548.515296014
 10
850.0571517143
 20
550.1260972512
 10
849.6633595516
 20
551.8019125414
 10
849.100526936
 20
553.5203236927
 10
848.9253994285
 20
553.9424001922
  0
LWPOLYLINE
  5
D2
330
1F
100
AcDbEntity
  8
0
  6
Continuous
 62
     7
370
    25
100
AcDbPolyline
 90
       14
 70
   128
 43
0.0
 10
844.1231315621
 20
549.1401323258
 10
844.2247025309
 20
548.6335566442
 10
844.3196870878
 20
547.6384821813
 10
844.2996721102
 20
546.7819021843
 10
844.1843456847
 20
546.0727943685
 10
843.9945568257
 20
545.5050098104
 10
843.739911836
 20
545.0533453264
 10
843.3860909192
 20
544.6683021504
 10
842.9354708365
 20
544.3701626404
 10
842.3978102599
 20
544.1564467418
 10
841.7416159994
 20
544.0150104297
 10
840.8793804062
 20
543.9567997186
 10
839.8931832682
 20
544.0148509436
 10
839.1258336843
 20
544.142834448
  0
LINE
  5
D3
330
1F
100
AcDbEntity
  8
0
  6
Continuous
 62
     7
370
    25
100
AcDbLine
 10
832.5317308857
 20
685.9581417894
 30
0.0
 11
832.4902239311
 21
685.999648744
 31
0.0
  0
LINE
  5
D4
330
1F
100
AcDbEntity
  8
0
  6
Continuous
 62
     7
370
    25
100
AcDbLine
 10
827.8940298534
 20
681.4034546663
 30
0.0
 11
827.9355368079
 21
681.3619477117
 31
0.0
  0
LINE
  5
D5
330
1F
100
AcDbEntity
  8
0
  6
Continuous
 62
     7
370
    25
100
AcDbLine
 10
844.8533439975
 20
668.3666003346
 30
0.0
 11
848.2437812778
 21
671.7570376149
 31
0.0
  0
LINE
  5
D6
330
1F
100
AcDbEntity
  8
0
  6
Continuous
 62
     7
370
    25
100
AcDbLine
 10
844.7082473718
 20
675.2925715208
 30
0.0
 11
840.1119947475
 21
670.6963188965
 31
0.0
  0
LINE
  5
D7
330
1F
100
AcDbEntity
  8
0
  6
Continuous
 62
     7
370
    25
100
AcDbLine
 10
845.2097719494
 20
675.7940960984
 30
0.0
 11
844.7082473718
 21
675.2925715208
 31
0.0
  0
LINE
  5
D8
330
1F
100
AcDbEntity
  8
0
  6
Continuous
 62
     7
370
    25
100
AcDbLine
 10
848.2437812778
 20
671.7570376149
 30
0.0
 11
848.7453058554
 21
672.2585621925
 31
0.0
  0
LINE
  5
D9
330
1F
100
AcDbEntity
  8
0
  6
Continuous
 62
     7
370
    25
100
AcDbLine
 10
845.7112965271
 20
676.295620676
 30
0.0
 11
845.2272162826
 21
675.8115404315
 31
0.0
  0
LINE
  5
DA
330
1F
100
AcDbEntity
  8
0
  6
Continuous
 62
     7
370
    25
100
AcDbLine
 10
848.7627501885
 20
672.2760065256
 30
0.0
 11
849.246830433
 21
672.7600867701
 31
0.0
  0
ARC
  5
DB
330
1F
100
AcDbEntity
  8
0
  6
Continuous
 62
     7
370
    25
100
AcDbCircle
 10
847.5101135854
 20
674.5589038285
 30
0.0
 40
2.500000000001065
100
AcDbArc
 50
315.0
 51
135.0
  0
LINE
  5
DC
330
1F
100
AcDbEntity
  8
0
  6
Continuous
 62
     7
370
    25
100
AcDbLine
 10
849.246830433
 20
672.7600867701
 30
0.0
 11
849.2778805384
 21
672.7911368755
 31
0.0
  0
LINE
  5
DD
330
1F
100
AcDbEntity
  8
0
  6
Continuous
 62
     7
370
    25
100
AcDbLine
 10
845.7423466325
 20
676.3266707814
 30
0.0
 11
845.711296527
 21
676.295620676
 31
0.0
  0
ARC
  5
DE
330
1F
100
AcDbEntity
  8
0
  6
Continuous
 62
     7
370
    25
100
AcDbCircle
 10
849.2455167152
 20
672.5155888053
 30
0.0
 40
10.68099472354781
100
AcDbArc
 50
206.4334398444
 51
232.5348324252
  0
LWPOLYLINE
  5
DF
330
1F
100
AcDbEntity
  8
0
  6
Continuous
 62
     7
370
    25
100
AcDbPolyline
 90
        9
 70
   128
 43
0.0
 10
834.7232028521
 20
668.0317026408
 10
834.7030007039
 20
667.3263879096
 10
834.8066623748
 20
666.6450745177
 10
835.0450157481
 20
665.8861235244
 10
835.4714225962
 20
664.9801423633
 10
836.0804136023
 20
663.9914388519
 10
836.7807857763
 20
663.045815533
 10
837.5532496961
 20
662.1365576141
 10
837.6323817979
 20
662.0536311585
  0
ARC
  5
E0
330
1F
100
AcDbEntity
  8
0
  6
Continuous
 62
     7
370
    25
100
AcDbCircle
 10
845.2202543498
 20
660.4453377676
 30
0.0
 40
3.053728963580891
100
AcDbArc
 50
275.6110706786
 51
353.0426565665
  0
LINE
  5
E1
330
1F
100
AcDbEntity
  8
0
  6
Continuous
 62
     7
370
    25
100
AcDbLine
 10
834.9845373675
 20
670.0404796466
 30
0.0
 11
834.7232028521
 21
668.0317026408
 31
0.0
  0
LINE
  5
E2
330
1F
100
AcDbEntity
  8
0
  6
Continuous
 62
     7
370
    25
100
AcDbLine
 10
839.7304156148
 20
667.7632681801
 30
0.0
 11
839.9427543729
 21
669.3954338128
 31
0.0
  0
LINE
  5
E3
330
1F
100
AcDbEntity
  8
0
  6
Continuous
 62
     7
370
    25
100
AcDbLine
 10
848.2514975099
 20
660.0754384742
 30
0.0
 11
848.7741665408
 21
664.0929924858
 31
0.0
  0
LINE
  5
E4
330
1F
100
AcDbEntity
  8
0
  6
Continuous
 62
     7
370
    25
100
AcDbLine
 10
835.245871883
 20
672.0492566524
 30
0.0
 11
834.9936272637
 21
670.1103501511
 31
0.0
  0
LINE
  5
E5
330
1F
100
AcDbEntity
  8
0
  6
Continuous
 62
     7
370
    25
100
AcDbLine
 10
839.9518442691
 20
669.4653043174
 30
0.0
 11
840.2040888883
 21
671.4042108186
 31
0.0
  0
LWPOLYLINE
  5
E6
330
1F
100
AcDbEntity
  8
0
  6
Continuous
 62
     7
370
    25
100
AcDbPolyline
 90
        8
 70
   128
 43
0.0
 10
848.7741665408
 20
664.0929924858
 10
848.794368689
 20
664.7983072169
 10
848.690707018
 20
665.4796206088
 10
848.4523536448
 20
666.2385716021
 10
848.0259467967
 20
667.1445527632
 10
847.4169557905
 20
668.1332562746
 10
846.7165836166
 20
669.0788795935
 10
846.1879139336
 20
669.7011702707
  0
LWPOLYLINE
  5
E7
330
1F
100
AcDbEntity
  8
0
  6
Continuous
 62
     7
370
    25
100
AcDbPolyline
 90
       13
 70
   128
 43
0.0
 10
842.4879169258
 20
673.0722410748
 10
842.4052100375
 20
673.1337326041
 10
841.47620438
 20
673.727739181
 10
840.5258095509
 20
674.2200334227
 10
839.4923430619
 20
674.5909074077
 10
838.7153829023
 20
674.7277541193
 10
837.9938682209
 20
674.7217924839
 10
837.294608355
 20
674.5695536032
 10
836.6397972218
 20
674.2599821373
 10
836.0710866515
 20
673.7975027918
 10
835.6127983521
 20
673.1762326783
 10
835.3420197645
 20
672.5185438562
 10
835.245871883
 20
672.0492566524
  0
ARC
  5
E8
330
1F
100
AcDbEntity
  8
0
  6
Continuous
 62
     7
370
    25
100
AcDbCircle
 10
829.873470489
 20
669.2139146151
 30
0.0
 40
14.61304756812451
100
AcDbArc
 50
305.5643268468
 51
329.5219606441
  0
ARC
  5
E9
330
1F
100
AcDbEntity
  8
0
  6
Continuous
 62
     7
370
    25
100
AcDbCircle
 10
837.3127549085
 20
663.7157327899
 30
0.0
 40
10.44174926509602
100
AcDbArc
 50
309.9925893087
 51
344.9353337873
  0
LINE
  5
EA
330
1F
100
AcDbEntity
  8
0
  6
Continuous
 62
     7
370
    25
100
AcDbLine
 10
847.3956536003
 20
661.0018275439
 30
0.0
 11
847.9183226312
 21
665.0193815555
 31
0.0
  0
LINE
  5
EB
330
1F
100
AcDbEntity
  8
0
  6
Continuous
 62
     7
370
    25
100
AcDbLine
 10
842.9601056258
 20
665.6644273892
 30
0.0
 11
842.4584416765
 21
661.8083312881
 31
0.0
  0
LWPOLYLINE
  5
EC
330
1F
100
AcDbEntity
  8
0
  6
Continuous
 62
     7
370
    25
100
AcDbPolyline
 90
       15
 70
   128
 43
0.0
 10
847.9183226312
 20
665.0193815555
 10
847.9333610301
 20
665.7560995954
 10
847.7943389802
 20
666.4197312103
 10
847.4936407766
 20
667.0522126016
 10
847.0378979211
 20
667.5995306214
 10
846.4410937104
 20
668.0244185801
 10
845.8222261371
 20
668.2669041385
 10
845.209955111
 20
668.3641434003
 10
844.6099357125
 20
668.3453259035
 10
843.9992237921
 20
668.2247781666
 10
843.3084113248
 20
667.9828296748
 10
842.4154042657
 20
667.5381836128
 10
841.5630979239
 20
667.0082811526
 10
840.6385418191
 20
666.3422966766
 10
840.5879570485
 20
666.3014587542
  0
LWPOLYLINE
  5
ED
330
1F
100
AcDbEntity
  8
0
  6
Continuous
 62
     7
370
    25
100
AcDbPolyline
 90
        3
 70
   128
 43
0.0
 10
836.9414109666
 20
662.856745568
 10
836.4746881079
 20
662.3141035174
 10
836.3423547824
 20
662.1417636422
  0
LINE
  5
EE
330
1F
100
AcDbEntity
  8
0
  6
Continuous
 62
     7
370
    25
100
AcDbLine
 10
944.4661146971
 20
566.3421989468
 30
0.0
 11
949.0623673214
 21
570.9384515712
 31
0.0
  0
LINE
  5
EF
330
1F
100
AcDbEntity
  8
0
  6
Continuous
 62
     7
370
    25
100
AcDbLine
 10
945.5268334155
 20
574.4739854771
 30
0.0
 11
942.1426227254
 21
571.089774787
 31
0.0
  0
LINE
  5
F0
330
1F
100
AcDbEntity
  8
0
  6
Continuous
 62
     7
370
    25
100
AcDbLine
 10
946.0283579931
 20
574.9755100547
 30
0.0
 11
945.5268334155
 21
574.4739854771
 31
0.0
  0
LINE
  5
F1
330
1F
100
AcDbEntity
  8
0
  6
Continuous
 62
     7
370
    25
100
AcDbLine
 10
949.0623673214
 20
570.9384515712
 30
0.0
 11
949.5638918991
 21
571.4399761488
 31
0.0
  0
LINE
  5
F2
330
1F
100
AcDbEntity
  8
0
  6
Continuous
 62
     7
370
    25
100
AcDbLine
 10
946.5298825708
 20
575.4770346323
 30
0.0
 11
946.0458023263
 21
574.9929543879
 31
0.0
  0
LINE
  5
F3
330
1F
100
AcDbEntity
  8
0
  6
Continuous
 62
     7
370
    25
100
AcDbLine
 10
949.5813362322
 20
571.4574204819
 30
0.0
 11
950.0654164767
 21
571.9415007264
 31
0.0
  0
ARC
  5
F4
330
1F
100
AcDbEntity
  8
0
  6
Continuous
 62
     7
370
    25
100
AcDbCircle
 10
948.3286996291
 20
573.7403177848
 30
0.0
 40
2.500000000001065
100
AcDbArc
 50
315.0
 51
135.0
  0
LINE
  5
F5
330
1F
100
AcDbEntity
  8
0
  6
Continuous
 62
     7
370
    25
100
AcDbLine
 10
950.0654164767
 20
571.9415007264
 30
0.0
 11
950.0964665821
 21
571.9725508318
 31
0.0
  0
LINE
  5
F6
330
1F
100
AcDbEntity
  8
0
  6
Continuous
 62
     7
370
    25
100
AcDbLine
 10
946.5609326761
 20
575.5080847377
 30
0.0
 11
946.5298825707
 21
575.4770346323
 31
0.0
  0
ARC
  5
F7
330
1F
100
AcDbEntity
  8
0
  6
Continuous
 62
     7
370
    25
100
AcDbCircle
 10
853.4729546404
 20
555.1903184421
 30
0.0
 40
5.697652914527433
100
AcDbArc
 50
231.3235789827
 51
272.9347086961
  0
ARC
  5
F8
330
1F
100
AcDbEntity
  8
0
  6
Continuous
 62
     7
370
    25
100
AcDbCircle
 10
856.8915514576
 20
561.7867400775
 30
0.0
 40
8.075917627022294
100
AcDbArc
 50
224.3888967763
 51
245.1829614817
  0
LINE
  5
F9
330
1F
100
AcDbEntity
  8
0
  6
Continuous
 62
     7
370
    25
100
AcDbLine
 10
855.1283938816
 20
554.7196893738
 30
0.0
 11
853.4889557973
 21
554.5064044965
 31
0.0
  0
LINE
  5
FA
330
1F
100
AcDbEntity
  8
0
  6
Continuous
 62
     7
370
    25
100
AcDbLine
 10
853.7646627096
 20
549.500137853
 30
0.0
 11
855.7734397154
 21
549.7614723685
 31
0.0
  0
LINE
  5
FB
330
1F
100
AcDbEntity
  8
0
  6
Continuous
 62
     7
370
    25
100
AcDbLine
 10
857.1371708874
 20
554.9810238893
 30
0.0
 11
855.1982643862
 21
554.72877927
 31
0.0
  0
LINE
  5
FC
330
1F
100
AcDbEntity
  8
0
  6
Continuous
 62
     7
370
    25
100
AcDbLine
 10
855.8433102199
 20
549.7705622646
 30
0.0
 11
857.7822167212
 21
550.0228068839
 31
0.0
  0
LWPOLYLINE
  5
FD
330
1F
100
AcDbEntity
  8
0
  6
Continuous
 62
     7
370
    25
100
AcDbPolyline
 90
       13
 70
   128
 43
0.0
 10
857.7822167212
 20
550.0228068839
 10
858.4882382993
 20
550.1962811567
 10
859.1350031598
 20
550.5283775579
 10
859.688386807
 20
551.0116741273
 10
860.1167178019
 20
551.6333350593
 10
860.3663932574
 20
552.2858793526
 10
860.4692466402
 20
552.9465997592
 10
860.4479062521
 20
553.6188745149
 10
860.3057353253
 20
554.3368949697
 10
860.0103256165
 20
555.1717809067
 10
859.5106394876
 20
556.1666482068
 10
858.8846598375
 20
557.156176164
 10
858.4955472177
 20
557.6803808894
  0
ARC
  5
FE
330
1F
100
AcDbEntity
  8
0
  6
Continuous
 62
     7
370
    25
100
AcDbCircle
 10
847.8212673245
 20
553.1868722919
 30
0.0
 40
10.85875423056802
100
AcDbArc
 50
48.6039896418
 51
61.9614261734
  0
ARC
  5
FF
330
1F
100
AcDbEntity
  8
0
  6
Continuous
 62
     7
370
    25
100
AcDbCircle
 10
871.2971246098
 20
563.3170561694
 30
0.0
 40
3.002524625164153
100
AcDbArc
 50
96.4126009345
 51
175.0362185139
  0
LWPOLYLINE
  5
100
330
1F
100
AcDbEntity
  8
0
  6
Continuous
 62
     7
370
    25
100
AcDbPolyline
 90
        9
 70
   128
 43
0.0
 10
872.9400529942
 20
555.682037476
 10
873.0341422808
 20
555.5924118969
 10
873.9243822878
 20
554.8362834521
 10
874.8269512929
 20
554.1645698896
 10
875.7439616883
 20
553.5886491737
 10
876.7078760901
 20
553.1199372729
 10
877.5895978367
 20
552.8427936087
 10
878.3088963982
 20
552.7470053884
 10
878.9180443473
 20
552.7725004812
  0
ARC
  5
101
330
1F
100
AcDbEntity
  8
0
  6
Continuous
 62
     7
370
    25
100
AcDbCircle
 10
883.609469917
 20
567.549744347
 30
0.0
 40
10.99960897836518
100
AcDbArc
 50
217.8659548862
 51
243.2309215882
  0
LINE
  5
102
330
1F
100
AcDbEntity
  8
0
  6
Continuous
 62
     7
370
    25
100
AcDbLine
 10
880.2817755193
 20
557.992052002
 30
0.0
 11
878.642337435
 21
557.7787671246
 31
0.0
  0
LINE
  5
103
330
1F
100
AcDbEntity
  8
0
  6
Continuous
 62
     7
370
    25
100
AcDbLine
 10
878.9180443473
 20
552.7725004811
 30
0.0
 11
880.9268213531
 21
553.0338349966
 31
0.0
  0
LINE
  5
104
330
1F
100
AcDbEntity
  8
0
  6
Continuous
 62
     7
370
    25
100
AcDbLine
 10
874.9793341922
 20
566.8234641698
 30
0.0
 11
870.9617801806
 21
566.3007951389
 31
0.0
  0
LINE
  5
105
330
1F
100
AcDbEntity
  8
0
  6
Continuous
 62
     7
370
    25
100
AcDbLine
 10
882.2905525251
 20
558.2533865174
 30
0.0
 11
880.3516460238
 21
558.0011418981
 31
0.0
  0
LINE
  5
106
330
1F
100
AcDbEntity
  8
0
  6
Continuous
 62
     7
370
    25
100
AcDbLine
 10
880.9966918576
 20
553.0429248928
 30
0.0
 11
882.9355983589
 21
553.295169512
 31
0.0
  0
LWPOLYLINE
  5
107
330
1F
100
AcDbEntity
  8
0
  6
Continuous
 62
     7
370
    25
100
AcDbPolyline
 90
       13
 70
   128
 43
0.0
 10
882.9355983589
 20
553.295169512
 10
883.6416199369
 20
553.4686437849
 10
884.2883847975
 20
553.800740186
 10
884.8417684446
 20
554.2840367554
 10
885.2700994395
 20
554.9056976874
 10
885.519774895
 20
555.5582419807
 10
885.6226282778
 20
556.2189623873
 10
885.6012878898
 20
556.891237143
 10
885.459116963
 20
557.6092575978
 10
885.1637072542
 20
558.4441435348
 10
884.6640211253
 20
559.4390108349
 10
884.0380414751
 20
560.4285387921
 10
883.6489288554
 20
560.9527435175
  0
ARC
  5
108
330
1F
100
AcDbEntity
  8
0
  6
Continuous
 62
     7
370
    25
100
AcDbCircle
 10
874.9258056152
 20
559.5516867497
 30
0.0
 40
7.271974433192664
100
AcDbArc
 50
44.0195218529
 51
89.5782453202
  0
ARC
  5
109
330
1F
100
AcDbEntity
  8
0
  6
Continuous
 62
     7
370
    25
100
AcDbCircle
 10
896.4505062475
 20
566.5894187975
 30
0.0
 40
3.00252462516403
100
AcDbArc
 50
96.4126009345
 51
175.0362185139
  0
LWPOLYLINE
  5
10A
330
1F
100
AcDbEntity
  8
0
  6
Continuous
 62
     7
370
    25
100
AcDbPolyline
 90
        9
 70
   128
 43
0.0
 10
898.0934346318
 20
558.9544001041
 10
898.1875239185
 20
558.864774525
 10
899.0777639255
 20
558.1086460802
 10
899.9803329306
 20
557.4369325177
 10
900.8973433259
 20
556.8610118018
 10
901.8612577278
 20
556.392299901
 10
902.7429794743
 20
556.1151562368
 10
903.4622780359
 20
556.0193680165
 10
904.0714259849
 20
556.0448631093
  0
ARC
  5
10B
330
1F
100
AcDbEntity
  8
0
  6
Continuous
 62
     7
370
    25
100
AcDbCircle
 10
908.7628515547
 20
570.8221069751
 30
0.0
 40
10.99960897836876
100
AcDbArc
 50
217.8659548862
 51
243.2309215882
  0
LINE
  5
10C
330
1F
100
AcDbEntity
  8
0
  6
Continuous
 62
     7
370
    25
100
AcDbLine
 10
905.435157157
 20
561.2644146301
 30
0.0
 11
903.7957190727
 21
561.0511297527
 31
0.0
  0
LINE
  5
10D
330
1F
100
AcDbEntity
  8
0
  6
Continuous
 62
     7
370
    25
100
AcDbLine
 10
904.0714259849
 20
556.0448631093
 30
0.0
 11
906.0802029907
 21
556.3061976247
 31
0.0
  0
LINE
  5
10E
330
1F
100
AcDbEntity
  8
0
  6
Continuous
 62
     7
370
    25
100
AcDbLine
 10
900.1327158299
 20
570.0958267979
 30
0.0
 11
896.1151618183
 21
569.5731577671
 31
0.0
  0
LINE
  5
10F
330
1F
100
AcDbEntity
  8
0
  6
Continuous
 62
     7
370
    25
100
AcDbLine
 10
907.4439341628
 20
561.5257491455
 30
0.0
 11
905.5050276615
 21
561.2735045262
 31
0.0
  0
LINE
  5
110
330
1F
100
AcDbEntity
  8
0
  6
Continuous
 62
     7
370
    25
100
AcDbLine
 10
906.1500734953
 20
556.3152875209
 30
0.0
 11
908.0889799965
 21
556.5675321401
 31
0.0
  0
LWPOLYLINE
  5
111
330
1F
100
AcDbEntity
  8
0
  6
Continuous
 62
     7
370
    25
100
AcDbPolyline
 90
       13
 70
   128
 43
0.0
 10
908.0889799966
 20
556.5675321401
 10
908.7950015746
 20
556.741006413
 10
909.4417664352
 20
557.0731028141
 10
909.9951500823
 20
557.5563993835
 10
910.4234810772
 20
558.1780603155
 10
910.6731565327
 20
558.8306046088
 10
910.7760099155
 20
559.4913250154
 10
910.7546695275
 20
560.1635997711
 10
910.6124986007
 20
560.8816202259
 10
910.3170888918
 20
561.716506163
 10
909.817402763
 20
562.711373463
 10
909.1914231128
 20
563.7009014202
 10
908.8023104931
 20
564.2251061456
  0
ARC
  5
112
330
1F
100
AcDbEntity
  8
0
  6
Continuous
 62
     7
370
    25
100
AcDbCircle
 10
900.0791872528
 20
562.8240493778
 30
0.0
 40
7.271974433193461
100
AcDbArc
 50
44.0195218529
 51
89.5782453202
  0
ARC
  5
113
330
1F
100
AcDbEntity
  8
0
  6
Continuous
 62
     7
370
    25
100
AcDbCircle
 10
861.8167331244
 20
554.3082460243
 30
0.0
 40
9.825286524047069
100
AcDbArc
 50
104.772418967
 51
136.8731271261
  0
LWPOLYLINE
  5
114
330
1F
100
AcDbEntity
  8
0
  6
Continuous
 62
     7
370
    25
100
AcDbPolyline
 90
       12
 70
   128
 43
0.0
 10
855.6327932187
 20
554.7853098762
 10
855.6406252386
 20
554.7957300971
 10
856.2064012622
 20
555.4782219206
 10
856.8450346749
 20
556.1828869719
 10
857.5234978213
 20
556.8697021351
 10
858.204703279
 20
557.5007187363
 10
858.8480804702
 20
558.0411346368
 10
859.4106073181
 20
558.4618476856
 10
859.8002706617
 20
558.7152906393
 10
860.0437475291
 20
558.8487334844
 10
860.129412376
 20
558.8866825572
 10
860.1263161684
 20
558.8858700911
  0
LINE
  5
115
330
1F
100
AcDbEntity
  8
0
  6
Continuous
 62
     7
370
    25
100
AcDbLine
 10
860.1304243104
 20
558.8731766676
 30
0.0
 11
863.9740782769
 21
559.3732219408
 31
0.0
  0
LINE
  5
116
330
1F
100
AcDbEntity
  8
0
  6
Continuous
 62
     7
370
    25
100
AcDbLine
 10
863.3290324431
 20
564.3314389462
 30
0.0
 11
859.3114784315
 21
563.8087699153
 31
0.0
  0
LWPOLYLINE
  5
117
330
1F
100
AcDbEntity
  8
0
  6
Continuous
 62
     7
370
    25
100
AcDbPolyline
 90
        3
 70
   128
 43
0.0
 10
860.4381362279
 20
552.7467494122
 10
860.6543075042
 20
552.9127748282
 10
861.1655829354
 20
553.3547766542
  0
LWPOLYLINE
  5
118
330
1F
100
AcDbEntity
  8
0
  6
Continuous
 62
     7
370
    25
100
AcDbPolyline
 90
       15
 70
   128
 43
0.0
 10
864.6096825211
 20
557.0009185293
 10
864.6821584707
 20
557.0912006323
 10
865.3119513362
 20
557.9673249875
 10
865.8535556797
 20
558.838623346
 10
866.3016403605
 20
559.7433773566
 10
866.5690817252
 20
560.5468673599
 10
866.6705323157
 20
561.1879173155
 10
866.6532594949
 20
561.8434973979
 10
866.4919836147
 20
562.5021216001
 10
866.1709907241
 20
563.1235963052
 10
865.697902204
 20
563.6555429579
 10
865.0844843678
 20
564.0623085308
 10
864.4551741044
 20
564.2841494384
 10
863.8383207245
 20
564.3596030909
 10
863.3290324432
 20
564.3314389462
  0
ARC
  5
119
330
1F
100
AcDbEntity
  8
0
  6
Continuous
 62
     7
370
    25
100
AcDbCircle
 10
909.0271970663
 20
568.2256001116
 30
0.0
 40
3.002524625164153
100
AcDbArc
 50
96.4126009345
 51
175.0362185139
  0
LWPOLYLINE
  5
11A
330
1F
100
AcDbEntity
  8
0
  6
Continuous
 62
     7
370
    25
100
AcDbPolyline
 90
        9
 70
   128
 43
0.0
 10
910.6701254507
 20
560.5905814182
 10
910.7642147373
 20
560.5009558391
 10
911.6544547443
 20
559.7448273943
 10
912.5570237494
 20
559.0731138317
 10
913.4740341448
 20
558.4971931159
 10
914.4379485466
 20
558.0284812151
 10
915.3196702932
 20
557.7513375509
 10
916.0389688547
 20
557.6555493306
 10
916.6481168038
 20
557.6810444233
  0
ARC
  5
11B
330
1F
100
AcDbEntity
  8
0
  6
Continuous
 62
     7
370
    25
100
AcDbCircle
 10
921.3395423735
 20
572.4582882892
 30
0.0
 40
10.99960897836291
100
AcDbArc
 50
217.8659548862
 51
243.2309215882
  0
LINE
  5
11C
330
1F
100
AcDbEntity
  8
0
  6
Continuous
 62
     7
370
    25
100
AcDbLine
 10
918.0118479758
 20
562.9005959441
 30
0.0
 11
916.3724098915
 21
562.6873110668
 31
0.0
  0
LINE
  5
11D
330
1F
100
AcDbEntity
  8
0
  6
Continuous
 62
     7
370
    25
100
AcDbLine
 10
916.6481168038
 20
557.6810444233
 30
0.0
 11
918.6568938096
 21
557.9423789388
 31
0.0
  0
LINE
  5
11E
330
1F
100
AcDbEntity
  8
0
  6
Continuous
 62
     7
370
    25
100
AcDbLine
 10
912.7094066487
 20
571.732008112
 30
0.0
 11
908.6918526371
 21
571.2093390811
 31
0.0
  0
LINE
  5
11F
330
1F
100
AcDbEntity
  8
0
  6
Continuous
 62
     7
370
    25
100
AcDbLine
 10
920.0206249816
 20
563.1619304596
 30
0.0
 11
918.0817184803
 21
562.9096858403
 31
0.0
  0
LINE
  5
120
330
1F
100
AcDbEntity
  8
0
  6
Continuous
 62
     7
370
    25
100
AcDbLine
 10
918.7267643141
 20
557.9514688349
 30
0.0
 11
920.6656708154
 21
558.2037134542
 31
0.0
  0
LWPOLYLINE
  5
121
330
1F
100
AcDbEntity
  8
0
  6
Continuous
 62
     7
370
    25
100
AcDbPolyline
 90
       13
 70
   128
 43
0.0
 10
920.6656708154
 20
558.2037134542
 10
921.3716923934
 20
558.377187727
 10
922.018457254
 20
558.7092841282
 10
922.5718409012
 20
559.1925806976
 10
923.000171896
 20
559.8142416296
 10
923.2498473515
 20
560.4667859229
 10
923.3527007343
 20
561.1275063295
 10
923.3313603463
 20
561.7997810852
 10
923.1891894195
 20
562.51780154
 10
922.8937797107
 20
563.352687477
 10
922.3940935818
 20
564.3475547771
 10
921.7681139316
 20
565.3370827343
 10
921.3790013119
 20
565.8612874597
  0
ARC
  5
122
330
1F
100
AcDbEntity
  8
0
  6
Continuous
 62
     7
370
    25
100
AcDbCircle
 10
912.6558780717
 20
564.4602306919
 30
0.0
 40
7.27197443319485
100
AcDbArc
 50
44.0195218529
 51
89.5782453202
  0
ARC
  5
123
330
1F
100
AcDbEntity
  8
0
  6
Continuous
 62
     7
370
    25
100
AcDbCircle
 10
921.6038878851
 20
569.8617814256
 30
0.0
 40
3.002524625164039
100
AcDbArc
 50
96.4126009345
 51
175.0362185139
  0
LWPOLYLINE
  5
124
330
1F
100
AcDbEntity
  8
0
  6
Continuous
 62
     7
370
    25
100
AcDbPolyline
 90
        9
 70
   128
 43
0.0
 10
923.2468162695
 20
562.2267627322
 10
923.3409055561
 20
562.1371371531
 10
924.2311455632
 20
561.3810087084
 10
925.1337145682
 20
560.7092951458
 10
926.0507249636
 20
560.1333744299
 10
927.0146393654
 20
559.6646625291
 10
927.896361112
 20
559.387518865
 10
928.6156596735
 20
559.2917306446
 10
929.2248076226
 20
559.3172257374
  0
ARC
  5
125
330
1F
100
AcDbEntity
  8
0
  6
Continuous
 62
     7
370
    25
100
AcDbCircle
 10
933.9162331923
 20
574.0944696033
 30
0.0
 40
10.99960897836844
100
AcDbArc
 50
217.8659548862
 51
243.2309215882
  0
LINE
  5
126
330
1F
100
AcDbEntity
  8
0
  6
Continuous
 62
     7
370
    25
100
AcDbLine
 10
930.5885387946
 20
564.5367772582
 30
0.0
 11
928.9491007103
 21
564.3234923808
 31
0.0
  0
LINE
  5
127
330
1F
100
AcDbEntity
  8
0
  6
Continuous
 62
     7
370
    25
100
AcDbLine
 10
929.2248076226
 20
559.3172257374
 30
0.0
 11
931.2335846284
 21
559.5785602528
 31
0.0
  0
LINE
  5
128
330
1F
100
AcDbEntity
  8
0
  6
Continuous
 62
     7
370
    25
100
AcDbLine
 10
925.2860974676
 20
573.3681894261
 30
0.0
 11
921.268543456
 21
572.8455203952
 31
0.0
  0
LINE
  5
129
330
1F
100
AcDbEntity
  8
0
  6
Continuous
 62
     7
370
    25
100
AcDbLine
 10
932.5973158004
 20
564.7981117736
 30
0.0
 11
930.6584092992
 21
564.5458671544
 31
0.0
  0
LINE
  5
12A
330
1F
100
AcDbEntity
  8
0
  6
Continuous
 62
     7
370
    25
100
AcDbLine
 10
931.3034551329
 20
559.587650149
 30
0.0
 11
933.2423616342
 21
559.8398947682
 31
0.0
  0
LWPOLYLINE
  5
12B
330
1F
100
AcDbEntity
  8
0
  6
Continuous
 62
     7
370
    25
100
AcDbPolyline
 90
       13
 70
   128
 43
0.0
 10
933.2423616342
 20
559.8398947683
 10
933.9483832123
 20
560.0133690411
 10
934.5951480728
 20
560.3454654422
 10
935.14853172
 20
560.8287620116
 10
935.5768627149
 20
561.4504229436
 10
935.8265381704
 20
562.1029672369
 10
935.9293915532
 20
562.7636876436
 10
935.9080511651
 20
563.4359623993
 10
935.7658802383
 20
564.153982854
 10
935.4704705295
 20
564.9888687911
 10
934.9707844006
 20
565.9837360912
 10
934.3448047505
 20
566.9732640483
 10
933.9556921308
 20
567.4974687738
  0
ARC
  5
12C
330
1F
100
AcDbEntity
  8
0
  6
Continuous
 62
     7
370
    25
100
AcDbCircle
 10
925.2325688905
 20
566.0964120059
 30
0.0
 40
7.271974433194771
100
AcDbArc
 50
44.0195218529
 51
89.5782453202
  0
ARC
  5
12D
330
1F
100
AcDbEntity
  8
0
  6
Continuous
 62
     7
370
    25
100
AcDbCircle
 10
845.3191336855
 20
561.3599196604
 30
0.0
 40
8.999207328544914
100
AcDbArc
 50
318.463017444
 51
344.981517017
  0
ARC
  5
12E
330
1F
100
AcDbEntity
  8
0
  6
Continuous
 62
     7
370
    25
100
AcDbCircle
 10
900.430090655
 20
557.5787818327
 30
0.0
 40
11.64255545054508
100
AcDbArc
 50
106.9206947196
 51
138.1931889681
  0
LWPOLYLINE
  5
12F
330
1F
100
AcDbEntity
  8
0
  6
Continuous
 62
     7
370
    25
100
AcDbPolyline
 90
       12
 70
   128
 43
0.0
 10
893.3628656752
 20
559.6938538184
 10
893.3706976951
 20
559.7042740392
 10
893.9364737187
 20
560.3867658627
 10
894.5751071314
 20
561.0914309141
 10
895.2535702778
 20
561.7782460773
 10
895.9347757355
 20
562.4092626785
 10
896.5781529267
 20
562.949678579
 10
897.1406797746
 20
563.3703916278
 10
897.5303431182
 20
563.6238345815
 10
897.7738199856
 20
563.7572774266
 10
897.8594848325
 20
563.7952264994
 10
897.8563886249
 20
563.7944140333
  0
LINE
  5
130
330
1F
100
AcDbEntity
  8
0
  6
Continuous
 62
     7
370
    25
100
AcDbLine
 10
897.8604967669
 20
563.7817206097
 30
0.0
 11
901.7041507334
 21
564.281765883
 31
0.0
  0
LINE
  5
131
330
1F
100
AcDbEntity
  8
0
  6
Continuous
 62
     7
370
    25
100
AcDbLine
 10
901.0591048996
 20
569.2399828884
 30
0.0
 11
897.041550888
 21
568.7173138575
 31
0.0
  0
LWPOLYLINE
  5
132
330
1F
100
AcDbEntity
  8
0
  6
Continuous
 62
     7
370
    25
100
AcDbPolyline
 90
        3
 70
   128
 43
0.0
 10
898.1682086844
 20
557.6552933543
 10
898.3843799607
 20
557.8213187703
 10
898.8956553919
 20
558.2633205963
  0
LWPOLYLINE
  5
133
330
1F
100
AcDbEntity
  8
0
  6
Continuous
 62
     7
370
    25
100
AcDbPolyline
 90
       15
 70
   128
 43
0.0
 10
902.3397549776
 20
561.9094624715
 10
902.4122309272
 20
561.9997445744
 10
903.0420237927
 20
562.8758689297
 10
903.5836281362
 20
563.7471672881
 10
904.031712817
 20
564.6519212988
 10
904.2991541817
 20
565.455411302
 10
904.4006047722
 20
566.0964612577
 10
904.3833319514
 20
566.7520413401
 10
904.2220560712
 20
567.4106655423
 10
903.9010631806
 20
568.0321402474
 10
903.4279746605
 20
568.5640869001
 10
902.8145568243
 20
568.9708524729
 10
902.1852465609
 20
569.1926933805
 10
901.568393181
 20
569.2681470331
 10
901.0591048997
 20
569.2399828884
  0
ARC
  5
134
330
1F
100
AcDbEntity
  8
0
  6
Continuous
 62
     7
370
    25
100
AcDbCircle
 10
925.5834722927
 20
560.8511444609
 30
0.0
 40
11.6425554505429
100
AcDbArc
 50
106.9206947196
 51
138.1931889681
  0
LWPOLYLINE
  5
135
330
1F
100
AcDbEntity
  8
0
  6
Continuous
 62
     7
370
    25
100
AcDbPolyline
 90
       12
 70
   128
 43
0.0
 10
918.5162473129
 20
562.9662164465
 10
918.5240793328
 20
562.9766366673
 10
919.0898553564
 20
563.6591284908
 10
919.7284887691
 20
564.3637935422
 10
920.4069519155
 20
565.0506087054
 10
921.0881573731
 20
565.6816253066
 10
921.7315345644
 20
566.2220412071
 10
922.2940614123
 20
566.6427542559
 10
922.6837247558
 20
566.8961972096
 10
922.9272016233
 20
567.0296400547
 10
923.0128664702
 20
567.0675891275
 10
923.0097702625
 20
567.0667766614
  0
LINE
  5
136
330
1F
100
AcDbEntity
  8
0
  6
Continuous
 62
     7
370
    25
100
AcDbLine
 10
923.0138784046
 20
567.0540832378
 30
0.0
 11
926.8575323711
 21
567.5541285111
 31
0.0
  0
LINE
  5
137
330
1F
100
AcDbEntity
  8
0
  6
Continuous
 62
     7
370
    25
100
AcDbLine
 10
926.2124865373
 20
572.5123455165
 30
0.0
 11
922.1949325257
 21
571.9896764856
 31
0.0
  0
LWPOLYLINE
  5
138
330
1F
100
AcDbEntity
  8
0
  6
Continuous
 62
     7
370
    25
100
AcDbPolyline
 90
        3
 70
   128
 43
0.0
 10
923.3215903221
 20
560.9276559825
 10
923.5377615984
 20
561.0936813985
 10
924.0490370296
 20
561.5356832245
  0
LWPOLYLINE
  5
139
330
1F
100
AcDbEntity
  8
0
  6
Continuous
 62
     7
370
    25
100
AcDbPolyline
 90
       15
 70
   128
 43
0.0
 10
927.4931366153
 20
565.1818250996
 10
927.5656125648
 20
565.2721072026
 10
928.1954054304
 20
566.1482315578
 10
928.7370097739
 20
567.0195299163
 10
929.1850944547
 20
567.9242839269
 10
929.4525358194
 20
568.7277739301
 10
929.5539864098
 20
569.3688238858
 10
929.5367135891
 20
570.0244039682
 10
929.3754377088
 20
570.6830281704
 10
929.0544448183
 20
571.3045028755
 10
928.5813562982
 20
571.8364495282
 10
927.967938462
 20
572.2432151011
 10
927.3386281985
 20
572.4650560087
 10
926.7217748187
 20
572.5405096612
 10
926.2124865373
 20
572.5123455165
  0
ARC
  5
13A
330
1F
100
AcDbEntity
  8
0
  6
Continuous
 62
     7
370
    25
100
AcDbCircle
 10
934.180578704
 20
571.4979627397
 30
0.0
 40
3.002524625164133
100
AcDbArc
 50
96.4126009345
 51
175.0362185139
  0
LWPOLYLINE
  5
13B
330
1F
100
AcDbEntity
  8
0
  6
Continuous
 62
     7
370
    25
100
AcDbPolyline
 90
        9
 70
   128
 43
0.0
 10
935.8235070883
 20
563.8629440463
 10
935.917596375
 20
563.7733184672
 10
936.807836382
 20
563.0171900224
 10
937.7104053871
 20
562.3454764598
 10
938.6274157824
 20
561.769555744
 10
939.5913301843
 20
561.3008438432
 10
940.4730519308
 20
561.023700179
 10
941.1923504924
 20
560.9279119587
 10
941.8014984414
 20
560.9534070514
  0
ARC
  5
13C
330
1F
100
AcDbEntity
  8
0
  6
Continuous
 62
     7
370
    25
100
AcDbCircle
 10
946.4929240112
 20
575.7306509173
 30
0.0
 40
10.99960897836856
100
AcDbArc
 50
217.8659548862
 51
243.2309215882
  0
LINE
  5
13D
330
1F
100
AcDbEntity
  8
0
  6
Continuous
 62
     7
370
    25
100
AcDbLine
 10
943.1652296135
 20
566.1729585722
 30
0.0
 11
941.5257915292
 21
565.9596736949
 31
0.0
  0
LINE
  5
13E
330
1F
100
AcDbEntity
  8
0
  6
Continuous
 62
     7
370
    25
100
AcDbLine
 10
941.8014984415
 20
560.9534070514
 30
0.0
 11
943.8102754472
 21
561.2147415669
 31
0.0
  0
LINE
  5
13F
330
1F
100
AcDbEntity
  8
0
  6
Continuous
 62
     7
370
    25
100
AcDbLine
 10
937.8627882864
 20
575.0043707401
 30
0.0
 11
933.8452342748
 21
574.4817017092
 31
0.0
  0
LINE
  5
140
330
1F
100
AcDbEntity
  8
0
  6
Continuous
 62
     7
370
    25
100
AcDbLine
 10
945.1740066193
 20
566.4342930877
 30
0.0
 11
943.235100118
 21
566.1820484684
 31
0.0
  0
LINE
  5
141
330
1F
100
AcDbEntity
  8
0
  6
Continuous
 62
     7
370
    25
100
AcDbLine
 10
943.8801459518
 20
561.223831463
 30
0.0
 11
945.819052453
 21
561.4760760823
 31
0.0
  0
LWPOLYLINE
  5
142
330
1F
100
AcDbEntity
  8
0
  6
Continuous
 62
     7
370
    25
100
AcDbPolyline
 90
       13
 70
   128
 43
0.0
 10
945.8190524531
 20
561.4760760823
 10
946.5250740311
 20
561.6495503552
 10
947.1718388917
 20
561.9816467563
 10
947.7252225388
 20
562.4649433257
 10
948.1535535337
 20
563.0866042577
 10
948.4032289892
 20
563.739148551
 10
948.506082372
 20
564.3998689576
 10
948.484741984
 20
565.0721437133
 10
948.3425710572
 20
565.7901641681
 10
948.0471613483
 20
566.6250501051
 10
947.5474752195
 20
567.6199174052
 10
946.9214955693
 20
568.6094453624
 10
946.8413421684
 20
568.7174264182
  0
LWPOLYLINE
  5
143
330
1F
100
AcDbEntity
  8
0
  6
Continuous
 62
     7
370
    25
100
AcDbPolyline
 90
        8
 70
   128
 43
0.0
 10
943.4712518839
 20
572.4184039455
 10
942.8564503458
 20
572.9405877692
 10
941.9538813408
 20
573.6123013318
 10
941.0368709454
 20
574.1882220476
 10
940.0729565436
 20
574.6569339484
 10
939.191234797
 20
574.9340776126
 10
938.4719362355
 20
575.0298658329
 10
937.8627882864
 20
575.0043707401
  0
ARC
  5
144
330
1F
100
AcDbEntity
  8
0
  6
Continuous
 62
     7
370
    25
100
AcDbCircle
 10
835.4031664654
 20
584.9851928545
 30
0.0
 40
3.053728963580492
100
AcDbArc
 50
275.6110706786
 51
353.0426565666
  0
LINE
  5
145
330
1F
100
AcDbEntity
  8
0
  6
Continuous
 62
     7
370
    25
100
AcDbLine
 10
838.4344096256
 20
584.6152935612
 30
0.0
 11
838.6232232895
 21
586.0666309245
 31
0.0
  0
ARC
  5
146
330
1F
100
AcDbEntity
  8
0
  6
Continuous
 62
     7
370
    25
100
AcDbCircle
 10
828.683326583
 20
586.8013358854
 30
0.0
 40
10.67625369496544
100
AcDbArc
 50
29.8964858523
 51
41.0157605219
  0
ARC
  5
147
330
1F
100
AcDbEntity
  8
0
  6
Continuous
 62
     7
370
    25
100
AcDbCircle
 10
826.8623395424
 20
589.7068555465
 30
0.0
 40
9.820572440067837
100
AcDbArc
 50
50.6613687451
 51
69.7390376195
  0
ARC
  5
148
330
1F
100
AcDbEntity
  8
0
  6
Continuous
 62
     7
370
    25
100
AcDbCircle
 10
841.6466166088
 20
609.6792476031
 30
0.0
 40
11.08088639856531
100
AcDbArc
 50
222.7179840111
 51
230.2938324999
  0
ARC
  5
149
330
1F
100
AcDbEntity
  8
0
  6
Continuous
 62
     7
370
    25
100
AcDbCircle
 10
837.0393477795
 20
597.5618836734
 30
0.0
 40
3.053728963580872
100
AcDbArc
 50
275.6110706786
 51
353.0426565665
  0
LINE
  5
14A
330
1F
100
AcDbEntity
  8
0
  6
Continuous
 62
     7
370
    25
100
AcDbLine
 10
840.0705909396
 20
597.19198438
 30
0.0
 11
840.5932599705
 21
601.2095383916
 31
0.0
  0
ARC
  5
14B
330
1F
100
AcDbEntity
  8
0
  6
Continuous
 62
     7
370
    25
100
AcDbCircle
 10
832.7894335739
 20
600.9273723669
 30
0.0
 40
7.808925924470419
100
AcDbArc
 50
2.070763972
 51
44.3333268196
  0
ARC
  5
14C
330
1F
100
AcDbEntity
  8
0
  6
Continuous
 62
     7
370
    25
100
AcDbCircle
 10
847.6093354011
 20
659.9388979865
 30
0.0
 40
10.68099472355369
100
AcDbArc
 50
206.4334398444
 51
232.5348324252
  0
LWPOLYLINE
  5
14D
330
1F
100
AcDbEntity
  8
0
  6
Continuous
 62
     7
370
    25
100
AcDbPolyline
 90
        9
 70
   128
 43
0.0
 10
833.087021538
 20
655.4550118219
 10
833.0668193898
 20
654.7496970908
 10
833.1704810608
 20
654.0683836989
 10
833.408834434
 20
653.3094327056
 10
833.8352412821
 20
652.4034515445
 10
834.4442322883
 20
651.4147480331
 10
835.1446044622
 20
650.4691247142
 10
835.917068382
 20
649.5598667952
 10
835.9962004838
 20
649.4769403396
  0
ARC
  5
14E
330
1F
100
AcDbEntity
  8
0
  6
Continuous
 62
     7
370
    25
100
AcDbCircle
 10
843.5840730357
 20
647.8686469487
 30
0.0
 40
3.053728963581139
100
AcDbArc
 50
275.6110706786
 51
353.0426565665
  0
LINE
  5
14F
330
1F
100
AcDbEntity
  8
0
  6
Continuous
 62
     7
370
    25
100
AcDbLine
 10
833.3483560535
 20
657.4637888277
 30
0.0
 11
833.087021538
 21
655.4550118219
 31
0.0
  0
LINE
  5
150
330
1F
100
AcDbEntity
  8
0
  6
Continuous
 62
     7
370
    25
100
AcDbLine
 10
838.0942343007
 20
655.1865773613
 30
0.0
 11
838.3065730588
 21
656.818742994
 31
0.0
  0
LINE
  5
151
330
1F
100
AcDbEntity
  8
0
  6
Continuous
 62
     7
370
    25
100
AcDbLine
 10
846.6153161959
 20
647.4987476553
 30
0.0
 11
847.1379852267
 21
651.5163016669
 31
0.0
  0
LINE
  5
152
330
1F
100
AcDbEntity
  8
0
  6
Continuous
 62
     7
370
    25
100
AcDbLine
 10
833.6096905689
 20
659.4725658335
 30
0.0
 11
833.3574459497
 21
657.5336593323
 31
0.0
  0
LINE
  5
153
330
1F
100
AcDbEntity
  8
0
  6
Continuous
 62
     7
370
    25
100
AcDbLine
 10
838.315662955
 20
656.8886134985
 30
0.0
 11
838.5679075743
 21
658.8275199998
 31
0.0
  0
ARC
  5
154
330
1F
100
AcDbEntity
  8
0
  6
Continuous
 62
     7
370
    25
100
AcDbCircle
 10
839.3341588301
 20
651.2341356422
 30
0.0
 40
7.808925924466507
100
AcDbArc
 50
2.070763972
 51
44.3333268197
  0
LWPOLYLINE
  5
155
330
1F
100
AcDbEntity
  8
0
  6
Continuous
 62
     7
370
    25
100
AcDbPolyline
 90
       13
 70
   128
 43
0.0
 10
841.2685313831
 20
660.1856678516
 10
840.7690287235
 20
660.5570417853
 10
839.840023066
 20
661.1510483622
 10
838.8896282368
 20
661.6433426039
 10
837.8561617479
 20
662.0142165888
 10
837.0792015883
 20
662.1510633005
 10
836.3576869069
 20
662.1451016651
 10
835.6584270409
 20
661.9928627844
 10
835.0036159077
 20
661.6832913185
 10
834.4349053375
 20
661.220811973
 10
833.976617038
 20
660.5995418595
 10
833.7058384504
 20
659.9418530373
 10
833.6096905689
 20
659.4725658335
  0
ARC
  5
156
330
1F
100
AcDbEntity
  8
0
  6
Continuous
 62
     7
370
    25
100
AcDbCircle
 10
838.6755290936
 20
610.1385744922
 30
0.0
 40
3.053728963580405
100
AcDbArc
 50
275.6110706786
 51
353.0426565665
  0
LINE
  5
157
330
1F
100
AcDbEntity
  8
0
  6
Continuous
 62
     7
370
    25
100
AcDbLine
 10
828.4398121113
 20
619.7337163712
 30
0.0
 11
828.2268358286
 21
618.0966503348
 31
0.0
  0
LINE
  5
158
330
1F
100
AcDbEntity
  8
0
  6
Continuous
 62
     7
370
    25
100
AcDbLine
 10
841.7067722537
 20
609.7686751988
 30
0.0
 11
841.7957123823
 21
610.4523234528
 31
0.0
  0
LINE
  5
159
330
1F
100
AcDbEntity
  8
0
  6
Continuous
 62
     7
370
    25
100
AcDbLine
 10
828.7011466267
 20
621.742493377
 30
0.0
 11
828.4489020075
 21
619.8035868758
 31
0.0
  0
ARC
  5
15A
330
1F
100
AcDbEntity
  8
0
  6
Continuous
 62
     7
370
    25
100
AcDbCircle
 10
832.0860643531
 20
621.0239913499
 30
0.0
 40
3.460334258074873
100
AcDbArc
 50
55.977753477
 51
168.0159441372
  0
ARC
  5
15B
330
1F
100
AcDbEntity
  8
0
  6
Continuous
 62
     7
370
    25
100
AcDbCircle
 10
843.4152011451
 20
634.2267077508
 30
0.0
 40
9.607256391331237
100
AcDbArc
 50
205.8963770304
 51
228.9743444917
  0
LWPOLYLINE
  5
15C
330
1F
100
AcDbEntity
  8
0
  6
Continuous
 62
     7
370
    25
100
AcDbPolyline
 90
        9
 70
   128
 43
0.0
 10
829.8146589099
 20
630.3016301843
 10
829.7944567617
 20
629.5963154531
 10
829.8981184327
 20
628.9150020612
 10
830.1364718059
 20
628.1560510679
 10
830.562878654
 20
627.2500699068
 10
831.1718696602
 20
626.2613663954
 10
831.8722418341
 20
625.3157430765
 10
832.6447057539
 20
624.4064851575
 10
832.7238378557
 20
624.3235587019
  0
LINE
  5
15D
330
1F
100
AcDbEntity
  8
0
  6
Continuous
 62
     7
370
    25
100
AcDbLine
 10
830.0759934254
 20
632.3104071901
 30
0.0
 11
829.8146589099
 21
630.3016301843
 31
0.0
  0
LINE
  5
15E
330
1F
100
AcDbEntity
  8
0
  6
Continuous
 62
     7
370
    25
100
AcDbLine
 10
834.8218716726
 20
630.0331957236
 30
0.0
 11
835.0342104307
 21
631.6653613563
 31
0.0
  0
LINE
  5
15F
330
1F
100
AcDbEntity
  8
0
  6
Continuous
 62
     7
370
    25
100
AcDbLine
 10
830.3373279408
 20
634.3191841959
 30
0.0
 11
830.0850833215
 21
632.3802776946
 31
0.0
  0
LINE
  5
160
330
1F
100
AcDbEntity
  8
0
  6
Continuous
 62
     7
370
    25
100
AcDbLine
 10
835.0433003269
 20
631.7352318609
 30
0.0
 11
835.2955449462
 21
633.6741383621
 31
0.0
  0
LWPOLYLINE
  5
161
330
1F
100
AcDbEntity
  8
0
  6
Continuous
 62
     7
370
    25
100
AcDbPolyline
 90
       13
 70
   128
 43
0.0
 10
837.996168755
 20
635.0322862139
 10
837.4966660954
 20
635.4036601476
 10
836.5676604379
 20
635.9976667245
 10
835.6172656087
 20
636.4899609662
 10
834.5837991197
 20
636.8608349512
 10
833.8068389601
 20
636.9976816628
 10
833.0853242788
 20
636.9917200274
 10
832.3860644128
 20
636.8394811467
 10
831.7312532796
 20
636.5299096808
 10
831.1625427094
 20
636.0674303353
 10
830.7042544099
 20
635.4461602218
 10
830.4334758223
 20
634.7884713997
 10
830.3373279408
 20
634.3191841959
  0
ARC
  5
162
330
1F
100
AcDbEntity
  8
0
  6
Continuous
 62
     7
370
    25
100
AcDbCircle
 10
845.973154087
 20
647.3622071676
 30
0.0
 40
10.6809947235502
100
AcDbArc
 50
206.4334398444
 51
232.5348324252
  0
LWPOLYLINE
  5
163
330
1F
100
AcDbEntity
  8
0
  6
Continuous
 62
     7
370
    25
100
AcDbPolyline
 90
        9
 70
   128
 43
0.0
 10
831.450840224
 20
642.8783210031
 10
831.4306380757
 20
642.173006272
 10
831.5342997467
 20
641.4916928801
 10
831.7726531199
 20
640.7327418867
 10
832.1990599681
 20
639.8267607256
 10
832.8080509742
 20
638.8380572143
 10
833.5084231482
 20
637.8924338953
 10
834.280887068
 20
636.9831759764
 10
834.3600191697
 20
636.9002495208
  0
LINE
  5
164
330
1F
100
AcDbEntity
  8
0
  6
Continuous
 62
     7
370
    25
100
AcDbLine
 10
842.2464706683
 20
632.2528590278
 30
0.0
 11
842.4210537593
 21
632.2908682654
 31
0.0
  0
LINE
  5
165
330
1F
100
AcDbEntity
  8
0
  6
Continuous
 62
     7
370
    25
100
AcDbLine
 10
831.7121747394
 20
644.8870980089
 30
0.0
 11
831.450840224
 21
642.8783210031
 31
0.0
  0
LINE
  5
166
330
1F
100
AcDbEntity
  8
0
  6
Continuous
 62
     7
370
    25
100
AcDbLine
 10
836.4580529867
 20
642.6098865425
 30
0.0
 11
836.6703917448
 21
644.2420521751
 31
0.0
  0
LINE
  5
167
330
1F
100
AcDbEntity
  8
0
  6
Continuous
 62
     7
370
    25
100
AcDbLine
 10
844.9791348818
 20
634.9220568365
 30
0.0
 11
845.5018039127
 21
638.9396108481
 31
0.0
  0
LINE
  5
168
330
1F
100
AcDbEntity
  8
0
  6
Continuous
 62
     7
370
    25
100
AcDbLine
 10
831.9735092549
 20
646.8958750147
 30
0.0
 11
831.7212646356
 21
644.9569685135
 31
0.0
  0
LINE
  5
169
330
1F
100
AcDbEntity
  8
0
  6
Continuous
 62
     7
370
    25
100
AcDbLine
 10
836.679481641
 20
644.3119226797
 30
0.0
 11
836.9317262602
 21
646.2508291809
 31
0.0
  0
ARC
  5
16A
330
1F
100
AcDbEntity
  8
0
  6
Continuous
 62
     7
370
    25
100
AcDbCircle
 10
837.6979775161
 20
638.6574448234
 30
0.0
 40
7.808925924459537
100
AcDbArc
 50
2.070763972
 51
44.3333268197
  0
LWPOLYLINE
  5
16B
330
1F
100
AcDbEntity
  8
0
  6
Continuous
 62
     7
370
    25
100
AcDbPolyline
 90
       13
 70
   128
 43
0.0
 10
839.632350069
 20
647.6089770328
 10
839.1328474094
 20
647.9803509664
 10
838.2038417519
 20
648.5743575433
 10
837.2534469228
 20
649.066651785
 10
836.2199804338
 20
649.43752577
 10
835.4430202742
 20
649.5743724816
 10
834.7215055928
 20
649.5684108463
 10
834.0222457268
 20
649.4161719656
 10
833.3674345937
 20
649.1066004996
 10
832.7987240234
 20
648.6441211541
 10
832.340435724
 20
648.0228510406
 10
832.0696571363
 20
647.3651622185
 10
831.9735092548
 20
646.8958750147
  0
ARC
  5
16C
330
1F
100
AcDbEntity
  8
0
  6
Continuous
 62
     7
370
    25
100
AcDbCircle
 10
938.1601631115
 20
562.4873257749
 30
0.0
 40
11.64255545054329
100
AcDbArc
 50
106.9206947196
 51
138.1931889681
  0
LWPOLYLINE
  5
16D
330
1F
100
AcDbEntity
  8
0
  6
Continuous
 62
     7
370
    25
100
AcDbPolyline
 90
       12
 70
   128
 43
0.0
 10
931.0929381317
 20
564.6023977606
 10
931.1007701516
 20
564.6128179814
 10
931.6665461752
 20
565.2953098049
 10
932.3051795879
 20
565.9999748562
 10
932.9836427343
 20
566.6867900195
 10
933.664848192
 20
567.3178066207
 10
934.3082253832
 20
567.8582225211
 10
934.8707522311
 20
568.27893557
 10
935.2604155747
 20
568.5323785237
 10
935.5038924421
 20
568.6658213688
 10
935.589557289
 20
568.7037704416
 10
935.5864610814
 20
568.7029579754
  0
LINE
  5
16E
330
1F
100
AcDbEntity
  8
0
  6
Continuous
 62
     7
370
    25
100
AcDbLine
 10
935.5905692234
 20
568.6902645519
 30
0.0
 11
939.4342231899
 21
569.1903098252
 31
0.0
  0
LINE
  5
16F
330
1F
100
AcDbEntity
  8
0
  6
Continuous
 62
     7
370
    25
100
AcDbLine
 10
938.7891773561
 20
574.1485268306
 30
0.0
 11
934.7716233446
 21
573.6258577997
 31
0.0
  0
LWPOLYLINE
  5
170
330
1F
100
AcDbEntity
  8
0
  6
Continuous
 62
     7
370
    25
100
AcDbPolyline
 90
        3
 70
   128
 43
0.0
 10
935.8982811409
 20
562.5638372965
 10
936.1144524172
 20
562.7298627125
 10
936.6257278484
 20
563.1718645385
  0
LWPOLYLINE
  5
171
330
1F
100
AcDbEntity
  8
0
  6
Continuous
 62
     7
370
    25
100
AcDbPolyline
 90
       15
 70
   128
 43
0.0
 10
940.0698274342
 20
566.8180064137
 10
940.1423033837
 20
566.9082885166
 10
940.7720962492
 20
567.7844128718
 10
941.3137005927
 20
568.6557112303
 10
941.7617852735
 20
569.560465241
 10
942.0292266382
 20
570.3639552442
 10
942.1306772287
 20
571.0050051999
 10
942.1134044079
 20
571.6605852822
 10
941.9521285277
 20
572.3192094844
 10
941.6311356371
 20
572.9406841896
 10
941.158047117
 20
573.4726308423
 10
940.5446292808
 20
573.8793964151
 10
939.9153190174
 20
574.1012373227
 10
939.2984656375
 20
574.1766909752
 10
938.7891773562
 20
574.1485268305
  0
ARC
  5
172
330
1F
100
AcDbEntity
  8
0
  6
Continuous
 62
     7
370
    25
100
AcDbCircle
 10
875.2767090174
 20
554.3064192046
 30
0.0
 40
11.64255545054369
100
AcDbArc
 50
106.9206947196
 51
138.1931889681
  0
LWPOLYLINE
  5
173
330
1F
100
AcDbEntity
  8
0
  6
Continuous
 62
     7
370
    25
100
AcDbPolyline
 90
       12
 70
   128
 43
0.0
 10
868.2094840376
 20
556.4214911903
 10
868.2173160575
 20
556.4319114111
 10
868.783092081
 20
557.1144032346
 10
869.4217254937
 20
557.8190682859
 10
870.1001886402
 20
558.5058834492
 10
870.7813940978
 20
559.1369000504
 10
871.4247712891
 20
559.6773159508
 10
871.987298137
 20
560.0980289997
 10
872.3769614805
 20
560.3514719534
 10
872.620438348
 20
560.4849147985
 10
872.7061031949
 20
560.5228638713
 10
872.7030069872
 20
560.5220514051
  0
LINE
  5
174
330
1F
100
AcDbEntity
  8
0
  6
Continuous
 62
     7
370
    25
100
AcDbLine
 10
872.7071151293
 20
560.5093579816
 30
0.0
 11
876.5507690957
 21
561.0094032549
 31
0.0
  0
LINE
  5
175
330
1F
100
AcDbEntity
  8
0
  6
Continuous
 62
     7
370
    25
100
AcDbLine
 10
875.905723262
 20
565.9676202603
 30
0.0
 11
871.8881692504
 21
565.4449512294
 31
0.0
  0
LWPOLYLINE
  5
176
330
1F
100
AcDbEntity
  8
0
  6
Continuous
 62
     7
370
    25
100
AcDbPolyline
 90
        3
 70
   128
 43
0.0
 10
873.0148270467
 20
554.3829307262
 10
873.2309983231
 20
554.5489561422
 10
873.7422737542
 20
554.9909579682
  0
LWPOLYLINE
  5
177
330
1F
100
AcDbEntity
  8
0
  6
Continuous
 62
     7
370
    25
100
AcDbPolyline
 90
       15
 70
   128
 43
0.0
 10
877.18637334
 20
558.6370998434
 10
877.2588492895
 20
558.7273819463
 10
877.8886421551
 20
559.6035063015
 10
878.4302464986
 20
560.47480466
 10
878.8783311794
 20
561.3795586707
 10
879.1457725441
 20
562.1830486739
 10
879.2472231345
 20
562.8240986296
 10
879.2299503138
 20
563.4796787119
 10
879.0686744335
 20
564.1383029141
 10
878.747681543
 20
564.7597776193
 10
878.2745930228
 20
565.291724272
 10
877.6611751866
 20
565.6984898448
 10
877.0318649232
 20
565.9203307524
 10
876.4150115433
 20
565.995784405
 10
875.905723262
 20
565.9676202602
  0
ARC
  5
178
330
1F
100
AcDbEntity
  8
0
  6
Continuous
 62
     7
370
    25
100
AcDbCircle
 10
887.8533998362
 20
555.9426005187
 30
0.0
 40
11.64255545054454
100
AcDbArc
 50
106.9206947196
 51
138.1931889681
  0
LWPOLYLINE
  5
179
330
1F
100
AcDbEntity
  8
0
  6
Continuous
 62
     7
370
    25
100
AcDbPolyline
 90
       12
 70
   128
 43
0.0
 10
880.7861748564
 20
558.0576725043
 10
880.7940068763
 20
558.0680927252
 10
881.3597828999
 20
558.7505845487
 10
881.9984163126
 20
559.4552496
 10
882.676879459
 20
560.1420647632
 10
883.3580849166
 20
560.7730813644
 10
884.0014621079
 20
561.3134972649
 10
884.5639889558
 20
561.7342103137
 10
884.9536522993
 20
561.9876532675
 10
885.1971291668
 20
562.1210961125
 10
885.2827940137
 20
562.1590451853
 10
885.279697806
 20
562.1582327192
  0
LINE
  5
17A
330
1F
100
AcDbEntity
  8
0
  6
Continuous
 62
     7
370
    25
100
AcDbLine
 10
885.2838059481
 20
562.1455392957
 30
0.0
 11
889.1274599146
 21
562.645584569
 31
0.0
  0
LINE
  5
17B
330
1F
100
AcDbEntity
  8
0
  6
Continuous
 62
     7
370
    25
100
AcDbLine
 10
888.4824140808
 20
567.6038015743
 30
0.0
 11
884.4648600692
 21
567.0811325435
 31
0.0
  0
LWPOLYLINE
  5
17C
330
1F
100
AcDbEntity
  8
0
  6
Continuous
 62
     7
370
    25
100
AcDbPolyline
 90
        3
 70
   128
 43
0.0
 10
885.5915178656
 20
556.0191120403
 10
885.8076891419
 20
556.1851374563
 10
886.3189645731
 20
556.6271392823
  0
LWPOLYLINE
  5
17D
330
1F
100
AcDbEntity
  8
0
  6
Continuous
 62
     7
370
    25
100
AcDbPolyline
 90
       15
 70
   128
 43
0.0
 10
889.7630641588
 20
560.2732811574
 10
889.8355401083
 20
560.3635632604
 10
890.4653329739
 20
561.2396876156
 10
891.0069373174
 20
562.1109859741
 10
891.4550219982
 20
563.0157399847
 10
891.7224633629
 20
563.819229988
 10
891.8239139533
 20
564.4602799436
 10
891.8066411326
 20
565.115860026
 10
891.6453652523
 20
565.7744842282
 10
891.3243723618
 20
566.3959589333
 10
890.8512838417
 20
566.927905586
 10
890.2378660055
 20
567.3346711589
 10
889.608555742
 20
567.5565120665
 10
888.9917023622
 20
567.631965719
 10
888.4824140808
 20
567.6038015743
  0
ARC
  5
17E
330
1F
100
AcDbEntity
  8
0
  6
Continuous
 62
     7
370
    25
100
AcDbCircle
 10
913.0067814739
 20
559.2149631468
 30
0.0
 40
11.64255545054264
100
AcDbArc
 50
106.9206947196
 51
138.1931889681
  0
LWPOLYLINE
  5
17F
330
1F
100
AcDbEntity
  8
0
  6
Continuous
 62
     7
370
    25
100
AcDbPolyline
 90
       12
 70
   128
 43
0.0
 10
905.9395564941
 20
561.3300351325
 10
905.947388514
 20
561.3404553533
 10
906.5131645375
 20
562.0229471768
 10
907.1517979502
 20
562.7276122281
 10
907.8302610967
 20
563.4144273914
 10
908.5114665543
 20
564.0454439926
 10
909.1548437456
 20
564.585859893
 10
909.7173705935
 20
565.0065729418
 10
910.107033937
 20
565.2600158956
 10
910.3505108045
 20
565.3934587406
 10
910.4361756514
 20
565.4314078134
 10
910.4330794437
 20
565.4305953473
  0
LINE
  5
180
330
1F
100
AcDbEntity
  8
0
  6
Continuous
 62
     7
370
    25
100
AcDbLine
 10
910.4371875858
 20
565.4179019238
 30
0.0
 11
914.2808415522
 21
565.9179471971
 31
0.0
  0
LINE
  5
181
330
1F
100
AcDbEntity
  8
0
  6
Continuous
 62
     7
370
    25
100
AcDbLine
 10
913.6357957185
 20
570.8761642025
 30
0.0
 11
909.6182417069
 21
570.3534951716
 31
0.0
  0
LWPOLYLINE
  5
182
330
1F
100
AcDbEntity
  8
0
  6
Continuous
 62
     7
370
    25
100
AcDbPolyline
 90
        3
 70
   128
 43
0.0
 10
910.7448995032
 20
559.2914746684
 10
910.9610707796
 20
559.4575000844
 10
911.4723462107
 20
559.8995019104
  0
LWPOLYLINE
  5
183
330
1F
100
AcDbEntity
  8
0
  6
Continuous
 62
     7
370
    25
100
AcDbPolyline
 90
       15
 70
   128
 43
0.0
 10
914.9164457965
 20
563.5456437856
 10
914.988921746
 20
563.6359258885
 10
915.6187146116
 20
564.5120502437
 10
916.1603189551
 20
565.3833486022
 10
916.6084036359
 20
566.2881026128
 10
916.8758450006
 20
567.0915926161
 10
916.977295591
 20
567.7326425718
 10
916.9600227703
 20
568.3882226541
 10
916.79874689
 20
569.0468468563
 10
916.4777539995
 20
569.6683215614
 10
916.0046654794
 20
570.2002682142
 10
915.3912476431
 20
570.607033787
 10
914.7619373797
 20
570.8288746946
 10
914.1450839998
 20
570.9043283471
 10
913.6357957185
 20
570.8761642024
  0
ARC
  5
184
330
1F
100
AcDbEntity
  8
0
  6
Continuous
 62
     7
370
    25
100
AcDbCircle
 10
829.3173583935
 20
601.1111883554
 30
0.0
 40
5.431310266406315
100
AcDbArc
 50
312.3589064078
 51
336.1907314421
  0
ARC
  5
185
330
1F
100
AcDbEntity
  8
0
  6
Continuous
 62
     7
370
    25
100
AcDbCircle
 10
829.9009733463
 20
600.536635187
 30
0.0
 40
9.622596846111234
100
AcDbArc
 50
313.4167335811
 51
345.4449126292
  0
LINE
  5
186
330
1F
100
AcDbEntity
  8
0
  6
Continuous
 62
     7
370
    25
100
AcDbLine
 10
839.21474703
 20
598.1183734497
 30
0.0
 11
839.7374160609
 21
602.1359274613
 31
0.0
  0
LINE
  5
187
330
1F
100
AcDbEntity
  8
0
  6
Continuous
 62
     7
370
    25
100
AcDbLine
 10
834.7791990555
 20
602.7809732951
 30
0.0
 11
834.2775351062
 21
598.9248771939
 31
0.0
  0
ARC
  5
188
330
1F
100
AcDbEntity
  8
0
  6
Continuous
 62
     7
370
    25
100
AcDbCircle
 10
836.907561657
 20
602.6067197889
 30
0.0
 40
2.868749093833115
100
AcDbArc
 50
350.5544247806
 51
91.8002024411
  0
ARC
  5
189
330
1F
100
AcDbEntity
  8
0
  6
Continuous
 62
     7
370
    25
100
AcDbCircle
 10
858.720433791
 20
561.6808748553
 30
0.0
 40
3.002524625164512
100
AcDbArc
 50
96.4126009345
 51
175.0362185139
  0
LWPOLYLINE
  5
18A
330
1F
100
AcDbEntity
  8
0
  6
Continuous
 62
     7
370
    25
100
AcDbPolyline
 90
        9
 70
   128
 43
0.0
 10
860.3633621753
 20
554.0458561619
 10
860.457451462
 20
553.9562305828
 10
861.347691469
 20
553.2001021381
 10
862.2502604741
 20
552.5283885755
 10
863.1672708694
 20
551.9524678596
 10
864.1311852713
 20
551.4837559588
 10
865.0129070178
 20
551.2066122947
 10
865.7322055794
 20
551.1108240744
 10
866.3413535284
 20
551.1363191671
  0
ARC
  5
18B
330
1F
100
AcDbEntity
  8
0
  6
Continuous
 62
     7
370
    25
100
AcDbCircle
 10
871.0327790982
 20
565.913563033
 30
0.0
 40
10.99960897837166
100
AcDbArc
 50
217.8659548862
 51
243.2309215881
  0
LINE
  5
18C
330
1F
100
AcDbEntity
  8
0
  6
Continuous
 62
     7
370
    25
100
AcDbLine
 10
867.7050847005
 20
556.3558706879
 30
0.0
 11
866.0656466162
 21
556.1425858105
 31
0.0
  0
LINE
  5
18D
330
1F
100
AcDbEntity
  8
0
  6
Continuous
 62
     7
370
    25
100
AcDbLine
 10
866.3413535284
 20
551.1363191671
 30
0.0
 11
868.3501305342
 21
551.3976536825
 31
0.0
  0
LINE
  5
18E
330
1F
100
AcDbEntity
  8
0
  6
Continuous
 62
     7
370
    25
100
AcDbLine
 10
862.4026433734
 20
565.1872828558
 30
0.0
 11
858.3850893618
 21
564.6646138249
 31
0.0
  0
LINE
  5
18F
330
1F
100
AcDbEntity
  8
0
  6
Continuous
 62
     7
370
    25
100
AcDbLine
 10
869.7138617063
 20
556.6172052033
 30
0.0
 11
867.774955205
 21
556.3649605841
 31
0.0
  0
LINE
  5
190
330
1F
100
AcDbEntity
  8
0
  6
Continuous
 62
     7
370
    25
100
AcDbLine
 10
868.4200010388
 20
551.4067435787
 30
0.0
 11
870.35890754
 21
551.6589881979
 31
0.0
  0
LWPOLYLINE
  5
191
330
1F
100
AcDbEntity
  8
0
  6
Continuous
 62
     7
370
    25
100
AcDbPolyline
 90
       13
 70
   128
 43
0.0
 10
870.3589075401
 20
551.658988198
 10
871.0649291181
 20
551.8324624708
 10
871.7116939787
 20
552.1645588719
 10
872.2650776258
 20
552.6478554413
 10
872.6934086207
 20
553.2695163733
 10
872.9430840762
 20
553.9220606667
 10
873.045937459
 20
554.5827810733
 10
873.024597071
 20
555.255055829
 10
872.8824261442
 20
555.9730762837
 10
872.5870164353
 20
556.8079622208
 10
872.0873303065
 20
557.8028295209
 10
871.4613506563
 20
558.7923574781
 10
871.0722380366
 20
559.3165622035
  0
ARC
  5
192
330
1F
100
AcDbEntity
  8
0
  6
Continuous
 62
     7
370
    25
100
AcDbCircle
 10
862.3491147963
 20
557.9155054356
 30
0.0
 40
7.271974433193893
100
AcDbArc
 50
44.0195218529
 51
89.5782453202
  0
ARC
  5
193
330
1F
100
AcDbEntity
  8
0
  6
Continuous
 62
     7
370
    25
100
AcDbCircle
 10
883.8738154286
 20
564.9532374835
 30
0.0
 40
3.002524625163916
100
AcDbArc
 50
96.4126009345
 51
175.0362185139
  0
LWPOLYLINE
  5
194
330
1F
100
AcDbEntity
  8
0
  6
Continuous
 62
     7
370
    25
100
AcDbPolyline
 90
        9
 70
   128
 43
0.0
 10
885.516743813
 20
557.31821879
 10
885.6108330996
 20
557.228593211
 10
886.5010731067
 20
556.4724647662
 10
887.4036421117
 20
555.8007512036
 10
888.3206525071
 20
555.2248304877
 10
889.2845669089
 20
554.7561185869
 10
890.1662886555
 20
554.4789749228
 10
890.885587217
 20
554.3831867025
 10
891.4947351661
 20
554.4086817952
  0
ARC
  5
195
330
1F
100
AcDbEntity
  8
0
  6
Continuous
 62
     7
370
    25
100
AcDbCircle
 10
896.1861607358
 20
569.1859256611
 30
0.0
 40
10.99960897836957
100
AcDbArc
 50
217.8659548862
 51
243.2309215882
  0
LINE
  5
196
330
1F
100
AcDbEntity
  8
0
  6
Continuous
 62
     7
370
    25
100
AcDbLine
 10
892.8584663381
 20
559.628233316
 30
0.0
 11
891.2190282538
 21
559.4149484386
 31
0.0
  0
LINE
  5
197
330
1F
100
AcDbEntity
  8
0
  6
Continuous
 62
     7
370
    25
100
AcDbLine
 10
891.4947351661
 20
554.4086817952
 30
0.0
 11
893.5035121719
 21
554.6700163106
 31
0.0
  0
LINE
  5
198
330
1F
100
AcDbEntity
  8
0
  6
Continuous
 62
     7
370
    25
100
AcDbLine
 10
887.5560250111
 20
568.4596454839
 30
0.0
 11
883.5384709995
 21
567.936976453
 31
0.0
  0
LINE
  5
199
330
1F
100
AcDbEntity
  8
0
  6
Continuous
 62
     7
370
    25
100
AcDbLine
 10
894.8672433439
 20
559.8895678314
 30
0.0
 11
892.9283368427
 21
559.6373232122
 31
0.0
  0
LINE
  5
19A
330
1F
100
AcDbEntity
  8
0
  6
Continuous
 62
     7
370
    25
100
AcDbLine
 10
893.5733826764
 20
554.6791062068
 30
0.0
 11
895.5122891777
 21
554.9313508261
 31
0.0
  0
LWPOLYLINE
  5
19B
330
1F
100
AcDbEntity
  8
0
  6
Continuous
 62
     7
370
    25
100
AcDbPolyline
 90
       13
 70
   128
 43
0.0
 10
895.5122891777
 20
554.9313508261
 10
896.2183107558
 20
555.1048250989
 10
896.8650756163
 20
555.4369215
 10
897.4184592635
 20
555.9202180694
 10
897.8467902584
 20
556.5418790014
 10
898.0964657139
 20
557.1944232948
 10
898.1993190967
 20
557.8551437014
 10
898.1779787086
 20
558.5274184571
 10
898.0358077818
 20
559.2454389119
 10
897.740398073
 20
560.0803248489
 10
897.2407119441
 20
561.075192149
 10
896.614732294
 20
562.0647201062
 10
896.2256196743
 20
562.5889248316
  0
ARC
  5
19C
330
1F
100
AcDbEntity
  8
0
  6
Continuous
 62
     7
370
    25
100
AcDbCircle
 10
887.502496434
 20
561.1878680637
 30
0.0
 40
7.271974433192664
100
AcDbArc
 50
44.0195218529
 51
89.5782453202
  0
ARC
  5
19D
330
1F
100
AcDbEntity
  8
0
  6
Continuous
 62
     7
370
    25
100
AcDbCircle
 10
826.7858817752
 20
588.994307477
 30
0.0
 40
11.40269653677908
100
AcDbArc
 50
314.6146726716
 51
338.7072280827
  0
ARC
  5
19E
330
1F
100
AcDbEntity
  8
0
  6
Continuous
 62
     7
370
    25
100
AcDbCircle
 10
827.1618808489
 20
616.2579475032
 30
0.0
 40
14.97108385037386
100
AcDbArc
 50
313.5608482442
 51
330.1189995573
  0
LINE
  5
19F
330
1F
100
AcDbEntity
  8
0
  6
Continuous
 62
     7
370
    25
100
AcDbLine
 10
838.0515616837
 20
627.9343549327
 30
0.0
 11
838.0496206793
 21
627.9194351854
 31
0.0
  0
ARC
  5
1A0
330
1F
100
AcDbEntity
  8
0
  6
Continuous
 62
     7
370
    25
100
AcDbCircle
 10
840.5449594814
 20
623.656485228
 30
0.0
 40
6.91590876548167
100
AcDbArc
 50
88.7086189611
 51
134.7108729725
  0
LWPOLYLINE
  5
1A1
330
1F
100
AcDbEntity
  8
0
  6
Continuous
 62
     7
370
    25
100
AcDbPolyline
 90
        3
 70
   128
 43
0.0
 10
832.0328670244
 20
625.1266731115
 10
831.5661441657
 20
624.5840310609
 10
831.4338108403
 20
624.4116911857
  0
ARC
  5
1A2
330
1F
100
AcDbEntity
  8
0
  6
Continuous
 62
     7
370
    25
100
AcDbCircle
 10
825.6932441087
 20
573.1611495621
 30
0.0
 40
12.39604697796558
100
AcDbArc
 50
28.8913051248
 51
40.6178784479
  0
ARC
  5
1A3
330
1F
100
AcDbEntity
  8
0
  6
Continuous
 62
     7
370
    25
100
AcDbCircle
 10
826.6011078609
 20
644.0605329775
 30
0.0
 40
14.61304756812211
100
AcDbArc
 50
305.5643268468
 51
329.5219606441
  0
ARC
  5
1A4
330
1F
100
AcDbEntity
  8
0
  6
Continuous
 62
     7
370
    25
100
AcDbCircle
 10
835.0007936563
 20
638.1855729079
 30
0.0
 40
9.41711844994932
100
AcDbArc
 50
313.8142452646
 51
345.6302444484
  0
LINE
  5
1A5
330
1F
100
AcDbEntity
  8
0
  6
Continuous
 62
     7
370
    25
100
AcDbLine
 10
844.1232909722
 20
635.8484459062
 30
0.0
 11
844.6459600031
 21
639.8659999178
 31
0.0
  0
LINE
  5
1A6
330
1F
100
AcDbEntity
  8
0
  6
Continuous
 62
     7
370
    25
100
AcDbLine
 10
839.6877429977
 20
640.5110457516
 30
0.0
 11
839.1860790484
 21
636.6549496504
 31
0.0
  0
LWPOLYLINE
  5
1A7
330
1F
100
AcDbEntity
  8
0
  6
Continuous
 62
     7
370
    25
100
AcDbPolyline
 90
       15
 70
   128
 43
0.0
 10
844.6459600031
 20
639.8659999178
 10
844.660998402
 20
640.6027179578
 10
844.5219763521
 20
641.2663495726
 10
844.2212781485
 20
641.8988309639
 10
843.765535293
 20
642.4461489837
 10
843.1687310823
 20
642.8710369424
 10
842.549863509
 20
643.1135225008
 10
841.9375924829
 20
643.2107617627
 10
841.3375730843
 20
643.1919442659
 10
840.726861164
 20
643.071396529
 10
840.0360486967
 20
642.8294480371
 10
839.1430416376
 20
642.3848019751
 10
838.2907352958
 20
641.854899515
 10
837.366179191
 20
641.188915039
 10
837.3155944204
 20
641.1480771165
  0
LWPOLYLINE
  5
1A8
330
1F
100
AcDbEntity
  8
0
  6
Continuous
 62
     7
370
    25
100
AcDbPolyline
 90
        3
 70
   128
 43
0.0
 10
833.6690483385
 20
637.7033639304
 10
833.2023254798
 20
637.1607218797
 10
833.0699921543
 20
636.9883820045
  0
ARC
  5
1A9
330
1F
100
AcDbEntity
  8
0
  6
Continuous
 62
     7
370
    25
100
AcDbCircle
 10
828.237289175
 20
656.6372237963
 30
0.0
 40
14.6130475681268
100
AcDbArc
 50
305.5643268468
 51
329.5219606441
  0
ARC
  5
1AA
330
1F
100
AcDbEntity
  8
0
  6
Continuous
 62
     7
370
    25
100
AcDbCircle
 10
835.6765735944
 20
651.1390419711
 30
0.0
 40
10.44174926509326
100
AcDbArc
 50
309.9925893087
 51
344.9353337873
  0
LINE
  5
1AB
330
1F
100
AcDbEntity
  8
0
  6
Continuous
 62
     7
370
    25
100
AcDbLine
 10
845.7594722863
 20
648.4251367251
 30
0.0
 11
846.2821413172
 21
652.4426907367
 31
0.0
  0
LINE
  5
1AC
330
1F
100
AcDbEntity
  8
0
  6
Continuous
 62
     7
370
    25
100
AcDbLine
 10
841.3239243118
 20
653.0877365704
 30
0.0
 11
840.8222603624
 21
649.2316404693
 31
0.0
  0
LWPOLYLINE
  5
1AD
330
1F
100
AcDbEntity
  8
0
  6
Continuous
 62
     7
370
    25
100
AcDbPolyline
 90
       15
 70
   128
 43
0.0
 10
846.2821413172
 20
652.4426907366
 10
846.2971797161
 20
653.1794087766
 10
846.1581576662
 20
653.8430403915
 10
845.8574594626
 20
654.4755217827
 10
845.4017166071
 20
655.0228398026
 10
844.8049123964
 20
655.4477277613
 10
844.1860448231
 20
655.6902133197
 10
843.5737737969
 20
655.7874525815
 10
842.9737543984
 20
655.7686350847
 10
842.363042478
 20
655.6480873478
 10
841.6722300108
 20
655.4061388559
 10
840.7792229516
 20
654.961492794
 10
839.9269166098
 20
654.4315903338
 10
839.002360505
 20
653.7656058578
 10
838.9517757345
 20
653.7247679354
  0
LWPOLYLINE
  5
1AE
330
1F
100
AcDbEntity
  8
0
  6
Continuous
 62
     7
370
    25
100
AcDbPolyline
 90
        3
 70
   128
 43
0.0
 10
835.3052296525
 20
650.2800547492
 10
834.8385067938
 20
649.7374126986
 10
834.7061734684
 20
649.5650728233
  0
LINE
  5
1AF
330
1F
100
AcDbEntity
  8
0
  6
Continuous
 62
     7
370
    25
100
AcDbLine
 10
782.386553939
 20
463.3619241424
 30
0.0
 11
782.5078742826
 21
463.483244486
 31
0.0
  0
ARC
  5
1B0
330
1F
100
AcDbEntity
  8
0
  6
Continuous
 62
     7
370
    25
100
AcDbCircle
 10
840.8087550398
 20
579.9083026567
 30
0.0
 40
0.9000000000001228
100
AcDbArc
 50
82.0598552864
 51
135.0
  0
ARC
  5
1B1
330
1F
100
AcDbEntity
  8
0
  6
Continuous
 62
     7
370
    25
100
AcDbCircle
 10
853.6780984574
 20
567.0389592391
 30
0.0
 40
0.9000000000000102
100
AcDbArc
 50
315.0
 51
7.9401447136
  0
LINE
  5
1B2
330
1F
100
AcDbEntity
  8
0
  6
Continuous
 62
     7
370
    25
100
AcDbLine
 10
840.1723589367
 20
580.5446987598
 30
0.0
 11
837.6622032151
 21
578.0345430382
 31
0.0
  0
LINE
  5
1B3
330
1F
100
AcDbEntity
  8
0
  6
Continuous
 62
     7
370
    25
100
AcDbLine
 10
851.8043388389
 20
563.8924074145
 30
0.0
 11
854.3144945604
 21
566.402563136
 31
0.0
  0
ARC
  5
1B4
330
1F
100
AcDbEntity
  8
0
  6
Continuous
 62
     7
370
    25
100
AcDbCircle
 10
838.7228633869
 20
564.9530675862
 30
0.0
 40
15.99999999999999
100
AcDbArc
 50
55.1817532578
 51
82.0598552864
  0
ARC
  5
1B5
330
1F
100
AcDbEntity
  8
0
  6
Continuous
 62
     7
370
    25
100
AcDbCircle
 10
838.7228633869
 20
564.9530675862
 30
0.0
 40
15.99999999999994
100
AcDbArc
 50
7.9401447136
 51
34.8182467422
  0
LINE
  5
1B6
330
1F
100
AcDbEntity
  8
0
  6
Continuous
 62
     7
370
    25
100
AcDbLine
 10
769.184210699
 20
533.5981810824
 30
0.0
 11
775.5481717297
 21
527.2342200517
 31
0.0
  0
LINE
  5
1B7
330
1F
100
AcDbEntity
  8
0
  6
Continuous
 62
     7
370
    25
100
AcDbLine
 10
839.1877820365
 20
590.8738303585
 30
0.0
 11
832.8238210058
 21
597.2377913892
 31
0.0
  0
ARC
  5
1B8
330
1F
100
AcDbEntity
  8
0
  6
Continuous
 62
     7
370
    25
100
AcDbCircle
 10
837.0664616929
 20
588.752510015
 30
0.0
 40
3.000000000000105
100
AcDbArc
 50
315.0
 51
45.0
  0
ARC
  5
1B9
330
1F
100
AcDbEntity
  8
0
  6
Continuous
 62
     7
370
    25
100
AcDbCircle
 10
777.6694920732
 20
529.3555403953
 30
0.0
 40
3.000000000000024
100
AcDbArc
 50
225.0
 51
315.0
  0
ARC
  5
1BA
330
1F
100
AcDbEntity
  8
0
  6
Continuous
 62
     7
370
    25
100
AcDbCircle
 10
830.7025006622
 20
595.1164710457
 30
0.0
 40
3.000000000000105
100
AcDbArc
 50
45.0
 51
135.0
  0
ARC
  5
1BB
330
1F
100
AcDbEntity
  8
0
  6
Continuous
 62
     7
370
    25
100
AcDbCircle
 10
771.3055310426
 20
535.719501426
 30
0.0
 40
3.000000000000185
100
AcDbArc
 50
135.0
 51
225.0
  0
LINE
  5
1BC
330
1F
100
AcDbEntity
  8
0
  6
Continuous
 62
     7
370
    25
100
AcDbLine
 10
807.3679768831
 20
434.3805011984
 30
0.0
 11
801.0040158524
 21
428.0165401677
 31
0.0
  0
LINE
  5
1BD
330
1F
100
AcDbEntity
  8
0
  6
Continuous
 62
     7
370
    25
100
AcDbLine
 10
864.6436261592
 20
364.3769298609
 30
0.0
 11
871.0075871899
 21
370.7408908916
 31
0.0
  0
ARC
  5
1BE
330
1F
100
AcDbEntity
  8
0
  6
Continuous
 62
     7
370
    25
100
AcDbCircle
 10
862.5223058156
 20
366.4982502044
 30
0.0
 40
2.999999999999984
100
AcDbArc
 50
225.0
 51
315.0
  0
ARC
  5
1BF
330
1F
100
AcDbEntity
  8
0
  6
Continuous
 62
     7
370
    25
100
AcDbCircle
 10
803.125336196
 20
425.8952198241
 30
0.0
 40
3.000000000000145
100
AcDbArc
 50
135.0
 51
225.0
  0
ARC
  5
1C0
330
1F
100
AcDbEntity
  8
0
  6
Continuous
 62
     7
370
    25
100
AcDbCircle
 10
868.8862668463
 20
372.8622112351
 30
0.0
 40
3.000000000000024
100
AcDbArc
 50
315.0
 51
45.0
  0
ARC
  5
1C1
330
1F
100
AcDbEntity
  8
0
  6
Continuous
 62
     7
370
    25
100
AcDbCircle
 10
809.4892972266
 20
432.2591808548
 30
0.0
 40
2.999999999999984
100
AcDbArc
 50
45.0
 51
135.0
  0
ARC
  5
1C2
330
1F
100
AcDbEntity
  8
0
  6
Continuous
 62
     7
370
    25
100
AcDbCircle
 10
614.8122018824
 20
563.2966658922
 30
0.0
 40
3.000000000000105
100
AcDbArc
 50
45.0
 51
135.0
  0
ARC
  5
1C3
330
1F
100
AcDbEntity
  8
0
  6
Continuous
 62
     7
370
    25
100
AcDbCircle
 10
674.2091715021
 20
503.8996962726
 30
0.0
 40
3.000000000000024
100
AcDbArc
 50
315.0
 51
45.0
  0
LINE
  5
1C4
330
1F
100
AcDbEntity
  8
0
  6
Continuous
 62
     7
370
    25
100
AcDbLine
 10
669.9665308149
 20
495.4144148983
 30
0.0
 11
676.3304918456
 21
501.778375929
 31
0.0
  0
LINE
  5
1C5
330
1F
100
AcDbEntity
  8
0
  6
Continuous
 62
     7
370
    25
100
AcDbLine
 10
612.6908815388
 20
565.4179862358
 30
0.0
 11
606.3269205081
 21
559.0540252051
 31
0.0
  0
ARC
  5
1C6
330
1F
100
AcDbEntity
  8
0
  6
Continuous
 62
     7
370
    25
100
AcDbCircle
 10
608.4482408517
 20
556.9327048616
 30
0.0
 40
3.000000000000024
100
AcDbArc
 50
135.0
 51
225.0
  0
ARC
  5
1C7
330
1F
100
AcDbEntity
  8
0
  6
Continuous
 62
     7
370
    25
100
AcDbCircle
 10
667.8452104714
 20
497.5357352419
 30
0.0
 40
3.000000000000064
100
AcDbArc
 50
225.0
 51
315.0
  0
ARC
  5
1C8
330
1F
100
AcDbEntity
  8
0
  6
Continuous
 62
     7
370
    25
100
AcDbCircle
 10
640.2680460051
 20
341.0424060817
 30
0.0
 40
2.999999999999984
100
AcDbArc
 50
135.0
 51
225.0
  0
ARC
  5
1C9
330
1F
100
AcDbEntity
  8
0
  6
Continuous
 62
     7
370
    25
100
AcDbCircle
 10
699.6650156248
 20
400.4393757014
 30
0.0
 40
3.000000000000105
100
AcDbArc
 50
45.0
 51
135.0
  0
LINE
  5
1CA
330
1F
100
AcDbEntity
  8
0
  6
Continuous
 62
     7
370
    25
100
AcDbLine
 10
708.150296999
 20
396.1967350143
 30
0.0
 11
701.7863359683
 21
402.5606960449
 31
0.0
  0
LINE
  5
1CB
330
1F
100
AcDbEntity
  8
0
  6
Continuous
 62
     7
370
    25
100
AcDbLine
 10
638.1467256615
 20
338.9210857382
 30
0.0
 11
644.5106866922
 21
332.5571247075
 31
0.0
  0
ARC
  5
1CC
330
1F
100
AcDbEntity
  8
0
  6
Continuous
 62
     7
370
    25
100
AcDbCircle
 10
646.6320070358
 20
334.678445051
 30
0.0
 40
3.000000000000145
100
AcDbArc
 50
225.0
 51
315.0
  0
ARC
  5
1CD
330
1F
100
AcDbEntity
  8
0
  6
Continuous
 62
     7
370
    25
100
AcDbCircle
 10
706.0289766555
 20
394.0754146707
 30
0.0
 40
3.000000000000064
100
AcDbArc
 50
315.0
 51
45.0
  0
ARC
  5
1CE
330
1F
100
AcDbEntity
  8
0
  6
Continuous
 62
     7
370
    25
100
AcDbCircle
 10
1090.804549215
 20
172.157132302
 30
0.0
 40
3.000000000000145
100
AcDbArc
 50
315.0
 51
45.0
  0
LINE
  5
1CF
330
1F
100
AcDbEntity
  8
0
  6
Continuous
 62
     7
370
    25
100
AcDbLine
 10
1086.5619085279
 20
163.6718509278
 30
0.0
 11
1092.9258695586
 21
170.0358119584
 31
0.0
  0
ARC
  5
1D0
330
1F
100
AcDbEntity
  8
0
  6
Continuous
 62
     7
370
    25
100
AcDbCircle
 10
1084.4405881844
 20
165.7931712713
 30
0.0
 40
3.000000000000105
100
AcDbArc
 50
225.0
 51
315.0
  0
ARC
  5
1D1
330
1F
100
AcDbEntity
  8
0
  6
Continuous
 62
     7
370
    25
100
AcDbCircle
 10
1031.4075795954
 20
817.0347534144
 30
0.0
 40
3.000000000000024
100
AcDbArc
 50
45.0
 51
135.0
  0
LINE
  5
1D2
330
1F
100
AcDbEntity
  8
0
  6
Continuous
 62
     7
370
    25
100
AcDbLine
 10
1039.8928609696
 20
812.7921127272
 30
0.0
 11
1033.5288999389
 21
819.1560737579
 31
0.0
  0
ARC
  5
1D3
330
1F
100
AcDbEntity
  8
0
  6
Continuous
 62
     7
370
    25
100
AcDbCircle
 10
1037.771540626
 20
810.6707923837
 30
0.0
 40
3.000000000000105
100
AcDbArc
 50
315.0
 51
45.0
  0
ARC
  5
1D4
330
1F
100
AcDbEntity
  8
0
  6
Continuous
 62
     7
370
    25
100
AcDbCircle
 10
386.529958483
 20
757.6377837947
 30
0.0
 40
3.000000000000064
100
AcDbArc
 50
135.0
 51
225.0
  0
LINE
  5
1D5
330
1F
100
AcDbEntity
  8
0
  6
Continuous
 62
     7
370
    25
100
AcDbLine
 10
390.7725991701
 20
766.1230651689
 30
0.0
 11
384.4086381394
 21
759.7591041383
 31
0.0
  0
ARC
  5
1D6
330
1F
100
AcDbEntity
  8
0
  6
Continuous
 62
     7
370
    25
100
AcDbCircle
 10
392.8939195137
 20
764.0017448254
 30
0.0
 40
3.000000000000145
100
AcDbArc
 50
45.0
 51
135.0
  0
LINE
  5
1D7
330
1F
100
AcDbEntity
  8
0
  6
Continuous
 62
     7
370
    25
100
AcDbLine
 10
437.4416467284
 20
117.0028033694
 30
0.0
 11
443.8056077591
 21
110.6388423388
 31
0.0
  0
ARC
  5
1D8
330
1F
100
AcDbEntity
  8
0
  6
Continuous
 62
     7
370
    25
100
AcDbCircle
 10
445.9269281027
 20
112.7601626823
 30
0.0
 40
2.999999999999984
100
AcDbArc
 50
225.0
 51
315.0
  0
ARC
  5
1D9
330
1F
100
AcDbEntity
  8
0
  6
Continuous
 62
     7
370
    25
100
AcDbCircle
 10
439.562967072
 20
119.124123713
 30
0.0
 40
2.999999999999954
100
AcDbArc
 50
135.0
 51
225.0
  0
LINE
  5
1DA
330
1F
100
AcDbEntity
  8
0
  6
Continuous
 62
     7
370
    25
100
AcDbLine
 10
32.3372430088
 20
462.821513209
 30
0.0
 11
31.6176934815
 21
459.9090832136
 31
0.0
  0
ARC
  5
1DB
330
1F
100
AcDbEntity
  8
0
  6
Continuous
 62
     7
370
    25
100
AcDbCircle
 10
45.3886021275
 20
515.6478557108
 30
0.0
 40
57.41470791029935
100
AcDbArc
 50
143.0866957935
 51
256.1223218852
  0
ARC
  5
1DC
330
1F
100
AcDbEntity
  8
0
  6
Continuous
 62
     7
370
    25
100
AcDbCircle
 10
554.1417640261
 20
558.0549595649
 30
0.0
 40
10.00000000000012
100
AcDbArc
 50
333.0
 51
63.0
  0
LINE
  5
1DD
330
1F
100
AcDbEntity
  8
0
  6
Continuous
 62
     7
370
    25
100
AcDbLine
 10
558.6816690235
 20
566.9650248067
 30
0.0
 11
419.6846512501
 21
637.7875427661
 31
0.0
  0
ARC
  5
1DE
330
1F
100
AcDbEntity
  8
0
  6
Continuous
 62
     7
370
    25
100
AcDbCircle
 10
415.1447462527
 20
628.8774775242
 30
0.0
 40
9.999999999999943
100
AcDbArc
 50
63.0
 51
153.0
  0
LINE
  5
1DF
330
1F
100
AcDbEntity
  8
0
  6
Continuous
 62
     7
370
    25
100
AcDbLine
 10
406.2346810108
 20
633.4173825216
 30
0.0
 11
341.7680300478
 21
506.8944560869
 31
0.0
  0
ARC
  5
1E0
330
1F
100
AcDbEntity
  8
0
  6
Continuous
 62
     7
370
    25
100
AcDbCircle
 10
350.6780952897
 20
502.3545510895
 30
0.0
 40
10.00000000000002
100
AcDbArc
 50
153.0
 51
243.0
  0
LINE
  5
1E1
330
1F
100
AcDbEntity
  8
0
  6
Continuous
 62
     7
370
    25
100
AcDbLine
 10
346.1381902923
 20
493.4444858476
 30
0.0
 11
485.1352080657
 21
422.6219678882
 31
0.0
  0
ARC
  5
1E2
330
1F
100
AcDbEntity
  8
0
  6
Continuous
 62
     7
370
    25
100
AcDbCircle
 10
489.6751130631
 20
431.5320331301
 30
0.0
 40
10.00000000000012
100
AcDbArc
 50
243.0
 51
333.0
  0
LINE
  5
1E3
330
1F
100
AcDbEntity
  8
0
  6
Continuous
 62
     7
370
    25
100
AcDbLine
 10
498.5851783049
 20
426.9921281327
 30
0.0
 11
563.051829268
 21
553.5150545675
 31
0.0
  0
ARC
  5
1E4
330
1F
100
AcDbEntity
  8
0
  6
Continuous
 62
     7
370
    25
100
AcDbCircle
 10
-1.0238071914
 20
327.7901920979
 30
0.0
 40
139.0913992720468
100
AcDbArc
 50
7.2110545346
 51
76.1223218852
  0
LINE
  5
1E5
330
1F
100
AcDbEntity
  8
0
  6
Continuous
 62
     7
370
    25
100
AcDbLine
 10
133.9911773353
 20
344.8730170714
 30
0.0
 11
136.9674488392
 21
345.2495910151
 31
0.0
  0
ARC
  5
1E6
330
1F
100
AcDbEntity
  8
0
  6
Continuous
 62
     7
370
    25
100
AcDbCircle
 10
-1.0238071914
 20
327.7901920979
 30
0.0
 40
136.0913992720468
100
AcDbArc
 50
7.2110545346
 51
76.1223218852
  0
ARC
  5
1E7
330
1F
100
AcDbEntity
  8
0
  6
Continuous
 62
     7
370
    25
100
AcDbCircle
 10
165.7502052658
 20
348.8913407958
 30
0.0
 40
32.0122286110855
100
AcDbArc
 50
187.2110545346
 51
310.7927647307
  0
ARC
  5
1E8
330
1F
100
AcDbEntity
  8
0
  6
Continuous
 62
     7
370
    25
100
AcDbCircle
 10
770.8241088072
 20
774.5286101151
 30
0.0
 40
591.2231434082096
100
AcDbArc
 50
229.2072352693
 51
232.7153334138
  0
LINE
  5
1E9
330
1F
100
AcDbEntity
  8
0
  6
Continuous
 62
     7
370
    25
100
AcDbLine
 10
410.8582899074
 20
301.7435073614
 30
0.0
 11
412.6756163928
 21
304.1304142398
 31
0.0
  0
ARC
  5
1EA
330
1F
100
AcDbEntity
  8
0
  6
Continuous
 62
     7
370
    25
100
AcDbCircle
 10
770.8241088072
 20
774.5286101151
 30
0.0
 40
594.2231434082096
100
AcDbArc
 50
229.2072352693
 51
232.7153334138
  0
LINE
  5
1EB
330
1F
100
AcDbEntity
  8
0
  6
Continuous
 62
     7
370
    25
100
AcDbLine
 10
384.5632450949
 20
326.926833459
 30
0.0
 11
382.6032700769
 21
324.6556007697
 31
0.0
  0
ARC
  5
1EC
330
1F
100
AcDbEntity
  8
0
  6
Continuous
 62
     7
370
    25
100
AcDbCircle
 10
284.633932396
 20
211.128050548
 30
0.0
 40
152.9549791936789
100
AcDbArc
 50
49.2072352693
 51
130.7927647307
  0
ARC
  5
1ED
330
1F
100
AcDbEntity
  8
0
  6
Continuous
 62
     7
370
    25
100
AcDbCircle
 10
284.633932396
 20
211.128050548
 30
0.0
 40
149.9549791936789
100
AcDbArc
 50
49.2072352693
 51
130.7927647307
  0
LINE
  5
1EE
330
1F
100
AcDbEntity
  8
0
  6
Continuous
 62
     7
370
    25
100
AcDbLine
 10
184.7046196971
 20
326.926833459
 30
0.0
 11
186.6645947151
 21
324.6556007697
 31
0.0
  0
ARC
  5
1EF
330
1F
100
AcDbEntity
  8
0
  6
Continuous
 62
     7
370
    25
100
AcDbCircle
 10
176.8647196252
 20
336.0117642161
 30
0.0
 40
11.99999999999998
100
AcDbArc
 50
130.7927647307
 51
310.7927647307
  0
ARC
  5
1F0
330
1F
100
AcDbEntity
  8
0
  6
Continuous
 62
     7
370
    25
100
AcDbCircle
 10
284.633932396
 20
211.128050548
 30
0.0
 40
176.9549791936789
100
AcDbArc
 50
49.2072352693
 51
130.7927647307
  0
ARC
  5
1F1
330
1F
100
AcDbEntity
  8
0
  6
Continuous
 62
     7
370
    25
100
AcDbCircle
 10
770.8241088072
 20
774.5286101151
 30
0.0
 40
567.2231434082096
100
AcDbArc
 50
229.2072352693
 51
232.7153334138
  0
LINE
  5
1F2
330
1F
100
AcDbEntity
  8
0
  6
Continuous
 62
     7
370
    25
100
AcDbLine
 10
427.2142282752
 20
323.2256692664
 30
0.0
 11
429.0315547605
 21
325.6125761447
 31
0.0
  0
ARC
  5
1F3
330
1F
100
AcDbEntity
  8
0
  6
Continuous
 62
     7
370
    25
100
AcDbCircle
 10
534.2619772604
 20
463.8239659551
 30
0.0
 40
173.711916956845
100
AcDbArc
 50
232.7153334138
 51
310.4874587829
  0
ARC
  5
1F4
330
1F
100
AcDbEntity
  8
0
  6
Continuous
 62
     7
370
    25
100
AcDbCircle
 10
534.2619772604
 20
463.8239659551
 30
0.0
 40
173.7119169568449
100
AcDbArc
 50
338.9321563467
 51
344.5628322194
  0
LINE
  5
1F5
330
1F
100
AcDbEntity
  8
0
  6
Continuous
 62
     7
370
    25
100
AcDbLine
 10
169.0248195532
 20
345.0966949732
 30
0.0
 11
167.0648445352
 21
347.3679276625
 31
0.0
  0
ARC
  5
1F6
330
1F
100
AcDbEntity
  8
0
  6
Continuous
 62
     7
370
    25
100
AcDbCircle
 10
284.633932396
 20
211.128050548
 30
0.0
 40
179.9549791936789
100
AcDbArc
 50
49.2072352693
 51
130.7927647307
  0
LINE
  5
1F7
330
1F
100
AcDbEntity
  8
0
  6
Continuous
 62
     7
370
    25
100
AcDbLine
 10
400.2430452388
 20
345.0966949732
 30
0.0
 11
402.2030202568
 21
347.3679276625
 31
0.0
  0
ARC
  5
1F8
330
1F
100
AcDbEntity
  8
0
  6
Continuous
 62
     7
370
    25
100
AcDbCircle
 10
534.2619772604
 20
463.8239659551
 30
0.0
 40
203.711916956845
100
AcDbArc
 50
292.9242044787
 51
337.0757955213
  0
ARC
  5
1F9
330
1F
100
AcDbEntity
  8
0
  6
Continuous
 62
     7
370
    25
100
AcDbCircle
 10
534.2619772604
 20
463.8239659551
 30
0.0
 40
203.711916956845
100
AcDbArc
 50
232.7153334138
 51
283.5454191902
  0
ARC
  5
1FA
330
1F
100
AcDbEntity
  8
0
  6
Continuous
 62
     7
370
    25
100
AcDbCircle
 10
770.8241088072
 20
774.5286101151
 30
0.0
 40
564.2231434082096
100
AcDbArc
 50
229.2072352693
 51
232.7153334138
  0
ARC
  5
1FB
330
1F
100
AcDbEntity
  8
0
  6
Continuous
 62
     7
370
    25
100
AcDbCircle
 10
176.8647196252
 20
336.0117642161
 30
0.0
 40
15.00000000000001
100
AcDbArc
 50
130.7927647307
 51
310.7927647307
  0
ARC
  5
1FC
330
1F
100
AcDbEntity
  8
0
  6
Continuous
 62
     7
370
    25
100
AcDbCircle
 10
-44.297881206
 20
146.0098450987
 30
0.0
 40
136.2002030722933
100
AcDbArc
 50
260.0005302998
 51
339.4621124637
  0
ARC
  5
1FD
330
1F
100
AcDbEntity
  8
0
  6
Continuous
 62
     7
370
    25
100
AcDbCircle
 10
-65.8638876329
 20
23.6963225021
 30
0.0
 40
11.99999999999984
100
AcDbArc
 50
80.00053231
 51
260.0005281991
  0
ARC
  5
1FE
330
1F
100
AcDbEntity
  8
0
  6
Continuous
 62
     7
370
    25
100
AcDbCircle
 10
-44.297881206
 20
146.0098450987
 30
0.0
 40
112.2002030722934
100
AcDbArc
 50
260.0005303095
 51
339.4621124637
  0
LINE
  5
1FF
330
1F
100
AcDbEntity
  8
0
  6
Continuous
 62
     7
370
    25
100
AcDbLine
 10
-63.780219294
 20
35.5140348972
 30
0.0
 11
-63.2593022092
 21
38.468462996
 31
0.0
  0
ARC
  5
200
330
1F
100
AcDbEntity
  8
0
  6
Continuous
 62
     7
370
    25
100
AcDbCircle
 10
-44.297881206
 20
146.0098450987
 30
0.0
 40
109.2002030722932
100
AcDbArc
 50
260.0005302546
 51
339.4621124637
  0
LINE
  5
201
330
1F
100
AcDbEntity
  8
0
  6
Continuous
 62
     7
370
    25
100
AcDbLine
 10
60.7709224623
 20
106.6470191691
 30
0.0
 11
57.9616012457
 21
107.6994992409
 31
0.0
  0
ARC
  5
202
330
1F
100
AcDbEntity
  8
0
  6
Continuous
 62
     7
370
    25
100
AcDbCircle
 10
-109.2077776526
 20
170.3275956177
 30
0.0
 40
178.5157687629129
100
AcDbArc
 50
339.4621124637
 51
1.8286983902
  0
LWPOLYLINE
  5
203
330
1F
100
AcDbEntity
  8
0
  6
Continuous
 62
     7
370
    25
100
AcDbPolyline
 90
        9
 70
   128
 43
0.0
 10
-68.4684741164
 20
8.9241821951
 10
-68.4584648179
 20
8.9809506986
 10
-68.4288216157
 20
9.1490746346
 10
-68.3806836814
 20
9.4220930945
 10
-68.3159009287
 20
9.789514132
 10
-68.2369629226
 20
10.2372179627
 10
-68.1469032063
 20
10.7479995795
 10
-68.0491827242
 20
11.3022299313
 10
-67.9475568197
 20
11.8786102565
  0
ARC
  5
204
330
1F
100
AcDbEntity
  8
0
  6
Continuous
 62
     7
370
    25
100
AcDbCircle
 10
-65.8638876329
 20
23.6963225021
 30
0.0
 40
15.00000000000023
100
AcDbArc
 50
80.00053231
 51
260.0005281991
  0
ARC
  5
205
330
1F
100
AcDbEntity
  8
0
  6
Continuous
 62
     7
370
    25
100
AcDbCircle
 10
-109.2077776526
 20
170.3275956177
 30
0.0
 40
208.515768762913
100
AcDbArc
 50
339.4621124637
 51
3.4772289189
  0
LINE
  5
206
330
1F
100
AcDbEntity
  8
0
  6
Continuous
 62
     7
370
    25
100
AcDbLine
 10
86.0548134123
 20
97.1746985226
 30
0.0
 11
83.2454921956
 21
98.2271785944
 31
0.0
  0
ARC
  5
207
330
1F
100
AcDbEntity
  8
0
  6
Continuous
 62
     7
370
    25
100
AcDbCircle
 10
-44.297881206
 20
146.0098450987
 30
0.0
 40
139.2002030722935
100
AcDbArc
 50
260.0005302546
 51
339.4621124637
  0
ARC
  5
208
330
1F
100
AcDbEntity
  8
0
  6
Continuous
 62
     7
370
    25
100
AcDbCircle
 10
16.8877518183
 20
373.6604059213
 30
0.0
 40
205.5157687629134
100
AcDbArc
 50
300.9643797785
 51
345.8932767904
  0
ARC
  5
209
330
1F
100
AcDbEntity
  8
0
  6
Continuous
 62
     7
370
    25
100
AcDbCircle
 10
52.5509626936
 20
314.2231866301
 30
0.0
 40
136.2002030722934
100
AcDbArc
 50
221.5027976146
 51
300.9643797785
  0
ARC
  5
20A
330
1F
100
AcDbEntity
  8
0
  6
Continuous
 62
     7
370
    25
100
AcDbCircle
 10
-40.4654711276
 20
231.9210998864
 30
0.0
 40
11.99999999999983
100
AcDbArc
 50
41.5027996248
 51
221.5027955139
  0
ARC
  5
20B
330
1F
100
AcDbEntity
  8
0
  6
Continuous
 62
     7
370
    25
100
AcDbCircle
 10
52.5509626936
 20
314.2231866301
 30
0.0
 40
112.2002030722935
100
AcDbArc
 50
221.5027976243
 51
300.9643797785
  0
ARC
  5
20C
330
1F
100
AcDbEntity
  8
0
  6
Continuous
 62
     7
370
    25
100
AcDbCircle
 10
16.8877518183
 20
373.6604059213
 30
0.0
 40
181.5157687629135
100
AcDbArc
 50
300.9643797785
 51
345.8932767904
  0
LINE
  5
20D
330
1F
100
AcDbEntity
  8
0
  6
Continuous
 62
     7
370
    25
100
AcDbLine
 10
192.9296261967
 20
329.4197823392
 30
0.0
 11
194.30388924
 21
329.0744198837
 31
0.0
  0
ARC
  5
20E
330
1F
100
AcDbEntity
  8
0
  6
Continuous
 62
     7
370
    25
100
AcDbCircle
 10
193.5727027891
 20
326.1648896168
 30
0.0
 40
3.000000000000206
100
AcDbArc
 50
1.7198969222
 51
75.8932767904
  0
ARC
  5
20F
330
1F
100
AcDbEntity
  8
0
  6
Continuous
 62
     7
370
    25
100
AcDbCircle
 10
204.5677472643
 20
326.4950365355
 30
0.0
 40
8.000000000000282
100
AcDbArc
 50
181.7198969222
 51
330.0666566585
  0
ARC
  5
210
330
1F
100
AcDbEntity
  8
0
  6
Continuous
 62
     7
370
    25
100
AcDbCircle
 10
214.1004188377
 20
321.0061229205
 30
0.0
 40
2.999999999999923
100
AcDbArc
 50
75.8932767903
 51
150.0666566585
  0
LINE
  5
211
330
1F
100
AcDbEntity
  8
0
  6
Continuous
 62
     7
370
    25
100
AcDbLine
 10
214.8316052886
 20
323.9156531874
 30
0.0
 11
216.2058683319
 21
323.5702907319
 31
0.0
  0
LINE
  5
212
330
1F
100
AcDbEntity
  8
0
  6
Continuous
 62
     7
370
    25
100
AcDbLine
 10
-31.4783910175
 20
239.8729796072
 30
0.0
 11
-29.23162099
 21
241.8609495374
 31
0.0
  0
ARC
  5
213
330
1F
100
AcDbEntity
  8
0
  6
Continuous
 62
     7
370
    25
100
AcDbCircle
 10
52.5509626936
 20
314.2231866301
 30
0.0
 40
109.2002030722933
100
AcDbArc
 50
221.5027975693
 51
300.9643797785
  0
LINE
  5
214
330
1F
100
AcDbEntity
  8
0
  6
Continuous
 62
     7
370
    25
100
AcDbLine
 10
110.2785374823
 20
218.0129341697
 30
0.0
 11
108.7350222334
 21
220.5853961571
 31
0.0
  0
ARC
  5
215
330
1F
100
AcDbEntity
  8
0
  6
Continuous
 62
     7
370
    25
100
AcDbCircle
 10
16.8877518183
 20
373.6604059213
 30
0.0
 40
178.5157687629129
100
AcDbArc
 50
300.9643797785
 51
344.7593475018
  0
LINE
  5
216
330
1F
100
AcDbEntity
  8
0
  6
Continuous
 62
     7
370
    25
100
AcDbLine
 10
192.5847589915
 20
329.5064500156
 30
0.0
 11
192.9296261967
 21
329.4197823392
 31
0.0
  0
LWPOLYLINE
  5
217
330
1F
100
AcDbEntity
  8
0
  6
Continuous
 62
     7
370
    25
100
AcDbPolyline
 90
        9
 70
   128
 43
0.0
 10
-51.6993219785
 20
221.9812510414
 10
-51.6561509071
 20
222.0194493089
 10
-51.5282967609
 20
222.1325762049
 10
-51.320672903
 20
222.3162843261
 10
-51.0412582018
 20
222.5635138726
 10
-50.7007904077
 20
222.8647639514
 10
-50.3123535069
 20
223.208457691
 10
-49.8908749117
 20
223.5813871338
 10
-49.4525518083
 20
223.9692208104
  0
ARC
  5
218
330
1F
100
AcDbEntity
  8
0
  6
Continuous
 62
     7
370
    25
100
AcDbCircle
 10
-40.4654711276
 20
231.9210998864
 30
0.0
 40
15.00000000000029
100
AcDbArc
 50
41.5027996248
 51
221.5027955139
  0
ARC
  5
219
330
1F
100
AcDbEntity
  8
0
  6
Continuous
 62
     7
370
    25
100
AcDbCircle
 10
16.8877518183
 20
373.6604059213
 30
0.0
 40
208.5157687629132
100
AcDbArc
 50
300.9643797785
 51
345.8932767904
  0
LINE
  5
21A
330
1F
100
AcDbEntity
  8
0
  6
Continuous
 62
     7
370
    25
100
AcDbLine
 10
124.1701747219
 20
194.8607762832
 30
0.0
 11
122.626659473
 21
197.4332382706
 31
0.0
  0
LINE
  5
21B
330
1F
100
AcDbEntity
  8
0
  6
Continuous
 62
     7
370
    25
100
AcDbLine
 10
216.2058683319
 20
323.5702907319
 30
0.0
 11
219.1153985988
 21
322.839104281
 31
0.0
  0
ARC
  5
21C
330
1F
100
AcDbEntity
  8
0
  6
Continuous
 62
     7
370
    25
100
AcDbCircle
 10
52.5509626936
 20
314.2231866301
 30
0.0
 40
139.2002030722936
100
AcDbArc
 50
221.5027975693
 51
300.9643797785
  0
ARC
  5
21D
330
1F
100
AcDbEntity
  8
0
  6
Continuous
 62
     7
370
    25
100
AcDbCircle
 10
-39.5512578455
 20
-100.7964408058
 30
0.0
 40
136.2002030722933
100
AcDbArc
 50
289.2371265457
 51
8.6987087096
  0
ARC
  5
21E
330
1F
100
AcDbEntity
  8
0
  6
Continuous
 62
     7
370
    25
100
AcDbCircle
 10
1.3700410522
 20
-218.0616860395
 30
0.0
 40
11.99999999999975
100
AcDbArc
 50
109.2371285559
 51
289.237124445
  0
ARC
  5
21F
330
1F
100
AcDbEntity
  8
0
  6
Continuous
 62
     7
370
    25
100
AcDbCircle
 10
-39.5512578455
 20
-100.7964408058
 30
0.0
 40
112.2002030722935
100
AcDbArc
 50
289.2371265554
 51
8.6987087096
  0
LINE
  5
220
330
1F
100
AcDbEntity
  8
0
  6
Continuous
 62
     7
370
    25
100
AcDbLine
 10
-2.5837015264
 20
-206.7317293043
 30
0.0
 11
-3.5721371711
 21
-203.8992401205
 31
0.0
  0
ARC
  5
221
330
1F
100
AcDbEntity
  8
0
  6
Continuous
 62
     7
370
    25
100
AcDbCircle
 10
-39.5512578455
 20
-100.7964408058
 30
0.0
 40
109.2002030722933
100
AcDbArc
 50
289.2371265005
 51
8.6987087096
  0
LINE
  5
222
330
1F
100
AcDbEntity
  8
0
  6
Continuous
 62
     7
370
    25
100
AcDbLine
 10
71.3583394531
 20
-83.8274456523
 30
0.0
 11
68.3928475664
 21
-84.2811612791
 31
0.0
  0
LWPOLYLINE
  5
223
330
1F
100
AcDbEntity
  8
0
  6
Continuous
 62
     7
370
    25
100
AcDbPolyline
 90
        9
 70
   128
 43
0.0
 10
6.3122182593
 20
-232.2241323131
 10
6.2932257673
 20
-232.1697068201
 10
6.2369781225
 20
-232.008521896
 10
6.1456368904
 20
-231.7467717872
 10
6.0227122633
 20
-231.3945154034
 10
5.8729281657
 20
-230.96528976
 10
5.7020407164
 20
-230.4755897577
 10
5.5166170243
 20
-229.944234293
 10
5.3237828178
 20
-229.3916430584
  0
ARC
  5
224
330
1F
100
AcDbEntity
  8
0
  6
Continuous
 62
     7
370
    25
100
AcDbCircle
 10
1.3700410522
 20
-218.0616860395
 30
0.0
 40
15.0000000000003
100
AcDbArc
 50
109.2371285559
 51
289.237124445
  0
ARC
  5
225
330
1F
100
AcDbEntity
  8
0
  6
Continuous
 62
     7
370
    25
100
AcDbCircle
 10
-39.5512578455
 20
-100.7964408058
 30
0.0
 40
139.2002030722935
100
AcDbArc
 50
289.2371265005
 51
8.6987087096
  0
LINE
  5
226
330
1F
100
AcDbEntity
  8
0
  6
Continuous
 62
     7
370
    25
100
AcDbLine
 10
98.0477664333
 20
-79.7440050114
 30
0.0
 11
95.0822745466
 21
-80.1977206382
 31
0.0
  0
ARC
  5
227
330
1F
100
AcDbEntity
  8
0
  6
Continuous
 62
     7
370
    25
100
AcDbCircle
 10
-108.0695070712
 20
-111.2796259165
 30
0.0
 40
178.5157687629129
100
AcDbArc
 50
8.6987087096
 51
47.0565078414
  0
ARC
  5
228
330
1F
100
AcDbEntity
  8
0
  6
Continuous
 62
     7
370
    25
100
AcDbCircle
 10
-108.0695070712
 20
-111.2796259165
 30
0.0
 40
208.5157687629129
100
AcDbArc
 50
8.6987087096
 51
44.6905903569
  0
LINE
  5
229
330
1F
100
AcDbEntity
  8
0
  6
Continuous
 62
     7
370
    25
100
AcDbLine
 10
-310.1124860541
 20
-251.2763114414
 30
0.0
 11
-311.5130824659
 21
-251.4912622015
 31
0.0
  0
ARC
  5
22A
330
1F
100
AcDbEntity
  8
0
  6
Continuous
 62
     7
370
    25
100
AcDbCircle
 10
-311.0579980149
 20
-254.4565443369
 30
0.0
 40
3.000000000000402
100
AcDbArc
 50
98.7251564702
 51
172.8985363384
  0
ARC
  5
22B
330
1F
100
AcDbEntity
  8
0
  6
Continuous
 62
     7
370
    25
100
AcDbCircle
 10
-321.9736145957
 20
-253.0966492451
 30
0.0
 40
8.000000000000677
100
AcDbArc
 50
204.5517766021
 51
352.8985363384
  0
ARC
  5
22C
330
1F
100
AcDbEntity
  8
0
  6
Continuous
 62
     7
370
    25
100
AcDbCircle
 10
-331.9790622747
 20
-257.6673184241
 30
0.0
 40
3.000000000000214
100
AcDbArc
 50
24.5517766021
 51
98.7251564702
  0
LINE
  5
22D
330
1F
100
AcDbEntity
  8
0
  6
Continuous
 62
     7
370
    25
100
AcDbLine
 10
-332.4341467256
 20
-254.7020362887
 30
0.0
 11
-333.8347431373
 21
-254.9169870488
 31
0.0
  0
ARC
  5
22E
330
1F
100
AcDbEntity
  8
0
  6
Continuous
 62
     7
370
    25
100
AcDbCircle
 10
34.2625721561
 20
-198.4247691183
 30
0.0
 40
345.4070410356531
100
AcDbArc
 50
155.9131072669
 51
188.7251564702
  0
LINE
  5
22F
330
1F
100
AcDbEntity
  8
0
  6
Continuous
 62
     7
370
    25
100
AcDbLine
 10
-307.1472039187
 20
-250.8212269905
 30
0.0
 11
-310.1124860541
 21
-251.2763114414
 31
0.0
  0
ARC
  5
230
330
1F
100
AcDbEntity
  8
0
  6
Continuous
 62
     7
370
    25
100
AcDbCircle
 10
34.2625721561
 20
-198.4247691183
 30
0.0
 40
375.4070410356533
100
AcDbArc
 50
158.6994414031
 51
188.7251564702
  0
LINE
  5
231
330
1F
100
AcDbEntity
  8
0
  6
Continuous
 62
     7
370
    25
100
AcDbLine
 10
-333.8347431373
 20
-254.9169870488
 30
0.0
 11
-336.8000252727
 21
-255.3720714997
 31
0.0
  0
ARC
  5
232
330
1F
100
AcDbEntity
  8
0
  6
Continuous
 62
     7
370
    25
100
AcDbCircle
 10
16.8877518183
 20
373.6604059213
 30
0.0
 40
208.5157687629132
100
AcDbArc
 50
345.8932767904
 51
352.9889390942
  0
LINE
  5
233
330
1F
100
AcDbEntity
  8
0
  6
Continuous
 62
     7
370
    25
100
AcDbLine
 10
-189.22478567
 20
507.5934459242
 30
0.0
 11
-189.9543974666
 21
508.808164313
 31
0.0
  0
ARC
  5
234
330
1F
100
AcDbEntity
  8
0
  6
Continuous
 62
     7
370
    25
100
AcDbCircle
 10
-192.5261466926
 20
507.2634617789
 30
0.0
 40
3.000000000000398
100
AcDbArc
 50
30.9908275391
 51
105.1642074072
  0
ARC
  5
235
330
1F
100
AcDbEntity
  8
0
  6
Continuous
 62
     7
370
    25
100
AcDbCircle
 10
-195.4035958064
 20
517.880442828
 30
0.0
 40
8.000000000000618
100
AcDbArc
 50
136.817447671
 51
285.1642074072
  0
ARC
  5
236
330
1F
100
AcDbEntity
  8
0
  6
Continuous
 62
     7
370
    25
100
AcDbCircle
 10
-203.4245433721
 20
525.4080188089
 30
0.0
 40
3.000000000000174
100
AcDbArc
 50
316.817447671
 51
30.9908275391
  0
LINE
  5
237
330
1F
100
AcDbEntity
  8
0
  6
Continuous
 62
     7
370
    25
100
AcDbLine
 10
-200.8527941462
 20
526.952721343
 30
0.0
 11
-201.5824059428
 21
528.1674397317
 31
0.0
  0
ARC
  5
238
330
1F
100
AcDbEntity
  8
0
  6
Continuous
 62
     7
370
    25
100
AcDbCircle
 10
-9.82970594
 20
208.9215998927
 30
0.0
 40
345.4070410356531
100
AcDbArc
 50
87.9540477294
 51
120.9908275391
  0
LINE
  5
239
330
1F
100
AcDbEntity
  8
0
  6
Continuous
 62
     7
370
    25
100
AcDbLine
 10
-187.6800831358
 20
505.0216966983
 30
0.0
 11
-189.22478567
 21
507.5934459242
 31
0.0
  0
ARC
  5
23A
330
1F
100
AcDbEntity
  8
0
  6
Continuous
 62
     7
370
    25
100
AcDbCircle
 10
-9.82970594
 20
208.9215998927
 30
0.0
 40
375.4070410356533
100
AcDbArc
 50
84.5095358632
 51
120.9908275391
  0
LINE
  5
23B
330
1F
100
AcDbEntity
  8
0
  6
Continuous
 62
     7
370
    25
100
AcDbLine
 10
-201.5824059428
 20
528.1674397317
 30
0.0
 11
-203.127108477
 21
530.7391889577
 31
0.0
  0
LINE
  5
23C
330
1F
100
AcDbEntity
  8
0
  6
Continuous
 62
     7
370
    25
100
AcDbLine
 10
-353.8893378477
 20
146.8462963617
 30
0.0
 11
-355.2164983208
 21
147.3428033775
 31
0.0
  0
ARC
  5
23D
330
1F
100
AcDbEntity
  8
0
  6
Continuous
 62
     7
370
    25
100
AcDbCircle
 10
-356.2676814964
 20
144.5329966348
 30
0.0
 40
3.000000000000333
100
AcDbArc
 50
69.4885602244
 51
143.6619400925
  0
ARC
  5
23E
330
1F
100
AcDbEntity
  8
0
  6
Continuous
 62
     7
370
    25
100
AcDbCircle
 10
-365.1285648185
 20
151.0510290644
 30
0.0
 40
8.000000000000673
100
AcDbArc
 50
175.3151803562
 51
323.6619400925
  0
ARC
  5
23F
330
1F
100
AcDbEntity
  8
0
  6
Continuous
 62
     7
370
    25
100
AcDbCircle
 10
-376.0918144918
 20
151.9494480086
 30
0.0
 40
3.000000000000253
100
AcDbArc
 50
355.3151803562
 51
69.4885602244
  0
LINE
  5
240
330
1F
100
AcDbEntity
  8
0
  6
Continuous
 62
     7
370
    25
100
AcDbLine
 10
-375.0406313162
 20
154.7592547513
 30
0.0
 11
-376.3677917892
 21
155.255761767
 31
0.0
  0
ARC
  5
241
330
1F
100
AcDbEntity
  8
0
  6
Continuous
 62
     7
370
    25
100
AcDbCircle
 10
-27.570520148
 20
24.766423089
 30
0.0
 40
345.407041035653
100
AcDbArc
 50
127.8497458176
 51
159.4885602244
  0
LINE
  5
242
330
1F
100
AcDbEntity
  8
0
  6
Continuous
 62
     7
370
    25
100
AcDbLine
 10
-351.0795311051
 20
145.7951131861
 30
0.0
 11
-353.8893378477
 21
146.8462963617
 31
0.0
  0
ARC
  5
243
330
1F
100
AcDbEntity
  8
0
  6
Continuous
 62
     7
370
    25
100
AcDbCircle
 10
-27.570520148
 20
24.766423089
 30
0.0
 40
375.4070410356533
100
AcDbArc
 50
130.8559298006
 51
159.4885602244
  0
LINE
  5
244
330
1F
100
AcDbEntity
  8
0
  6
Continuous
 62
     7
370
    25
100
AcDbLine
 10
-376.3677917892
 20
155.255761767
 30
0.0
 11
-379.1775985319
 21
156.3069449427
 31
0.0
  0
ARC
  5
245
330
1F
100
AcDbEntity
  8
0
  6
Continuous
 62
     7
370
    25
100
AcDbCircle
 10
-27.570520148
 20
24.766423089
 30
0.0
 40
348.4070410356541
100
AcDbArc
 50
159.4885602244
 51
178.8587027324
  0
ARC
  5
246
330
1F
100
AcDbEntity
  8
0
  6
Continuous
 62
     7
370
    25
100
AcDbCircle
 10
-310.3229321201
 20
30.399425133
 30
0.0
 40
65.59852421188775
100
AcDbArc
 50
178.8587027324
 51
310.2495463733
  0
ARC
  5
247
330
1F
100
AcDbEntity
  8
0
  6
Continuous
 62
     7
370
    25
100
AcDbCircle
 10
-260.18513375
 20
-28.8266851095
 30
0.0
 40
12.00000000000007
100
AcDbArc
 50
310.2495463733
 51
130.2495463733
  0
ARC
  5
248
330
1F
100
AcDbEntity
  8
0
  6
Continuous
 62
     7
370
    25
100
AcDbCircle
 10
-310.3229321201
 20
30.399425133
 30
0.0
 40
89.59852421188735
100
AcDbArc
 50
178.8587027324
 51
310.2495463733
  0
ARC
  5
249
330
1F
100
AcDbEntity
  8
0
  6
Continuous
 62
     7
370
    25
100
AcDbCircle
 10
-27.570520148
 20
24.766423089
 30
0.0
 40
372.4070410356533
100
AcDbArc
 50
159.4885602244
 51
178.8587027324
  0
LINE
  5
24A
330
1F
100
AcDbEntity
  8
0
  6
Continuous
 62
     7
370
    25
100
AcDbLine
 10
-375.9084425957
 20
31.7060216427
 30
0.0
 11
-372.9090377495
 21
31.6462674092
 31
0.0
  0
ARC
  5
24B
330
1F
100
AcDbEntity
  8
0
  6
Continuous
 62
     7
370
    25
100
AcDbCircle
 10
-310.3229321201
 20
30.399425133
 30
0.0
 40
62.59852421188712
100
AcDbArc
 50
178.8587027324
 51
310.2495463733
  0
LINE
  5
24C
330
1F
100
AcDbEntity
  8
0
  6
Continuous
 62
     7
370
    25
100
AcDbLine
 10
-267.9385489928
 20
-19.6678340859
 30
0.0
 11
-269.8769028035
 21
-17.37812133
 31
0.0
  0
ARC
  5
24D
330
1F
100
AcDbEntity
  8
0
  6
Continuous
 62
     7
370
    25
100
AcDbCircle
 10
-27.570520148
 20
24.766423089
 30
0.0
 40
345.4070410356533
100
AcDbArc
 50
159.4885602244
 51
178.8587027324
  0
ARC
  5
24E
330
1F
100
AcDbEntity
  8
0
  6
Continuous
 62
     7
370
    25
100
AcDbCircle
 10
-310.3229321201
 20
30.399425133
 30
0.0
 40
92.59852421188744
100
AcDbArc
 50
178.8587027324
 51
310.2495463733
  0
LINE
  5
24F
330
1F
100
AcDbEntity
  8
0
  6
Continuous
 62
     7
370
    25
100
AcDbLine
 10
-402.9030862117
 20
32.2438097436
 30
0.0
 11
-399.9036813655
 21
32.1840555102
 31
0.0
  0
LINE
  5
250
330
1F
100
AcDbEntity
  8
0
  6
Continuous
 62
     7
370
    25
100
AcDbLine
 10
-250.4933646966
 20
-40.2752488891
 30
0.0
 11
-252.4317185073
 21
-37.9855361332
 31
0.0
  0
ARC
  5
251
330
1F
100
AcDbEntity
  8
0
  6
Continuous
 62
     7
370
    25
100
AcDbCircle
 10
-27.570520148
 20
24.766423089
 30
0.0
 40
375.4070410356535
100
AcDbArc
 50
159.4885602244
 51
178.8587027324
  0
ARC
  5
252
330
1F
100
AcDbEntity
  8
0
  6
Continuous
 62
     7
370
    25
100
AcDbCircle
 10
-260.18513375
 20
-28.8266851095
 30
0.0
 40
15.00000000000089
100
AcDbArc
 50
310.2495463733
 51
130.2495463733
  0
ARC
  5
253
330
1F
100
AcDbEntity
  8
0
  6
Continuous
 62
     7
370
    25
100
AcDbCircle
 10
34.2625721561
 20
-198.4247691183
 30
0.0
 40
348.407041035654
100
AcDbArc
 50
188.7251564702
 51
208.0952989783
  0
ARC
  5
254
330
1F
100
AcDbEntity
  8
0
  6
Continuous
 62
     7
370
    25
100
AcDbCircle
 10
-215.2213469739
 20
-331.6104713675
 30
0.0
 40
65.59852421188778
100
AcDbArc
 50
208.0952989783
 51
339.4861426192
  0
ARC
  5
255
330
1F
100
AcDbEntity
  8
0
  6
Continuous
 62
     7
370
    25
100
AcDbCircle
 10
-142.5435421448
 20
-358.8036257466
 30
0.0
 40
12.00000000000002
100
AcDbArc
 50
339.4861426192
 51
159.4861426192
  0
ARC
  5
256
330
1F
100
AcDbEntity
  8
0
  6
Continuous
 62
     7
370
    25
100
AcDbCircle
 10
-215.2213469739
 20
-331.6104713675
 30
0.0
 40
89.59852421188734
100
AcDbArc
 50
208.0952989783
 51
339.4861426192
  0
ARC
  5
257
330
1F
100
AcDbEntity
  8
0
  6
Continuous
 62
     7
370
    25
100
AcDbCircle
 10
34.2625721561
 20
-198.4247691183
 30
0.0
 40
372.4070410356532
100
AcDbArc
 50
188.7251564702
 51
208.0952989783
  0
LINE
  5
258
330
1F
100
AcDbEntity
  8
0
  6
Continuous
 62
     7
370
    25
100
AcDbLine
 10
-273.0901024602
 20
-362.5034077323
 30
0.0
 11
-270.4436059339
 21
-361.0905892244
 31
0.0
  0
ARC
  5
259
330
1F
100
AcDbEntity
  8
0
  6
Continuous
 62
     7
370
    25
100
AcDbCircle
 10
-215.2213469739
 20
-331.6104713675
 30
0.0
 40
62.59852421188719
100
AcDbArc
 50
208.0952989783
 51
339.4861426192
  0
LINE
  5
25A
330
1F
100
AcDbEntity
  8
0
  6
Continuous
 62
     7
370
    25
100
AcDbLine
 10
-153.7825916861
 20
-354.5984188066
 30
0.0
 11
-156.5923540714
 21
-353.5471170716
 31
0.0
  0
ARC
  5
25B
330
1F
100
AcDbEntity
  8
0
  6
Continuous
 62
     7
370
    25
100
AcDbCircle
 10
34.2625721561
 20
-198.4247691183
 30
0.0
 40
345.4070410356533
100
AcDbArc
 50
188.7251564702
 51
208.0952989783
  0
ARC
  5
25C
330
1F
100
AcDbEntity
  8
0
  6
Continuous
 62
     7
370
    25
100
AcDbCircle
 10
-215.2213469739
 20
-331.6104713675
 30
0.0
 40
92.5985242118876
100
AcDbArc
 50
208.0952989783
 51
339.4861426192
  0
LINE
  5
25D
330
1F
100
AcDbEntity
  8
0
  6
Continuous
 62
     7
370
    25
100
AcDbLine
 10
-296.9085711972
 20
-375.218774303
 30
0.0
 11
-294.2620746708
 21
-373.8059557951
 31
0.0
  0
LINE
  5
25E
330
1F
100
AcDbEntity
  8
0
  6
Continuous
 62
     7
370
    25
100
AcDbLine
 10
-128.4947302182
 20
-364.0601344216
 30
0.0
 11
-131.3044926035
 21
-363.0088326866
 31
0.0
  0
ARC
  5
25F
330
1F
100
AcDbEntity
  8
0
  6
Continuous
 62
     7
370
    25
100
AcDbCircle
 10
34.2625721561
 20
-198.4247691183
 30
0.0
 40
375.4070410356537
100
AcDbArc
 50
188.7251564702
 51
208.0952989783
  0
ARC
  5
260
330
1F
100
AcDbEntity
  8
0
  6
Continuous
 62
     7
370
    25
100
AcDbCircle
 10
-142.5435421448
 20
-358.8036257466
 30
0.0
 40
15.00000000000089
100
AcDbArc
 50
339.4861426192
 51
159.4861426192
  0
LINE
  5
261
330
1F
100
AcDbEntity
  8
0
  6
Continuous
 62
     7
370
    25
100
AcDbLine
 10
-278.1305994537
 20
431.1874244879
 30
0.0
 11
-275.8203629035
 21
429.2735783388
 31
0.0
  0
ARC
  5
262
330
1F
100
AcDbEntity
  8
0
  6
Continuous
 62
     7
370
    25
100
AcDbCircle
 10
-9.82970594
 20
208.9215998927
 30
0.0
 40
348.4070410356538
100
AcDbArc
 50
120.9908275391
 51
140.3609700472
  0
ARC
  5
263
330
1F
100
AcDbEntity
  8
0
  6
Continuous
 62
     7
370
    25
100
AcDbCircle
 10
-9.82970594
 20
208.9215998927
 30
0.0
 40
345.4070410356532
100
AcDbArc
 50
120.9908275391
 51
140.3609700472
  0
ARC
  5
264
330
1F
100
AcDbEntity
  8
0
  6
Continuous
 62
     7
370
    25
100
AcDbCircle
 10
-227.6145633629
 20
389.3389301726
 30
0.0
 40
65.59852421188775
100
AcDbArc
 50
140.3609700472
 51
271.751813688
  0
ARC
  5
265
330
1F
100
AcDbEntity
  8
0
  6
Continuous
 62
     7
370
    25
100
AcDbCircle
 10
-225.2423645852
 20
311.7766736761
 30
0.0
 40
12.00000000000007
100
AcDbArc
 50
271.751813688
 51
91.751813688
  0
ARC
  5
266
330
1F
100
AcDbEntity
  8
0
  6
Continuous
 62
     7
370
    25
100
AcDbCircle
 10
-227.6145633629
 20
389.3389301726
 30
0.0
 40
89.59852421188732
100
AcDbArc
 50
140.3609700472
 51
271.751813688
  0
ARC
  5
267
330
1F
100
AcDbEntity
  8
0
  6
Continuous
 62
     7
370
    25
100
AcDbCircle
 10
-9.82970594
 20
208.9215998927
 30
0.0
 40
372.4070410356532
100
AcDbArc
 50
120.9908275391
 51
140.3609700472
  0
ARC
  5
268
330
1F
100
AcDbEntity
  8
0
  6
Continuous
 62
     7
370
    25
100
AcDbCircle
 10
-227.6145633629
 20
389.3389301726
 30
0.0
 40
62.59852421188714
100
AcDbArc
 50
140.3609700472
 51
271.751813688
  0
LINE
  5
269
330
1F
100
AcDbEntity
  8
0
  6
Continuous
 62
     7
370
    25
100
AcDbLine
 10
-225.6092064243
 20
323.7710651599
 30
0.0
 11
-225.700916884
 21
326.7696630308
 31
0.0
  0
LINE
  5
26A
330
1F
100
AcDbEntity
  8
0
  6
Continuous
 62
     7
370
    25
100
AcDbLine
 10
-298.9227284053
 20
448.4120398293
 30
0.0
 11
-296.6124918551
 21
446.4981936802
 31
0.0
  0
ARC
  5
26B
330
1F
100
AcDbEntity
  8
0
  6
Continuous
 62
     7
370
    25
100
AcDbCircle
 10
-9.82970594
 20
208.9215998927
 30
0.0
 40
375.4070410356534
100
AcDbArc
 50
120.9908275391
 51
140.3609700472
  0
ARC
  5
26C
330
1F
100
AcDbEntity
  8
0
  6
Continuous
 62
     7
370
    25
100
AcDbCircle
 10
-227.6145633629
 20
389.3389301726
 30
0.0
 40
92.59852421188734
100
AcDbArc
 50
140.3609700472
 51
271.751813688
  0
LINE
  5
26D
330
1F
100
AcDbEntity
  8
0
  6
Continuous
 62
     7
370
    25
100
AcDbLine
 10
-224.7838122863
 20
296.7836843215
 30
0.0
 11
-224.8755227461
 21
299.7822821924
 31
0.0
  0
ARC
  5
26E
330
1F
100
AcDbEntity
  8
0
  6
Continuous
 62
     7
370
    25
100
AcDbCircle
 10
-225.2423645852
 20
311.7766736761
 30
0.0
 40
15.00000000000087
100
AcDbArc
 50
271.751813688
 51
91.751813688
  0
ARC
  5
26F
330
1F
100
AcDbEntity
  8
0
  6
Continuous
 62
     7
370
    25
100
AcDbCircle
 10
462.0809585583
 20
463.8239659551
 30
0.0
 40
275.8929356588914
100
AcDbArc
 50
12.1101459484
 51
73.2393073858
  0
LINE
  5
270
330
1F
100
AcDbEntity
  8
0
  6
Continuous
 62
     7
370
    25
100
AcDbLine
 10
541.6415745949
 20
727.9962966833
 30
0.0
 11
540.7764496959
 21
725.1237440016
 31
0.0
  0
ARC
  5
271
330
1F
100
AcDbEntity
  8
0
  6
Continuous
 62
     7
370
    25
100
AcDbCircle
 10
11.4761252438
 20
541.1223794301
 30
0.0
 40
12.00000000000002
100
AcDbArc
 50
143.0866957935
 51
323.0866957935
  0
ARC
  5
272
330
1F
100
AcDbEntity
  8
0
  6
Continuous
 62
     7
370
    25
100
AcDbCircle
 10
11.4761252438
 20
541.1223794301
 30
0.0
 40
15.00000000000049
100
AcDbArc
 50
143.0866957935
 51
323.0866957935
  0
LINE
  5
273
330
1F
100
AcDbEntity
  8
0
  6
Continuous
 62
     7
370
    25
100
AcDbLine
 10
-0.5170530266
 20
550.1314678954
 30
0.0
 11
1.8815826275
 21
548.3296502023
 31
0.0
  0
LINE
  5
274
330
1F
100
AcDbEntity
  8
0
  6
Continuous
 62
     7
370
    25
100
AcDbLine
 10
23.4693035142
 20
532.1132909649
 30
0.0
 11
21.0706678601
 21
533.915108658
 31
0.0
  0
ARC
  5
275
330
1F
100
AcDbEntity
  8
0
  6
Continuous
 62
     7
370
    25
100
AcDbCircle
 10
462.0809585583
 20
463.8239659551
 30
0.0
 40
245.8929356588912
100
AcDbArc
 50
11.5238883398
 51
73.2393073858
  0
LINE
  5
276
330
1F
100
AcDbEntity
  8
0
  6
Continuous
 62
     7
370
    25
100
AcDbLine
 10
533.8554505035
 20
702.1433225481
 30
0.0
 11
532.9903256045
 21
699.2707698665
 31
0.0
  0
ARC
  5
277
330
1F
100
AcDbEntity
  8
0
  6
Continuous
 62
     7
370
    25
100
AcDbCircle
 10
397.9316055719
 20
250.8230499576
 30
0.0
 40
468.3441206509299
100
AcDbArc
 50
73.2393073858
 51
84.3219287697
  0
ARC
  5
278
330
1F
100
AcDbEntity
  8
0
  6
Continuous
 62
     7
370
    25
100
AcDbCircle
 10
397.9316055719
 20
250.8230499576
 30
0.0
 40
468.3441206509308
100
AcDbArc
 50
87.1346715875
 51
143.0866957935
  0
ARC
  5
279
330
1F
100
AcDbEntity
  8
0
  6
Continuous
 62
     7
370
    25
100
AcDbCircle
 10
397.9316055719
 20
250.8230499576
 30
0.0
 40
498.3441206509314
100
AcDbArc
 50
90.8189492241
 51
143.0866957935
  0
ARC
  5
27A
330
1F
100
AcDbEntity
  8
0
  6
Continuous
 62
     7
370
    25
100
AcDbCircle
 10
397.9316055719
 20
250.8230499576
 30
0.0
 40
498.3441206509294
100
AcDbArc
 50
73.2393073858
 51
88.3622134964
  0
LINE
  5
27B
330
1F
100
AcDbEntity
  8
0
  6
Continuous
 62
     7
370
    25
100
AcDbLine
 10
703.3836139308
 20
418.8638181301
 30
0.0
 11
705.6100118285
 21
416.6374202324
 31
0.0
  0
LINE
  5
27C
330
1F
100
AcDbEntity
  8
0
  6
Continuous
 62
     7
370
    25
100
AcDbLine
 10
690.407216033
 20
431.8402160279
 30
0.0
 11
703.3836139308
 21
418.8638181301
 31
0.0
  0
LINE
  5
27D
330
1F
100
AcDbEntity
  8
0
  6
Continuous
 62
     7
370
    25
100
AcDbLine
 10
773.9508937672
 20
510.9310979666
 30
0.0
 11
771.7244958695
 21
513.1574958643
 31
0.0
  0
LINE
  5
27E
330
1F
100
AcDbEntity
  8
0
  6
Continuous
 62
     7
370
    25
100
AcDbLine
 10
786.927291665
 20
497.9547000688
 30
0.0
 11
773.9508937672
 21
510.9310979666
 31
0.0
  0
LINE
  5
27F
330
1F
100
AcDbEntity
  8
0
  6
Continuous
 62
     7
370
    25
100
AcDbLine
 10
692.6336139308
 20
500.1810979666
 30
0.0
 11
690.407216033
 21
497.9547000688
 31
0.0
  0
LINE
  5
280
330
1F
100
AcDbEntity
  8
0
  6
Continuous
 62
     7
370
    25
100
AcDbLine
 10
705.6100118285
 20
513.1574958643
 30
0.0
 11
692.6336139308
 21
500.1810979666
 31
0.0
  0
LINE
  5
281
330
1F
100
AcDbEntity
  8
0
  6
Continuous
 62
     7
370
    25
100
AcDbLine
 10
784.7008937672
 20
429.6138181301
 30
0.0
 11
786.927291665
 21
431.8402160279
 31
0.0
  0
LINE
  5
282
330
1F
100
AcDbEntity
  8
0
  6
Continuous
 62
     7
370
    25
100
AcDbLine
 10
771.7244958695
 20
416.6374202324
 30
0.0
 11
784.7008937672
 21
429.6138181301
 31
0.0
  0
LINE
  5
283
330
1F
100
AcDbEntity
  8
0
  6
Continuous
 62
     7
370
    25
100
AcDbLine
 10
783.0523465041
 20
575.7223038637
 30
0.0
 11
790.4769677066
 21
583.1469250662
 31
0.0
  0
LINE
  5
284
330
1F
100
AcDbEntity
  8
0
  6
Continuous
 62
     7
370
    25
100
AcDbLine
 10
782.8437500036
 20
579.6432109654
 30
0.0
 11
786.5560606049
 21
583.3555215666
 31
0.0
  0
LINE
  5
285
330
1F
100
AcDbEntity
  8
0
  6
Continuous
 62
     7
370
    25
100
AcDbLine
 10
853.4130067661
 20
420.7209618937
 30
0.0
 11
857.1253173673
 21
417.0086512925
 31
0.0
  0
LINE
  5
286
330
1F
100
AcDbEntity
  8
0
  6
Continuous
 62
     7
370
    25
100
AcDbLine
 10
849.4920996644
 20
420.5123653933
 30
0.0
 11
856.9167208668
 21
413.0877441908
 31
0.0
  0
LINE
  5
287
330
1F
100
AcDbEntity
  8
0
  6
Continuous
 62
     7
370
    25
100
AcDbLine
 10
694.4907576944
 20
350.1517051313
 30
0.0
 11
690.7784470931
 21
346.4393945301
 31
0.0
  0
LINE
  5
288
330
1F
100
AcDbEntity
  8
0
  6
Continuous
 62
     7
370
    25
100
AcDbLine
 10
694.2821611939
 20
354.072612233
 30
0.0
 11
686.8575399915
 21
346.6479910305
 31
0.0
  0
LINE
  5
289
330
1F
100
AcDbEntity
  8
0
  6
Continuous
 62
     7
370
    25
100
AcDbLine
 10
623.921500932
 20
509.073954203
 30
0.0
 11
620.2091903307
 21
512.7862648042
 31
0.0
  0
LINE
  5
28A
330
1F
100
AcDbEntity
  8
0
  6
Continuous
 62
     7
370
    25
100
AcDbLine
 10
627.8424080336
 20
509.2825507034
 30
0.0
 11
620.4177868312
 21
516.7071719059
 31
0.0
  0
LINE
  5
28B
330
1F
100
AcDbEntity
  8
0
  6
Continuous
 62
     7
370
    25
100
AcDbLine
 10
739.2311732528
 20
465.7232878771
 30
0.0
 11
739.4930836777
 21
465.4613774521
 31
0.0
  0
LINE
  5
28C
330
1F
100
AcDbEntity
  8
0
  6
Continuous
 62
     7
370
    25
100
AcDbLine
 10
739.4930836777
 20
464.3335386446
 30
0.0
 11
739.2311732528
 21
464.0716282196
 31
0.0
  0
LINE
  5
28D
330
1F
100
AcDbEntity
  8
0
  6
Continuous
 62
     7
370
    25
100
AcDbLine
 10
694.543790703
 20
354.8716428957
 30
0.0
 11
686.0585093287
 21
346.3863615215
 31
0.0
  0
LINE
  5
28E
330
1F
100
AcDbEntity
  8
0
  6
Continuous
 62
     7
370
    25
100
AcDbLine
 10
628.6414386964
 20
509.0209211944
 30
0.0
 11
620.1561573221
 21
517.5062025686
 31
0.0
  0
LINE
  5
28F
330
1F
100
AcDbEntity
  8
0
  6
Continuous
 62
     7
370
    25
100
AcDbLine
 10
782.7907169951
 20
574.923273201
 30
0.0
 11
791.2759983693
 21
583.4085545752
 31
0.0
  0
LINE
  5
290
330
1F
100
AcDbEntity
  8
0
  6
Continuous
 62
     7
370
    25
100
AcDbLine
 10
848.6930690016
 20
420.7739949023
 30
0.0
 11
857.1783503759
 21
412.2887135281
 31
0.0
  0
CIRCLE
  5
291
330
1F
100
AcDbEntity
  8
0
  6
Continuous
 62
     7
370
    25
100
AcDbCircle
 10
274.9912674505
 20
428.0194325277
 30
0.0
 40
6.637921400061316
  0
CIRCLE
  5
292
330
1F
100
AcDbEntity
  8
0
  6
Continuous
 62
     7
370
    25
100
AcDbCircle
 10
-241.044558418
 20
-188.3389536076
 30
0.0
 40
6.637921400061373
  0
CIRCLE
  5
293
330
1F
100
AcDbEntity
  8
0
  6
Continuous
 62
     7
370
    25
100
AcDbCircle
 10
-43.9373275545
 20
-92.1685863351
 30
0.0
 40
6.63792140006143
  0
CIRCLE
  5
294
330
1F
100
AcDbEntity
  8
0
  6
Continuous
 62
     7
370
    25
100
AcDbCircle
 10
-262.8802705617
 20
168.0321244263
 30
0.0
 40
6.637921400061373
  0
CIRCLE
  5
295
330
1F
100
AcDbEntity
  8
0
  6
Continuous
 62
     7
370
    25
100
AcDbCircle
 10
-104.8102734475
 20
467.5225117538
 30
0.0
 40
6.637921400061373
  0
CIRCLE
  5
296
330
1F
100
AcDbEntity
  8
0
  6
Continuous
 62
     7
370
    25
100
AcDbCircle
 10
208.0862315615
 20
636.8823449193
 30
0.0
 40
6.637921400061373
  0
CIRCLE
  5
297
330
1F
100
AcDbEntity
  8
0
  6
Continuous
 62
     7
370
    25
100
AcDbCircle
 10
-43.9112189673
 20
155.6808312207
 30
0.0
 40
6.637921400061401
  0
CIRCLE
  5
298
330
1F
100
AcDbEntity
  8
0
  6
Continuous
 62
     7
370
    25
100
AcDbCircle
 10
58.8736081423
 20
321.5513265571
 30
0.0
 40
6.63792140006143
  0
LINE
  5
299
330
1F
100
AcDbEntity
  8
0
  6
Continuous
 62
     7
370
    25
100
AcDbLine
 10
779.6794471578
 20
463.483244486
 30
0.0
 11
776.8510200331
 21
464.8974580483
 31
0.0
  0
LINE
  5
29A
330
1F
100
AcDbEntity
  8
0
  6
Continuous
 62
     7
370
    25
100
AcDbLine
 10
779.6794471578
 20
466.3116716107
 30
0.0
 11
776.8510200331
 21
464.8974580483
 31
0.0
  0
ARC
  5
29B
330
1F
100
AcDbEntity
  8
0
  6
Continuous
 62
     7
370
    25
100
AcDbCircle
 10
778.2652335955
 20
464.8974580483
 30
0.0
 40
2.000000000000056
100
AcDbArc
 50
315.0
 51
45.0
  0
LINE
  5
29C
330
1F
100
AcDbEntity
  8
0
  6
Continuous
 62
     7
370
    25
100
AcDbLine
 10
738.667253849
 20
503.0812242324
 30
0.0
 11
700.4834876649
 21
464.8974580483
 31
0.0
  0
LINE
  5
29D
330
1F
100
AcDbEntity
  8
0
  6
Continuous
 62
     7
370
    25
100
AcDbLine
 10
776.8510200331
 20
464.8974580483
 30
0.0
 11
738.667253849
 21
503.0812242324
 31
0.0
  0
LINE
  5
29E
330
1F
100
AcDbEntity
  8
0
  6
Continuous
 62
     7
370
    25
100
AcDbLine
 10
738.667253849
 20
426.7136918643
 30
0.0
 11
776.8510200331
 21
464.8974580483
 31
0.0
  0
LINE
  5
29F
330
1F
100
AcDbEntity
  8
0
  6
Continuous
 62
     7
370
    25
100
AcDbLine
 10
700.4834876649
 20
464.8974580483
 30
0.0
 11
738.667253849
 21
426.7136918643
 31
0.0
  0
CIRCLE
  5
2A0
330
1F
100
AcDbEntity
  8
0
  6
Continuous
 62
     7
370
    25
100
AcDbCircle
 10
738.667253849
 20
464.8974580483
 30
0.0
 40
1.000000000000008
  0
LINE
  5
2A1
330
1F
100
AcDbEntity
  8
0
  6
Continuous
 62
     7
370
    25
100
AcDbLine
 10
740.0814674114
 20
505.9096513572
 30
0.0
 11
738.667253849
 21
503.0812242324
 31
0.0
  0
LINE
  5
2A2
330
1F
100
AcDbEntity
  8
0
  6
Continuous
 62
     7
370
    25
100
AcDbLine
 10
737.2530402866
 20
505.9096513572
 30
0.0
 11
738.667253849
 21
503.0812242324
 31
0.0
  0
ARC
  5
2A3
330
1F
100
AcDbEntity
  8
0
  6
Continuous
 62
     7
370
    25
100
AcDbCircle
 10
738.667253849
 20
504.4954377948
 30
0.0
 40
1.999999999999976
100
AcDbArc
 50
45.0
 51
135.0
  0
LINE
  5
2A4
330
1F
100
AcDbEntity
  8
0
  6
Continuous
 62
     7
370
    25
100
AcDbLine
 10
738.667253849
 20
426.7136918643
 30
0.0
 11
740.0814674114
 21
423.8852647395
 31
0.0
  0
ARC
  5
2A5
330
1F
100
AcDbEntity
  8
0
  6
Continuous
 62
     7
370
    25
100
AcDbCircle
 10
738.667253849
 20
425.2994783019
 30
0.0
 40
1.999999999999936
100
AcDbArc
 50
225.0
 51
315.0
  0
LINE
  5
2A6
330
1F
100
AcDbEntity
  8
0
  6
Continuous
 62
     7
370
    25
100
AcDbLine
 10
738.667253849
 20
426.7136918643
 30
0.0
 11
737.2530402866
 21
423.8852647395
 31
0.0
  0
LINE
  5
2A7
330
1F
100
AcDbEntity
  8
0
  6
Continuous
 62
     7
370
    25
100
AcDbLine
 10
740.0814674114
 20
505.9096513572
 30
0.0
 11
779.6794471578
 21
466.3116716107
 31
0.0
  0
LINE
  5
2A8
330
1F
100
AcDbEntity
  8
0
  6
Continuous
 62
     7
370
    25
100
AcDbLine
 10
737.2530402866
 20
423.8852647395
 30
0.0
 11
697.6550605402
 21
463.483244486
 31
0.0
  0
LINE
  5
2A9
330
1F
100
AcDbEntity
  8
0
  6
Continuous
 62
     7
370
    25
100
AcDbLine
 10
700.4834876649
 20
464.8974580483
 30
0.0
 11
697.6550605402
 21
463.483244486
 31
0.0
  0
LINE
  5
2AA
330
1F
100
AcDbEntity
  8
0
  6
Continuous
 62
     7
370
    25
100
AcDbLine
 10
779.6794471578
 20
463.483244486
 30
0.0
 11
740.0814674114
 21
423.8852647395
 31
0.0
  0
ARC
  5
2AB
330
1F
100
AcDbEntity
  8
0
  6
Continuous
 62
     7
370
    25
100
AcDbCircle
 10
699.0692741026
 20
464.8974580483
 30
0.0
 40
2.000000000000056
100
AcDbArc
 50
135.0
 51
225.0
  0
LINE
  5
2AC
330
1F
100
AcDbEntity
  8
0
  6
Continuous
 62
     7
370
    25
100
AcDbLine
 10
700.4834876649
 20
464.8974580483
 30
0.0
 11
697.6550605402
 21
466.3116716107
 31
0.0
  0
LINE
  5
2AD
330
1F
100
AcDbEntity
  8
0
  6
Continuous
 62
     7
370
    25
100
AcDbLine
 10
697.6550605402
 20
466.3116716107
 30
0.0
 11
737.2530402866
 21
505.9096513572
 31
0.0
  0
LINE
  5
2AE
330
1F
100
AcDbEntity
  8
0
  6
Continuous
 62
     7
370
    25
100
AcDbLine
 10
828.7412118907
 20
682.9577434848
 30
0.0
 11
826.8007826001
 21
681.0173141942
 31
0.0
  0
LINE
  5
2AF
330
1F
100
AcDbEntity
  8
0
  6
Continuous
 62
     7
370
    25
100
AcDbLine
 10
826.8007826001
 20
681.0173141942
 30
0.0
 11
824.6416900176
 21
683.1764067767
 31
0.0
  0
LWPOLYLINE
  5
2B0
330
1F
100
AcDbEntity
  8
0
  6
Continuous
 62
     7
370
    25
100
AcDbPolyline
 90
        3
 70
   128
 43
0.0
 10
824.6416900176
 20
683.1764067767
 10
825.3632526339
 20
684.3561864535
 10
826.2663381565
 20
685.4326172189
  0
ARC
  5
2B1
330
1F
100
AcDbEntity
  8
0
  6
Continuous
 62
     7
370
    25
100
AcDbCircle
 10
832.628000854
 20
678.9769016771
 30
0.0
 40
9.063499072319225
100
AcDbArc
 50
116.9341061893
 51
134.5795759308
  0
LINE
  5
2B2
330
1F
100
AcDbEntity
  8
0
  6
Continuous
 62
     7
370
    25
100
AcDbLine
 10
830.6816411812
 20
684.8981727753
 30
0.0
 11
828.5225485987
 21
687.0572653578
 31
0.0
  0
LINE
  5
2B3
330
1F
100
AcDbEntity
  8
0
  6
Continuous
 62
     7
370
    25
100
AcDbLine
 10
830.6816411812
 20
684.8981727753
 30
0.0
 11
828.7412118907
 21
682.9577434848
 31
0.0
  0
LINE
  5
2B4
330
1F
100
AcDbEntity
  8
0
  6
Continuous
 62
     7
370
    25
100
AcDbLine
 10
829.7256628978
 20
688.8919419602
 30
0.0
 11
826.2663381565
 21
685.4326172189
 31
0.0
  0
LWPOLYLINE
  5
2B5
330
1F
100
AcDbEntity
  8
0
  6
Continuous
 62
     7
370
    25
100
AcDbPolyline
 90
        3
 70
   128
 43
0.0
 10
828.5225485987
 20
687.0572653578
 10
829.0375898742
 20
688.0305236938
 10
829.7256628978
 20
688.8919419602
  0
LINE
  5
2B6
330
1F
100
AcDbEntity
  8
0
  6
Continuous
 62
     7
370
    25
100
AcDbLine
 10
833.7276607982
 20
687.2370856111
 30
0.0
 11
826.6565929863
 21
680.1660177992
 31
0.0
  0
ARC
  5
2B7
330
1F
100
AcDbEntity
  8
0
  6
Continuous
 62
     7
370
    25
100
AcDbCircle
 10
833.7006026537
 20
684.8308416612
 30
0.0
 40
5.682665017521169
100
AcDbArc
 50
112.1251038583
 51
134.3857115822
  0
LINE
  5
2B8
330
1F
100
AcDbEntity
  8
0
  6
Continuous
 62
     7
370
    25
100
AcDbLine
 10
833.7194320827
 20
687.9359636768
 30
0.0
 11
831.5603395002
 21
690.0950562593
 31
0.0
  0
LINE
  5
2B9
330
1F
100
AcDbEntity
  8
0
  6
Continuous
 62
     7
370
    25
100
AcDbLine
 10
833.7194320827
 20
687.9359636768
 30
0.0
 11
832.200536632
 21
686.4170682261
 31
0.0
  0
LINE
  5
2BA
330
1F
100
AcDbEntity
  8
0
  6
Continuous
 62
     7
370
    25
100
AcDbLine
 10
832.200536632
 20
686.4170682261
 30
0.0
 11
830.6816411812
 21
684.8981727753
 31
0.0
  0
LWPOLYLINE
  5
2BB
330
1F
100
AcDbEntity
  8
0
  6
Continuous
 62
     7
370
    25
100
AcDbPolyline
 90
        3
 70
   128
 43
0.0
 10
823.9043750262
 20
683.0706540886
 10
824.0220759301
 20
683.1509842531
 10
824.6416900176
 20
683.1764067767
  0
LINE
  5
2BC
330
1F
100
AcDbEntity
  8
0
  6
Continuous
 62
     7
370
    25
100
AcDbLine
 10
823.9043750262
 20
683.0706540886
 30
0.0
 11
826.2663381565
 21
685.4326172189
 31
0.0
  0
LINE
  5
2BD
330
1F
100
AcDbEntity
  8
0
  6
Continuous
 62
     7
370
    25
100
AcDbLine
 10
826.3792487603
 20
680.5957803544
 30
0.0
 11
825.9577149206
 21
680.1742465147
 31
0.0
  0
LINE
  5
2BE
330
1F
100
AcDbEntity
  8
0
  6
Continuous
 62
     7
370
    25
100
AcDbLine
 10
825.9577149206
 20
680.1742465147
 30
0.0
 11
823.7986223381
 21
682.3333390972
 31
0.0
  0
LWPOLYLINE
  5
2BF
330
1F
100
AcDbEntity
  8
0
  6
Continuous
 62
     7
370
    25
100
AcDbPolyline
 90
        3
 70
   128
 43
0.0
 10
823.7986223381
 20
682.3333390972
 10
823.7738883795
 20
682.5323252764
 10
823.9043750262
 20
683.0706540886
  0
LINE
  5
2C0
330
1F
100
AcDbEntity
  8
0
  6
Continuous
 62
     7
370
    25
100
AcDbLine
 10
826.8007826001
 20
681.0173141942
 30
0.0
 11
826.3792487603
 21
680.5957803544
 31
0.0
  0
LINE
  5
2C1
330
1F
100
AcDbEntity
  8
0
  6
Continuous
 62
     7
370
    25
100
AcDbLine
 10
831.5603395002
 20
690.0950562593
 30
0.0
 11
831.0412464605
 21
690.0737580749
 31
0.0
  0
LINE
  5
2C2
330
1F
100
AcDbEntity
  8
0
  6
Continuous
 62
     7
370
    25
100
AcDbLine
 10
830.8992336734
 20
690.0655127358
 30
0.0
 11
829.7256628978
 21
688.8919419602
 31
0.0
  0
LINE
  5
2C3
330
1F
100
AcDbEntity
  8
0
  6
Continuous
 62
     7
370
    25
100
AcDbLine
 10
823.9043750262
 20
683.0706540886
 30
0.0
 11
823.8281658616
 21
682.994444924
 31
0.0
  0
LINE
  5
2C4
330
1F
100
AcDbEntity
  8
0
  6
Continuous
 62
     7
370
    25
100
AcDbLine
 10
956.7275392854
 20
554.97141609
 30
0.0
 11
958.667968576
 21
556.9118453805
 31
0.0
  0
LINE
  5
2C5
330
1F
100
AcDbEntity
  8
0
  6
Continuous
 62
     7
370
    25
100
AcDbLine
 10
958.667968576
 20
556.9118453805
 30
0.0
 11
960.8270611585
 21
554.752752798
 31
0.0
  0
LWPOLYLINE
  5
2C6
330
1F
100
AcDbEntity
  8
0
  6
Continuous
 62
     7
370
    25
100
AcDbPolyline
 90
        3
 70
   128
 43
0.0
 10
960.8270611585
 20
554.752752798
 10
960.1054985422
 20
553.5729731212
 10
959.2024130196
 20
552.4965423558
  0
ARC
  5
2C7
330
1F
100
AcDbEntity
  8
0
  6
Continuous
 62
     7
370
    25
100
AcDbCircle
 10
952.8407503221
 20
558.9522578977
 30
0.0
 40
9.063499072315603
100
AcDbArc
 50
296.9341061893
 51
314.5795759308
  0
LINE
  5
2C8
330
1F
100
AcDbEntity
  8
0
  6
Continuous
 62
     7
370
    25
100
AcDbLine
 10
954.7871099949
 20
553.0309867995
 30
0.0
 11
956.9462025774
 21
550.8718942169
 31
0.0
  0
LINE
  5
2C9
330
1F
100
AcDbEntity
  8
0
  6
Continuous
 62
     7
370
    25
100
AcDbLine
 10
954.7871099949
 20
553.0309867995
 30
0.0
 11
956.7275392854
 21
554.97141609
 31
0.0
  0
LINE
  5
2CA
330
1F
100
AcDbEntity
  8
0
  6
Continuous
 62
     7
370
    25
100
AcDbLine
 10
959.2024130196
 20
552.4965423558
 30
0.0
 11
962.6617377609
 21
555.9558670971
 31
0.0
  0
ARC
  5
2CB
330
1F
100
AcDbEntity
  8
0
  6
Continuous
 62
     7
370
    25
100
AcDbCircle
 10
958.686798005
 20
560.0169673962
 30
0.0
 40
5.682665017541234
100
AcDbArc
 50
292.1251038583
 51
314.3857115822
  0
LINE
  5
2CC
330
1F
100
AcDbEntity
  8
0
  6
Continuous
 62
     7
370
    25
100
AcDbLine
 10
953.9358135999
 20
552.8867971856
 30
0.0
 11
961.0068814118
 21
559.9578649975
 31
0.0
  0
LINE
  5
2CD
330
1F
100
AcDbEntity
  8
0
  6
Continuous
 62
     7
370
    25
100
AcDbLine
 10
960.1868640267
 20
558.4307408313
 30
0.0
 11
961.7057594775
 21
559.9496362821
 31
0.0
  0
LINE
  5
2CE
330
1F
100
AcDbEntity
  8
0
  6
Continuous
 62
     7
370
    25
100
AcDbLine
 10
961.7057594775
 20
559.9496362821
 30
0.0
 11
963.86485206
 21
557.7905436995
 31
0.0
  0
LWPOLYLINE
  5
2CF
330
1F
100
AcDbEntity
  8
0
  6
Continuous
 62
     7
370
    25
100
AcDbPolyline
 90
        3
 70
   128
 43
0.0
 10
963.86485206
 20
557.7905436995
 10
963.3498107845
 20
556.8172853635
 10
962.6617377609
 20
555.9558670971
  0
LINE
  5
2D0
330
1F
100
AcDbEntity
  8
0
  6
Continuous
 62
     7
370
    25
100
AcDbLine
 10
958.667968576
 20
556.9118453805
 30
0.0
 11
960.1868640267
 21
558.4307408313
 31
0.0
  0
LWPOLYLINE
  5
2D1
330
1F
100
AcDbEntity
  8
0
  6
Continuous
 62
     7
370
    25
100
AcDbPolyline
 90
        3
 70
   128
 43
0.0
 10
956.9462025774
 20
550.8718942169
 10
956.9207800537
 20
550.2522801293
 10
956.8404498893
 20
550.1345792255
  0
LINE
  5
2D2
330
1F
100
AcDbEntity
  8
0
  6
Continuous
 62
     7
370
    25
100
AcDbLine
 10
956.8404498893
 20
550.1345792255
 30
0.0
 11
959.2024130196
 21
552.4965423558
 31
0.0
  0
LWPOLYLINE
  5
2D3
330
1F
100
AcDbEntity
  8
0
  6
Continuous
 62
     7
370
    25
100
AcDbPolyline
 90
        3
 70
   128
 43
0.0
 10
956.8404498893
 20
550.1345792255
 10
956.3021210771
 20
550.0040925788
 10
956.1031348979
 20
550.0288265374
  0
LINE
  5
2D4
330
1F
100
AcDbEntity
  8
0
  6
Continuous
 62
     7
370
    25
100
AcDbLine
 10
953.9440423153
 20
552.1879191199
 30
0.0
 11
956.1031348979
 21
550.0288265374
 31
0.0
  0
LINE
  5
2D5
330
1F
100
AcDbEntity
  8
0
  6
Continuous
 62
     7
370
    25
100
AcDbLine
 10
953.9440423153
 20
552.1879191199
 30
0.0
 11
954.3655761551
 21
552.6094529597
 31
0.0
  0
LINE
  5
2D6
330
1F
100
AcDbEntity
  8
0
  6
Continuous
 62
     7
370
    25
100
AcDbLine
 10
954.3655761551
 20
552.6094529597
 30
0.0
 11
954.7871099949
 21
553.0309867995
 31
0.0
  0
LINE
  5
2D7
330
1F
100
AcDbEntity
  8
0
  6
Continuous
 62
     7
370
    25
100
AcDbLine
 10
963.8435538756
 20
557.2714506598
 30
0.0
 11
963.86485206
 21
557.7905436995
 31
0.0
  0
LINE
  5
2D8
330
1F
100
AcDbEntity
  8
0
  6
Continuous
 62
     7
370
    25
100
AcDbLine
 10
963.8353085365
 20
557.1294378728
 30
0.0
 11
962.6617377609
 21
555.9558670971
 31
0.0
  0
LINE
  5
2D9
330
1F
100
AcDbEntity
  8
0
  6
Continuous
 62
     7
370
    25
100
AcDbLine
 10
924.6294195002
 20
593.5068997843
 30
0.0
 11
920.3867788131
 21
589.2642590972
 31
0.0
  0
LINE
  5
2DA
330
1F
100
AcDbEntity
  8
0
  6
Continuous
 62
     7
370
    25
100
AcDbLine
 10
923.8452380799
 20
593.5068997843
 30
0.0
 11
920.3867788131
 21
590.0484405175
 31
0.0
  0
LINE
  5
2DB
330
1F
100
AcDbEntity
  8
0
  6
Continuous
 62
     7
370
    25
100
AcDbLine
 10
956.7642407246
 20
550.0583700609
 30
0.0
 11
956.8404498893
 21
550.1345792255
 31
0.0
  0
ARC
  5
2DC
330
1F
100
AcDbEntity
  8
0
  6
Continuous
 62
     7
370
    25
100
AcDbCircle
 10
893.831737199
 20
620.0619413984
 30
0.0
 40
90.0
100
AcDbArc
 50
240.0739927692
 51
315.0
  0
LWPOLYLINE
  5
2DD
330
1F
100
AcDbEntity
  8
0
  6
Continuous
 62
     7
370
    25
100
AcDbPolyline
 90
        3
 70
   128
 43
0.0
 10
843.8335271748
 20
545.227597716
 10
842.2098579274
 20
546.3382574124
 10
841.6888369268
 20
546.7058376905
  0
ARC
  5
2DE
330
1F
100
AcDbEntity
  8
0
  6
Continuous
 62
     7
370
    25
100
AcDbCircle
 10
893.831737199
 20
620.0619413984
 30
0.0
 40
89.99999999999999
100
AcDbArc
 50
75.0
 51
195.0
  0
ARC
  5
2DF
330
1F
100
AcDbEntity
  8
0
  6
Continuous
 62
     7
370
    25
100
AcDbCircle
 10
893.831737199
 20
620.0619413984
 30
0.0
 40
90.00000000000006
100
AcDbArc
 50
315.0
 51
64.4712206345
  0
ARC
  5
2E0
330
1F
100
AcDbEntity
  8
0
  6
Continuous
 62
     7
370
    25
100
AcDbCircle
 10
893.831737199
 20
620.0619413984
 30
0.0
 40
42.44329884735011
100
AcDbArc
 50
180.0227985683
 51
310.9468092395
  0
ARC
  5
2E1
330
1F
100
AcDbEntity
  8
0
  6
Continuous
 62
     7
370
    25
100
AcDbCircle
 10
893.831737199
 20
620.0619413984
 30
0.0
 40
42.44329884735004
100
AcDbArc
 50
319.0531907605
 51
89.9772014317
  0
LWPOLYLINE
  5
2E2
330
1F
100
AcDbEntity
  8
0
  6
Continuous
 62
     7
370
    25
100
AcDbPolyline
 90
        7
 70
   128
 43
0.0
 10
840.7915946153
 20
674.0823596341
 10
841.3942912792
 20
674.5587989701
 10
842.1339638071
 20
674.9928500602
 10
842.7856769932
 20
675.2174751452
 10
843.2662965041
 20
675.1887903965
 10
843.4863209916
 20
674.8816363823
 10
843.453468205
 20
674.6828510795
  0
LWPOLYLINE
  5
2E3
330
1F
100
AcDbEntity
  8
0
  6
Continuous
 62
     7
370
    25
100
AcDbPolyline
 90
        7
 70
   128
 43
0.0
 10
948.4248433035
 20
569.711475981
 10
948.6788457743
 20
569.7116788009
 10
948.9690633185
 20
569.4717476248
 10
948.9741769016
 20
568.9507727766
 10
948.6847767927
 20
568.2087273607
 10
948.1437911775
 20
567.3688866274
 10
947.8462530534
 20
567.0250553913
  0
ARC
  5
2E4
330
1F
100
AcDbEntity
  8
0
  6
Continuous
 62
     7
370
    25
100
AcDbCircle
 10
846.9681921371
 20
674.0169823802
 30
0.0
 40
2.500034944564677
100
AcDbArc
 50
315.302938807
 51
134.697061193
  0
ARC
  5
2E5
330
1F
100
AcDbEntity
  8
0
  6
Continuous
 62
     7
370
    25
100
AcDbCircle
 10
846.9856364703
 20
674.0344267133
 30
0.0
 40
2.50003494456476
100
AcDbArc
 50
315.302938807
 51
134.697061193
  0
ARC
  5
2E6
330
1F
100
AcDbEntity
  8
0
  6
Continuous
 62
     7
370
    25
100
AcDbCircle
 10
837.6725903861
 20
669.6734451256
 30
0.0
 40
2.287123699521981
100
AcDbArc
 50
353.0181456685
 51
50.5186887893
  0
ARC
  5
2E7
330
1F
100
AcDbEntity
  8
0
  6
Continuous
 62
     7
370
    25
100
AcDbCircle
 10
837.4531189734
 20
669.562165926
 30
0.0
 40
2.514493817873215
100
AcDbArc
 50
48.2704621055
 51
169.034220919
  0
ARC
  5
2E8
330
1F
100
AcDbEntity
  8
0
  6
Continuous
 62
     7
370
    25
100
AcDbCircle
 10
837.6816802823
 20
669.7433156302
 30
0.0
 40
2.287123699521404
100
AcDbArc
 50
353.0181456685
 51
50.5186887893
  0
ARC
  5
2E9
330
1F
100
AcDbEntity
  8
0
  6
Continuous
 62
     7
370
    25
100
AcDbCircle
 10
837.4622088696
 20
669.6320364305
 30
0.0
 40
2.514493817873224
100
AcDbArc
 50
48.2704621055
 51
169.034220919
  0
ARC
  5
2EA
330
1F
100
AcDbEntity
  8
0
  6
Continuous
 62
     7
370
    25
100
AcDbCircle
 10
947.7867781808
 20
573.1983963365
 30
0.0
 40
2.500034944564759
100
AcDbArc
 50
315.302938807
 51
134.697061193
  0
ARC
  5
2EB
330
1F
100
AcDbEntity
  8
0
  6
Continuous
 62
     7
370
    25
100
AcDbCircle
 10
947.804222514
 20
573.2158406696
 30
0.0
 40
2.500034944564761
100
AcDbArc
 50
315.302938807
 51
134.697061193
  0
ARC
  5
2EC
330
1F
100
AcDbEntity
  8
0
  6
Continuous
 62
     7
370
    25
100
AcDbCircle
 10
855.3317330757
 20
552.2250755063
 30
0.0
 40
2.502887367845621
100
AcDbArc
 50
280.1647284948
 51
94.6599507363
  0
ARC
  5
2ED
330
1F
100
AcDbEntity
  8
0
  6
Continuous
 62
     7
370
    25
100
AcDbCircle
 10
855.4016035803
 20
552.2341654024
 30
0.0
 40
2.502887367845682
100
AcDbArc
 50
280.1647284948
 51
94.6599507363
  0
ARC
  5
2EE
330
1F
100
AcDbEntity
  8
0
  6
Continuous
 62
     7
370
    25
100
AcDbCircle
 10
880.4851147134
 20
555.4974381344
 30
0.0
 40
2.502887367845529
100
AcDbArc
 50
280.1647284948
 51
94.6599507363
  0
ARC
  5
2EF
330
1F
100
AcDbEntity
  8
0
  6
Continuous
 62
     7
370
    25
100
AcDbCircle
 10
880.5549852179
 20
555.5065280306
 30
0.0
 40
2.502887367845581
100
AcDbArc
 50
280.1647284948
 51
94.6599507363
  0
ARC
  5
2F0
330
1F
100
AcDbEntity
  8
0
  6
Continuous
 62
     7
370
    25
100
AcDbCircle
 10
905.6384963511
 20
558.7698007625
 30
0.0
 40
2.502887367845455
100
AcDbArc
 50
280.1647284948
 51
94.6599507363
  0
ARC
  5
2F1
330
1F
100
AcDbEntity
  8
0
  6
Continuous
 62
     7
370
    25
100
AcDbCircle
 10
905.7083668556
 20
558.7788906587
 30
0.0
 40
2.502887367845581
100
AcDbArc
 50
280.1647284948
 51
94.6599507364
  0
ARC
  5
2F2
330
1F
100
AcDbEntity
  8
0
  6
Continuous
 62
     7
370
    25
100
AcDbCircle
 10
918.2151871699
 20
560.4059820766
 30
0.0
 40
2.502887367845489
100
AcDbArc
 50
280.1647284948
 51
94.6599507363
  0
ARC
  5
2F3
330
1F
100
AcDbEntity
  8
0
  6
Continuous
 62
     7
370
    25
100
AcDbCircle
 10
918.2850576744
 20
560.4150719727
 30
0.0
 40
2.50288736784555
100
AcDbArc
 50
280.1647284948
 51
94.6599507363
  0
ARC
  5
2F4
330
1F
100
AcDbEntity
  8
0
  6
Continuous
 62
     7
370
    25
100
AcDbCircle
 10
930.7918779887
 20
562.0421633906
 30
0.0
 40
2.502887367845489
100
AcDbArc
 50
280.1647284948
 51
94.6599507363
  0
ARC
  5
2F5
330
1F
100
AcDbEntity
  8
0
  6
Continuous
 62
     7
370
    25
100
AcDbCircle
 10
930.8617484933
 20
562.0512532868
 30
0.0
 40
2.502887367845489
100
AcDbArc
 50
280.1647284948
 51
94.6599507364
  0
ARC
  5
2F6
330
1F
100
AcDbEntity
  8
0
  6
Continuous
 62
     7
370
    25
100
AcDbCircle
 10
943.3685688076
 20
563.6783447047
 30
0.0
 40
2.502887367845489
100
AcDbArc
 50
280.1647284948
 51
94.6599507363
  0
ARC
  5
2F7
330
1F
100
AcDbEntity
  8
0
  6
Continuous
 62
     7
370
    25
100
AcDbCircle
 10
943.4384393121
 20
563.6874346008
 30
0.0
 40
2.502887367845569
100
AcDbArc
 50
280.1647284948
 51
94.6599507363
  0
ARC
  5
2F8
330
1F
100
AcDbEntity
  8
0
  6
Continuous
 62
     7
370
    25
100
AcDbCircle
 10
836.0364090721
 20
657.0967543068
 30
0.0
 40
2.287123699522644
100
AcDbArc
 50
353.0181456685
 51
50.5186887892
  0
ARC
  5
2F9
330
1F
100
AcDbEntity
  8
0
  6
Continuous
 62
     7
370
    25
100
AcDbCircle
 10
835.8169376593
 20
656.9854751071
 30
0.0
 40
2.514493817873376
100
AcDbArc
 50
48.2704621055
 51
169.034220919
  0
ARC
  5
2FA
330
1F
100
AcDbEntity
  8
0
  6
Continuous
 62
     7
370
    25
100
AcDbCircle
 10
836.0454989683
 20
657.1666248113
 30
0.0
 40
2.287123699511434
100
AcDbArc
 50
353.0181456684
 51
50.5186887894
  0
ARC
  5
2FB
330
1F
100
AcDbEntity
  8
0
  6
Continuous
 62
     7
370
    25
100
AcDbCircle
 10
835.8260275555
 20
657.0553456117
 30
0.0
 40
2.514493817873357
100
AcDbArc
 50
48.2704621055
 51
169.034220919
  0
ARC
  5
2FC
330
1F
100
AcDbEntity
  8
0
  6
Continuous
 62
     7
370
    25
100
AcDbCircle
 10
830.8646792387
 20
619.309207419
 30
0.0
 40
2.461744998211865
100
AcDbArc
 50
69.1669254313
 51
170.070150405
  0
ARC
  5
2FD
330
1F
100
AcDbEntity
  8
0
  6
Continuous
 62
     7
370
    25
100
AcDbCircle
 10
830.875615753
 20
619.3779217274
 30
0.0
 40
2.463763466963312
100
AcDbArc
 50
68.1088163356
 51
170.0510707331
  0
ARC
  5
2FE
330
1F
100
AcDbEntity
  8
0
  6
Continuous
 62
     7
370
    25
100
AcDbCircle
 10
832.7640464439
 20
631.9433726691
 30
0.0
 40
2.287123699522829
100
AcDbArc
 50
353.0181456685
 51
50.5186887892
  0
ARC
  5
2FF
330
1F
100
AcDbEntity
  8
0
  6
Continuous
 62
     7
370
    25
100
AcDbCircle
 10
832.5445750312
 20
631.8320934695
 30
0.0
 40
2.51449381787327
100
AcDbArc
 50
48.2704621055
 51
169.034220919
  0
ARC
  5
300
330
1F
100
AcDbEntity
  8
0
  6
Continuous
 62
     7
370
    25
100
AcDbCircle
 10
832.7731363401
 20
632.0132431737
 30
0.0
 40
2.287123699517986
100
AcDbArc
 50
353.0181456684
 51
50.5186887893
  0
ARC
  5
301
330
1F
100
AcDbEntity
  8
0
  6
Continuous
 62
     7
370
    25
100
AcDbCircle
 10
832.5536649274
 20
631.901963974
 30
0.0
 40
2.514493817873379
100
AcDbArc
 50
48.2704621055
 51
169.034220919
  0
ARC
  5
302
330
1F
100
AcDbEntity
  8
0
  6
Continuous
 62
     7
370
    25
100
AcDbCircle
 10
834.400227758
 20
644.5200634879
 30
0.0
 40
2.287123699522415
100
AcDbArc
 50
353.0181456685
 51
50.5186887893
  0
ARC
  5
303
330
1F
100
AcDbEntity
  8
0
  6
Continuous
 62
     7
370
    25
100
AcDbCircle
 10
834.1807563453
 20
644.4087842883
 30
0.0
 40
2.51449381787346
100
AcDbArc
 50
48.2704621055
 51
169.034220919
  0
ARC
  5
304
330
1F
100
AcDbEntity
  8
0
  6
Continuous
 62
     7
370
    25
100
AcDbCircle
 10
834.4093176542
 20
644.5899339925
 30
0.0
 40
2.287123699517568
100
AcDbArc
 50
353.0181456684
 51
50.5186887893
  0
ARC
  5
305
330
1F
100
AcDbEntity
  8
0
  6
Continuous
 62
     7
370
    25
100
AcDbCircle
 10
834.1898462415
 20
644.4786547929
 30
0.0
 40
2.514493817873376
100
AcDbArc
 50
48.2704621055
 51
169.034220919
  0
ARC
  5
306
330
1F
100
AcDbEntity
  8
0
  6
Continuous
 62
     7
370
    25
100
AcDbCircle
 10
867.9084238945
 20
553.8612568203
 30
0.0
 40
2.502887367845654
100
AcDbArc
 50
280.1647284948
 51
94.6599507363
  0
ARC
  5
307
330
1F
100
AcDbEntity
  8
0
  6
Continuous
 62
     7
370
    25
100
AcDbCircle
 10
867.9782943991
 20
553.8703467165
 30
0.0
 40
2.502887367845661
100
AcDbArc
 50
280.1647284948
 51
94.6599507363
  0
ARC
  5
308
330
1F
100
AcDbEntity
  8
0
  6
Continuous
 62
     7
370
    25
100
AcDbCircle
 10
893.0618055322
 20
557.1336194484
 30
0.0
 40
2.502887367845654
100
AcDbArc
 50
280.1647284948
 51
94.6599507363
  0
ARC
  5
309
330
1F
100
AcDbEntity
  8
0
  6
Continuous
 62
     7
370
    25
100
AcDbCircle
 10
893.1316760368
 20
557.1427093446
 30
0.0
 40
2.502887367845455
100
AcDbArc
 50
280.1647284948
 51
94.6599507363
  0
LWPOLYLINE
  5
30A
330
1F
100
AcDbEntity
  8
0
  6
Continuous
 62
     7
370
    25
100
AcDbPolyline
 90
        9
 70
   128
 43
0.0
 10
759.6274426756
 20
514.1419181224
 10
759.8725694191
 20
514.3055237147
 10
760.1897972305
 20
514.3813208848
 10
760.5669352228
 20
514.3663967898
 10
760.9894901947
 20
514.2613249543
 10
761.4412235953
 20
514.0701432301
 10
761.9047755635
 20
513.8001986237
 10
762.3623320572
 20
513.4618649547
 10
762.7963094368
 20
513.0681441965
  0
LWPOLYLINE
  5
30B
330
1F
100
AcDbEntity
  8
0
  6
Continuous
 62
     7
370
    25
100
AcDbPolyline
 90
        9
 70
   128
 43
0.0
 10
787.911713923
 20
485.8576468749
 10
788.0753195154
 20
486.1027736184
 10
788.1511166854
 20
486.4200014298
 10
788.1361925904
 20
486.7971394222
 10
788.031120755
 20
487.219694394
 10
787.8399390308
 20
487.6714277946
 10
787.5699944243
 20
488.1349797629
 10
787.2316607554
 20
488.5925362565
 10
786.8379399971
 20
489.0265136361
  0
LINE
  5
30C
330
1F
100
AcDbEntity
  8
0
  6
Continuous
 62
     7
370
    25
100
AcDbLine
 10
759.6274426756
 20
514.1419181224
 30
0.0
 11
756.3449233787
 21
510.8593988255
 31
0.0
  0
LINE
  5
30D
330
1F
100
AcDbEntity
  8
0
  6
Continuous
 62
     7
370
    25
100
AcDbLine
 10
787.911713923
 20
485.8576468749
 30
0.0
 11
784.6291946261
 21
482.575127578
 31
0.0
  0
LINE
  5
30E
330
1F
100
AcDbEntity
  8
0
  6
Continuous
 62
     7
370
    25
100
AcDbLine
 10
786.8379399971
 20
489.0265136361
 30
0.0
 11
793.8215827816
 21
496.0101564206
 31
0.0
  0
LINE
  5
30F
330
1F
100
AcDbEntity
  8
0
  6
Continuous
 62
     7
370
    25
100
AcDbLine
 10
769.7799522212
 20
520.0517869809
 30
0.0
 11
762.7963094368
 21
513.0681441965
 31
0.0
  0
LINE
  5
310
330
1F
100
AcDbEntity
  8
0
  6
Continuous
 62
     7
370
    25
100
AcDbLine
 10
770.840612393
 20
518.9911268091
 30
0.0
 11
769.7799522212
 21
520.0517869809
 31
0.0
  0
LINE
  5
311
330
1F
100
AcDbEntity
  8
0
  6
Continuous
 62
     7
370
    25
100
AcDbLine
 10
793.8215827816
 20
496.0101564206
 30
0.0
 11
792.7609226098
 21
497.0708165923
 31
0.0
  0
LINE
  5
312
330
1F
100
AcDbEntity
  8
0
  6
Continuous
 62
     7
370
    25
100
AcDbLine
 10
759.6274426756
 20
514.1419181224
 30
0.0
 11
767.6586318777
 21
522.1731073245
 31
0.0
  0
LINE
  5
313
330
1F
100
AcDbEntity
  8
0
  6
Continuous
 62
     7
370
    25
100
AcDbLine
 10
767.6586318777
 20
522.1731073245
 30
0.0
 11
769.7799522212
 21
520.0517869809
 31
0.0
  0
LINE
  5
314
330
1F
100
AcDbEntity
  8
0
  6
Continuous
 62
     7
370
    25
100
AcDbLine
 10
793.8215827816
 20
496.0101564206
 30
0.0
 11
795.9429031251
 21
493.888836077
 31
0.0
  0
LINE
  5
315
330
1F
100
AcDbEntity
  8
0
  6
Continuous
 62
     7
370
    25
100
AcDbLine
 10
795.9429031251
 20
493.888836077
 30
0.0
 11
787.911713923
 21
485.8576468749
 31
0.0
  0
ARC
  5
316
330
1F
100
AcDbEntity
  8
0
  6
Continuous
 62
     7
370
    25
100
AcDbCircle
 10
781.0936607202
 20
508.7380784819
 30
0.0
 40
19.00000000000002
100
AcDbArc
 50
106.1090147078
 51
135.0
  0
ARC
  5
317
330
1F
100
AcDbEntity
  8
0
  6
Continuous
 62
     7
370
    25
100
AcDbCircle
 10
782.5078742826
 20
507.3238649195
 30
0.0
 40
19.00000000000012
100
AcDbArc
 50
315.0
 51
357.536898363
  0
LINE
  5
318
330
1F
100
AcDbEntity
  8
0
  6
Continuous
 62
     7
370
    25
100
AcDbLine
 10
847.4333534533
 20
568.2633928
 30
0.0
 11
847.8154780285
 21
567.8812682248
 31
0.0
  0
LINE
  5
319
330
1F
100
AcDbEntity
  8
0
  6
Continuous
 62
     7
370
    25
100
AcDbLine
 10
841.6510640255
 20
574.0456822278
 30
0.0
 11
847.4333534533
 21
568.2633928
 31
0.0
  0
ARC
  5
31A
330
1F
100
AcDbEntity
  8
0
  6
Continuous
 62
     7
370
    25
100
AcDbCircle
 10
839.9832732198
 20
566.7653191352
 30
0.0
 40
13.79248192087586
100
AcDbArc
 50
52.9865246311
 51
63.0299261666
  0
ARC
  5
31B
330
1F
100
AcDbEntity
  8
0
  6
Continuous
 62
     7
370
    25
100
AcDbCircle
 10
844.7277522694
 20
576.96380447
 30
0.0
 40
2.582076261901527
100
AcDbArc
 50
35.80962436
 51
54.19037564
  0
ARC
  5
31C
330
1F
100
AcDbEntity
  8
0
  6
Continuous
 62
     7
370
    25
100
AcDbCircle
 10
840.5664910239
 20
566.1821013311
 30
0.0
 40
13.79248192086657
100
AcDbArc
 50
52.9865246311
 51
63.0299261666
  0
LINE
  5
31D
330
1F
100
AcDbEntity
  8
0
  6
Continuous
 62
     7
370
    25
100
AcDbLine
 10
848.8696042728
 20
577.1953146639
 30
0.0
 11
849.7649158541
 21
576.3000030826
 31
0.0
  0
ARC
  5
31E
330
1F
100
AcDbEntity
  8
0
  6
Continuous
 62
     7
370
    25
100
AcDbCircle
 10
846.7948830214
 20
574.8815949674
 30
0.0
 40
3.291348752195338
100
AcDbArc
 50
6.0479989323
 51
25.5278910824
  0
ARC
  5
31F
330
1F
100
AcDbEntity
  8
0
  6
Continuous
 62
     7
370
    25
100
AcDbCircle
 10
840.1557140676
 20
563.9045636423
 30
0.0
 40
15.04926610379535
100
AcDbArc
 50
41.1969894944
 51
48.8030105057
  0
ARC
  5
320
330
1F
100
AcDbEntity
  8
0
  6
Continuous
 62
     7
370
    25
100
AcDbCircle
 10
848.2064980514
 20
573.4699799374
 30
0.0
 40
3.291348752211474
100
AcDbArc
 50
6.0479989324
 51
25.5278910824
  0
LINE
  5
321
330
1F
100
AcDbEntity
  8
0
  6
Continuous
 62
     7
370
    25
100
AcDbLine
 10
851.1765308841
 20
574.8883880526
 30
0.0
 11
851.5483282687
 21
574.516590668
 31
0.0
  0
LWPOLYLINE
  5
322
330
1F
100
AcDbEntity
  8
0
  6
Continuous
 62
     7
370
    25
100
AcDbPolyline
 90
        3
 70
   128
 43
0.0
 10
851.5483282687
 20
574.516590668
 10
851.7272443633
 20
574.273879575
 10
851.8583420235
 20
574.0886683322
  0
LWPOLYLINE
  5
323
330
1F
100
AcDbEntity
  8
0
  6
Continuous
 62
     7
370
    25
100
AcDbPolyline
 90
        3
 70
   128
 43
0.0
 10
851.1457279436
 20
574.8547348508
 10
851.1440265592
 20
574.8570973791
 10
850.9651104646
 20
575.0998084721
  0
LINE
  5
324
330
1F
100
AcDbEntity
  8
0
  6
Continuous
 62
     7
370
    25
100
AcDbLine
 10
850.9651104646
 20
575.0998084721
 30
0.0
 11
850.0697988833
 21
575.9951200534
 31
0.0
  0
LWPOLYLINE
  5
325
330
1F
100
AcDbEntity
  8
0
  6
Continuous
 62
     7
370
    25
100
AcDbPolyline
 90
        3
 70
   128
 43
0.0
 10
850.0697988833
 20
575.9951200534
 10
849.9508023956
 20
576.0503215427
 10
849.8584030762
 20
576.0886072782
  0
LINE
  5
326
330
1F
100
AcDbEntity
  8
0
  6
Continuous
 62
     7
370
    25
100
AcDbLine
 10
848.6581838532
 20
577.4067350835
 30
0.0
 11
848.2863864687
 21
577.778532468
 31
0.0
  0
LINE
  5
327
330
1F
100
AcDbEntity
  8
0
  6
Continuous
 62
     7
370
    25
100
AcDbLine
 10
851.1765308841
 20
574.8883880526
 30
0.0
 11
850.7805848726
 21
574.5157038453
 31
0.0
  0
LINE
  5
328
330
1F
100
AcDbEntity
  8
0
  6
Continuous
 62
     7
370
    25
100
AcDbLine
 10
850.9651104646
 20
575.0998084721
 30
0.0
 11
850.5526440262
 21
574.7436446917
 31
0.0
  0
LINE
  5
329
330
1F
100
AcDbEntity
  8
0
  6
Continuous
 62
     7
370
    25
100
AcDbLine
 10
849.9016349283
 20
575.8164598206
 30
0.0
 11
850.0697988833
 21
575.9951200534
 31
0.0
  0
ARC
  5
32A
330
1F
100
AcDbEntity
  8
0
  6
Continuous
 62
     7
370
    25
100
AcDbCircle
 10
853.9256591824
 20
560.3568735085
 30
0.0
 40
0.9999999999999277
100
AcDbArc
 50
315.0
 51
45.0
  0
LINE
  5
32B
330
1F
100
AcDbEntity
  8
0
  6
Continuous
 62
     7
370
    25
100
AcDbLine
 10
853.9256591824
 20
560.3568735085
 30
0.0
 11
854.6327659636
 21
559.6497667273
 31
0.0
  0
LINE
  5
32C
330
1F
100
AcDbEntity
  8
0
  6
Continuous
 62
     7
370
    25
100
AcDbLine
 10
854.6327659636
 20
561.0639802897
 30
0.0
 11
853.9256591824
 21
560.3568735085
 31
0.0
  0
LINE
  5
32D
330
1F
100
AcDbEntity
  8
0
  6
Continuous
 62
     7
370
    25
100
AcDbLine
 10
834.8337760904
 20
580.8629701629
 30
0.0
 11
841.6510640255
 21
574.0456822278
 31
0.0
  0
LINE
  5
32E
330
1F
100
AcDbEntity
  8
0
  6
Continuous
 62
     7
370
    25
100
AcDbLine
 10
847.8154780285
 20
567.8812682248
 30
0.0
 11
854.6327659636
 21
561.0639802897
 31
0.0
  0
LINE
  5
32F
330
1F
100
AcDbEntity
  8
0
  6
Continuous
 62
     7
370
    25
100
AcDbLine
 10
853.9256591824
 20
560.3568735085
 30
0.0
 11
834.1266693092
 21
580.1558633818
 31
0.0
  0
LINE
  5
330
330
1F
100
AcDbEntity
  8
0
  6
Continuous
 62
     7
370
    25
100
AcDbLine
 10
834.8337760904
 20
580.8629701629
 30
0.0
 11
834.1266693092
 21
580.1558633818
 31
0.0
  0
LINE
  5
331
330
1F
100
AcDbEntity
  8
0
  6
Continuous
 62
     7
370
    25
100
AcDbLine
 10
740.0814674114
 20
505.9096513572
 30
0.0
 11
738.667253849
 21
507.3238649195
 31
0.0
  0
LINE
  5
332
330
1F
100
AcDbEntity
  8
0
  6
Continuous
 62
     7
370
    25
100
AcDbLine
 10
763.4200587817
 20
510.8634664167
 30
0.0
 11
779.7908124168
 21
527.2342200517
 31
0.0
  0
LINE
  5
333
330
1F
100
AcDbEntity
  8
0
  6
Continuous
 62
     7
370
    25
100
AcDbLine
 10
833.419562528
 20
580.8629701629
 30
0.0
 11
834.1266693092
 21
580.1558633818
 31
0.0
  0
LINE
  5
334
330
1F
100
AcDbEntity
  8
0
  6
Continuous
 62
     7
370
    25
100
AcDbLine
 10
740.0814674114
 20
508.7380784819
 30
0.0
 11
740.2027877549
 21
508.6167581384
 31
0.0
  0
LINE
  5
335
330
1F
100
AcDbEntity
  8
0
  6
Continuous
 62
     7
370
    25
100
AcDbLine
 10
854.6327659636
 20
559.6497667273
 30
0.0
 11
784.6332622173
 21
489.6502629811
 31
0.0
  0
ARC
  5
336
330
1F
100
AcDbEntity
  8
0
  6
Continuous
 62
     7
370
    25
100
AcDbCircle
 10
834.1266693092
 20
580.1558633818
 30
0.0
 40
1.000000000000088
100
AcDbArc
 50
45.0
 51
135.0
  0
LINE
  5
337
330
1F
100
AcDbEntity
  8
0
  6
Continuous
 62
     7
370
    25
100
AcDbLine
 10
839.1877820365
 20
586.6311896714
 30
0.0
 11
779.7908124168
 21
527.2342200517
 31
0.0
  0
LINE
  5
338
330
1F
100
AcDbEntity
  8
0
  6
Continuous
 62
     7
370
    25
100
AcDbLine
 10
860.4009854721
 20
364.3769298609
 30
0.0
 11
801.0040158524
 21
423.7738994806
 31
0.0
  0
LINE
  5
339
330
1F
100
AcDbEntity
  8
0
  6
Continuous
 62
     7
370
    25
100
AcDbLine
 10
616.9335222259
 20
565.4179862358
 30
0.0
 11
676.3304918456
 21
506.0210166161
 31
0.0
  0
LINE
  5
33A
330
1F
100
AcDbEntity
  8
0
  6
Continuous
 62
     7
370
    25
100
AcDbLine
 10
638.1467256615
 20
343.1637264253
 30
0.0
 11
697.5436952812
 21
402.5606960449
 31
0.0
  0
ARC
  5
33B
330
1F
100
AcDbEntity
  8
0
  6
Continuous
 62
     7
370
    25
100
AcDbCircle
 10
438.3065955485
 20
557.5926352561
 30
0.0
 40
48.80728905737375
100
AcDbArc
 50
63.0
 51
153.0
  0
LINE
  5
33C
330
1F
100
AcDbEntity
  8
0
  6
Continuous
 62
     7
370
    25
100
AcDbLine
 10
391.2636382621
 20
581.5622192129
 30
0.0
 11
394.8189825704
 21
579.7506808061
 31
0.0
  0
ARC
  5
33D
330
1F
100
AcDbEntity
  8
0
  6
Continuous
 62
     7
370
    25
100
AcDbCircle
 10
438.3065955485
 20
557.5926352561
 30
0.0
 40
52.797545258413
100
AcDbArc
 50
63.0
 51
153.0
  0
LINE
  5
33E
330
1F
100
AcDbEntity
  8
0
  6
Continuous
 62
     7
370
    25
100
AcDbLine
 10
462.2761795054
 20
604.6355925424
 30
0.0
 11
460.4646410986
 21
601.0802482341
 31
0.0
  0
LINE
  5
33F
330
1F
100
AcDbEntity
  8
0
  6
Continuous
 62
     7
370
    25
100
AcDbLine
 10
506.8265057148
 20
581.9360675555
 30
0.0
 11
462.2761795054
 21
604.6355925424
 31
0.0
  0
LINE
  5
340
330
1F
100
AcDbEntity
  8
0
  6
Continuous
 62
     7
370
    25
100
AcDbLine
 10
505.014967308
 20
578.3807232471
 30
0.0
 11
506.8265057148
 21
581.9360675555
 31
0.0
  0
LINE
  5
341
330
1F
100
AcDbEntity
  8
0
  6
Continuous
 62
     7
370
    25
100
AcDbLine
 10
460.4646410986
 20
601.0802482341
 30
0.0
 11
505.014967308
 21
578.3807232471
 31
0.0
  0
LINE
  5
342
330
1F
100
AcDbEntity
  8
0
  6
Continuous
 62
     7
370
    25
100
AcDbLine
 10
397.993353601
 20
478.4734430989
 30
0.0
 11
442.5436798104
 21
455.7739181119
 31
0.0
  0
ARC
  5
343
330
1F
100
AcDbEntity
  8
0
  6
Continuous
 62
     7
370
    25
100
AcDbCircle
 10
466.5132637673
 20
502.8168753983
 30
0.0
 40
52.79754525841302
100
AcDbArc
 50
243.0
 51
333.0
  0
LINE
  5
344
330
1F
100
AcDbEntity
  8
0
  6
Continuous
 62
     7
370
    25
100
AcDbLine
 10
513.5562210537
 20
478.8472914414
 30
0.0
 11
529.8998790443
 21
510.9235263122
 31
0.0
  0
ARC
  5
345
330
1F
100
AcDbEntity
  8
0
  6
Continuous
 62
     7
370
    25
100
AcDbCircle
 10
482.8569217579
 20
534.8931102691
 30
0.0
 40
52.79754525841309
100
AcDbArc
 50
333.0
 51
63.0
  0
LINE
  5
346
330
1F
100
AcDbEntity
  8
0
  6
Continuous
 62
     7
370
    25
100
AcDbLine
 10
391.2636382621
 20
581.5622192129
 30
0.0
 11
374.9199802715
 21
549.4859843422
 31
0.0
  0
ARC
  5
347
330
1F
100
AcDbEntity
  8
0
  6
Continuous
 62
     7
370
    25
100
AcDbCircle
 10
421.9629375579
 20
525.5164003853
 30
0.0
 40
52.79754525841309
100
AcDbArc
 50
153.0
 51
243.0
  0
LINE
  5
348
330
1F
100
AcDbEntity
  8
0
  6
Continuous
 62
     7
370
    25
100
AcDbLine
 10
378.4753245798
 20
547.6744459354
 30
0.0
 11
394.8189825704
 21
579.7506808061
 31
0.0
  0
LINE
  5
349
330
1F
100
AcDbEntity
  8
0
  6
Continuous
 62
     7
370
    25
100
AcDbLine
 10
374.9199802715
 20
549.4859843422
 30
0.0
 11
378.4753245798
 21
547.6744459354
 31
0.0
  0
LINE
  5
34A
330
1F
100
AcDbEntity
  8
0
  6
Continuous
 62
     7
370
    25
100
AcDbLine
 10
397.993353601
 20
478.4734430989
 30
0.0
 11
399.8048920078
 21
482.0287874072
 31
0.0
  0
LINE
  5
34B
330
1F
100
AcDbEntity
  8
0
  6
Continuous
 62
     7
370
    25
100
AcDbLine
 10
444.3552182172
 20
459.3292624202
 30
0.0
 11
399.8048920078
 21
482.0287874072
 31
0.0
  0
LINE
  5
34C
330
1F
100
AcDbEntity
  8
0
  6
Continuous
 62
     7
370
    25
100
AcDbLine
 10
444.3552182172
 20
459.3292624202
 30
0.0
 11
442.5436798104
 21
455.7739181119
 31
0.0
  0
ARC
  5
34D
330
1F
100
AcDbEntity
  8
0
  6
Continuous
 62
     7
370
    25
100
AcDbCircle
 10
421.9629375579
 20
525.5164003853
 30
0.0
 40
48.80728905737381
100
AcDbArc
 50
153.0
 51
243.0
  0
LINE
  5
34E
330
1F
100
AcDbEntity
  8
0
  6
Continuous
 62
     7
370
    25
100
AcDbLine
 10
526.344534736
 20
512.735064719
 30
0.0
 11
529.8998790443
 21
510.9235263122
 31
0.0
  0
ARC
  5
34F
330
1F
100
AcDbEntity
  8
0
  6
Continuous
 62
     7
370
    25
100
AcDbCircle
 10
482.8569217579
 20
534.8931102691
 30
0.0
 40
48.80728905737363
100
AcDbArc
 50
333.0
 51
63.0
  0
ARC
  5
350
330
1F
100
AcDbEntity
  8
0
  6
Continuous
 62
     7
370
    25
100
AcDbCircle
 10
466.5132637673
 20
502.8168753983
 30
0.0
 40
48.80728905737366
100
AcDbArc
 50
243.0
 51
333.0
  0
LINE
  5
351
330
1F
100
AcDbEntity
  8
0
  6
Continuous
 62
     7
370
    25
100
AcDbLine
 10
510.0008767453
 20
480.6588298482
 30
0.0
 11
513.5562210537
 21
478.8472914414
 31
0.0
  0
LINE
  5
352
330
1F
100
AcDbEntity
  8
0
  6
Continuous
 62
     7
370
    25
100
AcDbLine
 10
526.344534736
 20
512.735064719
 30
0.0
 11
510.0008767453
 21
480.6588298482
 31
0.0
  0
LINE
  5
353
330
1F
100
AcDbEntity
  8
0
  6
Continuous
 62
     7
370
    25
100
AcDbLine
 10
405.7295986206
 20
493.6566788476
 30
0.0
 11
399.8048920078
 21
482.0287874072
 31
0.0
  0
LINE
  5
354
330
1F
100
AcDbEntity
  8
0
  6
Continuous
 62
     7
370
    25
100
AcDbLine
 10
405.7295986206
 20
493.6566788476
 30
0.0
 11
450.27992483
 21
470.9571538606
 31
0.0
  0
LINE
  5
355
330
1F
100
AcDbEntity
  8
0
  6
Continuous
 62
     7
370
    25
100
AcDbLine
 10
450.27992483
 20
470.9571538606
 30
0.0
 11
444.3552182172
 21
459.3292624202
 31
0.0
  0
LINE
  5
356
330
1F
100
AcDbEntity
  8
0
  6
Continuous
 62
     7
370
    25
100
AcDbLine
 10
390.1032160202
 20
541.7497393225
 30
0.0
 11
378.4753245798
 21
547.6744459354
 31
0.0
  0
ARC
  5
357
330
1F
100
AcDbEntity
  8
0
  6
Continuous
 62
     7
370
    25
100
AcDbCircle
 10
421.9629375579
 20
525.5164003853
 30
0.0
 40
35.75700140548869
100
AcDbArc
 50
153.0
 51
243.0
  0
ARC
  5
358
330
1F
100
AcDbEntity
  8
0
  6
Continuous
 62
     7
370
    25
100
AcDbCircle
 10
466.5132637673
 20
502.8168753983
 30
0.0
 40
35.75700140548861
100
AcDbArc
 50
243.0
 51
333.0
  0
LINE
  5
359
330
1F
100
AcDbEntity
  8
0
  6
Continuous
 62
     7
370
    25
100
AcDbLine
 10
498.372985305
 20
486.583536461
 30
0.0
 11
510.0008767453
 21
480.6588298482
 31
0.0
  0
LINE
  5
35A
330
1F
100
AcDbEntity
  8
0
  6
Continuous
 62
     7
370
    25
100
AcDbLine
 10
406.4468740108
 20
573.8259741933
 30
0.0
 11
394.8189825704
 21
579.7506808061
 31
0.0
  0
LINE
  5
35B
330
1F
100
AcDbEntity
  8
0
  6
Continuous
 62
     7
370
    25
100
AcDbLine
 10
406.4468740108
 20
573.8259741933
 30
0.0
 11
390.1032160202
 21
541.7497393225
 31
0.0
  0
LINE
  5
35C
330
1F
100
AcDbEntity
  8
0
  6
Continuous
 62
     7
370
    25
100
AcDbLine
 10
454.5399344857
 20
589.4523567938
 30
0.0
 11
460.4646410986
 21
601.0802482341
 31
0.0
  0
ARC
  5
35D
330
1F
100
AcDbEntity
  8
0
  6
Continuous
 62
     7
370
    25
100
AcDbCircle
 10
438.3065955485
 20
557.5926352561
 30
0.0
 40
35.75700140548861
100
AcDbArc
 50
63.0
 51
153.0
  0
LINE
  5
35E
330
1F
100
AcDbEntity
  8
0
  6
Continuous
 62
     7
370
    25
100
AcDbLine
 10
514.7166432956
 20
518.6597713318
 30
0.0
 11
526.344534736
 21
512.735064719
 31
0.0
  0
ARC
  5
35F
330
1F
100
AcDbEntity
  8
0
  6
Continuous
 62
     7
370
    25
100
AcDbCircle
 10
482.8569217579
 20
534.8931102691
 30
0.0
 40
35.75700140548861
100
AcDbArc
 50
333.0
 51
63.0
  0
LINE
  5
360
330
1F
100
AcDbEntity
  8
0
  6
Continuous
 62
     7
370
    25
100
AcDbLine
 10
499.0902606952
 20
566.7528318068
 30
0.0
 11
505.014967308
 21
578.3807232471
 31
0.0
  0
LINE
  5
361
330
1F
100
AcDbEntity
  8
0
  6
Continuous
 62
     7
370
    25
100
AcDbLine
 10
499.0902606952
 20
566.7528318068
 30
0.0
 11
454.5399344857
 21
589.4523567938
 31
0.0
  0
LINE
  5
362
330
1F
100
AcDbEntity
  8
0
  6
Continuous
 62
     7
370
    25
100
AcDbLine
 10
498.372985305
 20
486.583536461
 30
0.0
 11
514.7166432956
 21
518.6597713318
 31
0.0
  0
ARC
  5
363
330
1F
100
AcDbEntity
  8
0
  6
Continuous
 62
     7
370
    25
100
AcDbCircle
 10
466.5132637673
 20
502.8168753983
 30
0.0
 40
30.76918115418949
100
AcDbArc
 50
243.0
 51
333.0
  0
LINE
  5
364
330
1F
100
AcDbEntity
  8
0
  6
Continuous
 62
     7
370
    25
100
AcDbLine
 10
493.9288049196
 20
488.8479594695
 30
0.0
 11
498.372985305
 21
486.583536461
 31
0.0
  0
LINE
  5
365
330
1F
100
AcDbEntity
  8
0
  6
Continuous
 62
     7
370
    25
100
AcDbLine
 10
450.27992483
 20
470.9571538606
 30
0.0
 11
452.5443478385
 21
475.401334246
 31
0.0
  0
LINE
  5
366
330
1F
100
AcDbEntity
  8
0
  6
Continuous
 62
     7
370
    25
100
AcDbLine
 10
510.2724629102
 20
520.9241943403
 30
0.0
 11
493.9288049196
 21
488.8479594695
 31
0.0
  0
LINE
  5
367
330
1F
100
AcDbEntity
  8
0
  6
Continuous
 62
     7
370
    25
100
AcDbLine
 10
510.2724629102
 20
520.9241943403
 30
0.0
 11
514.7166432956
 21
518.6597713318
 31
0.0
  0
LINE
  5
368
330
1F
100
AcDbEntity
  8
0
  6
Continuous
 62
     7
370
    25
100
AcDbLine
 10
452.5443478385
 20
475.401334246
 30
0.0
 11
407.9940216291
 21
498.100859233
 31
0.0
  0
LINE
  5
369
330
1F
100
AcDbEntity
  8
0
  6
Continuous
 62
     7
370
    25
100
AcDbLine
 10
405.7295986206
 20
493.6566788476
 30
0.0
 11
407.9940216291
 21
498.100859233
 31
0.0
  0
LINE
  5
36A
330
1F
100
AcDbEntity
  8
0
  6
Continuous
 62
     7
370
    25
100
AcDbLine
 10
394.5473964055
 20
539.485316314
 30
0.0
 11
410.8910543962
 21
571.5615511848
 31
0.0
  0
LINE
  5
36B
330
1F
100
AcDbEntity
  8
0
  6
Continuous
 62
     7
370
    25
100
AcDbLine
 10
390.1032160202
 20
541.7497393225
 30
0.0
 11
394.5473964055
 21
539.485316314
 31
0.0
  0
LINE
  5
36C
330
1F
100
AcDbEntity
  8
0
  6
Continuous
 62
     7
370
    25
100
AcDbLine
 10
406.4468740108
 20
573.8259741933
 30
0.0
 11
410.8910543962
 21
571.5615511848
 31
0.0
  0
ARC
  5
36D
330
1F
100
AcDbEntity
  8
0
  6
Continuous
 62
     7
370
    25
100
AcDbCircle
 10
421.9629375579
 20
525.5164003853
 30
0.0
 40
30.76918115418961
100
AcDbArc
 50
153.0
 51
243.0
  0
ARC
  5
36E
330
1F
100
AcDbEntity
  8
0
  6
Continuous
 62
     7
370
    25
100
AcDbCircle
 10
438.3065955485
 20
557.5926352561
 30
0.0
 40
30.76918115418956
100
AcDbArc
 50
63.0
 51
153.0
  0
LINE
  5
36F
330
1F
100
AcDbEntity
  8
0
  6
Continuous
 62
     7
370
    25
100
AcDbLine
 10
452.2755114772
 20
585.0081764084
 30
0.0
 11
454.5399344857
 21
589.4523567938
 31
0.0
  0
LINE
  5
370
330
1F
100
AcDbEntity
  8
0
  6
Continuous
 62
     7
370
    25
100
AcDbLine
 10
496.8258376867
 20
562.3086514214
 30
0.0
 11
499.0902606952
 21
566.7528318068
 31
0.0
  0
LINE
  5
371
330
1F
100
AcDbEntity
  8
0
  6
Continuous
 62
     7
370
    25
100
AcDbLine
 10
452.2755114772
 20
585.0081764084
 30
0.0
 11
496.8258376867
 21
562.3086514214
 31
0.0
  0
ARC
  5
372
330
1F
100
AcDbEntity
  8
0
  6
Continuous
 62
     7
370
    25
100
AcDbCircle
 10
482.8569217579
 20
534.8931102691
 30
0.0
 40
30.76918115418951
100
AcDbArc
 50
333.0
 51
63.0
  0
LINE
  5
373
330
1F
100
AcDbEntity
  8
0
  6
Continuous
 62
     7
370
    25
100
AcDbLine
 10
972.4557591887
 20
273.5353595798
 30
0.0
 11
835.337628768
 21
410.6534900005
 31
0.0
  0
ARC
  5
374
330
1F
100
AcDbEntity
  8
0
  6
Continuous
 62
     7
370
    25
100
AcDbCircle
 10
839.3345749161
 20
409.8864560262
 30
0.0
 40
4.069879559443081
100
AcDbArc
 50
124.8658829787
 51
169.1367240015
  0
LINE
  5
375
330
1F
100
AcDbEntity
  8
0
  6
Continuous
 62
     7
370
    25
100
AcDbLine
 10
837.0079981121
 20
413.2257613436
 30
0.0
 11
975.5810486703
 21
274.6527107854
 31
0.0
  0
LWPOLYLINE
  5
376
330
1F
100
AcDbEntity
  8
0
  6
Continuous
 62
     7
370
    25
100
AcDbPolyline
 90
        9
 70
   128
 43
0.0
 10
972.4557591887
 20
273.5353595798
 10
972.6923844267
 20
273.380255493
 10
973.0014374407
 20
273.3126331204
 10
973.3710414966
 20
273.3350911518
 10
973.7869929179
 20
273.4467665378
 10
974.2333069247
 20
273.6433676559
 10
974.69283192
 20
273.9173392353
 10
975.1479086159
 20
274.2581527019
 10
975.5810486703
 20
274.6527107854
  0
LINE
  5
377
330
1F
100
AcDbEntity
  8
0
  6
Continuous
 62
     7
370
    25
100
AcDbLine
 10
981.945009701
 20
281.016671816
 30
0.0
 11
843.3719591427
 21
419.5897223743
 31
0.0
  0
LINE
  5
378
330
1F
100
AcDbEntity
  8
0
  6
Continuous
 62
     7
370
    25
100
AcDbLine
 10
975.5810486703
 20
274.6527107854
 30
0.0
 11
981.945009701
 21
281.016671816
 31
0.0
  0
LINE
  5
379
330
1F
100
AcDbEntity
  8
0
  6
Continuous
 62
     7
370
    25
100
AcDbLine
 10
837.0079981121
 20
413.2257613436
 30
0.0
 11
843.3719591427
 21
419.5897223743
 31
0.0
  0
ARC
  5
37A
330
1F
100
AcDbEntity
  8
0
  6
Continuous
 62
     7
370
    25
100
AcDbCircle
 10
846.7112644602
 20
417.2631455702
 30
0.0
 40
4.069879559445226
100
AcDbArc
 50
100.8632759985
 51
145.1341170213
  0
LINE
  5
37B
330
1F
100
AcDbEntity
  8
0
  6
Continuous
 62
     7
370
    25
100
AcDbLine
 10
845.9442304858
 20
421.2600917183
 30
0.0
 11
983.0623609065
 21
284.1419612976
 31
0.0
  0
LWPOLYLINE
  5
37C
330
1F
100
AcDbEntity
  8
0
  6
Continuous
 62
     7
370
    25
100
AcDbPolyline
 90
        9
 70
   128
 43
0.0
 10
981.945009701
 20
281.016671816
 10
982.3395677844
 20
281.4498118704
 10
982.6803812511
 20
281.9048885664
 10
982.9543528305
 20
282.3644135617
 10
983.1509539486
 20
282.8107275685
 10
983.2626293345
 20
283.2266789897
 10
983.285087366
 20
283.5962830457
 10
983.2174649934
 20
283.9053360596
 10
983.0623609065
 20
284.1419612976
  0
ARC
  5
37D
330
1F
100
AcDbEntity
  8
0
  6
Continuous
 62
     7
370
    25
100
AcDbCircle
 10
748.68304881
 20
500.5379821322
 30
0.0
 40
4.069879559445632
100
AcDbArc
 50
124.8658829787
 51
169.1367240014
  0
LINE
  5
37E
330
1F
100
AcDbEntity
  8
0
  6
Continuous
 62
     7
370
    25
100
AcDbLine
 10
746.356472006
 20
503.8772874497
 30
0.0
 11
837.0079981121
 21
413.2257613436
 31
0.0
  0
LINE
  5
37F
330
1F
100
AcDbEntity
  8
0
  6
Continuous
 62
     7
370
    25
100
AcDbLine
 10
835.337628768
 20
410.6534900005
 30
0.0
 11
779.6794471578
 21
466.3116716107
 31
0.0
  0
LINE
  5
380
330
1F
100
AcDbEntity
  8
0
  6
Continuous
 62
     7
370
    25
100
AcDbLine
 10
843.3719591427
 20
419.5897223743
 30
0.0
 11
752.7204330366
 21
510.2412484804
 31
0.0
  0
ARC
  5
381
330
1F
100
AcDbEntity
  8
0
  6
Continuous
 62
     7
370
    25
100
AcDbCircle
 10
756.0597383541
 20
507.9146716763
 30
0.0
 40
4.069879559446512
100
AcDbArc
 50
100.8632759986
 51
145.1341170213
  0
LINE
  5
382
330
1F
100
AcDbEntity
  8
0
  6
Continuous
 62
     7
370
    25
100
AcDbLine
 10
755.2927043797
 20
511.9116178244
 30
0.0
 11
845.9442304858
 21
421.2600917183
 31
0.0
  0
LINE
  5
383
330
1F
100
AcDbEntity
  8
0
  6
Continuous
 62
     7
370
    25
100
AcDbLine
 10
746.356472006
 20
503.8772874497
 30
0.0
 11
752.7204330366
 21
510.2412484804
 31
0.0
  0
LINE
  5
384
330
1F
100
AcDbEntity
  8
0
  6
Continuous
 62
     7
370
    25
100
AcDbLine
 10
1041.2144552517
 20
221.7472262653
 30
0.0
 11
981.945009701
 21
281.016671816
 31
0.0
  0
LWPOLYLINE
  5
385
330
1F
100
AcDbEntity
  8
0
  6
Continuous
 62
     7
370
    25
100
AcDbPolyline
 90
        9
 70
   128
 43
0.0
 10
1041.2144552517
 20
221.7472262653
 10
1041.6090133352
 20
222.1803663197
 10
1041.9498268018
 20
222.6354430156
 10
1042.2237983813
 20
223.0949680109
 10
1042.4203994993
 20
223.5412820177
 10
1042.5320748853
 20
223.957233439
 10
1042.5545329168
 20
224.3268374949
 10
1042.4869105441
 20
224.6358905089
 10
1042.3318064573
 20
224.8725157469
  0
LINE
  5
386
330
1F
100
AcDbEntity
  8
0
  6
Continuous
 62
     7
370
    25
100
AcDbLine
 10
983.0623609065
 20
284.1419612976
 30
0.0
 11
1042.3318064573
 21
224.8725157469
 31
0.0
  0
LINE
  5
387
330
1F
100
AcDbEntity
  8
0
  6
Continuous
 62
     7
370
    25
100
AcDbLine
 10
975.5810486703
 20
274.6527107854
 30
0.0
 11
1034.8504942211
 21
215.3832652346
 31
0.0
  0
LWPOLYLINE
  5
388
330
1F
100
AcDbEntity
  8
0
  6
Continuous
 62
     7
370
    25
100
AcDbPolyline
 90
        9
 70
   128
 43
0.0
 10
1031.7252047395
 20
214.2659140291
 10
1031.9618299775
 20
214.1108099422
 10
1032.2708829915
 20
214.0431875696
 10
1032.6404870474
 20
214.065645601
 10
1033.0564384686
 20
214.177320987
 10
1033.5027524754
 20
214.3739221051
 10
1033.9622774707
 20
214.6478936845
 10
1034.4173541667
 20
214.9887071512
 10
1034.8504942211
 20
215.3832652346
  0
LINE
  5
389
330
1F
100
AcDbEntity
  8
0
  6
Continuous
 62
     7
370
    25
100
AcDbLine
 10
1031.7252047395
 20
214.2659140291
 30
0.0
 11
972.4557591887
 21
273.5353595798
 31
0.0
  0
LINE
  5
38A
330
1F
100
AcDbEntity
  8
0
  6
Continuous
 62
     7
370
    25
100
AcDbLine
 10
1034.8504942211
 20
215.3832652346
 30
0.0
 11
1041.2144552517
 21
221.7472262653
 31
0.0
  0
LINE
  5
38B
330
1F
100
AcDbEntity
  8
0
  6
Continuous
 62
     7
370
    25
100
AcDbLine
 10
752.7204330366
 20
510.2412484804
 30
0.0
 11
747.1525352233
 21
515.8091462938
 31
0.0
  0
ARC
  5
38C
330
1F
100
AcDbEntity
  8
0
  6
Continuous
 62
     7
370
    25
100
AcDbCircle
 10
749.2738555668
 20
513.6878259502
 30
0.0
 40
3.000000000000105
100
AcDbArc
 50
45.0
 51
135.0
  0
LINE
  5
38D
330
1F
100
AcDbEntity
  8
0
  6
Continuous
 62
     7
370
    25
100
AcDbLine
 10
751.3951759104
 20
515.8091462938
 30
0.0
 11
755.2927043797
 21
511.9116178244
 31
0.0
  0
ARC
  5
38E
330
1F
100
AcDbEntity
  8
0
  6
Continuous
 62
     7
370
    25
100
AcDbCircle
 10
742.9098945361
 20
507.3238649195
 30
0.0
 40
3.000000000000064
100
AcDbArc
 50
135.0
 51
225.0
  0
LINE
  5
38F
330
1F
100
AcDbEntity
  8
0
  6
Continuous
 62
     7
370
    25
100
AcDbLine
 10
740.7885741926
 20
509.4451852631
 30
0.0
 11
746.356472006
 21
503.8772874497
 31
0.0
  0
LINE
  5
390
330
1F
100
AcDbEntity
  8
0
  6
Continuous
 62
     7
370
    25
100
AcDbLine
 10
1034.8504942211
 20
215.3832652346
 30
0.0
 11
1037.4405879417
 21
212.793171514
 31
0.0
  0
ARC
  5
391
330
1F
100
AcDbEntity
  8
0
  6
Continuous
 62
     7
370
    25
100
AcDbCircle
 10
1035.316659375
 20
214.6040759812
 30
0.0
 40
2.79113732123629
100
AcDbArc
 50
230.4199479014
 51
319.5484188682
  0
LINE
  5
392
330
1F
100
AcDbEntity
  8
0
  6
Continuous
 62
     7
370
    25
100
AcDbLine
 10
1033.5382703439
 20
212.4528484247
 30
0.0
 11
1031.7252047395
 21
214.2659140291
 31
0.0
  0
LINE
  5
393
330
1F
100
AcDbEntity
  8
0
  6
Continuous
 62
     7
370
    25
100
AcDbLine
 10
1043.8045489723
 20
219.1571325447
 30
0.0
 11
1041.2144552517
 21
221.7472262653
 31
0.0
  0
ARC
  5
394
330
1F
100
AcDbEntity
  8
0
  6
Continuous
 62
     7
370
    25
100
AcDbCircle
 10
1041.9936445051
 20
221.2810611114
 30
0.0
 40
2.79113732123623
100
AcDbArc
 50
310.4515811317
 51
39.5800520986
  0
LINE
  5
395
330
1F
100
AcDbEntity
  8
0
  6
Continuous
 62
     7
370
    25
100
AcDbLine
 10
1042.3318064573
 20
224.8725157469
 30
0.0
 11
1044.1448720617
 21
223.0594501425
 31
0.0
  0
LINE
  5
396
330
1F
100
AcDbEntity
  8
0
  6
Continuous
 62
     7
370
    25
100
AcDbLine
 10
1043.8045489723
 20
219.1571325447
 30
0.0
 11
1037.4405879417
 21
212.793171514
 31
0.0
  0
LINE
  5
397
330
1F
100
AcDbEntity
  8
0
  6
Continuous
 62
     7
370
    25
100
AcDbLine
 10
1090.6570489629
 20
172.3046325541
 30
0.0
 11
1043.8045489723
 21
219.1571325447
 31
0.0
  0
LINE
  5
398
330
1F
100
AcDbEntity
  8
0
  6
Continuous
 62
     7
370
    25
100
AcDbLine
 10
1084.2930879323
 20
165.9406715234
 30
0.0
 11
1090.6570489629
 21
172.3046325541
 31
0.0
  0
LINE
  5
399
330
1F
100
AcDbEntity
  8
0
  6
Continuous
 62
     7
370
    25
100
AcDbLine
 10
1037.4405879417
 20
212.793171514
 30
0.0
 11
1084.2930879323
 21
165.9406715234
 31
0.0
  0
ARC
  5
39A
330
1F
100
AcDbEntity
  8
0
  6
Continuous
 62
     7
370
    25
100
AcDbCircle
 10
1082.1691593655
 20
167.7515759907
 30
0.0
 40
2.791137321237867
100
AcDbArc
 50
230.4199479014
 51
319.5484188682
  0
LINE
  5
39B
330
1F
100
AcDbEntity
  8
0
  6
Continuous
 62
     7
370
    25
100
AcDbLine
 10
1080.3907703345
 20
165.6003484341
 30
0.0
 11
1033.5382703439
 21
212.4528484247
 31
0.0
  0
ARC
  5
39C
330
1F
100
AcDbEntity
  8
0
  6
Continuous
 62
     7
370
    25
100
AcDbCircle
 10
1088.8461444957
 20
174.4285611208
 30
0.0
 40
2.791137321236143
100
AcDbArc
 50
310.4515811318
 51
39.5800520986
  0
LINE
  5
39D
330
1F
100
AcDbEntity
  8
0
  6
Continuous
 62
     7
370
    25
100
AcDbLine
 10
1044.1448720617
 20
223.0594501425
 30
0.0
 11
1090.9973720523
 21
176.2069501519
 31
0.0
  0
LINE
  5
39E
330
1F
100
AcDbEntity
  8
0
  6
Continuous
 62
     7
370
    25
100
AcDbLine
 10
1090.9973720523
 20
176.2069501519
 30
0.0
 11
1092.9258695586
 21
174.2784526456
 31
0.0
  0
LINE
  5
39F
330
1F
100
AcDbEntity
  8
0
  6
Continuous
 62
     7
370
    25
100
AcDbLine
 10
1082.3192678408
 20
163.6718509278
 30
0.0
 11
1080.3907703345
 21
165.6003484341
 31
0.0
  0
LINE
  5
3A0
330
1F
100
AcDbEntity
  8
0
  6
Continuous
 62
     7
370
    25
100
AcDbLine
 10
922.5480400813
 20
708.1752139003
 30
0.0
 11
783.9749895231
 21
569.6021633421
 31
0.0
  0
ARC
  5
3A1
330
1F
100
AcDbEntity
  8
0
  6
Continuous
 62
     7
370
    25
100
AcDbCircle
 10
786.3015663271
 20
572.9414686595
 30
0.0
 40
4.069879559445478
100
AcDbArc
 50
190.8632759985
 51
235.1341170213
  0
LINE
  5
3A2
330
1F
100
AcDbEntity
  8
0
  6
Continuous
 62
     7
370
    25
100
AcDbLine
 10
782.304620179
 20
572.1744346852
 30
0.0
 11
919.4227505997
 21
709.2925651059
 31
0.0
  0
LWPOLYLINE
  5
3A3
330
1F
100
AcDbEntity
  8
0
  6
Continuous
 62
     7
370
    25
100
AcDbPolyline
 90
        9
 70
   128
 43
0.0
 10
922.5480400813
 20
708.1752139003
 10
922.1149000269
 20
708.5697719838
 10
921.659823331
 20
708.9105854504
 10
921.2002983357
 20
709.1845570298
 10
920.7539843289
 20
709.3811581479
 10
920.3380329076
 20
709.4928335339
 10
919.9684288517
 20
709.5152915653
 10
919.6593758377
 20
709.4476691927
 10
919.4227505997
 20
709.2925651059
  0
LINE
  5
3A4
330
1F
100
AcDbEntity
  8
0
  6
Continuous
 62
     7
370
    25
100
AcDbLine
 10
928.912001112
 20
701.8112528696
 30
0.0
 11
922.5480400813
 21
708.1752139003
 31
0.0
  0
LINE
  5
3A5
330
1F
100
AcDbEntity
  8
0
  6
Continuous
 62
     7
370
    25
100
AcDbLine
 10
790.3389505537
 20
563.2382023114
 30
0.0
 11
928.912001112
 21
701.8112528696
 31
0.0
  0
LINE
  5
3A6
330
1F
100
AcDbEntity
  8
0
  6
Continuous
 62
     7
370
    25
100
AcDbLine
 10
790.3389505537
 20
563.2382023114
 30
0.0
 11
783.9749895231
 21
569.6021633421
 31
0.0
  0
LINE
  5
3A7
330
1F
100
AcDbEntity
  8
0
  6
Continuous
 62
     7
370
    25
100
AcDbLine
 10
930.0293523175
 20
698.6859633881
 30
0.0
 11
792.9112218968
 21
561.5678329674
 31
0.0
  0
ARC
  5
3A8
330
1F
100
AcDbEntity
  8
0
  6
Continuous
 62
     7
370
    25
100
AcDbCircle
 10
793.6782558712
 20
565.5647791154
 30
0.0
 40
4.069879559448088
100
AcDbArc
 50
214.8658829787
 51
259.1367240014
  0
LWPOLYLINE
  5
3A9
330
1F
100
AcDbEntity
  8
0
  6
Continuous
 62
     7
370
    25
100
AcDbPolyline
 90
        9
 70
   128
 43
0.0
 10
930.0293523175
 20
698.6859633881
 10
930.1844564044
 20
698.9225886261
 10
930.252078777
 20
699.23164164
 10
930.2296207456
 20
699.6012456959
 10
930.1179453596
 20
700.0171971172
 10
929.9213442415
 20
700.463511124
 10
929.6473726621
 20
700.9230361193
 10
929.3065591954
 20
701.3781128152
 10
928.912001112
 20
701.8112528696
  0
LINE
  5
3AA
330
1F
100
AcDbEntity
  8
0
  6
Continuous
 62
     7
370
    25
100
AcDbLine
 10
783.9749895231
 20
569.6021633421
 30
0.0
 11
693.323463417
 21
478.950637236
 31
0.0
  0
ARC
  5
3AB
330
1F
100
AcDbEntity
  8
0
  6
Continuous
 62
     7
370
    25
100
AcDbCircle
 10
695.650040221
 20
482.2899425534
 30
0.0
 40
4.069879559448212
100
AcDbArc
 50
190.8632759986
 51
235.1341170213
  0
LINE
  5
3AC
330
1F
100
AcDbEntity
  8
0
  6
Continuous
 62
     7
370
    25
100
AcDbLine
 10
691.653094073
 20
481.5229085791
 30
0.0
 11
782.304620179
 21
572.1744346852
 31
0.0
  0
LINE
  5
3AD
330
1F
100
AcDbEntity
  8
0
  6
Continuous
 62
     7
370
    25
100
AcDbLine
 10
699.6874244477
 20
472.5866762053
 30
0.0
 11
790.3389505537
 21
563.2382023114
 31
0.0
  0
LINE
  5
3AE
330
1F
100
AcDbEntity
  8
0
  6
Continuous
 62
     7
370
    25
100
AcDbLine
 10
699.6874244477
 20
472.5866762053
 30
0.0
 11
693.323463417
 21
478.950637236
 31
0.0
  0
ARC
  5
3AF
330
1F
100
AcDbEntity
  8
0
  6
Continuous
 62
     7
370
    25
100
AcDbCircle
 10
703.0267297651
 20
474.9132530094
 30
0.0
 40
4.069879559445479
100
AcDbArc
 50
214.8658829787
 51
259.1367240015
  0
LINE
  5
3B0
330
1F
100
AcDbEntity
  8
0
  6
Continuous
 62
     7
370
    25
100
AcDbLine
 10
792.9112218968
 20
561.5678329674
 30
0.0
 11
737.2530402866
 21
505.9096513572
 31
0.0
  0
LINE
  5
3B1
330
1F
100
AcDbEntity
  8
0
  6
Continuous
 62
     7
370
    25
100
AcDbLine
 10
981.8174856321
 20
767.4446594511
 30
0.0
 11
922.5480400813
 21
708.1752139003
 31
0.0
  0
LWPOLYLINE
  5
3B2
330
1F
100
AcDbEntity
  8
0
  6
Continuous
 62
     7
370
    25
100
AcDbPolyline
 90
        9
 70
   128
 43
0.0
 10
981.8174856321
 20
767.4446594511
 10
981.3843455777
 20
767.8392175345
 10
980.9292688817
 20
768.1800310012
 10
980.4697438864
 20
768.4540025806
 10
980.0234298796
 20
768.6506036987
 10
979.6074784584
 20
768.7622790846
 10
979.2378744025
 20
768.7847371161
 10
978.9288213885
 20
768.7171147435
 10
978.6921961505
 20
768.5620106566
  0
LINE
  5
3B3
330
1F
100
AcDbEntity
  8
0
  6
Continuous
 62
     7
370
    25
100
AcDbLine
 10
919.4227505997
 20
709.2925651059
 30
0.0
 11
978.6921961505
 21
768.5620106566
 31
0.0
  0
LINE
  5
3B4
330
1F
100
AcDbEntity
  8
0
  6
Continuous
 62
     7
370
    25
100
AcDbLine
 10
928.912001112
 20
701.8112528696
 30
0.0
 11
988.1814466628
 21
761.0806984204
 31
0.0
  0
LWPOLYLINE
  5
3B5
330
1F
100
AcDbEntity
  8
0
  6
Continuous
 62
     7
370
    25
100
AcDbPolyline
 90
        9
 70
   128
 43
0.0
 10
989.2987978683
 20
757.9554089388
 10
989.4539019551
 20
758.1920341768
 10
989.5215243278
 20
758.5010871908
 10
989.4990662963
 20
758.8706912467
 10
989.3873909103
 20
759.286642668
 10
989.1907897923
 20
759.7329566748
 10
988.9168182128
 20
760.1924816701
 10
988.5760047462
 20
760.647558366
 10
988.1814466628
 20
761.0806984204
  0
LINE
  5
3B6
330
1F
100
AcDbEntity
  8
0
  6
Continuous
 62
     7
370
    25
100
AcDbLine
 10
989.2987978683
 20
757.9554089388
 30
0.0
 11
930.0293523175
 21
698.6859633881
 31
0.0
  0
LINE
  5
3B7
330
1F
100
AcDbEntity
  8
0
  6
Continuous
 62
     7
370
    25
100
AcDbLine
 10
988.1814466628
 20
761.0806984204
 30
0.0
 11
981.8174856321
 21
767.4446594511
 31
0.0
  0
ARC
  5
3B8
330
1F
100
AcDbEntity
  8
0
  6
Continuous
 62
     7
370
    25
100
AcDbCircle
 10
696.2408469778
 20
469.1400987355
 30
0.0
 40
3.000000000000145
100
AcDbArc
 50
225.0
 51
315.0
  0
LINE
  5
3B9
330
1F
100
AcDbEntity
  8
0
  6
Continuous
 62
     7
370
    25
100
AcDbLine
 10
694.1195266343
 20
467.0187783919
 30
0.0
 11
699.6874244477
 21
472.5866762053
 31
0.0
  0
LINE
  5
3BA
330
1F
100
AcDbEntity
  8
0
  6
Continuous
 62
     7
370
    25
100
AcDbLine
 10
693.323463417
 20
478.950637236
 30
0.0
 11
687.7555656036
 21
473.3827394226
 31
0.0
  0
ARC
  5
3BB
330
1F
100
AcDbEntity
  8
0
  6
Continuous
 62
     7
370
    25
100
AcDbCircle
 10
689.8768859471
 20
475.5040597661
 30
0.0
 40
3.000000000000064
100
AcDbArc
 50
135.0
 51
225.0
  0
LINE
  5
3BC
330
1F
100
AcDbEntity
  8
0
  6
Continuous
 62
     7
370
    25
100
AcDbLine
 10
687.7555656036
 20
477.6253801097
 30
0.0
 11
691.653094073
 21
481.5229085791
 31
0.0
  0
LINE
  5
3BD
330
1F
100
AcDbEntity
  8
0
  6
Continuous
 62
     7
370
    25
100
AcDbLine
 10
984.4075793527
 20
770.0347531717
 30
0.0
 11
981.8174856321
 21
767.4446594511
 31
0.0
  0
ARC
  5
3BE
330
1F
100
AcDbEntity
  8
0
  6
Continuous
 62
     7
370
    25
100
AcDbCircle
 10
982.283650786
 20
768.2238487044
 30
0.0
 40
2.791137321236377
100
AcDbArc
 50
40.4515811318
 51
129.5800520986
  0
LINE
  5
3BF
330
1F
100
AcDbEntity
  8
0
  6
Continuous
 62
     7
370
    25
100
AcDbLine
 10
978.6921961505
 20
768.5620106566
 30
0.0
 11
980.5052617549
 21
770.375076261
 31
0.0
  0
LINE
  5
3C0
330
1F
100
AcDbEntity
  8
0
  6
Continuous
 62
     7
370
    25
100
AcDbLine
 10
988.1814466628
 20
761.0806984204
 30
0.0
 11
990.7715403834
 21
763.670792141
 31
0.0
  0
ARC
  5
3C1
330
1F
100
AcDbEntity
  8
0
  6
Continuous
 62
     7
370
    25
100
AcDbCircle
 10
988.9606359161
 20
761.5468635743
 30
0.0
 40
2.791137321236719
100
AcDbArc
 50
320.4199479014
 51
49.5484188682
  0
LINE
  5
3C2
330
1F
100
AcDbEntity
  8
0
  6
Continuous
 62
     7
370
    25
100
AcDbLine
 10
991.1118634727
 20
759.7684745432
 30
0.0
 11
989.2987978683
 21
757.9554089388
 31
0.0
  0
LINE
  5
3C3
330
1F
100
AcDbEntity
  8
0
  6
Continuous
 62
     7
370
    25
100
AcDbLine
 10
984.4075793527
 20
770.0347531717
 30
0.0
 11
990.7715403834
 21
763.670792141
 31
0.0
  0
LINE
  5
3C4
330
1F
100
AcDbEntity
  8
0
  6
Continuous
 62
     7
370
    25
100
AcDbLine
 10
1031.2600793433
 20
816.8872531623
 30
0.0
 11
984.4075793527
 21
770.0347531717
 31
0.0
  0
LINE
  5
3C5
330
1F
100
AcDbEntity
  8
0
  6
Continuous
 62
     7
370
    25
100
AcDbLine
 10
1037.6240403739
 20
810.5232921316
 30
0.0
 11
1031.2600793433
 21
816.8872531623
 31
0.0
  0
LINE
  5
3C6
330
1F
100
AcDbEntity
  8
0
  6
Continuous
 62
     7
370
    25
100
AcDbLine
 10
990.7715403834
 20
763.670792141
 30
0.0
 11
1037.6240403739
 21
810.5232921316
 31
0.0
  0
ARC
  5
3C7
330
1F
100
AcDbEntity
  8
0
  6
Continuous
 62
     7
370
    25
100
AcDbCircle
 10
1029.1361507765
 20
815.076348695
 30
0.0
 40
2.791137321236599
100
AcDbArc
 50
40.4515811318
 51
129.5800520986
  0
LINE
  5
3C8
330
1F
100
AcDbEntity
  8
0
  6
Continuous
 62
     7
370
    25
100
AcDbLine
 10
980.5052617549
 20
770.375076261
 30
0.0
 11
1027.3577617455
 21
817.2275762516
 31
0.0
  0
ARC
  5
3C9
330
1F
100
AcDbEntity
  8
0
  6
Continuous
 62
     7
370
    25
100
AcDbCircle
 10
1035.8131359067
 20
808.3993635649
 30
0.0
 40
2.791137321237115
100
AcDbArc
 50
320.4199479014
 51
49.5484188682
  0
LINE
  5
3CA
330
1F
100
AcDbEntity
  8
0
  6
Continuous
 62
     7
370
    25
100
AcDbLine
 10
1037.9643634633
 20
806.6209745338
 30
0.0
 11
991.1118634727
 21
759.7684745432
 31
0.0
  0
LINE
  5
3CB
330
1F
100
AcDbEntity
  8
0
  6
Continuous
 62
     7
370
    25
100
AcDbLine
 10
1027.3577617455
 20
817.2275762516
 30
0.0
 11
1029.2862592518
 21
819.1560737579
 31
0.0
  0
LINE
  5
3CC
330
1F
100
AcDbEntity
  8
0
  6
Continuous
 62
     7
370
    25
100
AcDbLine
 10
1039.8928609696
 20
808.5494720401
 30
0.0
 11
1037.9643634633
 21
806.6209745338
 31
0.0
  0
LINE
  5
3CD
330
1F
100
AcDbEntity
  8
0
  6
Continuous
 62
     7
370
    25
100
AcDbLine
 10
495.389497997
 20
648.7782442807
 30
0.0
 11
633.9625485553
 21
510.2051937224
 31
0.0
  0
LINE
  5
3CE
330
1F
100
AcDbEntity
  8
0
  6
Continuous
 62
     7
370
    25
100
AcDbLine
 10
501.7534590277
 20
655.1422053113
 30
0.0
 11
495.389497997
 21
648.7782442807
 31
0.0
  0
LINE
  5
3CF
330
1F
100
AcDbEntity
  8
0
  6
Continuous
 62
     7
370
    25
100
AcDbLine
 10
640.326509586
 20
516.5691547531
 30
0.0
 11
501.7534590277
 21
655.1422053113
 31
0.0
  0
LINE
  5
3D0
330
1F
100
AcDbEntity
  8
0
  6
Continuous
 62
     7
370
    25
100
AcDbLine
 10
640.326509586
 20
516.5691547531
 30
0.0
 11
633.9625485553
 21
510.2051937224
 31
0.0
  0
LINE
  5
3D1
330
1F
100
AcDbEntity
  8
0
  6
Continuous
 62
     7
370
    25
100
AcDbLine
 10
504.8787485093
 20
656.2595565169
 30
0.0
 11
641.99687893
 21
519.1414260962
 31
0.0
  0
ARC
  5
3D2
330
1F
100
AcDbEntity
  8
0
  6
Continuous
 62
     7
370
    25
100
AcDbCircle
 10
637.9999327819
 20
519.9084600705
 30
0.0
 40
4.069879559445007
100
AcDbArc
 50
304.8658829787
 51
349.1367240015
  0
LWPOLYLINE
  5
3D3
330
1F
100
AcDbEntity
  8
0
  6
Continuous
 62
     7
370
    25
100
AcDbPolyline
 90
        9
 70
   128
 43
0.0
 10
504.8787485093
 20
656.2595565169
 10
504.6421232713
 20
656.4146606037
 10
504.3330702573
 20
656.4822829763
 10
503.9634662014
 20
656.4598249449
 10
503.5475147801
 20
656.3481495589
 10
503.1012007734
 20
656.1515484408
 10
502.6416757781
 20
655.8775768614
 10
502.1865990821
 20
655.5367633948
 10
501.7534590277
 20
655.1422053113
  0
ARC
  5
3D4
330
1F
100
AcDbEntity
  8
0
  6
Continuous
 62
     7
370
    25
100
AcDbCircle
 10
630.6232432378
 20
512.5317705265
 30
0.0
 40
4.069879559444266
100
AcDbArc
 50
280.8632759985
 51
325.1341170213
  0
LINE
  5
3D5
330
1F
100
AcDbEntity
  8
0
  6
Continuous
 62
     7
370
    25
100
AcDbLine
 10
631.3902772122
 20
508.5348243784
 30
0.0
 11
494.2721467915
 21
645.6529547991
 31
0.0
  0
LWPOLYLINE
  5
3D6
330
1F
100
AcDbEntity
  8
0
  6
Continuous
 62
     7
370
    25
100
AcDbPolyline
 90
        9
 70
   128
 43
0.0
 10
495.389497997
 20
648.7782442807
 10
494.9949399136
 20
648.3451042263
 10
494.6541264469
 20
647.8900275303
 10
494.3801548675
 20
647.430502535
 10
494.1835537495
 20
646.9841885282
 10
494.0718783635
 20
646.568237107
 10
494.049420332
 20
646.198633051
 10
494.1170427047
 20
645.8895800371
 10
494.2721467915
 20
645.6529547991
  0
LINE
  5
3D7
330
1F
100
AcDbEntity
  8
0
  6
Continuous
 62
     7
370
    25
100
AcDbLine
 10
633.9625485553
 20
510.2051937224
 30
0.0
 11
724.6140746614
 21
419.5536676163
 31
0.0
  0
ARC
  5
3D8
330
1F
100
AcDbEntity
  8
0
  6
Continuous
 62
     7
370
    25
100
AcDbCircle
 10
721.2747693439
 20
421.8802444204
 30
0.0
 40
4.069879559446533
100
AcDbArc
 50
280.8632759986
 51
325.1341170213
  0
LINE
  5
3D9
330
1F
100
AcDbEntity
  8
0
  6
Continuous
 62
     7
370
    25
100
AcDbLine
 10
722.0418033183
 20
417.8832982723
 30
0.0
 11
631.3902772122
 21
508.5348243784
 31
0.0
  0
LINE
  5
3DA
330
1F
100
AcDbEntity
  8
0
  6
Continuous
 62
     7
370
    25
100
AcDbLine
 10
730.9780356921
 20
425.917628647
 30
0.0
 11
640.326509586
 21
516.5691547531
 31
0.0
  0
LINE
  5
3DB
330
1F
100
AcDbEntity
  8
0
  6
Continuous
 62
     7
370
    25
100
AcDbLine
 10
730.9780356921
 20
425.917628647
 30
0.0
 11
724.6140746614
 21
419.5536676163
 31
0.0
  0
ARC
  5
3DC
330
1F
100
AcDbEntity
  8
0
  6
Continuous
 62
     7
370
    25
100
AcDbCircle
 10
728.651458888
 20
429.2569339645
 30
0.0
 40
4.069879559446022
100
AcDbArc
 50
304.8658829787
 51
349.1367240015
  0
LINE
  5
3DD
330
1F
100
AcDbEntity
  8
0
  6
Continuous
 62
     7
370
    25
100
AcDbLine
 10
641.99687893
 20
519.1414260962
 30
0.0
 11
697.6550605402
 21
463.483244486
 31
0.0
  0
LINE
  5
3DE
330
1F
100
AcDbEntity
  8
0
  6
Continuous
 62
     7
370
    25
100
AcDbLine
 10
501.7534590277
 20
655.1422053113
 30
0.0
 11
442.484013477
 21
714.4116508621
 31
0.0
  0
LWPOLYLINE
  5
3DF
330
1F
100
AcDbEntity
  8
0
  6
Continuous
 62
     7
370
    25
100
AcDbPolyline
 90
        9
 70
   128
 43
0.0
 10
445.6093029585
 20
715.5290020676
 10
445.3726777205
 20
715.6841061545
 10
445.0636247066
 20
715.7517285271
 10
444.6940206507
 20
715.7292704956
 10
444.2780692294
 20
715.6175951097
 10
443.8317552226
 20
715.4209939916
 10
443.3722302273
 20
715.1470224122
 10
442.9171535313
 20
714.8062089455
 10
442.484013477
 20
714.4116508621
  0
LINE
  5
3E0
330
1F
100
AcDbEntity
  8
0
  6
Continuous
 62
     7
370
    25
100
AcDbLine
 10
445.6093029585
 20
715.5290020676
 30
0.0
 11
504.8787485093
 21
656.2595565169
 31
0.0
  0
LINE
  5
3E1
330
1F
100
AcDbEntity
  8
0
  6
Continuous
 62
     7
370
    25
100
AcDbLine
 10
436.1200524463
 20
708.0476898314
 30
0.0
 11
495.389497997
 21
648.7782442807
 31
0.0
  0
LWPOLYLINE
  5
3E2
330
1F
100
AcDbEntity
  8
0
  6
Continuous
 62
     7
370
    25
100
AcDbPolyline
 90
        9
 70
   128
 43
0.0
 10
436.1200524463
 20
708.0476898314
 10
435.7254943628
 20
707.614549777
 10
435.3846808962
 20
707.1594730811
 10
435.1107093168
 20
706.6999480858
 10
434.9141081987
 20
706.253634079
 10
434.8024328127
 20
705.8376826577
 10
434.7799747813
 20
705.4680786018
 10
434.8475971539
 20
705.1590255878
 10
435.0027012407
 20
704.9224003498
  0
LINE
  5
3E3
330
1F
100
AcDbEntity
  8
0
  6
Continuous
 62
     7
370
    25
100
AcDbLine
 10
494.2721467915
 20
645.6529547991
 30
0.0
 11
435.0027012407
 21
704.9224003498
 31
0.0
  0
LINE
  5
3E4
330
1F
100
AcDbEntity
  8
0
  6
Continuous
 62
     7
370
    25
100
AcDbLine
 10
442.484013477
 20
714.4116508621
 30
0.0
 11
436.1200524463
 21
708.0476898314
 31
0.0
  0
ARC
  5
3E5
330
1F
100
AcDbEntity
  8
0
  6
Continuous
 62
     7
370
    25
100
AcDbCircle
 10
734.4246131619
 20
422.4710511772
 30
0.0
 40
3.000000000000064
100
AcDbArc
 50
315.0
 51
45.0
  0
LINE
  5
3E6
330
1F
100
AcDbEntity
  8
0
  6
Continuous
 62
     7
370
    25
100
AcDbLine
 10
736.5459335054
 20
420.3497308336
 30
0.0
 11
730.9780356921
 21
425.917628647
 31
0.0
  0
LINE
  5
3E7
330
1F
100
AcDbEntity
  8
0
  6
Continuous
 62
     7
370
    25
100
AcDbLine
 10
724.6140746614
 20
419.5536676163
 30
0.0
 11
730.1819724748
 21
413.9857698029
 31
0.0
  0
ARC
  5
3E8
330
1F
100
AcDbEntity
  8
0
  6
Continuous
 62
     7
370
    25
100
AcDbCircle
 10
728.0606521312
 20
416.1070901465
 30
0.0
 40
3.000000000000064
100
AcDbArc
 50
225.0
 51
315.0
  0
LINE
  5
3E9
330
1F
100
AcDbEntity
  8
0
  6
Continuous
 62
     7
370
    25
100
AcDbLine
 10
725.9393317877
 20
413.9857698029
 30
0.0
 11
722.0418033183
 21
417.8832982723
 31
0.0
  0
LINE
  5
3EA
330
1F
100
AcDbEntity
  8
0
  6
Continuous
 62
     7
370
    25
100
AcDbLine
 10
433.5299587257
 20
710.637783552
 30
0.0
 11
436.1200524463
 21
708.0476898314
 31
0.0
  0
ARC
  5
3EB
330
1F
100
AcDbEntity
  8
0
  6
Continuous
 62
     7
370
    25
100
AcDbCircle
 10
435.3408631929
 20
708.5138549853
 30
0.0
 40
2.791137321236575
100
AcDbArc
 50
130.4515811318
 51
219.5800520986
  0
LINE
  5
3EC
330
1F
100
AcDbEntity
  8
0
  6
Continuous
 62
     7
370
    25
100
AcDbLine
 10
435.0027012407
 20
704.9224003498
 30
0.0
 11
433.1896356363
 21
706.7354659542
 31
0.0
  0
LINE
  5
3ED
330
1F
100
AcDbEntity
  8
0
  6
Continuous
 62
     7
370
    25
100
AcDbLine
 10
442.484013477
 20
714.4116508621
 30
0.0
 11
439.8939197564
 21
717.0017445827
 31
0.0
  0
ARC
  5
3EE
330
1F
100
AcDbEntity
  8
0
  6
Continuous
 62
     7
370
    25
100
AcDbCircle
 10
442.0178483231
 20
715.1908401154
 30
0.0
 40
2.791137321236408
100
AcDbArc
 50
50.4199479014
 51
139.5484188682
  0
LINE
  5
3EF
330
1F
100
AcDbEntity
  8
0
  6
Continuous
 62
     7
370
    25
100
AcDbLine
 10
443.7962373541
 20
717.342067672
 30
0.0
 11
445.6093029585
 21
715.5290020676
 31
0.0
  0
LINE
  5
3F0
330
1F
100
AcDbEntity
  8
0
  6
Continuous
 62
     7
370
    25
100
AcDbLine
 10
433.5299587257
 20
710.637783552
 30
0.0
 11
439.8939197564
 21
717.0017445827
 31
0.0
  0
LINE
  5
3F1
330
1F
100
AcDbEntity
  8
0
  6
Continuous
 62
     7
370
    25
100
AcDbLine
 10
386.6774587351
 20
757.4902835426
 30
0.0
 11
433.5299587257
 21
710.637783552
 31
0.0
  0
ARC
  5
3F2
330
1F
100
AcDbEntity
  8
0
  6
Continuous
 62
     7
370
    25
100
AcDbCircle
 10
388.4883632023
 20
755.3663549759
 30
0.0
 40
2.791137321236691
100
AcDbArc
 50
130.4515811318
 51
219.5800520986
  0
LINE
  5
3F3
330
1F
100
AcDbEntity
  8
0
  6
Continuous
 62
     7
370
    25
100
AcDbLine
 10
433.1896356363
 20
706.7354659542
 30
0.0
 11
386.3371356457
 21
753.5879659448
 31
0.0
  0
LINE
  5
3F4
330
1F
100
AcDbEntity
  8
0
  6
Continuous
 62
     7
370
    25
100
AcDbLine
 10
393.0414197658
 20
763.8542445733
 30
0.0
 11
386.6774587351
 21
757.4902835426
 31
0.0
  0
LINE
  5
3F5
330
1F
100
AcDbEntity
  8
0
  6
Continuous
 62
     7
370
    25
100
AcDbLine
 10
439.8939197564
 20
717.0017445827
 30
0.0
 11
393.0414197658
 21
763.8542445733
 31
0.0
  0
ARC
  5
3F6
330
1F
100
AcDbEntity
  8
0
  6
Continuous
 62
     7
370
    25
100
AcDbCircle
 10
395.1653483325
 20
762.043340106
 30
0.0
 40
2.791137321237674
100
AcDbArc
 50
50.4199479014
 51
139.5484188682
  0
LINE
  5
3F7
330
1F
100
AcDbEntity
  8
0
  6
Continuous
 62
     7
370
    25
100
AcDbLine
 10
396.9437373635
 20
764.1945676626
 30
0.0
 11
443.7962373541
 21
717.342067672
 31
0.0
  0
LINE
  5
3F8
330
1F
100
AcDbEntity
  8
0
  6
Continuous
 62
     7
370
    25
100
AcDbLine
 10
386.3371356457
 20
753.5879659448
 30
0.0
 11
384.4086381394
 21
755.5164634511
 31
0.0
  0
LINE
  5
3F9
330
1F
100
AcDbEntity
  8
0
  6
Continuous
 62
     7
370
    25
100
AcDbLine
 10
395.0152398572
 20
766.1230651689
 30
0.0
 11
396.9437373635
 21
764.1945676626
 31
0.0
  0
LINE
  5
3FA
330
1F
100
AcDbEntity
  8
0
  6
Continuous
 62
     7
370
    25
100
AcDbLine
 10
554.7864676167
 20
221.6197021964
 30
0.0
 11
693.359518175
 21
360.1927527546
 31
0.0
  0
ARC
  5
3FB
330
1F
100
AcDbEntity
  8
0
  6
Continuous
 62
     7
370
    25
100
AcDbCircle
 10
691.0329413709
 20
356.8534474372
 30
0.0
 40
4.069879559444269
100
AcDbArc
 50
10.8632759985
 51
55.1341170213
  0
LINE
  5
3FC
330
1F
100
AcDbEntity
  8
0
  6
Continuous
 62
     7
370
    25
100
AcDbLine
 10
695.029887519
 20
357.6204814115
 30
0.0
 11
557.9117570983
 21
220.5023509908
 31
0.0
  0
LWPOLYLINE
  5
3FD
330
1F
100
AcDbEntity
  8
0
  6
Continuous
 62
     7
370
    25
100
AcDbPolyline
 90
        9
 70
   128
 43
0.0
 10
554.7864676167
 20
221.6197021964
 10
555.2196076711
 20
221.2251441129
 10
555.6746843671
 20
220.8843306463
 10
556.1342093624
 20
220.6103590669
 10
556.5805233691
 20
220.4137579488
 10
556.9964747904
 20
220.3020825628
 10
557.3660788463
 20
220.2796245314
 10
557.6751318603
 20
220.347246904
 10
557.9117570983
 20
220.5023509908
  0
LINE
  5
3FE
330
1F
100
AcDbEntity
  8
0
  6
Continuous
 62
     7
370
    25
100
AcDbLine
 10
547.3051553805
 20
231.1089527086
 30
0.0
 11
684.4232858012
 21
368.2270831293
 31
0.0
  0
ARC
  5
3FF
330
1F
100
AcDbEntity
  8
0
  6
Continuous
 62
     7
370
    25
100
AcDbCircle
 10
683.6562518268
 20
364.2301369812
 30
0.0
 40
4.069879559445302
100
AcDbArc
 50
34.8658829787
 51
79.1367240015
  0
LINE
  5
400
330
1F
100
AcDbEntity
  8
0
  6
Continuous
 62
     7
370
    25
100
AcDbLine
 10
686.9955571443
 20
366.5567137853
 30
0.0
 11
548.422506586
 21
227.9836632271
 31
0.0
  0
LWPOLYLINE
  5
401
330
1F
100
AcDbEntity
  8
0
  6
Continuous
 62
     7
370
    25
100
AcDbPolyline
 90
        9
 70
   128
 43
0.0
 10
547.3051553805
 20
231.1089527086
 10
547.1500512936
 20
230.8723274706
 10
547.082428921
 20
230.5632744567
 10
547.1048869525
 20
230.1936704008
 10
547.2165623385
 20
229.7777189795
 10
547.4131634565
 20
229.3314049727
 10
547.6871350359
 20
228.8718799774
 10
548.0279485026
 20
228.4168032814
 10
548.422506586
 20
227.9836632271
  0
LINE
  5
402
330
1F
100
AcDbEntity
  8
0
  6
Continuous
 62
     7
370
    25
100
AcDbLine
 10
548.422506586
 20
227.9836632271
 30
0.0
 11
554.7864676167
 21
221.6197021964
 31
0.0
  0
LINE
  5
403
330
1F
100
AcDbEntity
  8
0
  6
Continuous
 62
     7
370
    25
100
AcDbLine
 10
686.9955571443
 20
366.5567137853
 30
0.0
 11
693.359518175
 21
360.1927527546
 31
0.0
  0
ARC
  5
404
330
1F
100
AcDbEntity
  8
0
  6
Continuous
 62
     7
370
    25
100
AcDbCircle
 10
774.3077779329
 20
454.8816630873
 30
0.0
 40
4.069879559445769
100
AcDbArc
 50
34.8658829787
 51
79.1367240015
  0
LINE
  5
405
330
1F
100
AcDbEntity
  8
0
  6
Continuous
 62
     7
370
    25
100
AcDbLine
 10
777.6470832504
 20
457.2082398914
 30
0.0
 11
686.9955571443
 21
366.5567137853
 31
0.0
  0
LINE
  5
406
330
1F
100
AcDbEntity
  8
0
  6
Continuous
 62
     7
370
    25
100
AcDbLine
 10
684.4232858012
 20
368.2270831293
 30
0.0
 11
740.0814674114
 21
423.8852647395
 31
0.0
  0
LINE
  5
407
330
1F
100
AcDbEntity
  8
0
  6
Continuous
 62
     7
370
    25
100
AcDbLine
 10
693.359518175
 20
360.1927527546
 30
0.0
 11
784.011044281
 21
450.8442788607
 31
0.0
  0
LINE
  5
408
330
1F
100
AcDbEntity
  8
0
  6
Continuous
 62
     7
370
    25
100
AcDbLine
 10
777.6470832504
 20
457.2082398914
 30
0.0
 11
784.011044281
 21
450.8442788607
 31
0.0
  0
ARC
  5
409
330
1F
100
AcDbEntity
  8
0
  6
Continuous
 62
     7
370
    25
100
AcDbCircle
 10
781.684467477
 20
447.5049735432
 30
0.0
 40
4.06987955944609
100
AcDbArc
 50
10.8632759985
 51
55.1341170213
  0
LINE
  5
40A
330
1F
100
AcDbEntity
  8
0
  6
Continuous
 62
     7
370
    25
100
AcDbLine
 10
785.6814136251
 20
448.2720075176
 30
0.0
 11
695.029887519
 21
357.6204814115
 31
0.0
  0
LINE
  5
40B
330
1F
100
AcDbEntity
  8
0
  6
Continuous
 62
     7
370
    25
100
AcDbLine
 10
548.422506586
 20
227.9836632271
 30
0.0
 11
489.1530610353
 21
168.7142176763
 31
0.0
  0
LWPOLYLINE
  5
40C
330
1F
100
AcDbEntity
  8
0
  6
Continuous
 62
     7
370
    25
100
AcDbPolyline
 90
        9
 70
   128
 43
0.0
 10
488.0357098297
 20
171.8395071579
 10
487.8806057429
 20
171.6028819199
 10
487.8129833703
 20
171.2938289059
 10
487.8354414017
 20
170.92422485
 10
487.9471167877
 20
170.5082734287
 10
488.1437179058
 20
170.0619594219
 10
488.4176894852
 20
169.6024344266
 10
488.7585029518
 20
169.1473577307
 10
489.1530610353
 20
168.7142176763
  0
LINE
  5
40D
330
1F
100
AcDbEntity
  8
0
  6
Continuous
 62
     7
370
    25
100
AcDbLine
 10
488.0357098297
 20
171.8395071579
 30
0.0
 11
547.3051553805
 21
231.1089527086
 31
0.0
  0
LINE
  5
40E
330
1F
100
AcDbEntity
  8
0
  6
Continuous
 62
     7
370
    25
100
AcDbLine
 10
495.5170220659
 20
162.3502566456
 30
0.0
 11
554.7864676167
 21
221.6197021964
 31
0.0
  0
LWPOLYLINE
  5
40F
330
1F
100
AcDbEntity
  8
0
  6
Continuous
 62
     7
370
    25
100
AcDbPolyline
 90
        9
 70
   128
 43
0.0
 10
495.5170220659
 20
162.3502566456
 10
495.9501621203
 20
161.9556985622
 10
496.4052388163
 20
161.6148850955
 10
496.8647638116
 20
161.3409135161
 10
497.3110778184
 20
161.144312398
 10
497.7270292396
 20
161.0326370121
 10
498.0966332956
 20
161.0101789806
 10
498.4056863095
 20
161.0778013532
 10
498.6423115475
 20
161.2329054401
  0
LINE
  5
410
330
1F
100
AcDbEntity
  8
0
  6
Continuous
 62
     7
370
    25
100
AcDbLine
 10
557.9117570983
 20
220.5023509908
 30
0.0
 11
498.6423115475
 21
161.2329054401
 31
0.0
  0
LINE
  5
411
330
1F
100
AcDbEntity
  8
0
  6
Continuous
 62
     7
370
    25
100
AcDbLine
 10
489.1530610353
 20
168.7142176763
 30
0.0
 11
495.5170220659
 21
162.3502566456
 31
0.0
  0
LINE
  5
412
330
1F
100
AcDbEntity
  8
0
  6
Continuous
 62
     7
370
    25
100
AcDbLine
 10
784.011044281
 20
450.8442788607
 30
0.0
 11
789.5789420944
 21
456.4121766741
 31
0.0
  0
ARC
  5
413
330
1F
100
AcDbEntity
  8
0
  6
Continuous
 62
     7
370
    25
100
AcDbCircle
 10
787.4576217509
 20
454.2908563305
 30
0.0
 40
3.000000000000145
100
AcDbArc
 50
315.0
 51
45.0
  0
LINE
  5
414
330
1F
100
AcDbEntity
  8
0
  6
Continuous
 62
     7
370
    25
100
AcDbLine
 10
789.5789420944
 20
452.169535987
 30
0.0
 11
785.6814136251
 21
448.2720075176
 31
0.0
  0
ARC
  5
415
330
1F
100
AcDbEntity
  8
0
  6
Continuous
 62
     7
370
    25
100
AcDbCircle
 10
781.0936607202
 20
460.6548173612
 30
0.0
 40
3.000000000000105
100
AcDbArc
 50
45.0
 51
135.0
  0
LINE
  5
416
330
1F
100
AcDbEntity
  8
0
  6
Continuous
 62
     7
370
    25
100
AcDbLine
 10
783.2149810638
 20
462.7761377048
 30
0.0
 11
777.6470832504
 21
457.2082398914
 31
0.0
  0
LINE
  5
417
330
1F
100
AcDbEntity
  8
0
  6
Continuous
 62
     7
370
    25
100
AcDbLine
 10
492.9269283453
 20
159.760162925
 30
0.0
 11
495.5170220659
 21
162.3502566456
 31
0.0
  0
ARC
  5
418
330
1F
100
AcDbEntity
  8
0
  6
Continuous
 62
     7
370
    25
100
AcDbCircle
 10
495.0508569121
 20
161.5710673923
 30
0.0
 40
2.791137321236721
100
AcDbArc
 50
220.4515811318
 51
309.5800520986
  0
LINE
  5
419
330
1F
100
AcDbEntity
  8
0
  6
Continuous
 62
     7
370
    25
100
AcDbLine
 10
498.6423115475
 20
161.2329054401
 30
0.0
 11
496.8292459431
 21
159.4198398357
 31
0.0
  0
LINE
  5
41A
330
1F
100
AcDbEntity
  8
0
  6
Continuous
 62
     7
370
    25
100
AcDbLine
 10
489.1530610353
 20
168.7142176763
 30
0.0
 11
486.5629673147
 21
166.1241239557
 31
0.0
  0
ARC
  5
41B
330
1F
100
AcDbEntity
  8
0
  6
Continuous
 62
     7
370
    25
100
AcDbCircle
 10
488.3738717819
 20
168.2480525224
 30
0.0
 40
2.791137321236619
100
AcDbArc
 50
140.4199479014
 51
229.5484188682
  0
LINE
  5
41C
330
1F
100
AcDbEntity
  8
0
  6
Continuous
 62
     7
370
    25
100
AcDbLine
 10
486.2226442253
 20
170.0264415535
 30
0.0
 11
488.0357098297
 21
171.8395071579
 31
0.0
  0
LINE
  5
41D
330
1F
100
AcDbEntity
  8
0
  6
Continuous
 62
     7
370
    25
100
AcDbLine
 10
492.9269283453
 20
159.760162925
 30
0.0
 11
486.5629673147
 21
166.1241239557
 31
0.0
  0
LINE
  5
41E
330
1F
100
AcDbEntity
  8
0
  6
Continuous
 62
     7
370
    25
100
AcDbLine
 10
486.5629673147
 20
166.1241239557
 30
0.0
 11
439.7104673241
 21
119.2716239651
 31
0.0
  0
ARC
  5
41F
330
1F
100
AcDbEntity
  8
0
  6
Continuous
 62
     7
370
    25
100
AcDbCircle
 10
441.5213717913
 20
121.3955525318
 30
0.0
 40
2.791137321237326
100
AcDbArc
 50
140.4199479014
 51
229.5484188682
  0
LINE
  5
420
330
1F
100
AcDbEntity
  8
0
  6
Continuous
 62
     7
370
    25
100
AcDbLine
 10
439.3701442347
 20
123.1739415629
 30
0.0
 11
486.2226442253
 21
170.0264415535
 31
0.0
  0
LINE
  5
421
330
1F
100
AcDbEntity
  8
0
  6
Continuous
 62
     7
370
    25
100
AcDbLine
 10
446.0744283548
 20
112.9076629344
 30
0.0
 11
492.9269283453
 21
159.760162925
 31
0.0
  0
ARC
  5
422
330
1F
100
AcDbEntity
  8
0
  6
Continuous
 62
     7
370
    25
100
AcDbCircle
 10
448.1983569215
 20
114.7185674017
 30
0.0
 40
2.791137321236571
100
AcDbArc
 50
220.4515811318
 51
309.5800520986
  0
LINE
  5
423
330
1F
100
AcDbEntity
  8
0
  6
Continuous
 62
     7
370
    25
100
AcDbLine
 10
496.8292459431
 20
159.4198398357
 30
0.0
 11
449.9767459525
 21
112.5673398451
 31
0.0
  0
LINE
  5
424
330
1F
100
AcDbEntity
  8
0
  6
Continuous
 62
     7
370
    25
100
AcDbLine
 10
439.7104673241
 20
119.2716239651
 30
0.0
 11
446.0744283548
 21
112.9076629344
 31
0.0
  0
LINE
  5
425
330
1F
100
AcDbEntity
  8
0
  6
Continuous
 62
     7
370
    25
100
AcDbLine
 10
449.9767459525
 20
112.5673398451
 30
0.0
 11
448.0482484462
 21
110.6388423388
 31
0.0
  0
LINE
  5
426
330
1F
100
AcDbEntity
  8
0
  6
Continuous
 62
     7
370
    25
100
AcDbLine
 10
437.4416467284
 20
121.2454440566
 30
0.0
 11
439.3701442347
 21
123.1739415629
 31
0.0
  0
ARC
  5
427
330
1F
100
AcDbEntity
  8
0
  6
Continuous
 62
     7
370
    25
100
AcDbCircle
 10
-27.570520148
 20
24.766423089
 30
0.0
 40
1875.407041035653
100
AcDbArc
 50
161.0509488967
 51
178.8587027324
  0
ARC
  5
428
330
1F
100
AcDbEntity
  8
0
  6
Continuous
 62
     7
370
    25
100
AcDbCircle
 10
-227.6145633629
 20
389.3389301726
 30
0.0
 40
1592.598524211887
100
AcDbArc
 50
140.3609700472
 51
171.1716672317
  0
ARC
  5
429
330
1F
100
AcDbEntity
  8
0
  6
Continuous
 62
     7
370
    25
100
AcDbCircle
 10
-9.82970594
 20
208.9215998927
 30
0.0
 40
1875.407041035652
100
AcDbArc
 50
107.4308612273
 51
140.3609700472
  0
ARC
  5
42A
330
1F
100
AcDbEntity
  8
0
  6
Continuous
 62
     7
370
    25
100
AcDbCircle
 10
397.9316055719
 20
250.8230499576
 30
0.0
 40
1998.34412065093
100
AcDbArc
 50
73.2393073858
 51
119.0239961168
  0
ARC
  5
42B
330
1F
100
AcDbEntity
  8
0
  6
Continuous
 62
     7
370
    25
100
AcDbCircle
 10
771.1941657836
 20
464.8974580483
 30
0.0
 40
1505.0
100
AcDbArc
 50
324.8795666426
 51
31.7117997582
  0
ARC
  5
42C
330
1F
100
AcDbEntity
  8
0
  6
Continuous
 62
     7
370
    25
100
AcDbCircle
 10
534.2619772604
 20
463.8239659551
 30
0.0
 40
1703.711916956843
100
AcDbArc
 50
296.1841170308
 51
329.4980748668
  0
ARC
  5
42D
330
1F
100
AcDbEntity
  8
0
  6
Continuous
 62
     7
370
    25
100
AcDbCircle
 10
-310.3229321201
 20
30.399425133
 30
0.0
 40
1592.598524211887
100
AcDbArc
 50
178.8587027324
 51
198.4947528155
  0
ARC
  5
42E
330
1F
100
AcDbEntity
  8
0
  6
Continuous
 62
     7
370
    25
100
AcDbCircle
 10
34.2625721561
 20
-198.4247691183
 30
0.0
 40
1875.407041035652
100
AcDbArc
 50
188.4744732098
 51
208.0952989783
  0
ARC
  5
42F
330
1F
100
AcDbEntity
  8
0
  6
Continuous
 62
     7
370
    25
100
AcDbCircle
 10
462.0809585583
 20
463.8239659551
 30
0.0
 40
1775.892935658892
100
AcDbArc
 50
26.4917977324
 51
73.2393073858
  0
ARC
  5
430
330
1F
100
AcDbEntity
  8
0
  6
Continuous
 62
     7
370
    25
100
AcDbCircle
 10
-39.5512578455
 20
-100.7964408058
 30
0.0
 40
1639.200203072293
100
AcDbArc
 50
308.4341767305
 51
323.9671520904
  0
ARC
  5
431
330
1F
100
AcDbEntity
  8
0
  6
Continuous
 62
     7
370
    25
100
AcDbCircle
 10
-215.2213469739
 20
-331.6104713675
 30
0.0
 40
1592.598524211887
100
AcDbArc
 50
208.0952989783
 51
318.5997807941
  0
ARC
  5
432
330
1F
100
AcDbEntity
  8
0
  6
Continuous
 62
     7
370
    25
100
AcDbCircle
 10
-107.0245724832
 20
-209.7501516616
 30
0.0
 40
222.0473755957107
100
AcDbArc
 50
80.0005302546
 51
130.2495463733
  0
ARC
  5
433
330
1F
100
AcDbEntity
  8
0
  6
Continuous
 62
     7
370
    25
100
AcDbCircle
 10
79.4720576848
 20
-441.8730648269
 30
0.0
 40
222.0473755957106
100
AcDbArc
 50
109.2371265005
 51
159.4861426192
  0
ARC
  5
434
330
1F
100
AcDbEntity
  8
0
  6
Continuous
 62
     7
370
    25
100
AcDbCircle
 10
-217.9957899838
 20
74.8400884189
 30
0.0
 40
222.0473755957107
100
AcDbArc
 50
41.5027975693
 51
91.751813688
  0
ARC
  5
435
330
1F
100
AcDbEntity
  8
0
  6
Continuous
 62
     8
370
    25
100
AcDbCircle
 10
45.3886021275
 20
515.6478557108
 30
0.0
 40
54.41470791029937
100
AcDbArc
 50
153.836136757
 51
256.1223218852
  0
LINE
  5
436
330
1F
100
AcDbEntity
  8
0
  6
Continuous
 62
     8
370
    25
100
AcDbLine
 10
695.3605004506
 20
465.7778045756
 30
0.0
 11
695.4275013631
 21
466.2524580184
 31
0.0
  0
ARC
  5
437
330
1F
100
AcDbEntity
  8
0
  6
Continuous
 62
     8
370
    25
100
AcDbCircle
 10
165.7502052658
 20
348.8913407958
 30
0.0
 40
29.01222861108548
100
AcDbArc
 50
187.2110545346
 51
287.4200355421
  0
ARC
  5
438
330
1F
100
AcDbEntity
  8
0
  6
Continuous
 62
     8
370
    25
100
AcDbCircle
 10
534.2619772604
 20
463.8239659551
 30
0.0
 40
176.7119169568448
100
AcDbArc
 50
339.9944990359
 51
344.3482957821
  0
ARC
  5
439
330
1F
100
AcDbEntity
  8
0
  6
Continuous
 62
     8
370
    25
100
AcDbCircle
 10
534.2619772604
 20
463.8239659551
 30
0.0
 40
176.711916956845
100
AcDbArc
 50
232.7153334138
 51
304.5435444943
  0
ARC
  5
43A
330
1F
100
AcDbEntity
  8
0
  6
Continuous
 62
     8
370
    25
100
AcDbCircle
 10
534.2619772604
 20
463.8239659551
 30
0.0
 40
200.711916956845
100
AcDbArc
 50
232.7153334138
 51
284.9746975328
  0
ARC
  5
43B
330
1F
100
AcDbEntity
  8
0
  6
Continuous
 62
     8
370
    25
100
AcDbCircle
 10
534.2619772604
 20
463.8239659551
 30
0.0
 40
200.7119169568449
100
AcDbArc
 50
295.142186573
 51
334.857813427
  0
LWPOLYLINE
  5
43C
330
1F
100
AcDbEntity
  8
0
  6
Continuous
 62
     8
370
    25
100
AcDbPolyline
 90
        3
 70
   128
 43
0.0
 10
728.1577234441
 20
411.9615207722
 10
728.2642118928
 20
412.3612943755
 10
728.4677605368
 20
413.1348413773
  0
ARC
  5
43D
330
1F
100
AcDbEntity
  8
0
  6
Continuous
 62
     8
370
    25
100
AcDbCircle
 10
-109.2077776526
 20
170.3275956177
 30
0.0
 40
205.5157687629134
100
AcDbArc
 50
339.4621124637
 51
3.2476434152
  0
ARC
  5
43E
330
1F
100
AcDbEntity
  8
0
  6
Continuous
 62
     8
370
    25
100
AcDbCircle
 10
-109.2077776526
 20
170.3275956177
 30
0.0
 40
181.5157687629135
100
AcDbArc
 50
339.4621124637
 51
1.9226768974
  0
ARC
  5
43F
330
1F
100
AcDbEntity
  8
0
  6
Continuous
 62
     8
370
    25
100
AcDbCircle
 10
-108.0695070712
 20
-111.2796259165
 30
0.0
 40
205.5157687629133
100
AcDbArc
 50
8.6987087096
 51
44.8075010246
  0
ARC
  5
440
330
1F
100
AcDbEntity
  8
0
  6
Continuous
 62
     8
370
    25
100
AcDbCircle
 10
-108.0695070712
 20
-111.2796259165
 30
0.0
 40
181.5157687629135
100
AcDbArc
 50
8.6987087096
 51
46.677538687
  0
ARC
  5
441
330
1F
100
AcDbEntity
  8
0
  6
Continuous
 62
     8
370
    25
100
AcDbCircle
 10
34.2625721561
 20
-198.4247691183
 30
0.0
 40
348.4070410356537
100
AcDbArc
 50
156.3446847918
 51
188.7251564702
  0
ARC
  5
442
330
1F
100
AcDbEntity
  8
0
  6
Continuous
 62
     8
370
    25
100
AcDbCircle
 10
34.2625721561
 20
-198.4247691183
 30
0.0
 40
372.4070410356534
100
AcDbArc
 50
158.539730086
 51
188.7251564702
  0
ARC
  5
443
330
1F
100
AcDbEntity
  8
0
  6
Continuous
 62
     8
370
    25
100
AcDbCircle
 10
16.8877518183
 20
373.6604059213
 30
0.0
 40
205.5157687629132
100
AcDbArc
 50
345.8932767904
 51
352.4729410772
  0
LINE
  5
444
330
1F
100
AcDbEntity
  8
0
  6
Continuous
 62
     8
370
    25
100
AcDbLine
 10
193.0392972831
 20
329.8584956895
 30
0.0
 11
192.9296261967
 21
329.4197823392
 31
0.0
  0
ARC
  5
445
330
1F
100
AcDbEntity
  8
0
  6
Continuous
 62
     8
370
    25
100
AcDbCircle
 10
-9.82970594
 20
208.9215998927
 30
0.0
 40
348.4070410356537
100
AcDbArc
 50
87.600927672
 51
120.9908275391
  0
ARC
  5
446
330
1F
100
AcDbEntity
  8
0
  6
Continuous
 62
     8
370
    25
100
AcDbCircle
 10
-9.82970594
 20
208.9215998927
 30
0.0
 40
372.4070410356531
100
AcDbArc
 50
84.8460579162
 51
120.9908275391
  0
ARC
  5
447
330
1F
100
AcDbEntity
  8
0
  6
Continuous
 62
     8
370
    25
100
AcDbCircle
 10
-27.570520148
 20
24.766423089
 30
0.0
 40
348.4070410356535
100
AcDbArc
 50
128.3160427522
 51
159.4885602244
  0
ARC
  5
448
330
1F
100
AcDbEntity
  8
0
  6
Continuous
 62
     8
370
    25
100
AcDbCircle
 10
-27.570520148
 20
24.766423089
 30
0.0
 40
372.407041035653
100
AcDbArc
 50
130.6815731278
 51
159.4885602244
  0
ARC
  5
449
330
1F
100
AcDbEntity
  8
0
  6
Continuous
 62
     8
370
    25
100
AcDbCircle
 10
462.0809585583
 20
463.8239659551
 30
0.0
 40
272.8929356588915
100
AcDbArc
 50
11.7018782475
 51
73.2393073858
  0
ARC
  5
44A
330
1F
100
AcDbEntity
  8
0
  6
Continuous
 62
     8
370
    25
100
AcDbCircle
 10
397.9316055719
 20
250.8230499576
 30
0.0
 40
495.3441206509299
100
AcDbArc
 50
73.2393073858
 51
87.9935213143
  0
ARC
  5
44B
330
1F
100
AcDbEntity
  8
0
  6
Continuous
 62
     8
370
    25
100
AcDbCircle
 10
397.9316055719
 20
250.8230499576
 30
0.0
 40
495.3441206509294
100
AcDbArc
 50
90.480751982
 51
143.0866957935
  0
ARC
  5
44C
330
1F
100
AcDbEntity
  8
0
  6
Continuous
 62
     8
370
    25
100
AcDbCircle
 10
462.0809585583
 20
463.8239659551
 30
0.0
 40
248.8929356588915
100
AcDbArc
 50
11.4308982296
 51
73.2393073858
  0
ARC
  5
44D
330
1F
100
AcDbEntity
  8
0
  6
Continuous
 62
     8
370
    25
100
AcDbCircle
 10
397.9316055719
 20
250.8230499576
 30
0.0
 40
471.3441206509308
100
AcDbArc
 50
87.5362224868
 51
143.0866957935
  0
ARC
  5
44E
330
1F
100
AcDbEntity
  8
0
  6
Continuous
 62
     8
370
    25
100
AcDbCircle
 10
397.9316055719
 20
250.8230499576
 30
0.0
 40
471.3441206509301
100
AcDbArc
 50
73.2393073858
 51
84.7650392384
  0
LINE
  5
44F
330
1F
100
AcDbEntity
  8
0
  6
Continuous
 62
     8
370
    25
100
AcDbLine
 10
713.8903419144
 20
424.6205461138
 30
0.0
 11
717.1004970228
 21
421.4103910054
 31
0.0
  0
LINE
  5
450
330
1F
100
AcDbEntity
  8
0
  6
Continuous
 62
     8
370
    25
100
AcDbLine
 10
695.180186806
 20
443.3307012222
 30
0.0
 11
713.8903419144
 21
424.6205461138
 31
0.0
  0
LINE
  5
451
330
1F
100
AcDbEntity
  8
0
  6
Continuous
 62
     8
370
    25
100
AcDbLine
 10
763.4441657836
 20
505.1743699829
 30
0.0
 11
760.2340106752
 21
508.3845250913
 31
0.0
  0
LINE
  5
452
330
1F
100
AcDbEntity
  8
0
  6
Continuous
 62
     8
370
    25
100
AcDbLine
 10
782.154320892
 20
486.4642148745
 30
0.0
 11
763.4441657836
 21
505.1743699829
 31
0.0
  0
LINE
  5
453
330
1F
100
AcDbEntity
  8
0
  6
Continuous
 62
     8
370
    25
100
AcDbLine
 10
698.3903419144
 20
489.6743699829
 30
0.0
 11
695.180186806
 21
486.4642148745
 31
0.0
  0
LINE
  5
454
330
1F
100
AcDbEntity
  8
0
  6
Continuous
 62
     8
370
    25
100
AcDbLine
 10
717.1004970228
 20
508.3845250913
 30
0.0
 11
698.3903419144
 21
489.6743699829
 31
0.0
  0
LINE
  5
455
330
1F
100
AcDbEntity
  8
0
  6
Continuous
 62
     8
370
    25
100
AcDbLine
 10
778.9441657836
 20
440.1205461138
 30
0.0
 11
782.154320892
 21
443.3307012222
 31
0.0
  0
LINE
  5
456
330
1F
100
AcDbEntity
  8
0
  6
Continuous
 62
     8
370
    25
100
AcDbLine
 10
760.2340106752
 20
421.4103910054
 30
0.0
 11
778.9441657836
 21
440.1205461138
 31
0.0
  0
LINE
  5
457
330
1F
100
AcDbEntity
  8
0
  6
Continuous
 62
     8
370
    25
100
AcDbLine
 10
692.2198503844
 20
500.594861513
 30
0.0
 11
689.9934524866
 21
498.3684636152
 31
0.0
  0
LINE
  5
458
330
1F
100
AcDbEntity
  8
0
  6
Continuous
 62
     8
370
    25
100
AcDbLine
 10
705.1962482821
 20
513.5712594107
 30
0.0
 11
692.2198503844
 21
500.594861513
 31
0.0
  0
LINE
  5
459
330
1F
100
AcDbEntity
  8
0
  6
Continuous
 62
     8
370
    25
100
AcDbLine
 10
692.017915581
 20
501.1888799609
 30
0.0
 11
689.8727208648
 21
499.0436852447
 31
0.0
  0
LINE
  5
45A
330
1F
100
AcDbEntity
  8
0
  6
Continuous
 62
     8
370
    25
100
AcDbLine
 10
704.5210266527
 20
513.6919910325
 30
0.0
 11
692.017915581
 21
501.1888799609
 31
0.0
  0
LINE
  5
45B
330
1F
100
AcDbEntity
  8
0
  6
Continuous
 62
     8
370
    25
100
AcDbLine
 10
785.1146573136
 20
429.2000545838
 30
0.0
 11
787.3410552114
 21
431.4264524815
 31
0.0
  0
LINE
  5
45C
330
1F
100
AcDbEntity
  8
0
  6
Continuous
 62
     8
370
    25
100
AcDbLine
 10
772.1382594159
 20
416.223656686
 30
0.0
 11
785.1146573136
 21
429.2000545838
 31
0.0
  0
LINE
  5
45D
330
1F
100
AcDbEntity
  8
0
  6
Continuous
 62
     8
370
    25
100
AcDbLine
 10
785.316592117
 20
428.6060361359
 30
0.0
 11
787.4617868332
 21
430.751230852
 31
0.0
  0
LINE
  5
45E
330
1F
100
AcDbEntity
  8
0
  6
Continuous
 62
     8
370
    25
100
AcDbLine
 10
772.8134810454
 20
416.1029250642
 30
0.0
 11
785.316592117
 21
428.6060361359
 31
0.0
  0
LINE
  5
45F
330
1F
100
AcDbEntity
  8
0
  6
Continuous
 62
     8
370
    25
100
AcDbLine
 10
774.3646573136
 20
511.344861513
 30
0.0
 11
772.1382594159
 21
513.5712594107
 31
0.0
  0
LINE
  5
460
330
1F
100
AcDbEntity
  8
0
  6
Continuous
 62
     8
370
    25
100
AcDbLine
 10
787.3410552114
 20
498.3684636152
 30
0.0
 11
774.3646573136
 21
511.344861513
 31
0.0
  0
LINE
  5
461
330
1F
100
AcDbEntity
  8
0
  6
Continuous
 62
     8
370
    25
100
AcDbLine
 10
774.9586757615
 20
511.5467963164
 30
0.0
 11
772.8134810453
 21
513.6919910325
 31
0.0
  0
LINE
  5
462
330
1F
100
AcDbEntity
  8
0
  6
Continuous
 62
     8
370
    25
100
AcDbLine
 10
787.4617868332
 20
499.0436852447
 30
0.0
 11
774.9586757615
 21
511.5467963164
 31
0.0
  0
LINE
  5
463
330
1F
100
AcDbEntity
  8
0
  6
Continuous
 62
     8
370
    25
100
AcDbLine
 10
702.9698503844
 20
418.4500545837
 30
0.0
 11
705.1962482821
 21
416.223656686
 31
0.0
  0
LINE
  5
464
330
1F
100
AcDbEntity
  8
0
  6
Continuous
 62
     8
370
    25
100
AcDbLine
 10
689.9934524866
 20
431.4264524815
 30
0.0
 11
702.9698503844
 21
418.4500545837
 31
0.0
  0
LINE
  5
465
330
1F
100
AcDbEntity
  8
0
  6
Continuous
 62
     8
370
    25
100
AcDbLine
 10
702.3758319365
 20
418.2481197803
 30
0.0
 11
704.5210266527
 21
416.1029250642
 31
0.0
  0
LINE
  5
466
330
1F
100
AcDbEntity
  8
0
  6
Continuous
 62
     8
370
    25
100
AcDbLine
 10
689.8727208648
 20
430.751230852
 30
0.0
 11
702.3758319365
 21
418.2481197803
 31
0.0
  0
ARC
  5
467
330
1F
100
AcDbEntity
  8
0
  6
Continuous
 62
     8
370
    25
100
AcDbCircle
 10
691.2910995095
 20
417.5213037088
 30
0.0
 40
6.637921400061516
100
AcDbArc
 50
270.0
 51
34.411687437
  0
ARC
  5
468
330
1F
100
AcDbEntity
  8
0
  6
Continuous
 62
     8
370
    25
100
AcDbCircle
 10
691.2910995095
 20
417.5213037088
 30
0.0
 40
6.63792140006141
100
AcDbArc
 50
55.588312563
 51
270.0
  0
ARC
  5
469
330
1F
100
AcDbEntity
  8
0
  6
Continuous
 62
     8
370
    25
100
AcDbCircle
 10
691.2910995095
 20
512.2736123878
 30
0.0
 40
6.637921400061339
100
AcDbArc
 50
270.0
 51
304.411687437
  0
ARC
  5
46A
330
1F
100
AcDbEntity
  8
0
  6
Continuous
 62
     8
370
    25
100
AcDbCircle
 10
691.2910995095
 20
512.2736123878
 30
0.0
 40
6.637921400061339
100
AcDbArc
 50
325.588312563
 51
270.0
  0
LINE
  5
46B
330
1F
100
AcDbEntity
  8
0
  6
Continuous
 62
     8
370
    25
100
AcDbLine
 10
949.4702727094
 20
564.423405888
 30
0.0
 11
948.2907598766
 21
563.2683844003
 31
0.0
  0
ARC
  5
46C
330
1F
100
AcDbEntity
  8
0
  6
Continuous
 62
     8
370
    25
100
AcDbCircle
 10
893.831737199
 20
620.0619413984
 30
0.0
 40
78.68477150938861
100
AcDbArc
 50
242.8962688788
 51
311.9249175098
  0
ARC
  5
46D
330
1F
100
AcDbEntity
  8
0
  6
Continuous
 62
     8
370
    25
100
AcDbCircle
 10
893.831737199
 20
620.0619413984
 30
0.0
 40
78.68477150938857
100
AcDbArc
 50
137.8851903499
 51
190.1170158686
  0
ARC
  5
46E
330
1F
100
AcDbEntity
  8
0
  6
Continuous
 62
     8
370
    25
100
AcDbCircle
 10
893.831737199
 20
620.0619413984
 30
0.0
 40
78.68477150938871
100
AcDbArc
 50
79.8829841314
 51
136.1568170931
  0
ARC
  5
46F
330
1F
100
AcDbEntity
  8
0
  6
Continuous
 62
     8
370
    25
100
AcDbCircle
 10
893.831737199
 20
620.0619413984
 30
0.0
 40
78.68477150938861
100
AcDbArc
 50
315.0
 51
67.4122590821
  0
ARC
  5
470
330
1F
100
AcDbEntity
  8
0
  6
Continuous
 62
     8
370
    25
100
AcDbCircle
 10
893.831737199
 20
620.0619413984
 30
0.0
 40
76.78451877914338
100
AcDbArc
 50
315.0
 51
67.9982963307
  0
ARC
  5
471
330
1F
100
AcDbEntity
  8
0
  6
Continuous
 62
     8
370
    25
100
AcDbCircle
 10
893.831737199
 20
620.0619413984
 30
0.0
 40
76.78451877914341
100
AcDbArc
 50
80.8776009223
 51
134.8170711251
  0
ARC
  5
472
330
1F
100
AcDbEntity
  8
0
  6
Continuous
 62
     8
370
    25
100
AcDbCircle
 10
893.831737199
 20
620.0619413984
 30
0.0
 40
76.7845187791434
100
AcDbArc
 50
140.1484292041
 51
189.1223990777
  0
ARC
  5
473
330
1F
100
AcDbEntity
  8
0
  6
Continuous
 62
     8
370
    25
100
AcDbCircle
 10
893.831737199
 20
620.0619413984
 30
0.0
 40
76.78451877914344
100
AcDbArc
 50
243.724190665
 51
309.8515707959
  0
ARC
  5
474
330
1F
100
AcDbEntity
  8
0
  6
Continuous
 62
     8
370
    25
100
AcDbCircle
 10
893.831737199
 20
620.0619413984
 30
0.0
 40
87.99999999999999
100
AcDbArc
 50
315.0
 51
64.9322704722
  0
ARC
  5
475
330
1F
100
AcDbEntity
  8
0
  6
Continuous
 62
     8
370
    25
100
AcDbCircle
 10
893.831737199
 20
620.0619413984
 30
0.0
 40
87.99999999999996
100
AcDbArc
 50
75.754703633
 51
194.245296367
  0
LINE
  5
476
330
1F
100
AcDbEntity
  8
0
  6
Continuous
 62
     8
370
    25
100
AcDbLine
 10
843.1235772358
 20
548.1405779995
 30
0.0
 11
844.2559057916
 21
547.3554290335
 31
0.0
  0
ARC
  5
477
330
1F
100
AcDbEntity
  8
0
  6
Continuous
 62
     8
370
    25
100
AcDbCircle
 10
893.831737199
 20
620.0619413984
 30
0.0
 40
87.99999999999999
100
AcDbArc
 50
239.9451824729
 51
315.0
  0
ARC
  5
478
330
1F
100
AcDbEntity
  8
0
  6
Continuous
 62
     8
370
    25
100
AcDbCircle
 10
846.4661865542
 20
673.5149767972
 30
0.0
 40
2.500038633732457
100
AcDbArc
 50
315.3185283984
 51
134.6814716016
  0
ARC
  5
479
330
1F
100
AcDbEntity
  8
0
  6
Continuous
 62
     8
370
    25
100
AcDbCircle
 10
847.4697167148
 20
674.5185069578
 30
0.0
 40
2.500034944564679
100
AcDbArc
 50
315.302938807
 51
134.697061193
  0
ARC
  5
47A
330
1F
100
AcDbEntity
  8
0
  6
Continuous
 62
     8
370
    25
100
AcDbCircle
 10
845.9885716613
 20
660.353960888
 30
0.0
 40
2.279967980016852
100
AcDbArc
 50
352.8610454727
 51
47.4646443066
  0
ARC
  5
47B
330
1F
100
AcDbEntity
  8
0
  6
Continuous
 62
     8
370
    25
100
AcDbCircle
 10
837.3807515315
 20
667.647424404
 30
0.0
 40
2.319862529061897
100
AcDbArc
 50
2.8461316019
 51
50.2079821381
  0
ARC
  5
47C
330
1F
100
AcDbEntity
  8
0
  6
Continuous
 62
     8
370
    25
100
AcDbCircle
 10
837.191859528
 20
667.5536848811
 30
0.0
 40
2.514222979887106
100
AcDbArc
 50
48.2672495509
 51
169.1469136644
  0
ARC
  5
47D
330
1F
100
AcDbEntity
  8
0
  6
Continuous
 62
     8
370
    25
100
AcDbCircle
 10
846.504002554
 20
664.3710037986
 30
0.0
 40
2.287123699515786
100
AcDbArc
 50
353.0181456685
 51
50.5186887893
  0
ARC
  5
47E
330
1F
100
AcDbEntity
  8
0
  6
Continuous
 62
     8
370
    25
100
AcDbCircle
 10
837.9339249016
 20
671.6822221314
 30
0.0
 40
2.287123699519876
100
AcDbArc
 50
353.0181456688
 51
50.5186887893
  0
ARC
  5
47F
330
1F
100
AcDbEntity
  8
0
  6
Continuous
 62
     8
370
    25
100
AcDbCircle
 10
837.7144534888
 20
671.5709429318
 30
0.0
 40
2.514493817874103
100
AcDbArc
 50
48.2704621055
 51
169.0342209187
  0
ARC
  5
480
330
1F
100
AcDbEntity
  8
0
  6
Continuous
 62
     8
370
    25
100
AcDbCircle
 10
844.6638845919
 20
661.3494007695
 30
0.0
 40
2.246404862353121
100
AcDbArc
 50
129.4938977124
 51
170.9885232607
  0
ARC
  5
481
330
1F
100
AcDbEntity
  8
0
  6
Continuous
 62
     8
370
    25
100
AcDbCircle
 10
844.8813178299
 20
661.1745439123
 30
0.0
 40
2.520262499781273
100
AcDbArc
 50
356.0709494958
 51
130.7803733488
  0
ARC
  5
482
330
1F
100
AcDbEntity
  8
0
  6
Continuous
 62
     8
370
    25
100
AcDbCircle
 10
845.1851777093
 20
665.3679886586
 30
0.0
 40
2.244731987938444
100
AcDbArc
 50
129.4835796703
 51
172.4113667271
  0
ARC
  5
483
330
1F
100
AcDbEntity
  8
0
  6
Continuous
 62
     8
370
    25
100
AcDbCircle
 10
845.4039867424
 20
665.192099551
 30
0.0
 40
2.520261190412423
100
AcDbArc
 50
356.0703378989
 51
130.7803954722
  0
ARC
  5
484
330
1F
100
AcDbEntity
  8
0
  6
Continuous
 62
     8
370
    25
100
AcDbCircle
 10
947.2852536032
 20
572.6968717589
 30
0.0
 40
2.500034944565244
100
AcDbArc
 50
315.302938807
 51
134.697061193
  0
ARC
  5
485
330
1F
100
AcDbEntity
  8
0
  6
Continuous
 62
     8
370
    25
100
AcDbCircle
 10
948.2883027584
 20
573.6999209141
 30
0.0
 40
2.500034944564772
100
AcDbArc
 50
315.302938807
 51
134.697061193
  0
ARC
  5
486
330
1F
100
AcDbEntity
  8
0
  6
Continuous
 62
     8
370
    25
100
AcDbCircle
 10
853.3104238813
 20
551.9697496896
 30
0.0
 40
2.511063647883947
100
AcDbArc
 50
280.4328131889
 51
86.2766021611
  0
ARC
  5
487
330
1F
100
AcDbEntity
  8
0
  6
Continuous
 62
     8
370
    25
100
AcDbCircle
 10
857.3405100815
 20
552.4864100217
 30
0.0
 40
2.502887367845033
100
AcDbArc
 50
280.1647284946
 51
94.6599507366
  0
ARC
  5
488
330
1F
100
AcDbEntity
  8
0
  6
Continuous
 62
     8
370
    25
100
AcDbCircle
 10
871.2402012071
 20
564.0377035384
 30
0.0
 40
2.280154744745922
100
AcDbArc
 50
42.5367023934
 51
97.010666087
  0
ARC
  5
489
330
1F
100
AcDbEntity
  8
0
  6
Continuous
 62
     8
370
    25
100
AcDbCircle
 10
878.4638055189
 20
555.2421123177
 30
0.0
 40
2.511063647883963
100
AcDbArc
 50
280.4328131889
 51
86.2766021611
  0
ARC
  5
48A
330
1F
100
AcDbEntity
  8
0
  6
Continuous
 62
     8
370
    25
100
AcDbCircle
 10
875.2508607948
 20
564.5333294175
 30
0.0
 40
2.306175162377986
100
AcDbArc
 50
37.4229415565
 51
96.7616278655
  0
ARC
  5
48B
330
1F
100
AcDbEntity
  8
0
  6
Continuous
 62
     8
370
    25
100
AcDbCircle
 10
882.4938917192
 20
555.7587726498
 30
0.0
 40
2.502887367845043
100
AcDbArc
 50
280.1647284946
 51
94.6599507366
  0
ARC
  5
48C
330
1F
100
AcDbEntity
  8
0
  6
Continuous
 62
     8
370
    25
100
AcDbCircle
 10
896.3935828448
 20
567.3100661665
 30
0.0
 40
2.28015474475346
100
AcDbArc
 50
42.5367023935
 51
97.0106660869
  0
ARC
  5
48D
330
1F
100
AcDbEntity
  8
0
  6
Continuous
 62
     8
370
    25
100
AcDbCircle
 10
903.6171871566
 20
558.5144749458
 30
0.0
 40
2.511063647883827
100
AcDbArc
 50
280.4328131889
 51
86.2766021611
  0
ARC
  5
48E
330
1F
100
AcDbEntity
  8
0
  6
Continuous
 62
     8
370
    25
100
AcDbCircle
 10
900.4042424325
 20
567.8056920457
 30
0.0
 40
2.306175162378849
100
AcDbArc
 50
37.4229415565
 51
96.7616278655
  0
ARC
  5
48F
330
1F
100
AcDbEntity
  8
0
  6
Continuous
 62
     8
370
    25
100
AcDbCircle
 10
907.6472733568
 20
559.0311352779
 30
0.0
 40
2.502887367845156
100
AcDbArc
 50
280.1647284946
 51
94.6599507366
  0
ARC
  5
490
330
1F
100
AcDbEntity
  8
0
  6
Continuous
 62
     8
370
    25
100
AcDbCircle
 10
859.5142502572
 20
561.3132012937
 30
0.0
 40
2.503691865381775
100
AcDbArc
 50
280.9759640262
 51
94.6930379563
  0
ARC
  5
491
330
1F
100
AcDbEntity
  8
0
  6
Continuous
 62
     8
370
    25
100
AcDbCircle
 10
863.532753834
 20
561.836874801
 30
0.0
 40
2.50286888978691
100
AcDbArc
 50
280.1559156776
 51
94.6687635536
  0
ARC
  5
492
330
1F
100
AcDbEntity
  8
0
  6
Continuous
 62
     8
370
    25
100
AcDbCircle
 10
908.9702736636
 20
568.9462474806
 30
0.0
 40
2.280154744753347
100
AcDbArc
 50
42.5367023935
 51
97.0106660869
  0
ARC
  5
493
330
1F
100
AcDbEntity
  8
0
  6
Continuous
 62
     8
370
    25
100
AcDbCircle
 10
916.1938779755
 20
560.1506562599
 30
0.0
 40
2.511063647883812
100
AcDbArc
 50
280.4328131889
 51
86.2766021611
  0
ARC
  5
494
330
1F
100
AcDbEntity
  8
0
  6
Continuous
 62
     8
370
    25
100
AcDbCircle
 10
912.9809332513
 20
569.4418733597
 30
0.0
 40
2.30617516237851
100
AcDbArc
 50
37.4229415565
 51
96.7616278655
  0
ARC
  5
495
330
1F
100
AcDbEntity
  8
0
  6
Continuous
 62
     8
370
    25
100
AcDbCircle
 10
920.2239641757
 20
560.667316592
 30
0.0
 40
2.502887367845175
100
AcDbArc
 50
280.1647284946
 51
94.6599507366
  0
ARC
  5
496
330
1F
100
AcDbEntity
  8
0
  6
Continuous
 62
     8
370
    25
100
AcDbCircle
 10
921.5469644825
 20
570.5824287947
 30
0.0
 40
2.280154744749943
100
AcDbArc
 50
42.5367023935
 51
97.0106660869
  0
ARC
  5
497
330
1F
100
AcDbEntity
  8
0
  6
Continuous
 62
     8
370
    25
100
AcDbCircle
 10
928.7705687943
 20
561.7868375739
 30
0.0
 40
2.511063647883752
100
AcDbArc
 50
280.4328131889
 51
86.2766021611
  0
ARC
  5
498
330
1F
100
AcDbEntity
  8
0
  6
Continuous
 62
     8
370
    25
100
AcDbCircle
 10
925.5576240702
 20
571.0780546738
 30
0.0
 40
2.306175162376624
100
AcDbArc
 50
37.4229415565
 51
96.7616278655
  0
ARC
  5
499
330
1F
100
AcDbEntity
  8
0
  6
Continuous
 62
     8
370
    25
100
AcDbCircle
 10
932.8006549945
 20
562.3034979061
 30
0.0
 40
2.502887367845052
100
AcDbArc
 50
280.1647284946
 51
94.6599507366
  0
ARC
  5
49A
330
1F
100
AcDbEntity
  8
0
  6
Continuous
 62
     8
370
    25
100
AcDbCircle
 10
897.2443227137
 20
566.2217452359
 30
0.0
 40
2.503691865381775
100
AcDbArc
 50
280.9759640262
 51
94.6930379563
  0
ARC
  5
49B
330
1F
100
AcDbEntity
  8
0
  6
Continuous
 62
     8
370
    25
100
AcDbCircle
 10
901.2628262905
 20
566.7454187432
 30
0.0
 40
2.502868889787042
100
AcDbArc
 50
280.1559156776
 51
94.6687635536
  0
ARC
  5
49C
330
1F
100
AcDbEntity
  8
0
  6
Continuous
 62
     8
370
    25
100
AcDbCircle
 10
922.3977043513
 20
569.494107864
 30
0.0
 40
2.503691865381747
100
AcDbArc
 50
280.9759640262
 51
94.6930379562
  0
ARC
  5
49D
330
1F
100
AcDbEntity
  8
0
  6
Continuous
 62
     8
370
    25
100
AcDbCircle
 10
926.4162079282
 20
570.0177813713
 30
0.0
 40
2.502868889786928
100
AcDbArc
 50
280.1559156776
 51
94.6687635536
  0
ARC
  5
49E
330
1F
100
AcDbEntity
  8
0
  6
Continuous
 62
     8
370
    25
100
AcDbCircle
 10
934.1236553013
 20
572.2186101087
 30
0.0
 40
2.280154744749253
100
AcDbArc
 50
42.5367023935
 51
97.0106660869
  0
ARC
  5
49F
330
1F
100
AcDbEntity
  8
0
  6
Continuous
 62
     8
370
    25
100
AcDbCircle
 10
941.3472596131
 20
563.423018888
 30
0.0
 40
2.511063647883827
100
AcDbArc
 50
280.4328131889
 51
86.2766021611
  0
ARC
  5
4A0
330
1F
100
AcDbEntity
  8
0
  6
Continuous
 62
     8
370
    25
100
AcDbCircle
 10
938.134314889
 20
572.7142359878
 30
0.0
 40
2.306175162377793
100
AcDbArc
 50
37.4229415565
 51
96.7616278655
  0
ARC
  5
4A1
330
1F
100
AcDbEntity
  8
0
  6
Continuous
 62
     8
370
    25
100
AcDbCircle
 10
945.3773458133
 20
563.9396792201
 30
0.0
 40
2.502887367845156
100
AcDbArc
 50
280.1647284946
 51
94.6599507366
  0
ARC
  5
4A2
330
1F
100
AcDbEntity
  8
0
  6
Continuous
 62
     8
370
    25
100
AcDbCircle
 10
836.2347309339
 20
584.8987362431
 30
0.0
 40
2.217859211707094
100
AcDbArc
 50
352.5318630115
 51
22.0980157157
  0
LWPOLYLINE
  5
4A3
330
1F
100
AcDbEntity
  8
0
  6
Continuous
 62
     8
370
    25
100
AcDbPolyline
 90
        3
 70
   128
 43
0.0
 10
829.4372578802
 20
598.0938689508
 10
829.5710508678
 20
597.9873525209
 10
829.6433027257
 20
597.9232663247
  0
ARC
  5
4A4
330
1F
100
AcDbEntity
  8
0
  6
Continuous
 62
     8
370
    25
100
AcDbCircle
 10
837.807665091
 20
597.4705067938
 30
0.0
 40
2.279967980017811
100
AcDbArc
 50
352.8610454727
 51
47.4646443066
  0
ARC
  5
4A5
330
1F
100
AcDbEntity
  8
0
  6
Continuous
 62
     8
370
    25
100
AcDbCircle
 10
838.3230959837
 20
601.4875497044
 30
0.0
 40
2.287123699512793
100
AcDbArc
 50
353.0181456684
 51
50.5186887894
  0
ARC
  5
4A6
330
1F
100
AcDbEntity
  8
0
  6
Continuous
 62
     8
370
    25
100
AcDbCircle
 10
844.3523903472
 20
647.7772700692
 30
0.0
 40
2.279967980016402
100
AcDbArc
 50
352.8610454727
 51
47.4646443066
  0
ARC
  5
4A7
330
1F
100
AcDbEntity
  8
0
  6
Continuous
 62
     8
370
    25
100
AcDbCircle
 10
835.7457674967
 20
655.0716181996
 30
0.0
 40
2.318416580534346
100
AcDbArc
 50
2.1236567657
 51
50.2167257399
  0
ARC
  5
4A8
330
1F
100
AcDbEntity
  8
0
  6
Continuous
 62
     8
370
    25
100
AcDbCircle
 10
835.555678214
 20
654.9769940622
 30
0.0
 40
2.514222979887041
100
AcDbArc
 50
48.2672495509
 51
169.1469136644
  0
ARC
  5
4A9
330
1F
100
AcDbEntity
  8
0
  6
Continuous
 62
     8
370
    25
100
AcDbCircle
 10
844.86782124
 20
651.7943129797
 30
0.0
 40
2.287123699516422
100
AcDbArc
 50
353.0181456685
 51
50.5186887893
  0
ARC
  5
4AA
330
1F
100
AcDbEntity
  8
0
  6
Continuous
 62
     8
370
    25
100
AcDbCircle
 10
836.2977435875
 20
659.1055313126
 30
0.0
 40
2.287123699519731
100
AcDbArc
 50
353.0181456688
 51
50.5186887893
  0
ARC
  5
4AB
330
1F
100
AcDbEntity
  8
0
  6
Continuous
 62
     8
370
    25
100
AcDbCircle
 10
836.0782721748
 20
658.9942521129
 30
0.0
 40
2.514493817873712
100
AcDbArc
 50
48.2704621055
 51
169.0342209187
  0
LWPOLYLINE
  5
4AC
330
1F
100
AcDbEntity
  8
0
  6
Continuous
 62
     8
370
    25
100
AcDbPolyline
 90
        3
 70
   128
 43
0.0
 10
841.7061393295
 20
609.7638520395
 10
841.7124912032
 20
609.8167898401
 10
841.7033678099
 20
610.3599788805
  0
ARC
  5
4AD
330
1F
100
AcDbEntity
  8
0
  6
Continuous
 62
     8
370
    25
100
AcDbCircle
 10
830.4971791889
 20
617.366276944
 30
0.0
 40
2.353846667695643
100
AcDbArc
 50
109.3466285075
 51
160.6533714925
  0
LINE
  5
4AE
330
1F
100
AcDbEntity
  8
0
  6
Continuous
 62
     8
370
    25
100
AcDbLine
 10
832.8434134959
 20
623.1407341585
 30
0.0
 11
833.0610980326
 21
622.9309125387
 31
0.0
  0
ARC
  5
4AF
330
1F
100
AcDbEntity
  8
0
  6
Continuous
 62
     8
370
    25
100
AcDbCircle
 10
831.1697282326
 20
621.2641796564
 30
0.0
 40
2.514493817873951
100
AcDbArc
 50
48.2704621055
 51
169.0342209187
  0
ARC
  5
4B0
330
1F
100
AcDbEntity
  8
0
  6
Continuous
 62
     8
370
    25
100
AcDbCircle
 10
832.4734048686
 20
629.918236562
 30
0.0
 40
2.318416580536441
100
AcDbArc
 50
2.1236567657
 51
50.2167257399
  0
ARC
  5
4B1
330
1F
100
AcDbEntity
  8
0
  6
Continuous
 62
     8
370
    25
100
AcDbCircle
 10
832.2833155859
 20
629.8236124246
 30
0.0
 40
2.514222979886951
100
AcDbArc
 50
48.2672495509
 51
169.1469136644
  0
ARC
  5
4B2
330
1F
100
AcDbEntity
  8
0
  6
Continuous
 62
     8
370
    25
100
AcDbCircle
 10
833.0253809594
 20
633.9521496749
 30
0.0
 40
2.287123699519821
100
AcDbArc
 50
353.0181456688
 51
50.5186887893
  0
ARC
  5
4B3
330
1F
100
AcDbEntity
  8
0
  6
Continuous
 62
     8
370
    25
100
AcDbCircle
 10
832.8059095467
 20
633.8408704753
 30
0.0
 40
2.51449381787413
100
AcDbArc
 50
48.2704621055
 51
169.0342209187
  0
ARC
  5
4B4
330
1F
100
AcDbEntity
  8
0
  6
Continuous
 62
     8
370
    25
100
AcDbCircle
 10
842.7162090332
 20
635.2005792503
 30
0.0
 40
2.279967980016753
100
AcDbArc
 50
352.8610454727
 51
47.4646443066
  0
ARC
  5
4B5
330
1F
100
AcDbEntity
  8
0
  6
Continuous
 62
     8
370
    25
100
AcDbCircle
 10
834.1095861827
 20
642.4949273808
 30
0.0
 40
2.318416580536194
100
AcDbArc
 50
2.1236567657
 51
50.2167257399
  0
ARC
  5
4B6
330
1F
100
AcDbEntity
  8
0
  6
Continuous
 62
     8
370
    25
100
AcDbCircle
 10
833.9194968999
 20
642.4003032434
 30
0.0
 40
2.514222979886847
100
AcDbArc
 50
48.2672495509
 51
169.1469136644
  0
ARC
  5
4B7
330
1F
100
AcDbEntity
  8
0
  6
Continuous
 62
     8
370
    25
100
AcDbCircle
 10
843.2316399259
 20
639.2176221609
 30
0.0
 40
2.287123699515999
100
AcDbArc
 50
353.0181456685
 51
50.5186887893
  0
ARC
  5
4B8
330
1F
100
AcDbEntity
  8
0
  6
Continuous
 62
     8
370
    25
100
AcDbCircle
 10
834.6615622734
 20
646.5288404937
 30
0.0
 40
2.287123699519934
100
AcDbArc
 50
353.0181456688
 51
50.5186887893
  0
ARC
  5
4B9
330
1F
100
AcDbEntity
  8
0
  6
Continuous
 62
     8
370
    25
100
AcDbCircle
 10
834.4420908607
 20
646.4175612941
 30
0.0
 40
2.514493817873867
100
AcDbArc
 50
48.2704621055
 51
169.0342209187
  0
ARC
  5
4BA
330
1F
100
AcDbEntity
  8
0
  6
Continuous
 62
     8
370
    25
100
AcDbCircle
 10
934.9743951702
 20
571.1302891781
 30
0.0
 40
2.5036918653819
100
AcDbArc
 50
280.9759640262
 51
94.6930379562
  0
ARC
  5
4BB
330
1F
100
AcDbEntity
  8
0
  6
Continuous
 62
     8
370
    25
100
AcDbCircle
 10
938.992898747
 20
571.6539626854
 30
0.0
 40
2.502868889786842
100
AcDbArc
 50
280.1559156776
 51
94.6687635536
  0
ARC
  5
4BC
330
1F
100
AcDbEntity
  8
0
  6
Continuous
 62
     8
370
    25
100
AcDbCircle
 10
872.090941076
 20
562.9493826078
 30
0.0
 40
2.503691865381766
100
AcDbArc
 50
280.9759640262
 51
94.6930379562
  0
ARC
  5
4BD
330
1F
100
AcDbEntity
  8
0
  6
Continuous
 62
     8
370
    25
100
AcDbCircle
 10
876.1094446528
 20
563.4730561151
 30
0.0
 40
2.502868889786889
100
AcDbArc
 50
280.1559156776
 51
94.6687635536
  0
ARC
  5
4BE
330
1F
100
AcDbEntity
  8
0
  6
Continuous
 62
     8
370
    25
100
AcDbCircle
 10
884.6676318948
 20
564.5855639218
 30
0.0
 40
2.503691865381857
100
AcDbArc
 50
280.9759640262
 51
94.6930379563
  0
ARC
  5
4BF
330
1F
100
AcDbEntity
  8
0
  6
Continuous
 62
     8
370
    25
100
AcDbCircle
 10
888.6861354717
 20
565.1092374292
 30
0.0
 40
2.502868889786937
100
AcDbArc
 50
280.1559156776
 51
94.6687635536
  0
ARC
  5
4C0
330
1F
100
AcDbEntity
  8
0
  6
Continuous
 62
     8
370
    25
100
AcDbCircle
 10
909.8210135325
 20
567.8579265499
 30
0.0
 40
2.503691865381784
100
AcDbArc
 50
280.9759640262
 51
94.6930379563
  0
ARC
  5
4C1
330
1F
100
AcDbEntity
  8
0
  6
Continuous
 62
     8
370
    25
100
AcDbCircle
 10
913.8395171093
 20
568.3816000573
 30
0.0
 40
2.502868889786937
100
AcDbArc
 50
280.1559156776
 51
94.6687635536
  0
ARC
  5
4C2
330
1F
100
AcDbEntity
  8
0
  6
Continuous
 62
     8
370
    25
100
AcDbCircle
 10
836.4829780216
 20
598.4659466753
 30
0.0
 40
2.246404862354519
100
AcDbArc
 50
129.4938977124
 51
170.9885232607
  0
ARC
  5
4C3
330
1F
100
AcDbEntity
  8
0
  6
Continuous
 62
     8
370
    25
100
AcDbCircle
 10
836.7004112596
 20
598.2910898182
 30
0.0
 40
2.520262499781015
100
AcDbArc
 50
356.0709494958
 51
130.7803733488
  0
ARC
  5
4C4
330
1F
100
AcDbEntity
  8
0
  6
Continuous
 62
     8
370
    25
100
AcDbCircle
 10
837.004271139
 20
602.4845345644
 30
0.0
 40
2.244731987938357
100
AcDbArc
 50
129.4835796703
 51
172.4113667271
  0
ARC
  5
4C5
330
1F
100
AcDbEntity
  8
0
  6
Continuous
 62
     8
370
    25
100
AcDbCircle
 10
837.2230801721
 20
602.3086454568
 30
0.0
 40
2.520261190412501
100
AcDbArc
 50
356.0703378989
 51
130.7803954722
  0
ARC
  5
4C6
330
1F
100
AcDbEntity
  8
0
  6
Continuous
 62
     8
370
    25
100
AcDbCircle
 10
858.6635103883
 20
562.4015222244
 30
0.0
 40
2.280154744753361
100
AcDbArc
 50
42.5367023935
 51
97.0106660869
  0
ARC
  5
4C7
330
1F
100
AcDbEntity
  8
0
  6
Continuous
 62
     8
370
    25
100
AcDbCircle
 10
865.8871147001
 20
553.6059310036
 30
0.0
 40
2.511063647883834
100
AcDbArc
 50
280.4328131889
 51
86.2766021611
  0
ARC
  5
4C8
330
1F
100
AcDbEntity
  8
0
  6
Continuous
 62
     8
370
    25
100
AcDbCircle
 10
862.674169976
 20
562.8971481035
 30
0.0
 40
2.306175162375482
100
AcDbArc
 50
37.4229415565
 51
96.7616278656
  0
ARC
  5
4C9
330
1F
100
AcDbEntity
  8
0
  6
Continuous
 62
     8
370
    25
100
AcDbCircle
 10
869.9172009003
 20
554.1225913358
 30
0.0
 40
2.502887367845165
100
AcDbArc
 50
280.1647284946
 51
94.6599507366
  0
ARC
  5
4CA
330
1F
100
AcDbEntity
  8
0
  6
Continuous
 62
     8
370
    25
100
AcDbCircle
 10
883.8168920259
 20
565.6738848525
 30
0.0
 40
2.28015474475346
100
AcDbArc
 50
42.5367023935
 51
97.0106660869
  0
ARC
  5
4CB
330
1F
100
AcDbEntity
  8
0
  6
Continuous
 62
     8
370
    25
100
AcDbCircle
 10
891.0404963378
 20
556.8782936317
 30
0.0
 40
2.511063647883827
100
AcDbArc
 50
280.4328131889
 51
86.2766021611
  0
ARC
  5
4CC
330
1F
100
AcDbEntity
  8
0
  6
Continuous
 62
     8
370
    25
100
AcDbCircle
 10
887.8275516137
 20
566.1695107316
 30
0.0
 40
2.306175162383788
100
AcDbArc
 50
37.4229415566
 51
96.7616278654
  0
ARC
  5
4CD
330
1F
100
AcDbEntity
  8
0
  6
Continuous
 62
     8
370
    25
100
AcDbCircle
 10
895.070582538
 20
557.3949539639
 30
0.0
 40
2.502887367845043
100
AcDbArc
 50
280.1647284946
 51
94.6599507366
  0
ARC
  5
4CE
330
1F
100
AcDbEntity
  8
0
  6
Continuous
 62
     8
370
    25
100
AcDbCircle
 10
840.2766337671
 20
627.6379162021
 30
0.0
 40
2.244731987936627
100
AcDbArc
 50
129.4835796703
 51
172.4113667272
  0
LWPOLYLINE
  5
4CF
330
1F
100
AcDbEntity
  8
0
  6
Continuous
 62
     8
370
    25
100
AcDbPolyline
 90
        3
 70
   128
 43
0.0
 10
840.0476148376
 20
629.9174293437
 10
839.5022419267
 20
629.7625315484
 10
838.8493050956
 20
629.3704157146
  0
ARC
  5
4D0
330
1F
100
AcDbEntity
  8
0
  6
Continuous
 62
     8
370
    25
100
AcDbCircle
 10
841.3915219638
 20
636.1960191318
 30
0.0
 40
2.246404862351711
100
AcDbArc
 50
129.4938977124
 51
170.9885232607
  0
ARC
  5
4D1
330
1F
100
AcDbEntity
  8
0
  6
Continuous
 62
     8
370
    25
100
AcDbCircle
 10
841.6089552018
 20
636.0211622747
 30
0.0
 40
2.520262499781003
100
AcDbArc
 50
356.0709494958
 51
130.7803733488
  0
ARC
  5
4D2
330
1F
100
AcDbEntity
  8
0
  6
Continuous
 62
     8
370
    25
100
AcDbCircle
 10
841.9128150812
 20
640.2146070209
 30
0.0
 40
2.244731987936515
100
AcDbArc
 50
129.4835796702
 51
172.4113667272
  0
ARC
  5
4D3
330
1F
100
AcDbEntity
  8
0
  6
Continuous
 62
     8
370
    25
100
AcDbCircle
 10
842.1316241143
 20
640.0387179133
 30
0.0
 40
2.520261190412349
100
AcDbArc
 50
356.0703378989
 51
130.7803954722
  0
ARC
  5
4D4
330
1F
100
AcDbEntity
  8
0
  6
Continuous
 62
     8
370
    25
100
AcDbCircle
 10
843.0277032779
 20
648.7727099507
 30
0.0
 40
2.246404862352674
100
AcDbArc
 50
129.4938977124
 51
170.9885232607
  0
ARC
  5
4D5
330
1F
100
AcDbEntity
  8
0
  6
Continuous
 62
     8
370
    25
100
AcDbCircle
 10
843.2451365158
 20
648.5978530935
 30
0.0
 40
2.520262499781034
100
AcDbArc
 50
356.0709494958
 51
130.7803733488
  0
ARC
  5
4D6
330
1F
100
AcDbEntity
  8
0
  6
Continuous
 62
     8
370
    25
100
AcDbCircle
 10
843.5489963953
 20
652.7912978397
 30
0.0
 40
2.244731987938372
100
AcDbArc
 50
129.4835796703
 51
172.4113667271
  0
ARC
  5
4D7
330
1F
100
AcDbEntity
  8
0
  6
Continuous
 62
     8
370
    25
100
AcDbCircle
 10
843.7678054283
 20
652.6154087322
 30
0.0
 40
2.52026119041229
100
AcDbArc
 50
356.0703378989
 51
130.7803954722
  0
LWPOLYLINE
  5
4D8
330
1F
100
AcDbEntity
  8
0
  6
Continuous
 62
     8
370
    25
100
AcDbPolyline
 90
        3
 70
   128
 43
0.0
 10
787.911713923
 20
485.8576468749
 10
785.9494632125
 20
484.0491647547
 10
784.3057993072
 20
482.898522897
  0
ARC
  5
4D9
330
1F
100
AcDbEntity
  8
0
  6
Continuous
 62
     8
370
    25
100
AcDbCircle
 10
771.5301753624
 20
501.3842741717
 30
0.0
 40
17.44799485864396
100
AcDbArc
 50
133.0144991641
 51
148.3801973431
  0
ARC
  5
4DA
330
1F
100
AcDbEntity
  8
0
  6
Continuous
 62
     8
370
    25
100
AcDbCircle
 10
769.3907742947
 20
504.850145051
 30
0.0
 40
10.53672039662365
100
AcDbArc
 50
128.7450095692
 51
163.1783468493
  0
LWPOLYLINE
  5
4DB
330
1F
100
AcDbEntity
  8
0
  6
Continuous
 62
     8
370
    25
100
AcDbPolyline
 90
        5
 70
   128
 43
0.0
 10
781.6567935085
 20
485.5475286957
 10
781.8986754794
 20
485.5835457258
 10
783.4090632118
 20
486.2355579779
 10
785.1023667255
 20
487.4269218322
 10
786.8379399971
 20
489.0265136361
  0
LWPOLYLINE
  5
4DC
330
1F
100
AcDbEntity
  8
0
  6
Continuous
 62
     8
370
    25
100
AcDbPolyline
 90
        3
 70
   128
 43
0.0
 10
792.7609226098
 20
497.0708165923
 10
791.2054400219
 20
495.7665858632
 10
790.1067999699
 20
495.1238007336
  0
LWPOLYLINE
  5
4DD
330
1F
100
AcDbEntity
  8
0
  6
Continuous
 62
     8
370
    25
100
AcDbPolyline
 90
        3
 70
   128
 43
0.0
 10
768.8179645494
 20
516.2613721843
 10
769.8354105677
 20
517.8459919164
 10
770.840612393
 20
518.9911268091
  0
LINE
  5
4DE
330
1F
100
AcDbEntity
  8
0
  6
Continuous
 62
     8
370
    25
100
AcDbLine
 10
792.4073692192
 20
497.4243699829
 30
0.0
 11
792.7609226098
 21
497.0708165923
 31
0.0
  0
LINE
  5
4DF
330
1F
100
AcDbEntity
  8
0
  6
Continuous
 62
     8
370
    25
100
AcDbLine
 10
770.840612393
 20
518.9911268091
 30
0.0
 11
771.1941657836
 21
518.6375734185
 31
0.0
  0
ARC
  5
4E0
330
1F
100
AcDbEntity
  8
0
  6
Continuous
 62
     8
370
    25
100
AcDbCircle
 10
782.5078742826
 20
507.3238649195
 30
0.0
 40
16.00000000000017
100
AcDbArc
 50
315.0
 51
343.9550243719
  0
ARC
  5
4E1
330
1F
100
AcDbEntity
  8
0
  6
Continuous
 62
     8
370
    25
100
AcDbCircle
 10
781.8007675014
 20
508.0309717007
 30
0.0
 40
15.5
100
AcDbArc
 50
120.407449398
 51
135.0
  0
ARC
  5
4E2
330
1F
100
AcDbEntity
  8
0
  6
Continuous
 62
     8
370
    25
100
AcDbCircle
 10
781.8007675014
 20
508.0309717007
 30
0.0
 40
15.50000000000009
100
AcDbArc
 50
315.0
 51
329.592550602
  0
ARC
  5
4E3
330
1F
100
AcDbEntity
  8
0
  6
Continuous
 62
     8
370
    25
100
AcDbCircle
 10
781.0936607202
 20
508.7380784819
 30
0.0
 40
16.00000000000001
100
AcDbArc
 50
106.0449756281
 51
135.0
  0
LINE
  5
4E4
330
1F
100
AcDbEntity
  8
0
  6
Continuous
 62
     8
370
    25
100
AcDbLine
 10
850.3547980832
 20
571.377955908
 30
0.0
 11
854.5694700841
 21
567.1632839072
 31
0.0
  0
LINE
  5
4E5
330
1F
100
AcDbEntity
  8
0
  6
Continuous
 62
     8
370
    25
100
AcDbLine
 10
840.9330797078
 20
580.7996742834
 30
0.0
 11
850.3547980832
 21
571.377955908
 31
0.0
  0
LINE
  5
4E6
330
1F
100
AcDbEntity
  8
0
  6
Continuous
 62
     8
370
    25
100
AcDbLine
 10
849.9435091749
 20
570.7735485216
 30
0.0
 11
854.3144945604
 21
566.402563136
 31
0.0
  0
LINE
  5
4E7
330
1F
100
AcDbEntity
  8
0
  6
Continuous
 62
     8
370
    25
100
AcDbLine
 10
840.1723589367
 20
580.5446987598
 30
0.0
 11
849.9435091749
 21
570.7735485216
 31
0.0
  0
LINE
  5
4E8
330
1F
100
AcDbEntity
  8
0
  6
Continuous
 62
     8
370
    25
100
AcDbLine
 10
834.1266693092
 20
580.1558633818
 30
0.0
 11
766.1236540678
 21
512.1528481404
 31
0.0
  0
LINE
  5
4E9
330
1F
100
AcDbEntity
  8
0
  6
Continuous
 62
     8
370
    25
100
AcDbLine
 10
785.9226439411
 20
492.3538582672
 30
0.0
 11
853.9256591824
 21
560.3568735085
 31
0.0
  0
LINE
  5
4EA
330
1F
100
AcDbEntity
  8
0
  6
Continuous
 62
     8
370
    25
100
AcDbLine
 10
739.9145421437
 20
507.4907901872
 30
0.0
 11
739.3743606302
 21
508.0309717007
 31
0.0
  0
LINE
  5
4EB
330
1F
100
AcDbEntity
  8
0
  6
Continuous
 62
     8
370
    25
100
AcDbLine
 10
839.1860280492
 20
590.8720763713
 30
0.0
 11
839.1877820365
 21
590.8738303585
 31
0.0
  0
LINE
  5
4EC
330
1F
100
AcDbEntity
  8
0
  6
Continuous
 62
     8
370
    25
100
AcDbLine
 10
775.5481717297
 20
527.2342200517
 30
0.0
 11
839.1860280492
 21
590.8720763713
 31
0.0
  0
LINE
  5
4ED
330
1F
100
AcDbEntity
  8
0
  6
Continuous
 62
     8
370
    25
100
AcDbLine
 10
832.8238210058
 20
597.2377913892
 30
0.0
 11
769.184210699
 21
533.5981810824
 31
0.0
  0
LINE
  5
4EE
330
1F
100
AcDbEntity
  8
0
  6
Continuous
 62
     8
370
    25
100
AcDbLine
 10
864.641872172
 20
364.3786838481
 30
0.0
 11
864.6436261592
 21
364.3769298609
 31
0.0
  0
LINE
  5
4EF
330
1F
100
AcDbEntity
  8
0
  6
Continuous
 62
     8
370
    25
100
AcDbLine
 10
801.0040158524
 20
428.0165401677
 30
0.0
 11
864.641872172
 21
364.3786838481
 31
0.0
  0
LINE
  5
4F0
330
1F
100
AcDbEntity
  8
0
  6
Continuous
 62
     8
370
    25
100
AcDbLine
 10
871.0075871899
 20
370.7408908916
 30
0.0
 11
807.3679768831
 21
434.3805011984
 31
0.0
  0
LINE
  5
4F1
330
1F
100
AcDbEntity
  8
0
  6
Continuous
 62
     8
370
    25
100
AcDbLine
 10
612.6926355261
 20
565.4162322486
 30
0.0
 11
612.6908815388
 21
565.4179862358
 31
0.0
  0
LINE
  5
4F2
330
1F
100
AcDbEntity
  8
0
  6
Continuous
 62
     8
370
    25
100
AcDbLine
 10
676.3304918456
 20
501.778375929
 30
0.0
 11
612.6926355261
 21
565.4162322486
 31
0.0
  0
LINE
  5
4F3
330
1F
100
AcDbEntity
  8
0
  6
Continuous
 62
     8
370
    25
100
AcDbLine
 10
606.3269205081
 20
559.0540252051
 30
0.0
 11
669.9665308149
 21
495.4144148983
 31
0.0
  0
LINE
  5
4F4
330
1F
100
AcDbEntity
  8
0
  6
Continuous
 62
     8
370
    25
100
AcDbLine
 10
638.1484796488
 20
338.9228397254
 30
0.0
 11
638.1467256615
 21
338.9210857382
 31
0.0
  0
LINE
  5
4F5
330
1F
100
AcDbEntity
  8
0
  6
Continuous
 62
     8
370
    25
100
AcDbLine
 10
701.7863359683
 20
402.5606960449
 30
0.0
 11
638.1484796488
 21
338.9228397254
 31
0.0
  0
LINE
  5
4F6
330
1F
100
AcDbEntity
  8
0
  6
Continuous
 62
     8
370
    25
100
AcDbLine
 10
644.5106866922
 20
332.5571247075
 30
0.0
 11
708.150296999
 21
396.1967350143
 31
0.0
  0
LINE
  5
4F7
330
1F
100
AcDbEntity
  8
0
  6
Continuous
 62
     8
370
    25
100
AcDbLine
 10
1092.9258695586
 20
170.0358119584
 30
0.0
 11
1090.6570489629
 21
172.3046325541
 31
0.0
  0
LINE
  5
4F8
330
1F
100
AcDbEntity
  8
0
  6
Continuous
 62
     8
370
    25
100
AcDbLine
 10
1084.2930879323
 20
165.9406715234
 30
0.0
 11
1086.5619085279
 21
163.6718509278
 31
0.0
  0
LINE
  5
4F9
330
1F
100
AcDbEntity
  8
0
  6
Continuous
 62
     8
370
    25
100
AcDbLine
 10
1033.5288999389
 20
819.1560737579
 30
0.0
 11
1031.2600793433
 21
816.8872531623
 31
0.0
  0
LINE
  5
4FA
330
1F
100
AcDbEntity
  8
0
  6
Continuous
 62
     8
370
    25
100
AcDbLine
 10
1037.6240403739
 20
810.5232921316
 30
0.0
 11
1039.8928609696
 21
812.7921127272
 31
0.0
  0
LINE
  5
4FB
330
1F
100
AcDbEntity
  8
0
  6
Continuous
 62
     8
370
    25
100
AcDbLine
 10
384.4086381394
 20
759.7591041383
 30
0.0
 11
386.6774587351
 21
757.4902835426
 31
0.0
  0
LINE
  5
4FC
330
1F
100
AcDbEntity
  8
0
  6
Continuous
 62
     8
370
    25
100
AcDbLine
 10
393.0414197658
 20
763.8542445733
 30
0.0
 11
390.7725991701
 21
766.1230651689
 31
0.0
  0
LINE
  5
4FD
330
1F
100
AcDbEntity
  8
0
  6
Continuous
 62
     8
370
    25
100
AcDbLine
 10
443.8056077591
 20
110.6388423388
 30
0.0
 11
446.0744283548
 21
112.9076629344
 31
0.0
  0
LINE
  5
4FE
330
1F
100
AcDbEntity
  8
0
  6
Continuous
 62
     8
370
    25
100
AcDbLine
 10
439.7104673241
 20
119.2716239651
 30
0.0
 11
437.4416467284
 21
117.0028033694
 31
0.0
  0
ARC
  5
4FF
330
1F
100
AcDbEntity
  8
0
  6
Continuous
 62
     8
370
    25
100
AcDbCircle
 10
-107.0245724832
 20
-209.7501516616
 30
0.0
 40
225.0473755957101
100
AcDbArc
 50
82.2332696944
 51
128.0168068034
  0
ARC
  5
500
330
1F
100
AcDbEntity
  8
0
  6
Continuous
 62
     8
370
    25
100
AcDbCircle
 10
79.4720576848
 20
-441.8730648269
 30
0.0
 40
225.0473755957102
100
AcDbArc
 50
111.4698659402
 51
157.2534030493
  0
ARC
  5
501
330
1F
100
AcDbEntity
  8
0
  6
Continuous
 62
     8
370
    25
100
AcDbCircle
 10
-217.9957899838
 20
74.8400884189
 30
0.0
 40
225.0473755957102
100
AcDbArc
 50
43.7355370091
 51
89.5190741182
  0
ENDSEC
  0
SECTION
  2
OBJECTS
  0
DICTIONARY
  5
C
330
0
100
AcDbDictionary
281
     1
  3
ACAD_GROUP
350
D
  3
ACAD_LAYOUT
350
1A
  3
ACAD_MLINESTYLE
350
17
  3
ACAD_PLOTSETTINGS
350
19
  3
ACAD_PLOTSTYLENAME
350
E
  3
ACAD_SCALELIST
350
47
  3
DWGPROPS
350
502
  0
DICTIONARY
  5
D
102
{ACAD_REACTORS
330
C
102
}
330
C
100
AcDbDictionary
281
     1
  0
DICTIONARY
  5
1A
102
{ACAD_REACTORS
330
C
102
}
330
C
100
AcDbDictionary
281
     1
  3
Layout1
350
1E
  3
Layout2
350
26
  3
Model
350
22
  0
DICTIONARY
  5
17
102
{ACAD_REACTORS
330
C
102
}
330
C
100
AcDbDictionary
281
     1
  3
Standard
350
18
  0
DICTIONARY
  5
19
102
{ACAD_REACTORS
330
C
102
}
330
C
100
AcDbDictionary
281
     1
  0
ACDBDICTIONARYWDFLT
  5
E
102
{ACAD_REACTORS
330
C
102
}
330
C
100
AcDbDictionary
281
     1
  3
Normal
350
F
100
AcDbDictionaryWithDefault
340
F
  0
DICTIONARY
  5
47
102
{ACAD_REACTORS
330
C
102
}
330
C
100
AcDbDictionary
281
     1
  3
A0
350
48
  3
A1
350
49
  3
A2
350
4A
  3
A3
350
4B
  3
A4
350
4C
  3
A5
350
4D
  3
A6
350
4E
  3
A7
350
4F
  3
A8
350
50
  3
A9
350
51
  3
B0
350
52
  3
B1
350
53
  3
B2
350
54
  3
B3
350
55
  3
B4
350
56
  3
B5
350
57
  3
B6
350
58
  3
B7
350
59
  3
B8
350
5A
  3
B9
350
5B
  3
C0
350
5C
  3
C1
350
5D
  3
C2
350
5E
  3
C3
350
5F
  3
C4
350
60
  3
C5
350
61
  3
C6
350
62
  3
C7
350
63
  3
C8
350
64
  3
C9
350
65
  3
D0
350
66
  3
D1
350
67
  3
D2
350
68
  0
XRECORD
  5
502
102
{ACAD_REACTORS
330
C
102
}
330
C
100
AcDbXrecord
280
     1
  1
DWGPROPS COOKIE
  2

  3

  4

  6

  7

  8
Swing
  9

300
=
301
=
302
=
303
=
304
=
305
=
306
=
307
=
308
=
309
=
 40
0.0
 41
2459564.378188461
 42
2459564.378188808
  1

 90
        0
  0
LAYOUT
  5
1E
102
{ACAD_REACTORS
330
1A
102
}
330
1A
100
AcDbPlotSettings
  1

  2
none_device
  4

  6

 40
0.0
 41
0.0
 42
0.0
 43
0.0
 44
0.0
 45
0.0
 46
0.0
 47
0.0
 48
0.0
 49
0.0
140
0.0
141
0.0
142
1.0
143
1.0
 70
   688
 72
     1
 73
     0
 74
     5
  7

 75
    16
147
1.0
148
0.0
149
0.0
100
AcDbLayout
  1
Layout1
 70
     1
 71
     1
 10
0.0
 20
0.0
 11
420.0
 21
297.0
 12
0.0
 22
0.0
 32
0.0
 14
1.0000000000E+20
 24
1.0000000000E+20
 34
1.0000000000E+20
 15
-1.0000000000E+20
 25
-1.0000000000E+20
 35
-1.0000000000E+20
146
0.0
 13
0.0
 23
0.0
 33
0.0
 16
1.0
 26
0.0
 36
0.0
 17
0.0
 27
1.0
 37
0.0
 76
     0
330
1B
  0
LAYOUT
  5
26
102
{ACAD_REACTORS
330
1A
102
}
330
1A
100
AcDbPlotSettings
  1

  2
none_device
  4

  6

 40
0.0
 41
0.0
 42
0.0
 43
0.0
 44
0.0
 45
0.0
 46
0.0
 47
0.0
 48
0.0
 49
0.0
140
0.0
141
0.0
142
1.0
143
1.0
 70
   688
 72
     1
 73
     0
 74
     5
  7

 75
    16
147
1.0
148
0.0
149
0.0
100
AcDbLayout
  1
Layout2
 70
     1
 71
     2
 10
0.0
 20
0.0
 11
0.0
 21
0.0
 12
0.0
 22
0.0
 32
0.0
 14
0.0
 24
0.0
 34
0.0
 15
0.0
 25
0.0
 35
0.0
146
0.0
 13
0.0
 23
0.0
 33
0.0
 16
1.0
 26
0.0
 36
0.0
 17
0.0
 27
1.0
 37
0.0
 76
     0
330
23
  0
LAYOUT
  5
22
102
{ACAD_REACTORS
330
1A
102
}
330
1A
100
AcDbPlotSettings
  1

  2
none_device
  4
Letter_(8.50_x_11.00_Inches)
  6

 40
6.35
 41
6.35
 42
6.35000508
 43
6.35000508
 44
215.9
 45
279.4
 46
0.0
 47
0.0
 48
0.0
 49
0.0
140
0.0
141
0.0
142
1.0
143
1.0
 70
  1712
 72
     1
 73
     0
 74
     0
  7

 75
     0
147
1.0
148
0.0
149
0.0
100
AcDbLayout
  1
Model
 70
     1
 71
     0
 10
0.0
 20
0.0
 11
431.8
 21
279.4
 12
0.0
 22
0.0
 32
0.0
 14
0.0
 24
0.0
 34
0.0
 15
431.8
 25
279.4
 35
0.0
146
0.0
 13
0.0
 23
0.0
 33
0.0
 16
1.0
 26
0.0
 36
0.0
 17
0.0
 27
1.0
 37
0.0
 76
     0
330
1F
331
29
  0
MLINESTYLE
  5
18
102
{ACAD_REACTORS
330
17
102
}
330
17
100
AcDbMlineStyle
  2
Standard
 70
     0
  3

 62
   256
 51
90.0
 52
90.0
 71
     2
 49
0.5
 62
   256
  6
BYLAYER
 49
-0.5
 62
   256
  6
BYLAYER
  0
ACDBPLACEHOLDER
  5
F
102
{ACAD_REACTORS
330
E
102
}
330
E
  0
SCALE
  5
48
102
{ACAD_REACTORS
330
47
102
}
330
47
100
AcDbScale
 70
     0
300
1:1
140
1.0
141
1.0
290
     1
  0
SCALE
  5
49
102
{ACAD_REACTORS
330
47
102
}
330
47
100
AcDbScale
 70
     0
300
1:2
140
1.0
141
2.0
290
     0
  0
SCALE
  5
4A
102
{ACAD_REACTORS
330
47
102
}
330
47
100
AcDbScale
 70
     0
300
1:4
140
1.0
141
4.0
290
     0
  0
SCALE
  5
4B
102
{ACAD_REACTORS
330
47
102
}
330
47
100
AcDbScale
 70
     0
300
1:5
140
1.0
141
5.0
290
     0
  0
SCALE
  5
4C
102
{ACAD_REACTORS
330
47
102
}
330
47
100
AcDbScale
 70
     0
300
1:8
140
1.0
141
8.0
290
     0
  0
SCALE
  5
4D
102
{ACAD_REACTORS
330
47
102
}
330
47
100
AcDbScale
 70
     0
300
1:10
140
1.0
141
10.0
290
     0
  0
SCALE
  5
4E
102
{ACAD_REACTORS
330
47
102
}
330
47
100
AcDbScale
 70
     0
300
1:16
140
1.0
141
16.0
290
     0
  0
SCALE
  5
4F
102
{ACAD_REACTORS
330
47
102
}
330
47
100
AcDbScale
 70
     0
300
1:20
140
1.0
141
20.0
290
     0
  0
SCALE
  5
50
102
{ACAD_REACTORS
330
47
102
}
330
47
100
AcDbScale
 70
     0
300
1:30
140
1.0
141
30.0
290
     0
  0
SCALE
  5
51
102
{ACAD_REACTORS
330
47
102
}
330
47
100
AcDbScale
 70
     0
300
1:40
140
1.0
141
40.0
290
     0
  0
SCALE
  5
52
102
{ACAD_REACTORS
330
47
102
}
330
47
100
AcDbScale
 70
     0
300
1:50
140
1.0
141
50.0
290
     0
  0
SCALE
  5
53
102
{ACAD_REACTORS
330
47
102
}
330
47
100
AcDbScale
 70
     0
300
1:100
140
1.0
141
100.0
290
     0
  0
SCALE
  5
54
102
{ACAD_REACTORS
330
47
102
}
330
47
100
AcDbScale
 70
     0
300
2:1
140
2.0
141
1.0
290
     0
  0
SCALE
  5
55
102
{ACAD_REACTORS
330
47
102
}
330
47
100
AcDbScale
 70
     0
300
4:1
140
4.0
141
1.0
290
     0
  0
SCALE
  5
56
102
{ACAD_REACTORS
330
47
102
}
330
47
100
AcDbScale
 70
     0
300
8:1
140
8.0
141
1.0
290
     0
  0
SCALE
  5
57
102
{ACAD_REACTORS
330
47
102
}
330
47
100
AcDbScale
 70
     0
300
10:1
140
10.0
141
1.0
290
     0
  0
SCALE
  5
58
102
{ACAD_REACTORS
330
47
102
}
330
47
100
AcDbScale
 70
     0
300
100:1
140
100.0
141
1.0
290
     0
  0
SCALE
  5
59
102
{ACAD_REACTORS
330
47
102
}
330
47
100
AcDbScale
 70
     0
300
1/128" = 1'-0"
140
0.0078125
141
12.0
290
     0
  0
SCALE
  5
5A
102
{ACAD_REACTORS
330
47
102
}
330
47
100
AcDbScale
 70
     0
300
1/64" = 1'-0"
140
0.015625
141
12.0
290
     0
  0
SCALE
  5
5B
102
{ACAD_REACTORS
330
47
102
}
330
47
100
AcDbScale
 70
     0
300
1/32" = 1'-0"
140
0.03125
141
12.0
290
     0
  0
SCALE
  5
5C
102
{ACAD_REACTORS
330
47
102
}
330
47
100
AcDbScale
 70
     0
300
1/16" = 1'-0"
140
0.0625
141
12.0
290
     0
  0
SCALE
  5
5D
102
{ACAD_REACTORS
330
47
102
}
330
47
100
AcDbScale
 70
     0
300
3/32" = 1'-0"
140
0.09375
141
12.0
290
     0
  0
SCALE
  5
5E
102
{ACAD_REACTORS
330
47
102
}
330
47
100
AcDbScale
 70
     0
300
1/8" = 1'-0"
140
0.125
141
12.0
290
     0
  0
SCALE
  5
5F
102
{ACAD_REACTORS
330
47
102
}
330
47
100
AcDbScale
 70
     0
300
3/16" = 1'-0"
140
0.1875
141
12.0
290
     0
  0
SCALE
  5
60
102
{ACAD_REACTORS
330
47
102
}
330
47
100
AcDbScale
 70
     0
300
1/4" = 1'-0"
140
0.25
141
12.0
290
     0
  0
SCALE
  5
61
102
{ACAD_REACTORS
330
47
102
}
330
47
100
AcDbScale
 70
     0
300
3/8" = 1'-0"
140
0.375
141
12.0
290
     0
  0
SCALE
  5
62
102
{ACAD_REACTORS
330
47
102
}
330
47
100
AcDbScale
 70
     0
300
1/2" = 1'-0"
140
0.5
141
12.0
290
     0
  0
SCALE
  5
63
102
{ACAD_REACTORS
330
47
102
}
330
47
100
AcDbScale
 70
     0
300
3/4" = 1'-0"
140
0.75
141
12.0
290
     0
  0
SCALE
  5
64
102
{ACAD_REACTORS
330
47
102
}
330
47
100
AcDbScale
 70
     0
300
1" = 1'-0"
140
1.0
141
12.0
290
     0
  0
SCALE
  5
65
102
{ACAD_REACTORS
330
47
102
}
330
47
100
AcDbScale
 70
     0
300
1-1/2" = 1'-0"
140
1.5
141
12.0
290
     0
  0
SCALE
  5
66
102
{ACAD_REACTORS
330
47
102
}
330
47
100
AcDbScale
 70
     0
300
3" = 1'-0"
140
3.0
141
12.0
290
     0
  0
SCALE
  5
67
102
{ACAD_REACTORS
330
47
102
}
330
47
100
AcDbScale
 70
     0
300
6" = 1'-0"
140
6.0
141
12.0
290
     0
  0
SCALE
  5
68
102
{ACAD_REACTORS
330
47
102
}
330
47
100
AcDbScale
 70
     0
300
1'-0" = 1'-0"
140
12.0
141
12.0
290
     0
  0
ENDSEC
  0
EOF
