  0
SECTION
  2
HEADER
  9
$ACADVER
  1
AC1015
  9
$ACADMAINTVER
 70
     6
  9
$DWGCODEPAGE
  3
ANSI_1250
  9
$INSBASE
 10
0.0
 20
0.0
 30
0.0
  9
$EXTMIN
 10
0.0
 20
0.0
 30
0.0
  9
$EXTMAX
 10
431.8
 20
279.4
 30
0.0
  9
$LIMMIN
 10
0.0
 20
0.0
  9
$LIMMAX
 10
431.8
 20
279.4
  9
$ORTHOMODE
 70
     0
  9
$REGENMODE
 70
     1
  9
$FILLMODE
 70
     1
  9
$QTEXTMODE
 70
     0
  9
$MIRRTEXT
 70
     1
  9
$LTSCALE
 40
1.0
  9
$ATTMODE
 70
     1
  9
$TEXTSIZE
 40
3.8805555556
  9
$TRACEWID
 40
1.0
  9
$TEXTSTYLE
  7
Standard
  9
$CLAYER
  8
0
  9
$CELTYPE
  6
ByLayer
  9
$CECOLOR
 62
   256
  9
$CELTSCALE
 40
1.0
  9
$DISPSILH
 70
     0
  9
$DIMSCALE
 40
1.0
  9
$DIMASZ
 40
3.302
  9
$DIMEXO
 40
1.0
  9
$DIMDLI
 40
3.75
  9
$DIMRND
 40
0.0
  9
$DIMDLE
 40
0.0
  9
$DIMEXE
 40
1.0
  9
$DIMTP
 40
0.0
  9
$DIMTM
 40
0.0
  9
$DIMTXT
 40
3.8805555556
  9
$DIMCEN
 40
2.5
  9
$DIMTSZ
 40
0.0
  9
$DIMTOL
 70
     0
  9
$DIMLIM
 70
     0
  9
$DIMTIH
 70
     1
  9
$DIMTOH
 70
     1
  9
$DIMSE1
 70
     0
  9
$DIMSE2
 70
     0
  9
$DIMTAD
 70
     1
  9
$DIMZIN
 70
     0
  9
$DIMBLK
  1

  9
$DIMASO
 70
     1
  9
$DIMSHO
 70
     1
  9
$DIMPOST
  1

  9
$DIMAPOST
  1

  9
$DIMALT
 70
     0
  9
$DIMALTD
 70
     3
  9
$DIMALTF
 40
0.0393700787
  9
$DIMLFAC
 40
1.0
  9
$DIMTOFL
 70
     1
  9
$DIMTVP
 40
0.0
  9
$DIMTIX
 70
     0
  9
$DIMSOXD
 70
     0
  9
$DIMSAH
 70
     0
  9
$DIMBLK1
  1

  9
$DIMBLK2
  1

  9
$DIMSTYLE
  2
ISO-25
  9
$DIMCLRD
 70
     0
  9
$DIMCLRE
 70
     0
  9
$DIMCLRT
 70
     0
  9
$DIMTFAC
 40
1.0
  9
$DIMGAP
 40
1.524
  9
$DIMJUST
 70
     0
  9
$DIMSD1
 70
     0
  9
$DIMSD2
 70
     0
  9
$DIMTOLJ
 70
     0
  9
$DIMTZIN
 70
     0
  9
$DIMALTZ
 70
     0
  9
$DIMALTTZ
 70
     0
  9
$DIMUPT
 70
     0
  9
$DIMDEC
 70
     1
  9
$DIMTDEC
 70
     1
  9
$DIMALTU
 70
     2
  9
$DIMALTTD
 70
     3
  9
$DIMTXSTY
  7
Standard
  9
$DIMAUNIT
 70
     0
  9
$DIMADEC
 70
     1
  9
$DIMALTRND
 40
0.0
  9
$DIMAZIN
 70
     0
  9
$DIMDSEP
 70
    44
  9
$DIMATFIT
 70
     3
  9
$DIMFRAC
 70
     0
  9
$DIMLDRBLK
  1

  9
$DIMLUNIT
 70
     2
  9
$DIMLWD
 70
    -2
  9
$DIMLWE
 70
    -2
  9
$DIMTMOVE
 70
     0
  9
$LUNITS
 70
     2
  9
$LUPREC
 70
     1
  9
$SKETCHINC
 40
1.0
  9
$FILLETRAD
 40
10.0
  9
$AUNITS
 70
     0
  9
$AUPREC
 70
     1
  9
$MENU
  1
.
  9
$ELEVATION
 40
0.0
  9
$PELEVATION
 40
0.0
  9
$THICKNESS
 40
0.0
  9
$LIMCHECK
 70
     0
  9
$CHAMFERA
 40
0.0
  9
$CHAMFERB
 40
0.0
  9
$CHAMFERC
 40
0.0
  9
$CHAMFERD
 40
0.0
  9
$SKPOLY
 70
     0
  9
$TDCREATE
 40
2459536.61198294
  9
$TDUCREATE
 40
2459536.570316273
  9
$TDUPDATE
 40
2459536.611983171
  9
$TDUUPDATE
 40
2459536.570316505
  9
$TDINDWG
 40
0.0000000116
  9
$TDUSRTIMER
 40
0.0000000116
  9
$USRTIMER
 70
     1
  9
$ANGBASE
 50
0.0
  9
$ANGDIR
 70
     0
  9
$PDMODE
 70
     0
  9
$PDSIZE
 40
-1.0
  9
$PLINEWID
 40
0.0
  9
$SPLFRAME
 70
     0
  9
$SPLINETYPE
 70
     6
  9
$SPLINESEGS
 70
     8
  9
$HANDSEED
  5
30B
  9
$SURFTAB1
 70
     6
  9
$SURFTAB2
 70
     6
  9
$SURFTYPE
 70
     6
  9
$SURFU
 70
     6
  9
$SURFV
 70
     6
  9
$UCSBASE
  2

  9
$UCSNAME
  2

  9
$UCSORG
 10
0.0
 20
0.0
 30
0.0
  9
$UCSXDIR
 10
1.0
 20
0.0
 30
0.0
  9
$UCSYDIR
 10
0.0
 20
1.0
 30
0.0
  9
$UCSORTHOREF
  2

  9
$UCSORTHOVIEW
 70
     0
  9
$UCSORGTOP
 10
0.0
 20
0.0
 30
0.0
  9
$UCSORGBOTTOM
 10
0.0
 20
0.0
 30
0.0
  9
$UCSORGLEFT
 10
0.0
 20
0.0
 30
0.0
  9
$UCSORGRIGHT
 10
0.0
 20
0.0
 30
0.0
  9
$UCSORGFRONT
 10
0.0
 20
0.0
 30
0.0
  9
$UCSORGBACK
 10
0.0
 20
0.0
 30
0.0
  9
$PUCSBASE
  2

  9
$PUCSNAME
  2

  9
$PUCSORG
 10
0.0
 20
0.0
 30
0.0
  9
$PUCSXDIR
 10
1.0
 20
0.0
 30
0.0
  9
$PUCSYDIR
 10
0.0
 20
1.0
 30
0.0
  9
$PUCSORTHOREF
  2

  9
$PUCSORTHOVIEW
 70
     0
  9
$PUCSORGTOP
 10
0.0
 20
0.0
 30
0.0
  9
$PUCSORGBOTTOM
 10
0.0
 20
0.0
 30
0.0
  9
$PUCSORGLEFT
 10
0.0
 20
0.0
 30
0.0
  9
$PUCSORGRIGHT
 10
0.0
 20
0.0
 30
0.0
  9
$PUCSORGFRONT
 10
0.0
 20
0.0
 30
0.0
  9
$PUCSORGBACK
 10
0.0
 20
0.0
 30
0.0
  9
$USERI1
 70
     0
  9
$USERI2
 70
     0
  9
$USERI3
 70
     0
  9
$USERI4
 70
     0
  9
$USERI5
 70
     0
  9
$USERR1
 40
0.0
  9
$USERR2
 40
0.0
  9
$USERR3
 40
0.0
  9
$USERR4
 40
0.0
  9
$USERR5
 40
0.0
  9
$WORLDVIEW
 70
     1
  9
$SHADEDGE
 70
     3
  9
$SHADEDIF
 70
    70
  9
$TILEMODE
 70
     1
  9
$MAXACTVP
 70
    64
  9
$PINSBASE
 10
0.0
 20
0.0
 30
0.0
  9
$PLIMCHECK
 70
     0
  9
$PEXTMIN
 10
1.0000000000E+20
 20
1.0000000000E+20
 30
1.0000000000E+20
  9
$PEXTMAX
 10
-1.0000000000E+20
 20
-1.0000000000E+20
 30
-1.0000000000E+20
  9
$PLIMMIN
 10
0.0
 20
0.0
  9
$PLIMMAX
 10
420.0
 20
297.0
  9
$UNITMODE
 70
     0
  9
$VISRETAIN
 70
     1
  9
$PLINEGEN
 70
     0
  9
$PSLTSCALE
 70
     1
  9
$TREEDEPTH
 70
  3020
  9
$CMLSTYLE
  2
Standard
  9
$CMLJUST
 70
     0
  9
$CMLSCALE
 40
20.0
  9
$PROXYGRAPHICS
 70
     1
  9
$MEASUREMENT
 70
     1
  9
$CELWEIGHT
370
    -1
  9
$ENDCAPS
280
     0
  9
$JOINSTYLE
280
     0
  9
$LWDISPLAY
290
     1
  9
$INSUNITS
 70
     4
  9
$HYPERLINKBASE
  1

  9
$STYLESHEET
  1

  9
$XEDIT
290
     1
  9
$CEPSNTYPE
380
     0
  9
$PSTYLEMODE
290
     1
  9
$FINGERPRINTGUID
  2
{c938e611-b465-4a01-8475-1871df0a77e2}
  9
$VERSIONGUID
  2
{FAEB1C32-E019-11D5-929B-00C0DF256EC4}
  9
$EXTNAMES
290
     1
  9
$PSVPSCALE
 40
0.0
  9
$OLESTARTUP
290
     0
  0
ENDSEC
  0
SECTION
  2
CLASSES
  0
CLASS
  1
ACDBDICTIONARYWDFLT
  2
AcDbDictionaryWithDefault
  3
ObjectDBX Classes
 90
        0
280
     0
281
     0
  0
CLASS
  1
VISUALSTYLE
  2
AcDbVisualStyle
  3
ObjectDBX Classes
 90
     4095
280
     0
281
     0
  0
CLASS
  1
MATERIAL
  2
AcDbMaterial
  3
ObjectDBX Classes
 90
     1153
280
     0
281
     0
  0
CLASS
  1
SCALE
  2
AcDbScale
  3
ObjectDBX Classes
 90
     1153
280
     0
281
     0
  0
CLASS
  1
TABLESTYLE
  2
AcDbTableStyle
  3
ObjectDBX Classes
 90
     4095
280
     0
281
     0
  0
CLASS
  1
MLEADERSTYLE
  2
AcDbMLeaderStyle
  3
ACDB_MLEADERSTYLE_CLASS
 90
     4095
280
     0
281
     0
  0
CLASS
  1
SUN
  2
AcDbSun
  3
SCENEOE
 90
     1153
280
     0
281
     0
  0
CLASS
  1
ACDBPLACEHOLDER
  2
AcDbPlaceHolder
  3
ObjectDBX Classes
 90
        0
280
     0
281
     0
  0
CLASS
  1
LAYOUT
  2
AcDbLayout
  3
ObjectDBX Classes
 90
        0
280
     0
281
     0
  0
ENDSEC
  0
SECTION
  2
TABLES
  0
TABLE
  2
VPORT
  5
8
330
0
100
AcDbSymbolTable
 70
     1
  0
VPORT
  5
29
330
8
100
AcDbSymbolTableRecord
100
AcDbViewportTableRecord
  2
*Active
 70
     0
 10
0.0
 20
0.0
 11
1.0
 21
1.0
 12
215.9
 22
139.7
 13
0.0
 23
0.0
 14
10.0
 24
10.0
 15
10.0
 25
10.0
 16
0.0
 26
0.0
 36
1.0
 17
0.0
 27
0.0
 37
0.0
 40
279.4
 41
1.5454545455
 42
50.0
 43
0.0
 44
0.0
 50
0.0
 51
0.0
 71
     0
 72
  2000
 73
     1
 74
     3
 75
     0
 76
     0
 77
     0
 78
     0
281
     0
 65
     1
110
0.0
120
0.0
130
0.0
111
1.0
121
0.0
131
0.0
112
0.0
122
1.0
132
0.0
 79
     0
146
0.0
  0
ENDTAB
  0
TABLE
  2
LTYPE
  5
5
330
0
100
AcDbSymbolTable
 70
     6
  0
LTYPE
  5
14
330
5
100
AcDbSymbolTableRecord
100
AcDbLinetypeTableRecord
  2
ByBlock
 70
     0
  3

 72
    65
 73
     0
 40
0.0
  0
LTYPE
  5
15
330
5
100
AcDbSymbolTableRecord
100
AcDbLinetypeTableRecord
  2
ByLayer
 70
     0
  3

 72
    65
 73
     0
 40
0.0
  0
LTYPE
  5
16
330
5
100
AcDbSymbolTableRecord
100
AcDbLinetypeTableRecord
  2
Continuous
 70
     0
  3
Solid line
 72
    65
 73
     0
 40
0.0
  0
LTYPE
  5
6E
330
5
100
AcDbSymbolTableRecord
100
AcDbLinetypeTableRecord
  2
HIDDEN
 70
     0
  3
Hidden __ __ __ __ __ __ __ __ __ __ __ __ __ __
 72
    65
 73
     2
 40
1.905
 49
1.27
 74
     0
 49
-0.635
 74
     0
  0
LTYPE
  5
6F
330
5
100
AcDbSymbolTableRecord
100
AcDbLinetypeTableRecord
  2
PHANTOM
 70
     0
  3
Phantom ______  __  __  ______  __  __  ______
 72
    65
 73
     6
 40
12.7
 49
6.35
 74
     0
 49
-1.27
 74
     0
 49
1.27
 74
     0
 49
-1.27
 74
     0
 49
1.27
 74
     0
 49
-1.27
 74
     0
  0
LTYPE
  5
70
330
5
100
AcDbSymbolTableRecord
100
AcDbLinetypeTableRecord
  2
CENTER
 70
     0
  3
Center ____ _ ____ _ ____ _ ____ _ ____ _ ____
 72
    65
 73
     4
 40
10.16
 49
6.35
 74
     0
 49
-1.27
 74
     0
 49
1.27
 74
     0
 49
-1.27
 74
     0
  0
LTYPE
  5
71
330
5
100
AcDbSymbolTableRecord
100
AcDbLinetypeTableRecord
  2
CENTERX2
 70
     0
  3
Center (2x) ________  __  ________  __  _____
 72
    65
 73
     4
 40
20.32
 49
12.7
 74
     0
 49
-2.54
 74
     0
 49
2.54
 74
     0
 49
-2.54
 74
     0
  0
LTYPE
  5
72
330
5
100
AcDbSymbolTableRecord
100
AcDbLinetypeTableRecord
  2
DOT2
 70
     0
  3
Dot (.5x) ........................................
 72
    65
 73
     2
 40
0.635
 49
0.0
 74
     0
 49
-0.635
 74
     0
  0
ENDTAB
  0
TABLE
  2
LAYER
  5
2
330
0
100
AcDbSymbolTable
 70
     3
  0
LAYER
  5
10
330
2
100
AcDbSymbolTableRecord
100
AcDbLayerTableRecord
  2
0
 70
     0
 62
     7
  6
Continuous
370
    -3
390
F
  0
LAYER
  5
73
330
2
100
AcDbSymbolTableRecord
100
AcDbLayerTableRecord
  2
FRAME_&_TABLE
 70
     0
 62
     8
  6
Continuous
370
    50
390
F
  0
LAYER
  5
74
330
2
100
AcDbSymbolTableRecord
100
AcDbLayerTableRecord
  2
DIMENSIONS
 70
     0
 62
     7
  6
Continuous
370
    -3
390
F
  0
ENDTAB
  0
TABLE
  2
STYLE
  5
3
330
0
100
AcDbSymbolTable
 70
     1
  0
STYLE
  5
11
330
3
100
AcDbSymbolTableRecord
100
AcDbTextStyleTableRecord
  2
Standard
 70
     0
 40
0.0
 41
1.0
 50
0.0
 71
     0
 42
3.8805555556
  3
txt
  4

  0
ENDTAB
  0
TABLE
  2
VIEW
  5
6
330
0
100
AcDbSymbolTable
 70
     0
  0
ENDTAB
  0
TABLE
  2
UCS
  5
7
330
0
100
AcDbSymbolTable
 70
     0
  0
ENDTAB
  0
TABLE
  2
APPID
  5
9
330
0
100
AcDbSymbolTable
 70
     1
  0
APPID
  5
12
330
9
100
AcDbSymbolTableRecord
100
AcDbRegAppTableRecord
  2
ACAD
 70
     0
  0
ENDTAB
  0
TABLE
  2
DIMSTYLE
  5
A
330
0
100
AcDbSymbolTable
 70
     1
100
AcDbDimStyleTable
  0
DIMSTYLE
105
27
330
A
100
AcDbSymbolTableRecord
100
AcDbDimStyleTableRecord
  2
ISO-25
 70
     0
 41
2.5
 42
0.625
 43
3.75
 44
1.25
 73
     0
 74
     0
 77
     1
 78
     8
140
2.5
141
2.5
143
0.0393700787
147
0.625
171
     3
172
     1
178
     0
271
     2
272
     2
274
     3
278
    44
283
     0
284
     8
340
11
  0
ENDTAB
  0
TABLE
  2
BLOCK_RECORD
  5
1
330
0
100
AcDbSymbolTable
 70
     1
  0
BLOCK_RECORD
  5
1F
330
1
100
AcDbSymbolTableRecord
100
AcDbBlockTableRecord
  2
*Model_Space
340
22
  0
BLOCK_RECORD
  5
1B
330
1
100
AcDbSymbolTableRecord
100
AcDbBlockTableRecord
  2
*Paper_Space
340
1E
  0
BLOCK_RECORD
  5
23
330
1
100
AcDbSymbolTableRecord
100
AcDbBlockTableRecord
  2
*Paper_Space0
340
26
  0
ENDTAB
  0
ENDSEC
  0
SECTION
  2
BLOCKS
  0
BLOCK
  5
20
330
1F
100
AcDbEntity
  8
0
100
AcDbBlockBegin
  2
*Model_Space
 70
     0
 10
0.0
 20
0.0
 30
0.0
  3
*Model_Space
  1

  0
ENDBLK
  5
21
330
1F
100
AcDbEntity
  8
0
100
AcDbBlockEnd
  0
BLOCK
  5
1C
330
1B
100
AcDbEntity
 67
     1
  8
0
100
AcDbBlockBegin
  2
*Paper_Space
 70
     0
 10
0.0
 20
0.0
 30
0.0
  3
*Paper_Space
  1

  0
ENDBLK
  5
1D
330
1B
100
AcDbEntity
 67
     1
  8
0
100
AcDbBlockEnd
  0
BLOCK
  5
24
330
23
100
AcDbEntity
  8
0
100
AcDbBlockBegin
  2
*Paper_Space0
 70
     0
 10
0.0
 20
0.0
 30
0.0
  3
*Paper_Space0
  1

  0
ENDBLK
  5
25
330
23
100
AcDbEntity
  8
0
100
AcDbBlockEnd
  0
ENDSEC
  0
SECTION
  2
ENTITIES
  0
ARC
  5
75
330
1F
100
AcDbEntity
  8
0
  6
Continuous
 62
     7
370
    25
100
AcDbCircle
 10
2246.1636452742
 20
1612.1346674446
 30
0.0
 40
1.0
100
AcDbArc
 50
180.0
 51
0.0
  0
ARC
  5
76
330
1F
100
AcDbEntity
  8
0
  6
Continuous
 62
     7
370
    25
100
AcDbCircle
 10
2246.1636452742
 20
1632.1346674446
 30
0.0
 40
1.0
100
AcDbArc
 50
0.0
 51
180.0
  0
LINE
  5
77
330
1F
100
AcDbEntity
  8
0
  6
Continuous
 62
     7
370
    25
100
AcDbLine
 10
2247.1636452742
 20
1615.6346674446
 30
0.0
 11
2249.1636452742
 21
1618.1346674446
 31
0.0
  0
LINE
  5
78
330
1F
100
AcDbEntity
  8
0
  6
Continuous
 62
     7
370
    25
100
AcDbLine
 10
2249.1636452742
 20
1626.1346674446
 30
0.0
 11
2247.1636452742
 21
1628.6346674446
 31
0.0
  0
ARC
  5
79
330
1F
100
AcDbEntity
  8
0
  6
Continuous
 62
     7
370
    25
100
AcDbCircle
 10
2190.1636452742
 20
-1333.8653325554
 30
0.0
 40
1.0
100
AcDbArc
 50
90.0
 51
270.0
  0
ARC
  5
7A
330
1F
100
AcDbEntity
  8
0
  6
Continuous
 62
     7
370
    25
100
AcDbCircle
 10
2210.1636452742
 20
-1333.8653325554
 30
0.0
 40
1.0
100
AcDbArc
 50
270.0
 51
90.0
  0
LINE
  5
7B
330
1F
100
AcDbEntity
  8
0
  6
Continuous
 62
     7
370
    25
100
AcDbLine
 10
2193.6636452742
 20
-1334.8653325554
 30
0.0
 11
2196.1636452742
 21
-1336.8653325554
 31
0.0
  0
LINE
  5
7C
330
1F
100
AcDbEntity
  8
0
  6
Continuous
 62
     7
370
    25
100
AcDbLine
 10
2204.1636452742
 20
-1336.8653325554
 30
0.0
 11
2206.6636452742
 21
-1334.8653325554
 31
0.0
  0
ARC
  5
7D
330
1F
100
AcDbEntity
  8
0
  6
Continuous
 62
     7
370
    25
100
AcDbCircle
 10
-699.8363547258
 20
1668.1346674446
 30
0.0
 40
1.000000000000227
100
AcDbArc
 50
270.0
 51
90.0
  0
ARC
  5
7E
330
1F
100
AcDbEntity
  8
0
  6
Continuous
 62
     7
370
    25
100
AcDbCircle
 10
-719.8363547258
 20
1668.1346674446
 30
0.0
 40
1.000000000000227
100
AcDbArc
 50
90.0
 51
270.0
  0
LINE
  5
7F
330
1F
100
AcDbEntity
  8
0
  6
Continuous
 62
     7
370
    25
100
AcDbLine
 10
-703.3363547258
 20
1669.1346674446
 30
0.0
 11
-705.8363547258
 21
1671.1346674446
 31
0.0
  0
LINE
  5
80
330
1F
100
AcDbEntity
  8
0
  6
Continuous
 62
     7
370
    25
100
AcDbLine
 10
-713.8363547258
 20
1671.1346674446
 30
0.0
 11
-716.3363547258
 21
1669.1346674446
 31
0.0
  0
ARC
  5
81
330
1F
100
AcDbEntity
  8
0
  6
Continuous
 62
     7
370
    25
100
AcDbCircle
 10
-755.8363547258
 20
-1277.8653325554
 30
0.0
 40
1.0
100
AcDbArc
 50
0.0
 51
180.0
  0
ARC
  5
82
330
1F
100
AcDbEntity
  8
0
  6
Continuous
 62
     7
370
    25
100
AcDbCircle
 10
-755.8363547258
 20
-1297.8653325554
 30
0.0
 40
1.0
100
AcDbArc
 50
180.0
 51
0.0
  0
LINE
  5
83
330
1F
100
AcDbEntity
  8
0
  6
Continuous
 62
     7
370
    25
100
AcDbLine
 10
-756.8363547258
 20
-1281.3653325554
 30
0.0
 11
-758.8363547258
 21
-1283.8653325554
 31
0.0
  0
LINE
  5
84
330
1F
100
AcDbEntity
  8
0
  6
Continuous
 62
     7
370
    25
100
AcDbLine
 10
-758.8363547258
 20
-1291.8653325554
 30
0.0
 11
-756.8363547258
 21
-1294.3653325554
 31
0.0
  0
ARC
  5
85
330
1F
100
AcDbEntity
  8
0
  6
Continuous
 62
     7
370
    25
100
AcDbCircle
 10
2245.1636452742
 20
1667.1346674446
 30
0.0
 40
1500.0
100
AcDbArc
 50
0.0
 51
90.0
  0
LINE
  5
86
330
1F
100
AcDbEntity
  8
0
  6
Continuous
 62
     7
370
    25
100
AcDbLine
 10
3745.1636452742
 20
-1332.8653325554
 30
0.0
 11
3745.1636452742
 21
1667.1346674446
 31
0.0
  0
ARC
  5
87
330
1F
100
AcDbEntity
  8
0
  6
Continuous
 62
     7
370
    25
100
AcDbCircle
 10
2245.1636452742
 20
-1332.8653325554
 30
0.0
 40
1500.0
100
AcDbArc
 50
270.0
 51
0.0
  0
LINE
  5
88
330
1F
100
AcDbEntity
  8
0
  6
Continuous
 62
     7
370
    25
100
AcDbLine
 10
-754.8363547258
 20
-2832.8653325554
 30
0.0
 11
2245.1636452742
 21
-2832.8653325554
 31
0.0
  0
ARC
  5
89
330
1F
100
AcDbEntity
  8
0
  6
Continuous
 62
     7
370
    25
100
AcDbCircle
 10
-754.8363547258
 20
1667.1346674446
 30
0.0
 40
1500.0
100
AcDbArc
 50
90.0
 51
180.0
  0
LINE
  5
8A
330
1F
100
AcDbEntity
  8
0
  6
Continuous
 62
     7
370
    25
100
AcDbLine
 10
-2254.8363547258
 20
1667.1346674446
 30
0.0
 11
-2254.8363547258
 21
-1332.8653325554
 31
0.0
  0
LINE
  5
8B
330
1F
100
AcDbEntity
  8
0
  6
Continuous
 62
     7
370
    25
100
AcDbLine
 10
2245.1636452742
 20
3167.1346674446
 30
0.0
 11
-754.8363547258
 21
3167.1346674446
 31
0.0
  0
ARC
  5
8C
330
1F
100
AcDbEntity
  8
0
  6
Continuous
 62
     7
370
    25
100
AcDbCircle
 10
-754.8363547258
 20
-1332.8653325554
 30
0.0
 40
1500.0
100
AcDbArc
 50
180.0
 51
270.0
  0
LWPOLYLINE
  5
8D
330
1F
100
AcDbEntity
  8
0
  6
Continuous
 62
     7
370
    25
100
AcDbPolyline
 90
       40
 70
   128
 43
0.0
 10
399.8490208557
 20
-436.9060297091
 10
392.9976504001
 20
-434.3232609499
 10
386.4759555904
 20
-431.0059092994
 10
380.2532786168
 20
-427.1331041875
 10
374.2989616696
 20
-422.8839750444
 10
368.5823469389
 20
-418.4376513
 10
357.9028738097
 20
-409.4868930646
 10
347.6345751525
 20
-400.1511281354
 10
337.6848145463
 20
-390.5137290381
 10
327.9609555703
 20
-380.6580682987
 10
318.3703618036
 20
-370.6675184428
 10
308.6969402698
 20
-360.4865416315
 10
299.0624982514
 20
-350.1602907173
 10
289.5756394017
 20
-339.602359506
 10
280.3449673739
 20
-328.7263418036
 10
271.4790858216
 20
-317.4458314161
 10
267.8509768307
 20
-312.4083592342
 10
264.5522828058
 20
-307.1364941075
 10
262.309471891
 20
-302.6211433617
 10
260.7578746496
 20
-297.8322716047
 10
260.2816783819
 20
-294.2200981335
 10
260.4276947801
 20
-290.5795446815
 10
261.4357360458
 20
-286.1500223921
 10
263.1170569196
 20
-281.9226468496
 10
266.5995405315
 20
-275.5134804046
 10
270.671746338
 20
-269.4554627103
 10
275.1055013023
 20
-263.6502897357
 10
279.6726323876
 20
-257.9996574498
 10
291.8213513185
 20
-243.3661057275
 10
304.2131722134
 20
-229.1163337627
 10
316.9048613973
 20
-215.2759331878
 10
329.953185195
 20
-201.8704956351
 10
343.4149099313
 20
-188.9256127369
 10
357.3468019312
 20
-176.4668761256
 10
364.304485376
 20
-170.6494537811
 10
371.5301296582
 20
-165.0860165477
 10
379.0890853173
 20
-159.9379425344
 10
387.0467028929
 20
-155.3666098499
 10
393.3000438522
 20
-152.4690279679
 10
399.8490207684
 20
-150.2278274497
  0
LINE
  5
8E
330
1F
100
AcDbEntity
  8
0
  6
Continuous
 62
     7
370
    25
100
AcDbLine
 10
399.8490208557
 20
-436.9060297091
 30
0.0
 11
399.8490208557
 21
-549.8952953454
 31
0.0
  0
LWPOLYLINE
  5
8F
330
1F
100
AcDbEntity
  8
0
  6
Continuous
 62
     7
370
    25
100
AcDbPolyline
 90
       41
 70
   128
 43
0.0
 10
-1.8384114397
 20
-549.8952953698
 10
8.113737235
 20
-551.9780897939
 10
17.8639485336
 20
-554.8569654939
 10
27.4096897656
 20
-558.3669795118
 10
36.7484282408
 20
-562.3431888902
 10
45.8776312688
 20
-566.6206506711
 10
60.4984756655
 20
-574.0467794597
 10
74.8377926419
 20
-581.8898277195
 10
88.9769467898
 20
-589.9979943564
 10
109.9427943241
 20
-602.4125251522
 10
130.818027349
 20
-614.9971485575
 10
143.7853292443
 20
-622.8269803853
 10
156.841437272
 20
-630.5987402093
 10
170.0630464432
 20
-638.1825740318
 10
183.5268517692
 20
-645.4486278552
 10
191.8331964588
 20
-649.6124771457
 10
200.329705192
 20
-653.4427360123
 10
209.0550104044
 20
-656.7525406404
 10
215.8742319953
 20
-658.771958032
 10
222.8667508012
 20
-660.1863091624
 10
229.9508585603
 20
-660.8178587672
 10
237.1530836302
 20
-660.4934974855
 10
244.2815153683
 20
-659.2287622831
 10
251.169953606
 20
-657.1350807995
 10
257.8795604777
 20
-654.2954887359
 10
264.3233174084
 20
-650.9041809727
 10
270.510265313
 20
-647.0930031591
 10
276.4494451059
 20
-642.993800944
 10
288.01800371
 20
-634.2224016817
 10
299.1582212716
 20
-625.0678354605
 10
310.0047920077
 20
-615.6603831355
 10
320.6924101353
 20
-606.1303255617
 10
331.3557698714
 20
-596.6079435941
 10
342.1295654329
 20
-587.2235180877
 10
353.1484910367
 20
-578.1073298975
 10
364.5472408999
 20
-569.3896598786
 10
376.4605092394
 20
-561.200788886
 10
381.9698728162
 20
-557.8040084838
 10
387.6985988254
 20
-554.6861799812
 10
393.6554079456
 20
-551.9992825458
 10
399.8490208557
 20
-549.8952953454
  0
LINE
  5
90
330
1F
100
AcDbEntity
  8
0
  6
Continuous
 62
     7
370
    25
100
AcDbLine
 10
-1.8384114397
 20
-549.8952953698
 30
0.0
 11
-1.8384114397
 21
-436.9060296823
 31
0.0
  0
LWPOLYLINE
  5
91
330
1F
100
AcDbEntity
  8
0
  6
Continuous
 62
     7
370
    25
100
AcDbPolyline
 90
       45
 70
   128
 43
0.0
 10
-1.8384114397
 20
-150.2278274737
 10
6.2786657079
 20
-151.8546650143
 10
14.2598476889
 20
-154.0548472651
 10
22.0840997124
 20
-156.727980376
 10
29.7303869876
 20
-159.773670497
 10
40.128614805
 20
-164.4983807611
 10
50.2780821342
 20
-169.6745813554
 10
60.2079709077
 20
-175.190704768
 10
79.7109992946
 20
-186.9348829565
 10
98.7220517728
 20
-199.3902558978
 10
117.3098166141
 20
-212.477990015
 10
135.5429820901
 20
-226.119251731
 10
153.4902364728
 20
-240.2352074688
 10
161.6034980214
 20
-246.763941595
 10
169.6613341232
 20
-253.4440450409
 10
177.4927241933
 20
-260.4066822873
 10
184.9266476464
 20
-267.7830178154
 10
191.7920838978
 20
-275.7042161061
 10
194.4716814914
 20
-279.3391593967
 10
196.8029548654
 20
-283.2073742573
 10
198.3487329832
 20
-286.6715690926
 10
199.3327515553
 20
-290.329151166
 10
199.5803008007
 20
-293.2756243919
 10
199.3296313416
 20
-296.2210753301
 10
198.3755655529
 20
-299.7043897644
 10
196.8842503201
 20
-302.9998468995
 10
193.5034045031
 20
-308.3167918033
 10
189.4904677685
 20
-313.2064805444
 10
185.1436405875
 20
-317.7849131028
 10
174.9454340966
 20
-327.5538307234
 10
164.3297572327
 20
-336.8022044986
 10
153.3952249547
 20
-345.6309587844
 10
142.2404522212
 20
-354.1410179371
 10
130.9640539909
 20
-362.4333063126
 10
119.6646452225
 20
-370.608748267
 10
106.2180039421
 20
-380.2450273037
 10
92.6309411298
 20
-389.7143932651
 10
78.8388914376
 20
-398.9058073911
 10
64.7772895176
 20
-407.7082309215
 10
50.3815700221
 20
-416.0106250962
 10
35.5871676032
 20
-423.7019511552
 10
26.5993957725
 20
-427.8746882075
 10
17.3562094183
 20
-431.595657804
 10
7.8721073958
 20
-434.6707937079
 10
-1.8384114397
 20
-436.9060296823
  0
LINE
  5
92
330
1F
100
AcDbEntity
  8
0
  6
Continuous
 62
     7
370
    25
100
AcDbLine
 10
-1.8384114397
 20
-150.2278274737
 30
0.0
 11
-1.8384114397
 21
-5.1137550812
 31
0.0
  0
LWPOLYLINE
  5
93
330
1F
100
AcDbEntity
  8
0
  6
Continuous
 62
     7
370
    25
100
AcDbPolyline
 90
      133
 70
   128
 43
0.0
 10
399.8490208557
 20
-5.1137551036
 10
393.1722468694
 20
-2.9910081961
 10
386.750044057
 20
-0.2147469446
 10
380.5742359508
 20
3.0735703452
 10
374.6366460837
 20
6.7324853679
 10
368.929097988
 20
10.620539818
 10
358.3058861553
 20
18.5673399926
 10
348.1160699326
 20
26.9785580364
 10
338.2731424498
 20
35.7608595728
 10
328.6905968365
 20
44.8209102253
 10
319.2819262226
 20
54.0653756172
 10
309.7416945221
 20
63.6134975799
 10
300.2779740325
 20
73.3617024248
 10
291.0386488264
 20
83.415724797
 10
282.1716029766
 20
93.8812993416
 10
273.8247205556
 20
104.8641607036
 10
270.2038518792
 20
110.218772063
 10
266.9390470741
 20
115.8226151905
 10
264.2232240126
 20
121.7047919778
 10
262.887947822
 20
125.6191326027
 10
261.949548834
 20
129.6601660182
 10
261.479417055
 20
133.7679038768
 10
261.5258208968
 20
137.9157537016
 10
262.0444165175
 20
142.0469663528
 10
262.965605335
 20
146.0965233064
 10
265.6919789158
 20
154.1450707331
 10
269.1831419562
 20
161.9017403923
 10
273.2033539079
 20
169.4325445547
 10
277.5168742225
 20
176.8034954915
 10
281.8879623518
 20
184.0806054736
 10
292.4735222801
 20
201.6311657602
 10
303.0614078568
 20
219.1059884316
 10
313.4308470109
 20
236.6589632931
 10
323.3610676714
 20
254.44398015
 10
332.6312977674
 20
272.6149288076
 10
336.9731293635
 20
281.983565821
 10
340.9721320064
 20
291.5465930427
 10
344.4859898357
 20
301.3149090651
 10
347.3723869907
 20
311.2994124808
 10
348.9200322916
 20
318.4231729099
 10
349.9915621729
 20
325.6699501733
 10
350.5128198127
 20
332.9750003039
 10
350.4096483894
 20
340.2735793349
 10
349.6318611254
 20
347.5465012856
 10
348.2467966588
 20
354.740682151
 10
346.3521890498
 20
361.8132056081
 10
344.0457723584
 20
368.7211553341
 10
339.9924991798
 20
378.8468549333
 10
335.3833298998
 20
388.7051640227
 10
330.3281436455
 20
398.3262656456
 10
324.9368195438
 20
407.7403428453
 10
319.319236722
 20
416.9775786653
 10
309.3236102878
 20
432.4801244816
 10
298.8242574926
 20
447.6619692049
 10
287.8300310648
 20
462.5384013016
 10
280.7780932317
 20
471.6079906304
 10
273.410759652
 20
480.4904510634
 10
265.584418643
 20
488.9901357281
 10
257.1554585222
 20
496.9113977523
 10
252.9379730932
 20
500.3588738602
 10
248.4816849294
 20
503.5100513949
 10
243.7502036402
 20
506.2071779127
 10
239.5336777242
 20
507.9712326217
 10
235.1059170554
 20
509.0833656059
 10
230.4983657503
 20
509.3580616133
 10
225.9147753178
 20
508.784519805
 10
221.9535127282
 20
507.6480621904
 10
218.1290514757
 20
506.0724267521
 10
214.4536507897
 20
504.1894904468
 10
206.1349254214
 20
499.0815654891
 10
198.2266165734
 20
493.3568236456
 10
190.6339651101
 20
487.1944729787
 10
183.2622118955
 20
480.7737215507
 10
176.016597794
 20
474.2737774241
 10
160.4472668696
 20
459.9296819227
 10
145.2823670863
 20
445.235181841
 10
130.5166745521
 20
430.193782865
 10
120.4574517471
 20
419.4689928555
 10
110.6794631887
 20
408.476253369
 10
101.2849895205
 20
397.1387075887
 10
95.8215903715
 20
390.0791028079
 10
90.5842271551
 20
382.7997222075
 10
85.7049035746
 20
375.2677711671
 10
81.3156233337
 20
367.4504550662
 10
77.5483901357
 20
359.3149792842
 10
75.5624129642
 20
353.9290745714
 10
73.9975787828
 20
348.372284363
 10
72.9342310523
 20
342.7020244113
 10
72.4527132335
 20
336.9757104684
 10
72.765606926
 20
329.2828423775
 10
74.0340306174
 20
321.6563749853
 10
76.094515164
 20
314.2358116128
 10
79.5056608099
 20
305.3277770119
 10
83.6421734375
 20
296.7279025712
 10
88.348647502
 20
288.4091871751
 10
93.4696774588
 20
280.3446297082
 10
98.8498577633
 20
272.507229055
 10
111.1509873141
 20
255.9314006201
 10
124.0678530628
 20
239.8531517058
 10
137.3814148526
 20
224.0805543841
 10
150.8726325267
 20
208.4216807272
 10
164.3224659283
 20
192.6846028073
 10
169.942967559
 20
186.0632919893
 10
175.5526002952
 20
179.3651842127
 10
180.9881557921
 20
172.5157658804
 10
186.086425705
 20
165.4405233955
 10
190.6842016892
 20
158.0649431609
 10
194.6182753999
 20
150.3145115798
 10
196.6260667797
 20
145.0231295743
 10
197.8732948227
 20
139.509942163
 10
198.1329395751
 20
134.7057746844
 10
197.5892917715
 20
129.9270875282
 10
196.2758537222
 20
125.3279496481
 10
194.3467986878
 20
120.9492081275
 10
191.0048680966
 20
115.3573652653
 10
187.0735029344
 20
110.1438152056
 10
182.7616828203
 20
105.2630947902
 10
172.8896302405
 20
95.4459344748
 10
162.4578867541
 20
86.2872807598
 10
151.598556593
 20
77.6620136708
 10
140.4437439888
 20
69.4450132334
 10
129.1255531734
 20
61.511159473
 10
117.7760883785
 20
53.7353324154
 10
104.6742163222
 20
44.902731284
 10
91.3994109109
 20
36.2924871317
 10
77.9009987166
 20
28.0112427314
 10
64.1283063117
 20
20.1656408556
 10
50.0306602684
 20
12.8623242774
 10
35.5573871588
 20
6.2079357692
 10
26.5197397021
 20
2.5598952087
 10
17.257709504
 20
-0.6397438
 10
7.7965684836
 20
-3.2459657367
 10
-1.8384114397
 20
-5.1137550812
  0
LINE
  5
94
330
1F
100
AcDbEntity
  8
0
  6
Continuous
 62
     7
370
    25
100
AcDbLine
 10
399.8490208557
 20
-5.1137551036
 30
0.0
 11
399.8490207684
 21
-150.2278274497
 31
0.0
  0
LWPOLYLINE
  5
95
330
1F
100
AcDbEntity
  8
0
  6
Continuous
 62
     7
370
    25
100
AcDbPolyline
 90
       23
 70
   128
 43
0.0
 10
-447.6318168107
 20
-828.5617385368
 10
-456.6695535024
 20
-826.9301045874
 10
-465.5052814399
 20
-824.4695956688
 10
-474.141953841
 20
-821.3418274829
 10
-482.5825239194
 20
-817.7084157322
 10
-490.8299448884
 20
-813.7309761194
 10
-498.8871699615
 20
-809.571124347
 10
-517.3390789352
 20
-799.4362071728
 10
-535.6119010951
 20
-789.0544436764
 10
-554.0791717784
 20
-778.9450231941
 10
-563.0007231977
 20
-774.3982215388
 10
-572.1169967665
 20
-770.1354002216
 10
-581.4605870979
 20
-766.3240928186
 10
-591.0640888051
 20
-763.1318329059
 10
-597.4731689777
 20
-761.5001213753
 10
-604.0230053756
 20
-760.3146199881
 10
-610.6497421029
 20
-759.641606748
 10
-617.2895232636
 20
-759.5473596585
 10
-626.099798024
 20
-760.3209129438
 10
-634.8014727496
 20
-761.9475234035
 10
-643.3022352174
 20
-764.2550754887
 10
-654.2204563917
 20
-768.0905707763
 10
-664.8363547258
 20
-772.5686649199
  0
LWPOLYLINE
  5
96
330
1F
100
AcDbEntity
  8
0
  6
Continuous
 62
     7
370
    25
100
AcDbPolyline
 90
       24
 70
   128
 43
0.0
 10
-664.8363547258
 20
-610.7326022786
 10
-656.1014846214
 20
-614.6132331868
 10
-647.1285161136
 20
-618.0769712933
 10
-637.9289836727
 20
-620.9421502326
 10
-628.5144217913
 20
-623.0271036284
 10
-619.9268024328
 20
-624.0384871448
 10
-611.2416195402
 20
-624.1241637543
 10
-602.6475125412
 20
-623.2274011452
 10
-594.1320998509
 20
-621.3817833456
 10
-585.8123146752
 20
-618.8106036859
 10
-577.7024959032
 20
-615.6806356778
 10
-569.8169824241
 20
-612.1586528333
 10
-557.5408613533
 20
-605.9982847288
 10
-545.5665242366
 20
-599.3705079851
 10
-533.7928334752
 20
-592.4319607869
 10
-522.1186514704
 20
-585.3392813193
 10
-510.4428406234
 20
-578.249107767
 10
-501.0762221091
 20
-572.6437837207
 10
-491.5735884081
 20
-567.159038506
 10
-481.8679855881
 20
-561.9889554535
 10
-471.892459717
 20
-557.3276178939
 10
-461.5800568624
 20
-553.369109158
 10
-454.6904567521
 20
-551.3283974095
 10
-447.6318168107
 20
-549.8952953705
  0
LINE
  5
97
330
1F
100
AcDbEntity
  8
0
  6
Continuous
 62
     7
370
    25
100
AcDbLine
 10
-447.6318168107
 20
-549.8952953705
 30
0.0
 11
-429.95025723
 21
-549.8952953698
 31
0.0
  0
LWPOLYLINE
  5
98
330
1F
100
AcDbEntity
  8
0
  6
Continuous
 62
     7
370
    25
100
AcDbPolyline
 90
       43
 70
   128
 43
0.0
 10
-429.95025723
 20
-549.8952953698
 10
-423.7229054759
 20
-551.2578514387
 10
-417.6542382497
 20
-553.2236949313
 10
-411.7563999088
 20
-555.6732295178
 10
-406.0415348106
 20
-558.4868588687
 10
-400.5217873123
 20
-561.5449866543
 10
-388.3493454425
 20
-569.1513571904
 10
-376.6859968362
 20
-577.3793962686
 10
-365.4013307996
 20
-586.0272147314
 10
-354.364936639
 20
-594.8929234213
 10
-339.698195287
 20
-607.0281098509
 10
-325.1690971891
 20
-619.3687977322
 10
-310.6561564064
 20
-631.8579030171
 10
-299.9161383893
 20
-641.211554849
 10
-289.0650107108
 20
-650.5965391421
 10
-277.938559041
 20
-659.7841795978
 10
-266.37256905
 20
-668.5457999178
 10
-261.0569511418
 20
-672.1311813099
 10
-255.434855971
 20
-675.2240429704
 10
-251.4111347286
 20
-676.8331314241
 10
-247.1995705966
 20
-677.8277710406
 10
-242.814884311
 20
-677.9892317468
 10
-238.4729046943
 20
-677.3200187911
 10
-233.3435637025
 20
-675.620112061
 10
-228.4364614659
 20
-673.2977285166
 10
-223.7186280952
 20
-670.6300236118
 10
-211.6002924026
 20
-663.0130486585
 10
-199.8591191626
 20
-654.9260572517
 10
-188.3819361669
 20
-646.5545811278
 10
-177.0555712071
 20
-638.0841520233
 10
-165.7668520748
 20
-629.7003016744
 10
-147.0533499331
 20
-616.0678182619
 10
-128.2663984825
 20
-602.658829995
 10
-109.2534649938
 20
-589.5725258186
 10
-99.5406541452
 20
-583.0927835545
 10
-89.6795719914
 20
-576.7241410838
 10
-79.6211166697
 20
-570.6001901257
 10
-69.3161863177
 20
-564.8545223996
 10
-58.7156790726
 20
-559.6207296248
 10
-47.7704930721
 20
-555.0324035208
 10
-41.847833802
 20
-552.9565779449
 10
-35.7954233319
 20
-551.2179823933
 10
-29.6336650113
 20
-549.8952953698
  0
LINE
  5
99
330
1F
100
AcDbEntity
  8
0
  6
Continuous
 62
     7
370
    25
100
AcDbLine
 10
-29.6336650113
 20
-549.8952953698
 30
0.0
 11
-1.8384114397
 21
-549.8952953698
 31
0.0
  0
LINE
  5
9A
330
1F
100
AcDbEntity
  8
0
  6
Continuous
 62
     7
370
    25
100
AcDbLine
 10
399.8490208557
 20
-549.8952953454
 30
0.0
 11
427.699793565
 21
-549.8952953698
 31
0.0
  0
LWPOLYLINE
  5
9B
330
1F
100
AcDbEntity
  8
0
  6
Continuous
 62
     7
370
    25
100
AcDbPolyline
 90
       39
 70
   128
 43
0.0
 10
427.699793565
 20
-549.8952953698
 10
435.833694004
 20
-552.3427718233
 10
443.7127536983
 20
-555.4655878117
 10
451.3633972516
 20
-559.1229921396
 10
458.8120492679
 20
-563.1742336117
 10
466.0851343513
 20
-567.4785610325
 10
473.2090771059
 20
-571.8952232066
 10
487.8253324951
 20
-581.3267338978
 10
502.2485620035
 20
-590.9635228093
 10
516.6557108729
 20
-600.6073604608
 10
529.2615264744
 20
-608.8496717784
 10
542.1136504606
 20
-616.8039150725
 10
555.3571335583
 20
-624.2237222362
 10
562.1714256718
 20
-627.6418368936
 10
569.1757772292
 20
-630.7612464903
 10
576.3729675728
 20
-633.4481850001
 10
583.765776045
 20
-635.5688863967
 10
591.5200095337
 20
-636.9657444661
 10
599.4245877167
 20
-637.5080051941
 10
607.3172343129
 20
-637.1979810096
 10
615.2096644875
 20
-636.0728008625
 10
622.985768385
 20
-634.2755762624
 10
630.6105549674
 20
-631.9376406713
 10
638.0490331967
 20
-629.1903275512
 10
650.3077187134
 20
-623.9107525113
 10
662.2444703642
 20
-618.0471460385
 10
673.9305312766
 20
-611.7585843803
 10
685.4371445779
 20
-605.2041437845
 10
696.8355533955
 20
-598.5429004986
 10
711.0955992586
 20
-590.1323211344
 10
725.399473436
 20
-581.7633905515
 10
739.8728637155
 20
-573.6262597855
 10
754.6414578849
 20
-565.9110798722
 10
763.7661211169
 20
-561.5506719364
 10
773.1276315858
 20
-557.5726571696
 10
782.7345999808
 20
-554.1872523631
 10
792.5956369912
 20
-551.6046743082
 10
799.01589754
 20
-550.4920807372
 10
805.5120073071
 20
-549.8952953695
  0
LINE
  5
9C
330
1F
100
AcDbEntity
  8
0
  6
Continuous
 62
     7
370
    25
100
AcDbLine
 10
805.5120073071
 20
-549.8952953695
 30
0.0
 11
812.2877778163
 21
-549.8952953698
 31
0.0
  0
LWPOLYLINE
  5
9D
330
1F
100
AcDbEntity
  8
0
  6
Continuous
 62
     7
370
    25
100
AcDbPolyline
 90
       38
 70
   128
 43
0.0
 10
812.2877778163
 20
-549.8952953698
 10
819.7112448367
 20
-550.6548942763
 10
827.0460417853
 20
-552.1177011797
 10
834.2586124545
 20
-554.1573255388
 10
841.3154006371
 20
-556.6473768125
 10
848.1828501256
 20
-559.4614644598
 10
861.2209668734
 20
-565.5530098983
 10
873.9169938259
 20
-572.2059220502
 10
886.3776949263
 20
-579.2290086493
 10
898.7098341179
 20
-586.4310774295
 10
911.0201753439
 20
-593.6209361246
 10
921.8267971915
 20
-599.8220372955
 10
932.7577071059
 20
-605.8858494981
 10
943.8786560942
 20
-611.6468625078
 10
955.2553951632
 20
-616.9395661003
 10
966.9536753199
 20
-621.5984500509
 10
973.9800139283
 20
-623.9316163682
 10
981.172810351
 20
-625.860318062
 10
988.4905158919
 20
-627.2788544549
 10
995.8915818548
 20
-628.0815248695
 10
1004.4116446194
 20
-628.0904616135
 10
1012.905385605
 20
-627.1377645008
 10
1021.2088425936
 20
-625.3274622143
 10
1030.0920278413
 20
-622.5495616119
 10
1038.7347258735
 20
-619.1676576486
 10
1047.1624188492
 20
-615.3000404759
 10
1055.4005889274
 20
-611.0650002451
 10
1063.4747182668
 20
-606.5808271076
 10
1071.4102890263
 20
-601.9658112147
 10
1086.8672203369
 20
-592.6065054098
 10
1102.1988348647
 20
-583.0680603581
 10
1117.6098333977
 20
-573.599619534
 10
1125.4666897729
 20
-568.8967014669
 10
1133.4596207279
 20
-564.2897565778
 10
1141.6224579977
 20
-559.9324641954
 10
1149.9890333173
 20
-555.9785036483
 10
1158.593178422
 20
-552.5815542653
 10
1167.4687250468
 20
-549.8952953751
  0
LINE
  5
9E
330
1F
100
AcDbEntity
  8
0
  6
Continuous
 62
     7
370
    25
100
AcDbLine
 10
1167.4687250468
 20
-549.8952953751
 30
0.0
 11
1198.0003218935
 21
-549.8952953698
 31
0.0
  0
LWPOLYLINE
  5
9F
330
1F
100
AcDbEntity
  8
0
  6
Continuous
 62
     7
370
    25
100
AcDbPolyline
 90
       43
 70
   128
 43
0.0
 10
1198.0003218935
 20
-549.8952953698
 10
1205.3365010976
 20
-552.4371062102
 10
1212.3667433337
 20
-555.6806795815
 10
1219.1229930205
 20
-559.4767007395
 10
1225.6371945766
 20
-563.6758550004
 10
1231.9412924208
 20
-568.1288276802
 10
1238.0672309718
 20
-572.686304095
 10
1251.8805980353
 20
-583.4997801235
 10
1265.3365742517
 20
-594.6405479421
 10
1278.6282477787
 20
-605.9557021529
 10
1291.9487067737
 20
-617.2923373583
 10
1305.4910393941
 20
-628.4975481604
 10
1313.2552774622
 20
-634.6633422048
 10
1321.241817927
 20
-640.6275289018
 10
1329.5461605285
 20
-646.2264326166
 10
1334.6532769599
 20
-649.2815680238
 10
1339.9706824456
 20
-652.0129577085
 10
1345.518153693
 20
-654.253106105
 10
1349.7584992069
 20
-655.4659674338
 10
1354.1226722287
 20
-656.2344338975
 10
1358.5336852666
 20
-656.5137736724
 10
1362.9409226062
 20
-656.2864563787
 10
1367.3128442985
 20
-655.6092406087
 10
1371.5931110182
 20
-654.5487921034
 10
1379.2890178666
 20
-651.8148249872
 10
1386.6845727877
 20
-648.3499174425
 10
1393.8185992441
 20
-644.3813727516
 10
1400.7299206978
 20
-640.1364941968
 10
1415.542646833
 20
-630.3263650392
 10
1429.9461356464
 20
-620.1037291746
 10
1444.1214294211
 20
-609.6828274974
 10
1458.24957044
 20
-599.277900902
 10
1469.5923490342
 20
-591.0216477261
 10
1481.0585556639
 20
-582.8643189982
 10
1492.7534928305
 20
-574.9762739842
 10
1504.7824630356
 20
-567.5278719498
 10
1517.2507687805
 20
-560.6894721608
 10
1523.2973137443
 20
-557.766713272
 10
1529.5201946018
 20
-555.1375728575
 10
1535.9118232347
 20
-552.9153791178
 10
1542.4646115245
 20
-551.2134602533
 10
1547.7779657861
 20
-550.3162314426
 10
1553.1563786506
 20
-549.8952953698
  0
LINE
  5
A0
330
1F
100
AcDbEntity
  8
0
  6
Continuous
 62
     7
370
    25
100
AcDbLine
 10
1553.1563786506
 20
-549.8952953698
 30
0.0
 11
1556.4535458747
 21
-549.8952953698
 31
0.0
  0
LWPOLYLINE
  5
A1
330
1F
100
AcDbEntity
  8
0
  6
Continuous
 62
     7
370
    25
100
AcDbPolyline
 90
       39
 70
   128
 43
0.0
 10
1556.4535458747
 20
-549.8952953698
 10
1563.558010155
 20
-550.5447968753
 10
1570.5731090077
 20
-551.9698764177
 10
1577.4348894782
 20
-554.0165646745
 10
1584.079398612
 20
-556.5308923236
 10
1594.4642800381
 20
-561.2757664969
 10
1604.5066752003
 20
-566.6217773268
 10
1614.2819553609
 20
-572.3769340252
 10
1623.8654917827
 20
-578.349245804
 10
1642.9944816962
 20
-590.7165480274
 10
1662.081259328
 20
-603.1157209605
 10
1673.1323132572
 20
-610.0526566601
 10
1684.4037025838
 20
-616.7157204904
 10
1695.9983670469
 20
-622.9097830411
 10
1702.8437434064
 20
-626.1657794529
 10
1709.8842999302
 20
-629.0971902549
 10
1717.1140643584
 20
-631.5664870773
 10
1724.5270644317
 20
-633.4361415504
 10
1731.2975366753
 20
-634.4552774522
 10
1738.1683499812
 20
-634.7595390596
 10
1744.999551784
 20
-634.2860149073
 10
1751.3359123891
 20
-633.1407851043
 10
1757.5519120862
 20
-631.4463149633
 10
1763.6223083906
 20
-629.3118151417
 10
1769.5218588177
 20
-626.8464962972
 10
1780.4614411168
 20
-621.4918277034
 10
1791.0258043857
 20
-615.5313537871
 10
1801.3061662204
 20
-609.1628137598
 10
1811.3937442168
 20
-602.5839468326
 10
1831.5213499093
 20
-589.058269499
 10
1851.7484307355
 20
-575.6208540864
 10
1859.2760399251
 20
-570.8240331548
 10
1866.9410389928
 20
-566.1610137619
 10
1874.7854520398
 20
-561.7554041527
 10
1882.851303167
 20
-557.730812572
 10
1891.1806164757
 20
-554.2108472645
 10
1896.3655340219
 20
-552.4057735012
 10
1901.6778861712
 20
-550.9392153183
 10
1907.0912865467
 20
-549.8952953698
  0
LINE
  5
A2
330
1F
100
AcDbEntity
  8
0
  6
Continuous
 62
     7
370
    25
100
AcDbLine
 10
1907.0912865467
 20
-549.8952953698
 30
0.0
 11
1922.8580757376
 21
-549.8952953698
 31
0.0
  0
LWPOLYLINE
  5
A3
330
1F
100
AcDbEntity
  8
0
  6
Continuous
 62
     7
370
    25
100
AcDbPolyline
 90
       44
 70
   128
 43
0.0
 10
1922.8580757376
 20
-549.8952953698
 10
1929.418691397
 20
-551.3507629798
 10
1935.7874004867
 20
-553.5240140239
 10
1941.9336092166
 20
-556.2482455365
 10
1947.8267237967
 20
-559.3566545523
 10
1958.7250313932
 20
-566.0224522255
 10
1969.1042236934
 20
-573.3330895119
 10
1979.0340549534
 20
-581.1670012975
 10
1988.5842794292
 20
-589.4026224682
 10
1997.8246513769
 20
-597.9183879097
 10
2006.8249250525
 20
-606.5927325079
 10
2016.2783275524
 20
-616.0762666109
 10
2025.4514112652
 20
-625.8714362693
 10
2034.24232842
 20
-636.0607537668
 10
2042.5492312459
 20
-646.7267313871
 10
2046.882126278
 20
-652.8768729018
 10
2050.9324676681
 20
-659.2663932666
 10
2054.5913990803
 20
-665.9266342545
 10
2057.305316701
 20
-671.8534638265
 10
2059.510669311
 20
-678.0383899155
 10
2061.0359463715
 20
-684.4323513922
 10
2061.617446707
 20
-689.3016770209
 10
2061.6820230914
 20
-694.2273425084
 10
2061.220070089
 20
-699.1104931534
 10
2059.9351275512
 20
-705.1217644225
 10
2058.0130932202
 20
-710.9559845693
 10
2055.6011610239
 20
-716.557684311
 10
2051.2193056787
 20
-724.7778557032
 10
2046.2217520031
 20
-732.5850817051
 10
2040.7470837305
 20
-740.0307873753
 10
2034.9338845941
 20
-747.1663977722
 10
2028.9207383274
 20
-754.0433379545
 10
2017.5265699392
 20
-766.1512018392
 10
2005.6142147373
 20
-777.7029640757
 10
1993.2219993628
 20
-788.7456601868
 10
1985.3911063665
 20
-795.295916752
 10
1977.3299949966
 20
-801.6483064497
 10
1968.9957806121
 20
-807.7091535623
 10
1960.345578572
 20
-813.3847823723
 10
1951.3365042351
 20
-818.581517162
 10
1944.6077221858
 20
-821.9313615057
 10
1937.5881698443
 20
-824.8302587662
 10
1930.3231775738
 20
-827.0998405683
 10
1922.8580757376
 20
-828.5617385368
  0
LINE
  5
A4
330
1F
100
AcDbEntity
  8
0
  6
Continuous
 62
     7
370
    25
100
AcDbLine
 10
1922.8580757376
 20
-828.5617385368
 30
0.0
 11
1907.0912865467
 21
-828.5617385368
 31
0.0
  0
LWPOLYLINE
  5
A5
330
1F
100
AcDbEntity
  8
0
  6
Continuous
 62
     7
370
    25
100
AcDbPolyline
 90
       39
 70
   128
 43
0.0
 10
1907.0912865467
 20
-828.5617385368
 10
1898.7748016618
 20
-827.0527804801
 10
1890.647457081
 20
-824.732508298
 10
1882.7247272667
 20
-821.7699914444
 10
1875.0220866814
 20
-818.3342993731
 10
1867.5550097875
 20
-814.5945015378
 10
1854.970287978
 20
-807.6562707539
 10
1842.6954500861
 20
-800.298321188
 10
1830.6087162444
 20
-792.6822014411
 10
1818.5883065858
 20
-784.969460114
 10
1806.5124412427
 20
-777.3216458077
 10
1797.4225300141
 20
-771.7386764796
 10
1788.1695815793
 20
-766.3388709167
 10
1778.6874990664
 20
-761.277671065
 10
1768.9101856038
 20
-756.7105188703
 10
1761.5896559224
 20
-753.8313198326
 10
1754.0329903595
 20
-751.4950697008
 10
1746.2819172763
 20
-749.8998066224
 10
1739.5195710571
 20
-749.2958831884
 10
1732.7018553481
 20
-749.4365954559
 10
1725.964305501
 20
-750.2824055941
 10
1718.5370969387
 20
-751.9730641019
 10
1711.2804134185
 20
-754.276434238
 10
1704.2052415983
 20
-757.0529434558
 10
1697.3225681361
 20
-760.1630192086
 10
1685.0942698085
 20
-766.383203052
 10
1673.1997986446
 20
-773.0904418249
 10
1661.5317737585
 20
-780.1158097035
 10
1649.9828142645
 20
-787.2903808642
 10
1638.4455392767
 20
-794.4452294831
 10
1628.7601732535
 20
-800.3676950903
 10
1618.9422096298
 20
-806.2034243078
 10
1608.9344766578
 20
-811.7743497303
 10
1598.6798025895
 20
-816.9024039527
 10
1588.1210156768
 20
-821.4095195699
 10
1577.2009441718
 20
-825.1176291768
 10
1570.4083169462
 20
-826.8409584687
 10
1563.4677710086
 20
-828.0256479638
 10
1556.4535458747
 20
-828.5617385368
  0
LINE
  5
A6
330
1F
100
AcDbEntity
  8
0
  6
Continuous
 62
     7
370
    25
100
AcDbLine
 10
1556.4535458747
 20
-828.5617385368
 30
0.0
 11
1553.1563786506
 21
-828.5617385368
 31
0.0
  0
LWPOLYLINE
  5
A7
330
1F
100
AcDbEntity
  8
0
  6
Continuous
 62
     7
370
    25
100
AcDbPolyline
 90
       42
 70
   128
 43
0.0
 10
1553.1563786506
 20
-828.5617385368
 10
1545.913517456
 20
-827.9772736742
 10
1538.7467302942
 20
-826.6735220764
 10
1531.7210898436
 20
-824.7756339182
 10
1524.9016687828
 20
-822.4087593746
 10
1515.5074426516
 20
-818.4500955253
 10
1506.4020454095
 20
-813.9575453311
 10
1497.5456871514
 20
-809.0499183964
 10
1488.8985779719
 20
-803.8460243251
 10
1480.420927966
 20
-798.4646727216
 10
1466.2279494274
 20
-789.0326571931
 10
1452.2330795223
 20
-779.343064836
 10
1438.3055335331
 20
-769.5227083926
 10
1423.3926454469
 20
-759.0433870348
 10
1408.2077229939
 20
-748.7710590466
 10
1400.9459848972
 20
-744.1036630499
 10
1393.5062837551
 20
-739.6326860611
 10
1385.8323083818
 20
-735.536336983
 10
1377.8677475912
 20
-731.9928247183
 10
1372.9503930914
 20
-730.2498187417
 10
1367.8878901014
 20
-728.9127576185
 10
1362.7243580133
 20
-728.1014929449
 10
1356.1024894454
 20
-728.0006755971
 10
1349.5584012719
 20
-728.9742213337
 10
1343.8985471182
 20
-730.7060702113
 10
1338.4600392246
 20
-733.0550542723
 10
1333.2528103288
 20
-735.8189243631
 10
1323.1789233904
 20
-742.0383302049
 10
1313.5527104754
 20
-748.7987764277
 10
1304.2667293386
 20
-755.9457551817
 10
1295.2135377346
 20
-763.3247586168
 10
1286.2856934182
 20
-770.7812788832
 10
1277.3757541439
 20
-778.160808131
 10
1267.087782464
 20
-786.5409384432
 10
1256.6935554908
 20
-794.8219626989
 10
1246.0768059589
 20
-802.8546074386
 10
1235.1212666033
 20
-810.4895992025
 10
1223.7106701588
 20
-817.577664531
 10
1217.6166728371
 20
-820.932525128
 10
1211.2982259063
 20
-823.9744349465
 10
1204.7584140354
 20
-826.5639780714
 10
1198.0003218935
 20
-828.5617385877
  0
LINE
  5
A8
330
1F
100
AcDbEntity
  8
0
  6
Continuous
 62
     7
370
    25
100
AcDbLine
 10
1198.0003218935
 20
-828.5617385877
 30
0.0
 11
1167.4687250678
 21
-828.5617385368
 31
0.0
  0
LWPOLYLINE
  5
A9
330
1F
100
AcDbEntity
  8
0
  6
Continuous
 62
     7
370
    25
100
AcDbPolyline
 90
       37
 70
   128
 43
0.0
 10
1167.4687250678
 20
-828.5617385368
 10
1157.6640164907
 20
-825.9704704997
 10
1148.1334366595
 20
-822.5693699356
 10
1138.8540137478
 20
-818.5487616141
 10
1129.8027759503
 20
-814.0989703092
 10
1120.9567514616
 20
-809.410320795
 10
1105.9284356121
 20
-800.9845119496
 10
1091.0718073501
 20
-792.3289011877
 10
1076.1992478885
 20
-783.6908123822
 10
1063.9438557987
 20
-776.82072362
 10
1051.4305788403
 20
-770.3101360588
 10
1038.5420069585
 20
-764.4337562629
 10
1031.6375430863
 20
-761.7329799196
 10
1024.5570409965
 20
-759.3864594439
 10
1017.3245059534
 20
-757.5127201693
 10
1009.9639432213
 20
-756.2302874291
 10
1002.3719271818
 20
-755.6779653723
 10
994.7189394768
 20
-755.8900093069
 10
987.1104973213
 20
-756.7860557003
 10
979.6521179305
 20
-758.2857410196
 10
969.5169536962
 20
-761.1567920071
 10
959.6350371604
 20
-764.7132586894
 10
949.9754181696
 20
-768.8128073697
 10
940.5071465702
 20
-773.3131043511
 10
931.1992722086
 20
-778.0718159365
 10
922.0208449315
 20
-782.9466084292
 10
910.0164710231
 20
-789.4873665038
 10
898.0418486136
 20
-796.1011894954
 10
886.0102721339
 20
-802.6286778927
 10
873.8350360146
 20
-808.9104321844
 10
861.4294346864
 20
-814.787052859
 10
848.70676258
 20
-820.0991404053
 10
841.6927980246
 20
-822.6363449099
 10
834.5103009689
 20
-824.8488655121
 10
827.1928877146
 20
-826.6390436752
 10
819.7741745633
 20
-827.9092208624
 10
812.2877778163
 20
-828.5617385368
  0
LINE
  5
AA
330
1F
100
AcDbEntity
  8
0
  6
Continuous
 62
     7
370
    25
100
AcDbLine
 10
812.2877778163
 20
-828.5617385368
 30
0.0
 11
805.5120073004
 21
-828.5617385368
 31
0.0
  0
LWPOLYLINE
  5
AB
330
1F
100
AcDbEntity
  8
0
  6
Continuous
 62
     7
370
    25
100
AcDbPolyline
 90
       37
 70
   128
 43
0.0
 10
805.5120073004
 20
-828.5617385368
 10
797.0629972472
 20
-827.8124525502
 10
788.6964811998
 20
-826.3327349388
 10
780.451461161
 20
-824.243806962
 10
772.366939127
 20
-821.6668898791
 10
764.4819170939
 20
-818.7232049493
 10
749.440480633
 20
-812.2372597327
 10
734.794263043
 20
-805.0603551526
 10
720.4251707905
 20
-797.4109907322
 10
706.2151103421
 20
-789.5076659943
 10
692.0459881645
 20
-781.568880462
 10
680.2493337285
 20
-775.0662796222
 10
668.3323994557
 20
-768.7157764828
 10
656.2214145827
 20
-762.6478709675
 10
646.7899385951
 20
-758.2867893529
 10
637.1252737431
 20
-754.3071020112
 10
627.218714149
 20
-750.9203524673
 10
617.0615539356
 20
-748.3380842464
 10
608.9130060401
 20
-747.0528062366
 10
600.6452721985
 20
-746.564856263
 10
592.4058780419
 20
-746.9792186444
 10
584.2880223573
 20
-748.3597888057
 10
576.3509785982
 20
-750.5632834665
 10
568.6610098125
 20
-753.3872643571
 10
558.0789427886
 20
-758.1269365204
 10
547.8341280464
 20
-763.458970731
 10
537.8524049768
 20
-769.193376924
 10
528.0596129706
 20
-775.1401650344
 10
508.5115596422
 20
-787.4315235225
 10
488.9870186868
 20
-799.7167350715
 10
479.5092723539
 20
-805.4685509473
 10
469.8801891366
 20
-811.0282327033
 10
460.040224959
 20
-816.2885662448
 10
452.2939566443
 20
-820.0557417031
 10
444.3219435162
 20
-823.4696980008
 10
436.1239632608
 20
-826.3613814935
 10
427.6997935646
 20
-828.5617385369
  0
LINE
  5
AC
330
1F
100
AcDbEntity
  8
0
  6
Continuous
 62
     7
370
    25
100
AcDbLine
 10
427.6997935646
 20
-828.5617385369
 30
0.0
 11
399.8490208557
 21
-828.5617385368
 31
0.0
  0
LWPOLYLINE
  5
AD
330
1F
100
AcDbEntity
  8
0
  6
Continuous
 62
     7
370
    25
100
AcDbPolyline
 90
       40
 70
   128
 43
0.0
 10
399.8490208557
 20
-828.5617385368
 10
392.2478013328
 20
-826.2945125387
 10
384.9375848249
 20
-823.26232832
 10
377.9049495813
 20
-819.6406624275
 10
371.1364738514
 20
-815.6049913872
 10
364.6187358845
 20
-811.3307917253
 10
352.4340440694
 20
-802.6376859712
 10
340.664831819
 20
-793.5087722043
 10
329.1653160526
 20
-784.0767901228
 10
317.7897136898
 20
-774.4744794248
 10
306.3922416502
 20
-764.8345798082
 10
294.8271168533
 20
-755.2898309712
 10
282.9485562187
 20
-745.9729726119
 10
275.8358106852
 20
-740.764488457
 10
268.4410465726
 20
-735.8694752214
 10
260.6980975426
 20
-731.4812879513
 10
254.228567516
 20
-728.4834111779
 10
247.4796145302
 20
-726.0733603479
 10
240.5168711314
 20
-724.4243854817
 10
233.2997380428
 20
-723.7001606188
 10
226.0100725958
 20
-723.9176735929
 10
218.827269669
 20
-724.9923661134
 10
210.7562536858
 20
-727.0829766183
 10
202.8834641477
 20
-729.8360373482
 10
195.1912707042
 20
-733.0912661621
 10
187.6620430047
 20
-736.6883809194
 10
180.2781506988
 20
-740.4670994792
 10
165.3914338181
 20
-748.5175433808
 10
150.7453126195
 20
-756.8569217931
 10
136.2329284544
 20
-765.3028919496
 10
114.5499409237
 20
-777.898118164
 10
92.7574305967
 20
-790.2427668614
 10
78.0498093875
 20
-798.2314419776
 10
63.1160479763
 20
-805.8858770129
 10
47.8753055212
 20
-813.0410551474
 10
38.3321406129
 20
-817.1090639986
 10
28.5758917015
 20
-820.8378391198
 10
18.6198535481
 20
-824.0846781544
 10
8.477320914
 20
-826.7068787456
 10
-1.8384114398
 20
-828.5617385368
  0
LINE
  5
AE
330
1F
100
AcDbEntity
  8
0
  6
Continuous
 62
     7
370
    25
100
AcDbLine
 10
-1.8384114398
 20
-828.5617385368
 30
0.0
 11
-29.6336650113
 21
-828.5617385368
 31
0.0
  0
LWPOLYLINE
  5
AF
330
1F
100
AcDbEntity
  8
0
  6
Continuous
 62
     7
370
    25
100
AcDbPolyline
 90
       43
 70
   128
 43
0.0
 10
-29.6336650113
 20
-828.5617385368
 10
-38.9474594111
 20
-826.7338154603
 10
-48.0632929791
 20
-824.1267290043
 10
-56.9756325244
 20
-820.8761864357
 10
-65.6789448563
 20
-817.1178950219
 10
-74.1676967841
 20
-812.9875620299
 10
-82.436355117
 20
-808.6208947269
 10
-98.7118332333
 20
-799.2924999624
 10
-114.5671253234
 20
-789.3963791289
 10
-130.1217389338
 20
-779.0825783686
 10
-145.4951816108
 20
-768.5011438241
 10
-160.7550524669
 20
-757.7291940961
 10
-176.0086790215
 20
-746.7894125086
 10
-191.3597407127
 20
-735.8026882674
 10
-206.9119169784
 20
-724.889910578
 10
-214.2593655145
 20
-719.8643460819
 10
-221.7823810413
 20
-715.0541803461
 10
-229.604075437
 20
-710.7310085444
 10
-234.4225625601
 20
-708.5893715964
 10
-239.4680323847
 20
-707.0868578067
 10
-243.2935019122
 20
-706.6178048845
 10
-247.1407287687
 20
-706.7990268096
 10
-250.8827086259
 20
-707.6297830683
 10
-254.4806562801
 20
-708.9615233258
 10
-260.0221864621
 20
-711.757197646
 10
-265.2773059057
 20
-715.0660045829
 10
-270.3128310023
 20
-718.7296437899
 10
-275.1955781436
 20
-722.5898149204
 10
-279.9923637209
 20
-726.4882176278
 10
-293.2789653091
 20
-737.4056963483
 10
-306.3511401414
 20
-748.368301082
 10
-319.3154350016
 20
-759.2919080239
 10
-332.2783966733
 20
-770.0923933689
 10
-345.3465719405
 20
-780.6856333122
 10
-358.6265075868
 20
-790.9875040487
 10
-372.224750396
 20
-800.9138817734
 10
-380.8234812007
 20
-806.8081730992
 10
-389.6775856925
 20
-812.4281121945
 10
-398.8441381517
 20
-817.6110234284
 10
-408.3802128585
 20
-822.1942311701
 10
-415.342436899
 20
-824.9338729617
 10
-422.5517132657
 20
-827.1144780057
 10
-429.95025723
 20
-828.5617385368
  0
LINE
  5
B0
330
1F
100
AcDbEntity
  8
0
  6
Continuous
 62
     7
370
    25
100
AcDbLine
 10
-429.95025723
 20
-828.5617385368
 30
0.0
 11
-447.6318168107
 21
-828.5617385368
 31
0.0
  0
LWPOLYLINE
  5
B1
330
1F
100
AcDbEntity
  8
0
  6
Continuous
 62
     7
370
    25
100
AcDbPolyline
 90
       36
 70
   128
 43
0.0
 10
358.2181058574
 20
-1242.8653325554
 10
344.5906275331
 20
-1230.6240819976
 10
331.5110616818
 20
-1217.8374064761
 10
318.8214290678
 20
-1204.621844249
 10
306.3637504553
 20
-1191.0939335747
 10
293.9800466087
 20
-1177.3702127114
 10
281.5123382924
 20
-1163.5672199174
 10
272.9081868734
 20
-1154.2371616322
 10
264.1097722502
 20
-1144.9954505879
 10
255.0937193469
 20
-1135.8960491012
 10
246.1837334038
 20
-1127.1724218088
 10
242.2336276723
 20
-1123.2100318837
 10
239.4368139297
 20
-1120.1274455872
 10
238.1584990773
 20
-1118.4418217413
 10
237.2041007186
 20
-1116.5736382566
 10
236.9409166509
 20
-1114.876037197
 10
237.3481482352
 20
-1113.2035329022
 10
238.2624367653
 20
-1111.5839631068
 10
239.4123394686
 20
-1110.1100477425
 10
243.1699990429
 20
-1106.1007524872
 10
247.200866338
 20
-1102.352883782
 10
251.3025953765
 20
-1098.6896881301
 10
263.3332347645
 20
-1087.5224254237
 10
275.0610669236
 20
-1076.1558052764
 10
286.5452425233
 20
-1064.6945890593
 10
297.8449122335
 20
-1053.2435381438
 10
312.1682380704
 20
-1038.7242724982
 10
326.5908948241
 20
-1024.4503383474
 10
341.346408015
 20
-1010.5877378462
 10
356.6683031639
 20
-997.3024731493
 10
363.8670545411
 20
-991.5293349306
 10
371.3357237633
 20
-986.0174758981
 10
379.1399897639
 20
-980.9372989124
 10
387.3455314762
 20
-976.4592068343
 10
393.4656037726
 20
-973.7768410612
 10
399.8490207684
 20
-971.7024822745
  0
LWPOLYLINE
  5
B2
330
1F
100
AcDbEntity
  8
0
  6
Continuous
 62
     7
370
    25
100
AcDbPolyline
 90
       36
 70
   128
 43
0.0
 10
-1.8384114397
 20
-971.7024822974
 10
8.9211149992
 20
-973.8627117745
 10
19.453493885
 20
-976.9237839267
 10
29.755962177
 20
-980.7272510798
 10
39.8257568349
 20
-985.1146655597
 10
49.6601148182
 20
-989.9275796923
 10
59.2562730864
 20
-995.0075458035
 10
79.1432155622
 20
-1006.3582214837
 10
98.56942333
 20
-1018.3880860062
 10
117.6366175079
 20
-1030.9867736992
 10
136.446519214
 20
-1044.0439188913
 10
155.1008495667
 20
-1057.4491559111
 10
173.7013296839
 20
-1071.0921190869
 10
185.4576796666
 20
-1079.8103904265
 10
197.183298129
 20
-1088.6636663486
 10
208.8200942089
 20
-1097.7055736011
 10
215.566399587
 20
-1103.170879609
 10
221.5076335607
 20
-1108.4917371306
 10
223.9740696027
 20
-1111.2176360384
 10
225.2258345903
 20
-1113.2462801569
 10
225.6156951425
 20
-1114.689743055
 10
225.4786283298
 20
-1116.1891236045
 10
224.6070363563
 20
-1118.0565089399
 10
222.2408711028
 20
-1121.0401531383
 10
219.5174681022
 20
-1123.7292356211
 10
212.1019331235
 20
-1130.4834809116
 10
204.474237363
 20
-1136.9845610748
 10
196.7770487304
 20
-1143.3736810388
 10
178.2648941743
 20
-1158.5744401602
 10
159.6544165557
 20
-1173.4685015722
 10
140.9037140903
 20
-1188.0168510491
 10
121.9708849937
 20
-1202.180474365
 10
102.8140274817
 20
-1215.920357294
 10
89.1847592001
 20
-1225.2729104397
 10
75.3114733681
 20
-1234.2913362833
 10
61.1263481938
 20
-1242.8653325554
  0
LINE
  5
B3
330
1F
100
AcDbEntity
  8
0
  6
Continuous
 62
     7
370
    25
100
AcDbLine
 10
-1.8384114397
 20
-971.7024822974
 30
0.0
 11
-1.8384114398
 21
-828.5617385368
 31
0.0
  0
LINE
  5
B4
330
1F
100
AcDbEntity
  8
0
  6
Continuous
 62
     7
370
    25
100
AcDbLine
 10
399.8490208557
 20
-828.5617385368
 30
0.0
 11
399.8490207684
 21
-971.7024822745
 31
0.0
  0
LWPOLYLINE
  5
B5
330
1F
100
AcDbEntity
  8
0
  6
Continuous
 62
     7
370
    25
100
AcDbPolyline
 90
       12
 70
   128
 43
0.0
 10
1922.8580757376
 20
-971.7024822974
 10
1929.0576797422
 20
-972.9837539422
 10
1935.0987551862
 20
-974.8982823149
 10
1940.9440101067
 20
-977.3199633185
 10
1946.5561525408
 20
-980.1226928564
 10
1955.597470102
 20
-985.4379604245
 10
1964.2123812579
 20
-991.3369305669
 10
1972.4463453373
 20
-997.7171071108
 10
1980.3448216688
 20
-1004.4759938834
 10
1987.9532695812
 20
-1011.5110947119
 10
1995.3171484032
 20
-1018.7199134237
 10
1996.2974681153
 20
-1019.7314515543
  0
LINE
  5
B6
330
1F
100
AcDbEntity
  8
0
  6
Continuous
 62
     7
370
    25
100
AcDbLine
 10
1922.8580757376
 20
-971.7024822974
 30
0.0
 11
1922.8580757376
 21
-828.5617385368
 31
0.0
  0
LINE
  5
B7
330
1F
100
AcDbEntity
  8
0
  6
Continuous
 62
     7
370
    25
100
AcDbLine
 10
1922.8580757376
 20
-549.8952953698
 30
0.0
 11
1922.8580757376
 21
-436.9060296823
 31
0.0
  0
LWPOLYLINE
  5
B8
330
1F
100
AcDbEntity
  8
0
  6
Continuous
 62
     7
370
    25
100
AcDbPolyline
 90
       42
 70
   128
 43
0.0
 10
1922.8580757376
 20
-150.2278274737
 10
1928.8228652431
 20
-151.5063437266
 10
1934.6305161222
 20
-153.3985318324
 10
1940.2456013438
 20
-155.7823534353
 10
1945.6326938767
 20
-158.5357701798
 10
1954.1744976266
 20
-163.6705078457
 10
1962.3086022105
 20
-169.36139554
 10
1970.0772855948
 20
-175.5111409821
 10
1977.5228257459
 20
-182.0224518917
 10
1984.6875006303
 20
-188.7980359882
 10
1991.6135882144
 20
-195.7406009909
 10
2000.3732899652
 20
-205.0204174114
 10
2008.8009333507
 20
-214.6349390734
 10
2016.8171812721
 20
-224.620750161
 10
2024.3426966306
 20
-235.0144348586
 10
2031.2981423273
 20
-245.8525773505
 10
2035.5854017569
 20
-253.4309476945
 10
2039.4284339875
 20
-261.3029849673
 10
2042.6798316204
 20
-269.4738364551
 10
2044.7831307327
 20
-276.4017106345
 10
2046.2613036834
 20
-283.5368954255
 10
2046.982888016
 20
-290.7822142033
 10
2046.8145974585
 20
-298.1330726432
 10
2045.7830325834
 20
-305.4345793091
 10
2044.0037472515
 20
-312.5385143982
 10
2041.2569688998
 20
-320.2825192726
 10
2037.897679957
 20
-327.7556464636
 10
2034.0598981815
 20
-334.9619111577
 10
2029.8776413322
 20
-341.9053285411
 10
2022.5556302266
 20
-352.7538454764
 10
2014.6868589296
 20
-363.1556426147
 10
2006.3706761938
 20
-373.1672531003
 10
1997.7064307715
 20
-382.8452100776
 10
1988.4918773584
 20
-392.5163838017
 10
1978.8978717783
 20
-401.8759194963
 10
1968.8569524337
 20
-410.8190249506
 10
1958.3016577272
 20
-419.2409079543
 10
1950.9832049748
 20
-424.4456427794
 10
1943.2852646912
 20
-429.1739479308
 10
1935.1587050615
 20
-433.1736437407
 10
1929.1245951591
 20
-435.3919360143
 10
1922.8580757376
 20
-436.9060296823
  0
LINE
  5
B9
330
1F
100
AcDbEntity
  8
0
  6
Continuous
 62
     7
370
    25
100
AcDbLine
 10
1922.8580757376
 20
-150.2278274737
 30
0.0
 11
1922.8580757376
 21
-5.1137550812
 31
0.0
  0
LWPOLYLINE
  5
BA
330
1F
100
AcDbEntity
  8
0
  6
Continuous
 62
     7
370
    25
100
AcDbPolyline
 90
       82
 70
   128
 43
0.0
 10
1922.8580757376
 20
684.904776079
 10
1928.9944656955
 20
683.5937014571
 10
1934.9671376892
 20
681.6444859251
 10
1940.7406467365
 20
679.1879281421
 10
1946.2795478552
 20
676.3548267674
 10
1955.4204565128
 20
670.8630520829
 10
1964.1218891654
 20
664.7822234532
 10
1972.4340562286
 20
658.2189548956
 10
1980.407168118
 20
651.2798604275
 10
1988.0914352492
 20
644.0715540663
 10
1995.5370680378
 20
636.7006498294
 10
2004.51606414
 20
627.3653955101
 10
2013.1969874013
 20
617.7238860255
 10
2021.5091530318
 20
607.7352768807
 10
2029.3818762418
 20
597.3587235808
 10
2036.7444722416
 20
586.5533816308
 10
2040.6873160588
 20
580.1425555057
 10
2044.3539829532
 20
573.5165716543
 10
2047.6479724475
 20
566.6672011086
 10
2050.4727840645
 20
559.5862149008
 10
2052.805427513
 20
551.7888561245
 10
2054.3447624878
 20
543.7341065258
 10
2055.0250116084
 20
535.5686146033
 10
2054.8386871724
 20
527.402490554
 10
2053.896775243
 20
519.2739082839
 10
2052.3095919813
 20
511.2793745377
 10
2049.3514706511
 20
500.6749120058
 10
2045.670355639
 20
490.3313983739
 10
2041.409266523
 20
480.2203264683
 10
2036.7112228806
 20
470.3131891149
 10
2031.7192442895
 20
460.5814791398
 10
2026.5763503276
 20
450.9966893692
 10
2018.8226962537
 20
436.9910530201
 10
2010.9771284864
 20
423.0342238345
 10
2003.2337443286
 20
408.9968901163
 10
1995.7866410834
 20
394.7497401695
 10
1991.382533339
 20
385.6898964038
 10
1987.2982253251
 20
376.4289370361
 10
1983.7079353219
 20
366.9462000546
 10
1980.7858816096
 20
357.2210234476
 10
1979.2647202431
 20
350.1837845765
 10
1978.2920842654
 20
343.0080429441
 10
1977.9077535698
 20
335.7742975925
 10
1978.1515080496
 20
328.5630475638
 10
1979.3692875642
 20
319.1758216462
 10
1981.404028457
 20
309.9182053003
 10
1984.082209472
 20
300.8286019639
 10
1987.2303093534
 20
291.9454150753
 10
1992.3680667292
 20
279.3170455534
 10
1997.9750324895
 20
266.9290353407
 10
2003.8761250852
 20
254.7061045158
 10
2009.8962629671
 20
242.5729731575
 10
2017.8799417643
 20
226.4487700228
 10
2025.621057969
 20
210.1924792243
 10
2032.8267320787
 20
193.6524197808
 10
2036.1795400142
 20
185.1019979682
 10
2039.252739189
 20
176.3706204043
 10
2041.9344021213
 20
167.4814899436
 10
2044.1126013291
 20
158.4578094406
 10
2045.6754093305
 20
149.3227817497
 10
2046.5108986434
 20
140.0996097254
 10
2046.4914327198
 20
130.8981369669
 10
2045.5568628403
 20
121.727680138
 10
2043.6821509373
 20
112.7662824879
 10
2040.8653526747
 20
104.1361574724
 10
2037.2400441753
 20
95.8469909879
 10
2032.9933183056
 20
87.9411228986
 10
2025.9130262579
 20
76.7645810703
 10
2018.122491774
 20
66.1410383855
 10
2009.7153014734
 20
56.0290555901
 10
2000.7850419757
 20
46.3871934298
 10
1991.4252999007
 20
37.1740126505
 10
1981.7296618679
 20
28.3480739978
 10
1974.5527227273
 20
22.2358198769
 10
1967.1132446501
 20
16.3736076916
 10
1959.3737655806
 20
10.853452564
 10
1951.2968234629
 20
5.767369616
 10
1945.8694415008
 20
2.7659491151
 10
1940.2367741389
 20
0.0649313913
 10
1934.4104917892
 20
-2.2331170993
 10
1928.4022648639
 20
-4.0256299007
 10
1922.8580757376
 20
-5.1137550812
  0
LINE
  5
BB
330
1F
100
AcDbEntity
  8
0
  6
Continuous
 62
     7
370
    25
100
AcDbLine
 10
1922.8580757376
 20
684.904776079
 30
0.0
 11
1922.8580757376
 21
819.1327810499
 31
0.0
  0
LWPOLYLINE
  5
BC
330
1F
100
AcDbEntity
  8
0
  6
Continuous
 62
     7
370
    25
100
AcDbPolyline
 90
       62
 70
   128
 43
0.0
 10
2049.3947372694
 20
1318.3697023905
 10
2050.4591657903
 20
1313.5227738812
 10
2051.1601547473
 20
1305.7719139692
 10
2050.929083493
 20
1297.9485532832
 10
2049.863421329
 20
1290.2326019354
 10
2047.9136125469
 20
1282.0755074058
 10
2045.310263832
 20
1274.1136674732
 10
2042.1992751325
 20
1266.3556500232
 10
2038.7265463964
 20
1258.8100229408
 10
2032.2572753671
 20
1246.3010134549
 10
2025.3002461241
 20
1234.1107261778
 10
2018.0458618239
 20
1222.1105226077
 10
2010.6845256228
 20
1210.1717642428
 10
2003.4066406774
 20
1198.165812581
 10
1997.2461537771
 20
1187.5253086995
 10
1991.4687622242
 20
1176.6130691655
 10
1986.3600919241
 20
1165.3240568632
 10
1983.6049929868
 20
1157.8452825231
 10
1981.4428936923
 20
1150.1320369447
 10
1980.0762538486
 20
1142.2427016547
 10
1979.7105609311
 20
1136.151834814
 10
1979.9444301221
 20
1130.0229147897
 10
1980.7199823682
 20
1123.9357450661
 10
1981.9793386162
 20
1117.9701291278
 10
1984.7478607067
 20
1108.7913808209
 10
1988.2388865778
 20
1099.8808200992
 10
1992.2812753556
 20
1091.2103833412
 10
1996.7038861662
 20
1082.7520069257
 10
2001.3355781357
 20
1074.4776272311
 10
2010.9189239961
 20
1058.2527585326
 10
2020.7121258815
 20
1042.2057093118
 10
2030.3810836294
 20
1026.0818123293
 10
2035.130189574
 20
1017.8499743077
 10
2039.7420814297
 20
1009.4724593521
 10
2044.0848184064
 20
1000.9219984127
 10
2048.026459714
 20
992.17132244
 10
2051.4350645623
 20
983.1931623841
 10
2054.1786921612
 20
973.9602491954
 10
2055.5332123644
 20
967.6301774418
 10
2056.3961836539
 20
961.1696061445
 10
2056.6941279563
 20
954.6615986316
 10
2056.3535671983
 20
948.189218231
 10
2055.130809916
 20
940.9999491136
 10
2053.0936058621
 20
933.9999176381
 10
2050.3742318592
 20
927.3050634093
 10
2046.1588076206
 20
919.1866814363
 10
2041.3306026397
 20
911.4681257389
 10
2036.0220994822
 20
904.10500507
 10
2030.3657807141
 20
897.0529281821
 10
2024.494128901
 20
890.2675038281
 10
2013.5326473635
 20
878.5672329928
 10
2002.0351041828
 20
867.4271666336
 10
1990.0458551248
 20
856.8027521103
 10
1982.4407208829
 20
850.4978657464
 10
1974.6040495476
 20
844.3930532888
 10
1966.4962356114
 20
838.5822748622
 10
1958.0776735668
 20
833.1594905916
 10
1949.3087579062
 20
828.2186606017
 10
1943.0385074626
 20
825.1792933317
 10
1936.513155873
 20
822.5511040374
 10
1929.7729347578
 20
820.4852231373
 10
1922.8580757376
 20
819.1327810499
  0
LINE
  5
BD
330
1F
100
AcDbEntity
  8
0
  6
Continuous
 62
     7
370
    25
100
AcDbLine
 10
1922.8580757376
 20
-5.1137550812
 30
0.0
 11
1907.0912865467
 21
-5.1137550812
 31
0.0
  0
LWPOLYLINE
  5
BE
330
1F
100
AcDbEntity
  8
0
  6
Continuous
 62
     7
370
    25
100
AcDbPolyline
 90
       41
 70
   128
 43
0.0
 10
1907.0912865467
 20
-5.1137550812
 10
1899.8299211722
 20
-3.7284326972
 10
1892.7301648825
 20
-1.6540342271
 10
1885.8092947986
 20
0.9763156865
 10
1879.084588042
 20
4.0294924014
 10
1872.5733217338
 20
7.3723712752
 10
1860.2781533463
 20
14.4447162981
 10
1848.3839927599
 20
22.0702715759
 10
1836.7808298985
 20
30.0937633432
 10
1825.3586546857
 20
38.3599178344
 10
1814.0074570452
 20
46.713461284
 10
1799.8456738687
 20
57.0892533284
 10
1785.4392320322
 20
67.2648694663
 10
1777.974042852
 20
72.2682127421
 10
1770.2953014311
 20
77.036306183
 10
1762.3334351264
 20
81.3333317171
 10
1754.0188712949
 20
84.9234712728
 10
1748.4708364177
 20
86.6785233957
 10
1742.7371558113
 20
87.8195042237
 10
1736.9297563481
 20
88.1890512379
 10
1731.1088534154
 20
87.7053489874
 10
1725.3710706474
 20
86.496113937
 10
1719.8089801445
 20
84.7174073294
 10
1711.0549622724
 20
81.0198583891
 10
1702.645587555
 20
76.6486089535
 10
1694.5181687928
 20
71.7672987664
 10
1686.610018786
 20
66.5395675718
 10
1678.8584503352
 20
61.1290551138
 10
1671.2007762407
 20
55.6994011363
 10
1656.2983231431
 20
45.1083519634
 10
1641.3947167307
 20
34.5874793967
 10
1626.299605638
 20
24.3377377943
 10
1618.5381891613
 20
19.2983717469
 10
1610.6242015684
 20
14.3961786801
 10
1602.5270665528
 20
9.7495372837
 10
1594.2162078081
 20
5.4768262478
 10
1585.6610490279
 20
1.6964242624
 10
1576.8310139055
 20
-1.4732899825
 10
1570.1738761748
 20
-3.2912237761
 10
1563.3544406225
 20
-4.5443359872
 10
1556.4535458747
 20
-5.1137550812
  0
LINE
  5
BF
330
1F
100
AcDbEntity
  8
0
  6
Continuous
 62
     7
370
    25
100
AcDbLine
 10
1556.4535458747
 20
-5.1137550812
 30
0.0
 11
1553.1563786506
 21
-5.1137550812
 31
0.0
  0
LWPOLYLINE
  5
C0
330
1F
100
AcDbEntity
  8
0
  6
Continuous
 62
     7
370
    25
100
AcDbPolyline
 90
      127
 70
   128
 43
0.0
 10
1553.1563786506
 20
-5.1137550812
 10
1546.6217572126
 20
-4.5758677522
 10
1540.1544458283
 20
-3.3924351741
 10
1533.8141488895
 20
-1.6684456256
 10
1527.660570788
 20
0.4911126147
 10
1517.8672977226
 20
4.7322565851
 10
1508.4301457596
 20
9.6271806292
 10
1499.3053099514
 20
15.0503209869
 10
1490.4489853502
 20
20.8761138982
 10
1481.8173670085
 20
26.9789956031
 10
1473.3666499785
 20
33.2334023415
 10
1459.1778566861
 20
44.1986996309
 10
1445.2736019206
 20
55.554749652
 10
1431.6237838372
 20
67.2960578063
 10
1418.1983005913
 20
79.4171294953
 10
1408.8513158853
 20
88.243796386
 10
1399.7411352536
 20
97.4023148508
 10
1394.2731650886
 20
103.3280850156
 10
1389.0931372397
 20
109.5426430341
 10
1384.3900941396
 20
116.1311708206
 10
1381.4922380309
 20
121.0732372639
 10
1379.1918729151
 20
126.3175898968
 10
1377.9972460191
 20
130.7256031132
 10
1377.5373438336
 20
135.265342647
 10
1377.897016487
 20
139.8178639734
 10
1378.9478204637
 20
144.2684017441
 10
1381.1274022843
 20
150.0666545878
 10
1383.8889955959
 20
155.6315128402
 10
1387.0346878533
 20
161.0096203224
 10
1390.3665665113
 20
166.2476208558
 10
1401.0418058312
 20
182.1465509216
 10
1412.0584023124
 20
197.7325890449
 10
1423.2156767591
 20
213.1607579855
 10
1434.312949975
 20
228.5860805033
 10
1445.149542764
 20
244.163579358
 10
1455.5247759302
 20
260.0482773095
 10
1462.6184834078
 20
271.7548476604
 10
1469.2441343652
 20
283.77006289
 10
1475.1724112795
 20
296.1693949357
 10
1478.1048315128
 20
303.3637421829
 10
1480.6361552788
 20
310.7465543319
 10
1482.6459028286
 20
318.2892468313
 10
1484.0135944133
 20
325.9632351298
 10
1484.5964466541
 20
333.849393993
 10
1484.304466768
 20
341.779721899
 10
1483.1273351595
 20
349.5902070969
 10
1481.023012087
 20
357.5823155991
 10
1478.2237634425
 20
365.3653574485
 10
1474.8798122769
 20
372.9267640599
 10
1471.1413816411
 20
380.2539668481
 10
1463.3301944861
 20
393.654534616
 10
1454.7763955538
 20
406.5595768595
 10
1445.6700593665
 20
419.0638069737
 10
1436.2012604465
 20
431.2619383536
 10
1426.2872321609
 20
443.5035129516
 10
1416.0580546687
 20
455.524810162
 10
1405.434979852
 20
467.2414898478
 10
1394.3392595932
 20
478.5692118718
 10
1389.4674969569
 20
483.2349795646
 10
1384.4148511683
 20
487.7395138537
 10
1379.110564782
 20
491.9370955695
 10
1373.4838803528
 20
495.6820055426
 10
1369.2850343928
 20
497.9096990648
 10
1364.834902181
 20
499.5701351253
 10
1361.2808188818
 20
500.2918935281
 10
1357.6594613415
 20
500.4288302407
 10
1354.0635728013
 20
499.9183541799
 10
1350.5966551013
 20
498.8315583386
 10
1347.2414580107
 20
497.2321070834
 10
1344.0738855801
 20
495.2669163643
 10
1341.0828806875
 20
493.0563039323
 10
1334.5166978992
 20
487.3865451138
 10
1328.4047291251
 20
481.2405122247
 10
1322.6464191819
 20
474.7535760452
 10
1317.141212886
 20
468.0611073557
 10
1311.7885550541
 20
461.2984769366
 10
1299.2529778186
 20
444.7622714057
 10
1287.3623913774
 20
427.8058952456
 10
1276.1524882591
 20
410.3983729092
 10
1270.7415059269
 20
401.4102410135
 10
1265.5493813859
 20
392.2053651689
 10
1260.7338604445
 20
382.7677853563
 10
1256.4526889114
 20
373.0815415564
 10
1252.863612595
 20
363.1306737499
 10
1250.1243773039
 20
352.8992219177
 10
1248.6851833136
 20
343.9636597896
 10
1248.2140904545
 20
334.8807823818
 10
1248.7257677658
 20
325.8314723142
 10
1250.2431203821
 20
316.4454516193
 10
1252.5615056837
 20
307.2146445078
 10
1255.5161535941
 20
298.1722482044
 10
1258.9422940369
 20
289.3514599337
 10
1265.7977019615
 20
274.0936249223
 10
1273.3975369352
 20
259.2382397819
 10
1281.5600169544
 20
244.694301492
 10
1290.1033600155
 20
230.3708070324
 10
1298.8457841146
 20
216.1767533827
 10
1309.855409249
 20
198.6024908546
 10
1320.8891170139
 20
180.9485716916
 10
1324.6288096486
 20
174.9705840503
 10
1328.3739655308
 20
168.9325156163
 10
1331.956748889
 20
162.789396433
 10
1335.2093239519
 20
156.4962565435
 10
1337.9638549478
 20
150.0081259912
 10
1340.0525061052
 20
143.280034819
 10
1340.9259434239
 20
138.1256352813
 10
1340.9343506611
 20
132.904653431
 10
1339.9958428538
 20
127.7694895865
 10
1338.2979784756
 20
122.8272030145
 10
1335.3217522596
 20
116.694650832
 10
1331.7560979497
 20
110.8710695935
 10
1327.7810919894
 20
105.3122450891
 10
1323.5768108221
 20
99.973963109
 10
1314.0118023157
 20
88.7257204672
 10
1304.0819321023
 20
77.9204848703
 10
1293.9054973576
 20
67.4629227337
 10
1283.6007952573
 20
57.2577004732
 10
1273.0404634074
 20
47.086732869
 10
1262.2808598893
 20
37.1575379037
 10
1251.2364640857
 20
27.5439325033
 10
1239.8217553796
 20
18.319733594
 10
1232.2643794476
 20
12.6513229993
 10
1224.4146501857
 20
7.2838587987
 10
1216.2135692378
 20
2.4108384036
 10
1207.6021382479
 20
-1.7742407746
 10
1202.8708629982
 20
-3.6171308837
 10
1198.0003218935
 20
-5.1137550812
  0
LINE
  5
C1
330
1F
100
AcDbEntity
  8
0
  6
Continuous
 62
     7
370
    25
100
AcDbLine
 10
1198.0003218935
 20
-5.1137550812
 30
0.0
 11
1167.4687250468
 21
-5.1137550763
 31
0.0
  0
LWPOLYLINE
  5
C2
330
1F
100
AcDbEntity
  8
0
  6
Continuous
 62
     7
370
    25
100
AcDbPolyline
 90
       38
 70
   128
 43
0.0
 10
1167.4687250468
 20
-5.1137550763
 10
1159.3061986355
 20
-2.8366047928
 10
1151.3617567
 20
0.0651140905
 10
1143.6202227972
 20
3.474073597
 10
1136.066420484
 20
7.2729457504
 10
1128.6851733174
 20
11.3444025743
 10
1121.4613048543
 20
15.5711160922
 10
1106.6471926363
 20
24.7544088376
 10
1092.0772212239
 20
34.2678225642
 10
1077.5723535402
 20
43.8924823561
 10
1066.5672493569
 20
51.1132706704
 10
1055.4044584675
 20
58.1644023845
 10
1043.9764528011
 20
64.8706716054
 10
1037.0746532897
 20
68.5815681552
 10
1029.976287768
 20
71.9995330472
 10
1022.6669159769
 20
74.9577496191
 10
1015.1320976569
 20
77.2894012083
 10
1008.534577313
 20
78.5967714668
 10
1001.7993973369
 20
79.1626982995
 10
995.069554345
 20
78.939888062
 10
988.8082938307
 20
78.0300969466
 10
982.641002121
 20
76.5653763068
 10
976.5976781006
 20
74.6522596873
 10
970.7083206544
 20
72.3972806329
 10
959.5914561343
 20
67.3499750524
 10
948.8188310342
 20
61.6771490822
 10
938.3037976125
 20
55.5946042165
 10
927.9597081279
 20
49.3181419497
 10
907.2750782123
 20
36.4931737017
 10
886.5098192997
 20
23.8403418768
 10
875.3784339572
 20
17.3949111441
 10
864.0121298973
 20
11.2638275669
 10
852.3396940503
 20
5.6722361297
 10
840.2899133463
 20
0.845281817
 10
833.4903223549
 20
-1.3682878851
 10
826.5255224507
 20
-3.166150608
 10
819.4423841118
 20
-4.4480563429
 10
812.2877778163
 20
-5.1137550812
  0
LINE
  5
C3
330
1F
100
AcDbEntity
  8
0
  6
Continuous
 62
     7
370
    25
100
AcDbLine
 10
812.2877778163
 20
-5.1137550812
 30
0.0
 11
805.5120073071
 21
-5.1137550815
 31
0.0
  0
LWPOLYLINE
  5
C4
330
1F
100
AcDbEntity
  8
0
  6
Continuous
 62
     7
370
    25
100
AcDbPolyline
 90
       41
 70
   128
 43
0.0
 10
805.5120073071
 20
-5.1137550815
 10
797.9868524137
 20
-4.4265922876
 10
790.5327891806
 20
-3.098088102
 10
783.1865140785
 20
-1.2266307948
 10
775.984723578
 20
1.0893913633
 10
768.9641141496
 20
3.7515901021
 10
757.2711683092
 20
8.891122176
 10
745.8924895061
 20
14.6048747496
 10
734.7722153603
 20
20.7601053554
 10
723.8544834921
 20
27.2240715259
 10
713.0834315215
 20
33.8640307937
 10
695.1225883163
 20
45.2911027582
 10
677.2051258037
 20
56.8597144729
 10
659.1018383968
 20
68.2906876727
 10
651.4948721984
 20
72.969946015
 10
643.7402983746
 20
77.5695495866
 10
635.8047155255
 20
81.8904155454
 10
627.6547222509
 20
85.7334610498
 10
619.2569171508
 20
88.8996032579
 10
610.577898825
 20
91.1897593279
 10
605.1837430113
 20
92.0008810095
 10
599.7165544939
 20
92.2465048736
 10
594.2777954813
 20
91.8748502527
 10
588.9348226325
 20
90.863187298
 10
583.7149007607
 20
89.3026374155
 10
578.6635536903
 20
87.3127402162
 10
570.0222467715
 20
83.1259781009
 10
561.7094315063
 20
78.376362139
 10
553.6609916849
 20
73.203785827
 10
545.8128110978
 20
67.7481426613
 10
538.1007735351
 20
62.1493261382
 10
530.4607627873
 20
56.5472297542
 10
511.1782861329
 20
42.4418150271
 10
491.7868945064
 20
28.5727204428
 10
481.9007387154
 20
21.7991325917
 10
471.8199259667
 20
15.2505550883
 10
461.4687846288
 20
9.078726945
 10
450.7716430705
 20
3.4353871742
 10
443.3246238254
 20
0.0387196557
 10
435.6295123924
 20
-2.8716278785
 10
427.699793565
 20
-5.1137550812
  0
LINE
  5
C5
330
1F
100
AcDbEntity
  8
0
  6
Continuous
 62
     7
370
    25
100
AcDbLine
 10
427.699793565
 20
-5.1137550812
 30
0.0
 11
399.8490208557
 21
-5.1137551036
 31
0.0
  0
LINE
  5
C6
330
1F
100
AcDbEntity
  8
0
  6
Continuous
 62
     7
370
    25
100
AcDbLine
 10
-1.8384114397
 20
-5.1137550812
 30
0.0
 11
-29.6336650113
 21
-5.1137550812
 31
0.0
  0
LWPOLYLINE
  5
C7
330
1F
100
AcDbEntity
  8
0
  6
Continuous
 62
     7
370
    25
100
AcDbPolyline
 90
       87
 70
   128
 43
0.0
 10
-29.6336650113
 20
-5.1137550812
 10
-38.2431632514
 20
-3.301911367
 10
-46.6610970106
 20
-0.7578791773
 10
-54.8802287613
 20
2.3956286479
 10
-62.8933209759
 20
6.0358992689
 10
-70.6931361267
 20
10.0402198457
 10
-78.2724366861
 20
14.2858775386
 10
-91.6535294157
 20
22.4398463471
 10
-104.648860878
 20
31.1153117956
 10
-117.3007094719
 20
40.2473277521
 10
-129.6513535968
 20
49.770948085
 10
-141.7430716517
 20
59.6212266626
 10
-151.1433677339
 20
67.6196221626
 10
-160.3541468676
 20
75.9021384853
 10
-169.2547286129
 20
84.564476622
 10
-177.7244325299
 20
93.7023375635
 10
-182.1554422355
 20
99.0219130549
 10
-186.2787416131
 20
104.6139267685
 10
-189.9523210362
 20
110.518777846
 10
-192.5566895655
 20
115.6999656971
 10
-194.6529659431
 20
121.1333983488
 10
-196.1219205259
 20
126.7559883134
 10
-196.861749713
 20
132.5816107109
 10
-196.8618601723
 20
138.4834932048
 10
-196.1660834093
 20
144.3215911632
 10
-194.2745244075
 20
152.003324733
 10
-191.5529398519
 20
159.4528764083
 10
-188.2560656109
 20
166.6420654707
 10
-181.8501300288
 20
178.4664215681
 10
-174.7789449168
 20
189.8824957304
 10
-167.2881556474
 20
201.0122293415
 10
-159.6234075932
 20
211.9775637854
 10
-144.1196058835
 20
233.9223977184
 10
-128.9011586281
 20
256.0517135069
 10
-121.6155644924
 20
267.2772198662
 10
-114.6839351034
 20
278.7547100661
 10
-108.2940196166
 20
290.5667373589
 10
-104.7505892652
 20
297.9861858422
 10
-101.5766188716
 20
305.639058645
 10
-98.9220970006
 20
313.4927564616
 10
-96.9370122171
 20
321.5146799862
 10
-95.7713530858
 20
329.672229913
 10
-95.6013582477
 20
337.7285074605
 10
-96.4201730342
 20
345.7774768407
 10
-98.1586568801
 20
353.6369043653
 10
-101.0484207471
 20
362.2102355162
 10
-104.6759863707
 20
370.5026087511
 10
-108.862893205
 20
378.5241225361
 10
-113.4306807043
 20
386.2848753376
 10
-122.4977394147
 20
400.1557682629
 10
-132.1817857001
 20
413.5620150562
 10
-142.321675142
 20
426.6205769611
 10
-152.7562633221
 20
439.4484152211
 10
-163.3244058218
 20
452.1624910798
 10
-176.5375464685
 20
467.9559939455
 10
-189.6913331826
 20
483.8903498388
 10
-194.9668894335
 20
490.3856065966
 10
-200.1779754214
 20
496.9828404439
 10
-205.1533400509
 20
503.7620491427
 10
-209.7217322263
 20
510.8032304553
 10
-213.7119008524
 20
518.186382144
 10
-215.7943939119
 20
523.15331608
 10
-217.2048536552
 20
528.3452224705
 10
-217.6609581241
 20
532.7779427224
 10
-217.3767526223
 20
537.2225813772
 10
-216.3514362212
 20
541.5394540288
 10
-214.725846167
 20
545.6702159567
 10
-212.1203240837
 20
550.4861495063
 10
-209.0395722188
 20
555.0280221864
 10
-205.6296915013
 20
559.3410955936
 10
-202.0367828605
 20
563.4706313245
 10
-191.0590060541
 20
575.1083416334
 10
-179.6227695876
 20
586.1923131257
 10
-167.8255436997
 20
596.8153845368
 10
-155.7647986286
 20
607.0703946019
 10
-143.538004613
 20
617.0501820563
 10
-131.2426318912
 20
626.8475856352
 10
-118.9574304425
 20
636.3945411554
 10
-106.455297248
 20
645.6743684076
 10
-93.6766794796
 20
654.6180450378
 10
-83.7347238375
 20
661.1560694163
 10
-73.5193341254
 20
667.3661447294
 10
-62.9796856707
 20
673.0784590804
 10
-52.0649538007
 20
678.1232005725
 10
-44.7820996412
 20
680.9209626536
 10
-37.2928821877
 20
683.2255823329
 10
-29.6336650113
 20
684.904776079
  0
LINE
  5
C8
330
1F
100
AcDbEntity
  8
0
  6
Continuous
 62
     7
370
    25
100
AcDbLine
 10
-29.6336650113
 20
684.904776079
 30
0.0
 11
-1.8384114397
 21
684.904776079
 31
0.0
  0
LWPOLYLINE
  5
C9
330
1F
100
AcDbEntity
  8
0
  6
Continuous
 62
     7
370
    25
100
AcDbPolyline
 90
       42
 70
   128
 43
0.0
 10
-1.8384114397
 20
684.904776079
 10
6.464400898
 20
683.251598533
 10
14.6279304268
 20
681.0098415041
 10
22.6319066015
 20
678.2862461093
 10
30.4560588769
 20
675.1875534655
 10
41.09212455
 20
670.3981014279
 10
51.4838962504
 20
665.1668339364
 10
61.6641248347
 20
659.6088837503
 10
80.9509923016
 20
648.2532988283
 10
99.8177157614
 20
636.3010856024
 10
118.3923590688
 20
623.8934454898
 10
136.8029860784
 20
611.1715799075
 10
155.1776606447
 20
598.2766902726
 10
173.6444466223
 20
585.3499780022
 10
181.820416323
 20
579.6099963138
 10
190.0714618812
 20
573.8886367873
 10
198.491535926
 20
568.4005592448
 10
207.1745910864
 20
563.3604235082
 10
216.2145799913
 20
558.9828893993
 10
221.7479161532
 20
556.9328000613
 10
227.4993524734
 20
555.6554777609
 10
232.4187707209
 20
555.4294896291
 10
237.3054134122
 20
556.0357083347
 10
241.5503268135
 20
557.2367363332
 10
245.6459640723
 20
558.9173964057
 10
249.5717682679
 20
560.9417059842
 10
256.5432298621
 20
565.2756393615
 10
263.1530535561
 20
570.1343476862
 10
269.465312471
 20
575.3759379343
 10
275.5440797276
 20
580.8585170817
 10
281.4534284469
 20
586.4401921044
 10
296.0182995288
 20
600.6542135262
 10
310.3062724734
 20
614.9305383947
 10
324.5659126892
 20
629.0905224824
 10
339.0457855846
 20
642.9555215619
 10
353.9944565682
 20
656.3468914056
 10
361.4578053944
 20
662.5929268938
 10
369.1878584899
 20
668.5939633452
 10
377.2639461021
 20
674.1753091509
 10
385.7653984784
 20
679.1622727021
 10
392.6320775767
 20
682.4160751335
 10
399.8490208557
 20
684.9047761027
  0
LINE
  5
CA
330
1F
100
AcDbEntity
  8
0
  6
Continuous
 62
     7
370
    25
100
AcDbLine
 10
399.8490208557
 20
684.9047761027
 30
0.0
 11
427.699793565
 21
684.904776079
 31
0.0
  0
LWPOLYLINE
  5
CB
330
1F
100
AcDbEntity
  8
0
  6
Continuous
 62
     7
370
    25
100
AcDbPolyline
 90
       40
 70
   128
 43
0.0
 10
427.699793565
 20
684.904776079
 10
436.893295639
 20
682.1339124729
 10
445.7581576334
 20
678.5011745328
 10
454.3269056315
 20
674.1863042357
 10
462.632065717
 20
669.3690435583
 10
470.7061639737
 20
664.2291344777
 10
478.5817264851
 20
658.9463189707
 10
493.2634108167
 20
648.6474499088
 10
507.724245333
 20
638.0833989917
 10
522.1528478294
 20
627.4539780065
 10
530.8677468718
 20
621.0901265587
 10
539.6882299852
 20
614.8020228762
 10
548.6854477305
 20
608.7216031784
 10
557.9305506688
 20
602.9808036851
 10
567.4946893609
 20
597.7115606156
 10
574.6411052864
 20
594.3361355913
 10
582.0729374302
 20
591.5397886529
 10
589.7586359514
 20
589.5783865511
 10
596.2989252398
 20
588.7555340179
 10
602.9204140071
 20
588.6768524374
 10
609.4895758313
 20
589.3066799792
 10
616.438731569
 20
590.6964434375
 10
623.2504258806
 20
592.6837813809
 10
629.9051495504
 20
595.1425413155
 10
636.3833933624
 20
597.9465707476
 10
647.652216468
 20
603.5225876499
 10
658.6031495713
 20
609.6204327507
 10
669.3110520659
 20
616.0898807592
 10
679.8507833455
 20
622.7807063848
 10
690.2972028036
 20
629.5426843368
 10
707.7426463774
 20
640.8551254405
 10
725.3111100493
 20
651.9805222111
 10
743.2364544283
 20
662.6080118191
 10
753.0558816511
 20
667.9767077562
 10
763.1280904907
 20
672.9809924582
 10
773.4856041641
 20
677.4198089005
 10
784.1609458883
 20
681.0921000583
 10
791.1565289689
 20
682.9168334886
 10
798.2942748407
 20
684.2214494807
 10
805.5120073071
 20
684.9047760793
  0
LINE
  5
CC
330
1F
100
AcDbEntity
  8
0
  6
Continuous
 62
     7
370
    25
100
AcDbLine
 10
805.5120073071
 20
684.9047760793
 30
0.0
 11
812.2877778163
 21
684.904776079
 31
0.0
  0
LWPOLYLINE
  5
CD
330
1F
100
AcDbEntity
  8
0
  6
Continuous
 62
     7
370
    25
100
AcDbPolyline
 90
       38
 70
   128
 43
0.0
 10
812.2877778163
 20
684.904776079
 10
819.231299596
 20
684.2308840704
 10
826.1030441047
 20
682.9410827054
 10
832.8684567528
 20
681.1324993066
 10
839.4929829508
 20
678.9022611967
 10
845.9420681091
 20
676.3474956986
 10
857.5367965882
 20
671.0135320876
 10
868.7939116299
 20
665.087131042
 10
879.7899682054
 20
658.7286351747
 10
890.6015212859
 20
652.0983870981
 10
901.3051258425
 20
645.356729425
 10
914.6868729551
 20
636.8500849579
 10
928.147456382
 20
628.4172416301
 10
941.8391491717
 20
620.3060018948
 10
955.9142243727
 20
612.7641682057
 10
964.3832957634
 20
608.7570639317
 10
973.1077051574
 20
605.2377663806
 10
982.0947717903
 20
602.4159681873
 10
989.1553476647
 20
600.8815811024
 10
996.3583983301
 20
600.0188247178
 10
1003.5902219945
 20
599.9436269514
 10
1010.7944871026
 20
600.7429238418
 10
1017.8838294388
 20
602.3176743544
 10
1024.7724634351
 20
604.5085310906
 10
1034.1691147723
 20
608.361189122
 10
1043.2470457519
 20
612.8655085162
 10
1052.0575705022
 20
617.8322630054
 10
1060.6520031515
 20
623.0722263216
 10
1077.8331391021
 20
634.2286618502
 10
1094.7692616241
 20
645.6632018752
 10
1106.0425864667
 20
653.2338845336
 10
1117.4402728545
 20
660.6525672877
 10
1129.0631419435
 20
667.7775912628
 10
1136.337267082
 20
671.9417870475
 10
1143.8001636411
 20
675.8778939367
 10
1151.4665559412
 20
679.4446214148
 10
1159.3511683029
 20
682.5006789657
 10
1167.4687250468
 20
684.9047760738
  0
LINE
  5
CE
330
1F
100
AcDbEntity
  8
0
  6
Continuous
 62
     7
370
    25
100
AcDbLine
 10
1167.4687250468
 20
684.9047760738
 30
0.0
 11
1198.0003218935
 21
684.904776079
 31
0.0
  0
LWPOLYLINE
  5
CF
330
1F
100
AcDbEntity
  8
0
  6
Continuous
 62
     7
370
    25
100
AcDbPolyline
 90
       45
 70
   128
 43
0.0
 10
1198.0003218935
 20
684.904776079
 10
1205.3637192014
 20
682.3739967345
 10
1212.412809816
 20
679.0911432884
 10
1219.1685848566
 20
675.2301639479
 10
1225.6520354423
 20
670.9650068615
 10
1231.8841526925
 20
666.4696201775
 10
1243.5468651839
 20
657.3318446174
 10
1254.7706348088
 20
647.748716505
 10
1265.6740423989
 20
637.8322086946
 10
1276.375668786
 20
627.6942940405
 10
1286.9940948018
 20
617.4469453969
 10
1300.2348388389
 20
604.6083176562
 10
1313.6533028113
 20
591.7780758529
 10
1319.1517688193
 20
586.6010978864
 10
1324.7515658634
 20
581.4632570905
 10
1330.5349798916
 20
576.5085817346
 10
1336.584296852
 20
571.8811000875
 10
1342.9818026928
 20
567.7248404184
 10
1347.4280285946
 20
565.4203793978
 10
1352.1436446879
 20
563.7340690399
 10
1356.330715886
 20
562.9806402594
 10
1360.5852450555
 20
562.928836537
 10
1364.7693753417
 20
563.5741810001
 10
1368.8294547487
 20
564.7801097387
 10
1374.3845929568
 20
567.1725715189
 10
1379.6836971345
 20
570.1106853306
 10
1384.7723696327
 20
573.4168948515
 10
1389.6962128028
 20
576.913643759
 10
1404.0848094115
 20
587.8219467365
 10
1418.0397800452
 20
599.1028340207
 10
1431.7264937648
 20
610.583583324
 10
1445.3103196314
 20
622.0914723591
 10
1458.9566267058
 20
633.4537788385
 10
1472.830784049
 20
644.4977804748
 10
1482.1103723879
 20
651.5275166009
 10
1491.5839633802
 20
658.3505502981
 10
1501.3146305935
 20
664.8555016152
 10
1511.3654475956
 20
670.930990601
 10
1517.6621253631
 20
674.3529187139
 10
1524.1509136206
 20
677.4871253564
 10
1530.8334443929
 20
680.224672941
 10
1537.711349705
 20
682.4566238802
 10
1542.7796566269
 20
683.6768837941
 10
1547.9443254927
 20
684.512145323
 10
1553.1563786506
 20
684.904776079
  0
LINE
  5
D0
330
1F
100
AcDbEntity
  8
0
  6
Continuous
 62
     7
370
    25
100
AcDbLine
 10
1553.1563786506
 20
684.904776079
 30
0.0
 11
1556.4535458747
 21
684.904776079
 31
0.0
  0
LWPOLYLINE
  5
D1
330
1F
100
AcDbEntity
  8
0
  6
Continuous
 62
     7
370
    25
100
AcDbPolyline
 90
       39
 70
   128
 43
0.0
 10
1556.4535458747
 20
684.904776079
 10
1563.2191492935
 20
684.3187632822
 10
1569.9087527711
 20
683.033197886
 10
1576.4601628958
 20
681.1707898706
 10
1582.8111862556
 20
678.8542492159
 10
1591.8585587978
 20
674.8388203085
 10
1600.6101211907
 20
670.2770247153
 10
1609.1111973314
 20
665.2958399509
 10
1617.4071111171
 20
660.0222435305
 10
1625.5431864448
 20
654.5832129688
 10
1645.9025115734
 20
640.3021590024
 10
1666.1308467028
 20
625.8209435157
 10
1675.5727703369
 20
619.225103413
 10
1685.1782615923
 20
612.8063689565
 10
1695.029273698
 20
606.6985887891
 10
1701.1831738274
 20
603.1892716073
 10
1707.5287270205
 20
599.9139522341
 10
1714.0664349242
 20
597.0156926325
 10
1720.7967991854
 20
594.6375547656
 10
1727.7203214512
 20
592.9226005965
 10
1733.9078320999
 20
592.1296799445
 10
1740.1757011386
 20
592.0879132396
 10
1746.3668101379
 20
592.8239162038
 10
1753.9950252105
 20
594.7731167484
 10
1761.3643666517
 20
597.5662648695
 10
1768.4428598045
 20
600.9410490466
 10
1778.9246735293
 20
606.8323376966
 10
1789.0136720183
 20
613.2949712526
 10
1798.8175718984
 20
620.1263625403
 10
1808.4440897964
 20
627.1239243854
 10
1827.6693848495
 20
641.3462590446
 10
1847.0432629822
 20
655.3593495058
 10
1856.4120926705
 20
661.7884887239
 10
1866.0196373522
 20
667.9502623734
 10
1875.9467686467
 20
673.63967409
 10
1886.2743581734
 20
678.6517275099
 10
1893.0035552015
 20
681.3223195581
 10
1899.9586619328
 20
683.4627282349
 10
1907.0912865467
 20
684.904776079
  0
LINE
  5
D2
330
1F
100
AcDbEntity
  8
0
  6
Continuous
 62
     7
370
    25
100
AcDbLine
 10
1907.0912865467
 20
684.904776079
 30
0.0
 11
1922.8580757376
 21
684.904776079
 31
0.0
  0
LWPOLYLINE
  5
D3
330
1F
100
AcDbEntity
  8
0
  6
Continuous
 62
     7
370
    25
100
AcDbPolyline
 90
       42
 70
   128
 43
0.0
 10
1198.0003218935
 20
-150.2278274737
 10
1204.9612324318
 20
-152.626822417
 10
1211.634161884
 20
-155.720022883
 10
1218.034248968
 20
-159.3531499471
 10
1224.1766324012
 20
-163.371924744
 10
1230.0764509014
 20
-167.6220684085
 10
1241.1224518149
 20
-176.3248936234
 10
1251.7143368464
 20
-185.4996246558
 10
1261.9488297411
 20
-195.046023275
 10
1271.9226542443
 20
-204.8638512504
 10
1281.7325341014
 20
-214.8528703513
 10
1291.6263131977
 20
-225.099176194
 10
1301.4582998524
 20
-235.5133560405
 10
1311.1491040352
 20
-246.1580257009
 10
1320.619335716
 20
-257.0958009853
 10
1329.7896048647
 20
-268.3892977039
 10
1333.4474990809
 20
-273.2148681921
 10
1336.8781575434
 20
-278.2182677204
 10
1338.9926963217
 20
-281.7452100647
 10
1340.789225709
 20
-285.4529004716
 10
1342.0441995266
 20
-289.3499081268
 10
1342.476787808
 20
-292.5612662132
 10
1342.3082654309
 20
-295.7947772046
 10
1341.5495514261
 20
-298.9181048766
 10
1340.3566016907
 20
-301.9075806613
 10
1336.990722247
 20
-308.0196295648
 10
1332.9757238568
 20
-313.7442641917
 10
1328.5752486954
 20
-319.1988459494
 10
1324.0529389385
 20
-324.5007362454
 10
1312.1395340576
 20
-338.1651210925
 10
1300.0337617747
 20
-351.4806683138
 10
1287.7213279991
 20
-364.4664512631
 10
1275.1879386397
 20
-377.1415432941
 10
1262.4192996056
 20
-389.5250177605
 10
1249.4011168058
 20
-401.635948016
 10
1240.8534957166
 20
-409.2830935623
 10
1232.0237571838
 20
-416.6936150557
 10
1222.7955162989
 20
-423.658937267
 10
1213.0523881535
 20
-429.9704849672
 10
1208.2243959213
 20
-432.6380833518
 10
1203.2063381814
 20
-434.9881020015
 10
1198.0003218935
 20
-436.9060296823
  0
LINE
  5
D4
330
1F
100
AcDbEntity
  8
0
  6
Continuous
 62
     7
370
    25
100
AcDbLine
 10
1198.0003218935
 20
-436.9060296823
 30
0.0
 11
1167.4687250468
 21
-436.9060296764
 31
0.0
  0
LWPOLYLINE
  5
D5
330
1F
100
AcDbEntity
  8
0
  6
Continuous
 62
     7
370
    25
100
AcDbPolyline
 90
       39
 70
   128
 43
0.0
 10
1167.4687250468
 20
-436.9060296764
 10
1159.4094466869
 20
-434.2548116912
 10
1151.6120666913
 20
-430.9472807337
 10
1144.0482560986
 20
-427.1178227603
 10
1136.6896859477
 20
-422.9008237274
 10
1129.5080272773
 20
-418.4306695912
 10
1122.4749511261
 20
-413.8417463082
 10
1108.0761459435
 20
-404.0376619209
 10
1093.8838846945
 20
-393.9950295298
 10
1079.723227861
 20
-383.9106106366
 10
1068.7862702279
 20
-376.2569022392
 10
1057.6762768226
 20
-368.7937537686
 10
1046.2873270602
 20
-361.683864106
 10
1039.0722266827
 20
-357.5488663799
 10
1031.6342958702
 20
-353.728077023
 10
1023.9531078538
 20
-350.4081430019
 10
1016.0082358644
 20
-347.7757112832
 10
1009.4581442052
 20
-346.3518475535
 10
1002.7570913246
 20
-345.6633143378
 10
996.047040786
 20
-345.7738450732
 10
989.4408682011
 20
-346.6655059484
 10
982.9426772598
 20
-348.1948557372
 10
976.6098627592
 20
-350.2311040379
 10
966.5168051903
 20
-354.3696818026
 10
956.7681778155
 20
-359.224249821
 10
947.3022937072
 20
-364.5763348248
 10
938.0574659376
 20
-370.2074635454
 10
919.5560159802
 20
-382.1301118491
 10
901.2821404976
 20
-394.3089924615
 10
889.4558979562
 20
-402.1315658492
 10
877.5022332347
 20
-409.7969481389
 10
865.3242314588
 20
-417.1653885597
 10
857.7187231764
 20
-421.4756838511
 10
849.9255093662
 20
-425.5553296352
 10
841.9283724043
 20
-429.2553758035
 10
833.7110946665
 20
-432.4268722476
 10
825.2574585291
 20
-434.9208688588
 10
818.8226240677
 20
-436.2152081759
 10
812.2877778163
 20
-436.9060296823
  0
LINE
  5
D6
330
1F
100
AcDbEntity
  8
0
  6
Continuous
 62
     7
370
    25
100
AcDbLine
 10
812.2877778163
 20
-436.9060296823
 30
0.0
 11
805.5120073071
 21
-436.9060296826
 31
0.0
  0
LWPOLYLINE
  5
D7
330
1F
100
AcDbEntity
  8
0
  6
Continuous
 62
     7
370
    25
100
AcDbPolyline
 90
       40
 70
   128
 43
0.0
 10
805.5120073071
 20
-436.9060296826
 10
797.193135351
 20
-435.9537747177
 10
788.9990717958
 20
-434.1035046579
 10
780.9933433894
 20
-431.5409709243
 10
773.23947688
 20
-428.451924938
 10
760.6416571407
 20
-422.4614066929
 10
748.4598729618
 20
-415.745667969
 10
736.6011445243
 20
-408.5303095149
 10
724.9724920092
 20
-401.0409320793
 10
701.7808996831
 20
-385.4764482898
 10
678.6901112597
 20
-369.7175390744
 10
668.0762761586
 20
-362.6013062724
 10
657.3188706257
 20
-355.6366961069
 10
646.3407231889
 20
-348.9513322143
 10
639.5270817184
 20
-345.0690521112
 10
632.526871088
 20
-341.4083288677
 10
625.3291994919
 20
-338.145257434
 10
617.9231751243
 20
-335.4559327602
 10
610.2979061791
 20
-333.5164497963
 10
603.9312870393
 20
-332.6736544067
 10
597.4812132977
 20
-332.6197759441
 10
591.115261232
 20
-333.406842186
 10
584.9664599831
 20
-335.0130293306
 10
579.0134775966
 20
-337.2681153077
 10
573.2818617095
 20
-339.9840381145
 10
562.1395996796
 20
-346.2371459657
 10
551.4598010072
 20
-353.1539212355
 10
541.1356367889
 20
-360.5564977565
 10
531.060278121
 20
-368.2670093614
 10
521.1268961001
 20
-376.1075898829
 10
511.2286618226
 20
-383.9003731535
 10
500.7107035072
 20
-392.130752452
 10
490.1396546885
 20
-400.3475959607
 10
479.4132509444
 20
-408.389225521
 10
468.429227853
 20
-416.0939629741
 10
457.0853209923
 20
-423.3001301612
 10
445.2792659404
 20
-429.8460489236
 10
439.5930241978
 20
-432.5735205674
 10
433.7319670286
 20
-434.9649671572
 10
427.699793565
 20
-436.9060296823
  0
LINE
  5
D8
330
1F
100
AcDbEntity
  8
0
  6
Continuous
 62
     7
370
    25
100
AcDbLine
 10
427.699793565
 20
-436.9060296823
 30
0.0
 11
399.8490208557
 21
-436.9060297091
 31
0.0
  0
LINE
  5
D9
330
1F
100
AcDbEntity
  8
0
  6
Continuous
 62
     7
370
    25
100
AcDbLine
 10
399.8490207684
 20
-150.2278274497
 30
0.0
 11
427.699793565
 21
-150.2278274737
 31
0.0
  0
LWPOLYLINE
  5
DA
330
1F
100
AcDbEntity
  8
0
  6
Continuous
 62
     7
370
    25
100
AcDbPolyline
 90
       40
 70
   128
 43
0.0
 10
427.699793565
 20
-150.2278274737
 10
436.207767564
 20
-152.7936293073
 10
444.4262320786
 20
-156.1311822327
 10
452.3781993305
 20
-160.0875818158
 10
460.0866815416
 20
-164.5099236231
 10
467.5746909342
 20
-169.2453032209
 10
474.8652397301
 20
-174.1408161754
 10
488.647454793
 20
-183.9580403448
 10
502.1252027234
 20
-194.1510522794
 10
515.4631292176
 20
-204.5389050011
 10
528.8258799721
 20
-214.9406515322
 10
542.378100683
 20
-225.1753448948
 10
556.2844370468
 20
-235.062038111
 10
563.1047457228
 20
-239.5710053925
 10
570.1402899325
 20
-243.7906118302
 10
577.4485644637
 20
-247.5476802293
 10
582.8491253604
 20
-249.8070426658
 10
588.4523788635
 20
-251.5780387999
 10
594.2043783171
 20
-252.7118414654
 10
600.1197724115
 20
-253.0950380357
 10
606.0647770735
 20
-252.7483006706
 10
611.9117168781
 20
-251.743558398
 10
618.3928962314
 20
-249.9305010825
 10
624.7034843667
 20
-247.569904672
 10
630.8455162695
 20
-244.7960903423
 10
636.8210269257
 20
-241.7433792694
 10
650.6335462339
 20
-233.83220134
 10
664.0151114125
 20
-225.3139979463
 10
677.1209175578
 20
-216.452012203
 10
690.1061597662
 20
-207.5094872248
 10
707.4693375528
 20
-195.661003461
 10
725.0178907799
 20
-184.0920346084
 10
742.9770093686
 20
-173.0980803053
 10
752.6023972564
 20
-167.6876611193
 10
762.4829818721
 20
-162.6419869147
 10
772.6499492437
 20
-158.1497479546
 10
783.1344853994
 20
-154.3996345023
 10
790.4548390369
 20
-152.3997283325
 10
797.9376863682
 20
-150.970039843
 10
805.5120073071
 20
-150.2278274733
  0
LINE
  5
DB
330
1F
100
AcDbEntity
  8
0
  6
Continuous
 62
     7
370
    25
100
AcDbLine
 10
805.5120073071
 20
-150.2278274733
 30
0.0
 11
812.2877778163
 21
-150.2278274737
 31
0.0
  0
LWPOLYLINE
  5
DC
330
1F
100
AcDbEntity
  8
0
  6
Continuous
 62
     7
370
    25
100
AcDbPolyline
 90
       39
 70
   128
 43
0.0
 10
812.2877778163
 20
-150.2278274737
 10
820.6816828325
 20
-151.1346341084
 10
828.9571689513
 20
-152.9237344638
 10
837.0476566337
 20
-155.42118878
 10
844.8865663403
 20
-158.4530572974
 10
855.1529780532
 20
-163.1503482127
 10
865.1295116016
 20
-168.3694022333
 10
874.868940063
 20
-173.9858242966
 10
884.424036515
 20
-179.8752193401
 10
893.847574035
 20
-185.9131923012
 10
909.5598888503
 20
-196.2514034791
 10
925.2652904142
 20
-206.6313281271
 10
941.1849037016
 20
-216.773272762
 10
949.6228143884
 20
-221.8626247817
 10
958.2533980112
 20
-226.7032657204
 10
967.1264138644
 20
-231.1184245275
 10
976.291621242
 20
-234.9313301521
 10
982.9033789508
 20
-237.1075136783
 10
989.7006285148
 20
-238.7239800609
 10
996.615580159
 20
-239.6268335461
 10
1003.6876305499
 20
-239.6444174463
 10
1010.7351668542
 20
-238.7626232311
 10
1017.5967834132
 20
-237.0808096745
 10
1025.5092485725
 20
-234.2535977021
 10
1033.1556254912
 20
-230.7894590224
 10
1040.5677028788
 20
-226.8408809423
 10
1047.7772694451
 20
-222.5603507687
 10
1054.8161138995
 20
-218.1003558082
 10
1066.9632632363
 20
-209.9996004758
 10
1078.908443936
 20
-201.675963089
 10
1090.7723338563
 20
-193.2820014224
 10
1102.6600522936
 20
-184.9414287265
 10
1114.6832125098
 20
-176.7718913558
 10
1126.9574885177
 20
-168.927259873
 10
1134.5981458046
 20
-164.3700693712
 10
1142.4513461154
 20
-160.0589575701
 10
1150.5353414356
 20
-156.1564977804
 10
1158.8683837509
 20
-152.825263313
 10
1167.4687250468
 20
-150.2278274789
  0
LINE
  5
DD
330
1F
100
AcDbEntity
  8
0
  6
Continuous
 62
     7
370
    25
100
AcDbLine
 10
1167.4687250468
 20
-150.2278274789
 30
0.0
 11
1198.0003218935
 21
-150.2278274737
 31
0.0
  0
LINE
  5
DE
330
1F
100
AcDbEntity
  8
0
  6
Continuous
 62
     7
370
    25
100
AcDbLine
 10
812.2877778163
 20
-150.2278274737
 30
0.0
 11
812.2877778163
 21
-5.1137550812
 31
0.0
  0
LINE
  5
DF
330
1F
100
AcDbEntity
  8
0
  6
Continuous
 62
     7
370
    25
100
AcDbLine
 10
1167.4687250468
 20
-5.1137550763
 30
0.0
 11
1167.4687250468
 21
-150.2278274789
 31
0.0
  0
LWPOLYLINE
  5
E0
330
1F
100
AcDbEntity
  8
0
  6
Continuous
 62
     7
370
    25
100
AcDbPolyline
 90
        7
 70
   128
 43
0.0
 10
-29.6336650113
 20
1556.8152759579
 10
-38.9821995709
 20
1558.6788276384
 10
-48.1265494421
 20
1561.3274638024
 10
-57.0233150322
 20
1564.5687484696
 10
-66.0601434518
 20
1568.4123068704
 10
-74.8891200025
 20
1572.6298901611
 10
-83.5295072376
 20
1577.1346674446
  0
LINE
  5
E1
330
1F
100
AcDbEntity
  8
0
  6
Continuous
 62
     7
370
    25
100
AcDbLine
 10
-29.6336650113
 20
1556.8152759579
 30
0.0
 11
-29.6336650113
 21
1445.5945022613
 31
0.0
  0
LWPOLYLINE
  5
E2
330
1F
100
AcDbEntity
  8
0
  6
Continuous
 62
     7
370
    25
100
AcDbPolyline
 90
       87
 70
   128
 43
0.0
 10
-29.6336650113
 20
819.1327810499
 10
-39.3043567018
 20
821.0843252163
 10
-48.7547573825
 20
823.8767967611
 10
-57.9819834001
 20
827.3587064786
 10
-66.9831511013
 20
831.3785651631
 10
-75.7553768327
 20
835.7848836092
 10
-84.2957769411
 20
840.4261726112
 10
-100.5034536547
 20
849.8855520893
 10
-116.3231502884
 20
859.866138871
 10
-131.820276339
 20
870.3109967161
 10
-147.0602413033
 20
881.1631893847
 10
-162.1084546783
 20
892.3657806369
 10
-177.0303259607
 20
903.8618342326
 10
-184.7126852759
 20
909.8607110872
 10
-192.3720152797
 20
915.9739877849
 10
-199.8836765091
 20
922.3093273078
 10
-207.1230295009
 20
928.9743926378
 10
-213.9654347919
 20
936.0768467569
 10
-216.912230598
 20
939.5772042211
 10
-219.5555541399
 20
943.315162426
 10
-221.0902795472
 20
946.0198197885
 10
-222.3188229724
 20
948.8863071873
 10
-223.1199152586
 20
951.8803895497
 10
-223.3861202062
 20
954.9171018892
 10
-223.1242000175
 20
957.9553372777
 10
-222.0546005172
 20
961.8499197377
 10
-220.4028891114
 20
965.5451039265
 10
-216.9003239454
 20
971.4309764404
 10
-212.8518781165
 20
976.9711905961
 10
-208.4670155711
 20
982.2677092554
 10
-203.9552002555
 20
987.4224952805
 10
-189.5622869478
 20
1003.3734887164
 10
-175.0009784012
 20
1019.0414240519
 10
-160.4918236023
 20
1034.6593830349
 10
-146.255371538
 20
1050.4604474129
 10
-132.5121711951
 20
1066.6776989337
 10
-125.17580192
 20
1075.9486585309
 10
-118.1686382462
 20
1085.5038795861
 10
-111.6507456087
 20
1095.4263935409
 10
-108.1511098086
 20
1101.4149400457
 10
-104.9590127629
 20
1107.610206154
 10
-102.1976224968
 20
1114.0129998836
 10
-99.9901070359
 20
1120.6241292522
 10
-98.703455666
 20
1126.1820190774
 10
-97.9757027999
 20
1131.8625745402
 10
-97.8925365325
 20
1137.5698547942
 10
-98.5071911265
 20
1143.2526453036
 10
-99.7409139963
 20
1148.8477285679
 10
-101.4833266065
 20
1154.2818260127
 10
-104.588922565
 20
1161.6503808415
 10
-108.2872439561
 20
1168.7348877827
 10
-112.4480933702
 20
1175.5646653775
 10
-116.9412733978
 20
1182.1690321672
 10
-121.6365866291
 20
1188.5773066931
 10
-132.3473041096
 20
1202.1504970473
 10
-143.5318955608
 20
1215.3041382208
 10
-155.0036483248
 20
1228.2217769265
 10
-166.5758497438
 20
1241.0869598775
 10
-178.0617871602
 20
1254.0832337867
 10
-183.7976547643
 20
1260.7015520419
 10
-189.449958148
 20
1267.4653814833
 10
-194.7990452631
 20
1274.4714804968
 10
-199.6252640612
 20
1281.8166074679
 10
-203.7089624943
 20
1289.5975207826
 10
-205.7286415892
 20
1294.8841386256
 10
-206.9364932817
 20
1300.4084177063
 10
-207.1225888744
 20
1304.9674737196
 10
-206.5495104418
 20
1309.4922351402
 10
-204.8796493385
 20
1314.7682210615
 10
-202.4106632139
 20
1319.7231787542
 10
-197.962888808
 20
1326.4611497345
 10
-192.8829622058
 20
1332.7404123126
 10
-187.3914744412
 20
1338.6686928776
 10
-181.709016548
 20
1344.3537178185
 10
-168.010286556
 20
1357.2263401735
 10
-153.8912614978
 20
1369.5036249885
 10
-139.4474818576
 20
1381.301064299
 10
-124.7744881196
 20
1392.7341501406
 10
-112.6936630783
 20
1401.8426073963
 10
-100.3839858893
 20
1410.7152218837
 10
-87.7654998461
 20
1419.1999694823
 10
-74.7582482421
 20
1427.1448260715
 10
-61.2822743709
 20
1434.3977675308
 10
-53.7044980383
 20
1437.965138135
 10
-45.890096396
 20
1441.1241225057
 10
-37.8596314013
 20
1443.7191130716
 10
-29.6336650113
 20
1445.5945022613
  0
LINE
  5
E3
330
1F
100
AcDbEntity
  8
0
  6
Continuous
 62
     7
370
    25
100
AcDbLine
 10
-29.6336650113
 20
819.1327810499
 30
0.0
 11
-29.6336650113
 21
684.904776079
 31
0.0
  0
LINE
  5
E4
330
1F
100
AcDbEntity
  8
0
  6
Continuous
 62
     7
370
    25
100
AcDbLine
 10
-29.6336650113
 20
-5.1137550812
 30
0.0
 11
-29.6336650113
 21
-150.2278274737
 31
0.0
  0
LWPOLYLINE
  5
E5
330
1F
100
AcDbEntity
  8
0
  6
Continuous
 62
     7
370
    25
100
AcDbPolyline
 90
       44
 70
   128
 43
0.0
 10
-29.6336650113
 20
-436.9060296823
 10
-38.1931983833
 20
-434.7678209355
 10
-46.5117664411
 20
-431.8134967678
 10
-54.5866657542
 20
-428.2144451918
 10
-62.4151928923
 20
-424.1420542202
 10
-69.9946444249
 20
-419.7677118656
 10
-84.6435987287
 20
-410.5070978282
 10
-98.8175140444
 20
-400.6462972918
 10
-112.5737223597
 20
-390.2621295068
 10
-125.9695556619
 20
-379.4314137238
 10
-139.0623459387
 20
-368.2309691932
 10
-151.9094251776
 20
-356.7376151657
 10
-159.5135589589
 20
-349.7321397001
 10
-167.0084531507
 20
-342.5407925071
 10
-174.2654305975
 20
-335.0780348837
 10
-181.1558141436
 20
-327.2583281268
 10
-187.5509266335
 20
-318.9961335333
 10
-190.8082134283
 20
-314.1525952632
 10
-193.6802730215
 20
-309.0480856386
 10
-195.9684850702
 20
-303.6675631063
 10
-197.3121871399
 20
-298.6697458231
 10
-197.8284901432
 20
-293.520986306
 10
-197.4098590557
 20
-288.3511058425
 10
-196.1783829916
 20
-283.3113494741
 10
-194.1112140937
 20
-278.064814301
 10
-191.4863132287
 20
-273.0630036437
 10
-188.4810998079
 20
-268.3022702538
 10
-182.3440503258
 20
-259.9062371114
 10
-175.6857644099
 20
-251.9530429785
 10
-168.6187333863
 20
-244.3713495985
 10
-161.255448581
 20
-237.0898187148
 10
-153.7084013201
 20
-230.0371120707
 10
-146.0900829295
 20
-223.1418914095
 10
-133.2779782249
 20
-211.9444094307
 10
-120.1737524172
 20
-201.1228437016
 10
-106.7581023593
 20
-190.6904689373
 10
-96.3508014572
 20
-183.0405356087
 10
-85.6770765189
 20
-175.6930686026
 10
-74.6799909902
 20
-168.7784370422
 10
-63.3026083168
 20
-162.4270100509
 10
-55.2746849362
 20
-158.5032399555
 10
-46.968638285
 20
-155.0453420475
 10
-38.4123408234
 20
-152.2284824969
 10
-29.6336650113
 20
-150.2278274737
  0
LINE
  5
E6
330
1F
100
AcDbEntity
  8
0
  6
Continuous
 62
     7
370
    25
100
AcDbLine
 10
-29.6336650113
 20
-436.9060296823
 30
0.0
 11
-29.6336650113
 21
-549.8952953698
 31
0.0
  0
LINE
  5
E7
330
1F
100
AcDbEntity
  8
0
  6
Continuous
 62
     7
370
    25
100
AcDbLine
 10
-429.95025723
 20
-549.8952953698
 30
0.0
 11
-429.95025723
 21
-436.9060296823
 31
0.0
  0
LWPOLYLINE
  5
E8
330
1F
100
AcDbEntity
  8
0
  6
Continuous
 62
     7
370
    25
100
AcDbPolyline
 90
       43
 70
   128
 43
0.0
 10
-429.95025723
 20
-150.2278274737
 10
-423.0904720582
 20
-151.7581493363
 10
-416.427510235
 20
-154.0233103783
 10
-409.9955101874
 20
-156.8619302646
 10
-403.8286103423
 20
-160.1126286603
 10
-393.4615021736
 20
-166.5195701484
 10
-383.5920008186
 20
-173.5904141241
 10
-374.1306507781
 20
-181.1445220642
 10
-364.9879965531
 20
-189.0012554456
 10
-352.8498106992
 20
-200.0778613525
 10
-341.073706344
 20
-211.5432228149
 10
-329.6210365284
 20
-223.374261842
 10
-321.4641298832
 20
-232.1939246471
 10
-313.5054913837
 20
-241.2685884624
 10
-305.8824195902
 20
-250.6829967922
 10
-298.7322130628
 20
-260.5218931407
 10
-295.5228247318
 20
-265.441632989
 10
-292.5602198952
 20
-270.5364729139
 10
-289.949680759
 20
-275.8287515198
 10
-288.2169650356
 20
-280.1792841982
 10
-286.8788288391
 20
-284.6850907926
 10
-286.0482939085
 20
-289.3001701819
 10
-285.8810771187
 20
-295.1300714105
 10
-286.6853795755
 20
-300.9050069218
 10
-288.2221085873
 20
-306.128623114
 10
-290.3278658529
 20
-311.1597421582
 10
-292.8354099907
 20
-315.9788394384
 10
-298.7232366323
 20
-325.4300755145
 10
-305.2885349802
 20
-334.3774045912
 10
-312.3461186881
 20
-342.919375744
 10
-319.71080141
 20
-351.1545380483
 10
-327.1973967998
 20
-359.1814405797
 10
-339.6607043685
 20
-372.0660279344
 10
-352.4608841118
 20
-384.5635683175
 10
-365.6306873683
 20
-396.6739753452
 10
-373.8510778903
 20
-403.8909061572
 10
-382.2963688807
 20
-410.9347309146
 10
-391.0428527194
 20
-417.650327308
 10
-400.1668217861
 20
-423.882573028
 10
-409.7445684605
 20
-429.4763457651
 10
-416.2018952976
 20
-432.6076062947
 10
-422.9533666046
 20
-435.1605194138
 10
-429.95025723
 20
-436.9060296823
  0
LINE
  5
E9
330
1F
100
AcDbEntity
  8
0
  6
Continuous
 62
     7
370
    25
100
AcDbLine
 10
-429.95025723
 20
-150.2278274737
 30
0.0
 11
-429.95025723
 21
-5.1137550812
 31
0.0
  0
LWPOLYLINE
  5
EA
330
1F
100
AcDbEntity
  8
0
  6
Continuous
 62
     7
370
    25
100
AcDbPolyline
 90
       85
 70
   128
 43
0.0
 10
-429.95025723
 20
684.904776079
 10
-422.8482216825
 20
683.3231781893
 10
-415.9537363483
 20
680.9697878284
 10
-409.3002227234
 20
678.0201675562
 10
-402.9211023039
 20
674.6498799329
 10
-393.6546017405
 20
668.9918099241
 10
-384.7698923078
 20
662.8245875368
 10
-376.1999166067
 20
656.2827251048
 10
-367.8776172386
 20
649.5007349614
 10
-351.4368849251
 20
635.1853721575
 10
-335.5065887327
 20
620.3145325023
 10
-319.3996140488
 20
604.4873876901
 10
-303.6231515115
 20
588.1227183178
 10
-295.9490025386
 20
579.7987431153
 10
-288.4603604843
 20
571.2325995017
 10
-281.3211093669
 20
562.3150140027
 10
-278.1923619248
 20
558.0217571505
 10
-275.2797186695
 20
553.5631971954
 10
-272.7044226237
 20
548.9014934414
 10
-270.4436238063
 20
543.5114486997
 10
-269.0276891867
 20
537.8447694064
 10
-268.6971880361
 20
533.9176599606
 10
-268.8794431118
 20
529.9614357207
 10
-269.5332699368
 20
526.0704550675
 10
-271.1644456276
 20
520.6134605812
 10
-273.3759693352
 20
515.3462586444
 10
-275.9582198759
 20
510.2631225064
 10
-282.7986490554
 20
498.4406505275
 10
-290.1834247029
 20
487.0021748028
 10
-297.9401753003
 20
475.8402964713
 10
-305.8965293298
 20
464.8476166717
 10
-313.8801152735
 20
453.9167365431
 10
-321.7185616134
 20
442.9402572243
 10
-332.3282726652
 20
427.5295102435
 10
-342.5813041348
 20
411.8674551705
 10
-352.2531902777
 20
395.7994236438
 10
-357.371596128
 20
386.4716015057
 10
-362.095461544
 20
376.8784648328
 10
-366.2183603885
 20
366.9982010443
 10
-369.5338665245
 20
356.8089975596
 10
-371.0817019605
 20
350.157471774
 10
-372.0971605455
 20
343.3641156991
 10
-372.5388573462
 20
336.5076641413
 10
-372.3654074293
 20
329.6668519072
 10
-371.3323532165
 20
321.2492136252
 10
-369.5559237268
 20
312.9405713124
 10
-367.1757667241
 20
304.7849492239
 10
-364.3315299726
 20
296.8263716148
 10
-359.1454847018
 20
284.5085534146
 10
-353.3411330974
 20
272.502894938
 10
-347.0732865923
 20
260.7463084625
 10
-340.4967566194
 20
249.1757062652
 10
-333.7663546114
 20
237.7280006236
 10
-325.180357666
 20
223.4174007556
 10
-316.5736846227
 20
209.0915266589
 10
-308.1770695901
 20
194.607995301
 10
-300.2212466771
 20
179.8244236495
 10
-296.3791959087
 20
171.990054923
 10
-292.8947461837
 20
163.9659697432
 10
-289.9463420881
 20
155.7238354939
 10
-288.1500557675
 20
149.0671352614
 10
-286.9677957516
 20
142.252677024
 10
-286.5518898092
 20
135.3714320262
 10
-287.0486398157
 20
128.4134145232
 10
-288.437919277
 20
121.5508800811
 10
-290.622955402
 20
114.9414098217
 10
-293.4287671122
 20
108.7655820558
 10
-296.7530975239
 20
102.8551009816
 10
-300.4693977947
 20
97.1943196925
 10
-304.4511190821
 20
91.767591282
 10
-313.0889152854
 20
81.1563897157
 10
-322.2182768847
 20
71.0525844819
 10
-331.7099534553
 20
61.3609212404
 10
-341.4346945723
 20
51.9861456506
 10
-351.5497582059
 20
42.6639782462
 10
-361.9283026363
 20
33.6276248263
 10
-372.6296967408
 20
24.9478055128
 10
-383.7133093966
 20
16.6952404279
 10
-390.8270763791
 20
11.8238737363
 10
-398.1878828721
 20
7.2368856115
 10
-405.8266893642
 20
3.0706872341
 10
-413.7744563442
 20
-0.5383102152
 10
-419.0263235468
 20
-2.4693332956
 10
-424.4301407721
 20
-4.0231210187
 10
-429.95025723
 20
-5.1137550812
  0
LINE
  5
EB
330
1F
100
AcDbEntity
  8
0
  6
Continuous
 62
     7
370
    25
100
AcDbLine
 10
-429.95025723
 20
684.904776079
 30
0.0
 11
-429.95025723
 21
819.1327810499
 31
0.0
  0
LWPOLYLINE
  5
EC
330
1F
100
AcDbEntity
  8
0
  6
Continuous
 62
     7
370
    25
100
AcDbPolyline
 90
       83
 70
   128
 43
0.0
 10
-423.0232451494
 20
1444.0048031771
 10
-422.7246036649
 20
1443.9362671201
 10
-415.7211303362
 20
1441.4738461038
 10
-408.9689455315
 20
1438.4004221248
 10
-402.4971575385
 20
1434.9091780955
 10
-392.6575300374
 20
1428.8075264097
 10
-383.2243594845
 20
1422.1793642939
 10
-374.1207321049
 20
1415.168504916
 10
-365.2697341232
 20
1407.9187614439
 10
-347.7730012433
 20
1392.6655736394
 10
-330.8188778879
 20
1376.7924040344
 10
-318.4564175057
 20
1364.5794531572
 10
-306.3903328856
 20
1351.9364883484
 10
-300.4455122091
 20
1345.346261494
 10
-294.6820343487
 20
1338.547287712
 10
-289.2161333225
 20
1331.4681114745
 10
-286.0474258255
 20
1326.9114261374
 10
-283.1550112555
 20
1322.1531321342
 10
-280.6928853002
 20
1317.1589692495
 10
-278.8831801635
 20
1311.9494415688
 10
-277.9150592283
 20
1306.5180529063
 10
-277.9386870569
 20
1300.9731551478
 10
-278.8669089903
 20
1295.5024245612
 10
-280.6768912049
 20
1289.8063895022
 10
-283.0881084654
 20
1284.3240242169
 10
-285.8929597286
 20
1279.0520218038
 10
-293.2222230816
 20
1267.0712688017
 10
-301.1582544737
 20
1255.5573030302
 10
-309.4978393492
 20
1244.3653182803
 10
-318.0377631522
 20
1233.3505083431
 10
-326.5748113269
 20
1222.3680670094
 10
-334.9057693175
 20
1211.2731880704
 10
-343.2016613151
 20
1199.630369896
 10
-351.111023077
 20
1187.6799941626
 10
-358.3808391115
 20
1175.2838009114
 10
-362.3274897143
 20
1167.5173763782
 10
-365.7562576732
 20
1159.4656686976
 10
-368.4485172909
 20
1151.1291173111
 10
-369.8099044432
 20
1144.766541225
 10
-370.5204717958
 20
1138.2686203308
 10
-370.5024405282
 20
1131.7531784794
 10
-369.7494538699
 20
1125.3046494755
 10
-368.3805571005
 20
1118.9503821476
 10
-366.5079854527
 20
1112.7529276809
 10
-362.4466854093
 20
1102.4779664402
 10
-357.5688109914
 20
1092.5893494654
 10
-352.0679368073
 20
1083.0348355169
 10
-346.1376374653
 20
1073.7621833557
 10
-339.9714875736
 20
1064.7191517422
 10
-327.9507898488
 20
1048.0823436876
 10
-315.4801603271
 20
1031.77362112
 10
-302.7339673614
 20
1015.6139827144
 10
-289.8723625661
 20
999.4190238201
 10
-284.6126417585
 20
992.8699601756
 10
-279.3470936769
 20
986.2518066577
 10
-274.3217266566
 20
979.4499370943
 10
-269.7825490328
 20
972.3497253137
 10
-265.9755691409
 20
964.8365451437
 10
-264.621727367
 20
961.1542471674
 10
-263.8057314717
 20
957.3228597966
 10
-263.68527189
 20
953.9813559746
 10
-264.1276629426
 20
950.667266983
 10
-265.4794956774
 20
946.4953869931
 10
-267.4541819961
 20
942.5720736596
 10
-271.1248922714
 20
936.9714220072
 10
-275.2956691543
 20
931.7329854962
 10
-279.8144189721
 20
926.7734048399
 10
-284.5290480522
 20
922.0093207522
 10
-289.287462722
 20
917.3573739467
 10
-301.0104879226
 20
906.1830542005
 10
-312.9058390039
 20
895.3599942393
 10
-324.9436816333
 20
884.8386321156
 10
-337.0941814784
 20
874.5694058816
 10
-349.4939936926
 20
864.4020368194
 10
-362.1408135566
 20
854.519575055
 10
-375.1592625555
 20
845.070169524
 10
-388.6739621745
 20
836.2019691618
 10
-395.8651835144
 20
831.9360645273
 10
-403.3010249891
 20
827.9820138317
 10
-410.9984451253
 20
824.4935025729
 10
-418.9744024497
 20
821.6242162488
 10
-424.4043757216
 20
820.1603017484
 10
-429.95025723
 20
819.1327810499
  0
LWPOLYLINE
  5
ED
330
1F
100
AcDbEntity
  8
0
  6
Continuous
 62
     7
370
    25
100
AcDbPolyline
 90
       51
 70
   128
 43
0.0
 10
-664.8363547258
 20
1058.1322975057
 10
-656.9711084619
 20
1052.4396516418
 10
-648.7035825373
 20
1047.2932248274
 10
-640.0159412089
 20
1042.8865522603
 10
-634.0000077549
 20
1040.4821016301
 10
-627.7724046633
 20
1038.6091260155
 10
-621.3942853748
 20
1037.3952550942
 10
-615.9467090271
 20
1036.982553962
 10
-610.4682269092
 20
1037.1620508573
 10
-605.0658208037
 20
1037.9417188493
 10
-598.1873565201
 20
1039.8023122916
 10
-591.5490202707
 20
1042.4231551537
 10
-585.1999456783
 20
1045.6176580166
 10
-576.0353012562
 20
1051.254657503
 10
-567.374854137
 20
1057.6440951305
 10
-559.1883603986
 20
1064.6296421374
 10
-551.4455761192
 20
1072.0549697616
 10
-544.4757426757
 20
1079.3983428648
 10
-537.8631652595
 20
1087.1417917998
 10
-531.7746855355
 20
1095.3093074569
 10
-526.3771451687
 20
1103.9248807266
 10
-521.8373858239
 20
1113.0125024992
 10
-519.607989517
 20
1118.8039707927
 10
-517.9315250144
 20
1124.8052822626
 10
-516.9439598153
 20
1130.9428150083
 10
-516.7506803226
 20
1136.1253348545
 10
-517.1457238216
 20
1141.3147901532
 10
-518.0986291918
 20
1146.4092188141
 10
-520.2524097172
 20
1153.3120550503
 10
-523.1580061734
 20
1159.9441431101
 10
-526.6190535217
 20
1166.2705314064
 10
-532.9588395344
 20
1175.8662891194
 10
-540.0821933853
 20
1184.8998198827
 10
-547.8295178986
 20
1193.4056120145
 10
-556.0412158987
 20
1201.4181538333
 10
-562.9550950572
 20
1207.5515636776
 10
-570.1929174915
 20
1213.3432993864
 10
-577.7795030753
 20
1218.678863372
 10
-585.7396716821
 20
1223.4437580467
 10
-591.4347715078
 20
1226.2974788251
 10
-597.3590717929
 20
1228.6997286725
 10
-603.4839702885
 20
1230.5140930628
 10
-608.7869918772
 20
1231.4683860635
 10
-614.1849208055
 20
1231.8438265876
 10
-619.5739831602
 20
1231.6260026363
 10
-626.1749212743
 20
1230.5651965244
 10
-632.6311561083
 20
1228.7707500868
 10
-638.8659545768
 20
1226.3889943381
 10
-647.9621802829
 20
1221.8942457095
 10
-656.6112201085
 20
1216.5941895719
 10
-664.8363547258
 20
1210.7129076434
  0
LINE
  5
EE
330
1F
100
AcDbEntity
  8
0
  6
Continuous
 62
     7
370
    25
100
AcDbLine
 10
-429.95025723
 20
819.1327810499
 30
0.0
 11
-447.6318168107
 21
819.1327810499
 31
0.0
  0
LWPOLYLINE
  5
EF
330
1F
100
AcDbEntity
  8
0
  6
Continuous
 62
     7
370
    25
100
AcDbPolyline
 90
       24
 70
   128
 43
0.0
 10
-447.6318168107
 20
819.1327810499
 10
-456.5319457972
 20
820.7664708836
 10
-465.2310781756
 20
823.2176040428
 10
-473.7325550012
 20
826.3265870324
 10
-482.0397173246
 20
829.9338263569
 10
-490.1559061963
 20
833.8797285205
 10
-498.084462667
 20
838.0047000277
 10
-516.4938026315
 20
848.206652015
 10
-534.6983692074
 20
858.6934919679
 10
-553.0612739285
 20
868.9720407534
 10
-562.0937099649
 20
873.7223381197
 10
-571.3185823233
 20
878.2032049504
 10
-580.7765945544
 20
882.2379059552
 10
-590.5084502092
 20
885.6497058438
 10
-596.7169950808
 20
887.3456074034
 10
-603.0675239852
 20
888.6182219061
 10
-609.5014705242
 20
889.3936567903
 10
-615.9602682997
 20
889.598019494
 10
-624.5615213588
 20
888.9633642113
 10
-633.0670628669
 20
887.4576163103
 10
-641.3758256439
 20
885.2542387226
 10
-649.362468613
 20
882.5547428314
 10
-657.1783722808
 20
879.4538291858
 10
-664.8363547258
 20
876.0566273647
  0
LINE
  5
F0
330
1F
100
AcDbEntity
  8
0
  6
Continuous
 62
     7
370
    25
100
AcDbLine
 10
427.699793565
 20
-549.8952953698
 30
0.0
 11
427.699793565
 21
-436.9060296823
 31
0.0
  0
LINE
  5
F1
330
1F
100
AcDbEntity
  8
0
  6
Continuous
 62
     7
370
    25
100
AcDbLine
 10
805.5120073071
 20
-436.9060296826
 30
0.0
 11
805.5120073071
 21
-549.8952953695
 31
0.0
  0
LINE
  5
F2
330
1F
100
AcDbEntity
  8
0
  6
Continuous
 62
     7
370
    25
100
AcDbLine
 10
812.2877778163
 20
-549.8952953698
 30
0.0
 11
812.2877778163
 21
-436.9060296823
 31
0.0
  0
LINE
  5
F3
330
1F
100
AcDbEntity
  8
0
  6
Continuous
 62
     7
370
    25
100
AcDbLine
 10
1167.4687250468
 20
-436.9060296764
 30
0.0
 11
1167.4687250468
 21
-549.8952953751
 31
0.0
  0
LWPOLYLINE
  5
F4
330
1F
100
AcDbEntity
  8
0
  6
Continuous
 62
     7
370
    25
100
AcDbPolyline
 90
       26
 70
   128
 43
0.0
 10
1853.6566944983
 20
-1242.8653325554
 10
1837.1019025762
 20
-1230.7640864057
 10
1820.9311140997
 20
-1218.1929626336
 10
1804.8289621179
 20
-1205.5026359606
 10
1788.426499057
 20
-1193.0667738316
 10
1781.6232241941
 20
-1188.1876260171
 10
1774.6255573723
 20
-1183.477403137
 10
1767.3861505341
 20
-1179.128150581
 10
1759.8576556221
 20
-1175.3319137388
 10
1751.9927245787
 20
-1172.2807380002
 10
1747.0716725025
 20
-1170.9322531804
 10
1742.0194105915
 20
-1170.082036563
 10
1736.919357513
 20
-1169.818285181
 10
1731.8181067423
 20
-1170.1829305973
 10
1726.7725292784
 20
-1171.0988214921
 10
1721.8521929053
 20
-1172.4758687238
 10
1715.0337836733
 20
-1175.0606328526
 10
1708.4546215213
 20
-1178.1957037375
 10
1702.0880661689
 20
-1181.7529686713
 10
1695.9074773359
 20
-1185.6043149468
 10
1689.8862147419
 20
-1189.6216298565
 10
1675.1790850181
 20
-1200.0844410012
 10
1660.817986804
 20
-1210.9017181804
 10
1646.5753227609
 20
-1221.8119600573
 10
1632.2234955497
 20
-1232.5536652947
 10
1617.5349078306
 20
-1242.8653325554
  0
LWPOLYLINE
  5
F5
330
1F
100
AcDbEntity
  8
0
  6
Continuous
 62
     7
370
    25
100
AcDbPolyline
 90
       30
 70
   128
 43
0.0
 10
1493.8995086333
 20
-1242.8653325554
 10
1481.514203373
 20
-1233.7179916428
 10
1469.5036221074
 20
-1224.1301949233
 10
1457.7749369664
 20
-1214.2083484664
 10
1446.2353200805
 20
-1204.0588583418
 10
1430.9330604677
 20
-1190.1843268937
 10
1415.6947405199
 20
-1176.0869910299
 10
1400.3574053345
 20
-1161.9117700921
 10
1393.6401056777
 20
-1155.7165835161
 10
1386.8039870928
 20
-1149.5923308042
 10
1379.7019578856
 20
-1143.7720081776
 10
1372.1869263622
 20
-1138.4886118577
 10
1368.8837981508
 20
-1136.555600081
 10
1365.4042669566
 20
-1134.9663887676
 10
1362.4482463265
 20
-1134.0682096576
 10
1359.391769978
 20
-1133.651183447
 10
1356.284492538
 20
-1133.8290047841
 10
1353.2582868824
 20
-1134.568355824
 10
1349.3066519084
 20
-1136.3315882265
 10
1345.6430201524
 20
-1138.648776163
 10
1338.3867472315
 20
-1144.382475373
 10
1331.6365393095
 20
-1150.6975646935
 10
1325.2056911771
 20
-1157.3318589515
 10
1318.9074976253
 20
-1164.023172974
 10
1306.0635532055
 20
-1177.6989553964
 10
1293.3387654713
 20
-1191.3305701568
 10
1280.5673308142
 20
-1204.7905162541
 10
1267.5834456257
 20
-1217.9512926871
 10
1254.2213062974
 20
-1230.6853984546
 10
1240.315109219
 20
-1242.8653325554
  0
LWPOLYLINE
  5
F6
330
1F
100
AcDbEntity
  8
0
  6
Continuous
 62
     7
370
    25
100
AcDbPolyline
 90
       26
 70
   128
 43
0.0
 10
1116.2934103111
 20
-1242.8653325554
 10
1103.4557013164
 20
-1234.0954436949
 10
1090.8101675607
 20
-1225.0450630069
 10
1078.1931107369
 20
-1215.938596299
 10
1065.440832538
 20
-1207.0004493784
 10
1052.3896346569
 20
-1198.4550280527
 10
1038.8758187864
 20
-1190.5267381292
 10
1032.6796109012
 20
-1187.3032616931
 10
1026.2895829687
 20
-1184.3923209106
 10
1019.7092713603
 20
-1181.9307866492
 10
1012.9422124475
 20
-1180.0555297767
 10
1006.5061494311
 20
-1179.0003763148
 10
999.9607758055
 20
-1178.6779062558
 10
993.4448806528
 20
-1179.095327708
 10
987.132292559
 20
-1180.1842180521
 10
980.9295145028
 20
-1181.8250671837
 10
974.8637153058
 20
-1183.9130471724
 10
968.9620637894
 20
-1186.3433300881
 10
959.2342791053
 20
-1191.0147969984
 10
949.7997919696
 20
-1196.1972732558
 10
940.5977072357
 20
-1201.7543017816
 10
931.5671297569
 20
-1207.5494254975
 10
922.6471643864
 20
-1213.4461873247
 10
907.7502763089
 20
-1223.4140378145
 10
892.8145658237
 20
-1233.302518026
 10
877.6474887889
 20
-1242.8653325554
  0
LWPOLYLINE
  5
F7
330
1F
100
AcDbEntity
  8
0
  6
Continuous
 62
     7
370
    25
100
AcDbPolyline
 90
       27
 70
   128
 43
0.0
 10
738.5362706257
 20
-1242.8653325554
 10
723.397698307
 20
-1233.3673889795
 10
708.5686793776
 20
-1223.4287522349
 10
693.8835313291
 20
-1213.2651430578
 10
679.176571653
 20
-1203.0922821842
 10
664.2821178407
 20
-1193.1258903501
 10
649.0344873838
 20
-1183.5816882915
 10
642.3632308687
 20
-1179.6971669285
 10
635.5197850885
 20
-1176.0230860046
 10
628.4904947793
 20
-1172.7009879591
 10
621.2617046772
 20
-1169.8724152314
 10
613.8197595181
 20
-1167.678910261
 10
607.4629360038
 20
-1166.4877136509
 10
600.9882973349
 20
-1166.0017250284
 10
594.5322737296
 20
-1166.3107253945
 10
588.1784530386
 20
-1167.4707894177
 10
581.9866424695
 20
-1169.3641314497
 10
576.0273447364
 20
-1171.8232228399
 10
567.2130550904
 20
-1176.3230029177
 10
558.755347365
 20
-1181.4071452485
 10
550.5871608732
 20
-1186.9359127983
 10
542.6414349277
 20
-1192.7695685329
 10
534.8511088418
 20
-1198.7683754181
 10
527.1491219281
 20
-1204.7925964198
 10
510.6604378298
 20
-1217.7394350236
 10
494.0980755799
 20
-1230.5392532762
 10
477.1566483612
 20
-1242.8653325554
  0
LINE
  5
F8
330
1F
100
AcDbEntity
  8
0
  6
Continuous
 62
     7
370
    25
100
AcDbLine
 10
399.8490207684
 20
-971.7024822745
 30
0.0
 11
427.699793565
 21
-971.7024822974
 31
0.0
  0
LWPOLYLINE
  5
F9
330
1F
100
AcDbEntity
  8
0
  6
Continuous
 62
     7
370
    25
100
AcDbPolyline
 90
       40
 70
   128
 43
0.0
 10
427.699793565
 20
-971.7024822974
 10
436.7494385329
 20
-974.3324323884
 10
445.493349253
 20
-977.7906945976
 10
453.9578461252
 20
-981.9094584784
 10
462.1692495503
 20
-986.5209135846
 10
470.1538799287
 20
-991.4572494697
 10
477.9380576611
 20
-996.5506556873
 10
492.6852090287
 20
-1006.7049885913
 10
507.1823291836
 20
-1017.1705545713
 10
521.6152367775
 20
-1027.7467419105
 10
532.4970482018
 20
-1035.6812384387
 10
543.5436265549
 20
-1043.4823491147
 10
554.891338912
 20
-1050.912157583
 10
566.6765523487
 20
-1057.7327474885
 10
573.6183409298
 20
-1061.1897295526
 10
580.8322119418
 20
-1064.1261340006
 10
588.307948731
 20
-1066.2913698206
 10
594.4595431016
 20
-1067.2928531758
 10
600.7134180896
 20
-1067.6011359916
 10
606.9432821956
 20
-1067.226426322
 10
613.2120121962
 20
-1066.188496522
 10
619.3770555539
 20
-1064.6034212006
 10
625.4129078467
 20
-1062.5786631809
 10
631.2940646526
 20
-1060.2216852861
 10
642.6682418521
 20
-1054.8614432931
 10
653.6843857317
 20
-1048.8677304431
 10
664.4311792906
 20
-1042.4575857052
 10
674.997305528
 20
-1035.8480480482
 10
696.1147768585
 20
-1022.308505318
 10
717.2271838162
 20
-1008.8431727315
 10
727.3171398594
 20
-1002.6095294121
 10
737.545305514
 20
-996.5381565094
 10
747.9617840401
 20
-990.7507050769
 10
758.6166786979
 20
-985.3688261684
 10
769.5600927476
 20
-980.5141708375
 10
776.4620132742
 20
-977.8681818388
 10
783.5448870326
 20
-975.5672539825
 10
790.7719919835
 20
-973.7081517715
 10
798.1066060881
 20
-972.3876397087
 10
805.5120073071
 20
-971.7024822971
  0
LINE
  5
FA
330
1F
100
AcDbEntity
  8
0
  6
Continuous
 62
     7
370
    25
100
AcDbLine
 10
805.5120073071
 20
-971.7024822971
 30
0.0
 11
812.2877778163
 21
-971.7024822974
 31
0.0
  0
LWPOLYLINE
  5
FB
330
1F
100
AcDbEntity
  8
0
  6
Continuous
 62
     7
370
    25
100
AcDbPolyline
 90
       40
 70
   128
 43
0.0
 10
812.2877778163
 20
-971.7024822974
 10
819.3883540435
 20
-972.3740516635
 10
826.4178012354
 20
-973.6669957033
 10
833.3407596348
 20
-975.4844632364
 10
840.1218694844
 20
-977.7296030825
 10
846.7257710271
 20
-980.3055640613
 10
858.6056447654
 20
-985.6964728172
 10
870.1411490717
 20
-991.6972633223
 10
881.4106771431
 20
-998.1438222337
 10
892.4926221768
 20
-1004.8720362084
 10
903.4653773697
 20
-1011.7177919036
 10
917.0137279228
 20
-1020.2251787246
 10
930.6488966858
 20
-1028.6415048839
 10
944.5174256668
 20
-1036.7571885031
 10
951.6874029114
 20
-1040.70209086
 10
959.0292328267
 20
-1044.47355948
 10
966.547045874
 20
-1047.9354331217
 10
974.2449725148
 20
-1050.9515505437
 10
982.1271432106
 20
-1053.3857505046
 10
990.1976884229
 20
-1055.1018717631
 10
996.9235706519
 20
-1055.8299963595
 10
1003.7129160485
 20
-1055.8521838765
 10
1010.4339987597
 20
-1055.1297733187
 10
1017.114810393
 20
-1053.6721447139
 10
1023.6471664054
 20
-1051.6337870195
 10
1030.0147447894
 20
-1049.1404042758
 10
1036.2012235378
 20
-1046.3177005231
 10
1046.7598370215
 20
-1040.8347896575
 10
1057.0056513569
 20
-1034.869770735
 10
1067.0170964361
 20
-1028.5644008021
 10
1076.8726021512
 20
-1022.0604369056
 10
1086.6505983943
 20
-1015.4996360921
 10
1098.8858006576
 20
-1007.2961127809
 10
1111.2124454
 20
-999.2030887353
 10
1123.7591182205
 20
-991.4130335545
 10
1136.6544047183
 20
-984.1184168377
 10
1144.0354552107
 20
-980.3615323057
 10
1151.6294104007
 20
-976.939882463
 10
1159.4394428316
 20
-974.0035161739
 10
1167.4687250468
 20
-971.7024823024
  0
LINE
  5
FC
330
1F
100
AcDbEntity
  8
0
  6
Continuous
 62
     7
370
    25
100
AcDbLine
 10
1167.4687250468
 20
-971.7024823024
 30
0.0
 11
1198.0003218935
 21
-971.7024822974
 31
0.0
  0
LWPOLYLINE
  5
FD
330
1F
100
AcDbEntity
  8
0
  6
Continuous
 62
     7
370
    25
100
AcDbPolyline
 90
       45
 70
   128
 43
0.0
 10
1198.0003218935
 20
-971.7024822974
 10
1205.2654977595
 20
-974.1093694051
 10
1212.2372189064
 20
-977.2408235685
 10
1218.9305867672
 20
-980.9345721841
 10
1225.3607027749
 20
-985.0283427052
 10
1231.5426683628
 20
-989.3598625848
 10
1243.1219357884
 20
-998.2174976149
 10
1254.2528363977
 20
-1007.5456596884
 10
1265.0467328537
 20
-1017.2344833066
 10
1275.6149878194
 20
-1027.1741029706
 10
1286.0689639576
 20
-1037.2546531819
 10
1294.7512839776
 20
-1045.8336883678
 10
1303.3962306515
 20
-1054.551936613
 10
1312.1100972454
 20
-1063.2877047651
 10
1320.9991770252
 20
-1071.9192996716
 10
1330.1697632569
 20
-1080.32502818
 10
1339.7281492065
 20
-1088.3831971378
 10
1343.7572273213
 20
-1091.4454509582
 10
1348.02663197
 20
-1094.1687735133
 10
1351.4189790753
 20
-1095.817119979
 10
1355.013465237
 20
-1096.9414882967
 10
1358.0086198644
 20
-1097.3192658021
 10
1361.0246542278
 20
-1097.1859463517
 10
1364.8073803577
 20
-1096.3123923134
 10
1368.4193268307
 20
-1094.8675339639
 10
1374.1373875923
 20
-1091.7595490864
 10
1379.5478378778
 20
-1088.1253732384
 10
1384.7405605427
 20
-1084.1693194997
 10
1389.8054384423
 20
-1080.0957009497
 10
1405.5242243147
 20
-1067.1172253481
 10
1420.9550303644
 20
-1054.0111192503
 10
1436.2686776806
 20
-1040.9384642326
 10
1451.6359873524
 20
-1028.0603418711
 10
1467.2277804692
 20
-1015.5378337421
 10
1477.0569393525
 20
-1008.0045617156
 10
1487.085235707
 20
-1000.689272593
 10
1497.3804255561
 20
-993.703406142
 10
1508.0102649229
 20
-987.1584021303
 10
1514.6363604811
 20
-983.4735380061
 10
1521.463500804
 20
-980.0803745747
 10
1528.4972129753
 20
-977.0916854372
 10
1535.7430240786
 20
-974.6202441945
 10
1541.4451361634
 20
-973.1617766174
 10
1547.2704586274
 20
-972.1631101093
 10
1553.1563786506
 20
-971.7024822974
  0
LINE
  5
FE
330
1F
100
AcDbEntity
  8
0
  6
Continuous
 62
     7
370
    25
100
AcDbLine
 10
1553.1563786506
 20
-971.7024822974
 30
0.0
 11
1556.4535458747
 21
-971.7024822974
 31
0.0
  0
LWPOLYLINE
  5
FF
330
1F
100
AcDbEntity
  8
0
  6
Continuous
 62
     7
370
    25
100
AcDbPolyline
 90
       41
 70
   128
 43
0.0
 10
1556.4535458747
 20
-971.7024822974
 10
1563.3828119994
 20
-972.2898303213
 10
1570.2361394495
 20
-973.584568439
 10
1576.9502302196
 20
-975.4639298206
 10
1583.4617863046
 20
-977.8051476362
 10
1592.7043407803
 20
-981.8531199622
 10
1601.647537737
 20
-986.4579246464
 10
1610.3365791691
 20
-991.4916461524
 10
1618.8166670709
 20
-996.8263689436
 10
1627.133003437
 20
-1002.3341774835
 10
1647.9425691217
 20
-1016.8199261263
 10
1668.6263036103
 20
-1031.5264727683
 10
1678.0386119399
 20
-1038.0551352195
 10
1687.619212561
 20
-1044.4031102789
 10
1697.4529265304
 20
-1050.4274255354
 10
1703.9543035202
 20
-1054.0581175144
 10
1710.6647351049
 20
-1057.3847457303
 10
1717.5945471503
 20
-1060.2369218046
 10
1724.7540655225
 20
-1062.4442573584
 10
1730.3568434653
 20
-1063.5533223661
 10
1736.070063473
 20
-1064.0589074392
 10
1741.7787418435
 20
-1063.8801991587
 10
1747.4026293305
 20
-1062.9997284413
 10
1752.9136426817
 20
-1061.53790596
 10
1758.2594517977
 20
-1059.6222451503
 10
1765.8853595401
 20
-1056.1972016139
 10
1773.2372965081
 20
-1052.2509388776
 10
1780.3602707132
 20
-1047.9354104615
 10
1787.2992901673
 20
-1043.4025698857
 10
1801.1517837315
 20
-1033.7639062188
 10
1814.7292779722
 20
-1023.8562837493
 10
1825.7962699223
 20
-1015.675998053
 10
1836.9097424782
 20
-1007.547421302
 10
1848.1796312583
 20
-999.6217351878
 10
1859.7158718812
 20
-992.0501214021
 10
1871.6283999655
 20
-984.9837616365
 10
1878.2964186332
 20
-981.4352028265
 10
1885.1935375651
 20
-978.1852718462
 10
1892.3029358212
 20
-975.381492337
 10
1899.6077924617
 20
-973.1713879403
 10
1907.0912865467
 20
-971.7024822974
  0
LINE
  5
100
330
1F
100
AcDbEntity
  8
0
  6
Continuous
 62
     7
370
    25
100
AcDbLine
 10
1907.0912865467
 20
-971.7024822974
 30
0.0
 11
1922.8580757376
 21
-971.7024822974
 31
0.0
  0
LWPOLYLINE
  5
101
330
1F
100
AcDbEntity
  8
0
  6
Continuous
 62
     7
370
    25
100
AcDbPolyline
 90
       43
 70
   128
 43
0.0
 10
1556.4535458747
 20
-150.2278274737
 10
1563.0337607346
 20
-150.7935672887
 10
1569.5419466895
 20
-152.0312525914
 10
1575.9173948324
 20
-153.827198958
 10
1582.0993962559
 20
-156.0677219645
 10
1591.8506573926
 20
-160.4399506028
 10
1601.2430708675
 20
-165.4787190665
 10
1610.3321577024
 20
-171.0007672599
 10
1619.1734389187
 20
-176.8228350871
 10
1636.7992929256
 20
-189.2958036223
 10
1654.0730042747
 20
-202.2147793539
 10
1663.1008932706
 20
-209.1166932902
 10
1672.1605925412
 20
-216.0528834877
 10
1681.3385978738
 20
-222.8777172627
 10
1690.7214050562
 20
-229.4455619317
 10
1700.3955098758
 20
-235.6107848111
 10
1710.4474081202
 20
-241.2277532173
 10
1715.723246355
 20
-243.7679272353
 10
1721.1763795594
 20
-245.9528974577
 10
1726.7988691575
 20
-247.6476951401
 10
1731.3487621703
 20
-248.5375735477
 10
1735.981652968
 20
-248.9621791574
 10
1740.6162453956
 20
-248.8644853735
 10
1745.1997532103
 20
-248.2236578349
 10
1749.7032220669
 20
-247.1172242034
 10
1754.081339437
 20
-245.6356815848
 10
1761.4967070964
 20
-242.3948822815
 10
1768.6100388871
 20
-238.5561484179
 10
1775.4707848133
 20
-234.2750968674
 10
1782.1283948793
 20
-229.7073445036
 10
1788.6323190892
 20
-225.0085081997
 10
1801.2555347684
 20
-215.522620033
 10
1813.6780972096
 20
-205.8554412668
 10
1826.0464520394
 20
-196.1694797787
 10
1838.5070448846
 20
-186.6272434463
 10
1851.2063213716
 20
-177.3912401473
 10
1864.2907271271
 20
-168.6239777593
 10
1871.7691394143
 20
-164.0425014813
 10
1879.4925924416
 20
-159.7825493589
 10
1887.4863992911
 20
-156.013854736
 10
1895.7758730452
 20
-152.9061509567
 10
1901.3711774837
 20
-151.3322200616
 10
1907.0912865467
 20
-150.2278274737
  0
LINE
  5
102
330
1F
100
AcDbEntity
  8
0
  6
Continuous
 62
     7
370
    25
100
AcDbLine
 10
1556.4535458747
 20
-150.2278274737
 30
0.0
 11
1556.4535458747
 21
-5.1137550812
 31
0.0
  0
LINE
  5
103
330
1F
100
AcDbEntity
  8
0
  6
Continuous
 62
     7
370
    25
100
AcDbLine
 10
1907.0912865467
 20
-5.1137550812
 30
0.0
 11
1907.0912865467
 21
-150.2278274737
 31
0.0
  0
LINE
  5
104
330
1F
100
AcDbEntity
  8
0
  6
Continuous
 62
     7
370
    25
100
AcDbLine
 10
427.699793565
 20
684.904776079
 30
0.0
 11
427.699793565
 21
819.1327810499
 31
0.0
  0
LWPOLYLINE
  5
105
330
1F
100
AcDbEntity
  8
0
  6
Continuous
 62
     7
370
    25
100
AcDbPolyline
 90
       38
 70
   128
 43
0.0
 10
805.5120073071
 20
819.1327810496
 10
797.1844514355
 20
819.8819089902
 10
788.9394228406
 20
821.3556682306
 10
780.8151414538
 20
823.4329427266
 10
772.8498272062
 20
825.9926164337
 10
765.081700029
 20
828.9135733077
 10
750.2617500196
 20
835.3422051796
 10
735.8336726354
 20
842.4549792425
 10
721.6876010784
 20
850.0464298541
 10
707.7136685501
 20
857.9110913718
 10
693.8020082524
 20
865.8434981532
 10
676.4385655249
 20
875.6080630576
 10
658.7939800277
 20
885.0219445503
 10
649.674628419
 20
889.5413817387
 10
640.3540670707
 20
893.7573998072
 10
630.8046520558
 20
897.4789559678
 10
620.9987394475
 20
900.5150074326
 10
613.2473636514
 20
902.2225953194
 10
605.3400648827
 20
903.2139090352
 10
597.3956668505
 20
903.348266771
 10
589.4542443545
 20
902.4957921569
 10
581.6455755207
 20
900.741531515
 10
574.0836769501
 20
898.2611890414
 10
563.1008186095
 20
893.6322540811
 10
552.5067906306
 20
888.2952676583
 10
542.2228961598
 20
882.427300683
 10
532.1704383434
 20
876.2054240655
 10
522.270720328
 20
869.806708716
 10
512.4450452598
 20
863.4082255448
 10
499.2476282899
 20
854.8954762338
 10
485.9544802049
 20
846.5115381306
 10
472.4314352863
 20
838.4217009542
 10
465.4053819035
 20
834.4498857499
 10
458.2242681625
 20
830.6272753502
 10
450.8756232605
 20
827.0690647176
 10
443.3469763952
 20
823.8904488149
 10
435.6258567641
 20
821.2066226048
 10
427.699793565
 20
819.1327810499
  0
LINE
  5
106
330
1F
100
AcDbEntity
  8
0
  6
Continuous
 62
     7
370
    25
100
AcDbLine
 10
805.5120073071
 20
819.1327810496
 30
0.0
 11
805.5120073071
 21
684.9047760793
 31
0.0
  0
LINE
  5
107
330
1F
100
AcDbEntity
  8
0
  6
Continuous
 62
     7
370
    25
100
AcDbLine
 10
1922.8580757376
 20
819.1327810499
 30
0.0
 11
1907.0912865467
 21
819.1327810499
 31
0.0
  0
LWPOLYLINE
  5
108
330
1F
100
AcDbEntity
  8
0
  6
Continuous
 62
     7
370
    25
100
AcDbPolyline
 90
       39
 70
   128
 43
0.0
 10
1907.0912865467
 20
819.1327810499
 10
1898.8782799858
 20
820.6490186503
 10
1890.8549483011
 20
822.9699715452
 10
1883.0356218662
 20
825.9268360971
 10
1875.4346310545
 20
829.3508086687
 10
1868.0663062396
 20
833.0730856223
 10
1855.1787722736
 20
840.2432608771
 10
1842.6209369447
 20
847.8575159368
 10
1830.2665473708
 20
855.7514598914
 10
1817.9893506697
 20
863.7607018309
 10
1805.6630939595
 20
871.7208508453
 10
1794.3326905186
 20
878.8035646056
 10
1782.7325624075
 20
885.5627456142
 10
1770.7261985311
 20
891.7099814729
 10
1763.5916908852
 20
894.8195162515
 10
1756.2214803329
 20
897.4406408289
 10
1748.6343018756
 20
899.3715583643
 10
1742.386023073
 20
900.2561113806
 10
1736.0498898518
 20
900.4674716033
 10
1729.7520492377
 20
899.9930869159
 10
1723.3912092605
 20
898.8405669682
 10
1717.1481706875
 20
897.1462274499
 10
1711.0451066471
 20
895.0211481824
 10
1705.1041902675
 20
892.5764089875
 10
1695.1474450605
 20
887.8630439976
 10
1685.4728118065
 20
882.6886737118
 10
1676.0161527785
 20
877.1836579294
 10
1666.7133302492
 20
871.4783564497
 10
1657.5002064915
 20
865.7031290721
 10
1642.1189076103
 20
856.0231037834
 10
1626.6274669465
 20
846.5009989282
 10
1610.8065328197
 20
837.4233503315
 10
1602.4982395935
 20
833.0429198773
 10
1593.977741399
 20
828.9652706053
 10
1585.2215833255
 20
825.3504401876
 10
1576.2063104618
 20
822.3584662964
 10
1569.7346177161
 20
820.7459361901
 10
1563.1277316338
 20
819.6377551757
 10
1556.4535458747
 20
819.1327810499
  0
LINE
  5
109
330
1F
100
AcDbEntity
  8
0
  6
Continuous
 62
     7
370
    25
100
AcDbLine
 10
1556.4535458747
 20
819.1327810499
 30
0.0
 11
1553.1563786506
 21
819.1327810499
 31
0.0
  0
LWPOLYLINE
  5
10A
330
1F
100
AcDbEntity
  8
0
  6
Continuous
 62
     7
370
    25
100
AcDbPolyline
 90
       40
 70
   128
 43
0.0
 10
1553.1563786506
 20
819.1327810499
 10
1546.0245414146
 20
819.7152047243
 10
1538.9684666708
 20
821.0103536779
 10
1532.0521512659
 20
822.8932521819
 10
1525.3395920463
 20
825.2389245079
 10
1514.0970397112
 20
830.0964423117
 10
1503.2656966887
 20
835.6989202273
 10
1492.776413909
 20
841.8326618877
 10
1482.560042302
 20
848.2839709258
 10
1468.9074370984
 20
857.3933586293
 10
1455.4799762289
 20
866.7918109094
 10
1442.172817504
 20
876.3799901987
 10
1429.5610222412
 20
885.5974938065
 10
1416.8742534571
 20
894.8327026799
 10
1403.9957995534
 20
903.9518409269
 10
1396.2457090175
 20
909.2248605962
 10
1388.2897361852
 20
914.2587440122
 10
1380.0330909642
 20
918.8369432966
 10
1373.7017686285
 20
921.7285070924
 10
1367.0777745356
 20
923.8876672628
 10
1361.6636283528
 20
924.8076507391
 10
1356.1753566971
 20
924.8499556683
 10
1350.7611333663
 20
923.9237615008
 10
1345.5564331424
 20
922.1775466736
 10
1339.0585252421
 20
919.0258454879
 10
1332.9008391516
 20
915.2561446898
 10
1327.0074566016
 20
911.0894997103
 10
1321.3024593225
 20
906.7469659802
 10
1308.4979412886
 20
896.5291861319
 10
1296.015602082
 20
886.1130302699
 10
1283.6880197336
 20
875.6570629825
 10
1271.3477722741
 20
865.3198488582
 10
1261.3763549763
 20
857.1474248626
 10
1251.2429612413
 20
849.1124808779
 10
1240.8351101087
 20
841.3836788033
 10
1230.0403206179
 20
834.1296805383
 10
1218.7461118083
 20
827.5191479823
 10
1212.0977183868
 20
824.1883466725
 10
1205.1780957387
 20
821.3289279973
 10
1198.0003218935
 20
819.1327810499
  0
LINE
  5
10B
330
1F
100
AcDbEntity
  8
0
  6
Continuous
 62
     7
370
    25
100
AcDbLine
 10
1198.0003218935
 20
819.1327810499
 30
0.0
 11
1167.4687250468
 21
819.1327810544
 31
0.0
  0
LWPOLYLINE
  5
10C
330
1F
100
AcDbEntity
  8
0
  6
Continuous
 62
     7
370
    25
100
AcDbPolyline
 90
       36
 70
   128
 43
0.0
 10
1167.4687250468
 20
819.1327810544
 10
1157.6761276439
 20
821.7732992296
 10
1148.1631700269
 20
825.2276726873
 10
1138.904891139
 20
829.3027398285
 10
1129.8763299236
 20
833.8053390541
 10
1121.0525253237
 20
838.5423087652
 10
1106.0591510613
 20
847.0480287613
 10
1091.2441447457
 20
855.7928267759
 10
1076.4265112012
 20
864.5436000686
 10
1064.3738810432
 20
871.4532239523
 10
1052.0853098343
 20
878.0476982934
 10
1039.442941766
 20
884.0713342705
 10
1032.6511204303
 20
886.890927472
 10
1025.6847319316
 20
889.3777066671
 10
1018.5603738977
 20
891.4088942095
 10
1011.2946439563
 20
892.8617124527
 10
1003.1319894353
 20
893.6140622578
 10
994.8973874044
 20
893.4454825168
 10
986.7587272879
 20
892.4255643165
 10
977.4205208382
 20
890.3090387899
 10
968.2955383331
 20
887.4289378213
 10
959.3882563245
 20
883.9742086332
 10
950.7031513645
 20
880.1337984481
 10
937.096075441
 20
873.4836441732
 10
923.7575535698
 20
866.4232614017
 10
910.5716874188
 20
859.1416335901
 10
897.4225786561
 20
851.8277441949
 10
886.8695928427
 20
846.0363864817
 10
876.2057918385
 20
840.3694753497
 10
865.3722174399
 20
834.977119325
 10
854.3099114436
 20
830.0094269337
 10
842.959915646
 20
825.6165067019
 10
835.5118862688
 20
823.2113084801
 10
827.8838676397
 20
821.2482507572
 10
820.1258385564
 20
819.8483895936
 10
812.2877778163
 20
819.1327810499
  0
LINE
  5
10D
330
1F
100
AcDbEntity
  8
0
  6
Continuous
 62
     7
370
    25
100
AcDbLine
 10
812.2877778163
 20
819.1327810499
 30
0.0
 11
805.5120073071
 21
819.1327810496
 31
0.0
  0
LINE
  5
10E
330
1F
100
AcDbEntity
  8
0
  6
Continuous
 62
     7
370
    25
100
AcDbLine
 10
427.699793565
 20
819.1327810499
 30
0.0
 11
399.8490208557
 21
819.1327810288
 31
0.0
  0
LWPOLYLINE
  5
10F
330
1F
100
AcDbEntity
  8
0
  6
Continuous
 62
     7
370
    25
100
AcDbPolyline
 90
       43
 70
   128
 43
0.0
 10
399.8490208557
 20
819.1327810288
 10
392.3232115614
 20
821.4197329132
 10
385.0893421377
 20
824.4644180742
 10
378.1325105528
 20
828.0918960211
 10
371.437814775
 20
832.1272262631
 10
364.9903527725
 20
836.3954683095
 10
352.9075093671
 20
845.0816469491
 10
341.2398486153
 20
854.2028746311
 10
329.8605445384
 20
863.6451590459
 10
318.6427711576
 20
873.2945078838
 10
307.4597024942
 20
883.0369288352
 10
298.4561523085
 20
890.9554027449
 10
289.3564272965
 20
898.908896927
 10
280.0242972053
 20
906.6868147256
 10
270.3235317824
 20
914.0785594852
 10
260.117900775
 20
920.8735345499
 10
254.8884327432
 20
923.8800088833
 10
249.4458374956
 20
926.5264404147
 10
243.7877435379
 20
928.65790723
 10
239.3947311761
 20
929.8065188222
 10
234.8902868982
 20
930.4905124505
 10
230.3528997167
 20
930.6542771785
 10
225.8377234993
 20
930.2791872093
 10
221.3715449987
 20
929.4433025369
 10
217.0011010756
 20
928.2363149148
 10
207.990320884
 20
924.9021845372
 10
199.2799727175
 20
920.8542739173
 10
190.8042612384
 20
916.3084584526
 10
182.4973911091
 20
911.4806135404
 10
174.2935669922
 20
906.5866145781
 10
157.4011891171
 20
896.4445949147
 10
140.6348927348
 20
886.2674170273
 10
123.9029140024
 20
876.1616879236
 10
107.1134890771
 20
866.2340146111
 10
93.557699897
 20
858.4291246733
 10
79.859471417
 20
850.8144375356
 10
65.9579535048
 20
843.5173181876
 10
51.7922960277
 20
836.6651316191
 10
37.3016488534
 20
830.3852428197
 10
27.8190341779
 20
826.7564866521
 10
18.1192448603
 20
823.5696378911
 10
8.225642466
 20
820.9774761519
 10
-1.8384114397
 20
819.1327810499
  0
LINE
  5
110
330
1F
100
AcDbEntity
  8
0
  6
Continuous
 62
     7
370
    25
100
AcDbLine
 10
-1.8384114397
 20
819.1327810499
 30
0.0
 11
-29.6336650113
 21
819.1327810499
 31
0.0
  0
LINE
  5
111
330
1F
100
AcDbEntity
  8
0
  6
Continuous
 62
     7
370
    25
100
AcDbLine
 10
-29.6336650113
 20
1445.5945022613
 30
0.0
 11
-1.8384114397
 21
1445.5945022613
 31
0.0
  0
LWPOLYLINE
  5
112
330
1F
100
AcDbEntity
  8
0
  6
Continuous
 62
     7
370
    25
100
AcDbPolyline
 90
      132
 70
   128
 43
0.0
 10
-1.8384114397
 20
1445.5945022613
 10
6.5736063745
 20
1443.8711268779
 10
14.8381426893
 20
1441.5400713116
 10
22.9375343581
 20
1438.7189315584
 10
30.854118234
 20
1435.5253036145
 10
41.6105536614
 20
1430.6238809128
 10
52.1279702758
 20
1425.2991596704
 10
62.4417822446
 20
1419.6655853092
 10
81.7087463189
 20
1408.4240712006
 10
100.6062997528
 20
1396.6547088982
 10
119.2128431482
 20
1384.4274379567
 10
137.6067771069
 20
1371.8121979308
 10
155.8665022306
 20
1358.8789283751
 10
174.0704191211
 20
1345.6975688442
 10
185.1562434388
 20
1337.570942949
 10
196.1652179484
 20
1329.2564499309
 10
206.9567905745
 20
1320.6026607394
 10
213.1163203342
 20
1315.162143222
 10
215.7992942025
 20
1312.4311806367
 10
218.1723339591
 20
1309.4362787508
 10
219.669717167
 20
1306.6017049832
 10
220.1808666491
 20
1303.9947966849
 10
219.7723519703
 20
1301.3623129687
 10
218.9316699519
 20
1299.4114754128
 10
217.8174490344
 20
1297.5955088927
 10
214.1326317458
 20
1292.9733746285
 10
209.9714967844
 20
1288.7410237902
 10
205.6323638645
 20
1284.696127195
 10
192.6692064086
 20
1272.9309858959
 10
179.5683354468
 20
1261.3987244815
 10
166.4627451292
 20
1249.9556444571
 10
153.4854296061
 20
1238.4580473278
 10
136.2102016942
 20
1222.6434078886
 10
119.3953643222
 20
1206.3892704269
 10
111.3999682599
 20
1198.1906598969
 10
103.642960259
 20
1189.7486722983
 10
96.2272574489
 20
1180.9889819546
 10
91.9296693852
 20
1175.48307285
 10
87.8409571052
 20
1169.7692828476
 10
84.0841992277
 20
1163.8269814254
 10
80.7824743714
 20
1157.6355380612
 10
78.0588611551
 20
1151.1743222331
 10
76.4691745364
 20
1145.9907503111
 10
75.4449051425
 20
1140.6426852821
 10
75.0917693663
 20
1135.2297409029
 10
75.4643278952
 20
1129.8043303926
 10
76.4783230873
 20
1124.4424104189
 10
78.0313926018
 20
1119.2333452427
 10
80.5341749236
 20
1113.0624315453
 10
83.5555143606
 20
1107.1225419592
 10
86.977916275
 20
1101.4049100667
 10
90.6838860291
 20
1095.90076945
 10
98.6487382871
 20
1085.387578531
 10
107.2093340876
 20
1075.3718786424
 10
116.2050498584
 20
1065.7534783081
 10
125.4752620275
 20
1056.4321860519
 10
138.3565774414
 20
1044.1114117592
 10
151.5862843532
 20
1032.1340011146
 10
165.1438684809
 20
1020.4784380208
 10
173.2476913679
 20
1013.7351722417
 10
181.4958898229
 20
1007.1067478567
 10
189.9570558458
 20
1000.7305229988
 10
198.6997814368
 20
994.7438558008
 10
207.7926585958
 20
989.2841043958
 10
212.3962590071
 20
986.8883617034
 10
217.1601249449
 20
984.807582774
 10
222.0855266652
 20
983.1777752676
 10
227.6139229826
 20
982.105441454
 10
233.2371706415
 20
981.9381886628
 10
238.8115204031
 20
982.7853939574
 10
244.1833274993
 20
984.5093587766
 10
249.8559156919
 20
987.2252708419
 10
255.214248881
 20
990.5457151041
 10
260.2754918614
 20
994.2726158829
 10
267.8302089548
 20
1000.7132813185
 10
274.916627069
 20
1007.6438820785
 10
281.6328620336
 20
1014.9121284108
 10
288.077029678
 20
1022.3657305633
 10
300.7216311529
 20
1037.9979220578
 10
312.6679048891
 20
1054.1089136413
 10
318.9906341557
 20
1063.1930378149
 10
325.0860133089
 20
1072.471401594
 10
330.8406878126
 20
1081.9857994235
 10
336.1413031309
 20
1091.7780257484
 10
340.8745047279
 20
1101.8898750134
 10
343.9491935957
 20
1109.7533077911
 10
346.4187040818
 20
1117.8709765491
 10
348.0837958323
 20
1126.1910828476
 10
348.6850170089
 20
1133.1198264767
 10
348.5372773448
 20
1140.1001520399
 10
347.6418194511
 20
1146.992063355
 10
345.9382901831
 20
1154.1841055025
 10
343.627290847
 20
1161.2041360579
 10
340.8373025142
 20
1168.0371448675
 10
337.6968062562
 20
1174.6681217776
 10
330.781719861
 20
1187.3566965569
 10
323.1581240647
 20
1199.584746139
 10
315.0169232392
 20
1211.4545383966
 10
306.5490217565
 20
1223.0683412026
 10
294.7279541028
 20
1238.5692629345
 10
282.4489260311
 20
1253.8244758456
 10
269.6569290136
 20
1268.7962885245
 10
260.4065408445
 20
1278.9758847479
 10
251.0768727085
 20
1289.1548856845
 10
246.5875867318
 20
1294.4217503823
 10
244.5245694798
 20
1297.2456446747
 10
242.8748973594
 20
1300.3125140847
 10
242.3493233128
 20
1301.9315313607
 10
242.1205026776
 20
1303.6139539895
 10
242.2600136053
 20
1305.3222132922
 10
242.7306419895
 20
1306.9740191718
 10
243.8192613554
 20
1309.171042166
 10
245.2047332154
 20
1311.2028323247
 10
248.9629184731
 20
1315.6912230589
 10
253.07204038
 20
1319.8715715389
 10
257.3583302476
 20
1323.8818414789
 10
261.6480193873
 20
1327.8599965931
 10
272.7695537179
 20
1338.5584122143
 10
283.6851859251
 20
1349.3206776807
 10
294.4608208573
 20
1360.0904736544
 10
305.1623633631
 20
1370.8114807973
 10
315.8557182913
 20
1381.4273797713
 10
326.6067904902
 20
1391.8818512385
 10
337.4533755021
 20
1402.1716654454
 10
348.5328879929
 20
1412.2491663746
 10
360.0036811404
 20
1421.9367724225
 10
372.0241081222
 20
1431.0569019853
 10
377.1784587798
 20
1434.5969727061
 10
382.5274695192
 20
1437.9420445046
 10
388.0817962032
 20
1440.9708409728
 10
393.8520946944
 20
1443.5620857025
 10
399.8490208557
 20
1445.5945022857
  0
LINE
  5
113
330
1F
100
AcDbEntity
  8
0
  6
Continuous
 62
     7
370
    25
100
AcDbLine
 10
399.8490208557
 20
1445.5945022857
 30
0.0
 11
427.699793565
 21
1445.5945022613
 31
0.0
  0
LWPOLYLINE
  5
114
330
1F
100
AcDbEntity
  8
0
  6
Continuous
 62
     7
370
    25
100
AcDbPolyline
 90
       39
 70
   128
 43
0.0
 10
427.699793565
 20
1445.5945022613
 10
436.1286479209
 20
1442.9931340212
 10
444.2733840946
 20
1439.6224249321
 10
452.1488577267
 20
1435.6893531533
 10
459.7699244585
 20
1431.400896844
 10
470.1194176983
 20
1425.0378034958
 10
480.2135724744
 20
1418.3476608656
 10
490.1299244397
 20
1411.452911523
 10
505.334601382
 20
1400.5376176658
 10
520.4808273645
 20
1389.5299276564
 10
535.7684606965
 20
1378.6315007831
 10
547.471450849
 20
1370.6632106373
 10
559.5359242165
 20
1363.1289542247
 10
565.915280074
 20
1359.5318701884
 10
572.498642675
 20
1356.2282595946
 10
579.2983286356
 20
1353.3879060682
 10
586.3266545722
 20
1351.1805932341
 10
592.4933113284
 20
1349.9644819448
 10
598.7867278747
 20
1349.4345707502
 10
605.0805998191
 20
1349.6017319059
 10
613.1382272947
 20
1350.7967986031
 10
621.0323493866
 20
1352.8803445003
 10
628.6886380948
 20
1355.6220039268
 10
638.7221024654
 20
1360.0303303216
 10
648.4593538583
 20
1365.0066405023
 10
657.9604892923
 20
1370.3745917448
 10
667.2856057859
 20
1375.9578413253
 10
685.903516099
 20
1387.5833165356
 10
704.3466610647
 20
1399.3707832004
 10
715.8862304409
 20
1406.7073847673
 10
727.5180768946
 20
1413.942386814
 10
739.3161554597
 20
1420.9420461832
 10
751.3544211702
 20
1427.5726197173
 10
763.7068290603
 20
1433.7003642592
 10
771.8195569231
 20
1437.265323346
 10
780.160138256
 20
1440.4107988685
 10
788.7081257279
 20
1442.9679698576
 10
797.4430720081
 20
1444.7680153443
 10
805.5120073071
 20
1445.5945022616
  0
LINE
  5
115
330
1F
100
AcDbEntity
  8
0
  6
Continuous
 62
     7
370
    25
100
AcDbLine
 10
805.5120073071
 20
1445.5945022616
 30
0.0
 11
812.2877778163
 21
1445.5945022613
 31
0.0
  0
LWPOLYLINE
  5
116
330
1F
100
AcDbEntity
  8
0
  6
Continuous
 62
     7
370
    25
100
AcDbPolyline
 90
       38
 70
   128
 43
0.0
 10
812.2877778163
 20
1445.5945022613
 10
819.2697857079
 20
1444.8965501933
 10
826.1752474596
 20
1443.5632809312
 10
832.9704427422
 20
1441.6997375531
 10
839.6216512263
 20
1439.4109631367
 10
846.0951525824
 20
1436.8020007599
 10
858.3825769414
 20
1431.0746932799
 10
870.3106235076
 20
1424.7325549771
 10
881.9691148917
 20
1417.9524351638
 10
893.4478737044
 20
1410.9111831521
 10
904.8367225565
 20
1403.7856482543
 10
918.4732331929
 20
1395.2675426958
 10
932.2280568705
 20
1386.8881169032
 10
946.2460892202
 20
1378.8613214648
 10
953.5357011905
 20
1374.9752564423
 10
960.9904194303
 20
1371.3045429629
 10
968.6219925599
 20
1367.9775489875
 10
976.4421691999
 20
1365.122642477
 10
984.4626979707
 20
1362.8681913922
 10
992.0583131017
 20
1361.4823826053
 10
999.7932155663
 20
1360.9192447968
 10
1007.5030998731
 20
1361.2970866644
 10
1015.0692158794
 20
1362.6374653702
 10
1022.463599953
 20
1364.7543009964
 10
1029.6291253375
 20
1367.4510778513
 10
1039.2972809011
 20
1371.8734094321
 10
1048.658072252
 20
1376.8510251154
 10
1057.7732559733
 20
1382.2160177679
 10
1066.7045886477
 20
1387.8004802558
 10
1084.5150524579
 20
1399.4448600147
 10
1102.1932868143
 20
1411.2312456209
 10
1112.3296089352
 20
1417.8726280137
 10
1122.5968599804
 20
1424.3566142896
 10
1133.0692967561
 20
1430.5695777714
 10
1141.274566738
 20
1435.0733783038
 10
1149.7284477361
 20
1439.2232767888
 10
1158.4526103169
 20
1442.8025568862
 10
1167.4687250468
 20
1445.5945022559
  0
LINE
  5
117
330
1F
100
AcDbEntity
  8
0
  6
Continuous
 62
     7
370
    25
100
AcDbLine
 10
1167.4687250468
 20
1445.5945022559
 30
0.0
 11
1198.0003218935
 21
1445.5945022613
 31
0.0
  0
LWPOLYLINE
  5
118
330
1F
100
AcDbEntity
  8
0
  6
Continuous
 62
     7
370
    25
100
AcDbPolyline
 90
       44
 70
   128
 43
0.0
 10
1198.0003218935
 20
1445.5945022613
 10
1205.6966511666
 20
1442.8675914948
 10
1213.0450828871
 20
1439.3352866739
 10
1220.0768285016
 20
1435.1935437696
 10
1226.8230994566
 20
1430.6383186923
 10
1233.3151071986
 20
1425.8655673528
 10
1245.4757916107
 20
1416.2474130673
 10
1257.2119107731
 20
1406.2105231046
 10
1268.6392800605
 20
1395.8523451678
 10
1279.8737148475
 20
1385.2703269598
 10
1291.0310305088
 20
1374.5619161837
 10
1304.9505473578
 20
1361.0890902081
 10
1319.0042616195
 20
1347.5297563669
 10
1323.7628827426
 20
1342.8835571822
 10
1328.5500035634
 20
1338.1787209096
 10
1333.4519491987
 20
1333.5694056075
 10
1338.5550447655
 20
1329.209769334
 10
1343.9456153808
 20
1325.2539701476
 10
1349.7099861616
 20
1321.8561661066
 10
1353.0496248426
 20
1320.4192422576
 10
1356.5754890397
 20
1319.5667384956
 10
1359.4900232633
 20
1319.4483550275
 10
1362.3833682213
 20
1319.8345236964
 10
1366.4492154478
 20
1321.1468557512
 10
1370.2935623718
 20
1323.0340980444
 10
1378.2710114666
 20
1328.01394669
 10
1385.8146604057
 20
1333.6254654352
 10
1393.0836999335
 20
1339.5839571707
 10
1400.2373207943
 20
1345.6047247873
 10
1414.3100799172
 20
1357.4002266592
 10
1428.2794593679
 20
1369.1466942867
 10
1442.2390802166
 20
1380.7704024535
 10
1456.2825635338
 20
1392.1976259433
 10
1467.6760341047
 20
1401.2487026509
 10
1479.2497968885
 20
1410.1283678225
 10
1491.1098740714
 20
1418.6658387658
 10
1503.3622878398
 20
1426.6903327886
 10
1516.1130603799
 20
1434.0310671986
 10
1522.0954800166
 20
1437.0579061417
 10
1528.2583197346
 20
1439.7935325212
 10
1534.5956603142
 20
1442.1311225557
 10
1541.1015825357
 20
1443.963852464
 10
1547.084188131
 20
1445.0798179032
 10
1553.1563786506
 20
1445.5945022613
  0
LINE
  5
119
330
1F
100
AcDbEntity
  8
0
  6
Continuous
 62
     7
370
    25
100
AcDbLine
 10
1553.1563786506
 20
1445.5945022613
 30
0.0
 11
1556.4535458747
 21
1445.5945022613
 31
0.0
  0
LWPOLYLINE
  5
11A
330
1F
100
AcDbEntity
  8
0
  6
Continuous
 62
     7
370
    25
100
AcDbPolyline
 90
       40
 70
   128
 43
0.0
 10
1556.4535458747
 20
1445.5945022613
 10
1563.2132662654
 20
1444.9928475844
 10
1569.8935479474
 20
1443.6769948741
 10
1576.4326058912
 20
1441.7779454448
 10
1582.7686550674
 20
1439.4267006109
 10
1592.4705014861
 20
1435.0503270118
 10
1601.8428708012
 20
1430.0805229307
 10
1610.9429953954
 20
1424.6639256036
 10
1619.8281076515
 20
1418.9471722668
 10
1628.555439952
 20
1413.0769001565
 10
1650.412433135
 20
1397.8049378379
 10
1672.2670671335
 20
1382.4666491478
 10
1682.1597464389
 20
1375.7912161248
 10
1692.2783306975
 20
1369.3767016085
 10
1702.7255743199
 20
1363.4245689239
 10
1709.7625050268
 20
1359.9170676103
 10
1717.052770704
 20
1356.8821649913
 10
1724.5971408287
 20
1354.5411413512
 10
1729.9721279208
 20
1353.4631296848
 10
1735.4494256839
 20
1352.9286770024
 10
1740.9323414818
 20
1353.0134808716
 10
1746.3583108568
 20
1353.74588948
 10
1751.6903088774
 20
1355.0290065863
 10
1756.8746144057
 20
1356.7510218877
 10
1766.0128632777
 20
1360.6731194694
 10
1774.7781989949
 20
1365.3180200236
 10
1783.2387184876
 20
1370.4891089814
 10
1791.4625186861
 20
1375.9897717739
 10
1799.5176965207
 20
1381.6233938322
 10
1811.2297760965
 20
1390.0466219824
 10
1822.8340752269
 20
1398.58098992
 10
1834.4471972687
 20
1407.0867658433
 10
1846.1857455786
 20
1415.4242179504
 10
1858.1663235133
 20
1423.4536144395
 10
1870.5055344295
 20
1431.0352235086
 10
1877.6525042819
 20
1435.021687398
 10
1885.0346920836
 20
1438.6737449714
 10
1892.662516162
 20
1441.8143163685
 10
1900.5463948447
 20
1444.2663217292
 10
1907.0912865467
 20
1445.5945022613
  0
LINE
  5
11B
330
1F
100
AcDbEntity
  8
0
  6
Continuous
 62
     7
370
    25
100
AcDbLine
 10
1907.0912865467
 20
1445.5945022613
 30
0.0
 11
1912.1171692224
 21
1445.5945022613
 31
0.0
  0
LINE
  5
11C
330
1F
100
AcDbEntity
  8
0
  6
Continuous
 62
     7
370
    25
100
AcDbLine
 10
812.2877778163
 20
684.904776079
 30
0.0
 11
812.2877778163
 21
819.1327810499
 31
0.0
  0
LINE
  5
11D
330
1F
100
AcDbEntity
  8
0
  6
Continuous
 62
     7
370
    25
100
AcDbLine
 10
1167.4687250468
 20
819.1327810544
 30
0.0
 11
1167.4687250468
 21
684.9047760738
 31
0.0
  0
LINE
  5
11E
330
1F
100
AcDbEntity
  8
0
  6
Continuous
 62
     7
370
    25
100
AcDbLine
 10
812.2877778163
 20
-971.7024822974
 30
0.0
 11
812.2877778163
 21
-828.5617385368
 31
0.0
  0
LINE
  5
11F
330
1F
100
AcDbEntity
  8
0
  6
Continuous
 62
     7
370
    25
100
AcDbLine
 10
1167.4687250678
 20
-828.5617385368
 30
0.0
 11
1167.4687250468
 21
-971.7024823024
 31
0.0
  0
LWPOLYLINE
  5
120
330
1F
100
AcDbEntity
  8
0
  6
Continuous
 62
     7
370
    25
100
AcDbPolyline
 90
       26
 70
   128
 43
0.0
 10
-447.6318168107
 20
-436.9060296823
 10
-454.8263742131
 20
-435.3169877548
 10
-461.8374216818
 20
-433.0508470807
 10
-468.6681106407
 20
-430.2355370841
 10
-475.321592509
 20
-426.9989871897
 10
-481.8010187058
 20
-423.4691268226
 10
-488.1095406505
 20
-419.7738854076
 10
-501.8050350686
 20
-411.1642259559
 10
-515.1912388492
 20
-402.1644951347
 10
-528.4333012878
 20
-392.9837499394
 10
-541.6963716802
 20
-383.8310473655
 10
-555.1268505144
 20
-374.893552767
 10
-568.9245869573
 20
-366.4245383205
 10
-576.1833168096
 20
-362.3887037006
 10
-583.6618848366
 20
-358.6727753447
 10
-591.3764365211
 20
-355.4554737884
 10
-599.3431173457
 20
-352.9155195674
 10
-605.7464668353
 20
-351.5683102431
 10
-612.2860100326
 20
-350.8967205765
 10
-618.8379579301
 20
-350.9621045886
 10
-626.7851707717
 20
-352.0284016551
 10
-634.5809507332
 20
-353.9738921464
 10
-642.1398944356
 20
-356.5904670711
 10
-649.904814819
 20
-359.9006005108
 10
-657.4614000915
 20
-363.6231890174
 10
-664.8363547258
 20
-367.6383979713
  0
LWPOLYLINE
  5
121
330
1F
100
AcDbEntity
  8
0
  6
Continuous
 62
     7
370
    25
100
AcDbPolyline
 90
       26
 70
   128
 43
0.0
 10
-664.8363547258
 20
-217.4175307145
 10
-657.0456189227
 20
-221.7009569999
 10
-649.037687667
 20
-225.6658053117
 10
-640.7915325401
 20
-229.1316890308
 10
-632.2861251461
 20
-231.9182215256
 10
-625.60178414
 20
-233.4408627933
 10
-618.772021925
 20
-234.2998979041
 10
-611.9125033523
 20
-234.3779780403
 10
-605.0833091546
 20
-233.5916084972
 10
-598.368861186
 20
-232.0461472485
 10
-591.8522749211
 20
-229.9039732277
 10
-582.8532870391
 20
-226.0990427763
 10
-574.1683816292
 20
-221.6623667655
 10
-565.7429954699
 20
-216.7824519544
 10
-557.5225653394
 20
-211.6478051023
 10
-541.0878788708
 20
-200.7652567479
 10
-524.86460158
 20
-189.6558578379
 10
-514.3612308338
 20
-182.5318608306
 10
-503.7387327411
 20
-175.5598184391
 10
-492.9112204636
 20
-168.8613735148
 10
-484.4514481556
 20
-164.0047084483
 10
-475.7373019376
 20
-159.5013129081
 10
-466.7393774806
 20
-155.5583208525
 10
-457.428270456
 20
-152.3828662399
 10
-452.5700131647
 20
-151.1444644345
 10
-447.6318168107
 20
-150.2278274743
  0
LINE
  5
122
330
1F
100
AcDbEntity
  8
0
  6
Continuous
 62
     7
370
    25
100
AcDbLine
 10
-447.6318168107
 20
-150.2278274743
 30
0.0
 11
-429.95025723
 21
-150.2278274737
 31
0.0
  0
LINE
  5
123
330
1F
100
AcDbEntity
  8
0
  6
Continuous
 62
     7
370
    25
100
AcDbLine
 10
-429.95025723
 20
-436.9060296823
 30
0.0
 11
-447.6318168107
 21
-436.9060296823
 31
0.0
  0
LWPOLYLINE
  5
124
330
1F
100
AcDbEntity
  8
0
  6
Continuous
 62
     7
370
    25
100
AcDbPolyline
 90
        9
 70
   128
 43
0.0
 10
1553.1563786506
 20
1556.8152759579
 10
1545.856813624
 20
1557.4058192611
 10
1538.6662665569
 20
1558.7189825133
 10
1531.3668979644
 20
1560.7126815374
 10
1524.2550572391
 20
1563.2082450823
 10
1516.9402636507
 20
1566.2571649094
 10
1509.8072373996
 20
1569.6322809797
 10
1502.7778101803
 20
1573.2838181404
 10
1495.8871454187
 20
1577.1346674446
  0
LINE
  5
125
330
1F
100
AcDbEntity
  8
0
  6
Continuous
 62
     7
370
    25
100
AcDbLine
 10
1553.1563786506
 20
1556.8152759579
 30
0.0
 11
1553.1563786506
 21
1445.5945022613
 31
0.0
  0
LINE
  5
126
330
1F
100
AcDbEntity
  8
0
  6
Continuous
 62
     7
370
    25
100
AcDbLine
 10
1198.0003218935
 20
1445.5945022613
 30
0.0
 11
1198.0003218935
 21
1556.8152759579
 31
0.0
  0
LWPOLYLINE
  5
127
330
1F
100
AcDbEntity
  8
0
  6
Continuous
 62
     7
370
    25
100
AcDbPolyline
 90
        6
 70
   128
 43
0.0
 10
1238.6335413297
 20
1577.1346674446
 10
1229.3181512523
 20
1571.0665474159
 10
1219.6234444148
 20
1565.4799330603
 10
1212.6922296463
 20
1562.038064599
 10
1205.4810221225
 20
1559.0800506302
 10
1198.0003218935
 20
1556.8152759579
  0
LWPOLYLINE
  5
128
330
1F
100
AcDbEntity
  8
0
  6
Continuous
 62
     7
370
    25
100
AcDbPolyline
 90
       40
 70
   128
 43
0.0
 10
-85.6503112202
 20
-1242.8653325554
 10
-98.613445087
 20
-1233.8864014605
 10
-111.1952769188
 20
-1224.4305387098
 10
-123.4587035032
 20
-1214.5846817459
 10
-135.4666216274
 20
-1204.4357680114
 10
-147.2743314334
 20
-1194.0512033095
 10
-158.8832670746
 20
-1183.3755168586
 10
-170.2300552301
 20
-1172.3505758167
 10
-181.2513225794
 20
-1160.9182473414
 10
-187.0774280803
 20
-1154.5264537499
 10
-192.7021139489
 20
-1147.9053100208
 10
-197.9359239413
 20
-1140.9673951719
 10
-202.5894018139
 20
-1133.6252882212
 10
-204.5254378965
 20
-1129.9379780511
 10
-206.1671374221
 20
-1126.0994973275
 10
-207.4094822493
 20
-1122.1233001379
 10
-208.1913689088
 20
-1117.49362288
 10
-208.2100222374
 20
-1112.8008672107
 10
-207.412172482
 20
-1108.1771704585
 10
-205.91196192
 20
-1103.7314055849
 10
-203.4533207902
 20
-1098.7783754032
 10
-200.4739803521
 20
-1094.1068913963
 10
-197.1688962573
 20
-1089.6790720808
 10
-189.1604548843
 20
-1080.1938088419
 10
-180.6285314077
 20
-1071.2354263098
 10
-171.6933162955
 20
-1062.7092090239
 10
-162.4750000155
 20
-1054.5204415236
 10
-153.0937730359
 20
-1046.5744083481
 10
-143.6698258245
 20
-1038.7763940369
 10
-130.9017372866
 20
-1028.4246021988
 10
-117.9136479801
 20
-1018.347836164
 10
-104.6361793212
 20
-1008.6431710082
 10
-90.9999527262
 20
-999.407681807
 10
-76.9355896112
 20
-990.7384436357
 10
-69.5673543628
 20
-986.5780222533
 10
-61.9834716747
 20
-982.6547817705
 10
-54.1910514712
 20
-979.0871648604
 10
-46.1972036767
 20
-975.9936141962
 10
-38.0090382153
 20
-973.4925724508
 10
-29.6336650113
 20
-971.7024822974
  0
LWPOLYLINE
  5
129
330
1F
100
AcDbEntity
  8
0
  6
Continuous
 62
     7
370
    25
100
AcDbPolyline
 90
       37
 70
   128
 43
0.0
 10
-429.95025723
 20
-971.7024822974
 10
-422.7907332138
 20
-973.2443404393
 10
-415.8315205452
 20
-975.5498412044
 10
-409.1086051373
 20
-978.4500664234
 10
-402.6579729032
 20
-981.7760979265
 10
-393.5182924876
 20
-987.2340211473
 10
-384.7480858738
 20
-993.1951158347
 10
-376.2865913662
 20
-999.5313857145
 10
-368.0730472689
 20
-1006.1148345122
 10
-351.851609221
 20
-1020.0713543139
 10
-336.1768289238
 20
-1034.6329112413
 10
-326.2094289994
 20
-1044.3598402121
 10
-316.409862609
 20
-1054.3291523202
 10
-306.8132610286
 20
-1064.581411721
 10
-301.006303361
 20
-1070.9939714159
 10
-295.2960286839
 20
-1077.5846495684
 10
-289.8822721208
 20
-1084.4407576708
 10
-284.9648687949
 20
-1091.6496072154
 10
-280.7436538296
 20
-1099.2985096944
 10
-278.8748975077
 20
-1103.7571236795
 10
-277.5323414123
 20
-1108.4249544084
 10
-276.8603644753
 20
-1113.210427373
 10
-276.8848931404
 20
-1117.1967058846
 10
-277.3935371172
 20
-1121.166982943
 10
-278.325127443
 20
-1125.045282147
 10
-280.5336222273
 20
-1131.0687922419
 10
-283.376622194
 20
-1136.8330631898
 10
-286.6284066256
 20
-1142.352883178
 10
-294.2670345251
 20
-1153.7257232926
 10
-302.5117946158
 20
-1164.5915985882
 10
-311.2331339853
 20
-1175.029824179
 10
-320.3014997212
 20
-1185.1197151792
 10
-329.5873389113
 20
-1194.940586703
 10
-338.9610986431
 20
-1204.5717538644
 10
-349.0029003093
 20
-1214.6130778964
 10
-359.2940337827
 20
-1224.3980315555
 10
-367.8865773297
 20
-1232.0433941912
  0
LINE
  5
12A
330
1F
100
AcDbEntity
  8
0
  6
Continuous
 62
     7
370
    25
100
AcDbLine
 10
-429.95025723
 20
-971.7024822974
 30
0.0
 11
-429.95025723
 21
-828.5617385368
 31
0.0
  0
LINE
  5
12B
330
1F
100
AcDbEntity
  8
0
  6
Continuous
 62
     7
370
    25
100
AcDbLine
 10
-29.6336650113
 20
-828.5617385368
 30
0.0
 11
-29.6336650113
 21
-971.7024822974
 31
0.0
  0
LWPOLYLINE
  5
12C
330
1F
100
AcDbEntity
  8
0
  6
Continuous
 62
     7
370
    25
100
AcDbPolyline
 90
       10
 70
   128
 43
0.0
 10
-522.1616193283
 20
-1007.5537231626
 10
-519.1141927152
 20
-1005.5753688052
 10
-509.3617825018
 20
-999.3295639831
 10
-499.4755125052
 20
-993.2184642425
 10
-489.3829017234
 20
-987.4135928109
 10
-479.0114691542
 20
-982.0864729159
 10
-468.2887337955
 20
-977.408627785
 10
-461.5725278349
 20
-974.9969260213
 10
-454.6743297306
 20
-973.051107895
 10
-447.6318168107
 20
-971.702482298
  0
LINE
  5
12D
330
1F
100
AcDbEntity
  8
0
  6
Continuous
 62
     7
370
    25
100
AcDbLine
 10
-447.6318168107
 20
-971.702482298
 30
0.0
 11
-429.95025723
 21
-971.7024822974
 31
0.0
  0
LWPOLYLINE
  5
12E
330
1F
100
AcDbEntity
  8
0
  6
Continuous
 62
     7
370
    25
100
AcDbPolyline
 90
       47
 70
   128
 43
0.0
 10
1553.1563786506
 20
-436.9060296823
 10
1547.3903751096
 20
-436.3825444177
 10
1541.6903816344
 20
-435.2592274578
 10
1536.1106215473
 20
-433.6371419283
 10
1530.7053181708
 20
-431.6173509546
 10
1522.0244655514
 20
-427.6308883634
 10
1513.6721818989
 20
-423.0553420152
 10
1505.6054137042
 20
-418.0093477317
 10
1497.7811074584
 20
-412.6115413347
 10
1490.1562096527
 20
-406.9805586457
 10
1482.6876667781
 20
-401.2350354867
 10
1465.6192585863
 20
-387.5168815853
 10
1448.9518699567
 20
-373.3256406628
 10
1432.5863810417
 20
-358.7067003433
 10
1416.4236719934
 20
-343.7054482506
 10
1409.2419528543
 20
-336.9632732704
 10
1402.0742692689
 20
-330.1259488377
 10
1395.0727225192
 20
-323.0833737575
 10
1388.3894138872
 20
-315.7254468347
 10
1382.176444655
 20
-307.9420668742
 10
1379.7536991365
 20
-304.4122815691
 10
1377.7026829539
 20
-300.6567309571
 10
1376.6587239339
 20
-297.9566445314
 10
1376.0379708874
 20
-295.1338018654
 10
1375.9664879006
 20
-292.2107819574
 10
1376.4374350807
 20
-289.3222553844
 10
1377.7700596951
 20
-285.6143178041
 10
1379.6278142189
 20
-282.1300271577
 10
1383.9357803162
 20
-275.7907280078
 10
1388.7935706224
 20
-269.8542146193
 10
1393.9834452188
 20
-264.1967210883
 10
1399.2876641862
 20
-258.6944815107
 10
1413.3874109755
 20
-244.4290030098
 10
1427.7283299661
 20
-230.5721375142
 10
1442.3525412625
 20
-217.1482613989
 10
1457.302164969
 20
-204.1817510388
 10
1472.6193211902
 20
-191.6969828087
 10
1488.3461300304
 20
-179.7183330836
 10
1496.100408397
 20
-174.1686789902
 10
1504.0621034524
 20
-168.8545524076
 10
1512.2713043673
 20
-163.8829923456
 10
1520.7681003121
 20
-159.3610378141
 10
1528.359459762
 20
-155.9377426788
 10
1536.2493441994
 20
-153.1291473633
 10
1544.3908533134
 20
-151.1561356699
 10
1548.7543965434
 20
-150.5299865162
 10
1553.1563786506
 20
-150.2278274737
  0
LINE
  5
12F
330
1F
100
AcDbEntity
  8
0
  6
Continuous
 62
     7
370
    25
100
AcDbLine
 10
1553.1563786506
 20
-436.9060296823
 30
0.0
 11
1553.1563786506
 21
-549.8952953698
 31
0.0
  0
LINE
  5
130
330
1F
100
AcDbEntity
  8
0
  6
Continuous
 62
     7
370
    25
100
AcDbLine
 10
1198.0003218935
 20
-549.8952953698
 30
0.0
 11
1198.0003218935
 21
-436.9060296823
 31
0.0
  0
LINE
  5
131
330
1F
100
AcDbEntity
  8
0
  6
Continuous
 62
     7
370
    25
100
AcDbLine
 10
1198.0003218935
 20
-150.2278274737
 30
0.0
 11
1198.0003218935
 21
-5.1137550812
 31
0.0
  0
LINE
  5
132
330
1F
100
AcDbEntity
  8
0
  6
Continuous
 62
     7
370
    25
100
AcDbLine
 10
1553.1563786506
 20
-5.1137550812
 30
0.0
 11
1553.1563786506
 21
-150.2278274737
 31
0.0
  0
LINE
  5
133
330
1F
100
AcDbEntity
  8
0
  6
Continuous
 62
     7
370
    25
100
AcDbLine
 10
1198.0003218935
 20
684.904776079
 30
0.0
 11
1198.0003218935
 21
819.1327810499
 31
0.0
  0
LINE
  5
134
330
1F
100
AcDbEntity
  8
0
  6
Continuous
 62
     7
370
    25
100
AcDbLine
 10
1553.1563786506
 20
819.1327810499
 30
0.0
 11
1553.1563786506
 21
684.904776079
 31
0.0
  0
LINE
  5
135
330
1F
100
AcDbEntity
  8
0
  6
Continuous
 62
     7
370
    25
100
AcDbLine
 10
1198.0003218935
 20
-971.7024822974
 30
0.0
 11
1198.0003218935
 21
-828.5617385877
 31
0.0
  0
LINE
  5
136
330
1F
100
AcDbEntity
  8
0
  6
Continuous
 62
     7
370
    25
100
AcDbLine
 10
1553.1563786506
 20
-828.5617385368
 30
0.0
 11
1553.1563786506
 21
-971.7024822974
 31
0.0
  0
LINE
  5
137
330
1F
100
AcDbEntity
  8
0
  6
Continuous
 62
     7
370
    25
100
AcDbLine
 10
1907.0912865467
 20
1453.3425247817
 30
0.0
 11
1907.0912865467
 21
1445.5945022613
 31
0.0
  0
LINE
  5
138
330
1F
100
AcDbEntity
  8
0
  6
Continuous
 62
     7
370
    25
100
AcDbLine
 10
1556.4535458747
 20
1445.5945022613
 30
0.0
 11
1556.4535458747
 21
1556.8152759579
 31
0.0
  0
LWPOLYLINE
  5
139
330
1F
100
AcDbEntity
  8
0
  6
Continuous
 62
     7
370
    25
100
AcDbPolyline
 90
        9
 70
   128
 43
0.0
 10
1615.4451481893
 20
1577.1346674446
 10
1606.5719942271
 20
1572.4297678095
 10
1597.5008753091
 20
1568.0279686072
 10
1588.0810851411
 20
1564.0046362928
 10
1578.362623909
 20
1560.61229093
 10
1573.0608603022
 20
1559.1522013158
 10
1567.6700758029
 20
1557.9970160098
 10
1562.0881590833
 20
1557.1906990386
 10
1556.4535458747
 20
1556.8152759579
  0
LINE
  5
13A
330
1F
100
AcDbEntity
  8
0
  6
Continuous
 62
     7
370
    25
100
AcDbLine
 10
-1.8384114397
 20
684.904776079
 30
0.0
 11
-1.8384114397
 21
819.1327810499
 31
0.0
  0
LINE
  5
13B
330
1F
100
AcDbEntity
  8
0
  6
Continuous
 62
     7
370
    25
100
AcDbLine
 10
399.8490208557
 20
819.1327810288
 30
0.0
 11
399.8490208557
 21
684.9047761027
 31
0.0
  0
LINE
  5
13C
330
1F
100
AcDbEntity
  8
0
  6
Continuous
 62
     7
370
    25
100
AcDbLine
 10
1556.4535458747
 20
-971.7024822974
 30
0.0
 11
1556.4535458747
 21
-828.5617385368
 31
0.0
  0
LINE
  5
13D
330
1F
100
AcDbEntity
  8
0
  6
Continuous
 62
     7
370
    25
100
AcDbLine
 10
1907.0912865467
 20
-828.5617385368
 30
0.0
 11
1907.0912865467
 21
-971.7024822974
 31
0.0
  0
LINE
  5
13E
330
1F
100
AcDbEntity
  8
0
  6
Continuous
 62
     7
370
    25
100
AcDbLine
 10
427.699793565
 20
-150.2278274737
 30
0.0
 11
427.699793565
 21
-5.1137550812
 31
0.0
  0
LINE
  5
13F
330
1F
100
AcDbEntity
  8
0
  6
Continuous
 62
     7
370
    25
100
AcDbLine
 10
805.5120073071
 20
-5.1137550815
 30
0.0
 11
805.5120073071
 21
-150.2278274733
 31
0.0
  0
LINE
  5
140
330
1F
100
AcDbEntity
  8
0
  6
Continuous
 62
     7
370
    25
100
AcDbLine
 10
1556.4535458747
 20
684.904776079
 30
0.0
 11
1556.4535458747
 21
819.1327810499
 31
0.0
  0
LINE
  5
141
330
1F
100
AcDbEntity
  8
0
  6
Continuous
 62
     7
370
    25
100
AcDbLine
 10
1907.0912865467
 20
819.1327810499
 30
0.0
 11
1907.0912865467
 21
684.904776079
 31
0.0
  0
LINE
  5
142
330
1F
100
AcDbEntity
  8
0
  6
Continuous
 62
     7
370
    25
100
AcDbLine
 10
1922.8580757376
 20
-436.9060296823
 30
0.0
 11
1907.0912865467
 21
-436.9060296823
 31
0.0
  0
LWPOLYLINE
  5
143
330
1F
100
AcDbEntity
  8
0
  6
Continuous
 62
     7
370
    25
100
AcDbPolyline
 90
       41
 70
   128
 43
0.0
 10
1907.0912865467
 20
-436.9060296823
 10
1900.2471823298
 20
-435.381777474
 10
1893.5885906888
 20
-433.1561839953
 10
1887.1242424131
 20
-430.3762180594
 10
1880.8628682921
 20
-427.1888484794
 10
1874.8131991152
 20
-423.7410440685
 10
1863.4346602646
 20
-416.5708979764
 10
1852.4275089743
 20
-408.9308196688
 10
1841.69037286
 20
-400.9578877559
 10
1831.121879538
 20
-392.7891808476
 10
1820.6206566242
 20
-384.5617775539
 10
1804.4831772683
 20
-371.9903660056
 10
1788.0311698005
 20
-359.6931795258
 10
1781.2253658695
 20
-354.8612084388
 10
1774.2376763501
 20
-350.1828221139
 10
1767.0178678487
 20
-345.850333501
 10
1759.5157069719
 20
-342.0560555498
 10
1751.6809603261
 20
-338.9923012104
 10
1747.0084092418
 20
-337.6866673129
 10
1742.2122806965
 20
-336.8414803089
 10
1737.3664323746
 20
-336.5437309508
 10
1732.5089187841
 20
-336.8394161967
 10
1727.698185281
 20
-337.6604021831
 10
1723.0013925183
 20
-338.9225216392
 10
1714.8096403654
 20
-342.0344512435
 10
1706.9579523357
 20
-345.9290656601
 10
1699.3978045834
 20
-350.3625269104
 10
1692.0806732625
 20
-355.0909970163
 10
1676.4715731952
 20
-365.9474502761
 10
1661.2638772221
 20
-377.2193724588
 10
1646.2236151405
 20
-388.649150297
 10
1631.1168167476
 20
-399.9791705237
 10
1615.7095118405
 20
-410.9518198717
 10
1608.0601443664
 20
-416.0754323
 10
1600.2319293999
 20
-420.9887174284
 10
1592.1797300402
 20
-425.5686687531
 10
1583.8584093865
 20
-429.6922797703
 10
1576.7637881294
 20
-432.6227724812
 10
1569.4089763837
 20
-434.9490861914
 10
1561.8522846039
 20
-436.4539316282
 10
1556.4535458747
 20
-436.9060296823
  0
LINE
  5
144
330
1F
100
AcDbEntity
  8
0
  6
Continuous
 62
     7
370
    25
100
AcDbLine
 10
1556.4535458747
 20
-436.9060296823
 30
0.0
 11
1553.1563786506
 21
-436.9060296823
 31
0.0
  0
LINE
  5
145
330
1F
100
AcDbEntity
  8
0
  6
Continuous
 62
     7
370
    25
100
AcDbLine
 10
1553.1563786506
 20
-150.2278274737
 30
0.0
 11
1556.4535458747
 21
-150.2278274737
 31
0.0
  0
LINE
  5
146
330
1F
100
AcDbEntity
  8
0
  6
Continuous
 62
     7
370
    25
100
AcDbLine
 10
1907.0912865467
 20
-150.2278274737
 30
0.0
 11
1922.8580757376
 21
-150.2278274737
 31
0.0
  0
LWPOLYLINE
  5
147
330
1F
100
AcDbEntity
  8
0
  6
Continuous
 62
     7
370
    25
100
AcDbPolyline
 90
        8
 70
   128
 43
0.0
 10
805.5120073071
 20
1556.8152759577
 10
798.5196677636
 20
1557.3827534881
 10
791.5861342573
 20
1558.461526437
 10
784.7580337215
 20
1559.9743018091
 10
774.3411787651
 20
1563.0272552192
 10
764.1812180466
 20
1566.7247671399
 10
752.410329172
 20
1571.6999274416
 10
740.8719938851
 20
1577.1346674446
  0
LINE
  5
148
330
1F
100
AcDbEntity
  8
0
  6
Continuous
 62
     7
370
    25
100
AcDbLine
 10
805.5120073071
 20
1556.8152759577
 30
0.0
 11
805.5120073071
 21
1445.5945022616
 31
0.0
  0
LINE
  5
149
330
1F
100
AcDbEntity
  8
0
  6
Continuous
 62
     7
370
    25
100
AcDbLine
 10
427.699793565
 20
1445.5945022613
 30
0.0
 11
427.699793565
 21
1556.8152759579
 31
0.0
  0
LWPOLYLINE
  5
14A
330
1F
100
AcDbEntity
  8
0
  6
Continuous
 62
     7
370
    25
100
AcDbPolyline
 90
        6
 70
   128
 43
0.0
 10
475.1435105706
 20
1577.1346674446
 10
464.0114985932
 20
1571.0347499047
 10
452.5554202877
 20
1565.421305898
 10
444.5101972213
 20
1561.9960224429
 10
436.221729952
 20
1559.0601084661
 10
427.699793565
 20
1556.8152759579
  0
LINE
  5
14B
330
1F
100
AcDbEntity
  8
0
  6
Continuous
 62
     7
370
    25
100
AcDbLine
 10
427.699793565
 20
-971.7024822974
 30
0.0
 11
427.6997935646
 21
-828.5617385369
 31
0.0
  0
LINE
  5
14C
330
1F
100
AcDbEntity
  8
0
  6
Continuous
 62
     7
370
    25
100
AcDbLine
 10
805.5120073004
 20
-828.5617385368
 30
0.0
 11
805.5120073071
 21
-971.7024822971
 31
0.0
  0
LWPOLYLINE
  5
14D
330
1F
100
AcDbEntity
  8
0
  6
Continuous
 62
     7
370
    25
100
AcDbPolyline
 90
        7
 70
   128
 43
0.0
 10
399.8490208557
 20
1556.8152759372
 10
393.9325909413
 20
1558.5240528163
 10
388.1959137833
 20
1560.7195521265
 10
382.6536137176
 20
1563.2779490368
 10
374.3292314178
 20
1567.7873102167
 10
366.3374491095
 20
1572.7483334449
 10
359.8572412858
 20
1577.1346674446
  0
LINE
  5
14E
330
1F
100
AcDbEntity
  8
0
  6
Continuous
 62
     7
370
    25
100
AcDbLine
 10
399.8490208557
 20
1556.8152759372
 30
0.0
 11
399.8490208557
 21
1445.5945022857
 31
0.0
  0
LINE
  5
14F
330
1F
100
AcDbEntity
  8
0
  6
Continuous
 62
     7
370
    25
100
AcDbLine
 10
-1.8384114397
 20
1445.5945022613
 30
0.0
 11
-1.8384114397
 21
1556.8152759579
 31
0.0
  0
LWPOLYLINE
  5
150
330
1F
100
AcDbEntity
  8
0
  6
Continuous
 62
     7
370
    25
100
AcDbPolyline
 90
        6
 70
   128
 43
0.0
 10
58.7051082041
 20
1577.1346674446
 10
44.3672398397
 20
1570.6865377242
 10
29.661144145
 20
1564.9295606682
 10
19.380892734
 20
1561.5448531637
 10
8.8679613872
 20
1558.7744470408
 10
-1.8384114397
 20
1556.8152759579
  0
LWPOLYLINE
  5
151
330
1F
100
AcDbEntity
  8
0
  6
Continuous
 62
     7
370
    25
100
AcDbPolyline
 90
        6
 70
   128
 43
0.0
 10
1167.4687250468
 20
1556.8152759624
 10
1158.9253471295
 20
1559.0495546603
 10
1150.5933041045
 20
1561.9158785314
 10
1142.4781205444
 20
1565.2343616824
 10
1130.2928218098
 20
1570.941427894
 10
1118.4167210187
 20
1577.1346674446
  0
LINE
  5
152
330
1F
100
AcDbEntity
  8
0
  6
Continuous
 62
     7
370
    25
100
AcDbLine
 10
1167.4687250468
 20
1556.8152759624
 30
0.0
 11
1167.4687250468
 21
1445.5945022559
 31
0.0
  0
LINE
  5
153
330
1F
100
AcDbEntity
  8
0
  6
Continuous
 62
     7
370
    25
100
AcDbLine
 10
812.2877778163
 20
1445.5945022613
 30
0.0
 11
812.2877778163
 21
1556.8152759579
 31
0.0
  0
LWPOLYLINE
  5
154
330
1F
100
AcDbEntity
  8
0
  6
Continuous
 62
     7
370
    25
100
AcDbPolyline
 90
        8
 70
   128
 43
0.0
 10
875.3417088069
 20
1577.1346674446
 10
864.5071064371
 20
1571.9334435496
 10
853.4456521285
 20
1567.1193517801
 10
845.8170964757
 20
1564.1698690444
 10
838.0325330684
 20
1561.5580353452
 10
830.0928134163
 20
1559.3912039554
 10
821.3102521899
 20
1557.6834468946
 10
812.2877778163
 20
1556.8152759579
  0
LWPOLYLINE
  5
155
330
1F
100
AcDbEntity
  8
0
  6
Continuous
 62
     7
370
    25
100
AcDbPolyline
 90
       55
 70
   128
 43
0.0
 10
-664.8363547258
 20
240.3467598783
 10
-658.1924212996
 20
234.3957098351
 10
-651.214966134
 20
228.8126763753
 10
-643.8589051341
 20
223.7364461262
 10
-638.3065599865
 20
220.4957558853
 10
-632.4860592283
 20
217.7208402302
 10
-626.4176624966
 20
215.5756394225
 10
-622.109687191
 20
214.5595697091
 10
-617.7072911752
 20
213.9798752041
 10
-613.2822178176
 20
213.8905121553
 10
-608.8658006553
 20
214.3383478011
 10
-604.5151382861
 20
215.2860934204
 10
-600.2972087045
 20
216.6631811592
 10
-593.6597749217
 20
219.679256132
 10
-587.3763932612
 20
223.4023137281
 10
-581.4354272466
 20
227.613179751
 10
-571.2890472304
 20
236.0120636333
 10
-561.8194589119
 20
245.1874678483
 10
-552.9885842518
 20
255.00764809
 10
-544.758345211
 20
265.3408600522
 10
-537.0906637503
 20
276.0553594291
 10
-531.1779547759
 20
285.2197319296
 10
-525.8074226819
 20
294.7429106978
 10
-521.1553341276
 20
304.6430735113
 10
-518.1817954884
 20
312.5939454496
 10
-515.9244854279
 20
320.8091251717
 10
-514.5761411094
 20
329.2023275303
 10
-514.2947457426
 20
336.127218713
 10
-514.7887789975
 20
343.0633827435
 10
-516.0420245175
 20
349.8721723671
 10
-518.0851010015
 20
356.7900475473
 10
-520.7308890726
 20
363.5106283679
 10
-523.8639858409
 20
370.0171153137
 10
-527.3689884164
 20
376.2927088699
 10
-533.9769917819
 20
386.5792912663
 10
-541.2767804063
 20
396.3992949058
 10
-549.1982654285
 20
405.730512535
 10
-557.6713579868
 20
414.5507369002
 10
-566.6259692198
 20
422.8377607479
 10
-572.5699340008
 20
427.7975092437
 10
-578.7799866357
 20
432.4451411607
 10
-585.2808910851
 20
436.684807606
 10
-590.4520193749
 20
439.5726485747
 10
-595.8568697863
 20
442.0830345058
 10
-601.4621018335
 20
444.0889071051
 10
-607.2343750302
 20
445.4632080781
 10
-612.4144322555
 20
446.0404239034
 10
-617.6489934024
 20
446.0116334586
 10
-622.8294510943
 20
445.404914054
 10
-629.4320321004
 20
443.8257722328
 10
-635.8304892874
 20
441.5146216863
 10
-641.9666896784
 20
438.6371124548
 10
-649.9778693734
 20
434.0049371167
 10
-657.5910730439
 20
428.7479212052
 10
-664.8363547258
 20
423.0310468872
  0
LWPOLYLINE
  5
156
330
1F
100
AcDbEntity
  8
0
  6
Continuous
 62
     7
370
    25
100
AcDbPolyline
 90
       25
 70
   128
 43
0.0
 10
-664.8363547258
 20
620.129425034
 10
-656.7310195476
 20
616.0109124624
 10
-648.3973378903
 20
612.252597449
 10
-639.8280957329
 20
609.0340273074
 10
-631.0160790765
 20
606.5347493634
 10
-623.634869127
 20
605.1870143145
 10
-616.1222831578
 20
604.5982142579
 10
-608.6223624594
 20
604.8754844111
 10
-601.2345960719
 20
606.0487265203
 10
-593.9965892539
 20
607.9624644109
 10
-586.9698515761
 20
610.4447350062
 10
-577.8576279102
 20
614.4035373318
 10
-569.0260862169
 20
618.8995301321
 10
-560.4253914224
 20
623.7794908173
 10
-552.0057084534
 20
628.8901967976
 10
-535.2172519013
 20
639.6352497688
 10
-518.5807753003
 20
650.5590411754
 10
-508.9094700304
 20
656.8432479417
 10
-499.1105441945
 20
663.0046905653
 10
-489.1090113822
 20
668.8717731777
 10
-478.8298851828
 20
674.2728999105
 10
-468.1981791858
 20
679.0364748953
 10
-461.5184665208
 20
681.5097179756
 10
-454.6506699125
 20
683.512132694
 10
-447.6318168107
 20
684.9047760783
  0
LINE
  5
157
330
1F
100
AcDbEntity
  8
0
  6
Continuous
 62
     7
370
    25
100
AcDbLine
 10
-447.6318168107
 20
684.9047760783
 30
0.0
 11
-429.95025723
 21
684.904776079
 31
0.0
  0
LINE
  5
158
330
1F
100
AcDbEntity
  8
0
  6
Continuous
 62
     7
370
    25
100
AcDbLine
 10
-429.95025723
 20
-5.1137550812
 30
0.0
 11
-447.6318168107
 21
-5.1137550812
 31
0.0
  0
LWPOLYLINE
  5
159
330
1F
100
AcDbEntity
  8
0
  6
Continuous
 62
     7
370
    25
100
AcDbPolyline
 90
       27
 70
   128
 43
0.0
 10
-447.6318168107
 20
-5.1137550812
 10
-455.2354471809
 20
-3.6766034051
 10
-462.6799034077
 20
-1.5757330195
 10
-469.9609896598
 20
1.071635972
 10
-477.0745101017
 20
4.1482834652
 10
-484.0162688975
 20
7.5369893559
 10
-490.7820702116
 20
11.1205335398
 10
-504.8983787746
 20
19.2297201724
 10
-518.7030613423
 20
27.7780958731
 10
-532.3620693559
 20
36.5430984515
 10
-546.0413542568
 20
45.3021657173
 10
-554.5732668016
 20
50.6557799495
 10
-563.2354977791
 20
55.8893005173
 10
-572.0860353548
 20
60.842533505
 10
-581.1828676943
 20
65.3552849971
 10
-590.583982963
 20
69.2673610781
 10
-596.2778677086
 20
71.1762970105
 10
-602.1320639143
 20
72.6789552933
 10
-608.0911559512
 20
73.6787513805
 10
-614.0997281903
 20
74.0791007261
 10
-620.1498231638
 20
73.8318245903
 10
-626.169471123
 20
73.0092743608
 10
-632.1036179955
 20
71.6967572018
 10
-637.8972097091
 20
69.9795802776
 10
-647.1434165016
 20
66.4861713089
 10
-656.1104387412
 20
62.3766044164
 10
-664.8363547258
 20
57.860682699
  0
LINE
  5
15A
330
1F
100
AcDbEntity
  8
0
  6
Continuous
 62
     7
370
    25
100
AcDbLine
 10
-447.6318168107
 20
-5.1137550812
 30
0.0
 11
-447.6318168107
 21
-150.2278274743
 31
0.0
  0
LINE
  5
15B
330
1F
100
AcDbEntity
  8
0
  6
Continuous
 62
     7
370
    25
100
AcDbLine
 10
-1.8384114397
 20
-436.9060296823
 30
0.0
 11
-29.6336650113
 21
-436.9060296823
 31
0.0
  0
LINE
  5
15C
330
1F
100
AcDbEntity
  8
0
  6
Continuous
 62
     7
370
    25
100
AcDbLine
 10
-29.6336650113
 20
-150.2278274737
 30
0.0
 11
-1.8384114397
 21
-150.2278274737
 31
0.0
  0
LINE
  5
15D
330
1F
100
AcDbEntity
  8
0
  6
Continuous
 62
     7
370
    25
100
AcDbLine
 10
-447.6318168107
 20
-436.9060296823
 30
0.0
 11
-447.6318168107
 21
-549.8952953705
 31
0.0
  0
LINE
  5
15E
330
1F
100
AcDbEntity
  8
0
  6
Continuous
 62
     7
370
    25
100
AcDbLine
 10
-29.6336650113
 20
-971.7024822974
 30
0.0
 11
-1.8384114397
 21
-971.7024822974
 31
0.0
  0
LINE
  5
15F
330
1F
100
AcDbEntity
  8
0
  6
Continuous
 62
     7
370
    25
100
AcDbLine
 10
1556.4535458747
 20
-549.8952953698
 30
0.0
 11
1556.4535458747
 21
-436.9060296823
 31
0.0
  0
LINE
  5
160
330
1F
100
AcDbEntity
  8
0
  6
Continuous
 62
     7
370
    25
100
AcDbLine
 10
1907.0912865467
 20
-436.9060296823
 30
0.0
 11
1907.0912865467
 21
-549.8952953698
 31
0.0
  0
LINE
  5
161
330
1F
100
AcDbEntity
  8
0
  6
Continuous
 62
     7
370
    25
100
AcDbLine
 10
-447.6318168107
 20
-828.5617385368
 30
0.0
 11
-447.6318168107
 21
-971.702482298
 31
0.0
  0
LINE
  5
162
330
1F
100
AcDbEntity
  8
0
  6
Continuous
 62
     7
370
    25
100
AcDbLine
 10
-447.6318168107
 20
819.1327810499
 30
0.0
 11
-447.6318168107
 21
684.9047760783
 31
0.0
  0
LINE
  5
163
330
1F
100
AcDbEntity
  8
0
  6
Continuous
 62
     7
370
    25
100
AcDbLine
 10
-1.8384114397
 20
1556.8152759579
 30
0.0
 11
-29.6336650113
 21
1556.8152759579
 31
0.0
  0
LINE
  5
164
330
1F
100
AcDbEntity
  8
0
  6
Continuous
 62
     7
370
    25
100
AcDbLine
 10
1198.0003218935
 20
1556.8152759579
 30
0.0
 11
1167.4687250468
 21
1556.8152759624
 31
0.0
  0
LINE
  5
165
330
1F
100
AcDbEntity
  8
0
  6
Continuous
 62
     7
370
    25
100
AcDbLine
 10
427.699793565
 20
1556.8152759579
 30
0.0
 11
399.8490208557
 21
1556.8152759372
 31
0.0
  0
LINE
  5
166
330
1F
100
AcDbEntity
  8
0
  6
Continuous
 62
     7
370
    25
100
AcDbLine
 10
812.2877778163
 20
1556.8152759579
 30
0.0
 11
805.5120073071
 21
1556.8152759577
 31
0.0
  0
LINE
  5
167
330
1F
100
AcDbEntity
  8
0
  6
Continuous
 62
     7
370
    25
100
AcDbLine
 10
1556.4535458747
 20
1556.8152759579
 30
0.0
 11
1553.1563786506
 21
1556.8152759579
 31
0.0
  0
LINE
  5
168
330
1F
100
AcDbEntity
  8
0
  6
Continuous
 62
     7
370
    25
100
AcDbLine
 10
-754.8363547258
 20
1657.1346674446
 30
0.0
 11
-754.8363547258
 21
1664.1346674446
 31
0.0
  0
LINE
  5
169
330
1F
100
AcDbEntity
  8
0
  6
Continuous
 62
     7
370
    25
100
AcDbLine
 10
1855.4201398761
 20
1577.1346674446
 30
0.0
 11
-365.0928493277
 21
1577.1346674446
 31
0.0
  0
LINE
  5
16A
330
1F
100
AcDbEntity
  8
0
  6
Continuous
 62
     7
370
    25
100
AcDbLine
 10
-751.8363547258
 20
1667.1346674446
 30
0.0
 11
-744.8363547258
 21
1667.1346674446
 31
0.0
  0
LINE
  5
16B
330
1F
100
AcDbEntity
  8
0
  6
Continuous
 62
     7
370
    25
100
AcDbLine
 10
-364.9645809334
 20
1667.1346674446
 30
0.0
 11
1855.2918714819
 21
1667.1346674446
 31
0.0
  0
ARC
  5
16C
330
1F
100
AcDbEntity
  8
0
  6
Continuous
 62
     7
370
    25
100
AcDbCircle
 10
-751.8363547258
 20
1664.1346674446
 30
0.0
 40
3.0
100
AcDbArc
 50
90.0
 51
180.0
  0
ARC
  5
16D
330
1F
100
AcDbEntity
  8
0
  6
Continuous
 62
     7
370
    25
100
AcDbCircle
 10
2242.1636452742
 20
1664.1346674446
 30
0.0
 40
3.000000000000455
100
AcDbArc
 50
0.0
 51
90.0
  0
LINE
  5
16E
330
1F
100
AcDbEntity
  8
0
  6
Continuous
 62
     7
370
    25
100
AcDbLine
 10
2155.1636452742
 20
-943.1218271573
 30
0.0
 11
2155.1636452742
 21
1277.3911620465
 31
0.0
  0
LINE
  5
16F
330
1F
100
AcDbEntity
  8
0
  6
Continuous
 62
     7
370
    25
100
AcDbLine
 10
2235.1636452742
 20
1667.1346674446
 30
0.0
 11
2242.1636452742
 21
1667.1346674446
 31
0.0
  0
LINE
  5
170
330
1F
100
AcDbEntity
  8
0
  6
Continuous
 62
     7
370
    25
100
AcDbLine
 10
2245.1636452742
 20
1664.1346674446
 30
0.0
 11
2245.1636452742
 21
1657.1346674446
 31
0.0
  0
LINE
  5
171
330
1F
100
AcDbEntity
  8
0
  6
Continuous
 62
     7
370
    25
100
AcDbLine
 10
2245.1636452742
 20
1277.2628936522
 30
0.0
 11
2245.1636452742
 21
-942.9935587631
 31
0.0
  0
LINE
  5
172
330
1F
100
AcDbEntity
  8
0
  6
Continuous
 62
     7
370
    25
100
AcDbLine
 10
-754.8363547258
 20
-1329.8653325554
 30
0.0
 11
-754.8363547258
 21
-1322.8653325554
 31
0.0
  0
LINE
  5
173
330
1F
100
AcDbEntity
  8
0
  6
Continuous
 62
     7
370
    25
100
AcDbLine
 10
-754.8363547258
 20
-942.9935587631
 30
0.0
 11
-754.8363547258
 21
1277.2628936522
 31
0.0
  0
LINE
  5
174
330
1F
100
AcDbEntity
  8
0
  6
Continuous
 62
     7
370
    25
100
AcDbLine
 10
-744.8363547258
 20
-1332.8653325554
 30
0.0
 11
-751.8363547258
 21
-1332.8653325554
 31
0.0
  0
ARC
  5
175
330
1F
100
AcDbEntity
  8
0
  6
Continuous
 62
     7
370
    25
100
AcDbCircle
 10
-751.8363547258
 20
-1329.8653325554
 30
0.0
 40
3.0
100
AcDbArc
 50
180.0
 51
270.0
  0
LINE
  5
176
330
1F
100
AcDbEntity
  8
0
  6
Continuous
 62
     7
370
    25
100
AcDbLine
 10
-664.8363547258
 20
1277.3911620465
 30
0.0
 11
-664.8363547258
 21
-943.1218271573
 31
0.0
  0
LINE
  5
177
330
1F
100
AcDbEntity
  8
0
  6
Continuous
 62
     7
370
    25
100
AcDbLine
 10
-365.0928493277
 20
-1242.8653325554
 30
0.0
 11
1855.4201398761
 21
-1242.8653325554
 31
0.0
  0
LINE
  5
178
330
1F
100
AcDbEntity
  8
0
  6
Continuous
 62
     7
370
    25
100
AcDbLine
 10
2242.1636452742
 20
-1332.8653325554
 30
0.0
 11
2235.1636452742
 21
-1332.8653325554
 31
0.0
  0
LINE
  5
179
330
1F
100
AcDbEntity
  8
0
  6
Continuous
 62
     7
370
    25
100
AcDbLine
 10
1855.2918714819
 20
-1332.8653325554
 30
0.0
 11
-364.9645809334
 21
-1332.8653325554
 31
0.0
  0
ARC
  5
17A
330
1F
100
AcDbEntity
  8
0
  6
Continuous
 62
     7
370
    25
100
AcDbCircle
 10
2242.1636452742
 20
-1329.8653325554
 30
0.0
 40
3.000000000000455
100
AcDbArc
 50
270.0
 51
0.0
  0
LINE
  5
17B
330
1F
100
AcDbEntity
  8
0
  6
Continuous
 62
     7
370
    25
100
AcDbLine
 10
2245.1636452742
 20
-1322.8653325554
 30
0.0
 11
2245.1636452742
 21
-1329.8653325554
 31
0.0
  0
LINE
  5
17C
330
1F
100
AcDbEntity
  8
0
  6
Continuous
 62
     7
370
    25
100
AcDbLine
 10
2247.1636452742
 20
1632.1346674446
 30
0.0
 11
2247.1636452742
 21
1612.1346674446
 31
0.0
  0
LINE
  5
17D
330
1F
100
AcDbEntity
  8
0
  6
Continuous
 62
     7
370
    25
100
AcDbLine
 10
2249.1636452742
 20
1618.1346674446
 30
0.0
 11
2249.1636452742
 21
1626.1346674446
 31
0.0
  0
LINE
  5
17E
330
1F
100
AcDbEntity
  8
0
  6
Continuous
 62
     7
370
    25
100
AcDbLine
 10
2200.1636452742
 20
-1334.8653325554
 30
0.0
 11
2210.1636452742
 21
-1334.8653325554
 31
0.0
  0
LINE
  5
17F
330
1F
100
AcDbEntity
  8
0
  6
Continuous
 62
     7
370
    25
100
AcDbLine
 10
2190.1636452742
 20
-1334.8653325554
 30
0.0
 11
2200.1636452742
 21
-1334.8653325554
 31
0.0
  0
LINE
  5
180
330
1F
100
AcDbEntity
  8
0
  6
Continuous
 62
     7
370
    25
100
AcDbLine
 10
2200.1636452742
 20
-1336.8653325554
 30
0.0
 11
2204.1636452742
 21
-1336.8653325554
 31
0.0
  0
LINE
  5
181
330
1F
100
AcDbEntity
  8
0
  6
Continuous
 62
     7
370
    25
100
AcDbLine
 10
2196.1636452742
 20
-1336.8653325554
 30
0.0
 11
2200.1636452742
 21
-1336.8653325554
 31
0.0
  0
LINE
  5
182
330
1F
100
AcDbEntity
  8
0
  6
Continuous
 62
     7
370
    25
100
AcDbLine
 10
-699.8363547258
 20
1669.1346674446
 30
0.0
 11
-719.8363547258
 21
1669.1346674446
 31
0.0
  0
LINE
  5
183
330
1F
100
AcDbEntity
  8
0
  6
Continuous
 62
     7
370
    25
100
AcDbLine
 10
-705.8363547258
 20
1671.1346674446
 30
0.0
 11
-713.8363547258
 21
1671.1346674446
 31
0.0
  0
LINE
  5
184
330
1F
100
AcDbEntity
  8
0
  6
Continuous
 62
     7
370
    25
100
AcDbLine
 10
-756.8363547258
 20
-1277.8653325554
 30
0.0
 11
-756.8363547258
 21
-1297.8653322411
 31
0.0
  0
LINE
  5
185
330
1F
100
AcDbEntity
  8
0
  6
Continuous
 62
     7
370
    25
100
AcDbLine
 10
-758.8363547258
 20
-1283.8653325554
 30
0.0
 11
-758.8363547258
 21
-1291.8653325554
 31
0.0
  0
ARC
  5
186
330
1F
100
AcDbEntity
  8
0
  6
Continuous
 62
     7
370
    25
100
AcDbCircle
 10
-399.8363547258
 20
-1287.8653325554
 30
0.0
 40
2.249999999999918
100
AcDbArc
 50
240.0
 51
300.0
  0
ARC
  5
187
330
1F
100
AcDbEntity
  8
0
  6
Continuous
 62
     7
370
    25
100
AcDbCircle
 10
-398.9363547258
 20
-1289.4241782822
 30
0.0
 40
0.450000000000047
100
AcDbArc
 50
223.3417582272
 51
300.0
  0
ARC
  5
188
330
1F
100
AcDbEntity
  8
0
  6
Continuous
 62
     7
370
    25
100
AcDbCircle
 10
-400.7363547258
 20
-1289.4241782822
 30
0.0
 40
0.450000000000047
100
AcDbArc
 50
240.0
 51
316.6582417728
  0
ARC
  5
189
330
1F
100
AcDbEntity
  8
0
  6
Continuous
 62
     7
370
    25
100
AcDbCircle
 10
-399.8363547258
 20
-1290.2735346562
 30
0.0
 40
0.7874999999998642
100
AcDbArc
 50
43.3417582272
 51
136.6582417728
  0
ARC
  5
18A
330
1F
100
AcDbEntity
  8
0
  6
Continuous
 62
     7
370
    25
100
AcDbCircle
 10
-399.8363547258
 20
-1287.8653325554
 30
0.0
 40
2.250000000000058
100
AcDbArc
 50
120.0
 51
180.0
  0
ARC
  5
18B
330
1F
100
AcDbEntity
  8
0
  6
Continuous
 62
     7
370
    25
100
AcDbCircle
 10
-400.7363547258
 20
-1286.3064868286
 30
0.0
 40
0.4500000000000112
100
AcDbArc
 50
120.0
 51
196.6582417728
  0
ARC
  5
18C
330
1F
100
AcDbEntity
  8
0
  6
Continuous
 62
     7
370
    25
100
AcDbCircle
 10
-401.9219189225
 20
-1286.661231505
 30
0.0
 40
0.787499999999968
100
AcDbArc
 50
283.3417582272
 51
16.6582417728
  0
ARC
  5
18D
330
1F
100
AcDbEntity
  8
0
  6
Continuous
 62
     7
370
    25
100
AcDbCircle
 10
-401.6363547258
 20
-1287.8653325554
 30
0.0
 40
0.4500000000001732
100
AcDbArc
 50
103.3417582272
 51
180.0
  0
ARC
  5
18E
330
1F
100
AcDbEntity
  8
0
  6
Continuous
 62
     7
370
    25
100
AcDbCircle
 10
-399.8363547258
 20
-1287.8653325554
 30
0.0
 40
2.25
100
AcDbArc
 50
300.0
 51
0.0
  0
ARC
  5
18F
330
1F
100
AcDbEntity
  8
0
  6
Continuous
 62
     7
370
    25
100
AcDbCircle
 10
-398.0363547258
 20
-1287.8653325554
 30
0.0
 40
0.4500000000001732
100
AcDbArc
 50
283.3417582272
 51
0.0
  0
ARC
  5
190
330
1F
100
AcDbEntity
  8
0
  6
Continuous
 62
     7
370
    25
100
AcDbCircle
 10
-398.9363547258
 20
-1289.4241782822
 30
0.0
 40
0.4499999999999485
100
AcDbArc
 50
300.0
 51
16.6582417728
  0
ARC
  5
191
330
1F
100
AcDbEntity
  8
0
  6
Continuous
 62
     7
370
    25
100
AcDbCircle
 10
-397.7507905291
 20
-1289.0694336058
 30
0.0
 40
0.7874999999999913
100
AcDbArc
 50
103.3417582272
 51
196.6582417728
  0
ARC
  5
192
330
1F
100
AcDbEntity
  8
0
  6
Continuous
 62
     7
370
    25
100
AcDbCircle
 10
-399.8363547258
 20
-1287.8653325554
 30
0.0
 40
2.250000000000115
100
AcDbArc
 50
0.0
 51
60.0
  0
ARC
  5
193
330
1F
100
AcDbEntity
  8
0
  6
Continuous
 62
     7
370
    25
100
AcDbCircle
 10
-398.0363547258
 20
-1287.8653325554
 30
0.0
 40
0.4499999999999886
100
AcDbArc
 50
0.0
 51
76.6582417728
  0
ARC
  5
194
330
1F
100
AcDbEntity
  8
0
  6
Continuous
 62
     7
370
    25
100
AcDbCircle
 10
-398.9363547258
 20
-1286.3064868286
 30
0.0
 40
0.450000000000068
100
AcDbArc
 50
343.3417582272
 51
60.0
  0
ARC
  5
195
330
1F
100
AcDbEntity
  8
0
  6
Continuous
 62
     7
370
    25
100
AcDbCircle
 10
-397.7507905291
 20
-1286.661231505
 30
0.0
 40
0.7875000000001892
100
AcDbArc
 50
163.3417582272
 51
256.6582417728
  0
ARC
  5
196
330
1F
100
AcDbEntity
  8
0
  6
Continuous
 62
     7
370
    25
100
AcDbCircle
 10
-399.8363547258
 20
-1287.8653325554
 30
0.0
 40
2.25
100
AcDbArc
 50
180.0
 51
240.0
  0
ARC
  5
197
330
1F
100
AcDbEntity
  8
0
  6
Continuous
 62
     7
370
    25
100
AcDbCircle
 10
-401.6363547258
 20
-1287.8653325554
 30
0.0
 40
0.4499999999999886
100
AcDbArc
 50
180.0
 51
256.6582417728
  0
ARC
  5
198
330
1F
100
AcDbEntity
  8
0
  6
Continuous
 62
     7
370
    25
100
AcDbCircle
 10
-401.9219189225
 20
-1289.0694336058
 30
0.0
 40
0.787499999999968
100
AcDbArc
 50
343.3417582272
 51
76.6582417728
  0
ARC
  5
199
330
1F
100
AcDbEntity
  8
0
  6
Continuous
 62
     7
370
    25
100
AcDbCircle
 10
-400.7363547258
 20
-1289.4241782822
 30
0.0
 40
0.4500000000000137
100
AcDbArc
 50
163.3417582272
 51
240.0
  0
ARC
  5
19A
330
1F
100
AcDbEntity
  8
0
  6
Continuous
 62
     7
370
    25
100
AcDbCircle
 10
-399.8363547258
 20
-1287.8653325554
 30
0.0
 40
2.250000000000115
100
AcDbArc
 50
60.0
 51
120.0
  0
CIRCLE
  5
19B
330
1F
100
AcDbEntity
  8
0
  6
Continuous
 62
     7
370
    25
100
AcDbCircle
 10
-399.8363547258
 20
-1287.8653325554
 30
0.0
 40
3.850000000000023
  0
ARC
  5
19C
330
1F
100
AcDbEntity
  8
0
  6
Continuous
 62
     7
370
    25
100
AcDbCircle
 10
-400.7363547258
 20
-1286.3064868286
 30
0.0
 40
0.450000000000047
100
AcDbArc
 50
43.3417582272
 51
120.0
  0
ARC
  5
19D
330
1F
100
AcDbEntity
  8
0
  6
Continuous
 62
     7
370
    25
100
AcDbCircle
 10
-399.8363547258
 20
-1285.4571304546
 30
0.0
 40
0.7874999999998642
100
AcDbArc
 50
223.3417582272
 51
316.6582417728
  0
ARC
  5
19E
330
1F
100
AcDbEntity
  8
0
  6
Continuous
 62
     7
370
    25
100
AcDbCircle
 10
-398.9363547258
 20
-1286.3064868286
 30
0.0
 40
0.450000000000068
100
AcDbArc
 50
60.0
 51
136.6582417728
  0
ARC
  5
19F
330
1F
100
AcDbEntity
  8
0
  6
Continuous
 62
     7
370
    25
100
AcDbCircle
 10
2200.1636452742
 20
1312.1346674446
 30
0.0
 40
2.249999999999923
100
AcDbArc
 50
96.6591273129
 51
156.6591273129
  0
ARC
  5
1A0
330
1F
100
AcDbEntity
  8
0
  6
Continuous
 62
     7
370
    25
100
AcDbCircle
 10
2199.9549132848
 20
1313.9225239703
 30
0.0
 40
0.4500000000002098
100
AcDbArc
 50
96.6591273128
 51
173.3173690857
  0
ARC
  5
1A1
330
1F
100
AcDbEntity
  8
0
  6
Continuous
 62
     7
370
    25
100
AcDbCircle
 10
2198.725820894
 20
1314.0665314175
 30
0.0
 40
0.7874999999999248
100
AcDbArc
 50
260.0008855401
 51
353.3173690857
  0
ARC
  5
1A2
330
1F
100
AcDbEntity
  8
0
  6
Continuous
 62
     7
370
    25
100
AcDbCircle
 10
2198.5109501099
 20
1312.8478285021
 30
0.0
 40
0.4500000000004987
100
AcDbArc
 50
80.0008855402
 51
156.6591273129
  0
ARC
  5
1A3
330
1F
100
AcDbEntity
  8
0
  6
Continuous
 62
     7
370
    25
100
AcDbCircle
 10
2200.1636452742
 20
1312.1346674446
 30
0.0
 40
2.249999999999923
100
AcDbArc
 50
36.6591273129
 51
96.6591273129
  0
ARC
  5
1A4
330
1F
100
AcDbEntity
  8
0
  6
Continuous
 62
     7
370
    25
100
AcDbCircle
 10
2201.1177763614
 20
1314.3457918705
 30
0.0
 40
0.787499999999899
100
AcDbArc
 50
200.0008855401
 51
293.3173690857
  0
ARC
  5
1A5
330
1F
100
AcDbEntity
  8
0
  6
Continuous
 62
     7
370
    25
100
AcDbCircle
 10
2199.9549132848
 20
1313.9225239703
 30
0.0
 40
0.4500000000005211
100
AcDbArc
 50
20.0008855401
 51
96.6591273128
  0
ARC
  5
1A6
330
1F
100
AcDbEntity
  8
0
  6
Continuous
 62
     7
370
    25
100
AcDbCircle
 10
2201.6076084491
 20
1313.2093629128
 30
0.0
 40
0.45000000000004
100
AcDbArc
 50
36.6591273129
 51
113.3173690857
  0
ARC
  5
1A7
330
1F
100
AcDbEntity
  8
0
  6
Continuous
 62
     7
370
    25
100
AcDbCircle
 10
2200.1636452742
 20
1312.1346674446
 30
0.0
 40
2.250000000000193
100
AcDbArc
 50
336.6591273129
 51
36.6591273129
  0
ARC
  5
1A8
330
1F
100
AcDbEntity
  8
0
  6
Continuous
 62
     7
370
    25
100
AcDbCircle
 10
2201.8163404385
 20
1311.4215063871
 30
0.0
 40
0.4500000000001778
100
AcDbArc
 50
336.6591273129
 51
53.3173690856
  0
ARC
  5
1A9
330
1F
100
AcDbEntity
  8
0
  6
Continuous
 62
     7
370
    25
100
AcDbCircle
 10
2202.5556007415
 20
1312.4139278975
 30
0.0
 40
0.787499999999634
100
AcDbArc
 50
140.0008855401
 51
233.3173690857
  0
ARC
  5
1AA
330
1F
100
AcDbEntity
  8
0
  6
Continuous
 62
     7
370
    25
100
AcDbCircle
 10
2201.6076084491
 20
1313.2093629128
 30
0.0
 40
0.4500000000001392
100
AcDbArc
 50
320.0008855401
 51
36.6591273129
  0
ARC
  5
1AB
330
1F
100
AcDbEntity
  8
0
  6
Continuous
 62
     7
370
    25
100
AcDbCircle
 10
2200.1636452742
 20
1312.1346674446
 30
0.0
 40
2.250000000000193
100
AcDbArc
 50
276.6591273129
 51
336.6591273129
  0
ARC
  5
1AC
330
1F
100
AcDbEntity
  8
0
  6
Continuous
 62
     7
370
    25
100
AcDbCircle
 10
2200.3723772636
 20
1310.3468109188
 30
0.0
 40
0.4500000000001518
100
AcDbArc
 50
276.6591273129
 51
353.3173690857
  0
ARC
  5
1AD
330
1F
100
AcDbEntity
  8
0
  6
Continuous
 62
     7
370
    25
100
AcDbCircle
 10
2201.6014696544
 20
1310.2028034716
 30
0.0
 40
0.7875000000001487
100
AcDbArc
 50
80.0008855401
 51
173.3173690856
  0
ARC
  5
1AE
330
1F
100
AcDbEntity
  8
0
  6
Continuous
 62
     7
370
    25
100
AcDbCircle
 10
2201.8163404385
 20
1311.4215063871
 30
0.0
 40
0.4500000000000454
100
AcDbArc
 50
260.0008855401
 51
336.6591273129
  0
ARC
  5
1AF
330
1F
100
AcDbEntity
  8
0
  6
Continuous
 62
     7
370
    25
100
AcDbCircle
 10
2200.1636452742
 20
1312.1346674446
 30
0.0
 40
2.250000000000218
100
AcDbArc
 50
156.6591273129
 51
216.6591273129
  0
ARC
  5
1B0
330
1F
100
AcDbEntity
  8
0
  6
Continuous
 62
     7
370
    25
100
AcDbCircle
 10
2198.5109501099
 20
1312.8478285021
 30
0.0
 40
0.4500000000004987
100
AcDbArc
 50
156.6591273129
 51
233.3173690856
  0
ARC
  5
1B1
330
1F
100
AcDbEntity
  8
0
  6
Continuous
 62
     7
370
    25
100
AcDbCircle
 10
2198.7196820993
 20
1311.0599719763
 30
0.0
 40
0.4499999999997161
100
AcDbArc
 50
140.0008855401
 51
216.6591273129
  0
ARC
  5
1B2
330
1F
100
AcDbEntity
  8
0
  6
Continuous
 62
     7
370
    25
100
AcDbCircle
 10
2197.7716898069
 20
1311.8554069916
 30
0.0
 40
0.7875000000001285
100
AcDbArc
 50
320.0008855401
 51
53.3173690856
  0
ARC
  5
1B3
330
1F
100
AcDbEntity
  8
0
  6
Continuous
 62
     7
370
    25
100
AcDbCircle
 10
2200.1636452742
 20
1312.1346674446
 30
0.0
 40
2.250000000000218
100
AcDbArc
 50
216.6591273129
 51
276.6591273129
  0
ARC
  5
1B4
330
1F
100
AcDbEntity
  8
0
  6
Continuous
 62
     7
370
    25
100
AcDbCircle
 10
2199.2095141871
 20
1309.9235430187
 30
0.0
 40
0.787500000000038
100
AcDbArc
 50
20.0008855401
 51
113.3173690856
  0
ARC
  5
1B5
330
1F
100
AcDbEntity
  8
0
  6
Continuous
 62
     7
370
    25
100
AcDbCircle
 10
2200.3723772636
 20
1310.3468109188
 30
0.0
 40
0.4500000000001716
100
AcDbArc
 50
200.0008855401
 51
276.6591273129
  0
ARC
  5
1B6
330
1F
100
AcDbEntity
  8
0
  6
Continuous
 62
     7
370
    25
100
AcDbCircle
 10
2198.7196820993
 20
1311.0599719763
 30
0.0
 40
0.4500000000004
100
AcDbArc
 50
216.6591273129
 51
293.3173690858
  0
CIRCLE
  5
1B7
330
1F
100
AcDbEntity
  8
0
  6
Continuous
 62
     7
370
    25
100
AcDbCircle
 10
2200.1636452742
 20
1312.1346674446
 30
0.0
 40
3.849999999999806
  0
ARC
  5
1B8
330
1F
100
AcDbEntity
  8
0
  6
Continuous
 62
     7
370
    25
100
AcDbCircle
 10
1890.1636452742
 20
-1287.8653325554
 30
0.0
 40
2.25
100
AcDbArc
 50
0.0
 51
60.0
  0
ARC
  5
1B9
330
1F
100
AcDbEntity
  8
0
  6
Continuous
 62
     7
370
    25
100
AcDbCircle
 10
1891.9636452742
 20
-1287.8653325554
 30
0.0
 40
0.4500000000002728
100
AcDbArc
 50
0.0
 51
76.6582417728
  0
ARC
  5
1BA
330
1F
100
AcDbEntity
  8
0
  6
Continuous
 62
     7
370
    25
100
AcDbCircle
 10
1892.2492094709
 20
-1286.661231505
 30
0.0
 40
0.7875000000002154
100
AcDbArc
 50
163.3417582272
 51
256.6582417728
  0
ARC
  5
1BB
330
1F
100
AcDbEntity
  8
0
  6
Continuous
 62
     7
370
    25
100
AcDbCircle
 10
1891.0636452742
 20
-1286.3064868286
 30
0.0
 40
0.4499999999998142
100
AcDbArc
 50
343.3417582272
 51
60.0
  0
ARC
  5
1BC
330
1F
100
AcDbEntity
  8
0
  6
Continuous
 62
     7
370
    25
100
AcDbCircle
 10
1890.1636452742
 20
-1287.8653325554
 30
0.0
 40
2.250000000000227
100
AcDbArc
 50
180.0
 51
240.0
  0
ARC
  5
1BD
330
1F
100
AcDbEntity
  8
0
  6
Continuous
 62
     7
370
    25
100
AcDbCircle
 10
1888.3636452742
 20
-1287.8653325554
 30
0.0
 40
0.4500000000005002
100
AcDbArc
 50
180.0
 51
256.6582417728
  0
ARC
  5
1BE
330
1F
100
AcDbEntity
  8
0
  6
Continuous
 62
     7
370
    25
100
AcDbCircle
 10
1888.0780810775
 20
-1289.0694336058
 30
0.0
 40
0.7874999999999807
100
AcDbArc
 50
343.3417582272
 51
76.6582417728
  0
ARC
  5
1BF
330
1F
100
AcDbEntity
  8
0
  6
Continuous
 62
     7
370
    25
100
AcDbCircle
 10
1889.2636452742
 20
-1289.4241782822
 30
0.0
 40
0.4499999999998142
100
AcDbArc
 50
163.3417582272
 51
240.0
  0
ARC
  5
1C0
330
1F
100
AcDbEntity
  8
0
  6
Continuous
 62
     7
370
    25
100
AcDbCircle
 10
1890.1636452742
 20
-1287.8653325554
 30
0.0
 40
2.250000000000086
100
AcDbArc
 50
300.0
 51
0.0
  0
ARC
  5
1C1
330
1F
100
AcDbEntity
  8
0
  6
Continuous
 62
     7
370
    25
100
AcDbCircle
 10
1891.0636452742
 20
-1289.4241782822
 30
0.0
 40
0.4500000000002315
100
AcDbArc
 50
300.0
 51
16.6582417728
  0
ARC
  5
1C2
330
1F
100
AcDbEntity
  8
0
  6
Continuous
 62
     7
370
    25
100
AcDbCircle
 10
1891.9636452742
 20
-1287.8653325554
 30
0.0
 40
0.4500000000002728
100
AcDbArc
 50
283.3417582272
 51
0.0
  0
ARC
  5
1C3
330
1F
100
AcDbEntity
  8
0
  6
Continuous
 62
     7
370
    25
100
AcDbCircle
 10
1892.2492094709
 20
-1289.0694336058
 30
0.0
 40
0.7875000000002154
100
AcDbArc
 50
103.3417582272
 51
196.6582417728
  0
ARC
  5
1C4
330
1F
100
AcDbEntity
  8
0
  6
Continuous
 62
     7
370
    25
100
AcDbCircle
 10
1890.1636452742
 20
-1287.8653325554
 30
0.0
 40
2.250000000000227
100
AcDbArc
 50
120.0
 51
180.0
  0
ARC
  5
1C5
330
1F
100
AcDbEntity
  8
0
  6
Continuous
 62
     7
370
    25
100
AcDbCircle
 10
1889.2636452742
 20
-1286.3064868286
 30
0.0
 40
0.4500000000002315
100
AcDbArc
 50
120.0
 51
196.6582417728
  0
ARC
  5
1C6
330
1F
100
AcDbEntity
  8
0
  6
Continuous
 62
     7
370
    25
100
AcDbCircle
 10
1888.0780810775
 20
-1286.661231505
 30
0.0
 40
0.787500000000163
100
AcDbArc
 50
283.3417582272
 51
16.6582417728
  0
ARC
  5
1C7
330
1F
100
AcDbEntity
  8
0
  6
Continuous
 62
     7
370
    25
100
AcDbCircle
 10
1888.3636452742
 20
-1287.8653325554
 30
0.0
 40
0.4500000000005002
100
AcDbArc
 50
103.3417582273
 51
180.0
  0
ARC
  5
1C8
330
1F
100
AcDbEntity
  8
0
  6
Continuous
 62
     7
370
    25
100
AcDbCircle
 10
1890.1636452742
 20
-1287.8653325554
 30
0.0
 40
2.250000000000086
100
AcDbArc
 50
240.0
 51
300.0
  0
ARC
  5
1C9
330
1F
100
AcDbEntity
  8
0
  6
Continuous
 62
     7
370
    25
100
AcDbCircle
 10
1890.1636452742
 20
-1287.8653325554
 30
0.0
 40
2.249999999999889
100
AcDbArc
 50
60.0
 51
120.0
  0
CIRCLE
  5
1CA
330
1F
100
AcDbEntity
  8
0
  6
Continuous
 62
     7
370
    25
100
AcDbCircle
 10
1890.1636452742
 20
-1287.8653325554
 30
0.0
 40
3.849999999999909
  0
ARC
  5
1CB
330
1F
100
AcDbEntity
  8
0
  6
Continuous
 62
     7
370
    25
100
AcDbCircle
 10
1890.1636452742
 20
-1290.2735346562
 30
0.0
 40
0.7875000000001443
100
AcDbArc
 50
43.3417582272
 51
136.6582417728
  0
ARC
  5
1CC
330
1F
100
AcDbEntity
  8
0
  6
Continuous
 62
     7
370
    25
100
AcDbCircle
 10
1891.0636452742
 20
-1289.4241782822
 30
0.0
 40
0.4499999999998142
100
AcDbArc
 50
223.3417582272
 51
300.0
  0
ARC
  5
1CD
330
1F
100
AcDbEntity
  8
0
  6
Continuous
 62
     7
370
    25
100
AcDbCircle
 10
1889.2636452742
 20
-1289.4241782822
 30
0.0
 40
0.4499999999998142
100
AcDbArc
 50
240.0
 51
316.6582417728
  0
ARC
  5
1CE
330
1F
100
AcDbEntity
  8
0
  6
Continuous
 62
     7
370
    25
100
AcDbCircle
 10
1891.0636452742
 20
-1286.3064868286
 30
0.0
 40
0.4499999999998142
100
AcDbArc
 50
60.0
 51
136.6582417728
  0
ARC
  5
1CF
330
1F
100
AcDbEntity
  8
0
  6
Continuous
 62
     7
370
    25
100
AcDbCircle
 10
1890.1636452742
 20
-1285.4571304546
 30
0.0
 40
0.7875000000001443
100
AcDbArc
 50
223.3417582272
 51
316.6582417728
  0
ARC
  5
1D0
330
1F
100
AcDbEntity
  8
0
  6
Continuous
 62
     7
370
    25
100
AcDbCircle
 10
1889.2636452742
 20
-1286.3064868286
 30
0.0
 40
0.4499999999998142
100
AcDbArc
 50
43.3417582272
 51
120.0
  0
ARC
  5
1D1
330
1F
100
AcDbEntity
  8
0
  6
Continuous
 62
     7
370
    25
100
AcDbCircle
 10
2200.1636452742
 20
1622.1346674446
 30
0.0
 40
2.250000000000455
100
AcDbArc
 50
180.0
 51
240.0
  0
ARC
  5
1D2
330
1F
100
AcDbEntity
  8
0
  6
Continuous
 62
     7
370
    25
100
AcDbCircle
 10
2198.3636452742
 20
1622.1346674446
 30
0.0
 40
0.4500000000007276
100
AcDbArc
 50
180.0
 51
256.6582417728
  0
ARC
  5
1D3
330
1F
100
AcDbEntity
  8
0
  6
Continuous
 62
     7
370
    25
100
AcDbCircle
 10
2198.0780810775
 20
1620.9305663942
 30
0.0
 40
0.7875000000002154
100
AcDbArc
 50
343.3417582272
 51
76.6582417728
  0
ARC
  5
1D4
330
1F
100
AcDbEntity
  8
0
  6
Continuous
 62
     7
370
    25
100
AcDbCircle
 10
2199.2636452742
 20
1620.5758217178
 30
0.0
 40
0.4500000000006671
100
AcDbArc
 50
163.3417582272
 51
240.0
  0
ARC
  5
1D5
330
1F
100
AcDbEntity
  8
0
  6
Continuous
 62
     7
370
    25
100
AcDbCircle
 10
2200.1636452742
 20
1622.1346674446
 30
0.0
 40
2.25
100
AcDbArc
 50
300.0
 51
0.0
  0
ARC
  5
1D6
330
1F
100
AcDbEntity
  8
0
  6
Continuous
 62
     7
370
    25
100
AcDbCircle
 10
2201.0636452742
 20
1620.5758217178
 30
0.0
 40
0.4499999999997307
100
AcDbArc
 50
300.0
 51
16.6582417728
  0
ARC
  5
1D7
330
1F
100
AcDbEntity
  8
0
  6
Continuous
 62
     7
370
    25
100
AcDbCircle
 10
2202.2492094709
 20
1620.9305663942
 30
0.0
 40
0.7874999999998893
100
AcDbArc
 50
103.3417582272
 51
196.6582417728
  0
ARC
  5
1D8
330
1F
100
AcDbEntity
  8
0
  6
Continuous
 62
     7
370
    25
100
AcDbCircle
 10
2201.9636452742
 20
1622.1346674446
 30
0.0
 40
0.4499999999999651
100
AcDbArc
 50
283.3417582272
 51
0.0
  0
ARC
  5
1D9
330
1F
100
AcDbEntity
  8
0
  6
Continuous
 62
     7
370
    25
100
AcDbCircle
 10
2200.1636452742
 20
1622.1346674446
 30
0.0
 40
2.250000000000455
100
AcDbArc
 50
120.0
 51
180.0
  0
ARC
  5
1DA
330
1F
100
AcDbEntity
  8
0
  6
Continuous
 62
     7
370
    25
100
AcDbCircle
 10
2199.2636452742
 20
1623.6935131714
 30
0.0
 40
0.4500000000000416
100
AcDbArc
 50
120.0000000001
 51
196.6582417728
  0
ARC
  5
1DB
330
1F
100
AcDbEntity
  8
0
  6
Continuous
 62
     7
370
    25
100
AcDbCircle
 10
2198.0780810775
 20
1623.338768495
 30
0.0
 40
0.7875000000004163
100
AcDbArc
 50
283.3417582272
 51
16.6582417728
  0
ARC
  5
1DC
330
1F
100
AcDbEntity
  8
0
  6
Continuous
 62
     7
370
    25
100
AcDbCircle
 10
2198.3636452742
 20
1622.1346674446
 30
0.0
 40
0.4500000000007276
100
AcDbArc
 50
103.3417582272
 51
180.0
  0
ARC
  5
1DD
330
1F
100
AcDbEntity
  8
0
  6
Continuous
 62
     7
370
    25
100
AcDbCircle
 10
2200.1636452742
 20
1622.1346674446
 30
0.0
 40
2.250000000000086
100
AcDbArc
 50
60.0
 51
120.0
  0
ARC
  5
1DE
330
1F
100
AcDbEntity
  8
0
  6
Continuous
 62
     7
370
    25
100
AcDbCircle
 10
2201.0636452742
 20
1623.6935131714
 30
0.0
 40
0.4500000000003043
100
AcDbArc
 50
60.0
 51
136.6582417729
  0
ARC
  5
1DF
330
1F
100
AcDbEntity
  8
0
  6
Continuous
 62
     7
370
    25
100
AcDbCircle
 10
2200.1636452742
 20
1624.5428695454
 30
0.0
 40
0.7875000000001536
100
AcDbArc
 50
223.3417582272
 51
316.6582417728
  0
ARC
  5
1E0
330
1F
100
AcDbEntity
  8
0
  6
Continuous
 62
     7
370
    25
100
AcDbCircle
 10
2199.2636452742
 20
1623.6935131714
 30
0.0
 40
0.4500000000000416
100
AcDbArc
 50
43.3417582273
 51
120.0000000001
  0
ARC
  5
1E1
330
1F
100
AcDbEntity
  8
0
  6
Continuous
 62
     7
370
    25
100
AcDbCircle
 10
2200.1636452742
 20
1622.1346674446
 30
0.0
 40
2.249999999999889
100
AcDbArc
 50
240.0
 51
300.0
  0
ARC
  5
1E2
330
1F
100
AcDbEntity
  8
0
  6
Continuous
 62
     7
370
    25
100
AcDbCircle
 10
2200.1636452742
 20
1622.1346674446
 30
0.0
 40
2.250000000000086
100
AcDbArc
 50
0.0
 51
60.0
  0
CIRCLE
  5
1E3
330
1F
100
AcDbEntity
  8
0
  6
Continuous
 62
     7
370
    25
100
AcDbCircle
 10
2200.1636452742
 20
1622.1346674446
 30
0.0
 40
3.849999999999909
  0
ARC
  5
1E4
330
1F
100
AcDbEntity
  8
0
  6
Continuous
 62
     7
370
    25
100
AcDbCircle
 10
2202.2492094709
 20
1623.338768495
 30
0.0
 40
0.7875000000001106
100
AcDbArc
 50
163.3417582272
 51
256.6582417728
  0
ARC
  5
1E5
330
1F
100
AcDbEntity
  8
0
  6
Continuous
 62
     7
370
    25
100
AcDbCircle
 10
2201.0636452742
 20
1623.6935131714
 30
0.0
 40
0.449999999999861
100
AcDbArc
 50
343.3417582272
 51
60.0
  0
ARC
  5
1E6
330
1F
100
AcDbEntity
  8
0
  6
Continuous
 62
     7
370
    25
100
AcDbCircle
 10
2201.9636452742
 20
1622.1346674446
 30
0.0
 40
0.4499999999999651
100
AcDbArc
 50
0.0
 51
76.6582417728
  0
ARC
  5
1E7
330
1F
100
AcDbEntity
  8
0
  6
Continuous
 62
     7
370
    25
100
AcDbCircle
 10
2199.2636452742
 20
1620.5758217178
 30
0.0
 40
0.4500000000000416
100
AcDbArc
 50
240.0
 51
316.6582417727
  0
ARC
  5
1E8
330
1F
100
AcDbEntity
  8
0
  6
Continuous
 62
     7
370
    25
100
AcDbCircle
 10
2200.1636452742
 20
1619.7264653438
 30
0.0
 40
0.7875000000003096
100
AcDbArc
 50
43.3417582272
 51
136.6582417728
  0
ARC
  5
1E9
330
1F
100
AcDbEntity
  8
0
  6
Continuous
 62
     7
370
    25
100
AcDbCircle
 10
2201.0636452742
 20
1620.5758217178
 30
0.0
 40
0.4500000000003043
100
AcDbArc
 50
223.3417582272
 51
300.0
  0
ARC
  5
1EA
330
1F
100
AcDbEntity
  8
0
  6
Continuous
 62
     7
370
    25
100
AcDbCircle
 10
2200.1636452742
 20
-1287.8653325554
 30
0.0
 40
2.250000000000314
100
AcDbArc
 50
240.0
 51
300.0
  0
ARC
  5
1EB
330
1F
100
AcDbEntity
  8
0
  6
Continuous
 62
     7
370
    25
100
AcDbCircle
 10
2199.2636452742
 20
-1289.4241782822
 30
0.0
 40
0.4500000000000416
100
AcDbArc
 50
240.0
 51
316.6582417728
  0
ARC
  5
1EC
330
1F
100
AcDbEntity
  8
0
  6
Continuous
 62
     7
370
    25
100
AcDbCircle
 10
2201.0636452742
 20
-1289.4241782822
 30
0.0
 40
0.4500000000003043
100
AcDbArc
 50
223.3417582272
 51
300.0
  0
ARC
  5
1ED
330
1F
100
AcDbEntity
  8
0
  6
Continuous
 62
     7
370
    25
100
AcDbCircle
 10
2200.1636452742
 20
-1290.2735346562
 30
0.0
 40
0.7875000000003096
100
AcDbArc
 50
43.3417582272
 51
136.6582417728
  0
ARC
  5
1EE
330
1F
100
AcDbEntity
  8
0
  6
Continuous
 62
     7
370
    25
100
AcDbCircle
 10
2200.1636452742
 20
-1287.8653325554
 30
0.0
 40
2.250000000000455
100
AcDbArc
 50
180.0
 51
240.0
  0
ARC
  5
1EF
330
1F
100
AcDbEntity
  8
0
  6
Continuous
 62
     7
370
    25
100
AcDbCircle
 10
2200.1636452742
 20
-1287.8653325554
 30
0.0
 40
2.250000000000086
100
AcDbArc
 50
300.0
 51
0.0
  0
ARC
  5
1F0
330
1F
100
AcDbEntity
  8
0
  6
Continuous
 62
     7
370
    25
100
AcDbCircle
 10
2200.1636452742
 20
-1287.8653325554
 30
0.0
 40
2.25
100
AcDbArc
 50
0.0
 51
60.0
  0
ARC
  5
1F1
330
1F
100
AcDbEntity
  8
0
  6
Continuous
 62
     7
370
    25
100
AcDbCircle
 10
2200.1636452742
 20
-1287.8653325554
 30
0.0
 40
2.250000000000117
100
AcDbArc
 50
60.0
 51
120.0
  0
ARC
  5
1F2
330
1F
100
AcDbEntity
  8
0
  6
Continuous
 62
     7
370
    25
100
AcDbCircle
 10
2200.1636452742
 20
-1287.8653325554
 30
0.0
 40
2.250000000000455
100
AcDbArc
 50
120.0
 51
180.0
  0
CIRCLE
  5
1F3
330
1F
100
AcDbEntity
  8
0
  6
Continuous
 62
     7
370
    25
100
AcDbCircle
 10
2200.1636452742
 20
-1287.8653325554
 30
0.0
 40
3.849999999999909
  0
ARC
  5
1F4
330
1F
100
AcDbEntity
  8
0
  6
Continuous
 62
     7
370
    25
100
AcDbCircle
 10
2198.3636452742
 20
-1287.8653325554
 30
0.0
 40
0.4500000000007276
100
AcDbArc
 50
180.0
 51
256.6582417728
  0
ARC
  5
1F5
330
1F
100
AcDbEntity
  8
0
  6
Continuous
 62
     7
370
    25
100
AcDbCircle
 10
2198.0780810775
 20
-1289.0694336058
 30
0.0
 40
0.787500000000852
100
AcDbArc
 50
343.3417582272
 51
76.6582417727
  0
ARC
  5
1F6
330
1F
100
AcDbEntity
  8
0
  6
Continuous
 62
     7
370
    25
100
AcDbCircle
 10
2199.2636452742
 20
-1289.4241782822
 30
0.0
 40
0.4500000000000416
100
AcDbArc
 50
163.3417582272
 51
240.0
  0
ARC
  5
1F7
330
1F
100
AcDbEntity
  8
0
  6
Continuous
 62
     7
370
    25
100
AcDbCircle
 10
2199.2636452742
 20
-1286.3064868286
 30
0.0
 40
0.4500000000002315
100
AcDbArc
 50
120.0000000001
 51
196.6582417728
  0
ARC
  5
1F8
330
1F
100
AcDbEntity
  8
0
  6
Continuous
 62
     7
370
    25
100
AcDbCircle
 10
2198.3636452742
 20
-1287.8653325554
 30
0.0
 40
0.4500000000007276
100
AcDbArc
 50
103.3417582272
 51
180.0
  0
ARC
  5
1F9
330
1F
100
AcDbEntity
  8
0
  6
Continuous
 62
     7
370
    25
100
AcDbCircle
 10
2198.0780810775
 20
-1286.661231505
 30
0.0
 40
0.7875000000003204
100
AcDbArc
 50
283.3417582273
 51
16.6582417728
  0
ARC
  5
1FA
330
1F
100
AcDbEntity
  8
0
  6
Continuous
 62
     7
370
    25
100
AcDbCircle
 10
2202.2492094709
 20
-1289.0694336058
 30
0.0
 40
0.7875000000001106
100
AcDbArc
 50
103.3417582272
 51
196.6582417728
  0
ARC
  5
1FB
330
1F
100
AcDbEntity
  8
0
  6
Continuous
 62
     7
370
    25
100
AcDbCircle
 10
2201.9636452742
 20
-1287.8653325554
 30
0.0
 40
0.4499999999999651
100
AcDbArc
 50
283.3417582272
 51
0.0
  0
ARC
  5
1FC
330
1F
100
AcDbEntity
  8
0
  6
Continuous
 62
     7
370
    25
100
AcDbCircle
 10
2201.0636452742
 20
-1289.4241782822
 30
0.0
 40
0.4499999999995869
100
AcDbArc
 50
300.0
 51
16.6582417728
  0
ARC
  5
1FD
330
1F
100
AcDbEntity
  8
0
  6
Continuous
 62
     7
370
    25
100
AcDbCircle
 10
2201.0636452742
 20
-1286.3064868286
 30
0.0
 40
0.4499999999995869
100
AcDbArc
 50
343.3417582272
 51
60.0
  0
ARC
  5
1FE
330
1F
100
AcDbEntity
  8
0
  6
Continuous
 62
     7
370
    25
100
AcDbCircle
 10
2201.9636452742
 20
-1287.8653325554
 30
0.0
 40
0.4499999999998181
100
AcDbArc
 50
0.0
 51
76.6582417728
  0
ARC
  5
1FF
330
1F
100
AcDbEntity
  8
0
  6
Continuous
 62
     7
370
    25
100
AcDbCircle
 10
2202.2492094709
 20
-1286.661231505
 30
0.0
 40
0.7875000000001106
100
AcDbArc
 50
163.3417582272
 51
256.6582417728
  0
ARC
  5
200
330
1F
100
AcDbEntity
  8
0
  6
Continuous
 62
     7
370
    25
100
AcDbCircle
 10
2199.2636452742
 20
-1286.3064868286
 30
0.0
 40
0.4500000000000416
100
AcDbArc
 50
43.3417582272
 51
120.0000000001
  0
ARC
  5
201
330
1F
100
AcDbEntity
  8
0
  6
Continuous
 62
     7
370
    25
100
AcDbCircle
 10
2200.1636452742
 20
-1285.4571304546
 30
0.0
 40
0.7875000000003096
100
AcDbArc
 50
223.3417582272
 51
316.6582417728
  0
ARC
  5
202
330
1F
100
AcDbEntity
  8
0
  6
Continuous
 62
     7
370
    25
100
AcDbCircle
 10
2201.0636452742
 20
-1286.3064868286
 30
0.0
 40
0.4500000000003043
100
AcDbArc
 50
60.0
 51
136.6582417729
  0
ARC
  5
203
330
1F
100
AcDbEntity
  8
0
  6
Continuous
 62
     7
370
    25
100
AcDbCircle
 10
-709.8363547258
 20
1312.1346674446
 30
0.0
 40
2.250000000000002
100
AcDbArc
 50
83.3408726871
 51
143.3408726871
  0
ARC
  5
204
330
1F
100
AcDbEntity
  8
0
  6
Continuous
 62
     7
370
    25
100
AcDbCircle
 10
-709.8363547258
 20
1312.1346674446
 30
0.0
 40
2.249999999999984
100
AcDbArc
 50
143.3408726871
 51
203.3408726871
  0
ARC
  5
205
330
1F
100
AcDbEntity
  8
0
  6
Continuous
 62
     7
370
    25
100
AcDbCircle
 10
-709.8363547258
 20
1312.1346674446
 30
0.0
 40
2.249999999999989
100
AcDbArc
 50
203.3408726871
 51
263.3408726871
  0
ARC
  5
206
330
1F
100
AcDbEntity
  8
0
  6
Continuous
 62
     7
370
    25
100
AcDbCircle
 10
-709.8363547258
 20
1312.1346674446
 30
0.0
 40
2.250000000000036
100
AcDbArc
 50
263.3408726871
 51
323.3408726871
  0
ARC
  5
207
330
1F
100
AcDbEntity
  8
0
  6
Continuous
 62
     7
370
    25
100
AcDbCircle
 10
-709.8363547258
 20
1312.1346674446
 30
0.0
 40
2.250000000000088
100
AcDbArc
 50
323.3408726871
 51
23.3408726871
  0
ARC
  5
208
330
1F
100
AcDbEntity
  8
0
  6
Continuous
 62
     7
370
    25
100
AcDbCircle
 10
-709.8363547258
 20
1312.1346674446
 30
0.0
 40
2.250000000000088
100
AcDbArc
 50
23.3408726871
 51
83.3408726871
  0
CIRCLE
  5
209
330
1F
100
AcDbEntity
  8
0
  6
Continuous
 62
     7
370
    25
100
AcDbCircle
 10
-709.8363547258
 20
1312.1346674446
 30
0.0
 40
3.849999999999859
  0
ARC
  5
20A
330
1F
100
AcDbEntity
  8
0
  6
Continuous
 62
     7
370
    25
100
AcDbCircle
 10
-711.2803179007
 20
1313.2093629128
 30
0.0
 40
0.449999999999943
100
AcDbArc
 50
143.3408726871
 51
219.9991144599
  0
ARC
  5
20B
330
1F
100
AcDbEntity
  8
0
  6
Continuous
 62
     7
370
    25
100
AcDbCircle
 10
-712.2283101931
 20
1312.4139278975
 30
0.0
 40
0.7875000000000695
100
AcDbArc
 50
306.6826309143
 51
39.9991144599
  0
ARC
  5
20C
330
1F
100
AcDbEntity
  8
0
  6
Continuous
 62
     7
370
    25
100
AcDbCircle
 10
-711.4890498901
 20
1311.4215063871
 30
0.0
 40
0.4500000000000954
100
AcDbArc
 50
126.6826309143
 51
203.3408726871
  0
ARC
  5
20D
330
1F
100
AcDbEntity
  8
0
  6
Continuous
 62
     7
370
    25
100
AcDbCircle
 10
-710.0450867152
 20
1310.3468109188
 30
0.0
 40
0.4500000000001386
100
AcDbArc
 50
263.3408726871
 51
339.9991144599
  0
ARC
  5
20E
330
1F
100
AcDbEntity
  8
0
  6
Continuous
 62
     7
370
    25
100
AcDbCircle
 10
-708.8822236386
 20
1309.9235430187
 30
0.0
 40
0.787500000000038
100
AcDbArc
 50
66.6826309143
 51
159.9991144599
  0
ARC
  5
20F
330
1F
100
AcDbEntity
  8
0
  6
Continuous
 62
     7
370
    25
100
AcDbCircle
 10
-708.3923915509
 20
1311.0599719763
 30
0.0
 40
0.4499999999998985
100
AcDbArc
 50
246.6826309143
 51
323.3408726871
  0
ARC
  5
210
330
1F
100
AcDbEntity
  8
0
  6
Continuous
 62
     7
370
    25
100
AcDbCircle
 10
-708.1836595615
 20
1312.8478285021
 30
0.0
 40
0.4500000000000812
100
AcDbArc
 50
306.6826309143
 51
23.3408726872
  0
ARC
  5
211
330
1F
100
AcDbEntity
  8
0
  6
Continuous
 62
     7
370
    25
100
AcDbCircle
 10
-707.4443992585
 20
1311.8554069916
 30
0.0
 40
0.7875000000002157
100
AcDbArc
 50
126.6826309143
 51
219.9991144599
  0
ARC
  5
212
330
1F
100
AcDbEntity
  8
0
  6
Continuous
 62
     7
370
    25
100
AcDbCircle
 10
-708.3923915509
 20
1311.0599719763
 30
0.0
 40
0.4499999999999651
100
AcDbArc
 50
323.3408726871
 51
39.9991144599
  0
ARC
  5
213
330
1F
100
AcDbEntity
  8
0
  6
Continuous
 62
     7
370
    25
100
AcDbCircle
 10
-711.274179106
 20
1310.2028034716
 30
0.0
 40
0.7875000000001291
100
AcDbArc
 50
6.6826309144
 51
99.9991144599
  0
ARC
  5
214
330
1F
100
AcDbEntity
  8
0
  6
Continuous
 62
     7
370
    25
100
AcDbCircle
 10
-710.0450867152
 20
1310.3468109188
 30
0.0
 40
0.4500000000001386
100
AcDbArc
 50
186.6826309143
 51
263.3408726871
  0
ARC
  5
215
330
1F
100
AcDbEntity
  8
0
  6
Continuous
 62
     7
370
    25
100
AcDbCircle
 10
-711.4890498901
 20
1311.4215063871
 30
0.0
 40
0.4500000000000954
100
AcDbArc
 50
203.3408726871
 51
279.9991144599
  0
ARC
  5
216
330
1F
100
AcDbEntity
  8
0
  6
Continuous
 62
     7
370
    25
100
AcDbCircle
 10
-709.6276227364
 20
1313.9225239703
 30
0.0
 40
0.4500000000001255
100
AcDbArc
 50
6.6826309143
 51
83.3408726871
  0
ARC
  5
217
330
1F
100
AcDbEntity
  8
0
  6
Continuous
 62
     7
370
    25
100
AcDbCircle
 10
-708.3985303456
 20
1314.0665314175
 30
0.0
 40
0.7874999999999248
100
AcDbArc
 50
186.6826309143
 51
279.9991144599
  0
ARC
  5
218
330
1F
100
AcDbEntity
  8
0
  6
Continuous
 62
     7
370
    25
100
AcDbCircle
 10
-708.1836595615
 20
1312.8478285021
 30
0.0
 40
0.4500000000002102
100
AcDbArc
 50
23.3408726872
 51
99.9991144599
  0
ARC
  5
219
330
1F
100
AcDbEntity
  8
0
  6
Continuous
 62
     7
370
    25
100
AcDbCircle
 10
-709.6276227364
 20
1313.9225239703
 30
0.0
 40
0.4500000000001255
100
AcDbArc
 50
83.3408726871
 51
159.9991144599
  0
ARC
  5
21A
330
1F
100
AcDbEntity
  8
0
  6
Continuous
 62
     7
370
    25
100
AcDbCircle
 10
-711.2803179007
 20
1313.2093629128
 30
0.0
 40
0.4500000000000849
100
AcDbArc
 50
66.6826309143
 51
143.3408726871
  0
ARC
  5
21B
330
1F
100
AcDbEntity
  8
0
  6
Continuous
 62
     7
370
    25
100
AcDbCircle
 10
-710.7904858129
 20
1314.3457918705
 30
0.0
 40
0.7874999999999311
100
AcDbArc
 50
246.6826309143
 51
339.9991144599
  0
ARC
  5
21C
330
1F
100
AcDbEntity
  8
0
  6
Continuous
 62
     7
370
    25
100
AcDbCircle
 10
2200.1636452742
 20
-977.8653325554
 30
0.0
 40
2.249999999999923
100
AcDbArc
 50
203.3408726871
 51
263.3408726871
  0
ARC
  5
21D
330
1F
100
AcDbEntity
  8
0
  6
Continuous
 62
     7
370
    25
100
AcDbCircle
 10
2198.5109501099
 20
-978.5784936129
 30
0.0
 40
0.4500000000004536
100
AcDbArc
 50
203.3408726871
 51
279.9991144598
  0
ARC
  5
21E
330
1F
100
AcDbEntity
  8
0
  6
Continuous
 62
     7
370
    25
100
AcDbCircle
 10
2199.9549132848
 20
-979.6531890812
 30
0.0
 40
0.4500000000002098
100
AcDbArc
 50
186.6826309143
 51
263.3408726872
  0
ARC
  5
21F
330
1F
100
AcDbEntity
  8
0
  6
Continuous
 62
     7
370
    25
100
AcDbCircle
 10
2198.725820894
 20
-979.7971965284
 30
0.0
 40
0.7875000000001487
100
AcDbArc
 50
6.6826309143
 51
99.9991144599
  0
ARC
  5
220
330
1F
100
AcDbEntity
  8
0
  6
Continuous
 62
     7
370
    25
100
AcDbCircle
 10
2200.1636452742
 20
-977.8653325554
 30
0.0
 40
2.250000000000218
100
AcDbArc
 50
83.3408726871
 51
143.3408726871
  0
ARC
  5
221
330
1F
100
AcDbEntity
  8
0
  6
Continuous
 62
     7
370
    25
100
AcDbCircle
 10
2200.3723772636
 20
-976.0774760297
 30
0.0
 40
0.4500000000000938
100
AcDbArc
 50
83.3408726871
 51
159.9991144599
  0
ARC
  5
222
330
1F
100
AcDbEntity
  8
0
  6
Continuous
 62
     7
370
    25
100
AcDbCircle
 10
2199.2095141871
 20
-975.6542081295
 30
0.0
 40
0.7875000000000769
100
AcDbArc
 50
246.6826309144
 51
339.9991144599
  0
ARC
  5
223
330
1F
100
AcDbEntity
  8
0
  6
Continuous
 62
     7
370
    25
100
AcDbCircle
 10
2198.7196820993
 20
-976.7906370872
 30
0.0
 40
0.4500000000002956
100
AcDbArc
 50
66.6826309142
 51
143.3408726871
  0
ARC
  5
224
330
1F
100
AcDbEntity
  8
0
  6
Continuous
 62
     7
370
    25
100
AcDbCircle
 10
2200.1636452742
 20
-977.8653325554
 30
0.0
 40
2.250000000000218
100
AcDbArc
 50
143.3408726871
 51
203.3408726871
  0
ARC
  5
225
330
1F
100
AcDbEntity
  8
0
  6
Continuous
 62
     7
370
    25
100
AcDbCircle
 10
2198.7196820993
 20
-976.7906370872
 30
0.0
 40
0.4499999999997161
100
AcDbArc
 50
143.3408726871
 51
219.9991144599
  0
ARC
  5
226
330
1F
100
AcDbEntity
  8
0
  6
Continuous
 62
     7
370
    25
100
AcDbCircle
 10
2197.7716898069
 20
-977.5860721025
 30
0.0
 40
0.7875000000000555
100
AcDbArc
 50
306.6826309144
 51
39.9991144599
  0
ARC
  5
227
330
1F
100
AcDbEntity
  8
0
  6
Continuous
 62
     7
370
    25
100
AcDbCircle
 10
2198.5109501099
 20
-978.5784936129
 30
0.0
 40
0.4500000000004536
100
AcDbArc
 50
126.6826309144
 51
203.3408726871
  0
ARC
  5
228
330
1F
100
AcDbEntity
  8
0
  6
Continuous
 62
     7
370
    25
100
AcDbCircle
 10
2200.1636452742
 20
-977.8653325554
 30
0.0
 40
2.250000000000193
100
AcDbArc
 50
323.3408726871
 51
23.3408726871
  0
ARC
  5
229
330
1F
100
AcDbEntity
  8
0
  6
Continuous
 62
     7
370
    25
100
AcDbCircle
 10
2201.8163404385
 20
-977.1521714979
 30
0.0
 40
0.4500000000001778
100
AcDbArc
 50
306.6826309144
 51
23.3408726871
  0
ARC
  5
22A
330
1F
100
AcDbEntity
  8
0
  6
Continuous
 62
     7
370
    25
100
AcDbCircle
 10
2202.5556007415
 20
-978.1445930084
 30
0.0
 40
0.7874999999997072
100
AcDbArc
 50
126.6826309143
 51
219.9991144599
  0
ARC
  5
22B
330
1F
100
AcDbEntity
  8
0
  6
Continuous
 62
     7
370
    25
100
AcDbCircle
 10
2201.6076084491
 20
-978.9400280237
 30
0.0
 40
0.4500000000001392
100
AcDbArc
 50
323.3408726871
 51
39.9991144599
  0
ARC
  5
22C
330
1F
100
AcDbEntity
  8
0
  6
Continuous
 62
     7
370
    25
100
AcDbCircle
 10
2200.1636452742
 20
-977.8653325554
 30
0.0
 40
2.249999999999923
100
AcDbArc
 50
263.3408726871
 51
323.3408726871
  0
ARC
  5
22D
330
1F
100
AcDbEntity
  8
0
  6
Continuous
 62
     7
370
    25
100
AcDbCircle
 10
2201.1177763614
 20
-980.0764569813
 30
0.0
 40
0.7875000000000033
100
AcDbArc
 50
66.6826309143
 51
159.9991144599
  0
ARC
  5
22E
330
1F
100
AcDbEntity
  8
0
  6
Continuous
 62
     7
370
    25
100
AcDbCircle
 10
2199.9549132848
 20
-979.6531890812
 30
0.0
 40
0.4500000000005211
100
AcDbArc
 50
263.3408726872
 51
339.9991144599
  0
ARC
  5
22F
330
1F
100
AcDbEntity
  8
0
  6
Continuous
 62
     7
370
    25
100
AcDbCircle
 10
2201.6076084491
 20
-978.9400280237
 30
0.0
 40
0.4499999999999356
100
AcDbArc
 50
246.6826309143
 51
323.3408726871
  0
ARC
  5
230
330
1F
100
AcDbEntity
  8
0
  6
Continuous
 62
     7
370
    25
100
AcDbCircle
 10
2200.1636452742
 20
-977.8653325554
 30
0.0
 40
2.250000000000193
100
AcDbArc
 50
23.3408726871
 51
83.3408726871
  0
ARC
  5
231
330
1F
100
AcDbEntity
  8
0
  6
Continuous
 62
     7
370
    25
100
AcDbCircle
 10
2201.6014696544
 20
-975.9334685825
 30
0.0
 40
0.7875000000000368
100
AcDbArc
 50
186.6826309143
 51
279.9991144599
  0
ARC
  5
232
330
1F
100
AcDbEntity
  8
0
  6
Continuous
 62
     7
370
    25
100
AcDbCircle
 10
2200.3723772636
 20
-976.0774760297
 30
0.0
 40
0.4500000000000389
100
AcDbArc
 50
6.6826309143
 51
83.3408726871
  0
ARC
  5
233
330
1F
100
AcDbEntity
  8
0
  6
Continuous
 62
     7
370
    25
100
AcDbCircle
 10
2201.8163404385
 20
-977.1521714979
 30
0.0
 40
0.4500000000000454
100
AcDbArc
 50
23.3408726871
 51
99.9991144599
  0
CIRCLE
  5
234
330
1F
100
AcDbEntity
  8
0
  6
Continuous
 62
     7
370
    25
100
AcDbCircle
 10
2200.1636452742
 20
-977.8653325554
 30
0.0
 40
3.849999999999806
  0
ARC
  5
235
330
1F
100
AcDbEntity
  8
0
  6
Continuous
 62
     7
370
    25
100
AcDbCircle
 10
1890.1636452742
 20
1622.1346674446
 30
0.0
 40
2.250000000000086
100
AcDbArc
 50
0.0
 51
60.0
  0
ARC
  5
236
330
1F
100
AcDbEntity
  8
0
  6
Continuous
 62
     7
370
    25
100
AcDbCircle
 10
1891.9636452742
 20
1622.1346674446
 30
0.0
 40
0.4500000000002728
100
AcDbArc
 50
0.0
 51
76.6582417727
  0
ARC
  5
237
330
1F
100
AcDbEntity
  8
0
  6
Continuous
 62
     7
370
    25
100
AcDbCircle
 10
1891.0636452742
 20
1623.6935131714
 30
0.0
 40
0.4500000000002967
100
AcDbArc
 50
343.3417582272
 51
60.0
  0
ARC
  5
238
330
1F
100
AcDbEntity
  8
0
  6
Continuous
 62
     7
370
    25
100
AcDbCircle
 10
1892.2492094709
 20
1623.338768495
 30
0.0
 40
0.787500000000163
100
AcDbArc
 50
163.3417582272
 51
256.6582417728
  0
ARC
  5
239
330
1F
100
AcDbEntity
  8
0
  6
Continuous
 62
     7
370
    25
100
AcDbCircle
 10
1890.1636452742
 20
1622.1346674446
 30
0.0
 40
2.25
100
AcDbArc
 50
180.0
 51
240.0
  0
ARC
  5
23A
330
1F
100
AcDbEntity
  8
0
  6
Continuous
 62
     7
370
    25
100
AcDbCircle
 10
1890.1636452742
 20
1622.1346674446
 30
0.0
 40
2.249999999999889
100
AcDbArc
 50
240.0
 51
300.0
  0
ARC
  5
23B
330
1F
100
AcDbEntity
  8
0
  6
Continuous
 62
     7
370
    25
100
AcDbCircle
 10
1890.1636452742
 20
1622.1346674446
 30
0.0
 40
2.25
100
AcDbArc
 50
300.0
 51
0.0
  0
ARC
  5
23C
330
1F
100
AcDbEntity
  8
0
  6
Continuous
 62
     7
370
    25
100
AcDbCircle
 10
1890.1636452742
 20
1622.1346674446
 30
0.0
 40
2.250000000000086
100
AcDbArc
 50
60.0
 51
120.0
  0
ARC
  5
23D
330
1F
100
AcDbEntity
  8
0
  6
Continuous
 62
     7
370
    25
100
AcDbCircle
 10
1890.1636452742
 20
1622.1346674446
 30
0.0
 40
2.250000000000086
100
AcDbArc
 50
120.0
 51
180.0
  0
CIRCLE
  5
23E
330
1F
100
AcDbEntity
  8
0
  6
Continuous
 62
     7
370
    25
100
AcDbCircle
 10
1890.1636452742
 20
1622.1346674446
 30
0.0
 40
3.849999999999909
  0
ARC
  5
23F
330
1F
100
AcDbEntity
  8
0
  6
Continuous
 62
     7
370
    25
100
AcDbCircle
 10
1890.1636452742
 20
1624.5428695454
 30
0.0
 40
0.7874999999999883
100
AcDbArc
 50
223.3417582272
 51
316.6582417728
  0
ARC
  5
240
330
1F
100
AcDbEntity
  8
0
  6
Continuous
 62
     7
370
    25
100
AcDbCircle
 10
1889.2636452742
 20
1623.6935131714
 30
0.0
 40
0.4499999999998142
100
AcDbArc
 50
43.3417582272
 51
120.0
  0
ARC
  5
241
330
1F
100
AcDbEntity
  8
0
  6
Continuous
 62
     7
370
    25
100
AcDbCircle
 10
1891.0636452742
 20
1623.6935131714
 30
0.0
 40
0.4499999999998142
100
AcDbArc
 50
60.0
 51
136.6582417728
  0
ARC
  5
242
330
1F
100
AcDbEntity
  8
0
  6
Continuous
 62
     7
370
    25
100
AcDbCircle
 10
1888.3636452742
 20
1622.1346674446
 30
0.0
 40
0.4500000000002728
100
AcDbArc
 50
180.0
 51
256.6582417728
  0
ARC
  5
243
330
1F
100
AcDbEntity
  8
0
  6
Continuous
 62
     7
370
    25
100
AcDbCircle
 10
1888.0780810775
 20
1620.9305663942
 30
0.0
 40
0.7875000000002154
100
AcDbArc
 50
343.3417582272
 51
76.6582417728
  0
ARC
  5
244
330
1F
100
AcDbEntity
  8
0
  6
Continuous
 62
     7
370
    25
100
AcDbCircle
 10
1889.2636452742
 20
1620.5758217178
 30
0.0
 40
0.4500000000002315
100
AcDbArc
 50
163.3417582272
 51
240.0
  0
ARC
  5
245
330
1F
100
AcDbEntity
  8
0
  6
Continuous
 62
     7
370
    25
100
AcDbCircle
 10
1888.0780810775
 20
1623.338768495
 30
0.0
 40
0.7874999999999942
100
AcDbArc
 50
283.3417582272
 51
16.6582417728
  0
ARC
  5
246
330
1F
100
AcDbEntity
  8
0
  6
Continuous
 62
     7
370
    25
100
AcDbCircle
 10
1888.3636452742
 20
1622.1346674446
 30
0.0
 40
0.4500000000002728
100
AcDbArc
 50
103.3417582272
 51
180.0
  0
ARC
  5
247
330
1F
100
AcDbEntity
  8
0
  6
Continuous
 62
     7
370
    25
100
AcDbCircle
 10
1889.2636452742
 20
1623.6935131714
 30
0.0
 40
0.4499999999998142
100
AcDbArc
 50
120.0
 51
196.6582417728
  0
ARC
  5
248
330
1F
100
AcDbEntity
  8
0
  6
Continuous
 62
     7
370
    25
100
AcDbCircle
 10
1891.0636452742
 20
1620.5758217178
 30
0.0
 40
0.4499999999998142
100
AcDbArc
 50
300.0
 51
16.6582417728
  0
ARC
  5
249
330
1F
100
AcDbEntity
  8
0
  6
Continuous
 62
     7
370
    25
100
AcDbCircle
 10
1891.9636452742
 20
1622.1346674446
 30
0.0
 40
0.4500000000002728
100
AcDbArc
 50
283.3417582273
 51
0.0
  0
ARC
  5
24A
330
1F
100
AcDbEntity
  8
0
  6
Continuous
 62
     7
370
    25
100
AcDbCircle
 10
1892.2492094709
 20
1620.9305663942
 30
0.0
 40
0.7875000000000458
100
AcDbArc
 50
103.3417582272
 51
196.6582417728
  0
ARC
  5
24B
330
1F
100
AcDbEntity
  8
0
  6
Continuous
 62
     7
370
    25
100
AcDbCircle
 10
1890.1636452742
 20
1619.7264653438
 30
0.0
 40
0.7875000000001443
100
AcDbArc
 50
43.3417582272
 51
136.6582417728
  0
ARC
  5
24C
330
1F
100
AcDbEntity
  8
0
  6
Continuous
 62
     7
370
    25
100
AcDbCircle
 10
1889.2636452742
 20
1620.5758217178
 30
0.0
 40
0.4499999999998142
100
AcDbArc
 50
240.0
 51
316.6582417728
  0
ARC
  5
24D
330
1F
100
AcDbEntity
  8
0
  6
Continuous
 62
     7
370
    25
100
AcDbCircle
 10
1891.0636452742
 20
1620.5758217178
 30
0.0
 40
0.4499999999998142
100
AcDbArc
 50
223.3417582272
 51
300.0
  0
ARC
  5
24E
330
1F
100
AcDbEntity
  8
0
  6
Continuous
 62
     7
370
    25
100
AcDbCircle
 10
-709.8363547258
 20
-977.8653325554
 30
0.0
 40
2.250000000000088
100
AcDbArc
 50
276.6591273129
 51
336.6591273129
  0
ARC
  5
24F
330
1F
100
AcDbEntity
  8
0
  6
Continuous
 62
     7
370
    25
100
AcDbCircle
 10
-709.8363547258
 20
-977.8653325554
 30
0.0
 40
2.250000000000088
100
AcDbArc
 50
336.6591273129
 51
36.6591273129
  0
ARC
  5
250
330
1F
100
AcDbEntity
  8
0
  6
Continuous
 62
     7
370
    25
100
AcDbCircle
 10
-709.8363547258
 20
-977.8653325554
 30
0.0
 40
2.250000000000036
100
AcDbArc
 50
36.6591273129
 51
96.6591273129
  0
ARC
  5
251
330
1F
100
AcDbEntity
  8
0
  6
Continuous
 62
     7
370
    25
100
AcDbCircle
 10
-709.8363547258
 20
-977.8653325554
 30
0.0
 40
2.249999999999989
100
AcDbArc
 50
96.6591273129
 51
156.6591273129
  0
ARC
  5
252
330
1F
100
AcDbEntity
  8
0
  6
Continuous
 62
     7
370
    25
100
AcDbCircle
 10
-709.8363547258
 20
-977.8653325554
 30
0.0
 40
2.249999999999984
100
AcDbArc
 50
156.6591273129
 51
216.6591273129
  0
ARC
  5
253
330
1F
100
AcDbEntity
  8
0
  6
Continuous
 62
     7
370
    25
100
AcDbCircle
 10
-709.8363547258
 20
-977.8653325554
 30
0.0
 40
2.250000000000002
100
AcDbArc
 50
216.6591273129
 51
276.6591273129
  0
CIRCLE
  5
254
330
1F
100
AcDbEntity
  8
0
  6
Continuous
 62
     7
370
    25
100
AcDbCircle
 10
-709.8363547258
 20
-977.8653325554
 30
0.0
 40
3.849999999999859
  0
ARC
  5
255
330
1F
100
AcDbEntity
  8
0
  6
Continuous
 62
     7
370
    25
100
AcDbCircle
 10
-711.2803179007
 20
-978.9400280237
 30
0.0
 40
0.449999999999878
100
AcDbArc
 50
140.0008855401
 51
216.6591273129
  0
ARC
  5
256
330
1F
100
AcDbEntity
  8
0
  6
Continuous
 62
     7
370
    25
100
AcDbCircle
 10
-712.2283101931
 20
-978.1445930084
 30
0.0
 40
0.7875000000001425
100
AcDbArc
 50
320.0008855401
 51
53.3173690857
  0
ARC
  5
257
330
1F
100
AcDbEntity
  8
0
  6
Continuous
 62
     7
370
    25
100
AcDbCircle
 10
-711.4890498901
 20
-977.1521714979
 30
0.0
 40
0.4500000000000954
100
AcDbArc
 50
156.6591273129
 51
233.3173690857
  0
ARC
  5
258
330
1F
100
AcDbEntity
  8
0
  6
Continuous
 62
     7
370
    25
100
AcDbCircle
 10
-711.274179106
 20
-975.9334685825
 30
0.0
 40
0.7875000000000171
100
AcDbArc
 50
260.0008855401
 51
353.3173690857
  0
ARC
  5
259
330
1F
100
AcDbEntity
  8
0
  6
Continuous
 62
     7
370
    25
100
AcDbCircle
 10
-711.4890498901
 20
-977.1521714979
 30
0.0
 40
0.4500000000000954
100
AcDbArc
 50
80.0008855401
 51
156.6591273129
  0
ARC
  5
25A
330
1F
100
AcDbEntity
  8
0
  6
Continuous
 62
     7
370
    25
100
AcDbCircle
 10
-710.0450867152
 20
-976.0774760297
 30
0.0
 40
0.4500000000000837
100
AcDbArc
 50
96.6591273129
 51
173.3173690857
  0
ARC
  5
25B
330
1F
100
AcDbEntity
  8
0
  6
Continuous
 62
     7
370
    25
100
AcDbCircle
 10
-708.3923915509
 20
-976.7906370872
 30
0.0
 40
0.4500000000000849
100
AcDbArc
 50
36.6591273129
 51
113.3173690857
  0
ARC
  5
25C
330
1F
100
AcDbEntity
  8
0
  6
Continuous
 62
     7
370
    25
100
AcDbCircle
 10
-708.8822236386
 20
-975.6542081295
 30
0.0
 40
0.7875000000000769
100
AcDbArc
 50
200.0008855401
 51
293.3173690857
  0
ARC
  5
25D
330
1F
100
AcDbEntity
  8
0
  6
Continuous
 62
     7
370
    25
100
AcDbCircle
 10
-710.0450867152
 20
-976.0774760297
 30
0.0
 40
0.4500000000000257
100
AcDbArc
 50
20.0008855401
 51
96.6591273129
  0
ARC
  5
25E
330
1F
100
AcDbEntity
  8
0
  6
Continuous
 62
     7
370
    25
100
AcDbCircle
 10
-708.1836595615
 20
-978.5784936129
 30
0.0
 40
0.4500000000001405
100
AcDbArc
 50
260.0008855401
 51
336.6591273129
  0
ARC
  5
25F
330
1F
100
AcDbEntity
  8
0
  6
Continuous
 62
     7
370
    25
100
AcDbCircle
 10
-709.6276227364
 20
-979.6531890812
 30
0.0
 40
0.4500000000001386
100
AcDbArc
 50
276.6591273129
 51
353.3173690857
  0
ARC
  5
260
330
1F
100
AcDbEntity
  8
0
  6
Continuous
 62
     7
370
    25
100
AcDbCircle
 10
-708.3985303456
 20
-979.7971965284
 30
0.0
 40
0.7875000000001487
100
AcDbArc
 50
80.0008855401
 51
173.3173690857
  0
ARC
  5
261
330
1F
100
AcDbEntity
  8
0
  6
Continuous
 62
     7
370
    25
100
AcDbCircle
 10
-711.2803179007
 20
-978.9400280237
 30
0.0
 40
0.4499999999999806
100
AcDbArc
 50
216.6591273129
 51
293.3173690857
  0
ARC
  5
262
330
1F
100
AcDbEntity
  8
0
  6
Continuous
 62
     7
370
    25
100
AcDbCircle
 10
-710.7904858129
 20
-980.0764569813
 30
0.0
 40
0.78749999999997
100
AcDbArc
 50
20.0008855401
 51
113.3173690857
  0
ARC
  5
263
330
1F
100
AcDbEntity
  8
0
  6
Continuous
 62
     7
370
    25
100
AcDbCircle
 10
-709.6276227364
 20
-979.6531890812
 30
0.0
 40
0.4500000000001386
100
AcDbArc
 50
200.0008855401
 51
276.6591273129
  0
ARC
  5
264
330
1F
100
AcDbEntity
  8
0
  6
Continuous
 62
     7
370
    25
100
AcDbCircle
 10
-708.3923915509
 20
-976.7906370872
 30
0.0
 40
0.4499999999999664
100
AcDbArc
 50
320.0008855401
 51
36.6591273129
  0
ARC
  5
265
330
1F
100
AcDbEntity
  8
0
  6
Continuous
 62
     7
370
    25
100
AcDbCircle
 10
-708.1836595615
 20
-978.5784936129
 30
0.0
 40
0.4500000000001405
100
AcDbArc
 50
336.6591273129
 51
53.3173690857
  0
ARC
  5
266
330
1F
100
AcDbEntity
  8
0
  6
Continuous
 62
     7
370
    25
100
AcDbCircle
 10
-707.4443992585
 20
-977.5860721025
 30
0.0
 40
0.7875000000001425
100
AcDbArc
 50
140.0008855401
 51
233.3173690857
  0
ARC
  5
267
330
1F
100
AcDbEntity
  8
0
  6
Continuous
 62
     7
370
    25
100
AcDbCircle
 10
-709.8363547258
 20
1622.1346674446
 30
0.0
 40
2.250000000000086
100
AcDbArc
 50
120.0
 51
180.0
  0
ARC
  5
268
330
1F
100
AcDbEntity
  8
0
  6
Continuous
 62
     7
370
    25
100
AcDbCircle
 10
-710.7363547258
 20
1623.6935131714
 30
0.0
 40
0.4500000000000137
100
AcDbArc
 50
120.0
 51
196.6582417728
  0
ARC
  5
269
330
1F
100
AcDbEntity
  8
0
  6
Continuous
 62
     7
370
    25
100
AcDbCircle
 10
-711.9219189225
 20
1623.338768495
 30
0.0
 40
0.7875000000001892
100
AcDbArc
 50
283.3417582272
 51
16.6582417728
  0
ARC
  5
26A
330
1F
100
AcDbEntity
  8
0
  6
Continuous
 62
     7
370
    25
100
AcDbCircle
 10
-711.6363547258
 20
1622.1346674446
 30
0.0
 40
0.4499999999999651
100
AcDbArc
 50
103.3417582272
 51
180.0
  0
ARC
  5
26B
330
1F
100
AcDbEntity
  8
0
  6
Continuous
 62
     7
370
    25
100
AcDbCircle
 10
-709.8363547258
 20
1622.1346674446
 30
0.0
 40
2.250000000000143
100
AcDbArc
 50
0.0
 51
60.0
  0
ARC
  5
26C
330
1F
100
AcDbEntity
  8
0
  6
Continuous
 62
     7
370
    25
100
AcDbCircle
 10
-708.0363547258
 20
1622.1346674446
 30
0.0
 40
0.4500000000001863
100
AcDbArc
 50
0.0
 51
76.6582417728
  0
ARC
  5
26D
330
1F
100
AcDbEntity
  8
0
  6
Continuous
 62
     7
370
    25
100
AcDbCircle
 10
-707.7507905291
 20
1623.338768495
 30
0.0
 40
0.7874999999999807
100
AcDbArc
 50
163.3417582272
 51
256.6582417728
  0
ARC
  5
26E
330
1F
100
AcDbEntity
  8
0
  6
Continuous
 62
     7
370
    25
100
AcDbCircle
 10
-708.9363547258
 20
1623.6935131714
 30
0.0
 40
0.4500000000000137
100
AcDbArc
 50
343.3417582272
 51
60.0
  0
ARC
  5
26F
330
1F
100
AcDbEntity
  8
0
  6
Continuous
 62
     7
370
    25
100
AcDbCircle
 10
-709.8363547258
 20
1622.1346674446
 30
0.0
 40
2.25
100
AcDbArc
 50
300.0
 51
0.0
  0
ARC
  5
270
330
1F
100
AcDbEntity
  8
0
  6
Continuous
 62
     7
370
    25
100
AcDbCircle
 10
-708.9363547258
 20
1620.5758217178
 30
0.0
 40
0.4500000000000137
100
AcDbArc
 50
300.0
 51
16.6582417728
  0
ARC
  5
271
330
1F
100
AcDbEntity
  8
0
  6
Continuous
 62
     7
370
    25
100
AcDbCircle
 10
-707.7507905291
 20
1620.9305663942
 30
0.0
 40
0.7875000000002154
100
AcDbArc
 50
103.3417582272
 51
196.6582417728
  0
ARC
  5
272
330
1F
100
AcDbEntity
  8
0
  6
Continuous
 62
     7
370
    25
100
AcDbCircle
 10
-708.0363547258
 20
1622.1346674446
 30
0.0
 40
0.4499999999999318
100
AcDbArc
 50
283.3417582272
 51
0.0
  0
ARC
  5
273
330
1F
100
AcDbEntity
  8
0
  6
Continuous
 62
     7
370
    25
100
AcDbCircle
 10
-709.8363547258
 20
1622.1346674446
 30
0.0
 40
2.249999999999886
100
AcDbArc
 50
180.0
 51
240.0
  0
ARC
  5
274
330
1F
100
AcDbEntity
  8
0
  6
Continuous
 62
     7
370
    25
100
AcDbCircle
 10
-711.6363547258
 20
1622.1346674446
 30
0.0
 40
0.4499999999999318
100
AcDbArc
 50
180.0
 51
256.6582417728
  0
ARC
  5
275
330
1F
100
AcDbEntity
  8
0
  6
Continuous
 62
     7
370
    25
100
AcDbCircle
 10
-711.9219189225
 20
1620.9305663942
 30
0.0
 40
0.7875000000001892
100
AcDbArc
 50
343.3417582272
 51
76.6582417728
  0
ARC
  5
276
330
1F
100
AcDbEntity
  8
0
  6
Continuous
 62
     7
370
    25
100
AcDbCircle
 10
-710.7363547258
 20
1620.5758217178
 30
0.0
 40
0.4499999999999485
100
AcDbArc
 50
163.3417582272
 51
240.0
  0
ARC
  5
277
330
1F
100
AcDbEntity
  8
0
  6
Continuous
 62
     7
370
    25
100
AcDbCircle
 10
-709.8363547258
 20
1622.1346674446
 30
0.0
 40
2.250000000000143
100
AcDbArc
 50
60.0
 51
120.0
  0
ARC
  5
278
330
1F
100
AcDbEntity
  8
0
  6
Continuous
 62
     7
370
    25
100
AcDbCircle
 10
-709.8363547258
 20
1624.5428695454
 30
0.0
 40
0.7874999999999055
100
AcDbArc
 50
223.3417582272
 51
316.6582417728
  0
ARC
  5
279
330
1F
100
AcDbEntity
  8
0
  6
Continuous
 62
     7
370
    25
100
AcDbCircle
 10
-708.9363547258
 20
1623.6935131714
 30
0.0
 40
0.449999999999891
100
AcDbArc
 50
60.0
 51
136.6582417728
  0
ARC
  5
27A
330
1F
100
AcDbEntity
  8
0
  6
Continuous
 62
     7
370
    25
100
AcDbCircle
 10
-710.7363547258
 20
1623.6935131714
 30
0.0
 40
0.449999999999891
100
AcDbArc
 50
43.3417582272
 51
120.0
  0
ARC
  5
27B
330
1F
100
AcDbEntity
  8
0
  6
Continuous
 62
     7
370
    25
100
AcDbCircle
 10
-709.8363547258
 20
1622.1346674446
 30
0.0
 40
2.249999999999946
100
AcDbArc
 50
240.0
 51
300.0
  0
CIRCLE
  5
27C
330
1F
100
AcDbEntity
  8
0
  6
Continuous
 62
     7
370
    25
100
AcDbCircle
 10
-709.8363547258
 20
1622.1346674446
 30
0.0
 40
3.850000000000023
  0
ARC
  5
27D
330
1F
100
AcDbEntity
  8
0
  6
Continuous
 62
     7
370
    25
100
AcDbCircle
 10
-710.7363547258
 20
1620.5758217178
 30
0.0
 40
0.449999999999891
100
AcDbArc
 50
240.0
 51
316.6582417728
  0
ARC
  5
27E
330
1F
100
AcDbEntity
  8
0
  6
Continuous
 62
     7
370
    25
100
AcDbCircle
 10
-708.9363547258
 20
1620.5758217178
 30
0.0
 40
0.449999999999891
100
AcDbArc
 50
223.3417582272
 51
300.0
  0
ARC
  5
27F
330
1F
100
AcDbEntity
  8
0
  6
Continuous
 62
     7
370
    25
100
AcDbCircle
 10
-709.8363547258
 20
1619.7264653438
 30
0.0
 40
0.7875000000000616
100
AcDbArc
 50
43.3417582272
 51
136.6582417728
  0
ARC
  5
280
330
1F
100
AcDbEntity
  8
0
  6
Continuous
 62
     7
370
    25
100
AcDbCircle
 10
-399.8363547258
 20
1622.1346674446
 30
0.0
 40
2.25
100
AcDbArc
 50
180.0
 51
240.0
  0
ARC
  5
281
330
1F
100
AcDbEntity
  8
0
  6
Continuous
 62
     7
370
    25
100
AcDbCircle
 10
-401.6363547258
 20
1622.1346674446
 30
0.0
 40
0.4499999999999886
100
AcDbArc
 50
180.0
 51
256.6582417728
  0
ARC
  5
282
330
1F
100
AcDbEntity
  8
0
  6
Continuous
 62
     7
370
    25
100
AcDbCircle
 10
-400.7363547258
 20
1620.5758217178
 30
0.0
 40
0.4499999999999485
100
AcDbArc
 50
163.3417582272
 51
240.0
  0
ARC
  5
283
330
1F
100
AcDbEntity
  8
0
  6
Continuous
 62
     7
370
    25
100
AcDbCircle
 10
-401.9219189225
 20
1620.9305663942
 30
0.0
 40
0.7875000000002023
100
AcDbArc
 50
343.3417582272
 51
76.6582417728
  0
ARC
  5
284
330
1F
100
AcDbEntity
  8
0
  6
Continuous
 62
     7
370
    25
100
AcDbCircle
 10
-399.8363547258
 20
1622.1346674446
 30
0.0
 40
2.250000000000058
100
AcDbArc
 50
0.0
 51
60.0
  0
ARC
  5
285
330
1F
100
AcDbEntity
  8
0
  6
Continuous
 62
     7
370
    25
100
AcDbCircle
 10
-399.8363547258
 20
1622.1346674446
 30
0.0
 40
2.250000000000115
100
AcDbArc
 50
60.0
 51
120.0
  0
ARC
  5
286
330
1F
100
AcDbEntity
  8
0
  6
Continuous
 62
     7
370
    25
100
AcDbCircle
 10
-399.8363547258
 20
1622.1346674446
 30
0.0
 40
2.250000000000115
100
AcDbArc
 50
120.0
 51
180.0
  0
ARC
  5
287
330
1F
100
AcDbEntity
  8
0
  6
Continuous
 62
     7
370
    25
100
AcDbCircle
 10
-399.8363547258
 20
1622.1346674446
 30
0.0
 40
2.249999999999918
100
AcDbArc
 50
240.0
 51
300.0
  0
ARC
  5
288
330
1F
100
AcDbEntity
  8
0
  6
Continuous
 62
     7
370
    25
100
AcDbCircle
 10
-399.8363547258
 20
1622.1346674446
 30
0.0
 40
2.249999999999943
100
AcDbArc
 50
300.0
 51
0.0
  0
CIRCLE
  5
289
330
1F
100
AcDbEntity
  8
0
  6
Continuous
 62
     7
370
    25
100
AcDbCircle
 10
-399.8363547258
 20
1622.1346674446
 30
0.0
 40
3.850000000000023
  0
ARC
  5
28A
330
1F
100
AcDbEntity
  8
0
  6
Continuous
 62
     7
370
    25
100
AcDbCircle
 10
-398.9363547258
 20
1623.6935131714
 30
0.0
 40
0.4499999999998496
100
AcDbArc
 50
60.0
 51
136.6582417728
  0
ARC
  5
28B
330
1F
100
AcDbEntity
  8
0
  6
Continuous
 62
     7
370
    25
100
AcDbCircle
 10
-399.8363547258
 20
1624.5428695454
 30
0.0
 40
0.7874999999998642
100
AcDbArc
 50
223.3417582272
 51
316.6582417728
  0
ARC
  5
28C
330
1F
100
AcDbEntity
  8
0
  6
Continuous
 62
     7
370
    25
100
AcDbCircle
 10
-400.7363547258
 20
1623.6935131714
 30
0.0
 40
0.449999999999891
100
AcDbArc
 50
43.3417582272
 51
120.0
  0
ARC
  5
28D
330
1F
100
AcDbEntity
  8
0
  6
Continuous
 62
     7
370
    25
100
AcDbCircle
 10
-398.0363547258
 20
1622.1346674446
 30
0.0
 40
0.4500000000001732
100
AcDbArc
 50
0.0
 51
76.6582417728
  0
ARC
  5
28E
330
1F
100
AcDbEntity
  8
0
  6
Continuous
 62
     7
370
    25
100
AcDbCircle
 10
-397.7507905291
 20
1623.338768495
 30
0.0
 40
0.787499999999968
100
AcDbArc
 50
163.3417582272
 51
256.6582417728
  0
ARC
  5
28F
330
1F
100
AcDbEntity
  8
0
  6
Continuous
 62
     7
370
    25
100
AcDbCircle
 10
-398.9363547258
 20
1623.6935131714
 30
0.0
 40
0.4500000000000681
100
AcDbArc
 50
343.3417582272
 51
60.0
  0
ARC
  5
290
330
1F
100
AcDbEntity
  8
0
  6
Continuous
 62
     7
370
    25
100
AcDbCircle
 10
-398.9363547258
 20
1620.5758217178
 30
0.0
 40
0.4500000000000681
100
AcDbArc
 50
300.0
 51
16.6582417728
  0
ARC
  5
291
330
1F
100
AcDbEntity
  8
0
  6
Continuous
 62
     7
370
    25
100
AcDbCircle
 10
-398.0363547258
 20
1622.1346674446
 30
0.0
 40
0.4499999999999318
100
AcDbArc
 50
283.3417582272
 51
0.0
  0
ARC
  5
292
330
1F
100
AcDbEntity
  8
0
  6
Continuous
 62
     7
370
    25
100
AcDbCircle
 10
-397.7507905291
 20
1620.9305663942
 30
0.0
 40
0.7875000000001892
100
AcDbArc
 50
103.3417582272
 51
196.6582417728
  0
ARC
  5
293
330
1F
100
AcDbEntity
  8
0
  6
Continuous
 62
     7
370
    25
100
AcDbCircle
 10
-401.9219189225
 20
1623.338768495
 30
0.0
 40
0.7875000000002023
100
AcDbArc
 50
283.3417582272
 51
16.6582417728
  0
ARC
  5
294
330
1F
100
AcDbEntity
  8
0
  6
Continuous
 62
     7
370
    25
100
AcDbCircle
 10
-401.6363547258
 20
1622.1346674446
 30
0.0
 40
0.4499999999999886
100
AcDbArc
 50
103.3417582272
 51
180.0
  0
ARC
  5
295
330
1F
100
AcDbEntity
  8
0
  6
Continuous
 62
     7
370
    25
100
AcDbCircle
 10
-400.7363547258
 20
1623.6935131714
 30
0.0
 40
0.4500000000000137
100
AcDbArc
 50
120.0
 51
196.6582417728
  0
ARC
  5
296
330
1F
100
AcDbEntity
  8
0
  6
Continuous
 62
     7
370
    25
100
AcDbCircle
 10
-398.9363547258
 20
1620.5758217178
 30
0.0
 40
0.4499999999998995
100
AcDbArc
 50
223.3417582272
 51
300.0
  0
ARC
  5
297
330
1F
100
AcDbEntity
  8
0
  6
Continuous
 62
     7
370
    25
100
AcDbCircle
 10
-399.8363547258
 20
1619.7264653438
 30
0.0
 40
0.7875000000000203
100
AcDbArc
 50
43.3417582272
 51
136.6582417728
  0
ARC
  5
298
330
1F
100
AcDbEntity
  8
0
  6
Continuous
 62
     7
370
    25
100
AcDbCircle
 10
-400.7363547258
 20
1620.5758217178
 30
0.0
 40
0.449999999999891
100
AcDbArc
 50
240.0
 51
316.6582417728
  0
ARC
  5
299
330
1F
100
AcDbEntity
  8
0
  6
Continuous
 62
     7
370
    25
100
AcDbCircle
 10
-709.8363547258
 20
-1287.8653325554
 30
0.0
 40
2.250000000000114
100
AcDbArc
 50
120.0
 51
180.0
  0
ARC
  5
29A
330
1F
100
AcDbEntity
  8
0
  6
Continuous
 62
     7
370
    25
100
AcDbCircle
 10
-710.7363547258
 20
-1286.3064868286
 30
0.0
 40
0.4500000000000574
100
AcDbArc
 50
120.0
 51
196.6582417728
  0
ARC
  5
29B
330
1F
100
AcDbEntity
  8
0
  6
Continuous
 62
     7
370
    25
100
AcDbCircle
 10
-711.9219189225
 20
-1286.661231505
 30
0.0
 40
0.7874999999999942
100
AcDbArc
 50
283.3417582272
 51
16.6582417728
  0
ARC
  5
29C
330
1F
100
AcDbEntity
  8
0
  6
Continuous
 62
     7
370
    25
100
AcDbCircle
 10
-711.6363547258
 20
-1287.8653325554
 30
0.0
 40
0.45000000000016
100
AcDbArc
 50
103.3417582272
 51
180.0
  0
ARC
  5
29D
330
1F
100
AcDbEntity
  8
0
  6
Continuous
 62
     7
370
    25
100
AcDbCircle
 10
-709.8363547258
 20
-1287.8653325554
 30
0.0
 40
2.250000000000114
100
AcDbArc
 50
180.0
 51
240.0
  0
ARC
  5
29E
330
1F
100
AcDbEntity
  8
0
  6
Continuous
 62
     7
370
    25
100
AcDbCircle
 10
-711.6363547258
 20
-1287.8653325554
 30
0.0
 40
0.4500000000000455
100
AcDbArc
 50
180.0
 51
256.6582417728
  0
ARC
  5
29F
330
1F
100
AcDbEntity
  8
0
  6
Continuous
 62
     7
370
    25
100
AcDbCircle
 10
-711.9219189225
 20
-1289.0694336058
 30
0.0
 40
0.7874999999999942
100
AcDbArc
 50
343.3417582272
 51
76.6582417728
  0
ARC
  5
2A0
330
1F
100
AcDbEntity
  8
0
  6
Continuous
 62
     7
370
    25
100
AcDbCircle
 10
-710.7363547258
 20
-1289.4241782822
 30
0.0
 40
0.4500000000001226
100
AcDbArc
 50
163.3417582272
 51
240.0
  0
ARC
  5
2A1
330
1F
100
AcDbEntity
  8
0
  6
Continuous
 62
     7
370
    25
100
AcDbCircle
 10
-709.8363547258
 20
-1287.8653325554
 30
0.0
 40
2.249999999999889
100
AcDbArc
 50
240.0
 51
300.0
  0
ARC
  5
2A2
330
1F
100
AcDbEntity
  8
0
  6
Continuous
 62
     7
370
    25
100
AcDbCircle
 10
-709.8363547258
 20
-1290.2735346562
 30
0.0
 40
0.7874999999999055
100
AcDbArc
 50
43.3417582272
 51
136.6582417728
  0
ARC
  5
2A3
330
1F
100
AcDbEntity
  8
0
  6
Continuous
 62
     7
370
    25
100
AcDbCircle
 10
-708.9363547258
 20
-1289.4241782822
 30
0.0
 40
0.4499999999999643
100
AcDbArc
 50
223.3417582272
 51
300.0
  0
ARC
  5
2A4
330
1F
100
AcDbEntity
  8
0
  6
Continuous
 62
     7
370
    25
100
AcDbCircle
 10
-710.7363547258
 20
-1289.4241782822
 30
0.0
 40
0.4499999999999643
100
AcDbArc
 50
240.0
 51
316.6582417728
  0
ARC
  5
2A5
330
1F
100
AcDbEntity
  8
0
  6
Continuous
 62
     7
370
    25
100
AcDbCircle
 10
-709.8363547258
 20
-1287.8653325554
 30
0.0
 40
2.25
100
AcDbArc
 50
0.0
 51
60.0
  0
ARC
  5
2A6
330
1F
100
AcDbEntity
  8
0
  6
Continuous
 62
     7
370
    25
100
AcDbCircle
 10
-707.7507905291
 20
-1286.661231505
 30
0.0
 40
0.7875000000001892
100
AcDbArc
 50
163.3417582272
 51
256.6582417728
  0
ARC
  5
2A7
330
1F
100
AcDbEntity
  8
0
  6
Continuous
 62
     7
370
    25
100
AcDbCircle
 10
-708.9363547258
 20
-1286.3064868286
 30
0.0
 40
0.4500000000001226
100
AcDbArc
 50
343.3417582272
 51
60.0
  0
ARC
  5
2A8
330
1F
100
AcDbEntity
  8
0
  6
Continuous
 62
     7
370
    25
100
AcDbCircle
 10
-708.0363547258
 20
-1287.8653325554
 30
0.0
 40
0.4499999999999388
100
AcDbArc
 50
0.0
 51
76.6582417728
  0
ARC
  5
2A9
330
1F
100
AcDbEntity
  8
0
  6
Continuous
 62
     7
370
    25
100
AcDbCircle
 10
-709.8363547258
 20
-1287.8653325554
 30
0.0
 40
2.249999999999889
100
AcDbArc
 50
60.0
 51
120.0
  0
ARC
  5
2AA
330
1F
100
AcDbEntity
  8
0
  6
Continuous
 62
     7
370
    25
100
AcDbCircle
 10
-709.8363547258
 20
-1287.8653325554
 30
0.0
 40
2.25
100
AcDbArc
 50
300.0
 51
0.0
  0
CIRCLE
  5
2AB
330
1F
100
AcDbEntity
  8
0
  6
Continuous
 62
     7
370
    25
100
AcDbCircle
 10
-709.8363547258
 20
-1287.8653325554
 30
0.0
 40
3.849999999999909
  0
ARC
  5
2AC
330
1F
100
AcDbEntity
  8
0
  6
Continuous
 62
     7
370
    25
100
AcDbCircle
 10
-708.9363547258
 20
-1289.4241782822
 30
0.0
 40
0.4500000000001663
100
AcDbArc
 50
300.0
 51
16.6582417728
  0
ARC
  5
2AD
330
1F
100
AcDbEntity
  8
0
  6
Continuous
 62
     7
370
    25
100
AcDbCircle
 10
-707.7507905291
 20
-1289.0694336058
 30
0.0
 40
0.7874999999999368
100
AcDbArc
 50
103.3417582272
 51
196.6582417728
  0
ARC
  5
2AE
330
1F
100
AcDbEntity
  8
0
  6
Continuous
 62
     7
370
    25
100
AcDbCircle
 10
-708.0363547258
 20
-1287.8653325554
 30
0.0
 40
0.45000000000016
100
AcDbArc
 50
283.3417582272
 51
0.0
  0
ARC
  5
2AF
330
1F
100
AcDbEntity
  8
0
  6
Continuous
 62
     7
370
    25
100
AcDbCircle
 10
-709.8363547258
 20
-1285.4571304546
 30
0.0
 40
0.7874999999999055
100
AcDbArc
 50
223.3417582272
 51
316.6582417728
  0
ARC
  5
2B0
330
1F
100
AcDbEntity
  8
0
  6
Continuous
 62
     7
370
    25
100
AcDbCircle
 10
-710.7363547258
 20
-1286.3064868286
 30
0.0
 40
0.4499999999999643
100
AcDbArc
 50
43.3417582272
 51
120.0
  0
ARC
  5
2B1
330
1F
100
AcDbEntity
  8
0
  6
Continuous
 62
     7
370
    25
100
AcDbCircle
 10
-708.9363547258
 20
-1286.3064868286
 30
0.0
 40
0.4499999999999643
100
AcDbArc
 50
60.0
 51
136.6582417728
  0
ARC
  5
2B2
330
1F
100
AcDbEntity
  8
0
  6
Continuous
 62
     7
370
    25
100
AcDbCircle
 10
2235.1636452742
 20
-942.9935587631
 30
0.0
 40
7.00000000000006
100
AcDbArc
 50
0.0
 51
91.4692835814
  0
LINE
  5
2B3
330
1F
100
AcDbEntity
  8
0
  6
Continuous
 62
     7
370
    25
100
AcDbLine
 10
2242.1636452742
 20
-1322.8653325554
 30
0.0
 11
2242.1636452742
 21
-942.9935587631
 31
0.0
  0
ARC
  5
2B4
330
1F
100
AcDbEntity
  8
0
  6
Continuous
 62
     7
370
    25
100
AcDbCircle
 10
2235.1636452742
 20
-1322.8653325554
 30
0.0
 40
7.000000000000227
100
AcDbArc
 50
270.0
 51
0.0
  0
LINE
  5
2B5
330
1F
100
AcDbEntity
  8
0
  6
Continuous
 62
     7
370
    25
100
AcDbLine
 10
1855.2918714819
 20
-1329.8653325554
 30
0.0
 11
2235.1636452742
 21
-1329.8653325554
 31
0.0
  0
ARC
  5
2B6
330
1F
100
AcDbEntity
  8
0
  6
Continuous
 62
     7
370
    25
100
AcDbCircle
 10
1855.2918714819
 20
-1322.8653325554
 30
0.0
 40
7.000000000000054
100
AcDbArc
 50
178.5307164186
 51
270.0
  0
ARC
  5
2B7
330
1F
100
AcDbEntity
  8
0
  6
Continuous
 62
     7
370
    25
100
AcDbCircle
 10
2245.1636452742
 20
-1332.8653325554
 30
0.0
 40
396.9999999999999
100
AcDbArc
 50
91.4692835814
 51
178.5307164186
  0
LINE
  5
2B8
330
1F
100
AcDbEntity
  8
0
  6
Continuous
 62
     7
370
    25
100
AcDbLine
 10
2235.1636452742
 20
-1332.8653325554
 30
0.0
 11
1855.2918714819
 21
-1332.8653325554
 31
0.0
  0
LINE
  5
2B9
330
1F
100
AcDbEntity
  8
0
  6
Continuous
 62
     7
370
    25
100
AcDbLine
 10
1855.2918714819
 20
-1332.8653325554
 30
0.0
 11
1855.2918714819
 21
-1329.8653325554
 31
0.0
  0
LINE
  5
2BA
330
1F
100
AcDbEntity
  8
0
  6
Continuous
 62
     7
370
    25
100
AcDbLine
 10
2235.1636452742
 20
-1332.8653325554
 30
0.0
 11
2235.1636452742
 21
-1329.8653325554
 31
0.0
  0
ARC
  5
2BB
330
1F
100
AcDbEntity
  8
0
  6
Continuous
 62
     7
370
    25
100
AcDbCircle
 10
1855.2918714819
 20
-1322.8653325554
 30
0.0
 40
10.0
100
AcDbArc
 50
178.5307164186
 51
270.0
  0
LINE
  5
2BC
330
1F
100
AcDbEntity
  8
0
  6
Continuous
 62
     7
370
    25
100
AcDbLine
 10
1848.2941729779
 20
-1322.6858453759
 30
0.0
 11
1845.2951593333
 21
-1322.608922299
 31
0.0
  0
ARC
  5
2BD
330
1F
100
AcDbEntity
  8
0
  6
Continuous
 62
     7
370
    25
100
AcDbCircle
 10
2245.1636452742
 20
-1332.8653325554
 30
0.0
 40
399.9999999999998
100
AcDbArc
 50
91.4692835814
 51
178.5307164186
  0
LINE
  5
2BE
330
1F
100
AcDbEntity
  8
0
  6
Continuous
 62
     7
370
    25
100
AcDbLine
 10
2234.9841580947
 20
-935.9958602591
 30
0.0
 11
2234.9072350178
 21
-932.9968466145
 31
0.0
  0
ARC
  5
2BF
330
1F
100
AcDbEntity
  8
0
  6
Continuous
 62
     7
370
    25
100
AcDbCircle
 10
2235.1636452742
 20
-1322.8653325554
 30
0.0
 40
10.0
100
AcDbArc
 50
270.0
 51
0.0
  0
LINE
  5
2C0
330
1F
100
AcDbEntity
  8
0
  6
Continuous
 62
     7
370
    25
100
AcDbLine
 10
2245.1636452742
 20
-1322.8653325554
 30
0.0
 11
2242.1636452742
 21
-1322.8653325554
 31
0.0
  0
ARC
  5
2C1
330
1F
100
AcDbEntity
  8
0
  6
Continuous
 62
     7
370
    25
100
AcDbCircle
 10
2235.1636452742
 20
-942.9935587631
 30
0.0
 40
10.0
100
AcDbArc
 50
0.0
 51
91.4692835814
  0
LINE
  5
2C2
330
1F
100
AcDbEntity
  8
0
  6
Continuous
 62
     7
370
    25
100
AcDbLine
 10
2242.1636452742
 20
-942.9935587631
 30
0.0
 11
2245.1636452742
 21
-942.9935587631
 31
0.0
  0
LINE
  5
2C3
330
1F
100
AcDbEntity
  8
0
  6
Continuous
 62
     7
370
    25
100
AcDbLine
 10
2245.1636452742
 20
-942.9935587631
 30
0.0
 11
2245.1636452742
 21
-1322.8653325554
 31
0.0
  0
LINE
  5
2C4
330
1F
100
AcDbEntity
  8
0
  6
Continuous
 62
     7
370
    25
100
AcDbLine
 10
2245.1636452742
 20
1657.1346674446
 30
0.0
 11
2245.1636452742
 21
1277.2628936522
 31
0.0
  0
LINE
  5
2C5
330
1F
100
AcDbEntity
  8
0
  6
Continuous
 62
     7
370
    25
100
AcDbLine
 10
2245.1636452742
 20
1277.2628936522
 30
0.0
 11
2242.1636452742
 21
1277.2628936522
 31
0.0
  0
LINE
  5
2C6
330
1F
100
AcDbEntity
  8
0
  6
Continuous
 62
     7
370
    25
100
AcDbLine
 10
2242.1636452742
 20
1277.2628936522
 30
0.0
 11
2242.1636452742
 21
1657.1346674446
 31
0.0
  0
LINE
  5
2C7
330
1F
100
AcDbEntity
  8
0
  6
Continuous
 62
     7
370
    25
100
AcDbLine
 10
2245.1636452742
 20
1657.1346674446
 30
0.0
 11
2242.1636452742
 21
1657.1346674446
 31
0.0
  0
ARC
  5
2C8
330
1F
100
AcDbEntity
  8
0
  6
Continuous
 62
     7
370
    25
100
AcDbCircle
 10
1855.2918714819
 20
1657.1346674446
 30
0.0
 40
7.00000000000006
100
AcDbArc
 50
90.0
 51
181.4692835814
  0
LINE
  5
2C9
330
1F
100
AcDbEntity
  8
0
  6
Continuous
 62
     7
370
    25
100
AcDbLine
 10
2235.1636452742
 20
1664.1346674446
 30
0.0
 11
1855.2918714819
 21
1664.1346674446
 31
0.0
  0
ARC
  5
2CA
330
1F
100
AcDbEntity
  8
0
  6
Continuous
 62
     7
370
    25
100
AcDbCircle
 10
2235.1636452742
 20
1657.1346674446
 30
0.0
 40
7.0
100
AcDbArc
 50
0.0
 51
90.0
  0
ARC
  5
2CB
330
1F
100
AcDbEntity
  8
0
  6
Continuous
 62
     7
370
    25
100
AcDbCircle
 10
2235.1636452742
 20
1277.2628936522
 30
0.0
 40
7.00000000000006
100
AcDbArc
 50
268.5307164186
 51
0.0
  0
ARC
  5
2CC
330
1F
100
AcDbEntity
  8
0
  6
Continuous
 62
     7
370
    25
100
AcDbCircle
 10
2245.1636452742
 20
1667.1346674446
 30
0.0
 40
396.9999999999999
100
AcDbArc
 50
181.4692835814
 51
268.5307164186
  0
ARC
  5
2CD
330
1F
100
AcDbEntity
  8
0
  6
Continuous
 62
     7
370
    25
100
AcDbCircle
 10
2235.1636452742
 20
1277.2628936522
 30
0.0
 40
10.00000000000019
100
AcDbArc
 50
268.5307164186
 51
0.0
  0
LINE
  5
2CE
330
1F
100
AcDbEntity
  8
0
  6
Continuous
 62
     7
370
    25
100
AcDbLine
 10
2234.9841580947
 20
1270.2651951483
 30
0.0
 11
2234.9072350178
 21
1267.2661815037
 31
0.0
  0
LINE
  5
2CF
330
1F
100
AcDbEntity
  8
0
  6
Continuous
 62
     7
370
    25
100
AcDbLine
 10
1848.2941729779
 20
1656.9551802651
 30
0.0
 11
1845.2951593333
 21
1656.8782571882
 31
0.0
  0
ARC
  5
2D0
330
1F
100
AcDbEntity
  8
0
  6
Continuous
 62
     7
370
    25
100
AcDbCircle
 10
1855.2918714819
 20
1657.1346674446
 30
0.0
 40
10.0
100
AcDbArc
 50
90.0
 51
181.4692835814
  0
LINE
  5
2D1
330
1F
100
AcDbEntity
  8
0
  6
Continuous
 62
     7
370
    25
100
AcDbLine
 10
1855.2918714819
 20
1664.1346674446
 30
0.0
 11
1855.2918714819
 21
1667.1346674446
 31
0.0
  0
LINE
  5
2D2
330
1F
100
AcDbEntity
  8
0
  6
Continuous
 62
     7
370
    25
100
AcDbLine
 10
1855.2918714819
 20
1667.1346674446
 30
0.0
 11
2235.1636452742
 21
1667.1346674446
 31
0.0
  0
LINE
  5
2D3
330
1F
100
AcDbEntity
  8
0
  6
Continuous
 62
     7
370
    25
100
AcDbLine
 10
2235.1636452742
 20
1667.1346674446
 30
0.0
 11
2235.1636452742
 21
1664.1346674446
 31
0.0
  0
ARC
  5
2D4
330
1F
100
AcDbEntity
  8
0
  6
Continuous
 62
     7
370
    25
100
AcDbCircle
 10
2245.1636452742
 20
1667.1346674446
 30
0.0
 40
400.0000000000001
100
AcDbArc
 50
181.4692835814
 51
268.5307164186
  0
ARC
  5
2D5
330
1F
100
AcDbEntity
  8
0
  6
Continuous
 62
     7
370
    25
100
AcDbCircle
 10
2235.1636452742
 20
1657.1346674446
 30
0.0
 40
10.0
100
AcDbArc
 50
0.0
 51
90.0
  0
ARC
  5
2D6
330
1F
100
AcDbEntity
  8
0
  6
Continuous
 62
     7
370
    25
100
AcDbCircle
 10
-754.8363547258
 20
-1332.8653325554
 30
0.0
 40
397.0000000000001
100
AcDbArc
 50
1.4692835814
 51
88.5307164186
  0
LINE
  5
2D7
330
1F
100
AcDbEntity
  8
0
  6
Continuous
 62
     7
370
    25
100
AcDbLine
 10
-744.6568675463
 20
-935.9958602591
 30
0.0
 11
-744.5799444694
 21
-932.9968466145
 31
0.0
  0
ARC
  5
2D8
330
1F
100
AcDbEntity
  8
0
  6
Continuous
 62
     7
370
    25
100
AcDbCircle
 10
-754.8363547258
 20
-1332.8653325554
 30
0.0
 40
400.0000000000001
100
AcDbArc
 50
1.4692835814
 51
88.5307164186
  0
LINE
  5
2D9
330
1F
100
AcDbEntity
  8
0
  6
Continuous
 62
     7
370
    25
100
AcDbLine
 10
-357.9668824295
 20
-1322.6858453759
 30
0.0
 11
-354.9678687849
 21
-1322.608922299
 31
0.0
  0
ARC
  5
2DA
330
1F
100
AcDbEntity
  8
0
  6
Continuous
 62
     7
370
    25
100
AcDbCircle
 10
-744.8363547258
 20
-942.9935587631
 30
0.0
 40
7.000000000000057
100
AcDbArc
 50
88.5307164186
 51
180.0
  0
LINE
  5
2DB
330
1F
100
AcDbEntity
  8
0
  6
Continuous
 62
     7
370
    25
100
AcDbLine
 10
-754.8363547258
 20
-942.9935587631
 30
0.0
 11
-751.8363547258
 21
-942.9935587631
 31
0.0
  0
ARC
  5
2DC
330
1F
100
AcDbEntity
  8
0
  6
Continuous
 62
     7
370
    25
100
AcDbCircle
 10
-744.8363547258
 20
-942.9935587631
 30
0.0
 40
10.0
100
AcDbArc
 50
88.5307164186
 51
180.0
  0
LINE
  5
2DD
330
1F
100
AcDbEntity
  8
0
  6
Continuous
 62
     7
370
    25
100
AcDbLine
 10
-754.8363547258
 20
-1322.8653325554
 30
0.0
 11
-754.8363547258
 21
-942.9935587631
 31
0.0
  0
LINE
  5
2DE
330
1F
100
AcDbEntity
  8
0
  6
Continuous
 62
     7
370
    25
100
AcDbLine
 10
-751.8363547258
 20
-942.9935587631
 30
0.0
 11
-751.8363547258
 21
-1322.8653325554
 31
0.0
  0
LINE
  5
2DF
330
1F
100
AcDbEntity
  8
0
  6
Continuous
 62
     7
370
    25
100
AcDbLine
 10
-754.8363547258
 20
-1322.8653325554
 30
0.0
 11
-751.8363547258
 21
-1322.8653325554
 31
0.0
  0
LINE
  5
2E0
330
1F
100
AcDbEntity
  8
0
  6
Continuous
 62
     7
370
    25
100
AcDbLine
 10
-744.8363547258
 20
-1329.8653325554
 30
0.0
 11
-364.9645809334
 21
-1329.8653325554
 31
0.0
  0
LINE
  5
2E1
330
1F
100
AcDbEntity
  8
0
  6
Continuous
 62
     7
370
    25
100
AcDbLine
 10
-364.9645809334
 20
-1329.8653325554
 30
0.0
 11
-364.9645809334
 21
-1332.8653325554
 31
0.0
  0
LINE
  5
2E2
330
1F
100
AcDbEntity
  8
0
  6
Continuous
 62
     7
370
    25
100
AcDbLine
 10
-364.9645809334
 20
-1332.8653325554
 30
0.0
 11
-744.8363547258
 21
-1332.8653325554
 31
0.0
  0
LINE
  5
2E3
330
1F
100
AcDbEntity
  8
0
  6
Continuous
 62
     7
370
    25
100
AcDbLine
 10
-744.8363547258
 20
-1332.8653325554
 30
0.0
 11
-744.8363547258
 21
-1329.8653325554
 31
0.0
  0
ARC
  5
2E4
330
1F
100
AcDbEntity
  8
0
  6
Continuous
 62
     7
370
    25
100
AcDbCircle
 10
-744.8363547258
 20
-1322.8653325554
 30
0.0
 40
10.0
100
AcDbArc
 50
180.0
 51
270.0
  0
ARC
  5
2E5
330
1F
100
AcDbEntity
  8
0
  6
Continuous
 62
     7
370
    25
100
AcDbCircle
 10
-744.8363547258
 20
-1322.8653325554
 30
0.0
 40
7.000000000000227
100
AcDbArc
 50
180.0
 51
270.0
  0
ARC
  5
2E6
330
1F
100
AcDbEntity
  8
0
  6
Continuous
 62
     7
370
    25
100
AcDbCircle
 10
-364.9645809334
 20
-1322.8653325554
 30
0.0
 40
7.000000000000227
100
AcDbArc
 50
270.0
 51
1.4692835814
  0
ARC
  5
2E7
330
1F
100
AcDbEntity
  8
0
  6
Continuous
 62
     7
370
    25
100
AcDbCircle
 10
-364.9645809334
 20
-1322.8653325554
 30
0.0
 40
10.00000000000001
100
AcDbArc
 50
270.0
 51
1.4692835814
  0
ARC
  5
2E8
330
1F
100
AcDbEntity
  8
0
  6
Continuous
 62
     7
370
    25
100
AcDbCircle
 10
-744.8363547258
 20
1277.2628936522
 30
0.0
 40
7.00000000000006
100
AcDbArc
 50
180.0
 51
271.4692835814
  0
LINE
  5
2E9
330
1F
100
AcDbEntity
  8
0
  6
Continuous
 62
     7
370
    25
100
AcDbLine
 10
-751.8363547258
 20
1657.1346674446
 30
0.0
 11
-751.8363547258
 21
1277.2628936522
 31
0.0
  0
ARC
  5
2EA
330
1F
100
AcDbEntity
  8
0
  6
Continuous
 62
     7
370
    25
100
AcDbCircle
 10
-744.8363547258
 20
1657.1346674446
 30
0.0
 40
7.0
100
AcDbArc
 50
90.0
 51
180.0
  0
LINE
  5
2EB
330
1F
100
AcDbEntity
  8
0
  6
Continuous
 62
     7
370
    25
100
AcDbLine
 10
-364.9645809334
 20
1664.1346674446
 30
0.0
 11
-744.8363547258
 21
1664.1346674446
 31
0.0
  0
ARC
  5
2EC
330
1F
100
AcDbEntity
  8
0
  6
Continuous
 62
     7
370
    25
100
AcDbCircle
 10
-364.9645809334
 20
1657.1346674446
 30
0.0
 40
7.00000000000006
100
AcDbArc
 50
358.5307164186
 51
90.0
  0
ARC
  5
2ED
330
1F
100
AcDbEntity
  8
0
  6
Continuous
 62
     7
370
    25
100
AcDbCircle
 10
-754.8363547258
 20
1667.1346674446
 30
0.0
 40
397.0000000000002
100
AcDbArc
 50
271.4692835814
 51
358.5307164186
  0
LINE
  5
2EE
330
1F
100
AcDbEntity
  8
0
  6
Continuous
 62
     7
370
    25
100
AcDbLine
 10
-364.9645809334
 20
1667.1346674446
 30
0.0
 11
-364.9645809334
 21
1664.1346674446
 31
0.0
  0
ARC
  5
2EF
330
1F
100
AcDbEntity
  8
0
  6
Continuous
 62
     7
370
    25
100
AcDbCircle
 10
-364.9645809334
 20
1657.1346674446
 30
0.0
 40
10.00000000000001
100
AcDbArc
 50
358.5307164186
 51
90.0
  0
LINE
  5
2F0
330
1F
100
AcDbEntity
  8
0
  6
Continuous
 62
     7
370
    25
100
AcDbLine
 10
-357.9668824295
 20
1656.9551802651
 30
0.0
 11
-354.9678687849
 21
1656.8782571882
 31
0.0
  0
ARC
  5
2F1
330
1F
100
AcDbEntity
  8
0
  6
Continuous
 62
     7
370
    25
100
AcDbCircle
 10
-754.8363547258
 20
1667.1346674446
 30
0.0
 40
400.0000000000001
100
AcDbArc
 50
271.4692835814
 51
358.5307164186
  0
LINE
  5
2F2
330
1F
100
AcDbEntity
  8
0
  6
Continuous
 62
     7
370
    25
100
AcDbLine
 10
-744.6568675463
 20
1270.2651951483
 30
0.0
 11
-744.5799444694
 21
1267.2661815037
 31
0.0
  0
LINE
  5
2F3
330
1F
100
AcDbEntity
  8
0
  6
Continuous
 62
     7
370
    25
100
AcDbLine
 10
-744.8363547258
 20
1667.1346674446
 30
0.0
 11
-364.9645809334
 21
1667.1346674446
 31
0.0
  0
LINE
  5
2F4
330
1F
100
AcDbEntity
  8
0
  6
Continuous
 62
     7
370
    25
100
AcDbLine
 10
-744.8363547258
 20
1667.1346674446
 30
0.0
 11
-744.8363547258
 21
1664.1346674446
 31
0.0
  0
LINE
  5
2F5
330
1F
100
AcDbEntity
  8
0
  6
Continuous
 62
     7
370
    25
100
AcDbLine
 10
-751.8363547258
 20
1277.2628936522
 30
0.0
 11
-754.8363547258
 21
1277.2628936522
 31
0.0
  0
LINE
  5
2F6
330
1F
100
AcDbEntity
  8
0
  6
Continuous
 62
     7
370
    25
100
AcDbLine
 10
-754.8363547258
 20
1277.2628936522
 30
0.0
 11
-754.8363547258
 21
1657.1346674446
 31
0.0
  0
LINE
  5
2F7
330
1F
100
AcDbEntity
  8
0
  6
Continuous
 62
     7
370
    25
100
AcDbLine
 10
-754.8363547258
 20
1657.1346674446
 30
0.0
 11
-751.8363547258
 21
1657.1346674446
 31
0.0
  0
ARC
  5
2F8
330
1F
100
AcDbEntity
  8
0
  6
Continuous
 62
     7
370
    25
100
AcDbCircle
 10
-744.8363547258
 20
1277.2628936522
 30
0.0
 40
10.00000000000018
100
AcDbArc
 50
180.0
 51
271.4692835814
  0
ARC
  5
2F9
330
1F
100
AcDbEntity
  8
0
  6
Continuous
 62
     7
370
    25
100
AcDbCircle
 10
-744.8363547258
 20
1657.1346674446
 30
0.0
 40
10.0
100
AcDbArc
 50
90.0
 51
180.0
  0
LINE
  5
2FA
330
1F
100
AcDbEntity
  8
0
  6
Continuous
 62
     8
370
    25
100
AcDbLine
 10
-364.412226373
 20
1580.1346674446
 30
0.0
 11
1854.7395169215
 21
1580.1346674446
 31
0.0
  0
LINE
  5
2FB
330
1F
100
AcDbEntity
  8
0
  6
Continuous
 62
     8
370
    25
100
AcDbLine
 10
1848.1504430533
 20
1664.1346674446
 30
0.0
 11
-357.8231525049
 21
1664.1346674446
 31
0.0
  0
LINE
  5
2FC
330
1F
100
AcDbEntity
  8
0
  6
Continuous
 62
     8
370
    25
100
AcDbLine
 10
-754.8363547258
 20
1664.1346674446
 30
0.0
 11
-751.9777831543
 21
1664.1346674446
 31
0.0
  0
LINE
  5
2FD
330
1F
100
AcDbEntity
  8
0
  6
Continuous
 62
     8
370
    25
100
AcDbLine
 10
-751.8363547258
 20
1667.1346674446
 30
0.0
 11
-751.8363547258
 21
1664.2760958731
 31
0.0
  0
LINE
  5
2FE
330
1F
100
AcDbEntity
  8
0
  6
Continuous
 62
     8
370
    25
100
AcDbLine
 10
2158.1636452742
 20
1276.7105390918
 30
0.0
 11
2158.1636452742
 21
-942.4412042027
 31
0.0
  0
LINE
  5
2FF
330
1F
100
AcDbEntity
  8
0
  6
Continuous
 62
     8
370
    25
100
AcDbLine
 10
2242.1636452742
 20
-935.8521303345
 30
0.0
 11
2242.1636452742
 21
1270.1214652237
 31
0.0
  0
LINE
  5
300
330
1F
100
AcDbEntity
  8
0
  6
Continuous
 62
     8
370
    25
100
AcDbLine
 10
2245.1636452742
 20
1664.1346674446
 30
0.0
 11
2242.3050737028
 21
1664.1346674446
 31
0.0
  0
LINE
  5
301
330
1F
100
AcDbEntity
  8
0
  6
Continuous
 62
     8
370
    25
100
AcDbLine
 10
2242.1636452742
 20
1667.1346674446
 30
0.0
 11
2242.1636452742
 21
1664.2760958731
 31
0.0
  0
LINE
  5
302
330
1F
100
AcDbEntity
  8
0
  6
Continuous
 62
     8
370
    25
100
AcDbLine
 10
-667.8363547258
 20
-942.4412042027
 30
0.0
 11
-667.8363547258
 21
1276.7105390918
 31
0.0
  0
LINE
  5
303
330
1F
100
AcDbEntity
  8
0
  6
Continuous
 62
     8
370
    25
100
AcDbLine
 10
-751.8363547258
 20
1270.1214652237
 30
0.0
 11
-751.8363547258
 21
-935.8521303345
 31
0.0
  0
LINE
  5
304
330
1F
100
AcDbEntity
  8
0
  6
Continuous
 62
     8
370
    25
100
AcDbLine
 10
-754.8363547258
 20
-1329.8653325554
 30
0.0
 11
-751.9777831543
 21
-1329.8653325554
 31
0.0
  0
LINE
  5
305
330
1F
100
AcDbEntity
  8
0
  6
Continuous
 62
     8
370
    25
100
AcDbLine
 10
-751.8363547258
 20
-1332.8653325554
 30
0.0
 11
-751.8363547258
 21
-1330.006760984
 31
0.0
  0
LINE
  5
306
330
1F
100
AcDbEntity
  8
0
  6
Continuous
 62
     8
370
    25
100
AcDbLine
 10
1854.7395169215
 20
-1245.8653325554
 30
0.0
 11
-364.412226373
 21
-1245.8653325554
 31
0.0
  0
LINE
  5
307
330
1F
100
AcDbEntity
  8
0
  6
Continuous
 62
     8
370
    25
100
AcDbLine
 10
-357.8231525049
 20
-1329.8653325554
 30
0.0
 11
1848.1504430533
 21
-1329.8653325554
 31
0.0
  0
LINE
  5
308
330
1F
100
AcDbEntity
  8
0
  6
Continuous
 62
     8
370
    25
100
AcDbLine
 10
2242.1636452742
 20
-1332.8653325554
 30
0.0
 11
2242.1636452742
 21
-1330.006760984
 31
0.0
  0
LINE
  5
309
330
1F
100
AcDbEntity
  8
0
  6
Continuous
 62
     8
370
    25
100
AcDbLine
 10
2245.1636452742
 20
-1329.8653325554
 30
0.0
 11
2242.3050737028
 21
-1329.8653325554
 31
0.0
  0
ENDSEC
  0
SECTION
  2
OBJECTS
  0
DICTIONARY
  5
C
330
0
100
AcDbDictionary
281
     1
  3
ACAD_GROUP
350
D
  3
ACAD_LAYOUT
350
1A
  3
ACAD_MLINESTYLE
350
17
  3
ACAD_PLOTSETTINGS
350
19
  3
ACAD_PLOTSTYLENAME
350
E
  3
ACAD_SCALELIST
350
47
  3
DWGPROPS
350
30A
  0
DICTIONARY
  5
D
102
{ACAD_REACTORS
330
C
102
}
330
C
100
AcDbDictionary
281
     1
  0
DICTIONARY
  5
1A
102
{ACAD_REACTORS
330
C
102
}
330
C
100
AcDbDictionary
281
     1
  3
Layout1
350
1E
  3
Layout2
350
26
  3
Model
350
22
  0
DICTIONARY
  5
17
102
{ACAD_REACTORS
330
C
102
}
330
C
100
AcDbDictionary
281
     1
  3
Standard
350
18
  0
DICTIONARY
  5
19
102
{ACAD_REACTORS
330
C
102
}
330
C
100
AcDbDictionary
281
     1
  0
ACDBDICTIONARYWDFLT
  5
E
102
{ACAD_REACTORS
330
C
102
}
330
C
100
AcDbDictionary
281
     1
  3
Normal
350
F
100
AcDbDictionaryWithDefault
340
F
  0
DICTIONARY
  5
47
102
{ACAD_REACTORS
330
C
102
}
330
C
100
AcDbDictionary
281
     1
  3
A0
350
48
  3
A1
350
49
  3
A2
350
4A
  3
A3
350
4B
  3
A4
350
4C
  3
A5
350
4D
  3
A6
350
4E
  3
A7
350
4F
  3
A8
350
50
  3
A9
350
51
  3
B0
350
52
  3
B1
350
53
  3
B2
350
54
  3
B3
350
55
  3
B4
350
56
  3
B5
350
57
  3
B6
350
58
  3
B7
350
59
  3
B8
350
5A
  3
B9
350
5B
  3
C0
350
5C
  3
C1
350
5D
  3
C2
350
5E
  3
C3
350
5F
  3
C4
350
60
  3
C5
350
61
  3
C6
350
62
  3
C7
350
63
  3
C8
350
64
  3
C9
350
65
  3
D0
350
66
  3
D1
350
67
  3
D2
350
68
  0
XRECORD
  5
30A
102
{ACAD_REACTORS
330
C
102
}
330
C
100
AcDbXrecord
280
     1
  1
DWGPROPS COOKIE
  2

  3

  4

  6

  7

  8
Swing
  9

300
=
301
=
302
=
303
=
304
=
305
=
306
=
307
=
308
=
309
=
 40
0.0
 41
2459536.570316273
 42
2459536.570316505
  1

 90
        0
  0
LAYOUT
  5
1E
102
{ACAD_REACTORS
330
1A
102
}
330
1A
100
AcDbPlotSettings
  1

  2
none_device
  4

  6

 40
0.0
 41
0.0
 42
0.0
 43
0.0
 44
0.0
 45
0.0
 46
0.0
 47
0.0
 48
0.0
 49
0.0
140
0.0
141
0.0
142
1.0
143
1.0
 70
   688
 72
     1
 73
     0
 74
     5
  7

 75
    16
147
1.0
148
0.0
149
0.0
100
AcDbLayout
  1
Layout1
 70
     1
 71
     1
 10
0.0
 20
0.0
 11
420.0
 21
297.0
 12
0.0
 22
0.0
 32
0.0
 14
1.0000000000E+20
 24
1.0000000000E+20
 34
1.0000000000E+20
 15
-1.0000000000E+20
 25
-1.0000000000E+20
 35
-1.0000000000E+20
146
0.0
 13
0.0
 23
0.0
 33
0.0
 16
1.0
 26
0.0
 36
0.0
 17
0.0
 27
1.0
 37
0.0
 76
     0
330
1B
  0
LAYOUT
  5
26
102
{ACAD_REACTORS
330
1A
102
}
330
1A
100
AcDbPlotSettings
  1

  2
none_device
  4

  6

 40
0.0
 41
0.0
 42
0.0
 43
0.0
 44
0.0
 45
0.0
 46
0.0
 47
0.0
 48
0.0
 49
0.0
140
0.0
141
0.0
142
1.0
143
1.0
 70
   688
 72
     1
 73
     0
 74
     5
  7

 75
    16
147
1.0
148
0.0
149
0.0
100
AcDbLayout
  1
Layout2
 70
     1
 71
     2
 10
0.0
 20
0.0
 11
0.0
 21
0.0
 12
0.0
 22
0.0
 32
0.0
 14
0.0
 24
0.0
 34
0.0
 15
0.0
 25
0.0
 35
0.0
146
0.0
 13
0.0
 23
0.0
 33
0.0
 16
1.0
 26
0.0
 36
0.0
 17
0.0
 27
1.0
 37
0.0
 76
     0
330
23
  0
LAYOUT
  5
22
102
{ACAD_REACTORS
330
1A
102
}
330
1A
100
AcDbPlotSettings
  1

  2
none_device
  4
Letter_(8.50_x_11.00_Inches)
  6

 40
6.35
 41
6.35
 42
6.35000508
 43
6.35000508
 44
215.9
 45
279.4
 46
0.0
 47
0.0
 48
0.0
 49
0.0
140
0.0
141
0.0
142
1.0
143
1.0
 70
  1712
 72
     1
 73
     0
 74
     0
  7

 75
     0
147
1.0
148
0.0
149
0.0
100
AcDbLayout
  1
Model
 70
     1
 71
     0
 10
0.0
 20
0.0
 11
431.8
 21
279.4
 12
0.0
 22
0.0
 32
0.0
 14
0.0
 24
0.0
 34
0.0
 15
431.8
 25
279.4
 35
0.0
146
0.0
 13
0.0
 23
0.0
 33
0.0
 16
1.0
 26
0.0
 36
0.0
 17
0.0
 27
1.0
 37
0.0
 76
     0
330
1F
331
29
  0
MLINESTYLE
  5
18
102
{ACAD_REACTORS
330
17
102
}
330
17
100
AcDbMlineStyle
  2
Standard
 70
     0
  3

 62
   256
 51
90.0
 52
90.0
 71
     2
 49
0.5
 62
   256
  6
BYLAYER
 49
-0.5
 62
   256
  6
BYLAYER
  0
ACDBPLACEHOLDER
  5
F
102
{ACAD_REACTORS
330
E
102
}
330
E
  0
SCALE
  5
48
102
{ACAD_REACTORS
330
47
102
}
330
47
100
AcDbScale
 70
     0
300
1:1
140
1.0
141
1.0
290
     1
  0
SCALE
  5
49
102
{ACAD_REACTORS
330
47
102
}
330
47
100
AcDbScale
 70
     0
300
1:2
140
1.0
141
2.0
290
     0
  0
SCALE
  5
4A
102
{ACAD_REACTORS
330
47
102
}
330
47
100
AcDbScale
 70
     0
300
1:4
140
1.0
141
4.0
290
     0
  0
SCALE
  5
4B
102
{ACAD_REACTORS
330
47
102
}
330
47
100
AcDbScale
 70
     0
300
1:5
140
1.0
141
5.0
290
     0
  0
SCALE
  5
4C
102
{ACAD_REACTORS
330
47
102
}
330
47
100
AcDbScale
 70
     0
300
1:8
140
1.0
141
8.0
290
     0
  0
SCALE
  5
4D
102
{ACAD_REACTORS
330
47
102
}
330
47
100
AcDbScale
 70
     0
300
1:10
140
1.0
141
10.0
290
     0
  0
SCALE
  5
4E
102
{ACAD_REACTORS
330
47
102
}
330
47
100
AcDbScale
 70
     0
300
1:16
140
1.0
141
16.0
290
     0
  0
SCALE
  5
4F
102
{ACAD_REACTORS
330
47
102
}
330
47
100
AcDbScale
 70
     0
300
1:20
140
1.0
141
20.0
290
     0
  0
SCALE
  5
50
102
{ACAD_REACTORS
330
47
102
}
330
47
100
AcDbScale
 70
     0
300
1:30
140
1.0
141
30.0
290
     0
  0
SCALE
  5
51
102
{ACAD_REACTORS
330
47
102
}
330
47
100
AcDbScale
 70
     0
300
1:40
140
1.0
141
40.0
290
     0
  0
SCALE
  5
52
102
{ACAD_REACTORS
330
47
102
}
330
47
100
AcDbScale
 70
     0
300
1:50
140
1.0
141
50.0
290
     0
  0
SCALE
  5
53
102
{ACAD_REACTORS
330
47
102
}
330
47
100
AcDbScale
 70
     0
300
1:100
140
1.0
141
100.0
290
     0
  0
SCALE
  5
54
102
{ACAD_REACTORS
330
47
102
}
330
47
100
AcDbScale
 70
     0
300
2:1
140
2.0
141
1.0
290
     0
  0
SCALE
  5
55
102
{ACAD_REACTORS
330
47
102
}
330
47
100
AcDbScale
 70
     0
300
4:1
140
4.0
141
1.0
290
     0
  0
SCALE
  5
56
102
{ACAD_REACTORS
330
47
102
}
330
47
100
AcDbScale
 70
     0
300
8:1
140
8.0
141
1.0
290
     0
  0
SCALE
  5
57
102
{ACAD_REACTORS
330
47
102
}
330
47
100
AcDbScale
 70
     0
300
10:1
140
10.0
141
1.0
290
     0
  0
SCALE
  5
58
102
{ACAD_REACTORS
330
47
102
}
330
47
100
AcDbScale
 70
     0
300
100:1
140
100.0
141
1.0
290
     0
  0
SCALE
  5
59
102
{ACAD_REACTORS
330
47
102
}
330
47
100
AcDbScale
 70
     0
300
1/128" = 1'-0"
140
0.0078125
141
12.0
290
     0
  0
SCALE
  5
5A
102
{ACAD_REACTORS
330
47
102
}
330
47
100
AcDbScale
 70
     0
300
1/64" = 1'-0"
140
0.015625
141
12.0
290
     0
  0
SCALE
  5
5B
102
{ACAD_REACTORS
330
47
102
}
330
47
100
AcDbScale
 70
     0
300
1/32" = 1'-0"
140
0.03125
141
12.0
290
     0
  0
SCALE
  5
5C
102
{ACAD_REACTORS
330
47
102
}
330
47
100
AcDbScale
 70
     0
300
1/16" = 1'-0"
140
0.0625
141
12.0
290
     0
  0
SCALE
  5
5D
102
{ACAD_REACTORS
330
47
102
}
330
47
100
AcDbScale
 70
     0
300
3/32" = 1'-0"
140
0.09375
141
12.0
290
     0
  0
SCALE
  5
5E
102
{ACAD_REACTORS
330
47
102
}
330
47
100
AcDbScale
 70
     0
300
1/8" = 1'-0"
140
0.125
141
12.0
290
     0
  0
SCALE
  5
5F
102
{ACAD_REACTORS
330
47
102
}
330
47
100
AcDbScale
 70
     0
300
3/16" = 1'-0"
140
0.1875
141
12.0
290
     0
  0
SCALE
  5
60
102
{ACAD_REACTORS
330
47
102
}
330
47
100
AcDbScale
 70
     0
300
1/4" = 1'-0"
140
0.25
141
12.0
290
     0
  0
SCALE
  5
61
102
{ACAD_REACTORS
330
47
102
}
330
47
100
AcDbScale
 70
     0
300
3/8" = 1'-0"
140
0.375
141
12.0
290
     0
  0
SCALE
  5
62
102
{ACAD_REACTORS
330
47
102
}
330
47
100
AcDbScale
 70
     0
300
1/2" = 1'-0"
140
0.5
141
12.0
290
     0
  0
SCALE
  5
63
102
{ACAD_REACTORS
330
47
102
}
330
47
100
AcDbScale
 70
     0
300
3/4" = 1'-0"
140
0.75
141
12.0
290
     0
  0
SCALE
  5
64
102
{ACAD_REACTORS
330
47
102
}
330
47
100
AcDbScale
 70
     0
300
1" = 1'-0"
140
1.0
141
12.0
290
     0
  0
SCALE
  5
65
102
{ACAD_REACTORS
330
47
102
}
330
47
100
AcDbScale
 70
     0
300
1-1/2" = 1'-0"
140
1.5
141
12.0
290
     0
  0
SCALE
  5
66
102
{ACAD_REACTORS
330
47
102
}
330
47
100
AcDbScale
 70
     0
300
3" = 1'-0"
140
3.0
141
12.0
290
     0
  0
SCALE
  5
67
102
{ACAD_REACTORS
330
47
102
}
330
47
100
AcDbScale
 70
     0
300
6" = 1'-0"
140
6.0
141
12.0
290
     0
  0
SCALE
  5
68
102
{ACAD_REACTORS
330
47
102
}
330
47
100
AcDbScale
 70
     0
300
1'-0" = 1'-0"
140
12.0
141
12.0
290
     0
  0
ENDSEC
  0
EOF
