  0
SECTION
  2
HEADER
  9
$ACADVER
  1
AC1015
  9
$ACADMAINTVER
 70
     6
  9
$DWGCODEPAGE
  3
ANSI_1250
  9
$INSBASE
 10
0.0
 20
0.0
 30
0.0
  9
$EXTMIN
 10
0.0
 20
0.0
 30
0.0
  9
$EXTMAX
 10
431.8
 20
279.4
 30
0.0
  9
$LIMMIN
 10
0.0
 20
0.0
  9
$LIMMAX
 10
431.8
 20
279.4
  9
$ORTHOMODE
 70
     0
  9
$REGENMODE
 70
     1
  9
$FILLMODE
 70
     1
  9
$QTEXTMODE
 70
     0
  9
$MIRRTEXT
 70
     1
  9
$LTSCALE
 40
1.0
  9
$ATTMODE
 70
     1
  9
$TEXTSIZE
 40
3.8805555556
  9
$TRACEWID
 40
1.0
  9
$TEXTSTYLE
  7
Standard
  9
$CLAYER
  8
0
  9
$CELTYPE
  6
ByLayer
  9
$CECOLOR
 62
   256
  9
$CELTSCALE
 40
1.0
  9
$DISPSILH
 70
     0
  9
$DIMSCALE
 40
1.0
  9
$DIMASZ
 40
3.302
  9
$DIMEXO
 40
1.0
  9
$DIMDLI
 40
3.75
  9
$DIMRND
 40
0.0
  9
$DIMDLE
 40
0.0
  9
$DIMEXE
 40
1.0
  9
$DIMTP
 40
0.0
  9
$DIMTM
 40
0.0
  9
$DIMTXT
 40
3.8805555556
  9
$DIMCEN
 40
2.5
  9
$DIMTSZ
 40
0.0
  9
$DIMTOL
 70
     0
  9
$DIMLIM
 70
     0
  9
$DIMTIH
 70
     1
  9
$DIMTOH
 70
     1
  9
$DIMSE1
 70
     0
  9
$DIMSE2
 70
     0
  9
$DIMTAD
 70
     1
  9
$DIMZIN
 70
     0
  9
$DIMBLK
  1

  9
$DIMASO
 70
     1
  9
$DIMSHO
 70
     1
  9
$DIMPOST
  1

  9
$DIMAPOST
  1

  9
$DIMALT
 70
     0
  9
$DIMALTD
 70
     3
  9
$DIMALTF
 40
0.0393700787
  9
$DIMLFAC
 40
1.0
  9
$DIMTOFL
 70
     1
  9
$DIMTVP
 40
0.0
  9
$DIMTIX
 70
     0
  9
$DIMSOXD
 70
     0
  9
$DIMSAH
 70
     0
  9
$DIMBLK1
  1

  9
$DIMBLK2
  1

  9
$DIMSTYLE
  2
ISO-25
  9
$DIMCLRD
 70
     0
  9
$DIMCLRE
 70
     0
  9
$DIMCLRT
 70
     0
  9
$DIMTFAC
 40
1.0
  9
$DIMGAP
 40
1.524
  9
$DIMJUST
 70
     0
  9
$DIMSD1
 70
     0
  9
$DIMSD2
 70
     0
  9
$DIMTOLJ
 70
     0
  9
$DIMTZIN
 70
     0
  9
$DIMALTZ
 70
     0
  9
$DIMALTTZ
 70
     0
  9
$DIMUPT
 70
     0
  9
$DIMDEC
 70
     1
  9
$DIMTDEC
 70
     1
  9
$DIMALTU
 70
     2
  9
$DIMALTTD
 70
     3
  9
$DIMTXSTY
  7
Standard
  9
$DIMAUNIT
 70
     0
  9
$DIMADEC
 70
     1
  9
$DIMALTRND
 40
0.0
  9
$DIMAZIN
 70
     0
  9
$DIMDSEP
 70
    44
  9
$DIMATFIT
 70
     3
  9
$DIMFRAC
 70
     0
  9
$DIMLDRBLK
  1

  9
$DIMLUNIT
 70
     2
  9
$DIMLWD
 70
    -2
  9
$DIMLWE
 70
    -2
  9
$DIMTMOVE
 70
     0
  9
$LUNITS
 70
     2
  9
$LUPREC
 70
     1
  9
$SKETCHINC
 40
1.0
  9
$FILLETRAD
 40
10.0
  9
$AUNITS
 70
     0
  9
$AUPREC
 70
     1
  9
$MENU
  1
.
  9
$ELEVATION
 40
0.0
  9
$PELEVATION
 40
0.0
  9
$THICKNESS
 40
0.0
  9
$LIMCHECK
 70
     0
  9
$CHAMFERA
 40
0.0
  9
$CHAMFERB
 40
0.0
  9
$CHAMFERC
 40
0.0
  9
$CHAMFERD
 40
0.0
  9
$SKPOLY
 70
     0
  9
$TDCREATE
 40
2459536.611434433
  9
$TDUCREATE
 40
2459536.569767766
  9
$TDUPDATE
 40
2459536.611434618
  9
$TDUUPDATE
 40
2459536.569767951
  9
$TDINDWG
 40
0.0000000116
  9
$TDUSRTIMER
 40
0.0000000116
  9
$USRTIMER
 70
     1
  9
$ANGBASE
 50
0.0
  9
$ANGDIR
 70
     0
  9
$PDMODE
 70
     0
  9
$PDSIZE
 40
-1.0
  9
$PLINEWID
 40
0.0
  9
$SPLFRAME
 70
     0
  9
$SPLINETYPE
 70
     6
  9
$SPLINESEGS
 70
     8
  9
$HANDSEED
  5
292
  9
$SURFTAB1
 70
     6
  9
$SURFTAB2
 70
     6
  9
$SURFTYPE
 70
     6
  9
$SURFU
 70
     6
  9
$SURFV
 70
     6
  9
$UCSBASE
  2

  9
$UCSNAME
  2

  9
$UCSORG
 10
0.0
 20
0.0
 30
0.0
  9
$UCSXDIR
 10
1.0
 20
0.0
 30
0.0
  9
$UCSYDIR
 10
0.0
 20
1.0
 30
0.0
  9
$UCSORTHOREF
  2

  9
$UCSORTHOVIEW
 70
     0
  9
$UCSORGTOP
 10
0.0
 20
0.0
 30
0.0
  9
$UCSORGBOTTOM
 10
0.0
 20
0.0
 30
0.0
  9
$UCSORGLEFT
 10
0.0
 20
0.0
 30
0.0
  9
$UCSORGRIGHT
 10
0.0
 20
0.0
 30
0.0
  9
$UCSORGFRONT
 10
0.0
 20
0.0
 30
0.0
  9
$UCSORGBACK
 10
0.0
 20
0.0
 30
0.0
  9
$PUCSBASE
  2

  9
$PUCSNAME
  2

  9
$PUCSORG
 10
0.0
 20
0.0
 30
0.0
  9
$PUCSXDIR
 10
1.0
 20
0.0
 30
0.0
  9
$PUCSYDIR
 10
0.0
 20
1.0
 30
0.0
  9
$PUCSORTHOREF
  2

  9
$PUCSORTHOVIEW
 70
     0
  9
$PUCSORGTOP
 10
0.0
 20
0.0
 30
0.0
  9
$PUCSORGBOTTOM
 10
0.0
 20
0.0
 30
0.0
  9
$PUCSORGLEFT
 10
0.0
 20
0.0
 30
0.0
  9
$PUCSORGRIGHT
 10
0.0
 20
0.0
 30
0.0
  9
$PUCSORGFRONT
 10
0.0
 20
0.0
 30
0.0
  9
$PUCSORGBACK
 10
0.0
 20
0.0
 30
0.0
  9
$USERI1
 70
     0
  9
$USERI2
 70
     0
  9
$USERI3
 70
     0
  9
$USERI4
 70
     0
  9
$USERI5
 70
     0
  9
$USERR1
 40
0.0
  9
$USERR2
 40
0.0
  9
$USERR3
 40
0.0
  9
$USERR4
 40
0.0
  9
$USERR5
 40
0.0
  9
$WORLDVIEW
 70
     1
  9
$SHADEDGE
 70
     3
  9
$SHADEDIF
 70
    70
  9
$TILEMODE
 70
     1
  9
$MAXACTVP
 70
    64
  9
$PINSBASE
 10
0.0
 20
0.0
 30
0.0
  9
$PLIMCHECK
 70
     0
  9
$PEXTMIN
 10
1.0000000000E+20
 20
1.0000000000E+20
 30
1.0000000000E+20
  9
$PEXTMAX
 10
-1.0000000000E+20
 20
-1.0000000000E+20
 30
-1.0000000000E+20
  9
$PLIMMIN
 10
0.0
 20
0.0
  9
$PLIMMAX
 10
420.0
 20
297.0
  9
$UNITMODE
 70
     0
  9
$VISRETAIN
 70
     1
  9
$PLINEGEN
 70
     0
  9
$PSLTSCALE
 70
     1
  9
$TREEDEPTH
 70
  3020
  9
$CMLSTYLE
  2
Standard
  9
$CMLJUST
 70
     0
  9
$CMLSCALE
 40
20.0
  9
$PROXYGRAPHICS
 70
     1
  9
$MEASUREMENT
 70
     1
  9
$CELWEIGHT
370
    -1
  9
$ENDCAPS
280
     0
  9
$JOINSTYLE
280
     0
  9
$LWDISPLAY
290
     1
  9
$INSUNITS
 70
     4
  9
$HYPERLINKBASE
  1

  9
$STYLESHEET
  1

  9
$XEDIT
290
     1
  9
$CEPSNTYPE
380
     0
  9
$PSTYLEMODE
290
     1
  9
$FINGERPRINTGUID
  2
{d1e5204b-570e-4af9-b597-d33194388227}
  9
$VERSIONGUID
  2
{FAEB1C32-E019-11D5-929B-00C0DF256EC4}
  9
$EXTNAMES
290
     1
  9
$PSVPSCALE
 40
0.0
  9
$OLESTARTUP
290
     0
  0
ENDSEC
  0
SECTION
  2
CLASSES
  0
CLASS
  1
ACDBDICTIONARYWDFLT
  2
AcDbDictionaryWithDefault
  3
ObjectDBX Classes
 90
        0
280
     0
281
     0
  0
CLASS
  1
VISUALSTYLE
  2
AcDbVisualStyle
  3
ObjectDBX Classes
 90
     4095
280
     0
281
     0
  0
CLASS
  1
MATERIAL
  2
AcDbMaterial
  3
ObjectDBX Classes
 90
     1153
280
     0
281
     0
  0
CLASS
  1
SCALE
  2
AcDbScale
  3
ObjectDBX Classes
 90
     1153
280
     0
281
     0
  0
CLASS
  1
TABLESTYLE
  2
AcDbTableStyle
  3
ObjectDBX Classes
 90
     4095
280
     0
281
     0
  0
CLASS
  1
MLEADERSTYLE
  2
AcDbMLeaderStyle
  3
ACDB_MLEADERSTYLE_CLASS
 90
     4095
280
     0
281
     0
  0
CLASS
  1
SUN
  2
AcDbSun
  3
SCENEOE
 90
     1153
280
     0
281
     0
  0
CLASS
  1
ACDBPLACEHOLDER
  2
AcDbPlaceHolder
  3
ObjectDBX Classes
 90
        0
280
     0
281
     0
  0
CLASS
  1
LAYOUT
  2
AcDbLayout
  3
ObjectDBX Classes
 90
        0
280
     0
281
     0
  0
ENDSEC
  0
SECTION
  2
TABLES
  0
TABLE
  2
VPORT
  5
8
330
0
100
AcDbSymbolTable
 70
     1
  0
VPORT
  5
29
330
8
100
AcDbSymbolTableRecord
100
AcDbViewportTableRecord
  2
*Active
 70
     0
 10
0.0
 20
0.0
 11
1.0
 21
1.0
 12
215.9
 22
139.7
 13
0.0
 23
0.0
 14
10.0
 24
10.0
 15
10.0
 25
10.0
 16
0.0
 26
0.0
 36
1.0
 17
0.0
 27
0.0
 37
0.0
 40
279.4
 41
1.5454545455
 42
50.0
 43
0.0
 44
0.0
 50
0.0
 51
0.0
 71
     0
 72
  2000
 73
     1
 74
     3
 75
     0
 76
     0
 77
     0
 78
     0
281
     0
 65
     1
110
0.0
120
0.0
130
0.0
111
1.0
121
0.0
131
0.0
112
0.0
122
1.0
132
0.0
 79
     0
146
0.0
  0
ENDTAB
  0
TABLE
  2
LTYPE
  5
5
330
0
100
AcDbSymbolTable
 70
     6
  0
LTYPE
  5
14
330
5
100
AcDbSymbolTableRecord
100
AcDbLinetypeTableRecord
  2
ByBlock
 70
     0
  3

 72
    65
 73
     0
 40
0.0
  0
LTYPE
  5
15
330
5
100
AcDbSymbolTableRecord
100
AcDbLinetypeTableRecord
  2
ByLayer
 70
     0
  3

 72
    65
 73
     0
 40
0.0
  0
LTYPE
  5
16
330
5
100
AcDbSymbolTableRecord
100
AcDbLinetypeTableRecord
  2
Continuous
 70
     0
  3
Solid line
 72
    65
 73
     0
 40
0.0
  0
LTYPE
  5
6E
330
5
100
AcDbSymbolTableRecord
100
AcDbLinetypeTableRecord
  2
HIDDEN
 70
     0
  3
Hidden __ __ __ __ __ __ __ __ __ __ __ __ __ __
 72
    65
 73
     2
 40
1.905
 49
1.27
 74
     0
 49
-0.635
 74
     0
  0
LTYPE
  5
6F
330
5
100
AcDbSymbolTableRecord
100
AcDbLinetypeTableRecord
  2
PHANTOM
 70
     0
  3
Phantom ______  __  __  ______  __  __  ______
 72
    65
 73
     6
 40
12.7
 49
6.35
 74
     0
 49
-1.27
 74
     0
 49
1.27
 74
     0
 49
-1.27
 74
     0
 49
1.27
 74
     0
 49
-1.27
 74
     0
  0
LTYPE
  5
70
330
5
100
AcDbSymbolTableRecord
100
AcDbLinetypeTableRecord
  2
CENTER
 70
     0
  3
Center ____ _ ____ _ ____ _ ____ _ ____ _ ____
 72
    65
 73
     4
 40
10.16
 49
6.35
 74
     0
 49
-1.27
 74
     0
 49
1.27
 74
     0
 49
-1.27
 74
     0
  0
LTYPE
  5
71
330
5
100
AcDbSymbolTableRecord
100
AcDbLinetypeTableRecord
  2
CENTERX2
 70
     0
  3
Center (2x) ________  __  ________  __  _____
 72
    65
 73
     4
 40
20.32
 49
12.7
 74
     0
 49
-2.54
 74
     0
 49
2.54
 74
     0
 49
-2.54
 74
     0
  0
LTYPE
  5
72
330
5
100
AcDbSymbolTableRecord
100
AcDbLinetypeTableRecord
  2
DOT2
 70
     0
  3
Dot (.5x) ........................................
 72
    65
 73
     2
 40
0.635
 49
0.0
 74
     0
 49
-0.635
 74
     0
  0
ENDTAB
  0
TABLE
  2
LAYER
  5
2
330
0
100
AcDbSymbolTable
 70
     3
  0
LAYER
  5
10
330
2
100
AcDbSymbolTableRecord
100
AcDbLayerTableRecord
  2
0
 70
     0
 62
     7
  6
Continuous
370
    -3
390
F
  0
LAYER
  5
73
330
2
100
AcDbSymbolTableRecord
100
AcDbLayerTableRecord
  2
FRAME_&_TABLE
 70
     0
 62
     8
  6
Continuous
370
    50
390
F
  0
LAYER
  5
74
330
2
100
AcDbSymbolTableRecord
100
AcDbLayerTableRecord
  2
DIMENSIONS
 70
     0
 62
     7
  6
Continuous
370
    -3
390
F
  0
ENDTAB
  0
TABLE
  2
STYLE
  5
3
330
0
100
AcDbSymbolTable
 70
     1
  0
STYLE
  5
11
330
3
100
AcDbSymbolTableRecord
100
AcDbTextStyleTableRecord
  2
Standard
 70
     0
 40
0.0
 41
1.0
 50
0.0
 71
     0
 42
3.8805555556
  3
txt
  4

  0
ENDTAB
  0
TABLE
  2
VIEW
  5
6
330
0
100
AcDbSymbolTable
 70
     0
  0
ENDTAB
  0
TABLE
  2
UCS
  5
7
330
0
100
AcDbSymbolTable
 70
     0
  0
ENDTAB
  0
TABLE
  2
APPID
  5
9
330
0
100
AcDbSymbolTable
 70
     1
  0
APPID
  5
12
330
9
100
AcDbSymbolTableRecord
100
AcDbRegAppTableRecord
  2
ACAD
 70
     0
  0
ENDTAB
  0
TABLE
  2
DIMSTYLE
  5
A
330
0
100
AcDbSymbolTable
 70
     1
100
AcDbDimStyleTable
  0
DIMSTYLE
105
27
330
A
100
AcDbSymbolTableRecord
100
AcDbDimStyleTableRecord
  2
ISO-25
 70
     0
 41
2.5
 42
0.625
 43
3.75
 44
1.25
 73
     0
 74
     0
 77
     1
 78
     8
140
2.5
141
2.5
143
0.0393700787
147
0.625
171
     3
172
     1
178
     0
271
     2
272
     2
274
     3
278
    44
283
     0
284
     8
340
11
  0
ENDTAB
  0
TABLE
  2
BLOCK_RECORD
  5
1
330
0
100
AcDbSymbolTable
 70
     1
  0
BLOCK_RECORD
  5
1F
330
1
100
AcDbSymbolTableRecord
100
AcDbBlockTableRecord
  2
*Model_Space
340
22
  0
BLOCK_RECORD
  5
1B
330
1
100
AcDbSymbolTableRecord
100
AcDbBlockTableRecord
  2
*Paper_Space
340
1E
  0
BLOCK_RECORD
  5
23
330
1
100
AcDbSymbolTableRecord
100
AcDbBlockTableRecord
  2
*Paper_Space0
340
26
  0
ENDTAB
  0
ENDSEC
  0
SECTION
  2
BLOCKS
  0
BLOCK
  5
20
330
1F
100
AcDbEntity
  8
0
100
AcDbBlockBegin
  2
*Model_Space
 70
     0
 10
0.0
 20
0.0
 30
0.0
  3
*Model_Space
  1

  0
ENDBLK
  5
21
330
1F
100
AcDbEntity
  8
0
100
AcDbBlockEnd
  0
BLOCK
  5
1C
330
1B
100
AcDbEntity
 67
     1
  8
0
100
AcDbBlockBegin
  2
*Paper_Space
 70
     0
 10
0.0
 20
0.0
 30
0.0
  3
*Paper_Space
  1

  0
ENDBLK
  5
1D
330
1B
100
AcDbEntity
 67
     1
  8
0
100
AcDbBlockEnd
  0
BLOCK
  5
24
330
23
100
AcDbEntity
  8
0
100
AcDbBlockBegin
  2
*Paper_Space0
 70
     0
 10
0.0
 20
0.0
 30
0.0
  3
*Paper_Space0
  1

  0
ENDBLK
  5
25
330
23
100
AcDbEntity
  8
0
100
AcDbBlockEnd
  0
ENDSEC
  0
SECTION
  2
ENTITIES
  0
ARC
  5
75
330
1F
100
AcDbEntity
  8
0
  6
Continuous
 62
     7
370
    25
100
AcDbCircle
 10
1190.1636452742
 20
-833.8653325554
 30
0.0
 40
1.000000000000114
100
AcDbArc
 50
90.0
 51
270.0
  0
ARC
  5
76
330
1F
100
AcDbEntity
  8
0
  6
Continuous
 62
     7
370
    25
100
AcDbCircle
 10
1210.1636452742
 20
-833.8653325554
 30
0.0
 40
1.000000000000114
100
AcDbArc
 50
270.0
 51
90.0
  0
LINE
  5
77
330
1F
100
AcDbEntity
  8
0
  6
Continuous
 62
     7
370
    25
100
AcDbLine
 10
1193.6636452742
 20
-834.8653325554
 30
0.0
 11
1196.1636452742
 21
-836.8653325554
 31
0.0
  0
LINE
  5
78
330
1F
100
AcDbEntity
  8
0
  6
Continuous
 62
     7
370
    25
100
AcDbLine
 10
1204.1636452742
 20
-836.8653325554
 30
0.0
 11
1206.6636452742
 21
-834.8653325554
 31
0.0
  0
ARC
  5
79
330
1F
100
AcDbEntity
  8
0
  6
Continuous
 62
     7
370
    25
100
AcDbCircle
 10
1246.1636452742
 20
1112.1346674446
 30
0.0
 40
1.0
100
AcDbArc
 50
180.0
 51
0.0
  0
ARC
  5
7A
330
1F
100
AcDbEntity
  8
0
  6
Continuous
 62
     7
370
    25
100
AcDbCircle
 10
1246.1636452742
 20
1132.1346674446
 30
0.0
 40
1.0
100
AcDbArc
 50
0.0
 51
180.0
  0
LINE
  5
7B
330
1F
100
AcDbEntity
  8
0
  6
Continuous
 62
     7
370
    25
100
AcDbLine
 10
1247.1636452742
 20
1115.6346674446
 30
0.0
 11
1249.1636452742
 21
1118.1346674446
 31
0.0
  0
LINE
  5
7C
330
1F
100
AcDbEntity
  8
0
  6
Continuous
 62
     7
370
    25
100
AcDbLine
 10
1249.1636452742
 20
1126.1346674446
 30
0.0
 11
1247.1636452742
 21
1128.6346674446
 31
0.0
  0
ARC
  5
7D
330
1F
100
AcDbEntity
  8
0
  6
Continuous
 62
     7
370
    25
100
AcDbCircle
 10
-755.8363547258
 20
-777.8653325554
 30
0.0
 40
1.0
100
AcDbArc
 50
0.0
 51
180.0
  0
ARC
  5
7E
330
1F
100
AcDbEntity
  8
0
  6
Continuous
 62
     7
370
    25
100
AcDbCircle
 10
-755.8363547258
 20
-797.8653325554
 30
0.0
 40
1.0
100
AcDbArc
 50
180.0
 51
0.0
  0
LINE
  5
7F
330
1F
100
AcDbEntity
  8
0
  6
Continuous
 62
     7
370
    25
100
AcDbLine
 10
-756.8363547258
 20
-781.3653325554
 30
0.0
 11
-758.8363547258
 21
-783.8653325554
 31
0.0
  0
LINE
  5
80
330
1F
100
AcDbEntity
  8
0
  6
Continuous
 62
     7
370
    25
100
AcDbLine
 10
-758.8363547258
 20
-791.8653325554
 30
0.0
 11
-756.8363547258
 21
-794.3653325554
 31
0.0
  0
ARC
  5
81
330
1F
100
AcDbEntity
  8
0
  6
Continuous
 62
     7
370
    25
100
AcDbCircle
 10
-699.8363547258
 20
1168.1346674446
 30
0.0
 40
1.000000000000227
100
AcDbArc
 50
270.0
 51
90.0
  0
ARC
  5
82
330
1F
100
AcDbEntity
  8
0
  6
Continuous
 62
     7
370
    25
100
AcDbCircle
 10
-719.8363547258
 20
1168.1346674446
 30
0.0
 40
1.000000000000227
100
AcDbArc
 50
90.0
 51
270.0
  0
LINE
  5
83
330
1F
100
AcDbEntity
  8
0
  6
Continuous
 62
     7
370
    25
100
AcDbLine
 10
-703.3363547258
 20
1169.1346674446
 30
0.0
 11
-705.8363547258
 21
1171.1346674446
 31
0.0
  0
LINE
  5
84
330
1F
100
AcDbEntity
  8
0
  6
Continuous
 62
     7
370
    25
100
AcDbLine
 10
-713.8363547258
 20
1171.1346674446
 30
0.0
 11
-716.3363547258
 21
1169.1346674446
 31
0.0
  0
LINE
  5
85
330
1F
100
AcDbEntity
  8
0
  6
Continuous
 62
     7
370
    25
100
AcDbLine
 10
-754.8363547258
 20
-829.8653325554
 30
0.0
 11
-754.8363547258
 21
-822.8653325554
 31
0.0
  0
LINE
  5
86
330
1F
100
AcDbEntity
  8
0
  6
Continuous
 62
     7
370
    25
100
AcDbLine
 10
-754.8363547258
 20
-442.9935587631
 30
0.0
 11
-754.8363547258
 21
777.2628936522
 31
0.0
  0
LINE
  5
87
330
1F
100
AcDbEntity
  8
0
  6
Continuous
 62
     7
370
    25
100
AcDbLine
 10
-744.8363547258
 20
-832.8653325554
 30
0.0
 11
-751.8363547258
 21
-832.8653325554
 31
0.0
  0
LINE
  5
88
330
1F
100
AcDbEntity
  8
0
  6
Continuous
 62
     7
370
    25
100
AcDbLine
 10
-664.8363547258
 20
777.3911620465
 30
0.0
 11
-664.8363547258
 21
-443.1218271573
 31
0.0
  0
ARC
  5
89
330
1F
100
AcDbEntity
  8
0
  6
Continuous
 62
     7
370
    25
100
AcDbCircle
 10
-751.8363547258
 20
-829.8653325554
 30
0.0
 40
3.0
100
AcDbArc
 50
180.0
 51
270.0
  0
LINE
  5
8A
330
1F
100
AcDbEntity
  8
0
  6
Continuous
 62
     7
370
    25
100
AcDbLine
 10
1242.1636452742
 20
-832.8653325554
 30
0.0
 11
1235.1636452742
 21
-832.8653325554
 31
0.0
  0
LINE
  5
8B
330
1F
100
AcDbEntity
  8
0
  6
Continuous
 62
     7
370
    25
100
AcDbLine
 10
855.2918714819
 20
-832.8653325554
 30
0.0
 11
-364.9645809334
 21
-832.8653325554
 31
0.0
  0
LINE
  5
8C
330
1F
100
AcDbEntity
  8
0
  6
Continuous
 62
     7
370
    25
100
AcDbLine
 10
-365.0928493277
 20
-742.8653325554
 30
0.0
 11
855.4201398761
 21
-742.8653325554
 31
0.0
  0
LINE
  5
8D
330
1F
100
AcDbEntity
  8
0
  6
Continuous
 62
     7
370
    25
100
AcDbLine
 10
1245.1636452742
 20
-822.8653325554
 30
0.0
 11
1245.1636452742
 21
-829.8653325554
 31
0.0
  0
ARC
  5
8E
330
1F
100
AcDbEntity
  8
0
  6
Continuous
 62
     7
370
    25
100
AcDbCircle
 10
1242.1636452742
 20
-829.8653325554
 30
0.0
 40
3.000000000000114
100
AcDbArc
 50
270.0
 51
0.0
  0
LINE
  5
8F
330
1F
100
AcDbEntity
  8
0
  6
Continuous
 62
     7
370
    25
100
AcDbLine
 10
855.4201398761
 20
1077.1346674446
 30
0.0
 11
-365.0928493277
 21
1077.1346674446
 31
0.0
  0
LINE
  5
90
330
1F
100
AcDbEntity
  8
0
  6
Continuous
 62
     7
370
    25
100
AcDbLine
 10
-754.8363547258
 20
1157.1346674446
 30
0.0
 11
-754.8363547258
 21
1164.1346674446
 31
0.0
  0
ARC
  5
91
330
1F
100
AcDbEntity
  8
0
  6
Continuous
 62
     7
370
    25
100
AcDbCircle
 10
-751.8363547258
 20
1164.1346674446
 30
0.0
 40
3.0
100
AcDbArc
 50
90.0
 51
180.0
  0
LINE
  5
92
330
1F
100
AcDbEntity
  8
0
  6
Continuous
 62
     7
370
    25
100
AcDbLine
 10
-751.8363547258
 20
1167.1346674446
 30
0.0
 11
-744.8363547258
 21
1167.1346674446
 31
0.0
  0
LINE
  5
93
330
1F
100
AcDbEntity
  8
0
  6
Continuous
 62
     7
370
    25
100
AcDbLine
 10
-364.9645809334
 20
1167.1346674446
 30
0.0
 11
855.2918714819
 21
1167.1346674446
 31
0.0
  0
ARC
  5
94
330
1F
100
AcDbEntity
  8
0
  6
Continuous
 62
     7
370
    25
100
AcDbCircle
 10
1242.1636452742
 20
1164.1346674446
 30
0.0
 40
3.0
100
AcDbArc
 50
0.0
 51
90.0
  0
LINE
  5
95
330
1F
100
AcDbEntity
  8
0
  6
Continuous
 62
     7
370
    25
100
AcDbLine
 10
1245.1636452742
 20
1164.1346674446
 30
0.0
 11
1245.1636452742
 21
1157.1346674446
 31
0.0
  0
LINE
  5
96
330
1F
100
AcDbEntity
  8
0
  6
Continuous
 62
     7
370
    25
100
AcDbLine
 10
1245.1636452742
 20
777.2628936522
 30
0.0
 11
1245.1636452742
 21
-442.9935587631
 31
0.0
  0
LINE
  5
97
330
1F
100
AcDbEntity
  8
0
  6
Continuous
 62
     7
370
    25
100
AcDbLine
 10
1235.1636452742
 20
1167.1346674446
 30
0.0
 11
1242.1636452742
 21
1167.1346674446
 31
0.0
  0
LINE
  5
98
330
1F
100
AcDbEntity
  8
0
  6
Continuous
 62
     7
370
    25
100
AcDbLine
 10
1155.1636452742
 20
-443.1218271573
 30
0.0
 11
1155.1636452742
 21
777.3911620465
 31
0.0
  0
LINE
  5
99
330
1F
100
AcDbEntity
  8
0
  6
Continuous
 62
     7
370
    25
100
AcDbLine
 10
1200.1636452742
 20
-834.8653325554
 30
0.0
 11
1210.1636452742
 21
-834.8653325554
 31
0.0
  0
LINE
  5
9A
330
1F
100
AcDbEntity
  8
0
  6
Continuous
 62
     7
370
    25
100
AcDbLine
 10
1190.1636452742
 20
-834.8653325554
 30
0.0
 11
1200.1636452742
 21
-834.8653325554
 31
0.0
  0
LINE
  5
9B
330
1F
100
AcDbEntity
  8
0
  6
Continuous
 62
     7
370
    25
100
AcDbLine
 10
1200.1636452742
 20
-836.8653325554
 30
0.0
 11
1204.1636452742
 21
-836.8653325554
 31
0.0
  0
LINE
  5
9C
330
1F
100
AcDbEntity
  8
0
  6
Continuous
 62
     7
370
    25
100
AcDbLine
 10
1196.1636452742
 20
-836.8653325554
 30
0.0
 11
1200.1636452742
 21
-836.8653325554
 31
0.0
  0
LINE
  5
9D
330
1F
100
AcDbEntity
  8
0
  6
Continuous
 62
     7
370
    25
100
AcDbLine
 10
1247.1636452742
 20
1112.1346674877
 30
0.0
 11
1247.1636452742
 21
1132.1346674446
 31
0.0
  0
LINE
  5
9E
330
1F
100
AcDbEntity
  8
0
  6
Continuous
 62
     7
370
    25
100
AcDbLine
 10
1249.1636452742
 20
1118.1346674446
 30
0.0
 11
1249.1636452742
 21
1126.1346674446
 31
0.0
  0
LINE
  5
9F
330
1F
100
AcDbEntity
  8
0
  6
Continuous
 62
     7
370
    25
100
AcDbLine
 10
-756.8363547258
 20
-777.8653325554
 30
0.0
 11
-756.8363547258
 21
-797.8653325123
 31
0.0
  0
LINE
  5
A0
330
1F
100
AcDbEntity
  8
0
  6
Continuous
 62
     7
370
    25
100
AcDbLine
 10
-758.8363547258
 20
-783.8653325554
 30
0.0
 11
-758.8363547258
 21
-791.8653325554
 31
0.0
  0
LINE
  5
A1
330
1F
100
AcDbEntity
  8
0
  6
Continuous
 62
     7
370
    25
100
AcDbLine
 10
-699.8363547258
 20
1169.1346674446
 30
0.0
 11
-719.8363547258
 21
1169.1346674446
 31
0.0
  0
LINE
  5
A2
330
1F
100
AcDbEntity
  8
0
  6
Continuous
 62
     7
370
    25
100
AcDbLine
 10
-705.8363547258
 20
1171.1346674446
 30
0.0
 11
-713.8363547258
 21
1171.1346674446
 31
0.0
  0
ARC
  5
A3
330
1F
100
AcDbEntity
  8
0
  6
Continuous
 62
     7
370
    25
100
AcDbCircle
 10
890.1636452742
 20
-787.8653325554
 30
0.0
 40
2.250000000000185
100
AcDbArc
 50
240.0
 51
300.0
  0
ARC
  5
A4
330
1F
100
AcDbEntity
  8
0
  6
Continuous
 62
     7
370
    25
100
AcDbCircle
 10
889.2636452742
 20
-789.4241782822
 30
0.0
 40
0.4500000000001249
100
AcDbArc
 50
240.0
 51
316.6582417728
  0
ARC
  5
A5
330
1F
100
AcDbEntity
  8
0
  6
Continuous
 62
     7
370
    25
100
AcDbCircle
 10
890.1636452742
 20
-790.2735346562
 30
0.0
 40
0.7875000000002224
100
AcDbArc
 50
43.3417582272
 51
136.6582417728
  0
ARC
  5
A6
330
1F
100
AcDbEntity
  8
0
  6
Continuous
 62
     7
370
    25
100
AcDbCircle
 10
891.0636452742
 20
-789.4241782822
 30
0.0
 40
0.4499999999998863
100
AcDbArc
 50
223.3417582272
 51
300.0
  0
ARC
  5
A7
330
1F
100
AcDbEntity
  8
0
  6
Continuous
 62
     7
370
    25
100
AcDbCircle
 10
890.1636452742
 20
-787.8653325554
 30
0.0
 40
2.250000000000114
100
AcDbArc
 50
0.0
 51
60.0
  0
ARC
  5
A8
330
1F
100
AcDbEntity
  8
0
  6
Continuous
 62
     7
370
    25
100
AcDbCircle
 10
891.9636452742
 20
-787.8653325554
 30
0.0
 40
0.4500000000000455
100
AcDbArc
 50
0.0
 51
76.6582417728
  0
ARC
  5
A9
330
1F
100
AcDbEntity
  8
0
  6
Continuous
 62
     7
370
    25
100
AcDbCircle
 10
892.2492094709
 20
-786.661231505
 30
0.0
 40
0.7875000000002417
100
AcDbArc
 50
163.3417582272
 51
256.6582417728
  0
ARC
  5
AA
330
1F
100
AcDbEntity
  8
0
  6
Continuous
 62
     7
370
    25
100
AcDbCircle
 10
891.0636452742
 20
-786.3064868286
 30
0.0
 40
0.4500000000001663
100
AcDbArc
 50
343.3417582272
 51
60.0
  0
ARC
  5
AB
330
1F
100
AcDbEntity
  8
0
  6
Continuous
 62
     7
370
    25
100
AcDbCircle
 10
890.1636452742
 20
-787.8653325554
 30
0.0
 40
2.250000000000185
100
AcDbArc
 50
180.0
 51
240.0
  0
ARC
  5
AC
330
1F
100
AcDbEntity
  8
0
  6
Continuous
 62
     7
370
    25
100
AcDbCircle
 10
888.0780810775
 20
-789.0694336058
 30
0.0
 40
0.7875000000000205
100
AcDbArc
 50
343.3417582272
 51
76.6582417728
  0
ARC
  5
AD
330
1F
100
AcDbEntity
  8
0
  6
Continuous
 62
     7
370
    25
100
AcDbCircle
 10
889.2636452742
 20
-789.4241782822
 30
0.0
 40
0.4500000000001989
100
AcDbArc
 50
163.3417582272
 51
240.0
  0
ARC
  5
AE
330
1F
100
AcDbEntity
  8
0
  6
Continuous
 62
     7
370
    25
100
AcDbCircle
 10
888.3636452742
 20
-787.8653325554
 30
0.0
 40
0.4500000000001338
100
AcDbArc
 50
180.0
 51
256.6582417728
  0
ARC
  5
AF
330
1F
100
AcDbEntity
  8
0
  6
Continuous
 62
     7
370
    25
100
AcDbCircle
 10
890.1636452742
 20
-787.8653325554
 30
0.0
 40
2.250000000000114
100
AcDbArc
 50
120.0
 51
180.0
  0
ARC
  5
B0
330
1F
100
AcDbEntity
  8
0
  6
Continuous
 62
     7
370
    25
100
AcDbCircle
 10
889.2636452742
 20
-786.3064868286
 30
0.0
 40
0.4500000000000112
100
AcDbArc
 50
120.0
 51
196.6582417728
  0
ARC
  5
B1
330
1F
100
AcDbEntity
  8
0
  6
Continuous
 62
     7
370
    25
100
AcDbCircle
 10
888.0780810775
 20
-786.661231505
 30
0.0
 40
0.7875000000000205
100
AcDbArc
 50
283.3417582272
 51
16.6582417728
  0
ARC
  5
B2
330
1F
100
AcDbEntity
  8
0
  6
Continuous
 62
     7
370
    25
100
AcDbCircle
 10
888.3636452742
 20
-787.8653325554
 30
0.0
 40
0.4500000000000455
100
AcDbArc
 50
103.3417582272
 51
180.0
  0
ARC
  5
B3
330
1F
100
AcDbEntity
  8
0
  6
Continuous
 62
     7
370
    25
100
AcDbCircle
 10
890.1636452742
 20
-787.8653325554
 30
0.0
 40
2.250000000000114
100
AcDbArc
 50
300.0
 51
0.0
  0
ARC
  5
B4
330
1F
100
AcDbEntity
  8
0
  6
Continuous
 62
     7
370
    25
100
AcDbCircle
 10
892.2492094709
 20
-789.0694336058
 30
0.0
 40
0.7875000000000205
100
AcDbArc
 50
103.3417582272
 51
196.6582417728
  0
ARC
  5
B5
330
1F
100
AcDbEntity
  8
0
  6
Continuous
 62
     7
370
    25
100
AcDbCircle
 10
891.9636452742
 20
-787.8653325554
 30
0.0
 40
0.4500000000001338
100
AcDbArc
 50
283.3417582272
 51
0.0
  0
ARC
  5
B6
330
1F
100
AcDbEntity
  8
0
  6
Continuous
 62
     7
370
    25
100
AcDbCircle
 10
891.0636452742
 20
-789.4241782822
 30
0.0
 40
0.4499999999999811
100
AcDbArc
 50
300.0
 51
16.6582417728
  0
ARC
  5
B7
330
1F
100
AcDbEntity
  8
0
  6
Continuous
 62
     7
370
    25
100
AcDbCircle
 10
890.1636452742
 20
-787.8653325554
 30
0.0
 40
2.249999999999889
100
AcDbArc
 50
60.0
 51
120.0
  0
CIRCLE
  5
B8
330
1F
100
AcDbEntity
  8
0
  6
Continuous
 62
     7
370
    25
100
AcDbCircle
 10
890.1636452742
 20
-787.8653325554
 30
0.0
 40
3.849999999999909
  0
ARC
  5
B9
330
1F
100
AcDbEntity
  8
0
  6
Continuous
 62
     7
370
    25
100
AcDbCircle
 10
890.1636452742
 20
-785.4571304546
 30
0.0
 40
0.7875000000000663
100
AcDbArc
 50
223.3417582272
 51
316.6582417728
  0
ARC
  5
BA
330
1F
100
AcDbEntity
  8
0
  6
Continuous
 62
     7
370
    25
100
AcDbCircle
 10
889.2636452742
 20
-786.3064868286
 30
0.0
 40
0.4500000000000424
100
AcDbArc
 50
43.3417582272
 51
120.0
  0
ARC
  5
BB
330
1F
100
AcDbEntity
  8
0
  6
Continuous
 62
     7
370
    25
100
AcDbCircle
 10
891.0636452742
 20
-786.3064868286
 30
0.0
 40
0.4500000000001249
100
AcDbArc
 50
60.0
 51
136.6582417728
  0
ARC
  5
BC
330
1F
100
AcDbEntity
  8
0
  6
Continuous
 62
     7
370
    25
100
AcDbCircle
 10
-399.8363547258
 20
-787.8653325554
 30
0.0
 40
2.250000000000213
100
AcDbArc
 50
120.0
 51
180.0
  0
ARC
  5
BD
330
1F
100
AcDbEntity
  8
0
  6
Continuous
 62
     7
370
    25
100
AcDbCircle
 10
-400.7363547258
 20
-786.3064868286
 30
0.0
 40
0.4500000000000112
100
AcDbArc
 50
120.0
 51
196.6582417728
  0
ARC
  5
BE
330
1F
100
AcDbEntity
  8
0
  6
Continuous
 62
     7
370
    25
100
AcDbCircle
 10
-401.9219189225
 20
-786.661231505
 30
0.0
 40
0.7875000000001221
100
AcDbArc
 50
283.3417582272
 51
16.6582417728
  0
ARC
  5
BF
330
1F
100
AcDbEntity
  8
0
  6
Continuous
 62
     7
370
    25
100
AcDbCircle
 10
-401.6363547258
 20
-787.8653325554
 30
0.0
 40
0.4500000000001994
100
AcDbArc
 50
103.3417582272
 51
180.0
  0
ARC
  5
C0
330
1F
100
AcDbEntity
  8
0
  6
Continuous
 62
     7
370
    25
100
AcDbCircle
 10
-399.8363547258
 20
-787.8653325554
 30
0.0
 40
2.249999999999943
100
AcDbArc
 50
300.0
 51
0.0
  0
ARC
  5
C1
330
1F
100
AcDbEntity
  8
0
  6
Continuous
 62
     7
370
    25
100
AcDbCircle
 10
-398.9363547258
 20
-789.4241782822
 30
0.0
 40
0.4500000000001119
100
AcDbArc
 50
300.0
 51
16.6582417728
  0
ARC
  5
C2
330
1F
100
AcDbEntity
  8
0
  6
Continuous
 62
     7
370
    25
100
AcDbCircle
 10
-397.7507905291
 20
-789.0694336058
 30
0.0
 40
0.7875000000001892
100
AcDbArc
 50
103.3417582272
 51
196.6582417728
  0
ARC
  5
C3
330
1F
100
AcDbEntity
  8
0
  6
Continuous
 62
     7
370
    25
100
AcDbCircle
 10
-398.0363547258
 20
-787.8653325554
 30
0.0
 40
0.4499999999999318
100
AcDbArc
 50
283.3417582272
 51
0.0
  0
ARC
  5
C4
330
1F
100
AcDbEntity
  8
0
  6
Continuous
 62
     7
370
    25
100
AcDbCircle
 10
-399.8363547258
 20
-787.8653325554
 30
0.0
 40
2.249999999999988
100
AcDbArc
 50
0.0
 51
60.0
  0
ARC
  5
C5
330
1F
100
AcDbEntity
  8
0
  6
Continuous
 62
     7
370
    25
100
AcDbCircle
 10
-398.0363547258
 20
-787.8653325554
 30
0.0
 40
0.4500000000001469
100
AcDbArc
 50
0.0
 51
76.6582417728
  0
ARC
  5
C6
330
1F
100
AcDbEntity
  8
0
  6
Continuous
 62
     7
370
    25
100
AcDbCircle
 10
-397.7507905291
 20
-786.661231505
 30
0.0
 40
0.7874999999999588
100
AcDbArc
 50
163.3417582272
 51
256.6582417728
  0
ARC
  5
C7
330
1F
100
AcDbEntity
  8
0
  6
Continuous
 62
     7
370
    25
100
AcDbCircle
 10
-398.9363547258
 20
-786.3064868286
 30
0.0
 40
0.4500000000001445
100
AcDbArc
 50
343.3417582272
 51
60.0
  0
ARC
  5
C8
330
1F
100
AcDbEntity
  8
0
  6
Continuous
 62
     7
370
    25
100
AcDbCircle
 10
-399.8363547258
 20
-787.8653325554
 30
0.0
 40
2.250000000000213
100
AcDbArc
 50
60.0
 51
120.0
  0
ARC
  5
C9
330
1F
100
AcDbEntity
  8
0
  6
Continuous
 62
     7
370
    25
100
AcDbCircle
 10
-399.8363547258
 20
-787.8653325554
 30
0.0
 40
2.250000000000114
100
AcDbArc
 50
180.0
 51
240.0
  0
ARC
  5
CA
330
1F
100
AcDbEntity
  8
0
  6
Continuous
 62
     7
370
    25
100
AcDbCircle
 10
-399.8363547258
 20
-787.8653325554
 30
0.0
 40
2.249999999999918
100
AcDbArc
 50
240.0
 51
300.0
  0
CIRCLE
  5
CB
330
1F
100
AcDbEntity
  8
0
  6
Continuous
 62
     7
370
    25
100
AcDbCircle
 10
-399.8363547258
 20
-787.8653325554
 30
0.0
 40
3.849999999999909
  0
ARC
  5
CC
330
1F
100
AcDbEntity
  8
0
  6
Continuous
 62
     7
370
    25
100
AcDbCircle
 10
-400.7363547258
 20
-789.4241782822
 30
0.0
 40
0.4500000000000837
100
AcDbArc
 50
240.0
 51
316.6582417728
  0
ARC
  5
CD
330
1F
100
AcDbEntity
  8
0
  6
Continuous
 62
     7
370
    25
100
AcDbCircle
 10
-399.8363547258
 20
-790.2735346562
 30
0.0
 40
0.7875000000000663
100
AcDbArc
 50
43.3417582272
 51
136.6582417728
  0
ARC
  5
CE
330
1F
100
AcDbEntity
  8
0
  6
Continuous
 62
     7
370
    25
100
AcDbCircle
 10
-398.9363547258
 20
-789.4241782822
 30
0.0
 40
0.4500000000000837
100
AcDbArc
 50
223.3417582272
 51
300.0
  0
ARC
  5
CF
330
1F
100
AcDbEntity
  8
0
  6
Continuous
 62
     7
370
    25
100
AcDbCircle
 10
-400.7363547258
 20
-789.4241782822
 30
0.0
 40
0.4500000000000112
100
AcDbArc
 50
163.3417582272
 51
240.0
  0
ARC
  5
D0
330
1F
100
AcDbEntity
  8
0
  6
Continuous
 62
     7
370
    25
100
AcDbCircle
 10
-401.6363547258
 20
-787.8653325554
 30
0.0
 40
0.4500000000000455
100
AcDbArc
 50
180.0
 51
256.6582417728
  0
ARC
  5
D1
330
1F
100
AcDbEntity
  8
0
  6
Continuous
 62
     7
370
    25
100
AcDbCircle
 10
-401.9219189225
 20
-789.0694336058
 30
0.0
 40
0.7875000000001221
100
AcDbArc
 50
343.3417582272
 51
76.6582417728
  0
ARC
  5
D2
330
1F
100
AcDbEntity
  8
0
  6
Continuous
 62
     7
370
    25
100
AcDbCircle
 10
-400.7363547258
 20
-786.3064868286
 30
0.0
 40
0.4500000000000112
100
AcDbArc
 50
43.3417582272
 51
120.0
  0
ARC
  5
D3
330
1F
100
AcDbEntity
  8
0
  6
Continuous
 62
     7
370
    25
100
AcDbCircle
 10
-398.9363547258
 20
-786.3064868286
 30
0.0
 40
0.449999999999928
100
AcDbArc
 50
60.0
 51
136.6582417728
  0
ARC
  5
D4
330
1F
100
AcDbEntity
  8
0
  6
Continuous
 62
     7
370
    25
100
AcDbCircle
 10
-399.8363547258
 20
-785.4571304546
 30
0.0
 40
0.7875000000002224
100
AcDbArc
 50
223.3417582272
 51
316.6582417728
  0
ARC
  5
D5
330
1F
100
AcDbEntity
  8
0
  6
Continuous
 62
     7
370
    25
100
AcDbCircle
 10
-709.8363547258
 20
-787.8653325554
 30
0.0
 40
2.250000000000044
100
AcDbArc
 50
120.0
 51
180.0
  0
ARC
  5
D6
330
1F
100
AcDbEntity
  8
0
  6
Continuous
 62
     7
370
    25
100
AcDbCircle
 10
-710.7363547258
 20
-786.3064868286
 30
0.0
 40
0.4500000000001249
100
AcDbArc
 50
120.0
 51
196.6582417728
  0
ARC
  5
D7
330
1F
100
AcDbEntity
  8
0
  6
Continuous
 62
     7
370
    25
100
AcDbCircle
 10
-711.9219189225
 20
-786.661231505
 30
0.0
 40
0.7875000000000786
100
AcDbArc
 50
283.3417582272
 51
16.6582417728
  0
ARC
  5
D8
330
1F
100
AcDbEntity
  8
0
  6
Continuous
 62
     7
370
    25
100
AcDbCircle
 10
-711.6363547258
 20
-787.8653325554
 30
0.0
 40
0.4499999999999388
100
AcDbArc
 50
103.3417582272
 51
180.0
  0
ARC
  5
D9
330
1F
100
AcDbEntity
  8
0
  6
Continuous
 62
     7
370
    25
100
AcDbCircle
 10
-709.8363547258
 20
-787.8653325554
 30
0.0
 40
2.25
100
AcDbArc
 50
0.0
 51
60.0
  0
ARC
  5
DA
330
1F
100
AcDbEntity
  8
0
  6
Continuous
 62
     7
370
    25
100
AcDbCircle
 10
-708.0363547258
 20
-787.8653325554
 30
0.0
 40
0.4500000000000455
100
AcDbArc
 50
0.0
 51
76.6582417728
  0
ARC
  5
DB
330
1F
100
AcDbEntity
  8
0
  6
Continuous
 62
     7
370
    25
100
AcDbCircle
 10
-707.7507905291
 20
-786.661231505
 30
0.0
 40
0.7875000000000132
100
AcDbArc
 50
163.3417582272
 51
256.6582417728
  0
ARC
  5
DC
330
1F
100
AcDbEntity
  8
0
  6
Continuous
 62
     7
370
    25
100
AcDbCircle
 10
-708.9363547258
 20
-786.3064868286
 30
0.0
 40
0.450000000000068
100
AcDbArc
 50
343.3417582272
 51
60.0
  0
ARC
  5
DD
330
1F
100
AcDbEntity
  8
0
  6
Continuous
 62
     7
370
    25
100
AcDbCircle
 10
-709.8363547258
 20
-787.8653325554
 30
0.0
 40
2.250000000000044
100
AcDbArc
 50
60.0
 51
120.0
  0
ARC
  5
DE
330
1F
100
AcDbEntity
  8
0
  6
Continuous
 62
     7
370
    25
100
AcDbCircle
 10
-709.8363547258
 20
-787.8653325554
 30
0.0
 40
2.250000000000044
100
AcDbArc
 50
180.0
 51
240.0
  0
ARC
  5
DF
330
1F
100
AcDbEntity
  8
0
  6
Continuous
 62
     7
370
    25
100
AcDbCircle
 10
-709.8363547258
 20
-787.8653325554
 30
0.0
 40
2.250000000000044
100
AcDbArc
 50
240.0
 51
300.0
  0
ARC
  5
E0
330
1F
100
AcDbEntity
  8
0
  6
Continuous
 62
     7
370
    25
100
AcDbCircle
 10
-709.8363547258
 20
-787.8653325554
 30
0.0
 40
2.250000000000029
100
AcDbArc
 50
300.0
 51
0.0
  0
CIRCLE
  5
E1
330
1F
100
AcDbEntity
  8
0
  6
Continuous
 62
     7
370
    25
100
AcDbCircle
 10
-709.8363547258
 20
-787.8653325554
 30
0.0
 40
3.850000000000023
  0
ARC
  5
E2
330
1F
100
AcDbEntity
  8
0
  6
Continuous
 62
     7
370
    25
100
AcDbCircle
 10
-708.9363547258
 20
-789.4241782822
 30
0.0
 40
0.4500000000000112
100
AcDbArc
 50
300.0
 51
16.6582417728
  0
ARC
  5
E3
330
1F
100
AcDbEntity
  8
0
  6
Continuous
 62
     7
370
    25
100
AcDbCircle
 10
-707.7507905291
 20
-789.0694336058
 30
0.0
 40
0.7875000000000132
100
AcDbArc
 50
103.3417582272
 51
196.6582417728
  0
ARC
  5
E4
330
1F
100
AcDbEntity
  8
0
  6
Continuous
 62
     7
370
    25
100
AcDbCircle
 10
-708.0363547258
 20
-787.8653325554
 30
0.0
 40
0.4500000000000757
100
AcDbArc
 50
283.3417582272
 51
0.0
  0
ARC
  5
E5
330
1F
100
AcDbEntity
  8
0
  6
Continuous
 62
     7
370
    25
100
AcDbCircle
 10
-710.7363547258
 20
-789.4241782822
 30
0.0
 40
0.4500000000000264
100
AcDbArc
 50
240.0
 51
316.6582417728
  0
ARC
  5
E6
330
1F
100
AcDbEntity
  8
0
  6
Continuous
 62
     7
370
    25
100
AcDbCircle
 10
-708.9363547258
 20
-789.4241782822
 30
0.0
 40
0.4500000000000112
100
AcDbArc
 50
223.3417582272
 51
300.0
  0
ARC
  5
E7
330
1F
100
AcDbEntity
  8
0
  6
Continuous
 62
     7
370
    25
100
AcDbCircle
 10
-709.8363547258
 20
-790.2735346562
 30
0.0
 40
0.7875000000001396
100
AcDbArc
 50
43.3417582272
 51
136.6582417728
  0
ARC
  5
E8
330
1F
100
AcDbEntity
  8
0
  6
Continuous
 62
     7
370
    25
100
AcDbCircle
 10
-711.6363547258
 20
-787.8653325554
 30
0.0
 40
0.4500000000000495
100
AcDbArc
 50
180.0
 51
256.6582417728
  0
ARC
  5
E9
330
1F
100
AcDbEntity
  8
0
  6
Continuous
 62
     7
370
    25
100
AcDbCircle
 10
-711.9219189225
 20
-789.0694336058
 30
0.0
 40
0.787499999999968
100
AcDbArc
 50
343.3417582272
 51
76.6582417728
  0
ARC
  5
EA
330
1F
100
AcDbEntity
  8
0
  6
Continuous
 62
     7
370
    25
100
AcDbCircle
 10
-710.7363547258
 20
-789.4241782822
 30
0.0
 40
0.4500000000000574
100
AcDbArc
 50
163.3417582272
 51
240.0
  0
ARC
  5
EB
330
1F
100
AcDbEntity
  8
0
  6
Continuous
 62
     7
370
    25
100
AcDbCircle
 10
-709.8363547258
 20
-785.4571304546
 30
0.0
 40
0.7874999999999835
100
AcDbArc
 50
223.3417582272
 51
316.6582417728
  0
ARC
  5
EC
330
1F
100
AcDbEntity
  8
0
  6
Continuous
 62
     7
370
    25
100
AcDbCircle
 10
-710.7363547258
 20
-786.3064868286
 30
0.0
 40
0.4500000000001249
100
AcDbArc
 50
43.3417582272
 51
120.0
  0
ARC
  5
ED
330
1F
100
AcDbEntity
  8
0
  6
Continuous
 62
     7
370
    25
100
AcDbCircle
 10
-708.9363547258
 20
-786.3064868286
 30
0.0
 40
0.450000000000125
100
AcDbArc
 50
60.0
 51
136.6582417728
  0
ARC
  5
EE
330
1F
100
AcDbEntity
  8
0
  6
Continuous
 62
     7
370
    25
100
AcDbCircle
 10
1200.1636452742
 20
1122.1346674446
 30
0.0
 40
2.250000000000227
100
AcDbArc
 50
300.0
 51
0.0
  0
ARC
  5
EF
330
1F
100
AcDbEntity
  8
0
  6
Continuous
 62
     7
370
    25
100
AcDbCircle
 10
1201.0636452742
 20
1120.5758217178
 30
0.0
 40
0.4500000000001249
100
AcDbArc
 50
300.0
 51
16.6582417728
  0
ARC
  5
F0
330
1F
100
AcDbEntity
  8
0
  6
Continuous
 62
     7
370
    25
100
AcDbCircle
 10
1202.2492094709
 20
1120.9305663942
 30
0.0
 40
0.7875000000002637
100
AcDbArc
 50
103.3417582272
 51
196.6582417728
  0
ARC
  5
F1
330
1F
100
AcDbEntity
  8
0
  6
Continuous
 62
     7
370
    25
100
AcDbCircle
 10
1201.9636452742
 20
1122.1346674446
 30
0.0
 40
0.4500000000000455
100
AcDbArc
 50
283.3417582272
 51
0.0
  0
ARC
  5
F2
330
1F
100
AcDbEntity
  8
0
  6
Continuous
 62
     7
370
    25
100
AcDbCircle
 10
1200.1636452742
 20
1122.1346674446
 30
0.0
 40
2.250000000000086
100
AcDbArc
 50
120.0
 51
180.0
  0
ARC
  5
F3
330
1F
100
AcDbEntity
  8
0
  6
Continuous
 62
     7
370
    25
100
AcDbCircle
 10
1198.0780810775
 20
1123.338768495
 30
0.0
 40
0.7875000000001985
100
AcDbArc
 50
283.3417582272
 51
16.6582417728
  0
ARC
  5
F4
330
1F
100
AcDbEntity
  8
0
  6
Continuous
 62
     7
370
    25
100
AcDbCircle
 10
1198.3636452742
 20
1122.1346674446
 30
0.0
 40
0.4500000000001338
100
AcDbArc
 50
103.3417582272
 51
180.0
  0
ARC
  5
F5
330
1F
100
AcDbEntity
  8
0
  6
Continuous
 62
     7
370
    25
100
AcDbCircle
 10
1199.2636452742
 20
1123.6935131714
 30
0.0
 40
0.4500000000000137
100
AcDbArc
 50
120.0
 51
196.6582417728
  0
ARC
  5
F6
330
1F
100
AcDbEntity
  8
0
  6
Continuous
 62
     7
370
    25
100
AcDbCircle
 10
1200.1636452742
 20
1122.1346674446
 30
0.0
 40
2.2500000000002
100
AcDbArc
 50
60.0
 51
120.0
  0
ARC
  5
F7
330
1F
100
AcDbEntity
  8
0
  6
Continuous
 62
     7
370
    25
100
AcDbCircle
 10
1201.0636452742
 20
1123.6935131714
 30
0.0
 40
0.4499999999999736
100
AcDbArc
 50
60.0
 51
136.6582417728
  0
ARC
  5
F8
330
1F
100
AcDbEntity
  8
0
  6
Continuous
 62
     7
370
    25
100
AcDbCircle
 10
1200.1636452742
 20
1124.5428695454
 30
0.0
 40
0.7874999999999883
100
AcDbArc
 50
223.3417582272
 51
316.6582417728
  0
ARC
  5
F9
330
1F
100
AcDbEntity
  8
0
  6
Continuous
 62
     7
370
    25
100
AcDbCircle
 10
1199.2636452742
 20
1123.6935131714
 30
0.0
 40
0.4499999999999736
100
AcDbArc
 50
43.3417582272
 51
120.0
  0
ARC
  5
FA
330
1F
100
AcDbEntity
  8
0
  6
Continuous
 62
     7
370
    25
100
AcDbCircle
 10
1200.1636452742
 20
1122.1346674446
 30
0.0
 40
2.250000000000227
100
AcDbArc
 50
0.0
 51
60.0
  0
ARC
  5
FB
330
1F
100
AcDbEntity
  8
0
  6
Continuous
 62
     7
370
    25
100
AcDbCircle
 10
1201.9636452742
 20
1122.1346674446
 30
0.0
 40
0.4500000000000455
100
AcDbArc
 50
0.0
 51
76.6582417728
  0
ARC
  5
FC
330
1F
100
AcDbEntity
  8
0
  6
Continuous
 62
     7
370
    25
100
AcDbCircle
 10
1202.2492094709
 20
1123.338768495
 30
0.0
 40
0.7875000000002679
100
AcDbArc
 50
163.3417582272
 51
256.6582417728
  0
ARC
  5
FD
330
1F
100
AcDbEntity
  8
0
  6
Continuous
 62
     7
370
    25
100
AcDbCircle
 10
1201.0636452742
 20
1123.6935131714
 30
0.0
 40
0.449999999999861
100
AcDbArc
 50
343.3417582272
 51
60.0
  0
ARC
  5
FE
330
1F
100
AcDbEntity
  8
0
  6
Continuous
 62
     7
370
    25
100
AcDbCircle
 10
1200.1636452742
 20
1122.1346674446
 30
0.0
 40
2.25
100
AcDbArc
 50
180.0
 51
240.0
  0
ARC
  5
FF
330
1F
100
AcDbEntity
  8
0
  6
Continuous
 62
     7
370
    25
100
AcDbCircle
 10
1200.1636452742
 20
1122.1346674446
 30
0.0
 40
2.2500000000002
100
AcDbArc
 50
240.0
 51
300.0
  0
CIRCLE
  5
100
330
1F
100
AcDbEntity
  8
0
  6
Continuous
 62
     7
370
    25
100
AcDbCircle
 10
1200.1636452742
 20
1122.1346674446
 30
0.0
 40
3.849999999999909
  0
ARC
  5
101
330
1F
100
AcDbEntity
  8
0
  6
Continuous
 62
     7
370
    25
100
AcDbCircle
 10
1199.2636452742
 20
1120.5758217178
 30
0.0
 40
0.4499999999998142
100
AcDbArc
 50
163.3417582272
 51
240.0
  0
ARC
  5
102
330
1F
100
AcDbEntity
  8
0
  6
Continuous
 62
     7
370
    25
100
AcDbCircle
 10
1198.3636452742
 20
1122.1346674446
 30
0.0
 40
0.4500000000000455
100
AcDbArc
 50
180.0
 51
256.6582417728
  0
ARC
  5
103
330
1F
100
AcDbEntity
  8
0
  6
Continuous
 62
     7
370
    25
100
AcDbCircle
 10
1198.0780810775
 20
1120.9305663942
 30
0.0
 40
0.7875000000002637
100
AcDbArc
 50
343.3417582272
 51
76.6582417728
  0
ARC
  5
104
330
1F
100
AcDbEntity
  8
0
  6
Continuous
 62
     7
370
    25
100
AcDbCircle
 10
1199.2636452742
 20
1120.5758217178
 30
0.0
 40
0.4499999999999736
100
AcDbArc
 50
240.0
 51
316.6582417728
  0
ARC
  5
105
330
1F
100
AcDbEntity
  8
0
  6
Continuous
 62
     7
370
    25
100
AcDbCircle
 10
1200.1636452742
 20
1119.7264653438
 30
0.0
 40
0.787500000000135
100
AcDbArc
 50
43.3417582272
 51
136.6582417728
  0
ARC
  5
106
330
1F
100
AcDbEntity
  8
0
  6
Continuous
 62
     7
370
    25
100
AcDbCircle
 10
1201.0636452742
 20
1120.5758217178
 30
0.0
 40
0.4500000000001249
100
AcDbArc
 50
223.3417582272
 51
300.0
  0
ARC
  5
107
330
1F
100
AcDbEntity
  8
0
  6
Continuous
 62
     7
370
    25
100
AcDbCircle
 10
-709.8363547258
 20
1122.1346674446
 30
0.0
 40
2.249999999999886
100
AcDbArc
 50
180.0
 51
240.0
  0
ARC
  5
108
330
1F
100
AcDbEntity
  8
0
  6
Continuous
 62
     7
370
    25
100
AcDbCircle
 10
-711.6363547258
 20
1122.1346674446
 30
0.0
 40
0.4499999999999651
100
AcDbArc
 50
180.0
 51
256.6582417728
  0
ARC
  5
109
330
1F
100
AcDbEntity
  8
0
  6
Continuous
 62
     7
370
    25
100
AcDbCircle
 10
-711.9219189225
 20
1120.9305663942
 30
0.0
 40
0.7875000000000458
100
AcDbArc
 50
343.3417582272
 51
76.6582417728
  0
ARC
  5
10A
330
1F
100
AcDbEntity
  8
0
  6
Continuous
 62
     7
370
    25
100
AcDbCircle
 10
-710.7363547258
 20
1120.5758217178
 30
0.0
 40
0.4499999999999485
100
AcDbArc
 50
163.3417582272
 51
240.0
  0
ARC
  5
10B
330
1F
100
AcDbEntity
  8
0
  6
Continuous
 62
     7
370
    25
100
AcDbCircle
 10
-709.8363547258
 20
1122.1346674446
 30
0.0
 40
2.250000000000143
100
AcDbArc
 50
60.0
 51
120.0
  0
ARC
  5
10C
330
1F
100
AcDbEntity
  8
0
  6
Continuous
 62
     7
370
    25
100
AcDbCircle
 10
-708.9363547258
 20
1123.6935131714
 30
0.0
 40
0.449999999999891
100
AcDbArc
 50
60.0
 51
136.6582417728
  0
ARC
  5
10D
330
1F
100
AcDbEntity
  8
0
  6
Continuous
 62
     7
370
    25
100
AcDbCircle
 10
-709.8363547258
 20
1124.5428695454
 30
0.0
 40
0.7874999999999055
100
AcDbArc
 50
223.3417582272
 51
316.6582417728
  0
ARC
  5
10E
330
1F
100
AcDbEntity
  8
0
  6
Continuous
 62
     7
370
    25
100
AcDbCircle
 10
-710.7363547258
 20
1123.6935131714
 30
0.0
 40
0.449999999999891
100
AcDbArc
 50
43.3417582272
 51
120.0
  0
ARC
  5
10F
330
1F
100
AcDbEntity
  8
0
  6
Continuous
 62
     7
370
    25
100
AcDbCircle
 10
-709.8363547258
 20
1122.1346674446
 30
0.0
 40
2.250000000000086
100
AcDbArc
 50
120.0
 51
180.0
  0
ARC
  5
110
330
1F
100
AcDbEntity
  8
0
  6
Continuous
 62
     7
370
    25
100
AcDbCircle
 10
-711.6363547258
 20
1122.1346674446
 30
0.0
 40
0.4499999999999651
100
AcDbArc
 50
103.3417582272
 51
180.0
  0
ARC
  5
111
330
1F
100
AcDbEntity
  8
0
  6
Continuous
 62
     7
370
    25
100
AcDbCircle
 10
-711.9219189225
 20
1123.338768495
 30
0.0
 40
0.7875000000001892
100
AcDbArc
 50
283.3417582272
 51
16.6582417728
  0
ARC
  5
112
330
1F
100
AcDbEntity
  8
0
  6
Continuous
 62
     7
370
    25
100
AcDbCircle
 10
-710.7363547258
 20
1123.6935131714
 30
0.0
 40
0.4500000000000137
100
AcDbArc
 50
120.0
 51
196.6582417728
  0
ARC
  5
113
330
1F
100
AcDbEntity
  8
0
  6
Continuous
 62
     7
370
    25
100
AcDbCircle
 10
-709.8363547258
 20
1122.1346674446
 30
0.0
 40
2.250000000000143
100
AcDbArc
 50
0.0
 51
60.0
  0
ARC
  5
114
330
1F
100
AcDbEntity
  8
0
  6
Continuous
 62
     7
370
    25
100
AcDbCircle
 10
-708.0363547258
 20
1122.1346674446
 30
0.0
 40
0.4500000000001863
100
AcDbArc
 50
0.0
 51
76.6582417728
  0
ARC
  5
115
330
1F
100
AcDbEntity
  8
0
  6
Continuous
 62
     7
370
    25
100
AcDbCircle
 10
-707.7507905291
 20
1123.338768495
 30
0.0
 40
0.7874999999999807
100
AcDbArc
 50
163.3417582272
 51
256.6582417728
  0
ARC
  5
116
330
1F
100
AcDbEntity
  8
0
  6
Continuous
 62
     7
370
    25
100
AcDbCircle
 10
-708.9363547258
 20
1123.6935131714
 30
0.0
 40
0.4500000000000137
100
AcDbArc
 50
343.3417582272
 51
60.0
  0
ARC
  5
117
330
1F
100
AcDbEntity
  8
0
  6
Continuous
 62
     7
370
    25
100
AcDbCircle
 10
-709.8363547258
 20
1122.1346674446
 30
0.0
 40
2.25
100
AcDbArc
 50
300.0
 51
0.0
  0
ARC
  5
118
330
1F
100
AcDbEntity
  8
0
  6
Continuous
 62
     7
370
    25
100
AcDbCircle
 10
-708.9363547258
 20
1120.5758217178
 30
0.0
 40
0.4499999999999485
100
AcDbArc
 50
300.0
 51
16.6582417728
  0
ARC
  5
119
330
1F
100
AcDbEntity
  8
0
  6
Continuous
 62
     7
370
    25
100
AcDbCircle
 10
-708.0363547258
 20
1122.1346674446
 30
0.0
 40
0.4499999999999651
100
AcDbArc
 50
283.3417582272
 51
0.0
  0
ARC
  5
11A
330
1F
100
AcDbEntity
  8
0
  6
Continuous
 62
     7
370
    25
100
AcDbCircle
 10
-707.7507905291
 20
1120.9305663942
 30
0.0
 40
0.7875000000001547
100
AcDbArc
 50
103.3417582272
 51
196.6582417728
  0
ARC
  5
11B
330
1F
100
AcDbEntity
  8
0
  6
Continuous
 62
     7
370
    25
100
AcDbCircle
 10
-709.8363547258
 20
1122.1346674446
 30
0.0
 40
2.249999999999946
100
AcDbArc
 50
240.0
 51
300.0
  0
CIRCLE
  5
11C
330
1F
100
AcDbEntity
  8
0
  6
Continuous
 62
     7
370
    25
100
AcDbCircle
 10
-709.8363547258
 20
1122.1346674446
 30
0.0
 40
3.850000000000023
  0
ARC
  5
11D
330
1F
100
AcDbEntity
  8
0
  6
Continuous
 62
     7
370
    25
100
AcDbCircle
 10
-710.7363547258
 20
1120.5758217178
 30
0.0
 40
0.449999999999891
100
AcDbArc
 50
240.0
 51
316.6582417728
  0
ARC
  5
11E
330
1F
100
AcDbEntity
  8
0
  6
Continuous
 62
     7
370
    25
100
AcDbCircle
 10
-708.9363547258
 20
1120.5758217178
 30
0.0
 40
0.449999999999891
100
AcDbArc
 50
223.3417582272
 51
300.0
  0
ARC
  5
11F
330
1F
100
AcDbEntity
  8
0
  6
Continuous
 62
     7
370
    25
100
AcDbCircle
 10
-709.8363547258
 20
1119.7264653438
 30
0.0
 40
0.7875000000002177
100
AcDbArc
 50
43.3417582272
 51
136.6582417728
  0
ARC
  5
120
330
1F
100
AcDbEntity
  8
0
  6
Continuous
 62
     7
370
    25
100
AcDbCircle
 10
890.1636452742
 20
1122.1346674446
 30
0.0
 40
2.250000000000283
100
AcDbArc
 50
120.0
 51
180.0
  0
ARC
  5
121
330
1F
100
AcDbEntity
  8
0
  6
Continuous
 62
     7
370
    25
100
AcDbCircle
 10
889.2636452742
 20
1123.6935131714
 30
0.0
 40
0.4500000000001249
100
AcDbArc
 50
120.0
 51
196.6582417728
  0
ARC
  5
122
330
1F
100
AcDbEntity
  8
0
  6
Continuous
 62
     7
370
    25
100
AcDbCircle
 10
888.0780810775
 20
1123.338768495
 30
0.0
 40
0.7875000000000896
100
AcDbArc
 50
283.3417582272
 51
16.6582417728
  0
ARC
  5
123
330
1F
100
AcDbEntity
  8
0
  6
Continuous
 62
     7
370
    25
100
AcDbCircle
 10
888.3636452742
 20
1122.1346674446
 30
0.0
 40
0.45000000000016
100
AcDbArc
 50
103.3417582272
 51
180.0
  0
ARC
  5
124
330
1F
100
AcDbEntity
  8
0
  6
Continuous
 62
     7
370
    25
100
AcDbCircle
 10
890.1636452742
 20
1122.1346674446
 30
0.0
 40
2.25
100
AcDbArc
 50
180.0
 51
240.0
  0
ARC
  5
125
330
1F
100
AcDbEntity
  8
0
  6
Continuous
 62
     7
370
    25
100
AcDbCircle
 10
890.1636452742
 20
1122.1346674446
 30
0.0
 40
2.249999999999946
100
AcDbArc
 50
240.0
 51
300.0
  0
ARC
  5
126
330
1F
100
AcDbEntity
  8
0
  6
Continuous
 62
     7
370
    25
100
AcDbCircle
 10
890.1636452742
 20
1122.1346674446
 30
0.0
 40
2.250000000000114
100
AcDbArc
 50
300.0
 51
0.0
  0
ARC
  5
127
330
1F
100
AcDbEntity
  8
0
  6
Continuous
 62
     7
370
    25
100
AcDbCircle
 10
890.1636452742
 20
1122.1346674446
 30
0.0
 40
2.25000000000034
100
AcDbArc
 50
0.0
 51
60.0
  0
ARC
  5
128
330
1F
100
AcDbEntity
  8
0
  6
Continuous
 62
     7
370
    25
100
AcDbCircle
 10
890.1636452742
 20
1122.1346674446
 30
0.0
 40
2.25000000000034
100
AcDbArc
 50
60.0
 51
120.0
  0
CIRCLE
  5
129
330
1F
100
AcDbEntity
  8
0
  6
Continuous
 62
     7
370
    25
100
AcDbCircle
 10
890.1636452742
 20
1122.1346674446
 30
0.0
 40
3.849999999999909
  0
ARC
  5
12A
330
1F
100
AcDbEntity
  8
0
  6
Continuous
 62
     7
370
    25
100
AcDbCircle
 10
891.0636452742
 20
1123.6935131714
 30
0.0
 40
0.4500000000000112
100
AcDbArc
 50
60.0
 51
136.6582417728
  0
ARC
  5
12B
330
1F
100
AcDbEntity
  8
0
  6
Continuous
 62
     7
370
    25
100
AcDbCircle
 10
890.1636452742
 20
1124.5428695454
 30
0.0
 40
0.7875000000001443
100
AcDbArc
 50
223.3417582272
 51
316.6582417728
  0
ARC
  5
12C
330
1F
100
AcDbEntity
  8
0
  6
Continuous
 62
     7
370
    25
100
AcDbCircle
 10
889.2636452742
 20
1123.6935131714
 30
0.0
 40
0.4500000000001249
100
AcDbArc
 50
43.3417582272
 51
120.0
  0
ARC
  5
12D
330
1F
100
AcDbEntity
  8
0
  6
Continuous
 62
     7
370
    25
100
AcDbCircle
 10
889.2636452742
 20
1120.5758217178
 30
0.0
 40
0.4500000000000112
100
AcDbArc
 50
163.3417582272
 51
240.0
  0
ARC
  5
12E
330
1F
100
AcDbEntity
  8
0
  6
Continuous
 62
     7
370
    25
100
AcDbCircle
 10
888.3636452742
 20
1122.1346674446
 30
0.0
 40
0.4500000000000455
100
AcDbArc
 50
180.0
 51
256.6582417728
  0
ARC
  5
12F
330
1F
100
AcDbEntity
  8
0
  6
Continuous
 62
     7
370
    25
100
AcDbCircle
 10
888.0780810775
 20
1120.9305663942
 30
0.0
 40
0.7875000000001547
100
AcDbArc
 50
343.3417582272
 51
76.6582417728
  0
ARC
  5
130
330
1F
100
AcDbEntity
  8
0
  6
Continuous
 62
     7
370
    25
100
AcDbCircle
 10
891.0636452742
 20
1123.6935131714
 30
0.0
 40
0.4500000000000112
100
AcDbArc
 50
343.3417582272
 51
60.0
  0
ARC
  5
131
330
1F
100
AcDbEntity
  8
0
  6
Continuous
 62
     7
370
    25
100
AcDbCircle
 10
891.9636452742
 20
1122.1346674446
 30
0.0
 40
0.45000000000016
100
AcDbArc
 50
0.0
 51
76.6582417728
  0
ARC
  5
132
330
1F
100
AcDbEntity
  8
0
  6
Continuous
 62
     7
370
    25
100
AcDbCircle
 10
892.2492094709
 20
1123.338768495
 30
0.0
 40
0.7875000000000896
100
AcDbArc
 50
163.3417582272
 51
256.6582417728
  0
ARC
  5
133
330
1F
100
AcDbEntity
  8
0
  6
Continuous
 62
     7
370
    25
100
AcDbCircle
 10
891.0636452742
 20
1120.5758217178
 30
0.0
 40
0.4500000000001249
100
AcDbArc
 50
300.0
 51
16.6582417728
  0
ARC
  5
134
330
1F
100
AcDbEntity
  8
0
  6
Continuous
 62
     7
370
    25
100
AcDbCircle
 10
891.9636452742
 20
1122.1346674446
 30
0.0
 40
0.4500000000000455
100
AcDbArc
 50
283.3417582272
 51
0.0
  0
ARC
  5
135
330
1F
100
AcDbEntity
  8
0
  6
Continuous
 62
     7
370
    25
100
AcDbCircle
 10
892.2492094709
 20
1120.9305663942
 30
0.0
 40
0.7875000000002417
100
AcDbArc
 50
103.3417582272
 51
196.6582417728
  0
ARC
  5
136
330
1F
100
AcDbEntity
  8
0
  6
Continuous
 62
     7
370
    25
100
AcDbCircle
 10
891.0636452742
 20
1120.5758217178
 30
0.0
 40
0.4500000000001249
100
AcDbArc
 50
223.3417582272
 51
300.0
  0
ARC
  5
137
330
1F
100
AcDbEntity
  8
0
  6
Continuous
 62
     7
370
    25
100
AcDbCircle
 10
890.1636452742
 20
1119.7264653438
 30
0.0
 40
0.7875000000000616
100
AcDbArc
 50
43.3417582272
 51
136.6582417728
  0
ARC
  5
138
330
1F
100
AcDbEntity
  8
0
  6
Continuous
 62
     7
370
    25
100
AcDbCircle
 10
889.2636452742
 20
1120.5758217178
 30
0.0
 40
0.450000000000047
100
AcDbArc
 50
240.0
 51
316.6582417728
  0
ARC
  5
139
330
1F
100
AcDbEntity
  8
0
  6
Continuous
 62
     7
370
    25
100
AcDbCircle
 10
-709.8363547258
 20
-477.8653325554
 30
0.0
 40
2.250000000000103
100
AcDbArc
 50
336.6591273129
 51
36.6591273129
  0
ARC
  5
13A
330
1F
100
AcDbEntity
  8
0
  6
Continuous
 62
     7
370
    25
100
AcDbCircle
 10
-708.1836595615
 20
-478.5784936129
 30
0.0
 40
0.4500000000000279
100
AcDbArc
 50
336.6591273129
 51
53.3173690857
  0
ARC
  5
13B
330
1F
100
AcDbEntity
  8
0
  6
Continuous
 62
     7
370
    25
100
AcDbCircle
 10
-707.4443992585
 20
-477.5860721025
 30
0.0
 40
0.787500000000153
100
AcDbArc
 50
140.0008855401
 51
233.3173690857
  0
ARC
  5
13C
330
1F
100
AcDbEntity
  8
0
  6
Continuous
 62
     7
370
    25
100
AcDbCircle
 10
-708.3923915509
 20
-476.7906370872
 30
0.0
 40
0.4500000000000343
100
AcDbArc
 50
320.0008855401
 51
36.6591273129
  0
ARC
  5
13D
330
1F
100
AcDbEntity
  8
0
  6
Continuous
 62
     7
370
    25
100
AcDbCircle
 10
-709.8363547258
 20
-477.8653325554
 30
0.0
 40
2.250000000000103
100
AcDbArc
 50
36.6591273129
 51
96.6591273129
  0
ARC
  5
13E
330
1F
100
AcDbEntity
  8
0
  6
Continuous
 62
     7
370
    25
100
AcDbCircle
 10
-708.3923915509
 20
-476.7906370872
 30
0.0
 40
0.4500000000000343
100
AcDbArc
 50
36.6591273129
 51
113.3173690857
  0
ARC
  5
13F
330
1F
100
AcDbEntity
  8
0
  6
Continuous
 62
     7
370
    25
100
AcDbCircle
 10
-708.8822236386
 20
-475.6542081295
 30
0.0
 40
0.7875000000000574
100
AcDbArc
 50
200.0008855401
 51
293.3173690857
  0
ARC
  5
140
330
1F
100
AcDbEntity
  8
0
  6
Continuous
 62
     7
370
    25
100
AcDbCircle
 10
-710.0450867152
 20
-476.0774760297
 30
0.0
 40
0.4500000000000257
100
AcDbArc
 50
20.0008855401
 51
96.6591273129
  0
ARC
  5
141
330
1F
100
AcDbEntity
  8
0
  6
Continuous
 62
     7
370
    25
100
AcDbCircle
 10
-709.8363547258
 20
-477.8653325554
 30
0.0
 40
2.250000000000059
100
AcDbArc
 50
216.6591273129
 51
276.6591273129
  0
ARC
  5
142
330
1F
100
AcDbEntity
  8
0
  6
Continuous
 62
     7
370
    25
100
AcDbCircle
 10
-711.2803179007
 20
-478.9400280237
 30
0.0
 40
0.4499999999999806
100
AcDbArc
 50
216.6591273129
 51
293.3173690857
  0
ARC
  5
143
330
1F
100
AcDbEntity
  8
0
  6
Continuous
 62
     7
370
    25
100
AcDbCircle
 10
-709.6276227364
 20
-479.6531890812
 30
0.0
 40
0.4500000000000257
100
AcDbArc
 50
200.0008855401
 51
276.6591273129
  0
ARC
  5
144
330
1F
100
AcDbEntity
  8
0
  6
Continuous
 62
     7
370
    25
100
AcDbCircle
 10
-710.7904858129
 20
-480.0764569813
 30
0.0
 40
0.7875000000000628
100
AcDbArc
 50
20.0008855401
 51
113.3173690857
  0
ARC
  5
145
330
1F
100
AcDbEntity
  8
0
  6
Continuous
 62
     7
370
    25
100
AcDbCircle
 10
-709.8363547258
 20
-477.8653325554
 30
0.0
 40
2.249999999999989
100
AcDbArc
 50
96.6591273129
 51
156.6591273129
  0
ARC
  5
146
330
1F
100
AcDbEntity
  8
0
  6
Continuous
 62
     7
370
    25
100
AcDbCircle
 10
-710.0450867152
 20
-476.0774760297
 30
0.0
 40
0.4500000000000969
100
AcDbArc
 50
96.6591273129
 51
173.3173690857
  0
ARC
  5
147
330
1F
100
AcDbEntity
  8
0
  6
Continuous
 62
     7
370
    25
100
AcDbCircle
 10
-711.4890498901
 20
-477.1521714979
 30
0.0
 40
0.4500000000000504
100
AcDbArc
 50
80.0008855401
 51
156.6591273129
  0
ARC
  5
148
330
1F
100
AcDbEntity
  8
0
  6
Continuous
 62
     7
370
    25
100
AcDbCircle
 10
-711.274179106
 20
-475.9334685825
 30
0.0
 40
0.7874999999999611
100
AcDbArc
 50
260.0008855401
 51
353.3173690857
  0
ARC
  5
149
330
1F
100
AcDbEntity
  8
0
  6
Continuous
 62
     7
370
    25
100
AcDbCircle
 10
-709.8363547258
 20
-477.8653325554
 30
0.0
 40
2.250000000000059
100
AcDbArc
 50
276.6591273129
 51
336.6591273129
  0
ARC
  5
14A
330
1F
100
AcDbEntity
  8
0
  6
Continuous
 62
     7
370
    25
100
AcDbCircle
 10
-708.3985303456
 20
-479.7971965284
 30
0.0
 40
0.7874999999999809
100
AcDbArc
 50
80.0008855401
 51
173.3173690857
  0
ARC
  5
14B
330
1F
100
AcDbEntity
  8
0
  6
Continuous
 62
     7
370
    25
100
AcDbCircle
 10
-708.1836595615
 20
-478.5784936129
 30
0.0
 40
0.4500000000000279
100
AcDbArc
 50
260.0008855401
 51
336.6591273129
  0
ARC
  5
14C
330
1F
100
AcDbEntity
  8
0
  6
Continuous
 62
     7
370
    25
100
AcDbCircle
 10
-709.6276227364
 20
-479.6531890812
 30
0.0
 40
0.4500000000000969
100
AcDbArc
 50
276.6591273129
 51
353.3173690857
  0
ARC
  5
14D
330
1F
100
AcDbEntity
  8
0
  6
Continuous
 62
     7
370
    25
100
AcDbCircle
 10
-709.8363547258
 20
-477.8653325554
 30
0.0
 40
2.249999999999939
100
AcDbArc
 50
156.6591273129
 51
216.6591273129
  0
CIRCLE
  5
14E
330
1F
100
AcDbEntity
  8
0
  6
Continuous
 62
     7
370
    25
100
AcDbCircle
 10
-709.8363547258
 20
-477.8653325554
 30
0.0
 40
3.850000000000029
  0
ARC
  5
14F
330
1F
100
AcDbEntity
  8
0
  6
Continuous
 62
     7
370
    25
100
AcDbCircle
 10
-711.2803179007
 20
-478.9400280237
 30
0.0
 40
0.4499999999999091
100
AcDbArc
 50
140.0008855401
 51
216.6591273129
  0
ARC
  5
150
330
1F
100
AcDbEntity
  8
0
  6
Continuous
 62
     7
370
    25
100
AcDbCircle
 10
-712.2283101931
 20
-478.1445930084
 30
0.0
 40
0.787500000000085
100
AcDbArc
 50
320.0008855401
 51
53.3173690857
  0
ARC
  5
151
330
1F
100
AcDbEntity
  8
0
  6
Continuous
 62
     7
370
    25
100
AcDbCircle
 10
-711.4890498901
 20
-477.1521714979
 30
0.0
 40
0.4500000000000504
100
AcDbArc
 50
156.6591273129
 51
233.3173690857
  0
ARC
  5
152
330
1F
100
AcDbEntity
  8
0
  6
Continuous
 62
     7
370
    25
100
AcDbCircle
 10
1200.1636452742
 20
-477.8653325554
 30
0.0
 40
2.250000000000002
100
AcDbArc
 50
23.3408726871
 51
83.3408726871
  0
ARC
  5
153
330
1F
100
AcDbEntity
  8
0
  6
Continuous
 62
     7
370
    25
100
AcDbCircle
 10
1201.8163404385
 20
-477.1521714979
 30
0.0
 40
0.450000000000062
100
AcDbArc
 50
23.3408726871
 51
99.9991144599
  0
ARC
  5
154
330
1F
100
AcDbEntity
  8
0
  6
Continuous
 62
     7
370
    25
100
AcDbCircle
 10
1201.6014696544
 20
-475.9334685825
 30
0.0
 40
0.7875000000001281
100
AcDbArc
 50
186.6826309143
 51
279.9991144599
  0
ARC
  5
155
330
1F
100
AcDbEntity
  8
0
  6
Continuous
 62
     7
370
    25
100
AcDbCircle
 10
1200.3723772636
 20
-476.0774760297
 30
0.0
 40
0.4500000000000125
100
AcDbArc
 50
6.6826309143
 51
83.3408726871
  0
ARC
  5
156
330
1F
100
AcDbEntity
  8
0
  6
Continuous
 62
     7
370
    25
100
AcDbCircle
 10
1200.1636452742
 20
-477.8653325554
 30
0.0
 40
2.250000000000032
100
AcDbArc
 50
203.3408726871
 51
263.3408726871
  0
ARC
  5
157
330
1F
100
AcDbEntity
  8
0
  6
Continuous
 62
     7
370
    25
100
AcDbCircle
 10
1198.5109501099
 20
-478.5784936129
 30
0.0
 40
0.450000000000006
100
AcDbArc
 50
203.3408726871
 51
279.9991144599
  0
ARC
  5
158
330
1F
100
AcDbEntity
  8
0
  6
Continuous
 62
     7
370
    25
100
AcDbCircle
 10
1198.725820894
 20
-479.7971965284
 30
0.0
 40
0.7875000000001214
100
AcDbArc
 50
6.6826309143
 51
99.9991144599
  0
ARC
  5
159
330
1F
100
AcDbEntity
  8
0
  6
Continuous
 62
     7
370
    25
100
AcDbCircle
 10
1199.9549132848
 20
-479.6531890812
 30
0.0
 40
0.4500000000000125
100
AcDbArc
 50
186.6826309143
 51
263.3408726871
  0
ARC
  5
15A
330
1F
100
AcDbEntity
  8
0
  6
Continuous
 62
     7
370
    25
100
AcDbCircle
 10
1200.1636452742
 20
-477.8653325554
 30
0.0
 40
2.250000000000103
100
AcDbArc
 50
323.3408726871
 51
23.3408726871
  0
ARC
  5
15B
330
1F
100
AcDbEntity
  8
0
  6
Continuous
 62
     7
370
    25
100
AcDbCircle
 10
1201.8163404385
 20
-477.1521714979
 30
0.0
 40
0.4499999999998605
100
AcDbArc
 50
306.6826309143
 51
23.3408726871
  0
ARC
  5
15C
330
1F
100
AcDbEntity
  8
0
  6
Continuous
 62
     7
370
    25
100
AcDbCircle
 10
1201.6076084491
 20
-478.9400280237
 30
0.0
 40
0.4500000000000003
100
AcDbArc
 50
323.3408726871
 51
39.9991144599
  0
ARC
  5
15D
330
1F
100
AcDbEntity
  8
0
  6
Continuous
 62
     7
370
    25
100
AcDbCircle
 10
1202.5556007415
 20
-478.1445930084
 30
0.0
 40
0.787500000000085
100
AcDbArc
 50
126.6826309143
 51
219.9991144599
  0
ARC
  5
15E
330
1F
100
AcDbEntity
  8
0
  6
Continuous
 62
     7
370
    25
100
AcDbCircle
 10
1200.1636452742
 20
-477.8653325554
 30
0.0
 40
2.249999999999939
100
AcDbArc
 50
143.3408726871
 51
203.3408726871
  0
ARC
  5
15F
330
1F
100
AcDbEntity
  8
0
  6
Continuous
 62
     7
370
    25
100
AcDbCircle
 10
1197.7716898069
 20
-477.5860721025
 30
0.0
 40
0.787500000000085
100
AcDbArc
 50
306.6826309143
 51
39.9991144599
  0
ARC
  5
160
330
1F
100
AcDbEntity
  8
0
  6
Continuous
 62
     7
370
    25
100
AcDbCircle
 10
1198.5109501099
 20
-478.5784936129
 30
0.0
 40
0.4499999999999964
100
AcDbArc
 50
126.6826309143
 51
203.3408726871
  0
ARC
  5
161
330
1F
100
AcDbEntity
  8
0
  6
Continuous
 62
     7
370
    25
100
AcDbCircle
 10
1198.7196820993
 20
-476.7906370872
 30
0.0
 40
0.4500000000001392
100
AcDbArc
 50
143.3408726871
 51
219.9991144599
  0
ARC
  5
162
330
1F
100
AcDbEntity
  8
0
  6
Continuous
 62
     7
370
    25
100
AcDbCircle
 10
1200.1636452742
 20
-477.8653325554
 30
0.0
 40
2.250000000000002
100
AcDbArc
 50
83.3408726871
 51
143.3408726871
  0
ARC
  5
163
330
1F
100
AcDbEntity
  8
0
  6
Continuous
 62
     7
370
    25
100
AcDbCircle
 10
1200.3723772636
 20
-476.0774760297
 30
0.0
 40
0.4500000000001133
100
AcDbArc
 50
83.3408726871
 51
159.9991144599
  0
ARC
  5
164
330
1F
100
AcDbEntity
  8
0
  6
Continuous
 62
     7
370
    25
100
AcDbCircle
 10
1199.2095141871
 20
-475.6542081295
 30
0.0
 40
0.7875000000000555
100
AcDbArc
 50
246.6826309143
 51
339.9991144599
  0
ARC
  5
165
330
1F
100
AcDbEntity
  8
0
  6
Continuous
 62
     7
370
    25
100
AcDbCircle
 10
1198.7196820993
 20
-476.7906370872
 30
0.0
 40
0.4500000000000343
100
AcDbArc
 50
66.6826309143
 51
143.3408726871
  0
ARC
  5
166
330
1F
100
AcDbEntity
  8
0
  6
Continuous
 62
     7
370
    25
100
AcDbCircle
 10
1200.1636452742
 20
-477.8653325554
 30
0.0
 40
2.250000000000103
100
AcDbArc
 50
263.3408726871
 51
323.3408726871
  0
CIRCLE
  5
167
330
1F
100
AcDbEntity
  8
0
  6
Continuous
 62
     7
370
    25
100
AcDbCircle
 10
1200.1636452742
 20
-477.8653325554
 30
0.0
 40
3.850000000000002
  0
ARC
  5
168
330
1F
100
AcDbEntity
  8
0
  6
Continuous
 62
     7
370
    25
100
AcDbCircle
 10
1201.1177763614
 20
-480.0764569813
 30
0.0
 40
0.7875000000001078
100
AcDbArc
 50
66.6826309143
 51
159.9991144599
  0
ARC
  5
169
330
1F
100
AcDbEntity
  8
0
  6
Continuous
 62
     7
370
    25
100
AcDbCircle
 10
1199.9549132848
 20
-479.6531890812
 30
0.0
 40
0.4500000000000125
100
AcDbArc
 50
263.3408726871
 51
339.9991144599
  0
ARC
  5
16A
330
1F
100
AcDbEntity
  8
0
  6
Continuous
 62
     7
370
    25
100
AcDbCircle
 10
1201.6076084491
 20
-478.9400280237
 30
0.0
 40
0.4500000000000003
100
AcDbArc
 50
246.6826309143
 51
323.3408726871
  0
ARC
  5
16B
330
1F
100
AcDbEntity
  8
0
  6
Continuous
 62
     7
370
    25
100
AcDbCircle
 10
-709.8363547258
 20
812.1346674446
 30
0.0
 40
2.250000000000002
100
AcDbArc
 50
83.3408726871
 51
143.3408726871
  0
ARC
  5
16C
330
1F
100
AcDbEntity
  8
0
  6
Continuous
 62
     7
370
    25
100
AcDbCircle
 10
-709.6276227364
 20
813.9225239703
 30
0.0
 40
0.4500000000001386
100
AcDbArc
 50
83.3408726871
 51
159.9991144599
  0
ARC
  5
16D
330
1F
100
AcDbEntity
  8
0
  6
Continuous
 62
     7
370
    25
100
AcDbCircle
 10
-710.7904858129
 20
814.3457918705
 30
0.0
 40
0.78749999999997
100
AcDbArc
 50
246.6826309143
 51
339.9991144599
  0
ARC
  5
16E
330
1F
100
AcDbEntity
  8
0
  6
Continuous
 62
     7
370
    25
100
AcDbCircle
 10
-711.2803179007
 20
813.2093629128
 30
0.0
 40
0.4499999999999806
100
AcDbArc
 50
66.6826309143
 51
143.3408726871
  0
ARC
  5
16F
330
1F
100
AcDbEntity
  8
0
  6
Continuous
 62
     7
370
    25
100
AcDbCircle
 10
-709.8363547258
 20
812.1346674446
 30
0.0
 40
2.250000000000002
100
AcDbArc
 50
23.3408726871
 51
83.3408726871
  0
ARC
  5
170
330
1F
100
AcDbEntity
  8
0
  6
Continuous
 62
     7
370
    25
100
AcDbCircle
 10
-708.1836595615
 20
812.8478285021
 30
0.0
 40
0.4500000000000504
100
AcDbArc
 50
23.3408726871
 51
99.9991144599
  0
ARC
  5
171
330
1F
100
AcDbEntity
  8
0
  6
Continuous
 62
     7
370
    25
100
AcDbCircle
 10
-708.3985303456
 20
814.0665314175
 30
0.0
 40
0.7875000000001487
100
AcDbArc
 50
186.6826309143
 51
279.9991144599
  0
ARC
  5
172
330
1F
100
AcDbEntity
  8
0
  6
Continuous
 62
     7
370
    25
100
AcDbCircle
 10
-709.6276227364
 20
813.9225239703
 30
0.0
 40
0.4500000000001386
100
AcDbArc
 50
6.6826309143
 51
83.3408726871
  0
ARC
  5
173
330
1F
100
AcDbEntity
  8
0
  6
Continuous
 62
     7
370
    25
100
AcDbCircle
 10
-709.8363547258
 20
812.1346674446
 30
0.0
 40
2.249999999999989
100
AcDbArc
 50
203.3408726871
 51
263.3408726871
  0
ARC
  5
174
330
1F
100
AcDbEntity
  8
0
  6
Continuous
 62
     7
370
    25
100
AcDbCircle
 10
-711.4890498901
 20
811.4215063871
 30
0.0
 40
0.4500000000000053
100
AcDbArc
 50
203.3408726871
 51
279.9991144599
  0
ARC
  5
175
330
1F
100
AcDbEntity
  8
0
  6
Continuous
 62
     7
370
    25
100
AcDbCircle
 10
-711.274179106
 20
810.2028034716
 30
0.0
 40
0.7874999999998891
100
AcDbArc
 50
6.6826309143
 51
99.9991144599
  0
ARC
  5
176
330
1F
100
AcDbEntity
  8
0
  6
Continuous
 62
     7
370
    25
100
AcDbCircle
 10
-710.0450867152
 20
810.3468109188
 30
0.0
 40
0.4500000000000837
100
AcDbArc
 50
186.6826309143
 51
263.3408726871
  0
ARC
  5
177
330
1F
100
AcDbEntity
  8
0
  6
Continuous
 62
     7
370
    25
100
AcDbCircle
 10
-709.8363547258
 20
812.1346674446
 30
0.0
 40
2.249999999999984
100
AcDbArc
 50
143.3408726871
 51
203.3408726871
  0
ARC
  5
178
330
1F
100
AcDbEntity
  8
0
  6
Continuous
 62
     7
370
    25
100
AcDbCircle
 10
-711.2803179007
 20
813.2093629128
 30
0.0
 40
0.4499999999999651
100
AcDbArc
 50
143.3408726871
 51
219.9991144599
  0
ARC
  5
179
330
1F
100
AcDbEntity
  8
0
  6
Continuous
 62
     7
370
    25
100
AcDbCircle
 10
-712.2283101931
 20
812.4139278975
 30
0.0
 40
0.787500000000085
100
AcDbArc
 50
306.6826309143
 51
39.9991144599
  0
ARC
  5
17A
330
1F
100
AcDbEntity
  8
0
  6
Continuous
 62
     7
370
    25
100
AcDbCircle
 10
-711.4890498901
 20
811.4215063871
 30
0.0
 40
0.450000000000042
100
AcDbArc
 50
126.6826309143
 51
203.3408726871
  0
ARC
  5
17B
330
1F
100
AcDbEntity
  8
0
  6
Continuous
 62
     7
370
    25
100
AcDbCircle
 10
-709.8363547258
 20
812.1346674446
 30
0.0
 40
2.250000000000171
100
AcDbArc
 50
263.3408726871
 51
323.3408726871
  0
ARC
  5
17C
330
1F
100
AcDbEntity
  8
0
  6
Continuous
 62
     7
370
    25
100
AcDbCircle
 10
-709.8363547258
 20
812.1346674446
 30
0.0
 40
2.250000000000171
100
AcDbArc
 50
323.3408726871
 51
23.3408726871
  0
CIRCLE
  5
17D
330
1F
100
AcDbEntity
  8
0
  6
Continuous
 62
     7
370
    25
100
AcDbCircle
 10
-709.8363547258
 20
812.1346674446
 30
0.0
 40
3.849999999999859
  0
ARC
  5
17E
330
1F
100
AcDbEntity
  8
0
  6
Continuous
 62
     7
370
    25
100
AcDbCircle
 10
-708.3923915509
 20
811.0599719763
 30
0.0
 40
0.4500000000000343
100
AcDbArc
 50
323.3408726871
 51
39.9991144599
  0
ARC
  5
17F
330
1F
100
AcDbEntity
  8
0
  6
Continuous
 62
     7
370
    25
100
AcDbCircle
 10
-708.1836595615
 20
812.8478285021
 30
0.0
 40
0.4500000000000504
100
AcDbArc
 50
306.6826309143
 51
23.3408726871
  0
ARC
  5
180
330
1F
100
AcDbEntity
  8
0
  6
Continuous
 62
     7
370
    25
100
AcDbCircle
 10
-707.4443992585
 20
811.8554069916
 30
0.0
 40
0.787500000000153
100
AcDbArc
 50
126.6826309143
 51
219.9991144599
  0
ARC
  5
181
330
1F
100
AcDbEntity
  8
0
  6
Continuous
 62
     7
370
    25
100
AcDbCircle
 10
-708.3923915509
 20
811.0599719763
 30
0.0
 40
0.4500000000000343
100
AcDbArc
 50
246.6826309143
 51
323.3408726871
  0
ARC
  5
182
330
1F
100
AcDbEntity
  8
0
  6
Continuous
 62
     7
370
    25
100
AcDbCircle
 10
-708.8822236386
 20
809.9235430187
 30
0.0
 40
0.7875000000001672
100
AcDbArc
 50
66.6826309143
 51
159.9991144599
  0
ARC
  5
183
330
1F
100
AcDbEntity
  8
0
  6
Continuous
 62
     7
370
    25
100
AcDbCircle
 10
-710.0450867152
 20
810.3468109188
 30
0.0
 40
0.449999999999987
100
AcDbArc
 50
263.3408726871
 51
339.9991144599
  0
ARC
  5
184
330
1F
100
AcDbEntity
  8
0
  6
Continuous
 62
     7
370
    25
100
AcDbCircle
 10
1200.1636452742
 20
812.1346674446
 30
0.0
 40
2.250000000000002
100
AcDbArc
 50
216.6591273129
 51
276.6591273129
  0
ARC
  5
185
330
1F
100
AcDbEntity
  8
0
  6
Continuous
 62
     7
370
    25
100
AcDbCircle
 10
1198.7196820993
 20
811.0599719763
 30
0.0
 40
0.4500000000000343
100
AcDbArc
 50
216.6591273129
 51
293.3173690857
  0
ARC
  5
186
330
1F
100
AcDbEntity
  8
0
  6
Continuous
 62
     7
370
    25
100
AcDbCircle
 10
1199.2095141871
 20
809.9235430187
 30
0.0
 40
0.7875000000002121
100
AcDbArc
 50
20.0008855401
 51
113.3173690857
  0
ARC
  5
187
330
1F
100
AcDbEntity
  8
0
  6
Continuous
 62
     7
370
    25
100
AcDbCircle
 10
1200.3723772636
 20
810.3468109188
 30
0.0
 40
0.4500000000000938
100
AcDbArc
 50
200.0008855401
 51
276.6591273129
  0
ARC
  5
188
330
1F
100
AcDbEntity
  8
0
  6
Continuous
 62
     7
370
    25
100
AcDbCircle
 10
1200.1636452742
 20
812.1346674446
 30
0.0
 40
2.250000000000036
100
AcDbArc
 50
336.6591273129
 51
36.6591273129
  0
ARC
  5
189
330
1F
100
AcDbEntity
  8
0
  6
Continuous
 62
     7
370
    25
100
AcDbCircle
 10
1201.8163404385
 20
811.4215063871
 30
0.0
 40
0.4499999999999061
100
AcDbArc
 50
336.6591273129
 51
53.3173690857
  0
ARC
  5
18A
330
1F
100
AcDbEntity
  8
0
  6
Continuous
 62
     7
370
    25
100
AcDbCircle
 10
1202.5556007415
 20
812.4139278975
 30
0.0
 40
0.787500000000085
100
AcDbArc
 50
140.0008855401
 51
233.3173690857
  0
ARC
  5
18B
330
1F
100
AcDbEntity
  8
0
  6
Continuous
 62
     7
370
    25
100
AcDbCircle
 10
1201.6076084491
 20
813.2093629128
 30
0.0
 40
0.4499999999999664
100
AcDbArc
 50
320.0008855401
 51
36.6591273129
  0
ARC
  5
18C
330
1F
100
AcDbEntity
  8
0
  6
Continuous
 62
     7
370
    25
100
AcDbCircle
 10
1200.1636452742
 20
812.1346674446
 30
0.0
 40
2.249999999999989
100
AcDbArc
 50
156.6591273129
 51
216.6591273129
  0
ARC
  5
18D
330
1F
100
AcDbEntity
  8
0
  6
Continuous
 62
     7
370
    25
100
AcDbCircle
 10
1198.5109501099
 20
812.8478285021
 30
0.0
 40
0.450000000000042
100
AcDbArc
 50
156.6591273129
 51
233.3173690857
  0
ARC
  5
18E
330
1F
100
AcDbEntity
  8
0
  6
Continuous
 62
     7
370
    25
100
AcDbCircle
 10
1197.7716898069
 20
811.8554069916
 30
0.0
 40
0.787500000000085
100
AcDbArc
 50
320.0008855401
 51
53.3173690857
  0
ARC
  5
18F
330
1F
100
AcDbEntity
  8
0
  6
Continuous
 62
     7
370
    25
100
AcDbCircle
 10
1198.7196820993
 20
811.0599719763
 30
0.0
 40
0.4500000000001392
100
AcDbArc
 50
140.0008855401
 51
216.6591273129
  0
ARC
  5
190
330
1F
100
AcDbEntity
  8
0
  6
Continuous
 62
     7
370
    25
100
AcDbCircle
 10
1200.1636452742
 20
812.1346674446
 30
0.0
 40
2.250000000000002
100
AcDbArc
 50
276.6591273129
 51
336.6591273129
  0
ARC
  5
191
330
1F
100
AcDbEntity
  8
0
  6
Continuous
 62
     7
370
    25
100
AcDbCircle
 10
1201.8163404385
 20
811.4215063871
 30
0.0
 40
0.450000000000006
100
AcDbArc
 50
260.0008855401
 51
336.6591273129
  0
ARC
  5
192
330
1F
100
AcDbEntity
  8
0
  6
Continuous
 62
     7
370
    25
100
AcDbCircle
 10
1200.3723772636
 20
810.3468109188
 30
0.0
 40
0.4499999999999707
100
AcDbArc
 50
276.6591273129
 51
353.3173690857
  0
ARC
  5
193
330
1F
100
AcDbEntity
  8
0
  6
Continuous
 62
     7
370
    25
100
AcDbCircle
 10
1201.6014696544
 20
810.2028034716
 30
0.0
 40
0.7875000000001149
100
AcDbArc
 50
80.0008855401
 51
173.3173690857
  0
ARC
  5
194
330
1F
100
AcDbEntity
  8
0
  6
Continuous
 62
     7
370
    25
100
AcDbCircle
 10
1200.1636452742
 20
812.1346674446
 30
0.0
 40
2.249999999999976
100
AcDbArc
 50
96.6591273129
 51
156.6591273129
  0
ARC
  5
195
330
1F
100
AcDbEntity
  8
0
  6
Continuous
 62
     7
370
    25
100
AcDbCircle
 10
1200.1636452742
 20
812.1346674446
 30
0.0
 40
2.250000000000036
100
AcDbArc
 50
36.6591273129
 51
96.6591273129
  0
CIRCLE
  5
196
330
1F
100
AcDbEntity
  8
0
  6
Continuous
 62
     7
370
    25
100
AcDbCircle
 10
1200.1636452742
 20
812.1346674446
 30
0.0
 40
3.849999999999833
  0
ARC
  5
197
330
1F
100
AcDbEntity
  8
0
  6
Continuous
 62
     7
370
    25
100
AcDbCircle
 10
1201.6076084491
 20
813.2093629128
 30
0.0
 40
0.4499999999999664
100
AcDbArc
 50
36.6591273129
 51
113.3173690857
  0
ARC
  5
198
330
1F
100
AcDbEntity
  8
0
  6
Continuous
 62
     7
370
    25
100
AcDbCircle
 10
1201.1177763614
 20
814.3457918705
 30
0.0
 40
0.7875000000000769
100
AcDbArc
 50
200.0008855401
 51
293.3173690857
  0
ARC
  5
199
330
1F
100
AcDbEntity
  8
0
  6
Continuous
 62
     7
370
    25
100
AcDbCircle
 10
1199.9549132848
 20
813.9225239703
 30
0.0
 40
0.4500000000001255
100
AcDbArc
 50
20.0008855401
 51
96.6591273129
  0
ARC
  5
19A
330
1F
100
AcDbEntity
  8
0
  6
Continuous
 62
     7
370
    25
100
AcDbCircle
 10
1198.5109501099
 20
812.8478285021
 30
0.0
 40
0.450000000000006
100
AcDbArc
 50
80.0008855401
 51
156.6591273129
  0
ARC
  5
19B
330
1F
100
AcDbEntity
  8
0
  6
Continuous
 62
     7
370
    25
100
AcDbCircle
 10
1199.9549132848
 20
813.9225239703
 30
0.0
 40
0.4500000000001255
100
AcDbArc
 50
96.6591273129
 51
173.3173690857
  0
ARC
  5
19C
330
1F
100
AcDbEntity
  8
0
  6
Continuous
 62
     7
370
    25
100
AcDbCircle
 10
1198.725820894
 20
814.0665314175
 30
0.0
 40
0.7875000000001413
100
AcDbArc
 50
260.0008855401
 51
353.3173690857
  0
ARC
  5
19D
330
1F
100
AcDbEntity
  8
0
  6
Continuous
 62
     7
370
    25
100
AcDbCircle
 10
1200.1636452742
 20
-787.8653325554
 30
0.0
 40
2.250000000000227
100
AcDbArc
 50
0.0
 51
60.0
  0
ARC
  5
19E
330
1F
100
AcDbEntity
  8
0
  6
Continuous
 62
     7
370
    25
100
AcDbCircle
 10
1201.9636452742
 20
-787.8653325554
 30
0.0
 40
0.4500000000000455
100
AcDbArc
 50
0.0
 51
76.6582417728
  0
ARC
  5
19F
330
1F
100
AcDbEntity
  8
0
  6
Continuous
 62
     7
370
    25
100
AcDbCircle
 10
1201.0636452742
 20
-786.3064868286
 30
0.0
 40
0.4500000000001663
100
AcDbArc
 50
343.3417582272
 51
60.0
  0
ARC
  5
1A0
330
1F
100
AcDbEntity
  8
0
  6
Continuous
 62
     7
370
    25
100
AcDbCircle
 10
1202.2492094709
 20
-786.661231505
 30
0.0
 40
0.7875000000002154
100
AcDbArc
 50
163.3417582272
 51
256.6582417728
  0
ARC
  5
1A1
330
1F
100
AcDbEntity
  8
0
  6
Continuous
 62
     7
370
    25
100
AcDbCircle
 10
1200.1636452742
 20
-787.8653325554
 30
0.0
 40
2.25
100
AcDbArc
 50
120.0
 51
180.0
  0
ARC
  5
1A2
330
1F
100
AcDbEntity
  8
0
  6
Continuous
 62
     7
370
    25
100
AcDbCircle
 10
1199.2636452742
 20
-786.3064868286
 30
0.0
 40
0.4500000000000112
100
AcDbArc
 50
120.0
 51
196.6582417728
  0
ARC
  5
1A3
330
1F
100
AcDbEntity
  8
0
  6
Continuous
 62
     7
370
    25
100
AcDbCircle
 10
1198.3636452742
 20
-787.8653325554
 30
0.0
 40
0.4500000000000455
100
AcDbArc
 50
103.3417582272
 51
180.0
  0
ARC
  5
1A4
330
1F
100
AcDbEntity
  8
0
  6
Continuous
 62
     7
370
    25
100
AcDbCircle
 10
1198.0780810775
 20
-786.661231505
 30
0.0
 40
0.7875000000000467
100
AcDbArc
 50
283.3417582272
 51
16.6582417728
  0
ARC
  5
1A5
330
1F
100
AcDbEntity
  8
0
  6
Continuous
 62
     7
370
    25
100
AcDbCircle
 10
1200.1636452742
 20
-787.8653325554
 30
0.0
 40
2.250000000000227
100
AcDbArc
 50
300.0
 51
0.0
  0
ARC
  5
1A6
330
1F
100
AcDbEntity
  8
0
  6
Continuous
 62
     7
370
    25
100
AcDbCircle
 10
1201.0636452742
 20
-789.4241782822
 30
0.0
 40
0.4499999999999485
100
AcDbArc
 50
300.0
 51
16.6582417728
  0
ARC
  5
1A7
330
1F
100
AcDbEntity
  8
0
  6
Continuous
 62
     7
370
    25
100
AcDbCircle
 10
1202.2492094709
 20
-789.0694336058
 30
0.0
 40
0.7875000000000132
100
AcDbArc
 50
103.3417582272
 51
196.6582417728
  0
ARC
  5
1A8
330
1F
100
AcDbEntity
  8
0
  6
Continuous
 62
     7
370
    25
100
AcDbCircle
 10
1201.9636452742
 20
-787.8653325554
 30
0.0
 40
0.4500000000000455
100
AcDbArc
 50
283.3417582272
 51
0.0
  0
ARC
  5
1A9
330
1F
100
AcDbEntity
  8
0
  6
Continuous
 62
     7
370
    25
100
AcDbCircle
 10
1200.1636452742
 20
-787.8653325554
 30
0.0
 40
2.250000000000086
100
AcDbArc
 50
180.0
 51
240.0
  0
ARC
  5
1AA
330
1F
100
AcDbEntity
  8
0
  6
Continuous
 62
     7
370
    25
100
AcDbCircle
 10
1200.1636452742
 20
-787.8653325554
 30
0.0
 40
2.250000000000086
100
AcDbArc
 50
240.0
 51
300.0
  0
ARC
  5
1AB
330
1F
100
AcDbEntity
  8
0
  6
Continuous
 62
     7
370
    25
100
AcDbCircle
 10
1200.1636452742
 20
-787.8653325554
 30
0.0
 40
2.249999999999988
100
AcDbArc
 50
60.0
 51
120.0
  0
CIRCLE
  5
1AC
330
1F
100
AcDbEntity
  8
0
  6
Continuous
 62
     7
370
    25
100
AcDbCircle
 10
1200.1636452742
 20
-787.8653325554
 30
0.0
 40
3.849999999999909
  0
ARC
  5
1AD
330
1F
100
AcDbEntity
  8
0
  6
Continuous
 62
     7
370
    25
100
AcDbCircle
 10
1198.0780810775
 20
-789.0694336058
 30
0.0
 40
0.7875000000000467
100
AcDbArc
 50
343.3417582272
 51
76.6582417728
  0
ARC
  5
1AE
330
1F
100
AcDbEntity
  8
0
  6
Continuous
 62
     7
370
    25
100
AcDbCircle
 10
1198.3636452742
 20
-787.8653325554
 30
0.0
 40
0.4500000000000455
100
AcDbArc
 50
180.0
 51
256.6582417728
  0
ARC
  5
1AF
330
1F
100
AcDbEntity
  8
0
  6
Continuous
 62
     7
370
    25
100
AcDbCircle
 10
1199.2636452742
 20
-789.4241782822
 30
0.0
 40
0.4500000000001663
100
AcDbArc
 50
163.3417582272
 51
240.0
  0
ARC
  5
1B0
330
1F
100
AcDbEntity
  8
0
  6
Continuous
 62
     7
370
    25
100
AcDbCircle
 10
1200.1636452742
 20
-790.2735346562
 30
0.0
 40
0.7875000000002224
100
AcDbArc
 50
43.3417582272
 51
136.6582417728
  0
ARC
  5
1B1
330
1F
100
AcDbEntity
  8
0
  6
Continuous
 62
     7
370
    25
100
AcDbCircle
 10
1201.0636452742
 20
-789.4241782822
 30
0.0
 40
0.4499999999998863
100
AcDbArc
 50
223.3417582272
 51
300.0
  0
ARC
  5
1B2
330
1F
100
AcDbEntity
  8
0
  6
Continuous
 62
     7
370
    25
100
AcDbCircle
 10
1199.2636452742
 20
-789.4241782822
 30
0.0
 40
0.4500000000001249
100
AcDbArc
 50
240.0
 51
316.6582417728
  0
ARC
  5
1B3
330
1F
100
AcDbEntity
  8
0
  6
Continuous
 62
     7
370
    25
100
AcDbCircle
 10
1200.1636452742
 20
-785.4571304546
 30
0.0
 40
0.7875000000000663
100
AcDbArc
 50
223.3417582272
 51
316.6582417728
  0
ARC
  5
1B4
330
1F
100
AcDbEntity
  8
0
  6
Continuous
 62
     7
370
    25
100
AcDbCircle
 10
1201.0636452742
 20
-786.3064868286
 30
0.0
 40
0.4500000000001249
100
AcDbArc
 50
60.0
 51
136.6582417728
  0
ARC
  5
1B5
330
1F
100
AcDbEntity
  8
0
  6
Continuous
 62
     7
370
    25
100
AcDbCircle
 10
1199.2636452742
 20
-786.3064868286
 30
0.0
 40
0.4500000000000424
100
AcDbArc
 50
43.3417582272
 51
120.0
  0
ARC
  5
1B6
330
1F
100
AcDbEntity
  8
0
  6
Continuous
 62
     7
370
    25
100
AcDbCircle
 10
-399.8363547258
 20
1122.1346674446
 30
0.0
 40
2.250000000000058
100
AcDbArc
 50
0.0
 51
60.0
  0
ARC
  5
1B7
330
1F
100
AcDbEntity
  8
0
  6
Continuous
 62
     7
370
    25
100
AcDbCircle
 10
-399.8363547258
 20
1122.1346674446
 30
0.0
 40
2.250000000000115
100
AcDbArc
 50
60.0
 51
120.0
  0
ARC
  5
1B8
330
1F
100
AcDbEntity
  8
0
  6
Continuous
 62
     7
370
    25
100
AcDbCircle
 10
-399.8363547258
 20
1122.1346674446
 30
0.0
 40
2.250000000000115
100
AcDbArc
 50
120.0
 51
180.0
  0
ARC
  5
1B9
330
1F
100
AcDbEntity
  8
0
  6
Continuous
 62
     7
370
    25
100
AcDbCircle
 10
-399.8363547258
 20
1122.1346674446
 30
0.0
 40
2.25
100
AcDbArc
 50
180.0
 51
240.0
  0
ARC
  5
1BA
330
1F
100
AcDbEntity
  8
0
  6
Continuous
 62
     7
370
    25
100
AcDbCircle
 10
-399.8363547258
 20
1122.1346674446
 30
0.0
 40
2.249999999999918
100
AcDbArc
 50
240.0
 51
300.0
  0
ARC
  5
1BB
330
1F
100
AcDbEntity
  8
0
  6
Continuous
 62
     7
370
    25
100
AcDbCircle
 10
-399.8363547258
 20
1122.1346674446
 30
0.0
 40
2.249999999999943
100
AcDbArc
 50
300.0
 51
0.0
  0
CIRCLE
  5
1BC
330
1F
100
AcDbEntity
  8
0
  6
Continuous
 62
     7
370
    25
100
AcDbCircle
 10
-399.8363547258
 20
1122.1346674446
 30
0.0
 40
3.850000000000023
  0
ARC
  5
1BD
330
1F
100
AcDbEntity
  8
0
  6
Continuous
 62
     7
370
    25
100
AcDbCircle
 10
-400.7363547258
 20
1123.6935131714
 30
0.0
 40
0.4500000000000137
100
AcDbArc
 50
120.0
 51
196.6582417728
  0
ARC
  5
1BE
330
1F
100
AcDbEntity
  8
0
  6
Continuous
 62
     7
370
    25
100
AcDbCircle
 10
-401.9219189225
 20
1123.338768495
 30
0.0
 40
0.7875000000002023
100
AcDbArc
 50
283.3417582272
 51
16.6582417728
  0
ARC
  5
1BF
330
1F
100
AcDbEntity
  8
0
  6
Continuous
 62
     7
370
    25
100
AcDbCircle
 10
-401.6363547258
 20
1122.1346674446
 30
0.0
 40
0.4499999999999886
100
AcDbArc
 50
103.3417582272
 51
180.0
  0
ARC
  5
1C0
330
1F
100
AcDbEntity
  8
0
  6
Continuous
 62
     7
370
    25
100
AcDbCircle
 10
-398.0363547258
 20
1122.1346674446
 30
0.0
 40
0.4500000000001732
100
AcDbArc
 50
0.0
 51
76.6582417728
  0
ARC
  5
1C1
330
1F
100
AcDbEntity
  8
0
  6
Continuous
 62
     7
370
    25
100
AcDbCircle
 10
-397.7507905291
 20
1123.338768495
 30
0.0
 40
0.787499999999968
100
AcDbArc
 50
163.3417582272
 51
256.6582417728
  0
ARC
  5
1C2
330
1F
100
AcDbEntity
  8
0
  6
Continuous
 62
     7
370
    25
100
AcDbCircle
 10
-398.9363547258
 20
1123.6935131714
 30
0.0
 40
0.4500000000000681
100
AcDbArc
 50
343.3417582272
 51
60.0
  0
ARC
  5
1C3
330
1F
100
AcDbEntity
  8
0
  6
Continuous
 62
     7
370
    25
100
AcDbCircle
 10
-398.9363547258
 20
1120.5758217178
 30
0.0
 40
0.450000000000003
100
AcDbArc
 50
300.0
 51
16.6582417728
  0
ARC
  5
1C4
330
1F
100
AcDbEntity
  8
0
  6
Continuous
 62
     7
370
    25
100
AcDbCircle
 10
-397.7507905291
 20
1120.9305663942
 30
0.0
 40
0.7874999999999913
100
AcDbArc
 50
103.3417582272
 51
196.6582417728
  0
ARC
  5
1C5
330
1F
100
AcDbEntity
  8
0
  6
Continuous
 62
     7
370
    25
100
AcDbCircle
 10
-398.0363547258
 20
1122.1346674446
 30
0.0
 40
0.449999999999952
100
AcDbArc
 50
283.3417582272
 51
0.0
  0
ARC
  5
1C6
330
1F
100
AcDbEntity
  8
0
  6
Continuous
 62
     7
370
    25
100
AcDbCircle
 10
-401.9219189225
 20
1120.9305663942
 30
0.0
 40
0.7875000000000458
100
AcDbArc
 50
343.3417582272
 51
76.6582417728
  0
ARC
  5
1C7
330
1F
100
AcDbEntity
  8
0
  6
Continuous
 62
     7
370
    25
100
AcDbCircle
 10
-400.7363547258
 20
1120.5758217178
 30
0.0
 40
0.4499999999999485
100
AcDbArc
 50
163.3417582272
 51
240.0
  0
ARC
  5
1C8
330
1F
100
AcDbEntity
  8
0
  6
Continuous
 62
     7
370
    25
100
AcDbCircle
 10
-401.6363547258
 20
1122.1346674446
 30
0.0
 40
0.4499999999999886
100
AcDbArc
 50
180.0
 51
256.6582417728
  0
ARC
  5
1C9
330
1F
100
AcDbEntity
  8
0
  6
Continuous
 62
     7
370
    25
100
AcDbCircle
 10
-399.8363547258
 20
1124.5428695454
 30
0.0
 40
0.7874999999998642
100
AcDbArc
 50
223.3417582272
 51
316.6582417728
  0
ARC
  5
1CA
330
1F
100
AcDbEntity
  8
0
  6
Continuous
 62
     7
370
    25
100
AcDbCircle
 10
-398.9363547258
 20
1123.6935131714
 30
0.0
 40
0.4499999999998496
100
AcDbArc
 50
60.0
 51
136.6582417728
  0
ARC
  5
1CB
330
1F
100
AcDbEntity
  8
0
  6
Continuous
 62
     7
370
    25
100
AcDbCircle
 10
-400.7363547258
 20
1123.6935131714
 30
0.0
 40
0.449999999999891
100
AcDbArc
 50
43.3417582272
 51
120.0
  0
ARC
  5
1CC
330
1F
100
AcDbEntity
  8
0
  6
Continuous
 62
     7
370
    25
100
AcDbCircle
 10
-398.9363547258
 20
1120.5758217178
 30
0.0
 40
0.4499999999998995
100
AcDbArc
 50
223.3417582272
 51
300.0
  0
ARC
  5
1CD
330
1F
100
AcDbEntity
  8
0
  6
Continuous
 62
     7
370
    25
100
AcDbCircle
 10
-400.7363547258
 20
1120.5758217178
 30
0.0
 40
0.449999999999891
100
AcDbArc
 50
240.0
 51
316.6582417728
  0
ARC
  5
1CE
330
1F
100
AcDbEntity
  8
0
  6
Continuous
 62
     7
370
    25
100
AcDbCircle
 10
-399.8363547258
 20
1119.7264653438
 30
0.0
 40
0.7875000000001764
100
AcDbArc
 50
43.3417582272
 51
136.6582417728
  0
LINE
  5
1CF
330
1F
100
AcDbEntity
  8
0
  6
Continuous
 62
     7
370
    25
100
AcDbLine
 10
2745.1636452742
 20
-832.8653325554
 30
0.0
 11
2745.1636452742
 21
1167.1346674446
 31
0.0
  0
LINE
  5
1D0
330
1F
100
AcDbEntity
  8
0
  6
Continuous
 62
     7
370
    25
100
AcDbLine
 10
-754.8363547258
 20
-2332.8653325554
 30
0.0
 11
1245.1636452742
 21
-2332.8653325554
 31
0.0
  0
ARC
  5
1D1
330
1F
100
AcDbEntity
  8
0
  6
Continuous
 62
     7
370
    25
100
AcDbCircle
 10
1245.1636452742
 20
-832.8653325554
 30
0.0
 40
1500.0
100
AcDbArc
 50
270.0
 51
0.0
  0
ARC
  5
1D2
330
1F
100
AcDbEntity
  8
0
  6
Continuous
 62
     7
370
    25
100
AcDbCircle
 10
1245.1636452742
 20
1167.1346674446
 30
0.0
 40
1500.0
100
AcDbArc
 50
0.0
 51
90.0
  0
ARC
  5
1D3
330
1F
100
AcDbEntity
  8
0
  6
Continuous
 62
     7
370
    25
100
AcDbCircle
 10
-754.8363547258
 20
1167.1346674446
 30
0.0
 40
1500.0
100
AcDbArc
 50
90.0
 51
180.0
  0
LINE
  5
1D4
330
1F
100
AcDbEntity
  8
0
  6
Continuous
 62
     7
370
    25
100
AcDbLine
 10
-2254.8363547258
 20
1167.1346674446
 30
0.0
 11
-2254.8363547258
 21
-832.8653325554
 31
0.0
  0
ARC
  5
1D5
330
1F
100
AcDbEntity
  8
0
  6
Continuous
 62
     7
370
    25
100
AcDbCircle
 10
-754.8363547258
 20
-832.8653325554
 30
0.0
 40
1500.0
100
AcDbArc
 50
180.0
 51
270.0
  0
LINE
  5
1D6
330
1F
100
AcDbEntity
  8
0
  6
Continuous
 62
     7
370
    25
100
AcDbLine
 10
1245.1636452742
 20
2667.1346674446
 30
0.0
 11
-754.8363547258
 21
2667.1346674446
 31
0.0
  0
LWPOLYLINE
  5
1D7
330
1F
100
AcDbEntity
  8
0
  6
Continuous
 62
     7
370
    25
100
AcDbPolyline
 90
        9
 70
   128
 43
0.0
 10
859.2459684847
 20
-727.9502414852
 10
858.4459362925
 20
-727.9134771848
 10
853.9976250704
 20
-728.1945659337
 10
849.6264539759
 20
-728.9582818705
 10
843.9701141892
 20
-730.6795886944
 10
838.5343848945
 20
-733.019181276
 10
833.3299490462
 20
-735.7749441045
 10
827.6800849023
 20
-739.2031278808
 10
822.2103814059
 20
-742.8653325554
  0
LWPOLYLINE
  5
1D8
330
1F
100
AcDbEntity
  8
0
  6
Continuous
 62
     7
370
    25
100
AcDbPolyline
 90
       16
 70
   128
 43
0.0
 10
-221.2318635055
 20
-742.8653325554
 10
-226.6354324661
 20
-739.0648437304
 10
-232.2204735757
 20
-735.465245826
 10
-238.0045472737
 20
-732.15804586
 10
-244.0052139999
 20
-729.2347508501
 10
-250.1154717483
 20
-726.8460112721
 10
-256.4537894945
 20
-725.0389867893
 10
-262.9390462064
 20
-723.9429162932
 10
-269.5558092231
 20
-723.6614334838
 10
-276.1875841287
 20
-724.1558350121
 10
-282.7103970921
 20
-725.3302419505
 10
-291.4263638648
 20
-727.7824587207
 10
-299.9114036376
 20
-730.9412885281
 10
-308.1930886209
 20
-734.6275190109
 10
-316.2989910251
 20
-738.6619378073
 10
-324.2566830608
 20
-742.8653325554
  0
LWPOLYLINE
  5
1D9
330
1F
100
AcDbEntity
  8
0
  6
Continuous
 62
     7
370
    25
100
AcDbPolyline
 90
       39
 70
   128
 43
0.0
 10
-458.1527747445
 20
-564.7198395028
 10
-454.1223687312
 20
-566.6206506711
 10
-439.5015243345
 20
-574.0467794597
 10
-425.1622073581
 20
-581.8898277195
 10
-411.0230532102
 20
-589.9979943564
 10
-390.0572056759
 20
-602.4125251522
 10
-369.181972651
 20
-614.9971485575
 10
-356.2146707557
 20
-622.8269803853
 10
-343.158562728
 20
-630.5987402093
 10
-329.9369535568
 20
-638.1825740318
 10
-316.4731482308
 20
-645.4486278552
 10
-308.1668035412
 20
-649.6124771457
 10
-299.670294808
 20
-653.4427360123
 10
-290.9449895956
 20
-656.7525406404
 10
-284.1257680047
 20
-658.771958032
 10
-277.1332491988
 20
-660.1863091624
 10
-270.0491414397
 20
-660.8178587672
 10
-264.6470467065
 20
-660.6671005032
 10
-259.2630888237
 20
-659.9717123969
 10
-253.9673834875
 20
-658.7787029839
 10
-248.830046394
 20
-657.1350807995
 10
-242.1204395223
 20
-654.2954887359
 10
-235.6766825916
 20
-650.9041809727
 10
-229.489734687
 20
-647.0930031591
 10
-223.5505548941
 20
-642.993800944
 10
-213.1186669987
 20
-635.1065071477
 10
-203.0488623112
 20
-626.8938303453
 10
-193.232392075
 20
-618.471985589
 10
-183.5605075333
 20
-609.9571879316
 10
-173.9244599297
 20
-601.4656524254
 10
-164.2683148373
 20
-593.0139487021
 10
-154.5181207428
 20
-584.6225615097
 10
-144.5575022776
 20
-576.430539825
 10
-134.2700840731
 20
-568.5769326248
 10
-123.5394907606
 20
-561.200788886
 10
-118.0301271838
 20
-557.8040084838
 10
-112.3014011747
 20
-554.6861799812
 10
-106.3445920544
 20
-551.9992825458
 10
-100.1509791443
 20
-549.8952953454
  0
LINE
  5
1DA
330
1F
100
AcDbEntity
  8
0
  6
Continuous
 62
     7
370
    25
100
AcDbLine
 10
-100.1509791443
 20
-549.8952953454
 30
0.0
 11
-72.300206435
 21
-549.8952953698
 31
0.0
  0
LWPOLYLINE
  5
1DB
330
1F
100
AcDbEntity
  8
0
  6
Continuous
 62
     7
370
    25
100
AcDbPolyline
 90
       41
 70
   128
 43
0.0
 10
-72.300206435
 20
-549.8952953698
 10
-64.2425766543
 20
-552.3459464386
 10
-56.4374384804
 20
-555.487959952
 10
-48.8694008693
 20
-559.1343895437
 10
-41.5230727768
 20
-563.0982888471
 10
-32.1180623936
 20
-568.59661347
 10
-22.908211122
 20
-574.3455420489
 10
-13.8334127832
 20
-580.2460356892
 10
1.4242426149
 20
-590.4187788287
 10
16.6557108729
 20
-600.6073604608
 10
26.092647207
 20
-606.806476572
 10
35.647734249
 20
-612.8781999351
 10
45.3821652743
 20
-618.7185940049
 10
55.3571335583
 20
-624.2237222362
 10
62.1714256718
 20
-627.6418368936
 10
69.1757772292
 20
-630.7612464903
 10
76.3729675728
 20
-633.4481850001
 10
83.765776045
 20
-635.5688863967
 10
91.5200095337
 20
-636.9657444661
 10
99.4245877167
 20
-637.5080051941
 10
107.3172343129
 20
-637.1979810096
 10
115.2096644875
 20
-636.0728008625
 10
122.985768385
 20
-634.2755762624
 10
130.6105549674
 20
-631.9376406713
 10
138.0490331967
 20
-629.1903275512
 10
150.3077187134
 20
-623.9107525113
 10
162.2444703642
 20
-618.0471460385
 10
173.9305312766
 20
-611.7585843803
 10
185.4371445779
 20
-605.2041437845
 10
196.8355533955
 20
-598.5429004986
 10
211.0955992586
 20
-590.1323211344
 10
225.399473436
 20
-581.7633905515
 10
239.8728637155
 20
-573.6262597855
 10
254.6414578849
 20
-565.9110798722
 10
261.9225162336
 20
-562.3988890074
 10
269.3540546457
 20
-559.1045220214
 10
276.940481794
 20
-556.1356099115
 10
284.6862063515
 20
-553.5997836747
 10
292.5956369912
 20
-551.6046743082
 10
299.01589754
 20
-550.4920807372
 10
305.5120073071
 20
-549.8952953695
  0
LINE
  5
1DC
330
1F
100
AcDbEntity
  8
0
  6
Continuous
 62
     7
370
    25
100
AcDbLine
 10
305.5120073071
 20
-549.8952953695
 30
0.0
 11
312.2877778163
 21
-549.8952953698
 31
0.0
  0
LWPOLYLINE
  5
1DD
330
1F
100
AcDbEntity
  8
0
  6
Continuous
 62
     7
370
    25
100
AcDbPolyline
 90
       40
 70
   128
 43
0.0
 10
312.2877778163
 20
-549.8952953698
 10
319.7112448367
 20
-550.6548942763
 10
327.0460417853
 20
-552.1177011797
 10
334.2586124545
 20
-554.1573255388
 10
341.3154006371
 20
-556.6473768125
 10
348.1828501256
 20
-559.4614644598
 10
361.2209668734
 20
-565.5530098983
 10
373.9169938259
 20
-572.2059220502
 10
386.3776949263
 20
-579.2290086493
 10
398.7098341179
 20
-586.4310774295
 10
411.0201753439
 20
-593.6209361246
 10
421.8267971915
 20
-599.8220372955
 10
432.7577071059
 20
-605.8858494981
 10
443.8786560942
 20
-611.6468625078
 10
455.2553951632
 20
-616.9395661003
 10
466.95367532
 20
-621.5984500509
 10
473.9800139283
 20
-623.9316163682
 10
481.172810351
 20
-625.860318062
 10
488.4905158919
 20
-627.2788544549
 10
495.8915818548
 20
-628.0815248695
 10
502.277691821
 20
-628.1824442219
 10
508.6720529733
 20
-627.7278154966
 10
515.0054937511
 20
-626.7615257938
 10
521.2088425937
 20
-625.3274622143
 10
530.0920278413
 20
-622.5495616118
 10
538.7347258736
 20
-619.1676576486
 10
547.1624188493
 20
-615.3000404759
 10
555.4005889274
 20
-611.0650002451
 10
563.4747182669
 20
-606.5808271075
 10
571.4102890264
 20
-601.9658112147
 10
586.8684482075
 20
-592.6077114631
 10
602.2007842629
 20
-583.0708673798
 10
612.4518838584
 20
-576.7259094653
 10
622.8044692313
 20
-570.4937174105
 10
633.3329935767
 20
-564.487994968
 10
639.8511918104
 20
-560.9919703913
 10
646.5109226972
 20
-557.6757223168
 10
653.3251276143
 20
-554.6482165713
 10
660.3067479385
 20
-552.0184189818
 10
667.4687250468
 20
-549.8952953751
  0
LINE
  5
1DE
330
1F
100
AcDbEntity
  8
0
  6
Continuous
 62
     7
370
    25
100
AcDbLine
 10
667.4687250468
 20
-549.8952953751
 30
0.0
 11
698.0003218935
 21
-549.8952953698
 31
0.0
  0
LWPOLYLINE
  5
1DF
330
1F
100
AcDbEntity
  8
0
  6
Continuous
 62
     7
370
    25
100
AcDbPolyline
 90
       29
 70
   128
 43
0.0
 10
698.0003218935
 20
-549.8952953698
 10
705.3365010976
 20
-552.4371062102
 10
712.3667433337
 20
-555.6806795815
 10
719.1229930205
 20
-559.4767007395
 10
725.6371945766
 20
-563.6758550004
 10
731.9412924208
 20
-568.1288276802
 10
738.0672309718
 20
-572.686304095
 10
749.3820616194
 20
-581.4960648171
 10
760.4331180065
 20
-590.5466313097
 10
771.329681275
 20
-599.7455807119
 10
782.1810325666
 20
-609.0004901627
 10
791.6753720855
 20
-617.0635624939
 10
801.2767256925
 20
-625.0716010739
 10
811.0695363608
 20
-632.9423614049
 10
817.1190524688
 20
-637.6375244101
 10
823.335240008
 20
-642.220450237
 10
829.7766413831
 20
-646.5156908695
 10
836.5017989985
 20
-650.3477982909
 10
843.5692552589
 20
-653.5413244851
 10
847.8316653007
 20
-654.9664801406
 10
852.2360137429
 20
-655.9628498738
 10
856.713365396
 20
-656.4631931749
 10
861.2288131097
 20
-656.4279300671
 10
865.7281209647
 20
-655.9032197236
 10
870.1409593612
 20
-654.9518433152
 10
877.1179041342
 20
-652.6842043486
 10
883.8463635166
 20
-649.7518113482
 10
890.3477103228
 20
-646.3483506043
 10
891.9051785716
 20
-645.4377482096
  0
LWPOLYLINE
  5
1E0
330
1F
100
AcDbEntity
  8
0
  6
Continuous
 62
     7
370
    25
100
AcDbPolyline
 90
       44
 70
   128
 43
0.0
 10
-100.1509791443
 20
-436.9060297091
 10
-105.8841766162
 20
-434.8095727109
 10
-111.3848843097
 20
-432.182256132
 10
-116.6708440128
 20
-429.1277428368
 10
-121.7597975137
 20
-425.7496956899
 10
-126.6694866005
 20
-422.1517775561
 10
-131.4176530611
 20
-418.4376513
 10
-142.0971261903
 20
-409.4868930646
 10
-152.3654248475
 20
-400.1511281354
 10
-162.3151854537
 20
-390.5137290381
 10
-172.0390444297
 20
-380.6580682986
 10
-181.6296381964
 20
-370.6675184428
 10
-191.3030597302
 20
-360.4865416315
 10
-200.9375017486
 20
-350.1602907173
 10
-210.4243605983
 20
-339.602359506
 10
-219.6550326261
 20
-328.7263418036
 10
-228.5209141784
 20
-317.4458314161
 10
-232.1490231693
 20
-312.4083592341
 10
-235.4477171942
 20
-307.1364941075
 10
-237.0015373142
 20
-304.1584504403
 10
-238.3027173845
 20
-301.0534450597
 10
-239.2421253504
 20
-297.8322716047
 10
-239.7183216181
 20
-294.2200981335
 10
-239.5723052199
 20
-290.5795446814
 10
-238.5642639542
 20
-286.1500223921
 10
-236.8829430804
 20
-281.9226468496
 10
-233.4004594685
 20
-275.5134804045
 10
-229.328253662
 20
-269.4554627102
 10
-224.8944986977
 20
-263.6502897357
 10
-220.3273676124
 20
-257.9996574497
 10
-211.2175985821
 20
-247.0760872659
 10
-201.9197759164
 20
-236.4206828143
 10
-192.4783718636
 20
-225.9925215474
 10
-182.9378586723
 20
-215.7506809177
 10
-173.2131974991
 20
-205.5693022009
 10
-163.312563436
 20
-195.5834078195
 10
-153.1534118401
 20
-185.8601987892
 10
-142.6531980687
 20
-176.4668761256
 10
-135.6955146239
 20
-170.649453781
 10
-128.4698703417
 20
-165.0860165477
 10
-120.9109146826
 20
-159.9379425344
 10
-112.953297107
 20
-155.3666098499
 10
-106.6999561478
 20
-152.4690279678
 10
-100.1509792316
 20
-150.2278274497
  0
LINE
  5
1E1
330
1F
100
AcDbEntity
  8
0
  6
Continuous
 62
     7
370
    25
100
AcDbLine
 10
-100.1509791443
 20
-436.9060297091
 30
0.0
 11
-100.1509791443
 21
-549.8952953454
 31
0.0
  0
LINE
  5
1E2
330
1F
100
AcDbEntity
  8
0
  6
Continuous
 62
     7
370
    25
100
AcDbLine
 10
-501.8384114397
 20
-523.0395094015
 30
0.0
 11
-501.8384114398
 21
-436.9060296823
 31
0.0
  0
LWPOLYLINE
  5
1E3
330
1F
100
AcDbEntity
  8
0
  6
Continuous
 62
     7
370
    25
100
AcDbPolyline
 90
       49
 70
   128
 43
0.0
 10
-501.8384114397
 20
-150.2278274737
 10
-493.7213342921
 20
-151.8546650143
 10
-485.7401523111
 20
-154.0548472651
 10
-477.9159002876
 20
-156.727980376
 10
-470.2696130124
 20
-159.773670497
 10
-459.871385195
 20
-164.4983807611
 10
-449.7219178658
 20
-169.6745813554
 10
-439.7920290923
 20
-175.190704768
 10
-423.5034854355
 20
-184.9260024073
 10
-407.5645417468
 20
-195.1643095483
 10
-391.9354478689
 20
-205.860004908
 10
-376.5764536445
 20
-216.9674672033
 10
-361.4478089164
 20
-228.4410751512
 10
-346.5097635272
 20
-240.2352074688
 10
-339.7494818588
 20
-245.668849733
 10
-333.0078960348
 20
-251.192428506
 10
-326.3839763012
 20
-256.881849159
 10
-319.9766929039
 20
-262.8130170627
 10
-313.8850160889
 20
-269.061837588
 10
-308.2079161022
 20
-275.7042161061
 10
-305.5283185086
 20
-279.3391593967
 10
-303.1970451346
 20
-283.2073742573
 10
-301.6512670168
 20
-286.6715690926
 10
-300.6672484447
 20
-290.329151166
 10
-300.4196991993
 20
-293.2756243919
 10
-300.6703686584
 20
-296.2210753301
 10
-301.6244344471
 20
-299.7043897644
 10
-303.1157496799
 20
-302.9998468995
 10
-305.5804770632
 20
-307.0321420918
 10
-308.442690029
 20
-310.8077931954
 10
-311.5765852534
 20
-314.3757377019
 10
-314.8563594125
 20
-317.7849131028
 10
-325.0545659034
 20
-327.5538307234
 10
-335.6702427673
 20
-336.8022044986
 10
-346.6047750453
 20
-345.6309587844
 10
-357.7595477788
 20
-354.1410179371
 10
-369.0359460091
 20
-362.4333063126
 10
-380.3353547776
 20
-370.608748267
 10
-393.7819960579
 20
-380.2450273037
 10
-407.3690588702
 20
-389.7143932651
 10
-421.1611085624
 20
-398.9058073911
 10
-435.2227104824
 20
-407.7082309215
 10
-449.6184299779
 20
-416.0106250962
 10
-464.4128323968
 20
-423.7019511552
 10
-471.5821527361
 20
-427.0700720739
 10
-478.9167942239
 20
-430.1739022992
 10
-486.4093334464
 20
-432.9140799179
 10
-494.0523469896
 20
-435.1912430167
 10
-501.8384114398
 20
-436.9060296823
  0
LINE
  5
1E4
330
1F
100
AcDbEntity
  8
0
  6
Continuous
 62
     7
370
    25
100
AcDbLine
 10
-501.8384114397
 20
-150.2278274737
 30
0.0
 11
-501.8384114397
 21
-5.1137550812
 31
0.0
  0
LWPOLYLINE
  5
1E5
330
1F
100
AcDbEntity
  8
0
  6
Continuous
 62
     7
370
    25
100
AcDbPolyline
 90
      140
 70
   128
 43
0.0
 10
-100.1509791443
 20
-5.1137551036
 10
-106.8277531306
 20
-2.9910081961
 10
-113.249955943
 20
-0.2147469446
 10
-119.4257640492
 20
3.0735703452
 10
-125.3633539163
 20
6.7324853679
 10
-131.070902012
 20
10.620539818
 10
-141.6941138447
 20
18.5673399926
 10
-151.8839300674
 20
26.9785580364
 10
-161.7268575502
 20
35.7608595728
 10
-171.3094031635
 20
44.8209102253
 10
-180.7180737774
 20
54.0653756172
 10
-188.6695863568
 20
62.0111047629
 10
-196.5850823631
 20
70.0835425485
 10
-204.3789807355
 20
78.3438780047
 10
-211.9657004136
 20
86.8533001621
 10
-219.2596603368
 20
95.6729980515
 10
-226.1752794444
 20
104.8641607036
 10
-229.7961481208
 20
110.218772063
 10
-233.0609529259
 20
115.8226151905
 10
-235.7767759874
 20
121.7047919778
 10
-237.1120521781
 20
125.6191326027
 10
-238.050451166
 20
129.6601660182
 10
-238.520582945
 20
133.7679038768
 10
-238.4741791032
 20
137.9157537016
 10
-237.9555834825
 20
142.0469663528
 10
-237.034394665
 20
146.0965233064
 10
-234.8218935102
 20
152.8256981902
 10
-232.0510037782
 20
159.3445398708
 10
-228.8581493976
 20
165.6912498937
 10
-225.3797542968
 20
171.9040298046
 10
-221.7522424042
 20
178.0210811494
 10
-218.1120376482
 20
184.0806054736
 10
-209.29686142
 20
198.7154879104
 10
-200.4545178352
 20
213.279963461
 10
-191.7127685089
 20
227.8630887257
 10
-183.1993750563
 20
242.5539203048
 10
-175.0420990925
 20
257.4415147987
 10
-167.3687022326
 20
272.6149288075
 10
-163.0268706366
 20
281.9835658209
 10
-159.0278679937
 20
291.5465930425
 10
-155.5140101644
 20
301.314909065
 10
-152.6276130093
 20
311.2994124807
 10
-151.0799677085
 20
318.4231729097
 10
-150.0084378271
 20
325.6699501731
 10
-149.4871801873
 20
332.9750003038
 10
-149.5903516106
 20
340.2735793347
 10
-150.3681388746
 20
347.5465012855
 10
-151.7532033411
 20
354.7406821508
 10
-153.6478109502
 20
361.8132056079
 10
-155.9542276415
 20
368.721155334
 10
-160.0075008201
 20
378.8468549332
 10
-164.6166701001
 20
388.7051640225
 10
-169.6718563544
 20
398.3262656453
 10
-175.063180456
 20
407.7403428451
 10
-180.6807632778
 20
416.977578665
 10
-190.676389712
 20
432.4801244812
 10
-201.175742507
 20
447.6619692044
 10
-212.1699689348
 20
462.5384013011
 10
-217.7908831155
 20
469.802782376
 10
-223.5952682786
 20
476.9724437573
 10
-229.6566536057
 20
483.9472142462
 10
-236.0485682783
 20
490.6269226441
 10
-242.8445414779
 20
496.9113977524
 10
-247.0620269068
 20
500.3588738602
 10
-251.5183150705
 20
503.5100513949
 10
-256.2497963596
 20
506.2071779126
 10
-260.4663222756
 20
507.9712326217
 10
-264.8940829444
 20
509.0833656059
 10
-269.5016342495
 20
509.3580616133
 10
-274.0852246821
 20
508.784519805
 10
-278.0464872716
 20
507.6480621904
 10
-281.8709485241
 20
506.0724267522
 10
-285.54634921
 20
504.189490447
 10
-293.8650745782
 20
499.0815654894
 10
-301.773383426
 20
493.3568236461
 10
-309.3660348891
 20
487.1944729793
 10
-316.7377881035
 20
480.7737215515
 10
-323.9834022049
 20
474.273777425
 10
-339.5527331292
 20
459.9296819239
 10
-354.7176329123
 20
445.2351818423
 10
-369.4833254465
 20
430.1937828665
 10
-379.5425482515
 20
419.468992857
 10
-389.3205368099
 20
408.4762533706
 10
-398.7150104781
 20
397.1387075904
 10
-404.1784096271
 20
390.0791028097
 10
-409.4157728436
 20
382.7997222094
 10
-414.2950964242
 20
375.2677711691
 10
-418.6843766652
 20
367.4504550683
 10
-422.4516098634
 20
359.3149792864
 10
-424.4375870351
 20
353.9290745736
 10
-426.0024212167
 20
348.3722843651
 10
-427.0657689474
 20
342.7020244133
 10
-427.5472867664
 20
336.9757104703
 10
-427.4085829481
 20
331.2052836849
 10
-426.7094056569
 20
325.4525896381
 10
-425.518718438
 20
319.7764812932
 10
-423.9054848363
 20
314.235811614
 10
-420.4943391908
 20
305.3277770135
 10
-416.3578265636
 20
296.7279025732
 10
-411.6513524994
 20
288.4091871775
 10
-406.530322543
 20
280.344629711
 10
-401.1501422389
 20
272.5072290581
 10
-390.9478758418
 20
258.6543013243
 10
-380.2926629929
 20
245.1691288047
 10
-369.3112630422
 20
231.9406420967
 10
-358.1304353395
 20
218.8577717975
 10
-346.8769392349
 20
205.8094485046
 10
-335.6775340783
 20
192.6846028151
 10
-330.057032448
 20
186.0632919977
 10
-324.4473997123
 20
179.3651842217
 10
-319.0118442156
 20
172.5157658901
 10
-313.9135743026
 20
165.440523406
 10
-309.3157983179
 20
158.0649431725
 10
-305.3817246058
 20
150.3145115927
 10
-303.9726060331
 20
146.8162401333
 10
-302.8597674528
 20
143.205373996
 10
-302.1267051791
 20
139.5099421757
 10
-301.8670604246
 20
134.7057746972
 10
-302.410708226
 20
129.9270875408
 10
-303.7241462734
 20
125.32794966
 10
-305.6532013065
 20
120.9492081387
 10
-308.9951318935
 20
115.3573652799
 10
-312.9264970512
 20
110.1438152232
 10
-317.2383171606
 20
105.2630948106
 10
-324.5915876211
 20
97.9319204199
 10
-332.3374109152
 20
91.0419312328
 10
-340.3425499412
 20
84.4805618622
 10
-348.4737675977
 20
78.1352469207
 10
-365.2048450235
 20
65.6760198692
 10
-382.2239114944
 20
53.7353325023
 10
-395.3257835602
 20
44.902731361
 10
-408.6005889811
 20
36.2924871992
 10
-422.0990011849
 20
28.0112427894
 10
-435.8716935995
 20
20.1656409043
 10
-449.9693396526
 20
12.8623243166
 10
-464.4426127722
 20
6.2079357988
 10
-473.480260245
 20
2.5598952285
 10
-482.74229046
 20
-0.6397437888
 10
-492.203431498
 20
-3.2459657324
 10
-501.8384114397
 20
-5.1137550812
  0
LINE
  5
1E6
330
1F
100
AcDbEntity
  8
0
  6
Continuous
 62
     7
370
    25
100
AcDbLine
 10
-100.1509791443
 20
-5.1137551036
 30
0.0
 11
-100.1509792316
 21
-150.2278274497
 31
0.0
  0
LWPOLYLINE
  5
1E7
330
1F
100
AcDbEntity
  8
0
  6
Continuous
 62
     7
370
    25
100
AcDbPolyline
 90
       44
 70
   128
 43
0.0
 10
698.0003218935
 20
-150.2278274737
 10
704.9612324318
 20
-152.626822417
 10
711.634161884
 20
-155.720022883
 10
718.034248968
 20
-159.3531499471
 10
724.1766324012
 20
-163.371924744
 10
730.0764509014
 20
-167.6220684085
 10
741.1224518149
 20
-176.3248936234
 10
751.7143368464
 20
-185.4996246558
 10
761.9488297411
 20
-195.046023275
 10
771.9226542443
 20
-204.8638512504
 10
781.7325341014
 20
-214.8528703513
 10
791.6263131977
 20
-225.099176194
 10
801.4582998524
 20
-235.5133560405
 10
811.1491040352
 20
-246.1580257009
 10
820.619335716
 20
-257.0958009853
 10
829.7896048647
 20
-268.3892977039
 10
833.4474990809
 20
-273.2148681921
 10
836.8781575434
 20
-278.2182677204
 10
838.9926963217
 20
-281.7452100647
 10
840.789225709
 20
-285.4529004716
 10
842.0441995266
 20
-289.3499081268
 10
842.476787808
 20
-292.5612662132
 10
842.3082654309
 20
-295.7947772046
 10
841.5495514261
 20
-298.9181048766
 10
840.3566016907
 20
-301.9075806613
 10
837.7242642011
 20
-306.8319684912
 10
834.6427443872
 20
-311.493388924
 10
831.2470270429
 20
-315.9519310003
 10
827.6720969621
 20
-320.2676837605
 10
824.0529389385
 20
-324.5007362454
 10
812.1395340575
 20
-338.1651210925
 10
800.0337617747
 20
-351.4806683139
 10
787.7213279991
 20
-364.4664512631
 10
775.1879386397
 20
-377.1415432941
 10
762.4192996055
 20
-389.5250177605
 10
749.4011168057
 20
-401.6359480161
 10
742.5818650128
 20
-407.76591997
 10
735.5969553242
 20
-413.7711501594
 10
728.3867986669
 20
-419.5448480669
 10
720.8918059676
 20
-424.9802231753
 10
713.0523881534
 20
-429.9704849672
 10
708.2243959213
 20
-432.6380833518
 10
703.2063381814
 20
-434.9881020016
 10
698.0003218935
 20
-436.9060296823
  0
LINE
  5
1E8
330
1F
100
AcDbEntity
  8
0
  6
Continuous
 62
     7
370
    25
100
AcDbLine
 10
698.0003218935
 20
-436.9060296823
 30
0.0
 11
667.4687250468
 21
-436.9060296764
 31
0.0
  0
LWPOLYLINE
  5
1E9
330
1F
100
AcDbEntity
  8
0
  6
Continuous
 62
     7
370
    25
100
AcDbPolyline
 90
       41
 70
   128
 43
0.0
 10
667.4687250468
 20
-436.9060296764
 10
659.4817326498
 20
-434.2533666962
 10
651.7552838777
 20
-430.9288798455
 10
644.2699216575
 20
-427.1113070173
 10
637.0061889158
 20
-422.9793861044
 10
627.7011918031
 20
-417.2498172264
 10
618.5955686016
 20
-411.2606135785
 10
609.6297918351
 20
-405.1080257191
 10
594.6550891053
 20
-394.5364062263
 10
579.723227861
 20
-383.9106106366
 10
568.7862702279
 20
-376.2569022392
 10
557.6762768226
 20
-368.7937537686
 10
546.2873270602
 20
-361.683864106
 10
539.0722266827
 20
-357.5488663799
 10
531.6342958702
 20
-353.728077023
 10
523.9531078538
 20
-350.4081430019
 10
516.0082358644
 20
-347.7757112832
 10
509.4581442052
 20
-346.3518475535
 10
502.7570913246
 20
-345.6633143378
 10
496.047040786
 20
-345.7738450732
 10
489.4408682011
 20
-346.6655059484
 10
482.9426772598
 20
-348.1948557372
 10
476.6098627592
 20
-350.2311040379
 10
468.5058883069
 20
-353.4776958847
 10
460.6302451055
 20
-357.2104860724
 10
452.9513494482
 20
-361.3176162873
 10
445.4376176279
 20
-365.6872282162
 10
438.0574659376
 20
-370.2074635454
 10
425.6814204
 20
-378.1067461015
 10
413.4558976131
 20
-386.1819478532
 10
401.2821404976
 20
-394.3089924615
 10
389.4558979562
 20
-402.1315658492
 10
377.5022332348
 20
-409.7969481389
 10
365.3242314588
 20
-417.1653885597
 10
357.7187231764
 20
-421.4756838511
 10
349.9255093662
 20
-425.5553296352
 10
341.9283724043
 20
-429.2553758035
 10
333.7110946666
 20
-432.4268722476
 10
325.2574585292
 20
-434.9208688588
 10
318.8226240677
 20
-436.2152081759
 10
312.2877778163
 20
-436.9060296823
  0
LINE
  5
1EA
330
1F
100
AcDbEntity
  8
0
  6
Continuous
 62
     7
370
    25
100
AcDbLine
 10
312.2877778163
 20
-436.9060296823
 30
0.0
 11
305.5120073071
 21
-436.9060296826
 31
0.0
  0
LWPOLYLINE
  5
1EB
330
1F
100
AcDbEntity
  8
0
  6
Continuous
 62
     7
370
    25
100
AcDbPolyline
 90
       42
 70
   128
 43
0.0
 10
305.5120073071
 20
-436.9060296826
 10
298.8489579261
 20
-436.2220109638
 10
292.2576544979
 20
-434.9394864023
 10
285.7706227175
 20
-433.1535607257
 10
279.4203882799
 20
-430.9593386618
 10
273.23947688
 20
-428.451924938
 10
263.1249628896
 20
-423.7247472042
 10
253.2886130746
 20
-418.5045514681
 10
243.6828217677
 20
-412.9068453131
 10
234.2599833017
 20
-407.0471363224
 10
224.9724920092
 20
-401.0409320794
 10
201.7808996832
 20
-385.4764482898
 10
178.6901112598
 20
-369.7175390745
 10
168.0762761586
 20
-362.6013062725
 10
157.3188706257
 20
-355.6366961069
 10
146.340723189
 20
-348.9513322143
 10
139.5270817184
 20
-345.0690521112
 10
132.526871088
 20
-341.4083288677
 10
125.3291994919
 20
-338.145257434
 10
117.9231751243
 20
-335.4559327602
 10
110.2979061792
 20
-333.5164497963
 10
103.9312870393
 20
-332.6736544067
 10
97.4812132977
 20
-332.6197759441
 10
91.115261232
 20
-333.406842186
 10
84.9664599832
 20
-335.0130293306
 10
79.0134775966
 20
-337.2681153077
 10
73.2818617095
 20
-339.9840381145
 10
64.9496288934
 20
-344.6315597565
 10
56.9160215297
 20
-349.7361359254
 10
49.1125944007
 20
-355.149378375
 10
41.4709022885
 20
-360.7228988591
 10
26.2523744903
 20
-372.2393325778
 10
11.2286618227
 20
-383.9003731534
 10
-4.5703766294
 20
-396.1087280939
 10
-20.5897130673
 20
-408.0682211964
 10
-28.7993901502
 20
-413.9248682829
 10
-37.1843036953
 20
-419.5926698994
 10
-45.8046771744
 20
-424.9427040962
 10
-54.7207340595
 20
-429.8460489236
 10
-60.4069758021
 20
-432.5735205674
 10
-66.2680329714
 20
-434.9649671572
 10
-72.300206435
 20
-436.9060296823
  0
LINE
  5
1EC
330
1F
100
AcDbEntity
  8
0
  6
Continuous
 62
     7
370
    25
100
AcDbLine
 10
-72.300206435
 20
-436.9060296823
 30
0.0
 11
-100.1509791443
 21
-436.9060297091
 31
0.0
  0
LINE
  5
1ED
330
1F
100
AcDbEntity
  8
0
  6
Continuous
 62
     7
370
    25
100
AcDbLine
 10
-100.1509792316
 20
-150.2278274497
 30
0.0
 11
-72.300206435
 21
-150.2278274737
 31
0.0
  0
LWPOLYLINE
  5
1EE
330
1F
100
AcDbEntity
  8
0
  6
Continuous
 62
     7
370
    25
100
AcDbPolyline
 90
       44
 70
   128
 43
0.0
 10
-72.300206435
 20
-150.2278274737
 10
-66.0017039688
 20
-152.0615632418
 10
-59.8638899576
 20
-154.3629476731
 10
-53.8907036961
 20
-157.0355521577
 10
-48.0860844785
 20
-159.982948086
 10
-40.2354501778
 20
-164.4211398609
 10
-32.5977021655
 20
-169.1695025025
 10
-25.1347602699
 20
-174.1408161754
 10
-11.352545207
 20
-183.9580403448
 10
2.1252027234
 20
-194.1510522794
 10
15.4631292177
 20
-204.5389050011
 10
28.8258799721
 20
-214.9406515322
 10
42.378100683
 20
-225.1753448948
 10
56.2844370468
 20
-235.0620381111
 10
63.1047457228
 20
-239.5710053925
 10
70.1402899326
 20
-243.7906118302
 10
77.4485644637
 20
-247.5476802293
 10
82.8491253604
 20
-249.8070426658
 10
88.4523788635
 20
-251.5780387999
 10
94.2043783171
 20
-252.7118414654
 10
100.1197724115
 20
-253.0950380357
 10
106.0647770735
 20
-252.7483006706
 10
111.9117168781
 20
-251.743558398
 10
118.3928962314
 20
-249.9305010825
 10
124.7034843667
 20
-247.569904672
 10
130.8455162696
 20
-244.7960903423
 10
136.8210269257
 20
-241.7433792694
 10
147.9104849458
 20
-235.4714227427
 10
158.7042673505
 20
-228.7772748002
 10
169.2818340292
 20
-221.7957159165
 10
179.7226448713
 20
-214.6615265665
 10
190.1061597662
 20
-207.5094872248
 10
203.1199606399
 20
-198.6084628337
 10
216.2063678663
 20
-189.8231109434
 10
229.4603834432
 20
-181.2780954639
 10
242.9770093686
 20
-173.0980803053
 10
250.6579018935
 20
-168.7466034464
 10
258.4981285127
 20
-164.6044110219
 10
266.5136564725
 20
-160.7681124465
 10
274.7204530193
 20
-157.3343171351
 10
283.1344853994
 20
-154.3996345023
 10
290.4548390369
 20
-152.3997283325
 10
297.9376863682
 20
-150.970039843
 10
305.5120073071
 20
-150.2278274733
  0
LINE
  5
1EF
330
1F
100
AcDbEntity
  8
0
  6
Continuous
 62
     7
370
    25
100
AcDbLine
 10
305.5120073071
 20
-150.2278274733
 30
0.0
 11
312.2877778163
 21
-150.2278274737
 31
0.0
  0
LWPOLYLINE
  5
1F0
330
1F
100
AcDbEntity
  8
0
  6
Continuous
 62
     7
370
    25
100
AcDbPolyline
 90
       42
 70
   128
 43
0.0
 10
312.2877778163
 20
-150.2278274737
 10
319.0102447958
 20
-150.8771232115
 10
325.665445862
 20
-152.1133512198
 10
332.2192922909
 20
-153.8474543415
 10
338.6376953583
 20
-155.9903754196
 10
344.8865663403
 20
-158.4530572974
 10
355.1529780532
 20
-163.1503482127
 10
365.1295116016
 20
-168.3694022333
 10
374.8689400631
 20
-173.9858242966
 10
384.424036515
 20
-179.8752193401
 10
393.847574035
 20
-185.9131923012
 10
409.5598888503
 20
-196.2514034791
 10
425.2652904142
 20
-206.6313281271
 10
441.1849037016
 20
-216.773272762
 10
449.6228143884
 20
-221.8626247817
 10
458.2533980113
 20
-226.7032657204
 10
467.1264138644
 20
-231.1184245275
 10
476.2916212421
 20
-234.9313301521
 10
482.9033789508
 20
-237.1075136783
 10
489.7006285148
 20
-238.7239800609
 10
496.615580159
 20
-239.6268335461
 10
501.9156112393
 20
-239.7282193717
 10
507.2245508166
 20
-239.3097326797
 10
512.4743058786
 20
-238.4132904531
 10
517.5967834132
 20
-237.0808096745
 10
525.5092485725
 20
-234.253597702
 10
533.1556254912
 20
-230.7894590224
 10
540.5677028789
 20
-226.8408809423
 10
547.7772694451
 20
-222.5603507686
 10
554.8161138995
 20
-218.1003558082
 10
566.9632632363
 20
-209.9996004758
 10
578.908443936
 20
-201.675963089
 10
590.7723338564
 20
-193.2820014224
 10
602.6600522936
 20
-184.9414287264
 10
614.6832125098
 20
-176.7718913558
 10
626.9574885177
 20
-168.927259873
 10
633.3104359075
 20
-165.1169028058
 10
639.8088701211
 20
-161.4586173697
 10
646.4633536502
 20
-158.0464853419
 10
653.2844489864
 20
-154.9745884994
 10
660.2827186214
 20
-152.3370086193
 10
667.4687250468
 20
-150.2278274789
  0
LINE
  5
1F1
330
1F
100
AcDbEntity
  8
0
  6
Continuous
 62
     7
370
    25
100
AcDbLine
 10
667.4687250468
 20
-150.2278274789
 30
0.0
 11
698.0003218935
 21
-150.2278274737
 31
0.0
  0
LINE
  5
1F2
330
1F
100
AcDbEntity
  8
0
  6
Continuous
 62
     7
370
    25
100
AcDbLine
 10
312.2877778163
 20
-150.2278274737
 30
0.0
 11
312.2877778163
 21
-5.1137550812
 31
0.0
  0
LWPOLYLINE
  5
1F3
330
1F
100
AcDbEntity
  8
0
  6
Continuous
 62
     7
370
    25
100
AcDbPolyline
 90
       40
 70
   128
 43
0.0
 10
667.4687250468
 20
-5.1137550763
 10
659.3765198421
 20
-2.8398653982
 10
651.4996890685
 20
0.0663178601
 10
643.8355964973
 20
3.4558866251
 10
636.3816059002
 20
7.1799328232
 10
626.8133403053
 20
12.4305068886
 10
617.4532354035
 20
17.985325579
 10
608.2472468306
 20
23.7440881619
 10
592.8695670585
 20
33.7518223863
 10
577.5723535402
 20
43.8924823561
 10
566.5672493569
 20
51.1132706704
 10
555.4044584675
 20
58.1644023845
 10
543.9764528011
 20
64.8706716054
 10
537.0746532897
 20
68.5815681552
 10
529.976287768
 20
71.9995330472
 10
522.6669159769
 20
74.9577496191
 10
515.1320976569
 20
77.2894012083
 10
508.534577313
 20
78.5967714668
 10
501.7993973369
 20
79.1626982995
 10
495.069554345
 20
78.939888062
 10
488.8082938307
 20
78.0300969466
 10
482.641002121
 20
76.5653763068
 10
476.5976781006
 20
74.6522596873
 10
470.7083206544
 20
72.3972806329
 10
461.784517157
 20
68.4163834475
 10
453.0921177993
 20
64.0075306214
 10
444.5867589376
 20
59.2812125197
 10
436.2240769284
 20
54.3479195074
 10
427.9597081279
 20
49.3181419497
 10
407.2750782123
 20
36.4931737017
 10
386.5098192997
 20
23.8403418769
 10
377.6212257048
 20
18.6660541577
 10
368.5913994038
 20
13.6641300601
 10
359.3838793049
 20
8.9498438161
 10
349.9622043163
 20
4.6384696577
 10
340.2899133463
 20
0.845281817
 10
333.4903223549
 20
-1.3682878851
 10
326.5255224507
 20
-3.166150608
 10
319.4423841118
 20
-4.4480563429
 10
312.2877778163
 20
-5.1137550812
  0
LINE
  5
1F4
330
1F
100
AcDbEntity
  8
0
  6
Continuous
 62
     7
370
    25
100
AcDbLine
 10
667.4687250468
 20
-5.1137550763
 30
0.0
 11
667.4687250468
 21
-150.2278274789
 31
0.0
  0
LINE
  5
1F5
330
1F
100
AcDbEntity
  8
0
  6
Continuous
 62
     7
370
    25
100
AcDbLine
 10
-72.300206435
 20
-549.8952953698
 30
0.0
 11
-72.300206435
 21
-436.9060296823
 31
0.0
  0
LINE
  5
1F6
330
1F
100
AcDbEntity
  8
0
  6
Continuous
 62
     7
370
    25
100
AcDbLine
 10
305.5120073071
 20
-436.9060296826
 30
0.0
 11
305.5120073071
 21
-549.8952953695
 31
0.0
  0
LINE
  5
1F7
330
1F
100
AcDbEntity
  8
0
  6
Continuous
 62
     7
370
    25
100
AcDbLine
 10
312.2877778163
 20
-549.8952953698
 30
0.0
 11
312.2877778163
 21
-436.9060296823
 31
0.0
  0
LINE
  5
1F8
330
1F
100
AcDbEntity
  8
0
  6
Continuous
 62
     7
370
    25
100
AcDbLine
 10
667.4687250468
 20
-436.9060296764
 30
0.0
 11
667.4687250468
 21
-549.8952953751
 31
0.0
  0
LWPOLYLINE
  5
1F9
330
1F
100
AcDbEntity
  8
0
  6
Continuous
 62
     7
370
    25
100
AcDbPolyline
 90
       19
 70
   128
 43
0.0
 10
1155.1636452742
 20
400.0990002726
 10
1150.0394874641
 20
393.0102561597
 10
1145.1767346142
 20
385.7133010125
 10
1140.6534771663
 20
378.189747164
 10
1136.5478055747
 20
370.4212083442
 10
1133.8445506157
 20
364.5152281319
 10
1131.4905282516
 20
358.4292671427
 10
1129.5793349668
 20
352.1882716476
 10
1128.2045672461
 20
345.8171879174
 10
1127.4283489066
 20
338.4662748333
 10
1127.4949567505
 20
331.0424010952
 10
1128.3510006748
 20
323.6936364747
 10
1130.0667646264
 20
315.8949936755
 10
1132.4539828796
 20
308.2630395396
 10
1135.3831104287
 20
300.8225199156
 10
1138.7246022679
 20
293.5981806525
 10
1143.7662165958
 20
284.0759965257
 10
1149.2817723347
 20
274.8349418273
 10
1155.1636452742
 20
265.8464389973
  0
LWPOLYLINE
  5
1FA
330
1F
100
AcDbEntity
  8
0
  6
Continuous
 62
     7
370
    25
100
AcDbPolyline
 90
       14
 70
   128
 43
0.0
 10
1155.1636452742
 20
44.3006821545
 10
1142.7837408458
 20
35.5585148173
 10
1130.2846090031
 20
26.9871436409
 10
1121.8135193926
 20
21.4127041194
 10
1113.1960803125
 20
16.0248356415
 10
1104.3894583402
 20
10.8990102848
 10
1097.140556491
 20
7.0303607594
 10
1089.7034868459
 20
3.4714072517
 10
1081.9390854382
 20
0.2814424115
 10
1073.9295545949
 20
-2.3357408566
 10
1069.6761821783
 20
-3.4088152013
 10
1065.3625291949
 20
-4.2487262983
 10
1060.9247261965
 20
-4.8319186903
 10
1056.4535458747
 20
-5.1137550812
  0
LINE
  5
1FB
330
1F
100
AcDbEntity
  8
0
  6
Continuous
 62
     7
370
    25
100
AcDbLine
 10
1056.4535458747
 20
-5.1137550812
 30
0.0
 11
1053.1563786506
 21
-5.1137550812
 31
0.0
  0
LWPOLYLINE
  5
1FC
330
1F
100
AcDbEntity
  8
0
  6
Continuous
 62
     7
370
    25
100
AcDbPolyline
 90
      137
 70
   128
 43
0.0
 10
1053.1563786506
 20
-5.1137550812
 10
1046.6217572126
 20
-4.5758677522
 10
1040.1544458283
 20
-3.3924351741
 10
1033.8141488895
 20
-1.6684456256
 10
1027.660570788
 20
0.4911126147
 10
1017.8672977226
 20
4.7322565851
 10
1008.4301457596
 20
9.6271806292
 10
999.3053099514
 20
15.0503209869
 10
990.4489853502
 20
20.8761138982
 10
981.8173670085
 20
26.9789956031
 10
973.3666499785
 20
33.2334023415
 10
959.1778566861
 20
44.1986996309
 10
945.2736019206
 20
55.554749652
 10
931.6237838372
 20
67.2960578063
 10
918.1983005913
 20
79.4171294953
 10
908.8513158853
 20
88.2437963859
 10
899.7411352536
 20
97.4023148508
 10
894.2731650886
 20
103.3280850156
 10
889.0931372397
 20
109.5426430341
 10
884.3900941396
 20
116.1311708206
 10
881.4922380309
 20
121.0732372639
 10
879.191872915
 20
126.3175898968
 10
877.9972460191
 20
130.7256031132
 10
877.5373438336
 20
135.265342647
 10
877.897016487
 20
139.8178639734
 10
878.9478204637
 20
144.2684017441
 10
881.1274022843
 20
150.0666545878
 10
883.8889955959
 20
155.6315128402
 10
887.0346878533
 20
161.0096203225
 10
890.3665665113
 20
166.2476208558
 10
898.3730104581
 20
178.1712699785
 10
906.648020301
 20
189.8666610701
 10
915.0432906235
 20
201.4357453824
 10
923.4105160092
 20
212.9804741673
 10
934.4242423404
 20
228.4705155292
 10
945.1797107191
 20
244.1197143588
 10
955.5247759302
 20
260.0482773095
 10
960.8799791215
 20
268.8022177379
 10
966.0041482967
 20
277.7191576693
 10
970.800540126
 20
286.8309368274
 10
975.1724112795
 20
296.1693949357
 10
978.1048315128
 20
303.3637421829
 10
980.6361552788
 20
310.7465543319
 10
982.6459028286
 20
318.2892468313
 10
984.0135944133
 20
325.9632351298
 10
984.5964466541
 20
333.849393993
 10
984.304466768
 20
341.779721899
 10
983.1273351595
 20
349.5902070969
 10
981.023012087
 20
357.5823155991
 10
978.2237634425
 20
365.3653574485
 10
974.8798122769
 20
372.9267640599
 10
971.1413816411
 20
380.2539668481
 10
964.957923244
 20
391.017093933
 10
958.2748637706
 20
401.4509613678
 10
951.1895213762
 20
411.6040624106
 10
943.7992142164
 20
421.5248903199
 10
936.2012604464
 20
431.2619383537
 10
926.2872321609
 20
443.5035129517
 10
916.0580546686
 20
455.5248101621
 10
905.4349798519
 20
467.2414898479
 10
894.3392595932
 20
478.5692118719
 10
889.4674969568
 20
483.2349795647
 10
884.4148511682
 20
487.7395138537
 10
879.110564782
 20
491.9370955695
 10
873.4838803527
 20
495.6820055426
 10
869.2850343928
 20
497.9096990648
 10
864.834902181
 20
499.5701351253
 10
861.2808188818
 20
500.2918935281
 10
857.6594613415
 20
500.4288302407
 10
854.0635728013
 20
499.9183541799
 10
850.5966551013
 20
498.8315583386
 10
847.2414580107
 20
497.2321070834
 10
844.0738855801
 20
495.2669163643
 10
841.0828806875
 20
493.0563039323
 10
834.5166978992
 20
487.3865451138
 10
828.4047291251
 20
481.2405122247
 10
822.6464191819
 20
474.7535760452
 10
817.141212886
 20
468.0611073557
 10
811.7885550541
 20
461.2984769366
 10
799.2529778186
 20
444.7622714057
 10
787.3623913774
 20
427.8058952456
 10
776.1524882591
 20
410.3983729092
 10
770.8320176578
 20
401.5013237021
 10
765.7757403964
 20
392.4256011237
 10
761.0629107639
 20
383.1422902613
 10
757.7290797076
 20
375.8442084399
 10
754.7232031582
 20
368.3663022179
 10
752.1525470466
 20
360.7156229316
 10
750.1243773039
 20
352.8992219177
 10
748.9547953394
 20
346.2184268564
 10
748.3277074277
 20
339.4293303319
 10
748.2493020695
 20
332.6082421994
 10
748.7257677658
 20
325.8314723142
 10
749.8702946016
 20
318.3113009828
 10
751.5485729257
 20
310.8862171
 10
753.676240459
 20
303.5732176449
 10
756.1689349225
 20
296.3892995965
 10
758.9422940369
 20
289.3514599337
 10
764.598528415
 20
276.6061918733
 10
770.7927656054
 20
264.1509356468
 10
777.4198076893
 20
251.9330274694
 10
784.3744567481
 20
239.8998035562
 10
791.5515148628
 20
227.9986001223
 10
798.8457841146
 20
216.1767533827
 10
809.8554092489
 20
198.6024908547
 10
820.8891170139
 20
180.9485716917
 10
824.6288096485
 20
174.9705840503
 10
828.3739655307
 20
168.9325156164
 10
831.956748889
 20
162.7893964331
 10
835.2093239518
 20
156.4962565436
 10
837.9638549477
 20
150.0081259913
 10
840.0525061052
 20
143.2800348191
 10
840.7227708808
 20
139.8615384762
 10
841.0330015135
 20
136.3823340518
 10
840.9343506611
 20
132.9046534311
 10
840.404800134
 20
129.4660450448
 10
839.5025126213
 20
126.0943649365
 10
838.2979784756
 20
122.8272030146
 10
835.3217522597
 20
116.6946508321
 10
831.7560979498
 20
110.8710695936
 10
827.7810919895
 20
105.3122450893
 10
823.5768108223
 20
99.9739631092
 10
814.0118023159
 20
88.7257204675
 10
804.0819321026
 20
77.9204848707
 10
793.905497358
 20
67.4629227342
 10
783.6007952579
 20
57.2577004737
 10
773.0404634081
 20
47.0867328696
 10
762.2808598901
 20
37.1575379044
 10
751.2364640866
 20
27.5439325041
 10
739.8217553806
 20
18.3197335947
 10
733.7973549539
 20
13.7671213245
 10
727.5934001857
 20
9.3823470779
 10
721.1796839176
 20
5.2644815294
 10
714.5259989913
 20
1.5125953538
 10
707.6021382486
 20
-1.7742407743
 10
702.8708629985
 20
-3.6171308836
 10
698.0003218935
 20
-5.1137550812
  0
LINE
  5
1FD
330
1F
100
AcDbEntity
  8
0
  6
Continuous
 62
     7
370
    25
100
AcDbLine
 10
698.0003218935
 20
-5.1137550812
 30
0.0
 11
667.4687250468
 21
-5.1137550763
 31
0.0
  0
LINE
  5
1FE
330
1F
100
AcDbEntity
  8
0
  6
Continuous
 62
     7
370
    25
100
AcDbLine
 10
312.2877778163
 20
-5.1137550812
 30
0.0
 11
305.5120073071
 21
-5.1137550815
 31
0.0
  0
LWPOLYLINE
  5
1FF
330
1F
100
AcDbEntity
  8
0
  6
Continuous
 62
     7
370
    25
100
AcDbPolyline
 90
       41
 70
   128
 43
0.0
 10
305.5120073071
 20
-5.1137550815
 10
297.9868524137
 20
-4.4265922876
 10
290.5327891807
 20
-3.098088102
 10
283.1865140785
 20
-1.2266307948
 10
275.984723578
 20
1.0893913633
 10
268.9641141496
 20
3.7515901021
 10
257.2711683092
 20
8.891122176
 10
245.8924895061
 20
14.6048747495
 10
234.7722153603
 20
20.7601053554
 10
223.8544834921
 20
27.2240715259
 10
213.0834315215
 20
33.8640307936
 10
195.1225883163
 20
45.2911027582
 10
177.2051258037
 20
56.8597144729
 10
159.1018383968
 20
68.2906876727
 10
147.7540551884
 20
75.102439024
 10
136.1029521193
 20
81.4845051281
 10
129.9722973824
 20
84.4899300002
 10
123.674769323
 20
87.2079538328
 10
117.2100693381
 20
89.490566863
 10
110.577898825
 20
91.1897593279
 10
105.1837430113
 20
92.0008810095
 10
99.7165544939
 20
92.2465048736
 10
94.2777954812
 20
91.8748502527
 10
88.9348226324
 20
90.863187298
 10
83.7149007606
 20
89.3026374155
 10
78.6635536903
 20
87.3127402162
 10
70.0222467715
 20
83.1259781009
 10
61.7094315062
 20
78.376362139
 10
53.6609916849
 20
73.203785827
 10
45.8128110977
 20
67.7481426612
 10
38.100773535
 20
62.1493261381
 10
30.4607627872
 20
56.5472297542
 10
11.1782861328
 20
42.441815027
 10
-8.2131054937
 20
28.5727204427
 10
-18.0992612847
 20
21.7991325917
 10
-28.1800740334
 20
15.2505550883
 10
-38.5312153712
 20
9.078726945
 10
-49.2283569295
 20
3.4353871742
 10
-56.6753761746
 20
0.0387196557
 10
-64.3704876076
 20
-2.8716278785
 10
-72.300206435
 20
-5.1137550812
  0
LINE
  5
200
330
1F
100
AcDbEntity
  8
0
  6
Continuous
 62
     7
370
    25
100
AcDbLine
 10
-72.300206435
 20
-5.1137550812
 30
0.0
 11
-100.1509791443
 21
-5.1137551036
 31
0.0
  0
LINE
  5
201
330
1F
100
AcDbEntity
  8
0
  6
Continuous
 62
     7
370
    25
100
AcDbLine
 10
-501.8384114397
 20
-5.1137550812
 30
0.0
 11
-529.6336650116
 21
-5.1137550812
 31
0.0
  0
LWPOLYLINE
  5
202
330
1F
100
AcDbEntity
  8
0
  6
Continuous
 62
     7
370
    25
100
AcDbPolyline
 90
       15
 70
   128
 43
0.0
 10
-529.6336650116
 20
-5.1137550812
 10
-537.5388585263
 20
-3.4655504984
 10
-545.2771895904
 20
-1.1831583751
 10
-552.8098780555
 20
1.6024780409
 10
-560.4487299175
 20
4.9223399682
 10
-567.9023827722
 20
8.5874699766
 10
-575.1833929046
 20
12.5229116084
 10
-587.2524273966
 20
19.673899744
 10
-598.9804893866
 20
27.2942709478
 10
-610.4156687601
 20
35.2972005248
 10
-621.6060554027
 20
43.5958637804
 10
-632.7674692197
 20
52.266894434
 10
-643.7251886688
 20
61.2313730073
 10
-654.4309163117
 20
70.5408311742
 10
-664.8363547258
 20
80.2468006241
  0
LWPOLYLINE
  5
203
330
1F
100
AcDbEntity
  8
0
  6
Continuous
 62
     7
370
    25
100
AcDbPolyline
 90
       25
 70
   128
 43
0.0
 10
-664.8363547258
 20
204.5005256341
 10
-652.2054731565
 20
222.4915654313
 10
-639.5574035337
 20
240.4353666148
 10
-627.2174537656
 20
258.5969926378
 10
-621.2608865332
 20
267.8544426857
 10
-615.5458067871
 20
277.2836407772
 10
-610.1732874752
 20
286.9305119811
 10
-606.3465575939
 20
294.5234208875
 10
-602.8796672363
 20
302.3249953017
 10
-599.9124123195
 20
310.3329969993
 10
-597.5845887602
 20
318.5451877555
 10
-596.2117960762
 20
325.8662377591
 10
-595.5666489056
 20
333.3125635414
 10
-595.7511841275
 20
340.7575517642
 10
-596.823718848
 20
348.1264582054
 10
-598.6678299207
 20
355.3559098351
 10
-601.1263665186
 20
362.3705060016
 10
-605.3895771753
 20
372.0245935053
 10
-610.3290729343
 20
381.3321953194
 10
-615.8111072856
 20
390.3380875453
 10
-621.7019337191
 20
399.0870462843
 10
-627.867805725
 20
407.6238476376
 10
-634.1749767932
 20
415.9932677065
 10
-649.2928136384
 20
435.1455565167
 10
-664.8363547258
 20
453.9753366655
  0
LWPOLYLINE
  5
204
330
1F
100
AcDbEntity
  8
0
  6
Continuous
 62
     7
370
    25
100
AcDbPolyline
 90
       13
 70
   128
 43
0.0
 10
-664.8363547258
 20
598.9270489586
 10
-646.3196202389
 20
614.6512794878
 10
-627.4589747658
 20
629.8260695462
 10
-614.6115569413
 20
639.6755757365
 10
-601.5066685692
 20
649.2146703835
 10
-588.0689627047
 20
658.3461811988
 10
-577.6575271649
 20
664.8841872742
 10
-566.9325451179
 20
670.9884798556
 10
-559.4630396016
 20
674.7937819764
 10
-551.7862466588
 20
678.2432635151
 10
-543.8950350899
 20
681.2254005729
 10
-536.870701346
 20
683.3367252398
 10
-529.6336650113
 20
684.9047760789
  0
LINE
  5
205
330
1F
100
AcDbEntity
  8
0
  6
Continuous
 62
     7
370
    25
100
AcDbLine
 10
-529.6336650113
 20
684.9047760789
 30
0.0
 11
-501.8384114397
 21
684.904776079
 31
0.0
  0
LWPOLYLINE
  5
206
330
1F
100
AcDbEntity
  8
0
  6
Continuous
 62
     7
370
    25
100
AcDbPolyline
 90
       47
 70
   128
 43
0.0
 10
-501.8384114397
 20
684.904776079
 10
-493.535599102
 20
683.251598533
 10
-485.3720695732
 20
681.0098415041
 10
-477.3680933985
 20
678.2862461093
 10
-469.5439411231
 20
675.1875534655
 10
-458.90787545
 20
670.3981014279
 10
-448.5161037496
 20
665.1668339364
 10
-438.3358751653
 20
659.6088837503
 10
-421.7755644649
 20
649.9153468367
 10
-405.5373720984
 20
639.7686507874
 10
-389.5406514402
 20
629.257715445
 10
-373.7047558646
 20
618.4714606525
 10
-357.9490387461
 20
607.4988062526
 10
-342.192853459
 20
596.4286720882
 10
-326.3555533777
 20
585.3499780022
 10
-319.5449215941
 20
580.5711638631
 10
-312.6930279452
 20
575.7804368941
 10
-305.7455016965
 20
571.1020215292
 10
-298.6479721138
 20
566.6601422025
 10
-291.3460684627
 20
562.5790233479
 10
-283.7854200087
 20
558.9828893993
 10
-280.1244853839
 20
557.5475482307
 10
-276.3554489587
 20
556.4039148961
 10
-272.5006475266
 20
555.6554777609
 10
-267.5812292791
 20
555.4294896291
 10
-262.6945865878
 20
556.0357083347
 10
-258.4496731865
 20
557.2367363332
 10
-254.3540359277
 20
558.9173964057
 10
-250.4282317321
 20
560.9417059842
 10
-243.4567701379
 20
565.2756393615
 10
-236.8469464439
 20
570.1343476862
 10
-230.534687529
 20
575.3759379343
 10
-224.4559202724
 20
580.8585170817
 10
-218.5465715531
 20
586.4401921044
 10
-206.3832371471
 20
598.2760588308
 10
-194.4409622588
 20
610.1758682548
 10
-182.5759011656
 20
622.0362383004
 10
-170.644208145
 20
633.7537868914
 10
-158.5020374746
 20
645.2251319519
 10
-146.0055434318
 20
656.3468914056
 10
-138.5421946056
 20
662.5929268938
 10
-130.8121415101
 20
668.5939633452
 10
-122.7360538979
 20
674.1753091509
 10
-114.2346015216
 20
679.1622727021
 10
-109.6976826423
 20
681.4020348452
 10
-104.9992439621
 20
683.3451041483
 10
-100.1509791443
 20
684.9047761027
  0
LINE
  5
207
330
1F
100
AcDbEntity
  8
0
  6
Continuous
 62
     7
370
    25
100
AcDbLine
 10
-100.1509791443
 20
684.9047761027
 30
0.0
 11
-72.300206435
 21
684.904776079
 31
0.0
  0
LWPOLYLINE
  5
208
330
1F
100
AcDbEntity
  8
0
  6
Continuous
 62
     7
370
    25
100
AcDbPolyline
 90
       44
 70
   128
 43
0.0
 10
-72.300206435
 20
684.904776079
 10
-65.4956163961
 20
682.9232320003
 10
-58.8740723341
 20
680.4129474774
 10
-52.4370732807
 20
677.490974695
 10
-46.1861182669
 20
674.2743658375
 10
-37.7242986299
 20
669.4471168032
 10
-29.4840910248
 20
664.3053498369
 10
-21.4182735149
 20
658.9463189707
 10
-6.7365891833
 20
648.6474499088
 10
7.724245333
 20
638.0833989917
 10
22.1528478293
 20
627.4539780065
 10
30.8677468717
 20
621.0901265587
 10
39.6882299851
 20
614.8020228762
 10
48.6854477305
 20
608.7216031785
 10
57.9305506687
 20
602.9808036851
 10
67.4946893609
 20
597.7115606157
 10
72.8265111188
 20
595.1356980718
 10
78.323316196
 20
592.8495856894
 10
83.9717945033
 20
590.9611672541
 10
89.7586359514
 20
589.5783865511
 10
96.2989252397
 20
588.7555340179
 10
102.9204140071
 20
588.6768524374
 10
109.4895758312
 20
589.3066799792
 10
116.4387315689
 20
590.6964434375
 10
123.2504258806
 20
592.6837813809
 10
129.9051495503
 20
595.1425413155
 10
136.3833933623
 20
597.9465707475
 10
147.6522164678
 20
603.5225876498
 10
158.6031495711
 20
609.6204327506
 10
169.3110520657
 20
616.0898807591
 10
179.8507833453
 20
622.7807063847
 10
190.2972028034
 20
629.5426843367
 10
203.3788875295
 20
638.0324074914
 10
216.4968844127
 20
646.4606332941
 10
229.7498533973
 20
654.6962164886
 10
243.2364544279
 20
662.6080118188
 10
251.0728144198
 20
666.9256876426
 10
259.0667916746
 20
671.0358755751
 10
267.2350380795
 20
674.8356344196
 10
275.5942055216
 20
678.2220229795
 10
284.1609458881
 20
681.0921000582
 10
291.1565289687
 20
682.9168334886
 10
298.2942748406
 20
684.2214494807
 10
305.5120073071
 20
684.9047760793
  0
LINE
  5
209
330
1F
100
AcDbEntity
  8
0
  6
Continuous
 62
     7
370
    25
100
AcDbLine
 10
305.5120073071
 20
684.9047760793
 30
0.0
 11
312.2877778163
 21
684.904776079
 31
0.0
  0
LWPOLYLINE
  5
20A
330
1F
100
AcDbEntity
  8
0
  6
Continuous
 62
     7
370
    25
100
AcDbPolyline
 90
       41
 70
   128
 43
0.0
 10
312.2877778163
 20
684.904776079
 10
319.231299596
 20
684.2308840704
 10
326.1030441047
 20
682.9410827054
 10
332.8684567528
 20
681.1324993066
 10
339.4929829508
 20
678.9022611967
 10
345.9420681091
 20
676.3474956986
 10
357.5367965882
 20
671.0135320876
 10
368.7939116299
 20
665.087131042
 10
379.7899682054
 20
658.7286351747
 10
390.6015212859
 20
652.0983870981
 10
401.3051258425
 20
645.356729425
 10
412.009089365
 20
638.5534394387
 10
422.7440171784
 20
631.7656634675
 10
433.5878730836
 20
625.1202763675
 10
444.6186208815
 20
618.7441529948
 10
455.9142243727
 20
612.7641682057
 10
462.2423758856
 20
609.7212992385
 10
468.7131257578
 20
606.9233335261
 10
475.3295617918
 20
604.4587351489
 10
482.0947717903
 20
602.4159681873
 10
489.1553476647
 20
600.8815811024
 10
496.3583983302
 20
600.0188247178
 10
503.5902219945
 20
599.9436269514
 10
510.7944871026
 20
600.7429238418
 10
517.8838294388
 20
602.3176743544
 10
524.7724634351
 20
604.5085310906
 10
534.1691147723
 20
608.361189122
 10
543.2470457519
 20
612.8655085163
 10
552.0575705022
 20
617.8322630054
 10
560.6520031515
 20
623.0722263216
 10
572.1494047951
 20
630.458627351
 10
583.4896496949
 20
638.0295968491
 10
594.7692616242
 20
645.6632018752
 10
606.0425864668
 20
653.2338845336
 10
617.4402728545
 20
660.6525672877
 10
629.0631419435
 20
667.7775912628
 10
636.3372670821
 20
671.9417870475
 10
643.8001636411
 20
675.8778939367
 10
651.4665559412
 20
679.4446214148
 10
659.3511683029
 20
682.5006789657
 10
667.4687250468
 20
684.9047760738
  0
LINE
  5
20B
330
1F
100
AcDbEntity
  8
0
  6
Continuous
 62
     7
370
    25
100
AcDbLine
 10
667.4687250468
 20
684.9047760738
 30
0.0
 11
698.0003218935
 21
684.904776079
 31
0.0
  0
LWPOLYLINE
  5
20C
330
1F
100
AcDbEntity
  8
0
  6
Continuous
 62
     7
370
    25
100
AcDbPolyline
 90
       47
 70
   128
 43
0.0
 10
698.0003218935
 20
684.904776079
 10
704.1588800603
 20
682.8527183396
 10
710.0967401623
 20
680.2582540129
 10
715.8260498381
 20
677.2220475957
 10
721.3589567261
 20
673.8447635255
 10
726.7076084648
 20
670.2270662403
 10
731.8841526925
 20
666.4696201775
 10
743.5468651839
 20
657.3318446174
 10
754.7706348088
 20
647.748716505
 10
765.6740423989
 20
637.8322086946
 10
776.375668786
 20
627.6942940405
 10
786.9940948018
 20
617.4469453969
 10
800.2348388389
 20
604.6083176562
 10
813.6533028113
 20
591.7780758529
 10
819.1517688193
 20
586.6010978864
 10
824.7515658634
 20
581.4632570905
 10
830.5349798916
 20
576.5085817345
 10
836.584296852
 20
571.8811000875
 10
842.9818026928
 20
567.7248404184
 10
847.4280285946
 20
565.4203793978
 10
852.1436446879
 20
563.7340690399
 10
856.330715886
 20
562.9806402594
 10
860.5852450555
 20
562.928836537
 10
864.7693753417
 20
563.5741810001
 10
868.8294547487
 20
564.7801097387
 10
874.3845929568
 20
567.1725715189
 10
879.6836971345
 20
570.1106853306
 10
884.7723696328
 20
573.4168948515
 10
889.6962128028
 20
576.913643759
 10
900.481531563
 20
585.0925014454
 10
910.96202942
 20
593.5638811566
 10
921.2510452821
 20
602.1815687237
 10
931.4619180572
 20
610.7993499778
 10
945.1349418363
 20
622.2238376187
 10
958.8865732843
 20
633.4869190592
 10
972.8307840491
 20
644.4977804749
 10
982.1103723881
 20
651.527516601
 10
991.5839633803
 20
658.3505502981
 10
1001.3146305936
 20
664.8555016152
 10
1011.3654475957
 20
670.9309906011
 10
1017.6621253632
 20
674.3529187139
 10
1024.1509136206
 20
677.4871253564
 10
1030.833444393
 20
680.224672941
 10
1037.7113497051
 20
682.4566238802
 10
1042.779656627
 20
683.6768837941
 10
1047.9443254927
 20
684.512145323
 10
1053.1563786506
 20
684.904776079
  0
LINE
  5
20D
330
1F
100
AcDbEntity
  8
0
  6
Continuous
 62
     7
370
    25
100
AcDbLine
 10
1053.1563786506
 20
684.904776079
 30
0.0
 11
1056.4535458747
 21
684.904776079
 31
0.0
  0
LWPOLYLINE
  5
20E
330
1F
100
AcDbEntity
  8
0
  6
Continuous
 62
     7
370
    25
100
AcDbPolyline
 90
       12
 70
   128
 43
0.0
 10
1056.4535458747
 20
684.904776079
 10
1063.1180238098
 20
684.3382240104
 10
1069.6809292371
 20
683.098707612
 10
1076.3430777279
 20
681.2146305124
 10
1082.82736151
 20
678.8477500078
 10
1092.5730558801
 20
674.4804200136
 10
1101.9764255961
 20
669.482840181
 10
1111.0947073017
 20
664.0322514055
 10
1119.9851376408
 20
658.3058945825
 10
1131.8460932841
 20
650.2550457307
 10
1143.5373500056
 20
641.996828874
 10
1155.1636452742
 20
633.6506095542
  0
LINE
  5
20F
330
1F
100
AcDbEntity
  8
0
  6
Continuous
 62
     7
370
    25
100
AcDbLine
 10
-72.300206435
 20
684.904776079
 30
0.0
 11
-72.300206435
 21
819.1327810499
 31
0.0
  0
LWPOLYLINE
  5
210
330
1F
100
AcDbEntity
  8
0
  6
Continuous
 62
     7
370
    25
100
AcDbPolyline
 90
       43
 70
   128
 43
0.0
 10
305.5120073071
 20
819.1327810496
 10
297.1844514355
 20
819.8819089902
 10
288.9394228406
 20
821.3556682306
 10
280.8151414538
 20
823.4329427266
 10
272.8498272062
 20
825.9926164337
 10
265.081700029
 20
828.9135733077
 10
252.7015612293
 20
834.2177078192
 10
240.6062722618
 20
840.0207218202
 10
228.7322528034
 20
846.2037115824
 10
217.0159225311
 20
852.6477733774
 10
205.3937011218
 20
859.2340034771
 10
193.8020082524
 20
865.8434981532
 10
182.2462935836
 20
872.3739826982
 10
170.5995993806
 20
878.8031785935
 10
158.7939800277
 20
885.0219445503
 10
151.5137109143
 20
888.6556544614
 10
144.1082059901
 20
892.1196296126
 10
136.5633115647
 20
895.3160560965
 10
128.8648739473
 20
898.1471200057
 10
120.9987394475
 20
900.5150074326
 10
115.2044669303
 20
901.857353668
 10
109.3057781569
 20
902.8165790617
 10
103.3528018795
 20
903.3333334754
 10
97.3956668505
 20
903.348266771
 10
91.4316080962
 20
902.8003166957
 10
85.5261896923
 20
901.7204035772
 10
79.7275123924
 20
900.1826526232
 10
74.0836769501
 20
898.2611890414
 10
65.8792420186
 20
894.8469022512
 10
57.9129172428
 20
890.9655985433
 10
50.1468883325
 20
886.7489813317
 10
42.5433409976
 20
882.3287540305
 10
27.3759800223
 20
872.990113181
 10
12.4450452599
 20
863.4082255448
 10
-0.7523717101
 20
854.8954762339
 10
-14.045519795
 20
846.5115381307
 10
-27.5685647137
 20
838.4217009542
 10
-34.5946180964
 20
834.4498857499
 10
-41.7757318375
 20
830.6272753502
 10
-49.1243767395
 20
827.0690647176
 10
-56.6530236048
 20
823.8904488149
 10
-64.3741432359
 20
821.2066226048
 10
-72.300206435
 20
819.1327810499
  0
LINE
  5
211
330
1F
100
AcDbEntity
  8
0
  6
Continuous
 62
     7
370
    25
100
AcDbLine
 10
305.5120073071
 20
819.1327810496
 30
0.0
 11
305.5120073071
 21
684.9047760793
 31
0.0
  0
LWPOLYLINE
  5
212
330
1F
100
AcDbEntity
  8
0
  6
Continuous
 62
     7
370
    25
100
AcDbPolyline
 90
       45
 70
   128
 43
0.0
 10
1047.1971282234
 20
819.6194450631
 10
1046.0245414146
 20
819.7152047243
 10
1038.9684666708
 20
821.0103536779
 10
1032.0521512659
 20
822.8932521819
 10
1025.3395920463
 20
825.2389245079
 10
1016.310440663
 20
829.0585036582
 10
1007.5533143207
 20
833.3822104151
 10
999.0328086956
 20
838.1006322387
 10
990.713519464
 20
843.1043565889
 10
982.560042302
 20
848.2839709258
 10
968.9074370984
 20
857.3933586293
 10
955.4799762289
 20
866.7918109094
 10
942.1728175041
 20
876.3799901987
 10
929.5610222412
 20
885.5974938065
 10
916.8742534571
 20
894.8327026799
 10
903.9957995533
 20
903.9518409269
 10
896.2457090175
 20
909.2248605962
 10
888.2897361852
 20
914.2587440122
 10
880.0330909642
 20
918.8369432965
 10
875.8451814164
 20
920.8277102793
 10
871.5258367566
 20
922.5479257249
 10
867.0777745356
 20
923.8876672628
 10
863.4870980022
 20
924.5911078467
 10
859.8319225399
 20
924.926673793
 10
856.1753566972
 20
924.8499556683
 10
852.5506332762
 20
924.3338046509
 10
848.9949138017
 20
923.422604944
 10
845.5564331424
 20
922.1775466736
 10
839.0585252421
 20
919.0258454879
 10
832.9008391517
 20
915.2561446899
 10
827.0074566017
 20
911.0894997104
 10
821.3024593226
 20
906.7469659803
 10
808.4979412887
 20
896.529186132
 10
796.0156020822
 20
886.11303027
 10
783.6880197338
 20
875.6570629827
 10
771.3477722743
 20
865.3198488584
 10
763.0464685429
 20
858.5045032182
 10
754.6456998043
 20
851.7651087546
 10
746.0803729101
 20
845.1992707333
 10
737.2853947117
 20
838.9045944203
 10
728.1956720607
 20
832.9786850815
 10
718.7461118087
 20
827.5191479825
 10
712.0977183871
 20
824.1883466726
 10
705.1780957388
 20
821.3289279974
 10
698.0003218935
 20
819.1327810499
  0
LINE
  5
213
330
1F
100
AcDbEntity
  8
0
  6
Continuous
 62
     7
370
    25
100
AcDbLine
 10
698.0003218935
 20
819.1327810499
 30
0.0
 11
667.4687250468
 21
819.1327810544
 31
0.0
  0
LWPOLYLINE
  5
214
330
1F
100
AcDbEntity
  8
0
  6
Continuous
 62
     7
370
    25
100
AcDbPolyline
 90
       40
 70
   128
 43
0.0
 10
667.4687250468
 20
819.1327810544
 10
659.2881336788
 20
821.2714785836
 10
651.3046256179
 20
823.9977100589
 10
643.5037558078
 20
827.1996921474
 10
635.8710791928
 20
830.7656415165
 10
628.3921507168
 20
834.5837748334
 10
621.0525253237
 20
838.5423087652
 10
606.0591510613
 20
847.0480287613
 10
591.2441447457
 20
855.7928267759
 10
576.4265112012
 20
864.5436000686
 10
567.4045543137
 20
869.7453754064
 10
558.2664540582
 20
874.805835367
 10
548.9624900153
 20
879.6171112289
 10
539.442941766
 20
884.0713342705
 10
532.6511204303
 20
886.890927472
 10
525.6847319316
 20
889.3777066671
 10
518.5603738977
 20
891.4088942095
 10
511.2946439563
 20
892.8617124527
 10
505.1859563252
 20
893.5150303533
 10
499.0131887695
 20
893.6405391376
 10
492.8471696401
 20
893.2675975455
 10
486.7587272879
 20
892.4255643165
 10
479.2712474622
 20
890.7994762417
 10
471.9196579624
 20
888.6605146395
 10
464.7062507831
 20
886.1054204879
 10
457.6333179189
 20
883.2309347648
 10
450.7031513645
 20
880.1337984481
 10
437.096075441
 20
873.4836441732
 10
423.7575535698
 20
866.4232614017
 10
410.5716874188
 20
859.1416335901
 10
397.4225786561
 20
851.8277441949
 10
386.8695928427
 20
846.0363864817
 10
376.2057918385
 20
840.3694753497
 10
365.3722174399
 20
834.977119325
 10
354.3099114436
 20
830.0094269337
 10
342.959915646
 20
825.6165067019
 10
335.5118862688
 20
823.2113084801
 10
327.8838676397
 20
821.2482507572
 10
320.1258385564
 20
819.8483895936
 10
312.2877778163
 20
819.1327810499
  0
LINE
  5
215
330
1F
100
AcDbEntity
  8
0
  6
Continuous
 62
     7
370
    25
100
AcDbLine
 10
312.2877778163
 20
819.1327810499
 30
0.0
 11
305.5120073071
 21
819.1327810496
 31
0.0
  0
LINE
  5
216
330
1F
100
AcDbEntity
  8
0
  6
Continuous
 62
     7
370
    25
100
AcDbLine
 10
-72.300206435
 20
819.1327810499
 30
0.0
 11
-100.1509791443
 21
819.1327810288
 31
0.0
  0
LWPOLYLINE
  5
217
330
1F
100
AcDbEntity
  8
0
  6
Continuous
 62
     7
370
    25
100
AcDbPolyline
 90
       47
 70
   128
 43
0.0
 10
-100.1509791443
 20
819.1327810288
 10
-106.4431629385
 20
820.9812294263
 10
-112.5308859393
 20
823.37612923
 10
-118.4227720076
 20
826.2162417301
 10
-124.1274450044
 20
829.4003282167
 10
-129.6535287908
 20
832.8271499798
 10
-135.0096472275
 20
836.3954683095
 10
-147.0924906329
 20
845.0816469491
 10
-158.7601513847
 20
854.2028746311
 10
-170.1394554616
 20
863.6451590459
 10
-181.3572288424
 20
873.2945078839
 10
-192.5402975058
 20
883.0369288352
 10
-200.0402562442
 20
889.6275377203
 10
-207.5912356662
 20
896.2668408518
 10
-215.2720727234
 20
902.8329651652
 10
-223.1616043678
 20
909.2040375958
 10
-231.338667551
 20
915.2581850789
 10
-239.882099225
 20
920.8735345499
 10
-245.1115672567
 20
923.8800088833
 10
-250.5541625044
 20
926.5264404147
 10
-256.2122564621
 20
928.65790723
 10
-260.6052688238
 20
929.8065188222
 10
-265.1097131018
 20
930.4905124505
 10
-269.6471002833
 20
930.6542771785
 10
-274.1622765007
 20
930.2791872093
 10
-278.6284550013
 20
929.4433025369
 10
-282.9988989244
 20
928.2363149148
 10
-290.5305226327
 20
925.5132709742
 10
-297.8458977892
 20
922.2695607313
 10
-304.9831003994
 20
918.6301120782
 10
-311.9802064689
 20
914.719852907
 10
-318.8752920032
 20
910.6637111096
 10
-325.7064330078
 20
906.5866145781
 10
-342.5988108829
 20
896.4445949147
 10
-359.3651072652
 20
886.2674170273
 10
-376.0970859976
 20
876.1616879236
 10
-392.8865109229
 20
866.2340146111
 10
-406.442300103
 20
858.4291246733
 10
-420.140528583
 20
850.8144375356
 10
-434.0420464952
 20
843.5173181876
 10
-448.2077039723
 20
836.6651316191
 10
-462.6983511466
 20
830.3852428197
 10
-470.2663213456
 20
827.4517742408
 10
-477.9762735958
 20
824.7815706113
 10
-485.8162467758
 20
822.4528550944
 10
-493.7742797643
 20
820.5438508529
 10
-501.8384114397
 20
819.1327810499
  0
LINE
  5
218
330
1F
100
AcDbEntity
  8
0
  6
Continuous
 62
     7
370
    25
100
AcDbLine
 10
-501.8384114397
 20
819.1327810499
 30
0.0
 11
-529.6336650116
 21
819.1327810499
 31
0.0
  0
ARC
  5
219
330
1F
100
AcDbEntity
  8
0
  6
Continuous
 62
     7
370
    25
100
AcDbCircle
 10
-512.9156428293
 20
925.4707748213
 30
0.0
 40
107.6441414338096
100
AcDbArc
 50
250.3028830663
 51
261.0653263901
  0
LWPOLYLINE
  5
21A
330
1F
100
AcDbEntity
  8
0
  6
Continuous
 62
     7
370
    25
100
AcDbPolyline
 90
       29
 70
   128
 43
0.0
 10
-371.4492383741
 20
1053.4007278075
 10
-361.513112163
 20
1043.9781734298
 10
-349.9816028309
 20
1033.5410530364
 10
-340.490422936
 20
1025.1981000082
 10
-330.8357817678
 20
1016.9881443527
 10
-320.9576855825
 20
1009.0129644541
 10
-310.7961406363
 20
1001.3743386966
 10
-300.2911531852
 20
994.1740454646
 10
-295.2065530263
 20
990.9992649161
 10
-289.9660584873
 20
988.069747475
 10
-284.5410457999
 20
985.5041112723
 10
-280.4450121479
 20
983.9474890685
 10
-276.2178869577
 20
982.7579591599
 10
-271.9000311543
 20
982.0446419467
 10
-266.4312797103
 20
981.9703714003
 10
-261.0283482777
 20
982.8170949121
 10
-256.4645787161
 20
984.2555344084
 10
-252.0796201923
 20
986.2085595898
 10
-247.9004863434
 20
988.5433850162
 10
-241.5727535416
 20
992.8179345444
 10
-235.6144792079
 20
997.5947493463
 10
-229.9748659322
 20
1002.7545927814
 10
-224.6031163044
 20
1008.1782282099
 10
-219.4484329147
 20
1013.7464189914
 10
-209.0065505145
 20
1025.7271437519
 10
-199.0391861342
 20
1038.0541034615
 10
-189.5593344948
 20
1050.7295256361
 10
-180.5799903176
 20
1063.7556377918
 10
-172.1141483238
 20
1077.1346674446
  0
LWPOLYLINE
  5
21B
330
1F
100
AcDbEntity
  8
0
  6
Continuous
 62
     7
370
    25
100
AcDbPolyline
 90
       24
 70
   128
 43
0.0
 10
15.5653862393
 20
1077.1346674446
 10
24.5758502203
 20
1066.4101464548
 10
34.1446728441
 20
1056.1780170506
 10
44.2421416756
 20
1046.4652860953
 10
50.6030067187
 20
1040.8357073231
 10
57.2227441869
 20
1035.4357745312
 10
64.1389789317
 20
1030.4095662581
 10
71.3893358042
 20
1025.9011610422
 10
79.0114396557
 20
1022.0546374221
 10
84.9330283102
 20
1019.7895158903
 10
91.1006203385
 20
1018.1873389532
 10
97.3994446005
 20
1017.3756330529
 10
103.7721748583
 20
1017.4234864727
 10
110.1178096562
 20
1018.2471228344
 10
116.3138527813
 20
1019.7413555633
 10
123.2369436516
 20
1022.1517942111
 10
129.9356759277
 20
1025.146286675
 10
136.4097315891
 20
1028.5983082344
 10
142.658792615
 20
1032.3813341687
 10
154.0186361792
 20
1040.1420685675
 10
164.8764802609
 20
1048.5814822694
 10
175.2429120416
 20
1057.6158620995
 10
185.1285187028
 20
1067.1614948829
 10
194.5438874261
 20
1077.1346674446
  0
LWPOLYLINE
  5
21C
330
1F
100
AcDbEntity
  8
0
  6
Continuous
 62
     7
370
    25
100
AcDbPolyline
 90
       23
 70
   128
 43
0.0
 10
421.9987043948
 20
1077.1346674446
 10
429.9963530468
 20
1069.0430888329
 10
438.4028226806
 20
1061.3663594329
 10
447.2059545962
 20
1054.1455239472
 10
452.9971357502
 20
1049.8103678233
 10
459.003918955
 20
1045.6870120201
 10
465.2282824003
 20
1041.8714563952
 10
471.6722042755
 20
1038.4597008058
 10
478.3376627701
 20
1035.5477451094
 10
485.2266360735
 20
1033.2315891634
 10
491.2533721291
 20
1031.8425479677
 10
497.4177536589
 20
1031.0952611591
 10
503.6035464531
 20
1031.0817765486
 10
509.7518735375
 20
1031.8722528971
 10
515.781846571
 20
1033.3841721889
 10
521.60444082
 20
1035.484323789
 10
528.8069157588
 20
1038.8684361218
 10
535.6994399855
 20
1042.8501557498
 10
542.2978435788
 20
1047.2967993745
 10
548.6179566172
 20
1052.0756836973
 10
557.8798949841
 20
1059.9035122175
 10
566.6477331785
 20
1068.278852123
 10
574.9163759831
 20
1077.1346674446
  0
LWPOLYLINE
  5
21D
330
1F
100
AcDbEntity
  8
0
  6
Continuous
 62
     7
370
    25
100
AcDbPolyline
 90
       20
 70
   128
 43
0.0
 10
771.4721783084
 20
1077.1346674446
 10
779.1021804551
 20
1065.4093862885
 10
787.1598142279
 20
1053.993469954
 10
795.5943033959
 20
1042.8534962381
 10
804.354871767
 20
1031.9560429375
 10
810.4555584462
 20
1024.646210126
 10
816.7386932974
 20
1017.4342655665
 10
823.2962822079
 20
1010.4500146504
 10
830.2203310645
 20
1003.8232627692
 10
837.6028457544
 20
997.6838153142
 10
842.2827279052
 20
994.3868721559
 10
847.3008197934
 20
991.6234498409
 10
851.5429884149
 20
990.0261081434
 10
855.9852847842
 20
989.1242846627
 10
860.5459552281
 20
989.0484387062
 10
865.0551783581
 20
989.7567991167
 10
869.1575470435
 20
991.0342745207
 10
873.1051076441
 20
992.7611355803
 10
876.8836877385
 20
994.8086160596
 10
882.5591407499
 20
998.4969064617
  0
LINE
  5
21E
330
1F
100
AcDbEntity
  8
0
  6
Continuous
 62
     7
370
    25
100
AcDbLine
 10
312.2877778163
 20
684.904776079
 30
0.0
 11
312.2877778163
 21
819.1327810499
 31
0.0
  0
LINE
  5
21F
330
1F
100
AcDbEntity
  8
0
  6
Continuous
 62
     7
370
    25
100
AcDbLine
 10
667.4687250468
 20
819.1327810544
 30
0.0
 11
667.4687250468
 21
684.9047760738
 31
0.0
  0
LWPOLYLINE
  5
220
330
1F
100
AcDbEntity
  8
0
  6
Continuous
 62
     7
370
    25
100
AcDbPolyline
 90
       50
 70
   128
 43
0.0
 10
1053.1563786506
 20
-436.9060296823
 10
1047.3903751096
 20
-436.3825444177
 10
1041.6903816344
 20
-435.2592274578
 10
1036.1106215473
 20
-433.6371419283
 10
1030.7053181708
 20
-431.6173509546
 10
1022.0244655514
 20
-427.6308883634
 10
1013.6721818989
 20
-423.0553420152
 10
1005.6054137042
 20
-418.0093477317
 10
997.7811074584
 20
-412.6115413347
 10
990.1562096527
 20
-406.9805586457
 10
982.6876667781
 20
-401.2350354867
 10
965.6192585863
 20
-387.5168815853
 10
948.9518699567
 20
-373.3256406628
 10
932.5863810417
 20
-358.7067003433
 10
916.4236719934
 20
-343.7054482506
 10
909.2419528543
 20
-336.9632732703
 10
902.0742692689
 20
-330.1259488377
 10
895.0727225192
 20
-323.0833737575
 10
888.3894138872
 20
-315.7254468347
 10
882.176444655
 20
-307.9420668742
 10
879.7536991365
 20
-304.4122815691
 10
877.7026829539
 20
-300.6567309571
 10
876.6587239339
 20
-297.9566445314
 10
876.0379708874
 20
-295.1338018655
 10
875.9664879006
 20
-292.2107819574
 10
876.4374350807
 20
-289.3222553844
 10
877.7700596951
 20
-285.6143178041
 10
879.6278142189
 20
-282.1300271577
 10
883.9357803162
 20
-275.7907280078
 10
888.7935706224
 20
-269.8542146193
 10
893.9834452187
 20
-264.1967210884
 10
899.2876641862
 20
-258.6944815108
 10
909.8481601972
 20
-248.037295536
 10
920.5847557001
 20
-237.6592220426
 10
931.4595765531
 20
-227.5205137562
 10
942.4347486144
 20
-217.5814234023
 10
953.601353899
 20
-207.7328697172
 10
964.9333634497
 20
-198.0983953891
 10
976.4939109367
 20
-188.7396624879
 10
988.3461300303
 20
-179.7183330837
 10
996.1004083969
 20
-174.1686789903
 10
1004.0621034523
 20
-168.8545524076
 10
1012.2713043672
 20
-163.8829923456
 10
1020.768100312
 20
-159.3610378141
 10
1026.4318011385
 20
-156.7445666281
 10
1032.2700176266
 20
-154.442802306
 10
1038.2629637078
 20
-152.5489302019
 10
1044.3908533133
 20
-151.1561356699
 10
1048.7543965434
 20
-150.5299865162
 10
1053.1563786506
 20
-150.2278274737
  0
LINE
  5
221
330
1F
100
AcDbEntity
  8
0
  6
Continuous
 62
     7
370
    25
100
AcDbLine
 10
698.0003218935
 20
-549.8952953698
 30
0.0
 11
698.0003218935
 21
-436.9060296823
 31
0.0
  0
LINE
  5
222
330
1F
100
AcDbEntity
  8
0
  6
Continuous
 62
     7
370
    25
100
AcDbLine
 10
698.0003218935
 20
-150.2278274737
 30
0.0
 11
698.0003218935
 21
-5.1137550812
 31
0.0
  0
LINE
  5
223
330
1F
100
AcDbEntity
  8
0
  6
Continuous
 62
     7
370
    25
100
AcDbLine
 10
1053.1563786506
 20
-5.1137550812
 30
0.0
 11
1053.1563786506
 21
-150.2278274737
 31
0.0
  0
LINE
  5
224
330
1F
100
AcDbEntity
  8
0
  6
Continuous
 62
     7
370
    25
100
AcDbLine
 10
698.0003218935
 20
684.904776079
 30
0.0
 11
698.0003218935
 21
819.1327810499
 31
0.0
  0
LINE
  5
225
330
1F
100
AcDbEntity
  8
0
  6
Continuous
 62
     7
370
    25
100
AcDbLine
 10
-501.8384114397
 20
684.904776079
 30
0.0
 11
-501.8384114397
 21
819.1327810499
 31
0.0
  0
LINE
  5
226
330
1F
100
AcDbEntity
  8
0
  6
Continuous
 62
     7
370
    25
100
AcDbLine
 10
-100.1509791443
 20
819.1327810288
 30
0.0
 11
-100.1509791443
 21
684.9047761027
 31
0.0
  0
LINE
  5
227
330
1F
100
AcDbEntity
  8
0
  6
Continuous
 62
     7
370
    25
100
AcDbLine
 10
-72.300206435
 20
-150.2278274737
 30
0.0
 11
-72.300206435
 21
-5.1137550812
 31
0.0
  0
LINE
  5
228
330
1F
100
AcDbEntity
  8
0
  6
Continuous
 62
     7
370
    25
100
AcDbLine
 10
305.5120073071
 20
-5.1137550815
 30
0.0
 11
305.5120073071
 21
-150.2278274733
 31
0.0
  0
LWPOLYLINE
  5
229
330
1F
100
AcDbEntity
  8
0
  6
Continuous
 62
     7
370
    25
100
AcDbPolyline
 90
       13
 70
   128
 43
0.0
 10
1056.4535458747
 20
-150.2278274737
 10
1062.9375215396
 20
-150.774986992
 10
1069.3248973384
 20
-151.9689659594
 10
1075.8070948914
 20
-153.785899707
 10
1082.1174287833
 20
-156.0749335434
 10
1090.069870227
 20
-159.5721398824
 10
1097.7787168875
 20
-163.5312566269
 10
1105.2737858892
 20
-167.8550909051
 10
1112.5848943565
 20
-172.4464498447
 10
1119.7418594136
 20
-177.2081405736
 10
1131.7205564856
 20
-185.6027381028
 10
1143.4930137334
 20
-194.2523621471
 10
1155.1636452742
 20
-203.0396910926
  0
LINE
  5
22A
330
1F
100
AcDbEntity
  8
0
  6
Continuous
 62
     7
370
    25
100
AcDbLine
 10
1056.4535458747
 20
-150.2278274737
 30
0.0
 11
1056.4535458747
 21
-5.1137550812
 31
0.0
  0
LWPOLYLINE
  5
22B
330
1F
100
AcDbEntity
  8
0
  6
Continuous
 62
     7
370
    25
100
AcDbPolyline
 90
       13
 70
   128
 43
0.0
 10
1155.1636452742
 20
-381.9583683817
 10
1143.109019742
 20
-391.0713130724
 10
1130.9808338295
 20
-400.0902687744
 10
1118.6587525255
 20
-408.9207142186
 10
1106.0152265386
 20
-417.3725647052
 10
1099.2212462656
 20
-421.560026836
 10
1092.2580004752
 20
-425.5065352533
 10
1085.0142018819
 20
-429.1609047559
 10
1077.5204364582
 20
-432.3398598674
 10
1072.489620976
 20
-434.0708313204
 10
1067.3412265203
 20
-435.4560852094
 10
1061.9349066921
 20
-436.4414992549
 10
1056.4535458747
 20
-436.9060296823
  0
LINE
  5
22C
330
1F
100
AcDbEntity
  8
0
  6
Continuous
 62
     7
370
    25
100
AcDbLine
 10
1056.4535458747
 20
-436.9060296823
 30
0.0
 11
1053.1563786506
 21
-436.9060296823
 31
0.0
  0
LINE
  5
22D
330
1F
100
AcDbEntity
  8
0
  6
Continuous
 62
     7
370
    25
100
AcDbLine
 10
1053.1563786506
 20
-150.2278274737
 30
0.0
 11
1056.4535458747
 21
-150.2278274737
 31
0.0
  0
LWPOLYLINE
  5
22E
330
1F
100
AcDbEntity
  8
0
  6
Continuous
 62
     7
370
    25
100
AcDbPolyline
 90
       14
 70
   128
 43
0.0
 10
-529.6336650116
 20
-436.9060296823
 10
-537.5054071832
 20
-434.9579537006
 10
-545.1663869791
 20
-432.3025802506
 10
-552.5844001692
 20
-429.1162900743
 10
-560.1059921319
 20
-425.3694231445
 10
-567.4283739382
 20
-421.2893904123
 10
-574.5739321626
 20
-416.9591692933
 10
-586.6767549811
 20
-409.0193700801
 10
-598.442160631
 20
-400.6632364795
 10
-609.927410768
 20
-391.976684431
 10
-621.1897670477
 20
-383.0456298742
 10
-636.1025836252
 20
-370.695190963
 10
-650.6802640256
 20
-357.8934961121
 10
-664.8363547258
 20
-344.5327707624
  0
LWPOLYLINE
  5
22F
330
1F
100
AcDbEntity
  8
0
  6
Continuous
 62
     7
370
    25
100
AcDbPolyline
 90
       16
 70
   128
 43
0.0
 10
-664.8363547258
 20
-240.8474889138
 10
-654.1054622902
 20
-230.4671978827
 10
-643.0915739431
 20
-220.4532886513
 10
-631.8498611464
 20
-210.7497181936
 10
-620.3288284192
 20
-201.2523374604
 10
-608.5655189314
 20
-192.0500690074
 10
-596.5229437165
 20
-183.1866350444
 10
-585.648546796
 20
-175.7159493826
 10
-574.4464995719
 20
-168.6656456714
 10
-566.6665300608
 20
-164.2143012193
 10
-558.6677604201
 20
-160.0957740828
 10
-550.4321904668
 20
-156.4158468947
 10
-545.40850617
 20
-154.4820339449
 10
-540.2881143581
 20
-152.7828354137
 10
-535.0053406607
 20
-151.3419417929
 10
-529.6336650113
 20
-150.2278274737
  0
LINE
  5
230
330
1F
100
AcDbEntity
  8
0
  6
Continuous
 62
     7
370
    25
100
AcDbLine
 10
-529.6336650113
 20
-150.2278274737
 30
0.0
 11
-501.8384114397
 21
-150.2278274737
 31
0.0
  0
LINE
  5
231
330
1F
100
AcDbEntity
  8
0
  6
Continuous
 62
     7
370
    25
100
AcDbLine
 10
-501.8384114398
 20
-436.9060296823
 30
0.0
 11
-529.6336650116
 21
-436.9060296823
 31
0.0
  0
LINE
  5
232
330
1F
100
AcDbEntity
  8
0
  6
Continuous
 62
     7
370
    25
100
AcDbLine
 10
-529.6336650116
 20
-5.1137550812
 30
0.0
 11
-529.6336650113
 21
-150.2278274737
 31
0.0
  0
LINE
  5
233
330
1F
100
AcDbEntity
  8
0
  6
Continuous
 62
     7
370
    25
100
AcDbLine
 10
-529.6336650116
 20
-436.9060296823
 30
0.0
 11
-529.6336650113
 21
-502.284406691
 31
0.0
  0
LINE
  5
234
330
1F
100
AcDbEntity
  8
0
  6
Continuous
 62
     7
370
    25
100
AcDbLine
 10
-529.6336650116
 20
819.1327810499
 30
0.0
 11
-529.6336650113
 21
684.9047760789
 31
0.0
  0
ARC
  5
235
330
1F
100
AcDbEntity
  8
0
  6
Continuous
 62
     7
370
    25
100
AcDbCircle
 10
-364.9645809334
 20
1157.1346674446
 30
0.0
 40
7.00000000000006
100
AcDbArc
 50
358.5307164186
 51
90.0
  0
LINE
  5
236
330
1F
100
AcDbEntity
  8
0
  6
Continuous
 62
     7
370
    25
100
AcDbLine
 10
-364.9645809334
 20
1167.1346674446
 30
0.0
 11
-364.9645809334
 21
1164.1346674446
 31
0.0
  0
ARC
  5
237
330
1F
100
AcDbEntity
  8
0
  6
Continuous
 62
     7
370
    25
100
AcDbCircle
 10
-364.9645809334
 20
1157.1346674446
 30
0.0
 40
10.00000000000001
100
AcDbArc
 50
358.5307164186
 51
90.0
  0
LINE
  5
238
330
1F
100
AcDbEntity
  8
0
  6
Continuous
 62
     7
370
    25
100
AcDbLine
 10
-357.9668824295
 20
1156.9551802651
 30
0.0
 11
-354.9678687849
 21
1156.8782571882
 31
0.0
  0
ARC
  5
239
330
1F
100
AcDbEntity
  8
0
  6
Continuous
 62
     7
370
    25
100
AcDbCircle
 10
-754.8363547258
 20
1167.1346674446
 30
0.0
 40
397.0000000000002
100
AcDbArc
 50
271.4692835814
 51
358.5307164186
  0
ARC
  5
23A
330
1F
100
AcDbEntity
  8
0
  6
Continuous
 62
     7
370
    25
100
AcDbCircle
 10
-754.8363547258
 20
1167.1346674446
 30
0.0
 40
400.0000000000001
100
AcDbArc
 50
271.4692835814
 51
358.5307164186
  0
LINE
  5
23B
330
1F
100
AcDbEntity
  8
0
  6
Continuous
 62
     7
370
    25
100
AcDbLine
 10
-744.6568675463
 20
770.2651951483
 30
0.0
 11
-744.5799444694
 21
767.2661815037
 31
0.0
  0
LINE
  5
23C
330
1F
100
AcDbEntity
  8
0
  6
Continuous
 62
     7
370
    25
100
AcDbLine
 10
-744.8363547258
 20
1167.1346674446
 30
0.0
 11
-364.9645809334
 21
1167.1346674446
 31
0.0
  0
LINE
  5
23D
330
1F
100
AcDbEntity
  8
0
  6
Continuous
 62
     7
370
    25
100
AcDbLine
 10
-364.9645809334
 20
1164.1346674446
 30
0.0
 11
-744.8363547258
 21
1164.1346674446
 31
0.0
  0
LINE
  5
23E
330
1F
100
AcDbEntity
  8
0
  6
Continuous
 62
     7
370
    25
100
AcDbLine
 10
-744.8363547258
 20
1167.1346674446
 30
0.0
 11
-744.8363547258
 21
1164.1346674446
 31
0.0
  0
ARC
  5
23F
330
1F
100
AcDbEntity
  8
0
  6
Continuous
 62
     7
370
    25
100
AcDbCircle
 10
-744.8363547258
 20
777.2628936522
 30
0.0
 40
7.0
100
AcDbArc
 50
180.0
 51
271.4692835814
  0
LINE
  5
240
330
1F
100
AcDbEntity
  8
0
  6
Continuous
 62
     7
370
    25
100
AcDbLine
 10
-751.8363547258
 20
1157.1346674446
 30
0.0
 11
-751.8363547258
 21
777.2628936522
 31
0.0
  0
ARC
  5
241
330
1F
100
AcDbEntity
  8
0
  6
Continuous
 62
     7
370
    25
100
AcDbCircle
 10
-744.8363547258
 20
1157.1346674446
 30
0.0
 40
7.0
100
AcDbArc
 50
90.0
 51
180.0
  0
ARC
  5
242
330
1F
100
AcDbEntity
  8
0
  6
Continuous
 62
     7
370
    25
100
AcDbCircle
 10
-744.8363547258
 20
777.2628936522
 30
0.0
 40
10.0
100
AcDbArc
 50
180.0
 51
271.4692835814
  0
LINE
  5
243
330
1F
100
AcDbEntity
  8
0
  6
Continuous
 62
     7
370
    25
100
AcDbLine
 10
-751.8363547258
 20
777.2628936522
 30
0.0
 11
-754.8363547258
 21
777.2628936522
 31
0.0
  0
LINE
  5
244
330
1F
100
AcDbEntity
  8
0
  6
Continuous
 62
     7
370
    25
100
AcDbLine
 10
-754.8363547258
 20
777.2628936522
 30
0.0
 11
-754.8363547258
 21
1157.1346674446
 31
0.0
  0
LINE
  5
245
330
1F
100
AcDbEntity
  8
0
  6
Continuous
 62
     7
370
    25
100
AcDbLine
 10
-754.8363547258
 20
1157.1346674446
 30
0.0
 11
-751.8363547258
 21
1157.1346674446
 31
0.0
  0
ARC
  5
246
330
1F
100
AcDbEntity
  8
0
  6
Continuous
 62
     7
370
    25
100
AcDbCircle
 10
-744.8363547258
 20
1157.1346674446
 30
0.0
 40
10.0
100
AcDbArc
 50
90.0
 51
180.0
  0
ARC
  5
247
330
1F
100
AcDbEntity
  8
0
  6
Continuous
 62
     7
370
    25
100
AcDbCircle
 10
-364.9645809334
 20
-822.8653325554
 30
0.0
 40
7.000000000000227
100
AcDbArc
 50
270.0
 51
1.4692835814
  0
LINE
  5
248
330
1F
100
AcDbEntity
  8
0
  6
Continuous
 62
     7
370
    25
100
AcDbLine
 10
-744.8363547258
 20
-829.8653325554
 30
0.0
 11
-364.9645809334
 21
-829.8653325554
 31
0.0
  0
ARC
  5
249
330
1F
100
AcDbEntity
  8
0
  6
Continuous
 62
     7
370
    25
100
AcDbCircle
 10
-744.8363547258
 20
-822.8653325554
 30
0.0
 40
7.000000000000227
100
AcDbArc
 50
180.0
 51
270.0
  0
LINE
  5
24A
330
1F
100
AcDbEntity
  8
0
  6
Continuous
 62
     7
370
    25
100
AcDbLine
 10
-751.8363547258
 20
-442.9935587631
 30
0.0
 11
-751.8363547258
 21
-822.8653325554
 31
0.0
  0
ARC
  5
24B
330
1F
100
AcDbEntity
  8
0
  6
Continuous
 62
     7
370
    25
100
AcDbCircle
 10
-744.8363547258
 20
-442.9935587631
 30
0.0
 40
7.0
100
AcDbArc
 50
88.5307164186
 51
180.0
  0
ARC
  5
24C
330
1F
100
AcDbEntity
  8
0
  6
Continuous
 62
     7
370
    25
100
AcDbCircle
 10
-754.8363547258
 20
-832.8653325554
 30
0.0
 40
397.0000000000001
100
AcDbArc
 50
1.4692835814
 51
88.5307164186
  0
LINE
  5
24D
330
1F
100
AcDbEntity
  8
0
  6
Continuous
 62
     7
370
    25
100
AcDbLine
 10
-744.6568675463
 20
-435.9958602591
 30
0.0
 11
-744.5799444694
 21
-432.9968466145
 31
0.0
  0
ARC
  5
24E
330
1F
100
AcDbEntity
  8
0
  6
Continuous
 62
     7
370
    25
100
AcDbCircle
 10
-754.8363547258
 20
-832.8653325554
 30
0.0
 40
400.0000000000001
100
AcDbArc
 50
1.4692835814
 51
88.5307164186
  0
LINE
  5
24F
330
1F
100
AcDbEntity
  8
0
  6
Continuous
 62
     7
370
    25
100
AcDbLine
 10
-357.9668824295
 20
-822.6858453759
 30
0.0
 11
-354.9678687849
 21
-822.608922299
 31
0.0
  0
LINE
  5
250
330
1F
100
AcDbEntity
  8
0
  6
Continuous
 62
     7
370
    25
100
AcDbLine
 10
-754.8363547258
 20
-442.9935587631
 30
0.0
 11
-751.8363547258
 21
-442.9935587631
 31
0.0
  0
ARC
  5
251
330
1F
100
AcDbEntity
  8
0
  6
Continuous
 62
     7
370
    25
100
AcDbCircle
 10
-744.8363547258
 20
-442.9935587631
 30
0.0
 40
10.0
100
AcDbArc
 50
88.5307164186
 51
180.0
  0
LINE
  5
252
330
1F
100
AcDbEntity
  8
0
  6
Continuous
 62
     7
370
    25
100
AcDbLine
 10
-364.9645809334
 20
-829.8653325554
 30
0.0
 11
-364.9645809334
 21
-832.8653325554
 31
0.0
  0
LINE
  5
253
330
1F
100
AcDbEntity
  8
0
  6
Continuous
 62
     7
370
    25
100
AcDbLine
 10
-364.9645809334
 20
-832.8653325554
 30
0.0
 11
-744.8363547258
 21
-832.8653325554
 31
0.0
  0
LINE
  5
254
330
1F
100
AcDbEntity
  8
0
  6
Continuous
 62
     7
370
    25
100
AcDbLine
 10
-744.8363547258
 20
-832.8653325554
 30
0.0
 11
-744.8363547258
 21
-829.8653325554
 31
0.0
  0
LINE
  5
255
330
1F
100
AcDbEntity
  8
0
  6
Continuous
 62
     7
370
    25
100
AcDbLine
 10
-754.8363547258
 20
-822.8653325554
 30
0.0
 11
-754.8363547258
 21
-442.9935587631
 31
0.0
  0
LINE
  5
256
330
1F
100
AcDbEntity
  8
0
  6
Continuous
 62
     7
370
    25
100
AcDbLine
 10
-754.8363547258
 20
-822.8653325554
 30
0.0
 11
-751.8363547258
 21
-822.8653325554
 31
0.0
  0
ARC
  5
257
330
1F
100
AcDbEntity
  8
0
  6
Continuous
 62
     7
370
    25
100
AcDbCircle
 10
-744.8363547258
 20
-822.8653325554
 30
0.0
 40
10.00000000000011
100
AcDbArc
 50
180.0
 51
270.0
  0
ARC
  5
258
330
1F
100
AcDbEntity
  8
0
  6
Continuous
 62
     7
370
    25
100
AcDbCircle
 10
-364.9645809334
 20
-822.8653325554
 30
0.0
 40
10.00000000000011
100
AcDbArc
 50
270.0
 51
1.4692835814
  0
ARC
  5
259
330
1F
100
AcDbEntity
  8
0
  6
Continuous
 62
     7
370
    25
100
AcDbCircle
 10
855.2918714819
 20
-822.8653325554
 30
0.0
 40
7.000000000000114
100
AcDbArc
 50
178.5307164186
 51
270.0
  0
LINE
  5
25A
330
1F
100
AcDbEntity
  8
0
  6
Continuous
 62
     7
370
    25
100
AcDbLine
 10
855.2918714819
 20
-832.8653325554
 30
0.0
 11
855.2918714819
 21
-829.8653325554
 31
0.0
  0
ARC
  5
25B
330
1F
100
AcDbEntity
  8
0
  6
Continuous
 62
     7
370
    25
100
AcDbCircle
 10
855.2918714819
 20
-822.8653325554
 30
0.0
 40
10.00000000000006
100
AcDbArc
 50
178.5307164186
 51
270.0
  0
LINE
  5
25C
330
1F
100
AcDbEntity
  8
0
  6
Continuous
 62
     7
370
    25
100
AcDbLine
 10
848.2941729779
 20
-822.6858453759
 30
0.0
 11
845.2951593333
 21
-822.608922299
 31
0.0
  0
ARC
  5
25D
330
1F
100
AcDbEntity
  8
0
  6
Continuous
 62
     7
370
    25
100
AcDbCircle
 10
1235.1636452742
 20
-442.9935587631
 30
0.0
 40
7.000000000000227
100
AcDbArc
 50
0.0
 51
91.4692835814
  0
LINE
  5
25E
330
1F
100
AcDbEntity
  8
0
  6
Continuous
 62
     7
370
    25
100
AcDbLine
 10
1242.1636452742
 20
-822.8653325554
 30
0.0
 11
1242.1636452742
 21
-442.9935587631
 31
0.0
  0
ARC
  5
25F
330
1F
100
AcDbEntity
  8
0
  6
Continuous
 62
     7
370
    25
100
AcDbCircle
 10
1235.1636452742
 20
-822.8653325554
 30
0.0
 40
7.000000000000227
100
AcDbArc
 50
270.0
 51
0.0
  0
LINE
  5
260
330
1F
100
AcDbEntity
  8
0
  6
Continuous
 62
     7
370
    25
100
AcDbLine
 10
855.2918714819
 20
-829.8653325554
 30
0.0
 11
1235.1636452742
 21
-829.8653325554
 31
0.0
  0
ARC
  5
261
330
1F
100
AcDbEntity
  8
0
  6
Continuous
 62
     7
370
    25
100
AcDbCircle
 10
1245.1636452742
 20
-832.8653325554
 30
0.0
 40
397.0000000000001
100
AcDbArc
 50
91.4692835814
 51
178.5307164186
  0
LINE
  5
262
330
1F
100
AcDbEntity
  8
0
  6
Continuous
 62
     7
370
    25
100
AcDbLine
 10
1235.1636452742
 20
-832.8653325554
 30
0.0
 11
855.2918714819
 21
-832.8653325554
 31
0.0
  0
LINE
  5
263
330
1F
100
AcDbEntity
  8
0
  6
Continuous
 62
     7
370
    25
100
AcDbLine
 10
1235.1636452742
 20
-832.8653325554
 30
0.0
 11
1235.1636452742
 21
-829.8653325554
 31
0.0
  0
ARC
  5
264
330
1F
100
AcDbEntity
  8
0
  6
Continuous
 62
     7
370
    25
100
AcDbCircle
 10
1245.1636452742
 20
-832.8653325554
 30
0.0
 40
399.9999999999999
100
AcDbArc
 50
91.4692835814
 51
178.5307164186
  0
LINE
  5
265
330
1F
100
AcDbEntity
  8
0
  6
Continuous
 62
     7
370
    25
100
AcDbLine
 10
1234.9841580947
 20
-435.9958602591
 30
0.0
 11
1234.9072350178
 21
-432.9968466145
 31
0.0
  0
LINE
  5
266
330
1F
100
AcDbEntity
  8
0
  6
Continuous
 62
     7
370
    25
100
AcDbLine
 10
1242.1636452742
 20
-442.9935587631
 30
0.0
 11
1245.1636452742
 21
-442.9935587631
 31
0.0
  0
LINE
  5
267
330
1F
100
AcDbEntity
  8
0
  6
Continuous
 62
     7
370
    25
100
AcDbLine
 10
1245.1636452742
 20
-442.9935587631
 30
0.0
 11
1245.1636452742
 21
-822.8653325554
 31
0.0
  0
LINE
  5
268
330
1F
100
AcDbEntity
  8
0
  6
Continuous
 62
     7
370
    25
100
AcDbLine
 10
1245.1636452742
 20
-822.8653325554
 30
0.0
 11
1242.1636452742
 21
-822.8653325554
 31
0.0
  0
ARC
  5
269
330
1F
100
AcDbEntity
  8
0
  6
Continuous
 62
     7
370
    25
100
AcDbCircle
 10
1235.1636452742
 20
-442.9935587631
 30
0.0
 40
10.0
100
AcDbArc
 50
0.0
 51
91.4692835814
  0
ARC
  5
26A
330
1F
100
AcDbEntity
  8
0
  6
Continuous
 62
     7
370
    25
100
AcDbCircle
 10
1235.1636452742
 20
-822.8653325554
 30
0.0
 40
10.0
100
AcDbArc
 50
270.0
 51
0.0
  0
ARC
  5
26B
330
1F
100
AcDbEntity
  8
0
  6
Continuous
 62
     7
370
    25
100
AcDbCircle
 10
1245.1636452742
 20
1167.1346674446
 30
0.0
 40
397.0000000000001
100
AcDbArc
 50
181.4692835814
 51
268.5307164186
  0
LINE
  5
26C
330
1F
100
AcDbEntity
  8
0
  6
Continuous
 62
     7
370
    25
100
AcDbLine
 10
1234.9841580947
 20
770.2651951483
 30
0.0
 11
1234.9072350178
 21
767.2661815037
 31
0.0
  0
ARC
  5
26D
330
1F
100
AcDbEntity
  8
0
  6
Continuous
 62
     7
370
    25
100
AcDbCircle
 10
1245.1636452742
 20
1167.1346674446
 30
0.0
 40
400.0000000000001
100
AcDbArc
 50
181.4692835814
 51
268.5307164186
  0
LINE
  5
26E
330
1F
100
AcDbEntity
  8
0
  6
Continuous
 62
     7
370
    25
100
AcDbLine
 10
848.2941729779
 20
1156.9551802651
 30
0.0
 11
845.2951593333
 21
1156.8782571882
 31
0.0
  0
LINE
  5
26F
330
1F
100
AcDbEntity
  8
0
  6
Continuous
 62
     7
370
    25
100
AcDbLine
 10
1235.1636452742
 20
1164.1346674446
 30
0.0
 11
855.2918714819
 21
1164.1346674446
 31
0.0
  0
LINE
  5
270
330
1F
100
AcDbEntity
  8
0
  6
Continuous
 62
     7
370
    25
100
AcDbLine
 10
855.2918714819
 20
1164.1346674446
 30
0.0
 11
855.2918714819
 21
1167.1346674446
 31
0.0
  0
LINE
  5
271
330
1F
100
AcDbEntity
  8
0
  6
Continuous
 62
     7
370
    25
100
AcDbLine
 10
855.2918714819
 20
1167.1346674446
 30
0.0
 11
1235.1636452742
 21
1167.1346674446
 31
0.0
  0
LINE
  5
272
330
1F
100
AcDbEntity
  8
0
  6
Continuous
 62
     7
370
    25
100
AcDbLine
 10
1235.1636452742
 20
1167.1346674446
 30
0.0
 11
1235.1636452742
 21
1164.1346674446
 31
0.0
  0
ARC
  5
273
330
1F
100
AcDbEntity
  8
0
  6
Continuous
 62
     7
370
    25
100
AcDbCircle
 10
855.2918714819
 20
1157.1346674446
 30
0.0
 40
7.00000000000006
100
AcDbArc
 50
90.0
 51
181.4692835814
  0
ARC
  5
274
330
1F
100
AcDbEntity
  8
0
  6
Continuous
 62
     7
370
    25
100
AcDbCircle
 10
1235.1636452742
 20
1157.1346674446
 30
0.0
 40
7.000000000000227
100
AcDbArc
 50
0.0
 51
90.0
  0
LINE
  5
275
330
1F
100
AcDbEntity
  8
0
  6
Continuous
 62
     7
370
    25
100
AcDbLine
 10
1242.1636452742
 20
777.2628936522
 30
0.0
 11
1242.1636452742
 21
1157.1346674446
 31
0.0
  0
ARC
  5
276
330
1F
100
AcDbEntity
  8
0
  6
Continuous
 62
     7
370
    25
100
AcDbCircle
 10
1235.1636452742
 20
777.2628936522
 30
0.0
 40
7.0
100
AcDbArc
 50
268.5307164186
 51
0.0
  0
ARC
  5
277
330
1F
100
AcDbEntity
  8
0
  6
Continuous
 62
     7
370
    25
100
AcDbCircle
 10
855.2918714819
 20
1157.1346674446
 30
0.0
 40
10.00000000000007
100
AcDbArc
 50
90.0
 51
181.4692835814
  0
LINE
  5
278
330
1F
100
AcDbEntity
  8
0
  6
Continuous
 62
     7
370
    25
100
AcDbLine
 10
1245.1636452742
 20
1157.1346674446
 30
0.0
 11
1245.1636452742
 21
777.2628936522
 31
0.0
  0
LINE
  5
279
330
1F
100
AcDbEntity
  8
0
  6
Continuous
 62
     7
370
    25
100
AcDbLine
 10
1245.1636452742
 20
777.2628936522
 30
0.0
 11
1242.1636452742
 21
777.2628936522
 31
0.0
  0
LINE
  5
27A
330
1F
100
AcDbEntity
  8
0
  6
Continuous
 62
     7
370
    25
100
AcDbLine
 10
1245.1636452742
 20
1157.1346674446
 30
0.0
 11
1242.1636452742
 21
1157.1346674446
 31
0.0
  0
ARC
  5
27B
330
1F
100
AcDbEntity
  8
0
  6
Continuous
 62
     7
370
    25
100
AcDbCircle
 10
1235.1636452742
 20
777.2628936522
 30
0.0
 40
10.0
100
AcDbArc
 50
268.5307164186
 51
0.0
  0
ARC
  5
27C
330
1F
100
AcDbEntity
  8
0
  6
Continuous
 62
     7
370
    25
100
AcDbCircle
 10
1235.1636452742
 20
1157.1346674446
 30
0.0
 40
10.0
100
AcDbArc
 50
0.0
 51
90.0
  0
LINE
  5
27D
330
1F
100
AcDbEntity
  8
0
  6
Continuous
 62
     8
370
    25
100
AcDbLine
 10
-667.8363547258
 20
-442.4412042027
 30
0.0
 11
-667.8363547258
 21
776.7105390918
 31
0.0
  0
LINE
  5
27E
330
1F
100
AcDbEntity
  8
0
  6
Continuous
 62
     8
370
    25
100
AcDbLine
 10
-751.8363547258
 20
770.1214652237
 30
0.0
 11
-751.8363547258
 21
-435.8521303345
 31
0.0
  0
LINE
  5
27F
330
1F
100
AcDbEntity
  8
0
  6
Continuous
 62
     8
370
    25
100
AcDbLine
 10
-754.8363547258
 20
-829.8653325554
 30
0.0
 11
-751.9777831543
 21
-829.8653325554
 31
0.0
  0
LINE
  5
280
330
1F
100
AcDbEntity
  8
0
  6
Continuous
 62
     8
370
    25
100
AcDbLine
 10
-751.8363547258
 20
-832.8653325554
 30
0.0
 11
-751.8363547258
 21
-830.006760984
 31
0.0
  0
LINE
  5
281
330
1F
100
AcDbEntity
  8
0
  6
Continuous
 62
     8
370
    25
100
AcDbLine
 10
-357.8231525049
 20
-829.8653325554
 30
0.0
 11
848.1504430533
 21
-829.8653325554
 31
0.0
  0
LINE
  5
282
330
1F
100
AcDbEntity
  8
0
  6
Continuous
 62
     8
370
    25
100
AcDbLine
 10
1242.1636452742
 20
-832.8653325554
 30
0.0
 11
1242.1636452742
 21
-830.006760984
 31
0.0
  0
LINE
  5
283
330
1F
100
AcDbEntity
  8
0
  6
Continuous
 62
     8
370
    25
100
AcDbLine
 10
854.7395169215
 20
-745.8653325554
 30
0.0
 11
-364.412226373
 21
-745.8653325554
 31
0.0
  0
LINE
  5
284
330
1F
100
AcDbEntity
  8
0
  6
Continuous
 62
     8
370
    25
100
AcDbLine
 10
1245.1636452742
 20
-829.8653325554
 30
0.0
 11
1242.3050737028
 21
-829.8653325554
 31
0.0
  0
LINE
  5
285
330
1F
100
AcDbEntity
  8
0
  6
Continuous
 62
     8
370
    25
100
AcDbLine
 10
-364.412226373
 20
1080.1346674446
 30
0.0
 11
854.7395169215
 21
1080.1346674446
 31
0.0
  0
LINE
  5
286
330
1F
100
AcDbEntity
  8
0
  6
Continuous
 62
     8
370
    25
100
AcDbLine
 10
848.1504430533
 20
1164.1346674446
 30
0.0
 11
-357.8231525049
 21
1164.1346674446
 31
0.0
  0
LINE
  5
287
330
1F
100
AcDbEntity
  8
0
  6
Continuous
 62
     8
370
    25
100
AcDbLine
 10
-754.8363547258
 20
1164.1346674446
 30
0.0
 11
-751.9777831543
 21
1164.1346674446
 31
0.0
  0
LINE
  5
288
330
1F
100
AcDbEntity
  8
0
  6
Continuous
 62
     8
370
    25
100
AcDbLine
 10
-751.8363547258
 20
1167.1346674446
 30
0.0
 11
-751.8363547258
 21
1164.2760958731
 31
0.0
  0
LINE
  5
289
330
1F
100
AcDbEntity
  8
0
  6
Continuous
 62
     8
370
    25
100
AcDbLine
 10
1245.1636452742
 20
1164.1346674446
 30
0.0
 11
1242.3050737028
 21
1164.1346674446
 31
0.0
  0
LINE
  5
28A
330
1F
100
AcDbEntity
  8
0
  6
Continuous
 62
     8
370
    25
100
AcDbLine
 10
1242.1636452742
 20
1167.1346674446
 30
0.0
 11
1242.1636452742
 21
1164.2760958731
 31
0.0
  0
LINE
  5
28B
330
1F
100
AcDbEntity
  8
0
  6
Continuous
 62
     8
370
    25
100
AcDbLine
 10
1242.1636452742
 20
-435.8521303345
 30
0.0
 11
1242.1636452742
 21
770.1214652237
 31
0.0
  0
LINE
  5
28C
330
1F
100
AcDbEntity
  8
0
  6
Continuous
 62
     8
370
    25
100
AcDbLine
 10
1158.1636452742
 20
776.7105390918
 30
0.0
 11
1158.1636452742
 21
-442.4412042027
 31
0.0
  0
LINE
  5
28D
330
1F
100
AcDbEntity
  8
0
  6
Continuous
 62
     8
370
    25
100
AcDbLine
 10
1053.1563786506
 20
-436.9060296823
 30
0.0
 11
1053.1563786506
 21
-481.961913416
 31
0.0
  0
LINE
  5
28E
330
1F
100
AcDbEntity
  8
0
  6
Continuous
 62
     8
370
    25
100
AcDbLine
 10
1053.1563786506
 20
816.2312483052
 30
0.0
 11
1053.1563786506
 21
684.904776079
 31
0.0
  0
LINE
  5
28F
330
1F
100
AcDbEntity
  8
0
  6
Continuous
 62
     8
370
    25
100
AcDbLine
 10
1056.4535458747
 20
684.904776079
 30
0.0
 11
1056.4535458747
 21
814.4471309698
 31
0.0
  0
LINE
  5
290
330
1F
100
AcDbEntity
  8
0
  6
Continuous
 62
     8
370
    25
100
AcDbLine
 10
1056.4535458747
 20
-480.1777960807
 30
0.0
 11
1056.4535458747
 21
-436.9060296823
 31
0.0
  0
ENDSEC
  0
SECTION
  2
OBJECTS
  0
DICTIONARY
  5
C
330
0
100
AcDbDictionary
281
     1
  3
ACAD_GROUP
350
D
  3
ACAD_LAYOUT
350
1A
  3
ACAD_MLINESTYLE
350
17
  3
ACAD_PLOTSETTINGS
350
19
  3
ACAD_PLOTSTYLENAME
350
E
  3
ACAD_SCALELIST
350
47
  3
DWGPROPS
350
291
  0
DICTIONARY
  5
D
102
{ACAD_REACTORS
330
C
102
}
330
C
100
AcDbDictionary
281
     1
  0
DICTIONARY
  5
1A
102
{ACAD_REACTORS
330
C
102
}
330
C
100
AcDbDictionary
281
     1
  3
Layout1
350
1E
  3
Layout2
350
26
  3
Model
350
22
  0
DICTIONARY
  5
17
102
{ACAD_REACTORS
330
C
102
}
330
C
100
AcDbDictionary
281
     1
  3
Standard
350
18
  0
DICTIONARY
  5
19
102
{ACAD_REACTORS
330
C
102
}
330
C
100
AcDbDictionary
281
     1
  0
ACDBDICTIONARYWDFLT
  5
E
102
{ACAD_REACTORS
330
C
102
}
330
C
100
AcDbDictionary
281
     1
  3
Normal
350
F
100
AcDbDictionaryWithDefault
340
F
  0
DICTIONARY
  5
47
102
{ACAD_REACTORS
330
C
102
}
330
C
100
AcDbDictionary
281
     1
  3
A0
350
48
  3
A1
350
49
  3
A2
350
4A
  3
A3
350
4B
  3
A4
350
4C
  3
A5
350
4D
  3
A6
350
4E
  3
A7
350
4F
  3
A8
350
50
  3
A9
350
51
  3
B0
350
52
  3
B1
350
53
  3
B2
350
54
  3
B3
350
55
  3
B4
350
56
  3
B5
350
57
  3
B6
350
58
  3
B7
350
59
  3
B8
350
5A
  3
B9
350
5B
  3
C0
350
5C
  3
C1
350
5D
  3
C2
350
5E
  3
C3
350
5F
  3
C4
350
60
  3
C5
350
61
  3
C6
350
62
  3
C7
350
63
  3
C8
350
64
  3
C9
350
65
  3
D0
350
66
  3
D1
350
67
  3
D2
350
68
  0
XRECORD
  5
291
102
{ACAD_REACTORS
330
C
102
}
330
C
100
AcDbXrecord
280
     1
  1
DWGPROPS COOKIE
  2

  3

  4

  6

  7

  8
Swing
  9

300
=
301
=
302
=
303
=
304
=
305
=
306
=
307
=
308
=
309
=
 40
0.0
 41
2459536.569767766
 42
2459536.569767951
  1

 90
        0
  0
LAYOUT
  5
1E
102
{ACAD_REACTORS
330
1A
102
}
330
1A
100
AcDbPlotSettings
  1

  2
none_device
  4

  6

 40
0.0
 41
0.0
 42
0.0
 43
0.0
 44
0.0
 45
0.0
 46
0.0
 47
0.0
 48
0.0
 49
0.0
140
0.0
141
0.0
142
1.0
143
1.0
 70
   688
 72
     1
 73
     0
 74
     5
  7

 75
    16
147
1.0
148
0.0
149
0.0
100
AcDbLayout
  1
Layout1
 70
     1
 71
     1
 10
0.0
 20
0.0
 11
420.0
 21
297.0
 12
0.0
 22
0.0
 32
0.0
 14
1.0000000000E+20
 24
1.0000000000E+20
 34
1.0000000000E+20
 15
-1.0000000000E+20
 25
-1.0000000000E+20
 35
-1.0000000000E+20
146
0.0
 13
0.0
 23
0.0
 33
0.0
 16
1.0
 26
0.0
 36
0.0
 17
0.0
 27
1.0
 37
0.0
 76
     0
330
1B
  0
LAYOUT
  5
26
102
{ACAD_REACTORS
330
1A
102
}
330
1A
100
AcDbPlotSettings
  1

  2
none_device
  4

  6

 40
0.0
 41
0.0
 42
0.0
 43
0.0
 44
0.0
 45
0.0
 46
0.0
 47
0.0
 48
0.0
 49
0.0
140
0.0
141
0.0
142
1.0
143
1.0
 70
   688
 72
     1
 73
     0
 74
     5
  7

 75
    16
147
1.0
148
0.0
149
0.0
100
AcDbLayout
  1
Layout2
 70
     1
 71
     2
 10
0.0
 20
0.0
 11
0.0
 21
0.0
 12
0.0
 22
0.0
 32
0.0
 14
0.0
 24
0.0
 34
0.0
 15
0.0
 25
0.0
 35
0.0
146
0.0
 13
0.0
 23
0.0
 33
0.0
 16
1.0
 26
0.0
 36
0.0
 17
0.0
 27
1.0
 37
0.0
 76
     0
330
23
  0
LAYOUT
  5
22
102
{ACAD_REACTORS
330
1A
102
}
330
1A
100
AcDbPlotSettings
  1

  2
none_device
  4
Letter_(8.50_x_11.00_Inches)
  6

 40
6.35
 41
6.35
 42
6.35000508
 43
6.35000508
 44
215.9
 45
279.4
 46
0.0
 47
0.0
 48
0.0
 49
0.0
140
0.0
141
0.0
142
1.0
143
1.0
 70
  1712
 72
     1
 73
     0
 74
     0
  7

 75
     0
147
1.0
148
0.0
149
0.0
100
AcDbLayout
  1
Model
 70
     1
 71
     0
 10
0.0
 20
0.0
 11
431.8
 21
279.4
 12
0.0
 22
0.0
 32
0.0
 14
0.0
 24
0.0
 34
0.0
 15
431.8
 25
279.4
 35
0.0
146
0.0
 13
0.0
 23
0.0
 33
0.0
 16
1.0
 26
0.0
 36
0.0
 17
0.0
 27
1.0
 37
0.0
 76
     0
330
1F
331
29
  0
MLINESTYLE
  5
18
102
{ACAD_REACTORS
330
17
102
}
330
17
100
AcDbMlineStyle
  2
Standard
 70
     0
  3

 62
   256
 51
90.0
 52
90.0
 71
     2
 49
0.5
 62
   256
  6
BYLAYER
 49
-0.5
 62
   256
  6
BYLAYER
  0
ACDBPLACEHOLDER
  5
F
102
{ACAD_REACTORS
330
E
102
}
330
E
  0
SCALE
  5
48
102
{ACAD_REACTORS
330
47
102
}
330
47
100
AcDbScale
 70
     0
300
1:1
140
1.0
141
1.0
290
     1
  0
SCALE
  5
49
102
{ACAD_REACTORS
330
47
102
}
330
47
100
AcDbScale
 70
     0
300
1:2
140
1.0
141
2.0
290
     0
  0
SCALE
  5
4A
102
{ACAD_REACTORS
330
47
102
}
330
47
100
AcDbScale
 70
     0
300
1:4
140
1.0
141
4.0
290
     0
  0
SCALE
  5
4B
102
{ACAD_REACTORS
330
47
102
}
330
47
100
AcDbScale
 70
     0
300
1:5
140
1.0
141
5.0
290
     0
  0
SCALE
  5
4C
102
{ACAD_REACTORS
330
47
102
}
330
47
100
AcDbScale
 70
     0
300
1:8
140
1.0
141
8.0
290
     0
  0
SCALE
  5
4D
102
{ACAD_REACTORS
330
47
102
}
330
47
100
AcDbScale
 70
     0
300
1:10
140
1.0
141
10.0
290
     0
  0
SCALE
  5
4E
102
{ACAD_REACTORS
330
47
102
}
330
47
100
AcDbScale
 70
     0
300
1:16
140
1.0
141
16.0
290
     0
  0
SCALE
  5
4F
102
{ACAD_REACTORS
330
47
102
}
330
47
100
AcDbScale
 70
     0
300
1:20
140
1.0
141
20.0
290
     0
  0
SCALE
  5
50
102
{ACAD_REACTORS
330
47
102
}
330
47
100
AcDbScale
 70
     0
300
1:30
140
1.0
141
30.0
290
     0
  0
SCALE
  5
51
102
{ACAD_REACTORS
330
47
102
}
330
47
100
AcDbScale
 70
     0
300
1:40
140
1.0
141
40.0
290
     0
  0
SCALE
  5
52
102
{ACAD_REACTORS
330
47
102
}
330
47
100
AcDbScale
 70
     0
300
1:50
140
1.0
141
50.0
290
     0
  0
SCALE
  5
53
102
{ACAD_REACTORS
330
47
102
}
330
47
100
AcDbScale
 70
     0
300
1:100
140
1.0
141
100.0
290
     0
  0
SCALE
  5
54
102
{ACAD_REACTORS
330
47
102
}
330
47
100
AcDbScale
 70
     0
300
2:1
140
2.0
141
1.0
290
     0
  0
SCALE
  5
55
102
{ACAD_REACTORS
330
47
102
}
330
47
100
AcDbScale
 70
     0
300
4:1
140
4.0
141
1.0
290
     0
  0
SCALE
  5
56
102
{ACAD_REACTORS
330
47
102
}
330
47
100
AcDbScale
 70
     0
300
8:1
140
8.0
141
1.0
290
     0
  0
SCALE
  5
57
102
{ACAD_REACTORS
330
47
102
}
330
47
100
AcDbScale
 70
     0
300
10:1
140
10.0
141
1.0
290
     0
  0
SCALE
  5
58
102
{ACAD_REACTORS
330
47
102
}
330
47
100
AcDbScale
 70
     0
300
100:1
140
100.0
141
1.0
290
     0
  0
SCALE
  5
59
102
{ACAD_REACTORS
330
47
102
}
330
47
100
AcDbScale
 70
     0
300
1/128" = 1'-0"
140
0.0078125
141
12.0
290
     0
  0
SCALE
  5
5A
102
{ACAD_REACTORS
330
47
102
}
330
47
100
AcDbScale
 70
     0
300
1/64" = 1'-0"
140
0.015625
141
12.0
290
     0
  0
SCALE
  5
5B
102
{ACAD_REACTORS
330
47
102
}
330
47
100
AcDbScale
 70
     0
300
1/32" = 1'-0"
140
0.03125
141
12.0
290
     0
  0
SCALE
  5
5C
102
{ACAD_REACTORS
330
47
102
}
330
47
100
AcDbScale
 70
     0
300
1/16" = 1'-0"
140
0.0625
141
12.0
290
     0
  0
SCALE
  5
5D
102
{ACAD_REACTORS
330
47
102
}
330
47
100
AcDbScale
 70
     0
300
3/32" = 1'-0"
140
0.09375
141
12.0
290
     0
  0
SCALE
  5
5E
102
{ACAD_REACTORS
330
47
102
}
330
47
100
AcDbScale
 70
     0
300
1/8" = 1'-0"
140
0.125
141
12.0
290
     0
  0
SCALE
  5
5F
102
{ACAD_REACTORS
330
47
102
}
330
47
100
AcDbScale
 70
     0
300
3/16" = 1'-0"
140
0.1875
141
12.0
290
     0
  0
SCALE
  5
60
102
{ACAD_REACTORS
330
47
102
}
330
47
100
AcDbScale
 70
     0
300
1/4" = 1'-0"
140
0.25
141
12.0
290
     0
  0
SCALE
  5
61
102
{ACAD_REACTORS
330
47
102
}
330
47
100
AcDbScale
 70
     0
300
3/8" = 1'-0"
140
0.375
141
12.0
290
     0
  0
SCALE
  5
62
102
{ACAD_REACTORS
330
47
102
}
330
47
100
AcDbScale
 70
     0
300
1/2" = 1'-0"
140
0.5
141
12.0
290
     0
  0
SCALE
  5
63
102
{ACAD_REACTORS
330
47
102
}
330
47
100
AcDbScale
 70
     0
300
3/4" = 1'-0"
140
0.75
141
12.0
290
     0
  0
SCALE
  5
64
102
{ACAD_REACTORS
330
47
102
}
330
47
100
AcDbScale
 70
     0
300
1" = 1'-0"
140
1.0
141
12.0
290
     0
  0
SCALE
  5
65
102
{ACAD_REACTORS
330
47
102
}
330
47
100
AcDbScale
 70
     0
300
1-1/2" = 1'-0"
140
1.5
141
12.0
290
     0
  0
SCALE
  5
66
102
{ACAD_REACTORS
330
47
102
}
330
47
100
AcDbScale
 70
     0
300
3" = 1'-0"
140
3.0
141
12.0
290
     0
  0
SCALE
  5
67
102
{ACAD_REACTORS
330
47
102
}
330
47
100
AcDbScale
 70
     0
300
6" = 1'-0"
140
6.0
141
12.0
290
     0
  0
SCALE
  5
68
102
{ACAD_REACTORS
330
47
102
}
330
47
100
AcDbScale
 70
     0
300
1'-0" = 1'-0"
140
12.0
141
12.0
290
     0
  0
ENDSEC
  0
EOF
