  0
SECTION
  2
HEADER
  9
$ACADVER
  1
AC1015
  9
$ACADMAINTVER
 70
     6
  9
$DWGCODEPAGE
  3
ANSI_1250
  9
$INSBASE
 10
0.0
 20
0.0
 30
0.0
  9
$EXTMIN
 10
0.0
 20
0.0
 30
0.0
  9
$EXTMAX
 10
431.8
 20
279.4
 30
0.0
  9
$LIMMIN
 10
0.0
 20
0.0
  9
$LIMMAX
 10
431.8
 20
279.4
  9
$ORTHOMODE
 70
     0
  9
$REGENMODE
 70
     1
  9
$FILLMODE
 70
     1
  9
$QTEXTMODE
 70
     0
  9
$MIRRTEXT
 70
     1
  9
$LTSCALE
 40
1.0
  9
$ATTMODE
 70
     1
  9
$TEXTSIZE
 40
3.8805555556
  9
$TRACEWID
 40
1.0
  9
$TEXTSTYLE
  7
Standard
  9
$CLAYER
  8
0
  9
$CELTYPE
  6
ByLayer
  9
$CECOLOR
 62
   256
  9
$CELTSCALE
 40
1.0
  9
$DISPSILH
 70
     0
  9
$DIMSCALE
 40
1.0
  9
$DIMASZ
 40
3.302
  9
$DIMEXO
 40
1.0
  9
$DIMDLI
 40
3.75
  9
$DIMRND
 40
0.0
  9
$DIMDLE
 40
0.0
  9
$DIMEXE
 40
1.0
  9
$DIMTP
 40
0.0
  9
$DIMTM
 40
0.0
  9
$DIMTXT
 40
3.8805555556
  9
$DIMCEN
 40
2.5
  9
$DIMTSZ
 40
0.0
  9
$DIMTOL
 70
     0
  9
$DIMLIM
 70
     0
  9
$DIMTIH
 70
     1
  9
$DIMTOH
 70
     1
  9
$DIMSE1
 70
     0
  9
$DIMSE2
 70
     0
  9
$DIMTAD
 70
     1
  9
$DIMZIN
 70
     0
  9
$DIMBLK
  1

  9
$DIMASO
 70
     1
  9
$DIMSHO
 70
     1
  9
$DIMPOST
  1

  9
$DIMAPOST
  1

  9
$DIMALT
 70
     0
  9
$DIMALTD
 70
     3
  9
$DIMALTF
 40
0.0393700787
  9
$DIMLFAC
 40
1.0
  9
$DIMTOFL
 70
     1
  9
$DIMTVP
 40
0.0
  9
$DIMTIX
 70
     0
  9
$DIMSOXD
 70
     0
  9
$DIMSAH
 70
     0
  9
$DIMBLK1
  1

  9
$DIMBLK2
  1

  9
$DIMSTYLE
  2
ISO-25
  9
$DIMCLRD
 70
     0
  9
$DIMCLRE
 70
     0
  9
$DIMCLRT
 70
     0
  9
$DIMTFAC
 40
1.0
  9
$DIMGAP
 40
1.524
  9
$DIMJUST
 70
     0
  9
$DIMSD1
 70
     0
  9
$DIMSD2
 70
     0
  9
$DIMTOLJ
 70
     0
  9
$DIMTZIN
 70
     0
  9
$DIMALTZ
 70
     0
  9
$DIMALTTZ
 70
     0
  9
$DIMUPT
 70
     0
  9
$DIMDEC
 70
     1
  9
$DIMTDEC
 70
     1
  9
$DIMALTU
 70
     2
  9
$DIMALTTD
 70
     3
  9
$DIMTXSTY
  7
Standard
  9
$DIMAUNIT
 70
     0
  9
$DIMADEC
 70
     1
  9
$DIMALTRND
 40
0.0
  9
$DIMAZIN
 70
     0
  9
$DIMDSEP
 70
    44
  9
$DIMATFIT
 70
     3
  9
$DIMFRAC
 70
     0
  9
$DIMLDRBLK
  1

  9
$DIMLUNIT
 70
     2
  9
$DIMLWD
 70
    -2
  9
$DIMLWE
 70
    -2
  9
$DIMTMOVE
 70
     0
  9
$LUNITS
 70
     2
  9
$LUPREC
 70
     1
  9
$SKETCHINC
 40
1.0
  9
$FILLETRAD
 40
10.0
  9
$AUNITS
 70
     0
  9
$AUPREC
 70
     1
  9
$MENU
  1
.
  9
$ELEVATION
 40
0.0
  9
$PELEVATION
 40
0.0
  9
$THICKNESS
 40
0.0
  9
$LIMCHECK
 70
     0
  9
$CHAMFERA
 40
0.0
  9
$CHAMFERB
 40
0.0
  9
$CHAMFERC
 40
0.0
  9
$CHAMFERD
 40
0.0
  9
$SKPOLY
 70
     0
  9
$TDCREATE
 40
2459675.584248183
  9
$TDUCREATE
 40
2459675.500914849
  9
$TDUPDATE
 40
2459675.58424853
  9
$TDUUPDATE
 40
2459675.500915197
  9
$TDINDWG
 40
0.0000000116
  9
$TDUSRTIMER
 40
0.0000000116
  9
$USRTIMER
 70
     1
  9
$ANGBASE
 50
0.0
  9
$ANGDIR
 70
     0
  9
$PDMODE
 70
     0
  9
$PDSIZE
 40
-1.0
  9
$PLINEWID
 40
0.0
  9
$SPLFRAME
 70
     0
  9
$SPLINETYPE
 70
     6
  9
$SPLINESEGS
 70
     8
  9
$HANDSEED
  5
594
  9
$SURFTAB1
 70
     6
  9
$SURFTAB2
 70
     6
  9
$SURFTYPE
 70
     6
  9
$SURFU
 70
     6
  9
$SURFV
 70
     6
  9
$UCSBASE
  2

  9
$UCSNAME
  2

  9
$UCSORG
 10
0.0
 20
0.0
 30
0.0
  9
$UCSXDIR
 10
1.0
 20
0.0
 30
0.0
  9
$UCSYDIR
 10
0.0
 20
1.0
 30
0.0
  9
$UCSORTHOREF
  2

  9
$UCSORTHOVIEW
 70
     0
  9
$UCSORGTOP
 10
0.0
 20
0.0
 30
0.0
  9
$UCSORGBOTTOM
 10
0.0
 20
0.0
 30
0.0
  9
$UCSORGLEFT
 10
0.0
 20
0.0
 30
0.0
  9
$UCSORGRIGHT
 10
0.0
 20
0.0
 30
0.0
  9
$UCSORGFRONT
 10
0.0
 20
0.0
 30
0.0
  9
$UCSORGBACK
 10
0.0
 20
0.0
 30
0.0
  9
$PUCSBASE
  2

  9
$PUCSNAME
  2

  9
$PUCSORG
 10
0.0
 20
0.0
 30
0.0
  9
$PUCSXDIR
 10
1.0
 20
0.0
 30
0.0
  9
$PUCSYDIR
 10
0.0
 20
1.0
 30
0.0
  9
$PUCSORTHOREF
  2

  9
$PUCSORTHOVIEW
 70
     0
  9
$PUCSORGTOP
 10
0.0
 20
0.0
 30
0.0
  9
$PUCSORGBOTTOM
 10
0.0
 20
0.0
 30
0.0
  9
$PUCSORGLEFT
 10
0.0
 20
0.0
 30
0.0
  9
$PUCSORGRIGHT
 10
0.0
 20
0.0
 30
0.0
  9
$PUCSORGFRONT
 10
0.0
 20
0.0
 30
0.0
  9
$PUCSORGBACK
 10
0.0
 20
0.0
 30
0.0
  9
$USERI1
 70
     0
  9
$USERI2
 70
     0
  9
$USERI3
 70
     0
  9
$USERI4
 70
     0
  9
$USERI5
 70
     0
  9
$USERR1
 40
0.0
  9
$USERR2
 40
0.0
  9
$USERR3
 40
0.0
  9
$USERR4
 40
0.0
  9
$USERR5
 40
0.0
  9
$WORLDVIEW
 70
     1
  9
$SHADEDGE
 70
     3
  9
$SHADEDIF
 70
    70
  9
$TILEMODE
 70
     1
  9
$MAXACTVP
 70
    64
  9
$PINSBASE
 10
0.0
 20
0.0
 30
0.0
  9
$PLIMCHECK
 70
     0
  9
$PEXTMIN
 10
1.0000000000E+20
 20
1.0000000000E+20
 30
1.0000000000E+20
  9
$PEXTMAX
 10
-1.0000000000E+20
 20
-1.0000000000E+20
 30
-1.0000000000E+20
  9
$PLIMMIN
 10
0.0
 20
0.0
  9
$PLIMMAX
 10
420.0
 20
297.0
  9
$UNITMODE
 70
     0
  9
$VISRETAIN
 70
     1
  9
$PLINEGEN
 70
     0
  9
$PSLTSCALE
 70
     1
  9
$TREEDEPTH
 70
  3020
  9
$CMLSTYLE
  2
Standard
  9
$CMLJUST
 70
     0
  9
$CMLSCALE
 40
20.0
  9
$PROXYGRAPHICS
 70
     1
  9
$MEASUREMENT
 70
     1
  9
$CELWEIGHT
370
    -1
  9
$ENDCAPS
280
     0
  9
$JOINSTYLE
280
     0
  9
$LWDISPLAY
290
     1
  9
$INSUNITS
 70
     4
  9
$HYPERLINKBASE
  1

  9
$STYLESHEET
  1

  9
$XEDIT
290
     1
  9
$CEPSNTYPE
380
     0
  9
$PSTYLEMODE
290
     1
  9
$FINGERPRINTGUID
  2
{9836bb72-d3b3-427b-8423-d0a0a6070b89}
  9
$VERSIONGUID
  2
{FAEB1C32-E019-11D5-929B-00C0DF256EC4}
  9
$EXTNAMES
290
     1
  9
$PSVPSCALE
 40
0.0
  9
$OLESTARTUP
290
     0
  0
ENDSEC
  0
SECTION
  2
CLASSES
  0
CLASS
  1
ACDBDICTIONARYWDFLT
  2
AcDbDictionaryWithDefault
  3
ObjectDBX Classes
 90
        0
280
     0
281
     0
  0
CLASS
  1
VISUALSTYLE
  2
AcDbVisualStyle
  3
ObjectDBX Classes
 90
     4095
280
     0
281
     0
  0
CLASS
  1
MATERIAL
  2
AcDbMaterial
  3
ObjectDBX Classes
 90
     1153
280
     0
281
     0
  0
CLASS
  1
SCALE
  2
AcDbScale
  3
ObjectDBX Classes
 90
     1153
280
     0
281
     0
  0
CLASS
  1
TABLESTYLE
  2
AcDbTableStyle
  3
ObjectDBX Classes
 90
     4095
280
     0
281
     0
  0
CLASS
  1
MLEADERSTYLE
  2
AcDbMLeaderStyle
  3
ACDB_MLEADERSTYLE_CLASS
 90
     4095
280
     0
281
     0
  0
CLASS
  1
SUN
  2
AcDbSun
  3
SCENEOE
 90
     1153
280
     0
281
     0
  0
CLASS
  1
ACDBPLACEHOLDER
  2
AcDbPlaceHolder
  3
ObjectDBX Classes
 90
        0
280
     0
281
     0
  0
CLASS
  1
LAYOUT
  2
AcDbLayout
  3
ObjectDBX Classes
 90
        0
280
     0
281
     0
  0
ENDSEC
  0
SECTION
  2
TABLES
  0
TABLE
  2
VPORT
  5
8
330
0
100
AcDbSymbolTable
 70
     1
  0
VPORT
  5
29
330
8
100
AcDbSymbolTableRecord
100
AcDbViewportTableRecord
  2
*Active
 70
     0
 10
0.0
 20
0.0
 11
1.0
 21
1.0
 12
215.9
 22
139.7
 13
0.0
 23
0.0
 14
10.0
 24
10.0
 15
10.0
 25
10.0
 16
0.0
 26
0.0
 36
1.0
 17
0.0
 27
0.0
 37
0.0
 40
279.4
 41
1.5454545455
 42
50.0
 43
0.0
 44
0.0
 50
0.0
 51
0.0
 71
     0
 72
  2000
 73
     1
 74
     3
 75
     0
 76
     0
 77
     0
 78
     0
281
     0
 65
     1
110
0.0
120
0.0
130
0.0
111
1.0
121
0.0
131
0.0
112
0.0
122
1.0
132
0.0
 79
     0
146
0.0
  0
ENDTAB
  0
TABLE
  2
LTYPE
  5
5
330
0
100
AcDbSymbolTable
 70
     6
  0
LTYPE
  5
14
330
5
100
AcDbSymbolTableRecord
100
AcDbLinetypeTableRecord
  2
ByBlock
 70
     0
  3

 72
    65
 73
     0
 40
0.0
  0
LTYPE
  5
15
330
5
100
AcDbSymbolTableRecord
100
AcDbLinetypeTableRecord
  2
ByLayer
 70
     0
  3

 72
    65
 73
     0
 40
0.0
  0
LTYPE
  5
16
330
5
100
AcDbSymbolTableRecord
100
AcDbLinetypeTableRecord
  2
Continuous
 70
     0
  3
Solid line
 72
    65
 73
     0
 40
0.0
  0
LTYPE
  5
6E
330
5
100
AcDbSymbolTableRecord
100
AcDbLinetypeTableRecord
  2
HIDDEN
 70
     0
  3
Hidden __ __ __ __ __ __ __ __ __ __ __ __ __ __
 72
    65
 73
     2
 40
1.905
 49
1.27
 74
     0
 49
-0.635
 74
     0
  0
LTYPE
  5
6F
330
5
100
AcDbSymbolTableRecord
100
AcDbLinetypeTableRecord
  2
PHANTOM
 70
     0
  3
Phantom ______  __  __  ______  __  __  ______
 72
    65
 73
     6
 40
12.7
 49
6.35
 74
     0
 49
-1.27
 74
     0
 49
1.27
 74
     0
 49
-1.27
 74
     0
 49
1.27
 74
     0
 49
-1.27
 74
     0
  0
LTYPE
  5
70
330
5
100
AcDbSymbolTableRecord
100
AcDbLinetypeTableRecord
  2
CENTER
 70
     0
  3
Center ____ _ ____ _ ____ _ ____ _ ____ _ ____
 72
    65
 73
     4
 40
10.16
 49
6.35
 74
     0
 49
-1.27
 74
     0
 49
1.27
 74
     0
 49
-1.27
 74
     0
  0
LTYPE
  5
71
330
5
100
AcDbSymbolTableRecord
100
AcDbLinetypeTableRecord
  2
CENTERX2
 70
     0
  3
Center (2x) ________  __  ________  __  _____
 72
    65
 73
     4
 40
20.32
 49
12.7
 74
     0
 49
-2.54
 74
     0
 49
2.54
 74
     0
 49
-2.54
 74
     0
  0
LTYPE
  5
72
330
5
100
AcDbSymbolTableRecord
100
AcDbLinetypeTableRecord
  2
DOT2
 70
     0
  3
Dot (.5x) ........................................
 72
    65
 73
     2
 40
0.635
 49
0.0
 74
     0
 49
-0.635
 74
     0
  0
ENDTAB
  0
TABLE
  2
LAYER
  5
2
330
0
100
AcDbSymbolTable
 70
     3
  0
LAYER
  5
10
330
2
100
AcDbSymbolTableRecord
100
AcDbLayerTableRecord
  2
0
 70
     0
 62
     7
  6
Continuous
370
    -3
390
F
  0
LAYER
  5
73
330
2
100
AcDbSymbolTableRecord
100
AcDbLayerTableRecord
  2
FRAME_&_TABLE
 70
     0
 62
     8
  6
Continuous
370
    50
390
F
  0
LAYER
  5
74
330
2
100
AcDbSymbolTableRecord
100
AcDbLayerTableRecord
  2
DIMENSIONS
 70
     0
 62
     7
  6
Continuous
370
    -3
390
F
  0
ENDTAB
  0
TABLE
  2
STYLE
  5
3
330
0
100
AcDbSymbolTable
 70
     1
  0
STYLE
  5
11
330
3
100
AcDbSymbolTableRecord
100
AcDbTextStyleTableRecord
  2
Standard
 70
     0
 40
0.0
 41
1.0
 50
0.0
 71
     0
 42
3.8805555556
  3
txt
  4

  0
ENDTAB
  0
TABLE
  2
VIEW
  5
6
330
0
100
AcDbSymbolTable
 70
     0
  0
ENDTAB
  0
TABLE
  2
UCS
  5
7
330
0
100
AcDbSymbolTable
 70
     0
  0
ENDTAB
  0
TABLE
  2
APPID
  5
9
330
0
100
AcDbSymbolTable
 70
     1
  0
APPID
  5
12
330
9
100
AcDbSymbolTableRecord
100
AcDbRegAppTableRecord
  2
ACAD
 70
     0
  0
ENDTAB
  0
TABLE
  2
DIMSTYLE
  5
A
330
0
100
AcDbSymbolTable
 70
     1
100
AcDbDimStyleTable
  0
DIMSTYLE
105
27
330
A
100
AcDbSymbolTableRecord
100
AcDbDimStyleTableRecord
  2
ISO-25
 70
     0
 41
2.5
 42
0.625
 43
3.75
 44
1.25
 73
     0
 74
     0
 77
     1
 78
     8
140
2.5
141
2.5
143
0.0393700787
147
0.625
171
     3
172
     1
178
     0
271
     2
272
     2
274
     3
278
    44
283
     0
284
     8
340
11
  0
ENDTAB
  0
TABLE
  2
BLOCK_RECORD
  5
1
330
0
100
AcDbSymbolTable
 70
     1
  0
BLOCK_RECORD
  5
1F
330
1
100
AcDbSymbolTableRecord
100
AcDbBlockTableRecord
  2
*Model_Space
340
22
  0
BLOCK_RECORD
  5
1B
330
1
100
AcDbSymbolTableRecord
100
AcDbBlockTableRecord
  2
*Paper_Space
340
1E
  0
BLOCK_RECORD
  5
23
330
1
100
AcDbSymbolTableRecord
100
AcDbBlockTableRecord
  2
*Paper_Space0
340
26
  0
ENDTAB
  0
ENDSEC
  0
SECTION
  2
BLOCKS
  0
BLOCK
  5
20
330
1F
100
AcDbEntity
  8
0
100
AcDbBlockBegin
  2
*Model_Space
 70
     0
 10
0.0
 20
0.0
 30
0.0
  3
*Model_Space
  1

  0
ENDBLK
  5
21
330
1F
100
AcDbEntity
  8
0
100
AcDbBlockEnd
  0
BLOCK
  5
1C
330
1B
100
AcDbEntity
 67
     1
  8
0
100
AcDbBlockBegin
  2
*Paper_Space
 70
     0
 10
0.0
 20
0.0
 30
0.0
  3
*Paper_Space
  1

  0
ENDBLK
  5
1D
330
1B
100
AcDbEntity
 67
     1
  8
0
100
AcDbBlockEnd
  0
BLOCK
  5
24
330
23
100
AcDbEntity
  8
0
100
AcDbBlockBegin
  2
*Paper_Space0
 70
     0
 10
0.0
 20
0.0
 30
0.0
  3
*Paper_Space0
  1

  0
ENDBLK
  5
25
330
23
100
AcDbEntity
  8
0
100
AcDbBlockEnd
  0
ENDSEC
  0
SECTION
  2
ENTITIES
  0
CIRCLE
  5
75
330
1F
100
AcDbEntity
  8
0
  6
Continuous
 62
     7
370
    25
100
AcDbCircle
 10
574.0034702949
 20
516.2595193032
 30
0.0
 40
7.099999999999804
  0
CIRCLE
  5
76
330
1F
100
AcDbEntity
  8
0
  6
Continuous
 62
     7
370
    25
100
AcDbCircle
 10
-1154.1749615435
 20
-1211.9189125354
 30
0.0
 40
7.10000000000012
  0
CIRCLE
  5
77
330
1F
100
AcDbEntity
  8
0
  6
Continuous
 62
     7
370
    25
100
AcDbCircle
 10
-1154.1749615436
 20
516.2595193031
 30
0.0
 40
7.100000000000052
  0
CIRCLE
  5
78
330
1F
100
AcDbEntity
  8
0
  6
Continuous
 62
     7
370
    25
100
AcDbCircle
 10
574.003470295
 20
-1211.9189125353
 30
0.0
 40
7.100000000000069
  0
ARC
  5
79
330
1F
100
AcDbEntity
  8
0
  6
Continuous
 62
     7
370
    25
100
AcDbCircle
 10
619.5142543757
 20
603.2703033839
 30
0.0
 40
1.099999999999909
100
AcDbArc
 50
126.4341903956
 51
270.0
  0
ARC
  5
7A
330
1F
100
AcDbEntity
  8
0
  6
Continuous
 62
     7
370
    25
100
AcDbCircle
 10
635.3142543757
 20
603.2703033839
 30
0.0
 40
1.099999999999957
100
AcDbArc
 50
270.0
 51
53.5658096043
  0
ARC
  5
7B
330
1F
100
AcDbEntity
  8
0
  6
Continuous
 62
     7
370
    25
100
AcDbCircle
 10
627.4142543757
 20
592.568380307
 30
0.0
 40
14.40192307692294
100
AcDbArc
 50
53.5658096043
 51
126.4341903957
  0
ARC
  5
7C
330
1F
100
AcDbEntity
  8
0
  6
Continuous
 62
     7
370
    25
100
AcDbCircle
 10
-1215.4857456243
 20
603.2703033839
 30
0.0
 40
1.099999999999957
100
AcDbArc
 50
126.4341903957
 51
270.0
  0
ARC
  5
7D
330
1F
100
AcDbEntity
  8
0
  6
Continuous
 62
     7
370
    25
100
AcDbCircle
 10
-1199.6857456243
 20
603.2703033839
 30
0.0
 40
1.099999999999909
100
AcDbArc
 50
270.0
 51
53.5658096044
  0
ARC
  5
7E
330
1F
100
AcDbEntity
  8
0
  6
Continuous
 62
     7
370
    25
100
AcDbCircle
 10
-1207.5857456243
 20
592.568380307
 30
0.0
 40
14.40192307692301
100
AcDbArc
 50
53.5658096044
 51
126.4341903957
  0
ARC
  5
7F
330
1F
100
AcDbEntity
  8
0
  6
Continuous
 62
     7
370
    25
100
AcDbCircle
 10
-1199.6857456243
 20
-1298.9296966161
 30
0.0
 40
1.099999999999957
100
AcDbArc
 50
306.4341903957
 51
90.0
  0
ARC
  5
80
330
1F
100
AcDbEntity
  8
0
  6
Continuous
 62
     7
370
    25
100
AcDbCircle
 10
-1215.4857456243
 20
-1298.9296966161
 30
0.0
 40
1.099999999999909
100
AcDbArc
 50
90.0
 51
233.5658096044
  0
ARC
  5
81
330
1F
100
AcDbEntity
  8
0
  6
Continuous
 62
     7
370
    25
100
AcDbCircle
 10
-1207.5857456243
 20
-1288.2277735392
 30
0.0
 40
14.4019230769231
100
AcDbArc
 50
233.5658096044
 51
306.4341903957
  0
ARC
  5
82
330
1F
100
AcDbEntity
  8
0
  6
Continuous
 62
     7
370
    25
100
AcDbCircle
 10
635.3142543757
 20
-1298.9296966161
 30
0.0
 40
1.099999999999957
100
AcDbArc
 50
306.4341903957
 51
90.0
  0
ARC
  5
83
330
1F
100
AcDbEntity
  8
0
  6
Continuous
 62
     7
370
    25
100
AcDbCircle
 10
619.5142543757
 20
-1298.9296966161
 30
0.0
 40
1.099999999999957
100
AcDbArc
 50
90.0
 51
233.5658096043
  0
ARC
  5
84
330
1F
100
AcDbEntity
  8
0
  6
Continuous
 62
     7
370
    25
100
AcDbCircle
 10
627.4142543757
 20
-1288.2277735392
 30
0.0
 40
14.40192307692304
100
AcDbArc
 50
233.5658096044
 51
306.4341903957
  0
ARC
  5
85
330
1F
100
AcDbEntity
  8
0
  6
Continuous
 62
     7
370
    25
100
AcDbCircle
 10
-1241.1857456243
 20
561.7703033839
 30
0.0
 40
1.099999999999957
100
AcDbArc
 50
216.4341903957
 51
0.0
  0
ARC
  5
86
330
1F
100
AcDbEntity
  8
0
  6
Continuous
 62
     7
370
    25
100
AcDbCircle
 10
-1241.1857456243
 20
577.5703033839
 30
0.0
 40
1.099999999999957
100
AcDbArc
 50
0.0
 51
143.5658096043
  0
ARC
  5
87
330
1F
100
AcDbEntity
  8
0
  6
Continuous
 62
     7
370
    25
100
AcDbCircle
 10
-1230.4838225474
 20
569.6703033839
 30
0.0
 40
14.40192307692322
100
AcDbArc
 50
143.5658096044
 51
216.4341903957
  0
ARC
  5
88
330
1F
100
AcDbEntity
  8
0
  6
Continuous
 62
     7
370
    25
100
AcDbCircle
 10
661.0142543757
 20
-1257.4296966161
 30
0.0
 40
1.100000000000049
100
AcDbArc
 50
36.4341903957
 51
180.0
  0
ARC
  5
89
330
1F
100
AcDbEntity
  8
0
  6
Continuous
 62
     7
370
    25
100
AcDbCircle
 10
661.0142543757
 20
-1273.2296966161
 30
0.0
 40
1.100000000000049
100
AcDbArc
 50
180.0
 51
323.5658096044
  0
ARC
  5
8A
330
1F
100
AcDbEntity
  8
0
  6
Continuous
 62
     7
370
    25
100
AcDbCircle
 10
650.3123312988
 20
-1265.3296966161
 30
0.0
 40
14.4019230769231
100
AcDbArc
 50
323.5658096044
 51
36.4341903957
  0
ARC
  5
8B
330
1F
100
AcDbEntity
  8
0
  6
Continuous
 62
     7
370
    25
100
AcDbCircle
 10
-1241.1857456243
 20
-1273.2296966161
 30
0.0
 40
1.100000000000136
100
AcDbArc
 50
216.4341903956
 51
0.0
  0
ARC
  5
8C
330
1F
100
AcDbEntity
  8
0
  6
Continuous
 62
     7
370
    25
100
AcDbCircle
 10
-1241.1857456243
 20
-1257.4296966161
 30
0.0
 40
1.100000000000136
100
AcDbArc
 50
0.0
 51
143.5658096044
  0
ARC
  5
8D
330
1F
100
AcDbEntity
  8
0
  6
Continuous
 62
     7
370
    25
100
AcDbCircle
 10
-1230.4838225474
 20
-1265.3296966161
 30
0.0
 40
14.40192307692315
100
AcDbArc
 50
143.5658096044
 51
216.4341903956
  0
ARC
  5
8E
330
1F
100
AcDbEntity
  8
0
  6
Continuous
 62
     7
370
    25
100
AcDbCircle
 10
661.0142543757
 20
577.5703033839
 30
0.0
 40
1.100000000000049
100
AcDbArc
 50
36.4341903957
 51
180.0
  0
ARC
  5
8F
330
1F
100
AcDbEntity
  8
0
  6
Continuous
 62
     7
370
    25
100
AcDbCircle
 10
661.0142543757
 20
561.7703033839
 30
0.0
 40
1.100000000000049
100
AcDbArc
 50
180.0
 51
323.5658096044
  0
ARC
  5
90
330
1F
100
AcDbEntity
  8
0
  6
Continuous
 62
     7
370
    25
100
AcDbCircle
 10
650.3123312988
 20
569.6703033839
 30
0.0
 40
14.40192307692304
100
AcDbArc
 50
323.5658096044
 51
36.4341903956
  0
LINE
  5
91
330
1F
100
AcDbEntity
  8
0
  6
Continuous
 62
     7
370
    25
100
AcDbLine
 10
709.9142543757
 20
2152.1703033839
 30
0.0
 11
-1290.0857456243
 21
2152.1703033839
 31
0.0
  0
ARC
  5
92
330
1F
100
AcDbEntity
  8
0
  6
Continuous
 62
     7
370
    25
100
AcDbCircle
 10
709.9142543757
 20
652.1703033839
 30
0.0
 40
1500.0
100
AcDbArc
 50
0.0
 51
90.0
  0
ARC
  5
93
330
1F
100
AcDbEntity
  8
0
  6
Continuous
 62
     7
370
    25
100
AcDbCircle
 10
709.9142543757
 20
-1347.8296966161
 30
0.0
 40
1500.0
100
AcDbArc
 50
270.0
 51
0.0
  0
ARC
  5
94
330
1F
100
AcDbEntity
  8
0
  6
Continuous
 62
     7
370
    25
100
AcDbCircle
 10
-1290.0857456243
 20
-1347.8296966161
 30
0.0
 40
1500.0
100
AcDbArc
 50
180.0
 51
270.0
  0
LINE
  5
95
330
1F
100
AcDbEntity
  8
0
  6
Continuous
 62
     7
370
    25
100
AcDbLine
 10
-2790.0857456243
 20
652.1703033839
 30
0.0
 11
-2790.0857456243
 21
-1347.8296966161
 31
0.0
  0
LINE
  5
96
330
1F
100
AcDbEntity
  8
0
  6
Continuous
 62
     7
370
    25
100
AcDbLine
 10
-1290.0857456243
 20
-2847.8296966161
 30
0.0
 11
709.9142543757
 21
-2847.8296966161
 31
0.0
  0
ARC
  5
97
330
1F
100
AcDbEntity
  8
0
  6
Continuous
 62
     7
370
    25
100
AcDbCircle
 10
-1290.0857456243
 20
652.1703033839
 30
0.0
 40
1500.000000000001
100
AcDbArc
 50
90.0
 51
180.0
  0
LINE
  5
98
330
1F
100
AcDbEntity
  8
0
  6
Continuous
 62
     7
370
    25
100
AcDbLine
 10
2209.9142543757
 20
-1347.8296966161
 30
0.0
 11
2209.9142543757
 21
652.1703033839
 31
0.0
  0
LWPOLYLINE
  5
99
330
1F
100
AcDbEntity
  8
0
  6
Continuous
 62
     7
370
    25
100
AcDbPolyline
 90
       92
 70
   128
 43
0.0
 10
-367.3739113589
 20
-585.6982119161
 10
-367.267883756
 20
-585.713751657
 10
-346.8015608362
 20
-588.9131796385
 10
-326.4026006624
 20
-592.4971411475
 10
-306.0876807608
 20
-596.4563378518
 10
-285.8734786572
 20
-600.7814714194
 10
-265.7766718777
 20
-605.463243518
 10
-245.8139379483
 20
-610.4923558157
 10
-216.1817537561
 20
-618.5562106864
 10
-186.7431259227
 20
-627.1567327863
 10
-157.4775697678
 20
-636.2279628965
 10
-128.3646006113
 20
-645.7039417984
 10
-87.7757301476
 20
-659.5750780479
 10
-47.391231658
 20
-674.0986239503
 10
-7.186842788
 20
-689.2346666866
 10
27.3893741354
 20
-702.7722908914
 10
61.8430269272
 20
-716.7722271641
 10
96.1509255868
 20
-731.2654701411
 10
116.7674234873
 20
-740.2258970487
 10
137.3219992881
 20
-749.3986356923
 10
157.7501660535
 20
-758.8871072405
 10
177.9874368477
 20
-768.7947328618
 10
197.9693247351
 20
-779.2249337246
 10
206.363916271
 20
-783.831290951
 10
214.6744612176
 20
-788.6317044172
 10
222.7966274694
 20
-793.7298840768
 10
230.6260829213
 20
-799.2295398835
 10
238.058495468
 20
-805.234381791
 10
241.9539320365
 20
-808.8502168887
 10
245.5917323497
 20
-812.731539357
 10
248.8779047417
 20
-816.8984880221
 10
251.6470732304
 20
-821.2556431428
 10
253.9488603745
 20
-825.8904287928
 10
255.7451514642
 20
-830.7234749969
 10
257.2372534314
 20
-836.6315269108
 10
258.1437881055
 20
-842.6723839255
 10
258.5596451684
 20
-848.784699992
 10
258.5797143019
 20
-854.9071290614
 10
258.2988851877
 20
-860.9783250847
 10
257.3802831424
 20
-870.7487668123
 10
256.0061082805
 20
-880.4337570244
 10
254.2968688611
 20
-890.0213785563
 10
250.8203546547
 20
-906.4149785693
 10
246.8085757343
 20
-922.5838270916
 10
242.3454425279
 20
-938.5523744031
 10
237.5148654635
 20
-954.3450707835
 10
232.4007549692
 20
-969.9863665125
 10
226.9736328985
 20
-985.7810182603
 10
221.2360140947
 20
-1001.499443176
 10
215.0726738782
 20
-1017.1007574532
 10
208.3683875694
 20
-1032.5440772854
 10
201.0079304885
 20
-1047.788518866
 10
197.1787746104
 20
-1055.0284543118
 10
193.0718517657
 20
-1062.1620856784
 10
188.6221359462
 20
-1069.1170211153
 10
183.7646011436
 20
-1075.8208687717
 10
179.6072124871
 20
-1080.8538336761
 10
175.0970242152
 20
-1085.6109697119
 10
170.2187658041
 20
-1089.9985866781
 10
166.0054643349
 20
-1093.2124474107
 10
161.5459254985
 20
-1096.1049047218
 10
156.8717557211
 20
-1098.6277478075
 10
151.4812997785
 20
-1100.9523479173
 10
145.9005213662
 20
-1102.8178709406
 10
140.2034684478
 20
-1104.2573374768
 10
131.866425139
 20
-1105.6904620873
 10
123.4314542499
 20
-1106.4969851695
 10
114.9558731592
 20
-1106.7944344132
 10
106.4969992453
 20
-1106.7003375081
 10
95.1525868676
 20
-1106.1162820643
 10
83.843216686
 20
-1105.1055702799
 10
72.5795014513
 20
-1103.7672149644
 10
56.7732836173
 20
-1101.4732249296
 10
41.041360215
 20
-1098.7921919413
 10
25.3797149308
 20
-1095.8109049654
 10
2.8522496911
 20
-1091.105808404
 10
-19.5696403665
 20
-1086.0070097981
 10
-41.8987174142
 20
-1080.5886238034
 10
-74.3396578346
 20
-1072.2236260435
 10
-106.6452351918
 20
-1063.3679839004
 10
-138.8348551463
 20
-1054.0743104625
 10
-174.0702410893
 20
-1043.4089112537
 10
-209.205369838
 20
-1032.2637959666
 10
-244.2377236947
 20
-1020.6411912232
 10
-279.1647849615
 20
-1008.5433236459
 10
-312.7569469937
 20
-996.438030998
 10
-346.2672720127
 20
-983.8965746395
 10
-379.6623157451
 20
-970.904432382
 10
-412.9086339175
 20
-957.4470820368
 10
-445.9727822564
 20
-943.5100014153
 10
-478.8213164884
 20
-929.078668329
 10
-478.9292504454
 20
-929.0302425064
  0
LWPOLYLINE
  5
9A
330
1F
100
AcDbEntity
  8
0
  6
Continuous
 62
     7
370
    25
100
AcDbPolyline
 90
       30
 70
   128
 43
0.0
 10
-261.6669293592
 20
-260.365573651
 10
-261.6936748795
 20
-260.4925907722
 10
-265.2033866871
 20
-277.42539991
 10
-268.6714829413
 20
-294.353068319
 10
-272.1893686862
 20
-311.2122996525
 10
-275.8484489661
 20
-327.9397975634
 10
-279.7401288253
 20
-344.4722657048
 10
-284.0197955372
 20
-361.3464269699
 10
-288.5088182769
 20
-378.0522133913
 10
-293.2031666281
 20
-394.6046278214
 10
-298.0988101747
 20
-411.0186731126
 10
-303.1917185002
 20
-427.3093521174
 10
-308.9765522322
 20
-444.9739835138
 10
-315.026949616
 20
-462.5700789979
 10
-321.3705577616
 20
-480.1231992763
 10
-328.0350237789
 20
-497.6589050552
 10
-333.702000917
 20
-511.8806474489
 10
-339.6369139672
 20
-526.1295861926
 10
-345.8430088045
 20
-540.3807564676
 10
-352.3235313038
 20
-554.6091934553
 10
-359.0817273399
 20
-568.7899323369
 10
-363.5379268135
 20
-577.8330242945
 10
-365.4836628274
 20
-581.8028828089
 10
-366.4662219803
 20
-583.822825994
 10
-366.9442009833
 20
-584.8092505789
 10
-367.1719467422
 20
-585.2801436473
 10
-367.2793209029
 20
-585.5023525429
 10
-367.3183675705
 20
-585.5831906673
 10
-367.326876111
 20
-585.6008081063
 10
-367.3739113589
 20
-585.6982119161
  0
LWPOLYLINE
  5
9B
330
1F
100
AcDbEntity
  8
0
  6
Continuous
 62
     7
370
    25
100
AcDbPolyline
 90
       27
 70
   128
 43
0.0
 10
-261.6669293592
 20
-260.365573651
 10
-261.640175617
 20
-260.2385595054
 10
-258.1772658503
 20
-244.1556087707
 10
-254.5730716623
 20
-228.1169143395
 10
-250.8315730355
 20
-212.1499388333
 10
-246.9567499525
 20
-196.2821448735
 10
-241.5963886478
 20
-175.3206675384
 10
-236.0157319826
 20
-154.5317483259
 10
-230.2290607431
 20
-133.9198568345
 10
-223.9314107046
 20
-112.4179788514
 10
-217.4168351589
 20
-91.0638618332
 10
-210.6837746099
 20
-69.8305387018
 10
-203.1655374546
 20
-47.0088697161
 10
-195.3604523324
 20
-24.2462660075
 10
-187.237964545
 20
-1.5156871453
 10
-178.7675193943
 20
21.2099073011
 10
-172.851622125
 20
36.5153958502
 10
-166.7466907271
 20
51.8306212243
 10
-160.4453170555
 20
67.1443323344
 10
-155.5412331437
 20
78.7271414598
 10
-150.5196594763
 20
90.2984404785
 10
-143.9936267049
 20
104.9586102676
 10
-141.7685078973
 20
109.962621174
 10
-140.8130799307
 20
112.1221795573
 10
-140.4182363392
 20
113.0166128565
 10
-140.2007224254
 20
113.5098405502
 10
-140.1502116869
 20
113.6244278204
  0
LWPOLYLINE
  5
9C
330
1F
100
AcDbEntity
  8
0
  6
Continuous
 62
     7
370
    25
100
AcDbPolyline
 90
       91
 70
   128
 43
0.0
 10
-140.1502116869
 20
113.6244278204
 10
-140.2723489123
 20
113.6486651099
 10
-165.5738178619
 20
118.85711942
 10
-190.7968301901
 20
124.4119092079
 10
-215.9297381428
 20
130.29243274
 10
-240.9608939657
 20
136.4780882824
 10
-265.8786499047
 20
142.9482741014
 10
-296.8361968755
 20
151.3720305276
 10
-327.6632138885
 20
160.1303720822
 10
-358.3704209197
 20
169.1889060267
 10
-388.9685379452
 20
178.5132396228
 10
-429.6077860321
 20
191.3074760884
 10
-470.1130175417
 20
204.4834526974
 10
-510.5103576499
 20
218.0006380762
 10
-552.5549897702
 20
232.4250722143
 10
-594.5412587505
 20
247.1339132106
 10
-636.4989712565
 20
262.0637368349
 10
-679.2120503856
 20
277.4023300831
 10
-722.0200287588
 20
292.6503548043
 10
-739.218515649
 20
298.7024884746
 10
-756.472270392
 20
304.6509337746
 10
-773.8178277703
 20
310.3387882872
 10
-791.2917225666
 20
315.609149595
 10
-808.9304895634
 20
320.3051152808
 10
-816.6212635422
 20
322.1174456141
 10
-824.3888598929
 20
323.7038535197
 10
-832.2123831292
 20
324.9230789287
 10
-840.070937765
 20
325.6338617723
 10
-847.9436283139
 20
325.6949419816
 10
-852.7803721744
 20
325.3124817155
 10
-857.5679674302
 20
324.4854501771
 10
-862.2081014017
 20
323.1224046725
 10
-866.871150466
 20
320.9823817121
 10
-871.1104179574
 20
318.1108385371
 10
-873.5626327145
 20
315.8709263168
 10
-876.2973719364
 20
312.6970504451
 10
-878.6658886661
 20
309.2225392918
 10
-880.7115851069
 20
305.5391699005
 10
-882.4778634619
 20
301.7387193152
 10
-884.8809365009
 20
295.4454573811
 10
-887.3011124015
 20
287.5252417953
 10
-889.2887818336
 20
279.4970883103
 10
-890.9740914948
 20
271.4210694183
 10
-893.8441467467
 20
255.2995127412
 10
-896.2554626185
 20
239.1663812056
 10
-898.345640132
 20
223.0389592647
 10
-900.2522803087
 20
206.9345313717
 10
-902.1129841703
 20
190.8703819798
 10
-905.2667537457
 20
164.0957307347
 10
-908.4791975846
 20
137.3233634116
 10
-911.8185739741
 20
110.4889635403
 10
-913.8316089811
 20
94.8444534859
 10
-915.4169666535
 20
83.2589745499
 10
-917.072740616
 20
71.6256689219
 10
-918.6488652446
 20
59.939199811
 10
-919.9952749153
 20
48.1942304265
 10
-920.9619040041
 20
36.3854239773
 10
-921.3986868868
 20
24.5074436727
 10
-921.3567479988
 20
19.9578723939
 10
-921.0595324715
 20
15.3967405943
 10
-920.388671353
 20
10.8892867558
 10
-919.2257956914
 20
6.5007493599
 10
-917.4752647647
 20
2.40956445
 10
-915.0668216018
 20
-1.330921999
 10
-911.8919052752
 20
-4.741667044
 10
-908.3083903881
 20
-7.6059388042
 10
-904.4109575848
 20
-10.0606645212
 10
-900.2901087696
 20
-12.1843447571
 10
-896.0363458468
 20
-14.0554800738
 10
-891.7401707209
 20
-15.7525710332
 10
-882.6977486005
 20
-18.9931175729
 10
-873.561555966
 20
-21.9514416292
 10
-864.3854384299
 20
-24.7615880177
 10
-832.9210615161
 20
-34.2103193715
 10
-801.5289772435
 20
-43.6731298199
 10
-770.2908607623
 20
-53.4317578364
 10
-734.6261570764
 20
-65.1628276602
 10
-699.1491068881
 20
-77.3605767181
 10
-663.8382848153
 20
-89.9964381791
 10
-628.6722654758
 20
-103.0418452122
 10
-593.6296234876
 20
-116.4682309864
 10
-551.9194769632
 20
-132.9750537313
 10
-510.3343476879
 20
-149.9903747884
 10
-468.8752248824
 20
-167.4939742649
 10
-427.5430977672
 20
-185.4656322683
 10
-394.4075391195
 20
-200.3161832653
 10
-361.3442724463
 20
-215.4429746359
 10
-328.2729786973
 20
-230.6294002048
 10
-295.1133388223
 20
-245.6588537967
 10
-261.785033771
 20
-260.3147292361
 10
-261.6669293592
 20
-260.365573651
  0
LWPOLYLINE
  5
9D
330
1F
100
AcDbEntity
  8
0
  6
Continuous
 62
     7
370
    25
100
AcDbPolyline
 90
       96
 70
   128
 43
0.0
 10
-261.6669293592
 20
-260.365573651
 10
-261.7923616977
 20
-260.337280781
 10
-297.0012863852
 20
-252.0765456546
 10
-332.0739087091
 20
-243.2510020538
 10
-367.0004133998
 20
-233.9232203926
 10
-401.7709851878
 20
-224.1557710848
 10
-436.3758088034
 20
-214.0112245443
 10
-471.1580232112
 20
-203.4172870213
 10
-505.7815902572
 20
-192.4629347083
 10
-540.2408751163
 20
-181.1470441985
 10
-574.5302429633
 20
-169.4684920851
 10
-608.644058973
 20
-157.4261549611
 10
-643.9755802951
 20
-144.5077269678
 10
-679.1353494987
 20
-131.1572507386
 10
-714.1055183572
 20
-117.3128037697
 10
-748.8682386444
 20
-102.9124635574
 10
-783.4056621338
 20
-87.8943075978
 10
-801.4917098799
 20
-79.7319750085
 10
-819.5040094569
 20
-71.3416950598
 10
-837.3933742936
 20
-62.6468914042
 10
-855.1106178191
 20
-53.5709876941
 10
-872.6065534623
 20
-44.0374075819
 10
-881.2833761188
 20
-39.0389439171
 10
-889.8296515617
 20
-33.8069021604
 10
-898.168847622
 20
-28.2500505111
 10
-903.4526445502
 20
-24.392627932
 10
-908.5494564231
 20
-20.265622306
 10
-913.3504900788
 20
-15.815767778
 10
-917.7469523558
 20
-10.9897984928
 10
-921.0383501654
 20
-6.5714320648
 10
-923.8789171179
 20
-1.8350566448
 10
-926.219000958
 20
3.1489833183
 10
-928.4677731227
 20
9.6568524366
 10
-930.1105309921
 20
16.3569424892
 10
-931.2908200311
 20
23.1395225746
 10
-932.7300775781
 20
35.3538010692
 10
-933.5469748415
 20
47.5972463136
 10
-933.862053332
 20
59.8441465366
 10
-933.7958545601
 20
72.0687899672
 10
-933.4689200365
 20
84.2454648342
 10
-933.0017912717
 20
96.3484593665
 10
-932.2013696936
 20
112.4004430028
 10
-930.8052804445
 20
133.0018644708
 10
-929.0118023535
 20
153.5056929883
 10
-926.8065713717
 20
173.9288389146
 10
-924.1752234504
 20
194.2882126087
 10
-922.1704561486
 20
207.9832803861
 10
-919.9361643369
 20
221.6819316105
 10
-917.3899128779
 20
235.3563936029
 10
-914.4492666342
 20
248.9788936847
 10
-911.0317904685
 20
262.5216591768
 10
-907.0550492435
 20
275.9569174003
 10
-904.1860642656
 20
284.370205536
 10
-900.9223729242
 20
292.6680980003
 10
-897.1635584201
 20
300.7699676673
 10
-893.8483889335
 20
306.8227479039
 10
-890.0645152062
 20
312.6472077138
 10
-885.7621680931
 20
318.0907112098
 10
-880.8915784491
 20
323.0006225043
 10
-876.4361741334
 20
326.5289503134
 10
-871.6038209466
 20
329.5673107565
 10
-866.4897534014
 20
332.0786010991
 10
-861.0491220958
 20
334.1025878992
 10
-855.4377518082
 20
335.6475118073
 10
-849.7321306468
 20
336.765829354
 10
-841.1532916667
 20
337.7920618174
 10
-832.5060280006
 20
338.196919666
 10
-823.8283892306
 20
338.0924159463
 10
-815.1584249392
 20
337.5905637044
 10
-806.5341847085
 20
336.8033759868
 10
-788.1909878538
 20
334.4873891917
 10
-769.949328001
 20
331.463851432
 10
-751.8025549471
 20
327.8843276513
 10
-733.7440184889
 20
323.9003827935
 10
-715.7670684233
 20
319.6635818021
 10
-685.645283587
 20
312.1314098303
 10
-655.6727573494
 20
304.1219790445
 10
-625.8347343273
 20
295.7330876985
 10
-584.5088874053
 20
283.5795199431
 10
-543.3804132078
 20
270.9058861368
 10
-502.4415186894
 20
257.7223644196
 10
-461.6844108045
 20
244.0391329318
 10
-421.1012965078
 20
229.8663698135
 10
-380.6843827537
 20
215.2142532049
 10
-350.3272577592
 20
203.8392863145
 10
-320.0623724043
 20
192.1379190989
 10
-289.9009271434
 20
180.0835499348
 10
-259.854122431
 20
167.6495771989
 10
-229.8038192558
 20
154.7483825567
 10
-199.8963566409
 20
141.4080947619
 10
-170.078873699
 20
127.6042543951
 10
-146.8489950512
 20
116.7255241458
 10
-142.007794895
 20
114.4825506005
 10
-140.6827761828
 20
113.8703054371
 10
-140.2632672772
 20
113.6766143016
 10
-140.1502116869
 20
113.6244278204
  0
LWPOLYLINE
  5
9E
330
1F
100
AcDbEntity
  8
0
  6
Continuous
 62
     7
370
    25
100
AcDbPolyline
 90
       89
 70
   128
 43
0.0
 10
-478.9292504454
 20
-929.0302425064
 10
-478.8134643503
 20
-929.0545001291
 10
-443.6971807626
 20
-936.3272113145
 10
-408.5646992395
 20
-943.5173753094
 10
-373.4565643314
 20
-950.7370655164
 10
-338.4133205886
 20
-958.098355338
 10
-303.4755125611
 20
-965.7133181769
 10
-268.6836847993
 20
-973.6940274356
 10
-232.7985212829
 20
-982.3633194119
 10
-197.0559652678
 20
-991.3874981897
 10
-161.4612323819
 20
-1000.779550555
 10
-126.019538253
 20
-1010.5524632938
 10
-77.89676513
 20
-1024.5275153103
 10
-30.0047501578
 20
-1039.2411142089
 10
2.5359469815
 20
-1049.6755215634
 10
35.0482925829
 20
-1060.3317163671
 10
57.2301688452
 20
-1067.6311973881
 10
79.5037996311
 20
-1074.7570204026
 10
94.892054725
 20
-1079.3963005479
 10
110.4398992364
 20
-1083.5374310217
 10
117.6195631789
 20
-1085.1781418947
 10
124.8768370915
 20
-1086.5403170078
 10
132.190747341
 20
-1087.4509110698
 10
139.5403202941
 20
-1087.7368787898
 10
143.9944072332
 20
-1087.5014317925
 10
148.4121631779
 20
-1086.8291195613
 10
152.688403798
 20
-1085.6190189838
 10
157.025758051
 20
-1083.5939678024
 10
160.9508307888
 20
-1080.869075535
 10
162.2998075101
 20
-1079.6884893495
 10
165.8322669104
 20
-1075.9278854505
 10
168.9002878484
 20
-1071.7699471799
 10
171.5836499637
 20
-1067.3795302939
 10
175.0119640035
 20
-1060.779692693
 10
178.0325936948
 20
-1054.0038348492
 10
180.7575380523
 20
-1047.1220999692
 10
183.2987960908
 20
-1040.2046312598
 10
190.054220809
 20
-1020.7421377928
 10
196.4684401261
 20
-1001.3059690948
 10
202.7742050817
 20
-981.9231536492
 10
209.2042667155
 20
-962.6207199392
 10
215.8975681338
 20
-943.3951437595
 10
222.760659408
 20
-924.142110524
 10
229.6635914615
 20
-904.7788151259
 10
236.4764152177
 20
-885.2224524584
 10
239.4160363743
 20
-876.457452449
 10
242.1810384206
 20
-867.5973121368
 10
244.6356547898
 20
-858.6148606476
 10
245.9630251513
 20
-852.8131990528
 10
246.9645235298
 20
-846.9304131011
 10
247.4679883646
 20
-840.9861333601
 10
247.3993293219
 20
-836.6885210095
 10
246.8211431904
 20
-832.4282769688
 10
245.6574382421
 20
-828.460289067
 10
243.8517278917
 20
-824.7388133254
 10
241.5889953752
 20
-821.5720571124
 10
238.5322102285
 20
-818.4016177504
 10
235.0963535966
 20
-815.6101574574
 10
231.4270731439
 20
-813.1428153016
 10
223.6803627798
 20
-808.8057173978
 10
215.6064812133
 20
-805.0788139442
 10
207.306383029
 20
-801.8081577167
 10
198.8810228117
 20
-798.8398014913
 10
190.431355146
 20
-796.0197980439
 10
163.915224539
 20
-787.5484495683
 10
137.2841588943
 20
-779.512993499
 10
110.622691205
 20
-771.6660485613
 10
84.0153544639
 20
-763.7602334805
 10
48.604609249
 20
-752.9172198751
 10
13.3417020868
 20
-741.7857040548
 10
-21.7560137282
 20
-730.3222039522
 10
-56.9885605858
 20
-718.3875095034
 10
-92.0510049269
 20
-706.0561416412
 10
-126.9416037165
 20
-693.2982134301
 10
-161.6677066325
 20
-680.0773556502
 10
-196.2184835219
 20
-666.3300902096
 10
-230.5732895827
 20
-651.9827457913
 10
-251.2721963842
 20
-642.9642629178
 10
-271.8872789548
 20
-633.6587669291
 10
-292.3983050656
 20
-624.0450847804
 10
-312.785042488
 20
-614.102043427
 10
-333.0272589933
 20
-603.8084698241
 10
-346.3598158054
 20
-596.7987501245
 10
-359.6789570861
 20
-589.7440737992
 10
-364.8208070728
 20
-587.0378818269
 10
-366.4861553931
 20
-586.1637264193
 10
-367.0608298304
 20
-585.8623451013
 10
-367.279000594
 20
-585.7479645538
 10
-367.3739113589
 20
-585.6982119161
  0
LWPOLYLINE
  5
9F
330
1F
100
AcDbEntity
  8
0
  6
Continuous
 62
     7
370
    25
100
AcDbPolyline
 90
       24
 70
   128
 43
0.0
 10
-140.1502116869
 20
113.6244278204
 10
-140.176700348
 20
113.5020353041
 10
-143.6424215433
 20
97.4624429603
 10
-147.1449670383
 20
81.448794784
 10
-150.7527371018
 20
65.5100418187
 10
-154.5341320023
 20
49.6951351076
 10
-159.8435256797
 20
28.8561684294
 10
-165.4034909957
 20
8.2065322688
 10
-171.1917602477
 20
-12.2621414372
 10
-177.5356806982
 20
-33.7134996435
 10
-184.1121548488
 20
-55.0321769753
 10
-190.9194843901
 20
-76.2523458763
 10
-198.5283060585
 20
-99.0879645056
 10
-206.4288783677
 20
-121.8946016806
 10
-214.6406342531
 20
-144.6925385015
 10
-223.1830066499
 20
-167.5020560681
 10
-229.1403821829
 20
-182.8951301739
 10
-235.2652436724
 20
-198.299920735
 10
-241.557960645
 20
-213.7042474271
 10
-246.4266774309
 20
-225.3432347636
 10
-251.3897325036
 20
-236.9725814333
 10
-256.4596065664
 20
-248.6222736387
 10
-261.6139165495
 20
-260.2470915937
 10
-261.6669293592
 20
-260.365573651
  0
LWPOLYLINE
  5
A0
330
1F
100
AcDbEntity
  8
0
  6
Continuous
 62
     7
370
    25
100
AcDbPolyline
 90
       23
 70
   128
 43
0.0
 10
-478.9292504454
 20
-929.0302425064
 10
-478.9069765211
 20
-928.9123637829
 10
-475.8072589337
 20
-913.0733275362
 10
-472.5091151702
 20
-897.2881154637
 10
-469.0232939224
 20
-881.5851603525
 10
-465.3605438815
 20
-865.9928949893
 10
-461.5316137392
 20
-850.5397521609
 10
-456.3916932931
 20
-830.9071891506
 10
-451.0120644345
 20
-811.4563286101
 10
-445.4063923151
 20
-792.1708499811
 10
-439.5883420869
 20
-773.0344327054
 10
-429.5859754043
 20
-741.8719134279
 10
-418.9669754213
 20
-710.8873643078
 10
-413.3991654899
 20
-695.4107565289
 10
-407.6390539204
 20
-679.9344479366
 10
-401.6697145403
 20
-664.4578204847
 10
-395.4742211773
 20
-648.9802561272
 10
-390.2199434686
 20
-636.3138991689
 10
-384.7831988946
 20
-623.637216319
 10
-379.1682646843
 20
-610.9752482297
 10
-373.3794180665
 20
-598.3530355534
 10
-367.4209362701
 20
-585.7956189425
 10
-367.3739113589
 20
-585.6982119161
  0
LWPOLYLINE
  5
A1
330
1F
100
AcDbEntity
  8
0
  6
Continuous
 62
     7
370
    25
100
AcDbPolyline
 90
       23
 70
   128
 43
0.0
 10
-367.3739113589
 20
-585.6982119161
 10
-367.3547111507
 20
-585.5917639537
 10
-364.8364876452
 20
-571.5379966766
 10
-362.2878971344
 20
-557.5116403554
 10
-359.6187222751
 20
-543.5716541952
 10
-356.7387457246
 20
-529.7769974013
 10
-352.568062317
 20
-511.6779236283
 10
-348.0920669159
 20
-493.8012194862
 10
-343.3400426492
 20
-476.1364354567
 10
-337.9139981815
 20
-457.2272662327
 10
-332.1992509273
 20
-438.4744212708
 10
-326.1997602008
 20
-419.8335861972
 10
-319.5348084624
 20
-400.1659989667
 10
-312.522921265
 20
-380.5201500713
 10
-305.1422177553
 20
-360.8773409748
 10
-297.3708170803
 20
-341.2188731407
 10
-291.8618477725
 20
-327.8623140636
 10
-286.1566150851
 20
-314.4943347569
 10
-280.2595296846
 20
-301.1316015759
 10
-274.1120689933
 20
-287.612014165
 10
-267.8873357886
 20
-274.0702702918
 10
-261.7199505695
 20
-260.484053283
 10
-261.6669293592
 20
-260.365573651
  0
LWPOLYLINE
  5
A2
330
1F
100
AcDbEntity
  8
0
  6
Continuous
 62
     7
370
    25
100
AcDbPolyline
 90
       25
 70
   128
 43
0.0
 10
-367.3739113589
 20
-585.6982119161
 10
-367.3931218204
 20
-585.804656405
 10
-369.8596008233
 20
-598.9821851825
 10
-372.4893277587
 20
-612.116323418
 10
-375.2722869254
 20
-625.185885005
 10
-378.1984626222
 20
-638.1696838368
 10
-381.2578391481
 20
-651.0465338067
 10
-386.6070605011
 20
-672.2031785263
 10
-392.2655522743
 20
-693.1335324628
 10
-398.2016276973
 20
-713.8589357826
 10
-404.8586547611
 20
-735.9265862421
 10
-411.8110408419
 20
-757.8591096735
 10
-419.064677461
 20
-779.7029755813
 10
-425.4656192286
 20
-798.2064824851
 10
-432.1146522403
 20
-816.7053371027
 10
-439.0311611204
 20
-835.2049027435
 10
-446.2345304931
 20
-853.7105427167
 10
-451.2747758624
 20
-866.2182293352
 10
-456.4632668769
 20
-878.7280303531
 10
-461.801590008
 20
-891.2279158239
 10
-465.937787607
 20
-900.6651522033
 10
-470.1599651773
 20
-910.0877075327
 10
-474.4792017308
 20
-919.5184682449
 10
-478.8779830538
 20
-928.9217843316
 10
-478.9292504454
 20
-929.0302425064
  0
LINE
  5
A3
330
1F
100
AcDbEntity
  8
0
  6
Continuous
 62
     7
370
    25
100
AcDbLine
 10
644.9142543757
 20
-1025.3296966161
 30
0.0
 11
659.9142543757
 21
-1025.3296966161
 31
0.0
  0
LINE
  5
A4
330
1F
100
AcDbEntity
  8
0
  6
Continuous
 62
     7
370
    25
100
AcDbLine
 10
659.9142543757
 20
-965.3296966161
 30
0.0
 11
659.9142543757
 21
-1025.3296966161
 31
0.0
  0
LINE
  5
A5
330
1F
100
AcDbEntity
  8
0
  6
Continuous
 62
     7
370
    25
100
AcDbLine
 10
644.9142543757
 20
-965.3296966161
 30
0.0
 11
659.9142543757
 21
-965.3296966161
 31
0.0
  0
LINE
  5
A6
330
1F
100
AcDbEntity
  8
0
  6
Continuous
 62
     7
370
    25
100
AcDbLine
 10
644.9142543757
 20
-965.3296966161
 30
0.0
 11
644.9142543757
 21
-1025.3296966161
 31
0.0
  0
LINE
  5
A7
330
1F
100
AcDbEntity
  8
0
  6
Continuous
 62
     7
370
    25
100
AcDbLine
 10
659.9142543757
 20
329.6703033839
 30
0.0
 11
659.9142543757
 21
269.6703033839
 31
0.0
  0
LINE
  5
A8
330
1F
100
AcDbEntity
  8
0
  6
Continuous
 62
     7
370
    25
100
AcDbLine
 10
659.9142543757
 20
329.6703033839
 30
0.0
 11
644.9142543757
 21
329.6703033839
 31
0.0
  0
LINE
  5
A9
330
1F
100
AcDbEntity
  8
0
  6
Continuous
 62
     7
370
    25
100
AcDbLine
 10
644.9142543757
 20
329.6703033839
 30
0.0
 11
644.9142543757
 21
269.6703033839
 31
0.0
  0
LINE
  5
AA
330
1F
100
AcDbEntity
  8
0
  6
Continuous
 62
     7
370
    25
100
AcDbLine
 10
659.9142543757
 20
269.6703033839
 30
0.0
 11
644.9142543757
 21
269.6703033839
 31
0.0
  0
LINE
  5
AB
330
1F
100
AcDbEntity
  8
0
  6
Continuous
 62
     7
370
    25
100
AcDbLine
 10
644.9142543757
 20
89.6703033839
 30
0.0
 11
644.9142543757
 21
149.6703033839
 31
0.0
  0
LINE
  5
AC
330
1F
100
AcDbEntity
  8
0
  6
Continuous
 62
     7
370
    25
100
AcDbLine
 10
644.9142543757
 20
89.6703033839
 30
0.0
 11
659.9142543757
 21
89.6703033839
 31
0.0
  0
LINE
  5
AD
330
1F
100
AcDbEntity
  8
0
  6
Continuous
 62
     7
370
    25
100
AcDbLine
 10
659.9142543757
 20
89.6703033839
 30
0.0
 11
659.9142543757
 21
149.6703033839
 31
0.0
  0
LINE
  5
AE
330
1F
100
AcDbEntity
  8
0
  6
Continuous
 62
     7
370
    25
100
AcDbLine
 10
644.9142543757
 20
149.6703033839
 30
0.0
 11
659.9142543757
 21
149.6703033839
 31
0.0
  0
LINE
  5
AF
330
1F
100
AcDbEntity
  8
0
  6
Continuous
 62
     7
370
    25
100
AcDbLine
 10
644.9142543757
 20
-90.3296966161
 30
0.0
 11
644.9142543757
 21
-30.3296966161
 31
0.0
  0
LINE
  5
B0
330
1F
100
AcDbEntity
  8
0
  6
Continuous
 62
     7
370
    25
100
AcDbLine
 10
644.9142543757
 20
-90.3296966161
 30
0.0
 11
659.9142543757
 21
-90.3296966161
 31
0.0
  0
LINE
  5
B1
330
1F
100
AcDbEntity
  8
0
  6
Continuous
 62
     7
370
    25
100
AcDbLine
 10
659.9142543757
 20
-90.3296966161
 30
0.0
 11
659.9142543757
 21
-30.3296966161
 31
0.0
  0
LINE
  5
B2
330
1F
100
AcDbEntity
  8
0
  6
Continuous
 62
     7
370
    25
100
AcDbLine
 10
644.9142543757
 20
-30.3296966161
 30
0.0
 11
659.9142543757
 21
-30.3296966161
 31
0.0
  0
LINE
  5
B3
330
1F
100
AcDbEntity
  8
0
  6
Continuous
 62
     7
370
    25
100
AcDbLine
 10
644.9142543757
 20
-665.3296966161
 30
0.0
 11
644.9142543757
 21
-605.3296966161
 31
0.0
  0
LINE
  5
B4
330
1F
100
AcDbEntity
  8
0
  6
Continuous
 62
     7
370
    25
100
AcDbLine
 10
644.9142543757
 20
-665.3296966161
 30
0.0
 11
659.9142543757
 21
-665.3296966161
 31
0.0
  0
LINE
  5
B5
330
1F
100
AcDbEntity
  8
0
  6
Continuous
 62
     7
370
    25
100
AcDbLine
 10
659.9142543757
 20
-665.3296966161
 30
0.0
 11
659.9142543757
 21
-605.3296966161
 31
0.0
  0
LINE
  5
B6
330
1F
100
AcDbEntity
  8
0
  6
Continuous
 62
     7
370
    25
100
AcDbLine
 10
644.9142543757
 20
-605.3296966161
 30
0.0
 11
659.9142543757
 21
-605.3296966161
 31
0.0
  0
LINE
  5
B7
330
1F
100
AcDbEntity
  8
0
  6
Continuous
 62
     7
370
    25
100
AcDbLine
 10
659.9142543757
 20
-785.3296966161
 30
0.0
 11
659.9142543757
 21
-845.3296966161
 31
0.0
  0
LINE
  5
B8
330
1F
100
AcDbEntity
  8
0
  6
Continuous
 62
     7
370
    25
100
AcDbLine
 10
659.9142543757
 20
-785.3296966161
 30
0.0
 11
644.9142543757
 21
-785.3296966161
 31
0.0
  0
LINE
  5
B9
330
1F
100
AcDbEntity
  8
0
  6
Continuous
 62
     7
370
    25
100
AcDbLine
 10
644.9142543757
 20
-785.3296966161
 30
0.0
 11
644.9142543757
 21
-845.3296966161
 31
0.0
  0
LINE
  5
BA
330
1F
100
AcDbEntity
  8
0
  6
Continuous
 62
     7
370
    25
100
AcDbLine
 10
659.9142543757
 20
-845.3296966161
 30
0.0
 11
644.9142543757
 21
-845.3296966161
 31
0.0
  0
ARC
  5
BB
330
1F
100
AcDbEntity
  8
0
  6
Continuous
 62
     7
370
    25
100
AcDbCircle
 10
662.9142543757
 20
488.9023541915
 30
0.0
 40
6.000000000000284
100
AcDbArc
 50
180.0
 51
240.0
  0
LINE
  5
BC
330
1F
100
AcDbEntity
  8
0
  6
Continuous
 62
     7
370
    25
100
AcDbLine
 10
698.4142543757
 20
461.478216405
 30
0.0
 11
659.9142543757
 21
483.7062017688
 31
0.0
  0
ARC
  5
BD
330
1F
100
AcDbEntity
  8
0
  6
Continuous
 62
     7
370
    25
100
AcDbCircle
 10
689.9142543757
 20
446.7557845406
 30
0.0
 40
17.00000000000004
100
AcDbArc
 50
0.0
 51
60.0
  0
LINE
  5
BE
330
1F
100
AcDbEntity
  8
0
  6
Continuous
 62
     7
370
    25
100
AcDbLine
 10
706.9142543757
 20
-157.4151777728
 30
0.0
 11
706.9142543757
 21
446.7557845406
 31
0.0
  0
ARC
  5
BF
330
1F
100
AcDbEntity
  8
0
  6
Continuous
 62
     7
370
    25
100
AcDbCircle
 10
689.9142543757
 20
-157.4151777728
 30
0.0
 40
17.0
100
AcDbArc
 50
300.0
 51
0.0
  0
LINE
  5
C0
330
1F
100
AcDbEntity
  8
0
  6
Continuous
 62
     7
370
    25
100
AcDbLine
 10
659.9142543757
 20
-194.365595001
 30
0.0
 11
698.4142543757
 21
-172.1376096372
 31
0.0
  0
ARC
  5
C1
330
1F
100
AcDbEntity
  8
0
  6
Continuous
 62
     7
370
    25
100
AcDbCircle
 10
662.9142543757
 20
-199.5617474237
 30
0.0
 40
6.000000000000451
100
AcDbArc
 50
120.0
 51
180.0
  0
LINE
  5
C2
330
1F
100
AcDbEntity
  8
0
  6
Continuous
 62
     7
370
    25
100
AcDbLine
 10
656.9142543757
 20
-496.0976458085
 30
0.0
 11
656.9142543757
 21
-199.5617474237
 31
0.0
  0
ARC
  5
C3
330
1F
100
AcDbEntity
  8
0
  6
Continuous
 62
     7
370
    25
100
AcDbCircle
 10
662.9142543757
 20
-496.0976458085
 30
0.0
 40
6.000000000000235
100
AcDbArc
 50
180.0
 51
240.0
  0
LINE
  5
C4
330
1F
100
AcDbEntity
  8
0
  6
Continuous
 62
     7
370
    25
100
AcDbLine
 10
698.4142543757
 20
-523.521783595
 30
0.0
 11
659.9142543757
 21
-501.2937982312
 31
0.0
  0
ARC
  5
C5
330
1F
100
AcDbEntity
  8
0
  6
Continuous
 62
     7
370
    25
100
AcDbCircle
 10
689.9142543757
 20
-538.2442154594
 30
0.0
 40
17.00000000000003
100
AcDbArc
 50
0.0
 51
60.0
  0
LINE
  5
C6
330
1F
100
AcDbEntity
  8
0
  6
Continuous
 62
     7
370
    25
100
AcDbLine
 10
706.9142543757
 20
-1142.4151777728
 30
0.0
 11
706.9142543757
 21
-538.2442154594
 31
0.0
  0
ARC
  5
C7
330
1F
100
AcDbEntity
  8
0
  6
Continuous
 62
     7
370
    25
100
AcDbCircle
 10
689.9142543757
 20
-1142.4151777728
 30
0.0
 40
17.00000000000011
100
AcDbArc
 50
300.0
 51
0.0
  0
LINE
  5
C8
330
1F
100
AcDbEntity
  8
0
  6
Continuous
 62
     7
370
    25
100
AcDbLine
 10
659.9142543757
 20
-1179.365595001
 30
0.0
 11
698.4142543757
 21
-1157.1376096372
 31
0.0
  0
ARC
  5
C9
330
1F
100
AcDbEntity
  8
0
  6
Continuous
 62
     7
370
    25
100
AcDbCircle
 10
662.9142543757
 20
-1184.5617474237
 30
0.0
 40
6.000000000000114
100
AcDbArc
 50
120.0
 51
180.0
  0
LINE
  5
CA
330
1F
100
AcDbEntity
  8
0
  6
Continuous
 62
     7
370
    25
100
AcDbLine
 10
656.9142543757
 20
-1279.8296966161
 30
0.0
 11
656.9142543757
 21
-1184.5617474237
 31
0.0
  0
LINE
  5
CB
330
1F
100
AcDbEntity
  8
0
  6
Continuous
 62
     7
370
    25
100
AcDbLine
 10
641.9142543757
 20
-1279.8296966161
 30
0.0
 11
656.9142543757
 21
-1279.8296966161
 31
0.0
  0
LINE
  5
CC
330
1F
100
AcDbEntity
  8
0
  6
Continuous
 62
     7
370
    25
100
AcDbLine
 10
641.9142543757
 20
-1279.8296966161
 30
0.0
 11
586.553370693
 21
-1224.4688129334
 31
0.0
  0
ARC
  5
CD
330
1F
100
AcDbEntity
  8
0
  6
Continuous
 62
     7
370
    25
100
AcDbCircle
 10
588.6746910365
 20
-1222.3474925898
 30
0.0
 40
3.000000000000076
100
AcDbArc
 50
144.5940682269
 51
225.0
  0
ARC
  5
CE
330
1F
100
AcDbEntity
  8
0
  6
Continuous
 62
     7
370
    25
100
AcDbCircle
 10
574.003470295
 20
-1211.9189125354
 30
0.0
 40
15.00000000000008
100
AcDbArc
 50
324.5940682269
 51
125.4059317731
  0
ARC
  5
CF
330
1F
100
AcDbEntity
  8
0
  6
Continuous
 62
     7
370
    25
100
AcDbCircle
 10
563.5748902405
 20
-1197.2476917938
 30
0.0
 40
3.000000000000827
100
AcDbArc
 50
225.0
 51
305.4059317732
  0
LINE
  5
D0
330
1F
100
AcDbEntity
  8
0
  6
Continuous
 62
     7
370
    25
100
AcDbLine
 10
561.453569897
 20
-1199.3690121373
 30
0.0
 11
548.1669147374
 21
-1186.0823569778
 31
0.0
  0
LINE
  5
D1
330
1F
100
AcDbEntity
  8
0
  6
Continuous
 62
     7
370
    25
100
AcDbLine
 10
603.7084775427
 20
-802.5810899886
 30
0.0
 11
548.1669147374
 21
-1186.0823569778
 31
0.0
  0
ARC
  5
D2
330
1F
100
AcDbEntity
  8
0
  6
Continuous
 62
     7
370
    25
100
AcDbCircle
 10
580.9459609312
 20
-799.2844496517
 30
0.0
 40
22.99999999999989
100
AcDbArc
 50
351.7592881703
 51
7.0183322393
  0
LINE
  5
D3
330
1F
100
AcDbEntity
  8
0
  6
Continuous
 62
     7
370
    25
100
AcDbLine
 10
493.2191216489
 20
101.5445456132
 30
0.0
 11
603.77362441
 21
-796.4741507177
 31
0.0
  0
ARC
  5
D4
330
1F
100
AcDbEntity
  8
0
  6
Continuous
 62
     7
370
    25
100
AcDbCircle
 10
510.091742481
 20
103.6217230862
 30
0.0
 40
17.0
100
AcDbArc
 50
171.7592881703
 51
187.0183322393
  0
LINE
  5
D5
330
1F
100
AcDbEntity
  8
0
  6
Continuous
 62
     7
370
    25
100
AcDbLine
 10
549.063757555
 20
491.3198065632
 30
0.0
 11
493.2672736812
 21
106.0583702917
 31
0.0
  0
LINE
  5
D6
330
1F
100
AcDbEntity
  8
0
  6
Continuous
 62
     7
370
    25
100
AcDbLine
 10
561.453569897
 20
503.7096189051
 30
0.0
 11
549.063757555
 21
491.3198065632
 31
0.0
  0
ARC
  5
D7
330
1F
100
AcDbEntity
  8
0
  6
Continuous
 62
     7
370
    25
100
AcDbCircle
 10
563.5748902405
 20
501.5882985616
 30
0.0
 40
3.00000000000034
100
AcDbArc
 50
54.5940682269
 51
135.0
  0
ARC
  5
D8
330
1F
100
AcDbEntity
  8
0
  6
Continuous
 62
     7
370
    25
100
AcDbCircle
 10
574.003470295
 20
516.2595193031
 30
0.0
 40
14.99999999999995
100
AcDbArc
 50
234.5940682269
 51
35.4059317731
  0
ARC
  5
D9
330
1F
100
AcDbEntity
  8
0
  6
Continuous
 62
     7
370
    25
100
AcDbCircle
 10
588.6746910366
 20
526.6880993576
 30
0.0
 40
3.000000000000183
100
AcDbArc
 50
135.0
 51
215.4059317731
  0
LINE
  5
DA
330
1F
100
AcDbEntity
  8
0
  6
Continuous
 62
     7
370
    25
100
AcDbLine
 10
641.9142543757
 20
584.1703033839
 30
0.0
 11
586.553370693
 21
528.8094197011
 31
0.0
  0
LINE
  5
DB
330
1F
100
AcDbEntity
  8
0
  6
Continuous
 62
     7
370
    25
100
AcDbLine
 10
656.9142543757
 20
584.1703033839
 30
0.0
 11
641.9142543757
 21
584.1703033839
 31
0.0
  0
LINE
  5
DC
330
1F
100
AcDbEntity
  8
0
  6
Continuous
 62
     7
370
    25
100
AcDbLine
 10
656.9142543757
 20
488.9023541915
 30
0.0
 11
656.9142543757
 21
584.1703033839
 31
0.0
  0
LINE
  5
DD
330
1F
100
AcDbEntity
  8
0
  6
Continuous
 62
     7
370
    25
100
AcDbLine
 10
600.7961030867
 20
-796.8407114482
 30
0.0
 11
490.2416003255
 21
101.1779848826
 31
0.0
  0
LINE
  5
DE
330
1F
100
AcDbEntity
  8
0
  6
Continuous
 62
     7
370
    25
100
AcDbLine
 10
490.2416003255
 20
101.1779848826
 30
0.0
 11
493.2191216489
 21
101.5445456132
 31
0.0
  0
LINE
  5
DF
330
1F
100
AcDbEntity
  8
0
  6
Continuous
 62
     7
370
    25
100
AcDbLine
 10
600.7961030867
 20
-796.8407114482
 30
0.0
 11
603.77362441
 21
-796.4741507177
 31
0.0
  0
LINE
  5
E0
330
1F
100
AcDbEntity
  8
0
  6
Continuous
 62
     7
370
    25
100
AcDbLine
 10
545.5190930854
 20
-1183.4345353258
 30
0.0
 11
600.7394536369
 21
-802.1510934229
 31
0.0
  0
LINE
  5
E1
330
1F
100
AcDbEntity
  8
0
  6
Continuous
 62
     7
370
    25
100
AcDbLine
 10
600.7394536369
 20
-802.1510934229
 30
0.0
 11
603.7084775427
 21
-802.5810899886
 31
0.0
  0
LINE
  5
E2
330
1F
100
AcDbEntity
  8
0
  6
Continuous
 62
     7
370
    25
100
AcDbLine
 10
548.1669147374
 20
-1186.0823569778
 30
0.0
 11
545.5190930854
 21
-1183.4345353258
 31
0.0
  0
ARC
  5
E3
330
1F
100
AcDbEntity
  8
0
  6
Continuous
 62
     7
370
    25
100
AcDbCircle
 10
580.9459609312
 20
-799.2844496517
 30
0.0
 40
20.00000000000001
100
AcDbArc
 50
351.7592881703
 51
7.0183322393
  0
LINE
  5
E4
330
1F
100
AcDbEntity
  8
0
  6
Continuous
 62
     7
370
    25
100
AcDbLine
 10
659.9142543757
 20
-501.2937982312
 30
0.0
 11
661.4142543757
 21
-498.6957220199
 31
0.0
  0
LINE
  5
E5
330
1F
100
AcDbEntity
  8
0
  6
Continuous
 62
     7
370
    25
100
AcDbLine
 10
661.4142543757
 20
-498.6957220199
 30
0.0
 11
699.9142543757
 21
-520.9237073837
 31
0.0
  0
LINE
  5
E6
330
1F
100
AcDbEntity
  8
0
  6
Continuous
 62
     7
370
    25
100
AcDbLine
 10
698.4142543757
 20
-523.521783595
 30
0.0
 11
699.9142543757
 21
-520.9237073837
 31
0.0
  0
LINE
  5
E7
330
1F
100
AcDbEntity
  8
0
  6
Continuous
 62
     7
370
    25
100
AcDbLine
 10
656.9142543757
 20
-199.5617474237
 30
0.0
 11
659.9142543757
 21
-199.5617474237
 31
0.0
  0
LINE
  5
E8
330
1F
100
AcDbEntity
  8
0
  6
Continuous
 62
     7
370
    25
100
AcDbLine
 10
659.9142543757
 20
-199.5617474237
 30
0.0
 11
659.9142543757
 21
-496.0976458085
 31
0.0
  0
LINE
  5
E9
330
1F
100
AcDbEntity
  8
0
  6
Continuous
 62
     7
370
    25
100
AcDbLine
 10
656.9142543757
 20
-496.0976458085
 30
0.0
 11
659.9142543757
 21
-496.0976458085
 31
0.0
  0
LINE
  5
EA
330
1F
100
AcDbEntity
  8
0
  6
Continuous
 62
     7
370
    25
100
AcDbLine
 10
656.9142543757
 20
-1279.8296966161
 30
0.0
 11
656.9142543757
 21
-1282.8296966161
 31
0.0
  0
LINE
  5
EB
330
1F
100
AcDbEntity
  8
0
  6
Continuous
 62
     7
370
    25
100
AcDbLine
 10
656.9142543757
 20
-1282.8296966161
 30
0.0
 11
644.9142543757
 21
-1282.8296966161
 31
0.0
  0
LINE
  5
EC
330
1F
100
AcDbEntity
  8
0
  6
Continuous
 62
     7
370
    25
100
AcDbLine
 10
644.9142543757
 20
-1282.8296966161
 30
0.0
 11
641.9142543757
 21
-1279.8296966161
 31
0.0
  0
ARC
  5
ED
330
1F
100
AcDbEntity
  8
0
  6
Continuous
 62
     7
370
    25
100
AcDbCircle
 10
662.9142543757
 20
-496.0976458085
 30
0.0
 40
3.000000000000621
100
AcDbArc
 50
180.0
 51
240.0
  0
LINE
  5
EE
330
1F
100
AcDbEntity
  8
0
  6
Continuous
 62
     7
370
    25
100
AcDbLine
 10
656.9142543757
 20
-1279.8296966161
 30
0.0
 11
659.9142543757
 21
-1279.8296966161
 31
0.0
  0
ARC
  5
EF
330
1F
100
AcDbEntity
  8
0
  6
Continuous
 62
     7
370
    25
100
AcDbCircle
 10
656.9142543757
 20
-1279.8296966161
 30
0.0
 40
3.0
100
AcDbArc
 50
270.0
 51
0.0
  0
LINE
  5
F0
330
1F
100
AcDbEntity
  8
0
  6
Continuous
 62
     7
370
    25
100
AcDbLine
 10
656.9142543757
 20
-1184.5617474237
 30
0.0
 11
659.9142543757
 21
-1184.5617474237
 31
0.0
  0
LINE
  5
F1
330
1F
100
AcDbEntity
  8
0
  6
Continuous
 62
     7
370
    25
100
AcDbLine
 10
659.9142543757
 20
-1184.5617474237
 30
0.0
 11
659.9142543757
 21
-1279.8296966161
 31
0.0
  0
LINE
  5
F2
330
1F
100
AcDbEntity
  8
0
  6
Continuous
 62
     7
370
    25
100
AcDbLine
 10
706.9142543757
 20
-538.2442154594
 30
0.0
 11
709.9142543757
 21
-538.2442154594
 31
0.0
  0
LINE
  5
F3
330
1F
100
AcDbEntity
  8
0
  6
Continuous
 62
     7
370
    25
100
AcDbLine
 10
709.9142543757
 20
-538.2442154594
 30
0.0
 11
709.9142543757
 21
-1142.4151777728
 31
0.0
  0
LINE
  5
F4
330
1F
100
AcDbEntity
  8
0
  6
Continuous
 62
     7
370
    25
100
AcDbLine
 10
706.9142543757
 20
-1142.4151777728
 30
0.0
 11
709.9142543757
 21
-1142.4151777728
 31
0.0
  0
ARC
  5
F5
330
1F
100
AcDbEntity
  8
0
  6
Continuous
 62
     7
370
    25
100
AcDbCircle
 10
689.9142543757
 20
-1142.4151777728
 30
0.0
 40
20.00000000000023
100
AcDbArc
 50
300.0
 51
0.0
  0
LINE
  5
F6
330
1F
100
AcDbEntity
  8
0
  6
Continuous
 62
     7
370
    25
100
AcDbLine
 10
698.4142543757
 20
-1157.1376096372
 30
0.0
 11
699.9142543757
 21
-1159.7356858485
 31
0.0
  0
LINE
  5
F7
330
1F
100
AcDbEntity
  8
0
  6
Continuous
 62
     7
370
    25
100
AcDbLine
 10
699.9142543757
 20
-1159.7356858485
 30
0.0
 11
661.4142543757
 21
-1181.9636712123
 31
0.0
  0
LINE
  5
F8
330
1F
100
AcDbEntity
  8
0
  6
Continuous
 62
     7
370
    25
100
AcDbLine
 10
659.9142543757
 20
-1179.365595001
 30
0.0
 11
661.4142543757
 21
-1181.9636712123
 31
0.0
  0
LINE
  5
F9
330
1F
100
AcDbEntity
  8
0
  6
Continuous
 62
     7
370
    25
100
AcDbLine
 10
656.9142543757
 20
584.1703033839
 30
0.0
 11
659.9142543757
 21
584.1703033839
 31
0.0
  0
LINE
  5
FA
330
1F
100
AcDbEntity
  8
0
  6
Continuous
 62
     7
370
    25
100
AcDbLine
 10
659.9142543757
 20
584.1703033839
 30
0.0
 11
659.9142543757
 21
488.9023541915
 31
0.0
  0
LINE
  5
FB
330
1F
100
AcDbEntity
  8
0
  6
Continuous
 62
     7
370
    25
100
AcDbLine
 10
656.9142543757
 20
488.9023541915
 30
0.0
 11
659.9142543757
 21
488.9023541915
 31
0.0
  0
LINE
  5
FC
330
1F
100
AcDbEntity
  8
0
  6
Continuous
 62
     7
370
    25
100
AcDbLine
 10
659.9142543757
 20
483.7062017688
 30
0.0
 11
661.4142543757
 21
486.3042779801
 31
0.0
  0
LINE
  5
FD
330
1F
100
AcDbEntity
  8
0
  6
Continuous
 62
     7
370
    25
100
AcDbLine
 10
661.4142543757
 20
486.3042779801
 30
0.0
 11
699.9142543757
 21
464.0762926163
 31
0.0
  0
LINE
  5
FE
330
1F
100
AcDbEntity
  8
0
  6
Continuous
 62
     7
370
    25
100
AcDbLine
 10
698.4142543757
 20
461.478216405
 30
0.0
 11
699.9142543757
 21
464.0762926163
 31
0.0
  0
ARC
  5
FF
330
1F
100
AcDbEntity
  8
0
  6
Continuous
 62
     7
370
    25
100
AcDbCircle
 10
662.9142543757
 20
488.9023541915
 30
0.0
 40
3.000000000000201
100
AcDbArc
 50
180.0
 51
240.0
  0
LINE
  5
100
330
1F
100
AcDbEntity
  8
0
  6
Continuous
 62
     7
370
    25
100
AcDbLine
 10
490.2982497753
 20
106.4883668574
 30
0.0
 11
493.2672736812
 21
106.0583702917
 31
0.0
  0
LINE
  5
101
330
1F
100
AcDbEntity
  8
0
  6
Continuous
 62
     7
370
    25
100
AcDbLine
 10
490.2982497753
 20
106.4883668574
 30
0.0
 11
545.5190930854
 21
487.7751420936
 31
0.0
  0
LINE
  5
102
330
1F
100
AcDbEntity
  8
0
  6
Continuous
 62
     7
370
    25
100
AcDbLine
 10
545.5190930854
 20
487.7751420936
 30
0.0
 11
549.063757555
 21
491.3198065632
 31
0.0
  0
ARC
  5
103
330
1F
100
AcDbEntity
  8
0
  6
Continuous
 62
     7
370
    25
100
AcDbCircle
 10
662.9142543757
 20
-1184.5617474237
 30
0.0
 40
3.0000000000005
100
AcDbArc
 50
120.0
 51
180.0
  0
LINE
  5
104
330
1F
100
AcDbEntity
  8
0
  6
Continuous
 62
     7
370
    25
100
AcDbLine
 10
706.9142543757
 20
446.7557845406
 30
0.0
 11
709.9142543757
 21
446.7557845406
 31
0.0
  0
LINE
  5
105
330
1F
100
AcDbEntity
  8
0
  6
Continuous
 62
     7
370
    25
100
AcDbLine
 10
709.9142543757
 20
446.7557845406
 30
0.0
 11
709.9142543757
 21
-157.4151777728
 31
0.0
  0
LINE
  5
106
330
1F
100
AcDbEntity
  8
0
  6
Continuous
 62
     7
370
    25
100
AcDbLine
 10
706.9142543757
 20
-157.4151777728
 30
0.0
 11
709.9142543757
 21
-157.4151777728
 31
0.0
  0
ARC
  5
107
330
1F
100
AcDbEntity
  8
0
  6
Continuous
 62
     7
370
    25
100
AcDbCircle
 10
689.9142543757
 20
-157.4151777728
 30
0.0
 40
20.00000000000011
100
AcDbArc
 50
300.0
 51
0.0
  0
LINE
  5
108
330
1F
100
AcDbEntity
  8
0
  6
Continuous
 62
     7
370
    25
100
AcDbLine
 10
698.4142543757
 20
-172.1376096372
 30
0.0
 11
699.9142543757
 21
-174.7356858485
 31
0.0
  0
LINE
  5
109
330
1F
100
AcDbEntity
  8
0
  6
Continuous
 62
     7
370
    25
100
AcDbLine
 10
699.9142543757
 20
-174.7356858485
 30
0.0
 11
661.4142543757
 21
-196.9636712123
 31
0.0
  0
LINE
  5
10A
330
1F
100
AcDbEntity
  8
0
  6
Continuous
 62
     7
370
    25
100
AcDbLine
 10
659.9142543757
 20
-194.365595001
 30
0.0
 11
661.4142543757
 21
-196.9636712123
 31
0.0
  0
ARC
  5
10B
330
1F
100
AcDbEntity
  8
0
  6
Continuous
 62
     7
370
    25
100
AcDbCircle
 10
662.9142543757
 20
-199.5617474237
 30
0.0
 40
3.0
100
AcDbArc
 50
120.0
 51
180.0
  0
ARC
  5
10C
330
1F
100
AcDbEntity
  8
0
  6
Continuous
 62
     7
370
    25
100
AcDbCircle
 10
689.9142543757
 20
446.7557845406
 30
0.0
 40
20.0
100
AcDbArc
 50
0.0
 51
60.0
  0
ARC
  5
10D
330
1F
100
AcDbEntity
  8
0
  6
Continuous
 62
     7
370
    25
100
AcDbCircle
 10
689.9142543757
 20
-538.2442154594
 30
0.0
 40
20.00000000000026
100
AcDbArc
 50
0.0
 51
60.0
  0
ARC
  5
10E
330
1F
100
AcDbEntity
  8
0
  6
Continuous
 62
     7
370
    25
100
AcDbCircle
 10
510.091742481
 20
103.6217230862
 30
0.0
 40
19.99999999999999
100
AcDbArc
 50
171.7592881703
 51
187.0183322393
  0
LINE
  5
10F
330
1F
100
AcDbEntity
  8
0
  6
Continuous
 62
     7
370
    25
100
AcDbLine
 10
644.9142543757
 20
587.1703033839
 30
0.0
 11
656.9142543757
 21
587.1703033839
 31
0.0
  0
LINE
  5
110
330
1F
100
AcDbEntity
  8
0
  6
Continuous
 62
     7
370
    25
100
AcDbLine
 10
656.9142543757
 20
584.1703033839
 30
0.0
 11
656.9142543757
 21
587.1703033839
 31
0.0
  0
LINE
  5
111
330
1F
100
AcDbEntity
  8
0
  6
Continuous
 62
     7
370
    25
100
AcDbLine
 10
641.9142543757
 20
584.1703033839
 30
0.0
 11
644.9142543757
 21
587.1703033839
 31
0.0
  0
ARC
  5
112
330
1F
100
AcDbEntity
  8
0
  6
Continuous
 62
     7
370
    25
100
AcDbCircle
 10
656.9142543757
 20
584.1703033839
 30
0.0
 40
3.000000000000114
100
AcDbArc
 50
0.0
 51
90.0
  0
LINE
  5
113
330
1F
100
AcDbEntity
  8
0
  6
Continuous
 62
     7
370
    25
100
AcDbLine
 10
-907.5857456243
 20
587.1703033839
 30
0.0
 11
-907.5857456243
 21
602.1703033839
 31
0.0
  0
LINE
  5
114
330
1F
100
AcDbEntity
  8
0
  6
Continuous
 62
     7
370
    25
100
AcDbLine
 10
-907.5857456243
 20
602.1703033839
 30
0.0
 11
-967.5857456243
 21
602.1703033839
 31
0.0
  0
LINE
  5
115
330
1F
100
AcDbEntity
  8
0
  6
Continuous
 62
     7
370
    25
100
AcDbLine
 10
-967.5857456243
 20
587.1703033839
 30
0.0
 11
-967.5857456243
 21
602.1703033839
 31
0.0
  0
LINE
  5
116
330
1F
100
AcDbEntity
  8
0
  6
Continuous
 62
     7
370
    25
100
AcDbLine
 10
-907.5857456243
 20
587.1703033839
 30
0.0
 11
-967.5857456243
 21
587.1703033839
 31
0.0
  0
LINE
  5
117
330
1F
100
AcDbEntity
  8
0
  6
Continuous
 62
     7
370
    25
100
AcDbLine
 10
387.4142543757
 20
587.1703033839
 30
0.0
 11
327.4142543757
 21
587.1703033839
 31
0.0
  0
LINE
  5
118
330
1F
100
AcDbEntity
  8
0
  6
Continuous
 62
     7
370
    25
100
AcDbLine
 10
387.4142543757
 20
602.1703033839
 30
0.0
 11
387.4142543757
 21
587.1703033839
 31
0.0
  0
LINE
  5
119
330
1F
100
AcDbEntity
  8
0
  6
Continuous
 62
     7
370
    25
100
AcDbLine
 10
387.4142543757
 20
602.1703033839
 30
0.0
 11
327.4142543757
 21
602.1703033839
 31
0.0
  0
LINE
  5
11A
330
1F
100
AcDbEntity
  8
0
  6
Continuous
 62
     7
370
    25
100
AcDbLine
 10
327.4142543757
 20
602.1703033839
 30
0.0
 11
327.4142543757
 21
587.1703033839
 31
0.0
  0
LINE
  5
11B
330
1F
100
AcDbEntity
  8
0
  6
Continuous
 62
     7
370
    25
100
AcDbLine
 10
147.4142543757
 20
602.1703033839
 30
0.0
 11
207.4142543757
 21
602.1703033839
 31
0.0
  0
LINE
  5
11C
330
1F
100
AcDbEntity
  8
0
  6
Continuous
 62
     7
370
    25
100
AcDbLine
 10
147.4142543757
 20
587.1703033839
 30
0.0
 11
147.4142543757
 21
602.1703033839
 31
0.0
  0
LINE
  5
11D
330
1F
100
AcDbEntity
  8
0
  6
Continuous
 62
     7
370
    25
100
AcDbLine
 10
147.4142543757
 20
587.1703033839
 30
0.0
 11
207.4142543757
 21
587.1703033839
 31
0.0
  0
LINE
  5
11E
330
1F
100
AcDbEntity
  8
0
  6
Continuous
 62
     7
370
    25
100
AcDbLine
 10
207.4142543757
 20
587.1703033839
 30
0.0
 11
207.4142543757
 21
602.1703033839
 31
0.0
  0
LINE
  5
11F
330
1F
100
AcDbEntity
  8
0
  6
Continuous
 62
     7
370
    25
100
AcDbLine
 10
-32.5857456243
 20
602.1703033839
 30
0.0
 11
27.4142543757
 21
602.1703033839
 31
0.0
  0
LINE
  5
120
330
1F
100
AcDbEntity
  8
0
  6
Continuous
 62
     7
370
    25
100
AcDbLine
 10
-32.5857456243
 20
587.1703033839
 30
0.0
 11
-32.5857456243
 21
602.1703033839
 31
0.0
  0
LINE
  5
121
330
1F
100
AcDbEntity
  8
0
  6
Continuous
 62
     7
370
    25
100
AcDbLine
 10
-32.5857456243
 20
587.1703033839
 30
0.0
 11
27.4142543757
 21
587.1703033839
 31
0.0
  0
LINE
  5
122
330
1F
100
AcDbEntity
  8
0
  6
Continuous
 62
     7
370
    25
100
AcDbLine
 10
27.4142543757
 20
587.1703033839
 30
0.0
 11
27.4142543757
 21
602.1703033839
 31
0.0
  0
LINE
  5
123
330
1F
100
AcDbEntity
  8
0
  6
Continuous
 62
     7
370
    25
100
AcDbLine
 10
-607.5857456243
 20
602.1703033839
 30
0.0
 11
-547.5857456243
 21
602.1703033839
 31
0.0
  0
LINE
  5
124
330
1F
100
AcDbEntity
  8
0
  6
Continuous
 62
     7
370
    25
100
AcDbLine
 10
-607.5857456243
 20
587.1703033839
 30
0.0
 11
-607.5857456243
 21
602.1703033839
 31
0.0
  0
LINE
  5
125
330
1F
100
AcDbEntity
  8
0
  6
Continuous
 62
     7
370
    25
100
AcDbLine
 10
-607.5857456243
 20
587.1703033839
 30
0.0
 11
-547.5857456243
 21
587.1703033839
 31
0.0
  0
LINE
  5
126
330
1F
100
AcDbEntity
  8
0
  6
Continuous
 62
     7
370
    25
100
AcDbLine
 10
-547.5857456243
 20
587.1703033839
 30
0.0
 11
-547.5857456243
 21
602.1703033839
 31
0.0
  0
LINE
  5
127
330
1F
100
AcDbEntity
  8
0
  6
Continuous
 62
     7
370
    25
100
AcDbLine
 10
-727.5857456243
 20
587.1703033839
 30
0.0
 11
-787.5857456243
 21
587.1703033839
 31
0.0
  0
LINE
  5
128
330
1F
100
AcDbEntity
  8
0
  6
Continuous
 62
     7
370
    25
100
AcDbLine
 10
-727.5857456243
 20
602.1703033839
 30
0.0
 11
-727.5857456243
 21
587.1703033839
 31
0.0
  0
LINE
  5
129
330
1F
100
AcDbEntity
  8
0
  6
Continuous
 62
     7
370
    25
100
AcDbLine
 10
-727.5857456243
 20
602.1703033839
 30
0.0
 11
-787.5857456243
 21
602.1703033839
 31
0.0
  0
LINE
  5
12A
330
1F
100
AcDbEntity
  8
0
  6
Continuous
 62
     7
370
    25
100
AcDbLine
 10
-787.5857456243
 20
602.1703033839
 30
0.0
 11
-787.5857456243
 21
587.1703033839
 31
0.0
  0
LINE
  5
12B
330
1F
100
AcDbEntity
  8
0
  6
Continuous
 62
     7
370
    25
100
AcDbLine
 10
163.8023212835
 20
435.5233226894
 30
0.0
 11
549.063757555
 21
491.3198065632
 31
0.0
  0
ARC
  5
12C
330
1F
100
AcDbEntity
  8
0
  6
Continuous
 62
     7
370
    25
100
AcDbCircle
 10
161.365674078
 20
452.3477914892
 30
0.0
 40
17.00000000000006
100
AcDbArc
 50
262.9816677607
 51
278.2407118297
  0
LINE
  5
12D
330
1F
100
AcDbEntity
  8
0
  6
Continuous
 62
     7
370
    25
100
AcDbLine
 10
-738.7301997258
 20
546.0296734182
 30
0.0
 11
159.288496605
 21
435.475170657
 31
0.0
  0
ARC
  5
12E
330
1F
100
AcDbEntity
  8
0
  6
Continuous
 62
     7
370
    25
100
AcDbCircle
 10
-741.5404986599
 20
523.2020099394
 30
0.0
 40
23.0
100
AcDbArc
 50
82.9816677607
 51
98.2407118297
  0
LINE
  5
12F
330
1F
100
AcDbEntity
  8
0
  6
Continuous
 62
     7
370
    25
100
AcDbLine
 10
-1128.3384059859
 20
490.4229637456
 30
0.0
 11
-744.8371389967
 21
545.9645265509
 31
0.0
  0
LINE
  5
130
330
1F
100
AcDbEntity
  8
0
  6
Continuous
 62
     7
370
    25
100
AcDbLine
 10
-1141.6250611455
 20
503.7096189052
 30
0.0
 11
-1128.3384059859
 21
490.4229637456
 31
0.0
  0
ARC
  5
131
330
1F
100
AcDbEntity
  8
0
  6
Continuous
 62
     7
370
    25
100
AcDbCircle
 10
-1143.7463814891
 20
501.5882985616
 30
0.0
 40
3.000000000000145
100
AcDbArc
 50
45.0
 51
125.4059317731
  0
ARC
  5
132
330
1F
100
AcDbEntity
  8
0
  6
Continuous
 62
     7
370
    25
100
AcDbCircle
 10
-1154.1749615435
 20
516.2595193032
 30
0.0
 40
15.00000000000074
100
AcDbArc
 50
144.5940682269
 51
305.4059317731
  0
ARC
  5
133
330
1F
100
AcDbEntity
  8
0
  6
Continuous
 62
     7
370
    25
100
AcDbCircle
 10
-1168.8461822851
 20
526.6880993576
 30
0.0
 40
3.000000000000265
100
AcDbArc
 50
324.5940682269
 51
45.0
  0
LINE
  5
134
330
1F
100
AcDbEntity
  8
0
  6
Continuous
 62
     7
370
    25
100
AcDbLine
 10
-1222.0857456243
 20
584.1703033839
 30
0.0
 11
-1166.7248619415
 21
528.8094197012
 31
0.0
  0
LINE
  5
135
330
1F
100
AcDbEntity
  8
0
  6
Continuous
 62
     7
370
    25
100
AcDbLine
 10
-1222.0857456243
 20
599.1703033839
 30
0.0
 11
-1222.0857456243
 21
584.1703033839
 31
0.0
  0
LINE
  5
136
330
1F
100
AcDbEntity
  8
0
  6
Continuous
 62
     7
370
    25
100
AcDbLine
 10
-1126.8177964318
 20
599.1703033839
 30
0.0
 11
-1222.0857456243
 21
599.1703033839
 31
0.0
  0
ARC
  5
137
330
1F
100
AcDbEntity
  8
0
  6
Continuous
 62
     7
370
    25
100
AcDbCircle
 10
-1126.8177964318
 20
605.1703033839
 30
0.0
 40
6.0
100
AcDbArc
 50
270.0
 51
330.0
  0
LINE
  5
138
330
1F
100
AcDbEntity
  8
0
  6
Continuous
 62
     7
370
    25
100
AcDbLine
 10
-1099.3936586453
 20
640.6703033839
 30
0.0
 11
-1121.6216440091
 21
602.1703033839
 31
0.0
  0
ARC
  5
139
330
1F
100
AcDbEntity
  8
0
  6
Continuous
 62
     7
370
    25
100
AcDbCircle
 10
-1084.671226781
 20
632.1703033839
 30
0.0
 40
17.00000000000011
100
AcDbArc
 50
90.0
 51
150.0
  0
LINE
  5
13A
330
1F
100
AcDbEntity
  8
0
  6
Continuous
 62
     7
370
    25
100
AcDbLine
 10
-480.5002644675
 20
649.1703033839
 30
0.0
 11
-1084.671226781
 21
649.1703033839
 31
0.0
  0
ARC
  5
13B
330
1F
100
AcDbEntity
  8
0
  6
Continuous
 62
     7
370
    25
100
AcDbCircle
 10
-480.5002644675
 20
632.1703033839
 30
0.0
 40
17.00000000000009
100
AcDbArc
 50
30.0
 51
90.0
  0
LINE
  5
13C
330
1F
100
AcDbEntity
  8
0
  6
Continuous
 62
     7
370
    25
100
AcDbLine
 10
-443.5498472394
 20
602.1703033839
 30
0.0
 11
-465.7778326032
 21
640.6703033839
 31
0.0
  0
ARC
  5
13D
330
1F
100
AcDbEntity
  8
0
  6
Continuous
 62
     7
370
    25
100
AcDbCircle
 10
-438.3536948167
 20
605.1703033839
 30
0.0
 40
6.000000000000227
100
AcDbArc
 50
210.0
 51
270.0
  0
LINE
  5
13E
330
1F
100
AcDbEntity
  8
0
  6
Continuous
 62
     7
370
    25
100
AcDbLine
 10
-141.8177964318
 20
599.1703033839
 30
0.0
 11
-438.3536948167
 21
599.1703033839
 31
0.0
  0
ARC
  5
13F
330
1F
100
AcDbEntity
  8
0
  6
Continuous
 62
     7
370
    25
100
AcDbCircle
 10
-141.8177964318
 20
605.1703033839
 30
0.0
 40
6.000000000000082
100
AcDbArc
 50
270.0
 51
330.0
  0
LINE
  5
140
330
1F
100
AcDbEntity
  8
0
  6
Continuous
 62
     7
370
    25
100
AcDbLine
 10
-114.3936586453
 20
640.6703033839
 30
0.0
 11
-136.6216440091
 21
602.1703033839
 31
0.0
  0
ARC
  5
141
330
1F
100
AcDbEntity
  8
0
  6
Continuous
 62
     7
370
    25
100
AcDbCircle
 10
-99.671226781
 20
632.1703033839
 30
0.0
 40
16.99999999999995
100
AcDbArc
 50
90.0
 51
150.0
  0
LINE
  5
142
330
1F
100
AcDbEntity
  8
0
  6
Continuous
 62
     7
370
    25
100
AcDbLine
 10
504.4997355325
 20
649.1703033839
 30
0.0
 11
-99.671226781
 21
649.1703033839
 31
0.0
  0
ARC
  5
143
330
1F
100
AcDbEntity
  8
0
  6
Continuous
 62
     7
370
    25
100
AcDbCircle
 10
504.4997355325
 20
632.1703033839
 30
0.0
 40
16.99999999999998
100
AcDbArc
 50
30.0
 51
90.0
  0
LINE
  5
144
330
1F
100
AcDbEntity
  8
0
  6
Continuous
 62
     7
370
    25
100
AcDbLine
 10
541.4501527606
 20
602.1703033839
 30
0.0
 11
519.2221673968
 21
640.6703033839
 31
0.0
  0
ARC
  5
145
330
1F
100
AcDbEntity
  8
0
  6
Continuous
 62
     7
370
    25
100
AcDbCircle
 10
546.6463051833
 20
605.1703033839
 30
0.0
 40
6.000000000000284
100
AcDbArc
 50
210.0
 51
270.0
  0
LINE
  5
146
330
1F
100
AcDbEntity
  8
0
  6
Continuous
 62
     7
370
    25
100
AcDbLine
 10
641.9142543757
 20
599.1703033839
 30
0.0
 11
546.6463051833
 21
599.1703033839
 31
0.0
  0
LINE
  5
147
330
1F
100
AcDbEntity
  8
0
  6
Continuous
 62
     7
370
    25
100
AcDbLine
 10
641.9142543757
 20
584.1703033839
 30
0.0
 11
641.9142543757
 21
599.1703033839
 31
0.0
  0
LINE
  5
148
330
1F
100
AcDbEntity
  8
0
  6
Continuous
 62
     7
370
    25
100
AcDbLine
 10
546.6463051833
 20
602.1703033839
 30
0.0
 11
546.6463051833
 21
599.1703033839
 31
0.0
  0
LINE
  5
149
330
1F
100
AcDbEntity
  8
0
  6
Continuous
 62
     7
370
    25
100
AcDbLine
 10
546.6463051833
 20
602.1703033839
 30
0.0
 11
641.9142543757
 21
602.1703033839
 31
0.0
  0
LINE
  5
14A
330
1F
100
AcDbEntity
  8
0
  6
Continuous
 62
     7
370
    25
100
AcDbLine
 10
641.9142543757
 20
602.1703033839
 30
0.0
 11
641.9142543757
 21
599.1703033839
 31
0.0
  0
LINE
  5
14B
330
1F
100
AcDbEntity
  8
0
  6
Continuous
 62
     7
370
    25
100
AcDbLine
 10
644.9142543757
 20
599.1703033839
 30
0.0
 11
641.9142543757
 21
599.1703033839
 31
0.0
  0
LINE
  5
14C
330
1F
100
AcDbEntity
  8
0
  6
Continuous
 62
     7
370
    25
100
AcDbLine
 10
644.9142543757
 20
599.1703033839
 30
0.0
 11
644.9142543757
 21
587.1703033839
 31
0.0
  0
LINE
  5
14D
330
1F
100
AcDbEntity
  8
0
  6
Continuous
 62
     7
370
    25
100
AcDbLine
 10
644.9142543757
 20
587.1703033839
 30
0.0
 11
641.9142543757
 21
584.1703033839
 31
0.0
  0
ARC
  5
14E
330
1F
100
AcDbEntity
  8
0
  6
Continuous
 62
     7
370
    25
100
AcDbCircle
 10
641.9142543757
 20
599.1703033839
 30
0.0
 40
2.999999999999886
100
AcDbArc
 50
0.0
 51
90.0
  0
LINE
  5
14F
330
1F
100
AcDbEntity
  8
0
  6
Continuous
 62
     7
370
    25
100
AcDbLine
 10
521.8202436082
 20
642.1703033839
 30
0.0
 11
544.048228972
 21
603.6703033839
 31
0.0
  0
LINE
  5
150
330
1F
100
AcDbEntity
  8
0
  6
Continuous
 62
     7
370
    25
100
AcDbLine
 10
544.048228972
 20
603.6703033839
 30
0.0
 11
541.4501527606
 21
602.1703033839
 31
0.0
  0
LINE
  5
151
330
1F
100
AcDbEntity
  8
0
  6
Continuous
 62
     7
370
    25
100
AcDbLine
 10
521.8202436082
 20
642.1703033839
 30
0.0
 11
519.2221673968
 21
640.6703033839
 31
0.0
  0
ARC
  5
152
330
1F
100
AcDbEntity
  8
0
  6
Continuous
 62
     7
370
    25
100
AcDbCircle
 10
504.4997355325
 20
632.1703033839
 30
0.0
 40
20.0
100
AcDbArc
 50
30.0
 51
90.0
  0
LINE
  5
153
330
1F
100
AcDbEntity
  8
0
  6
Continuous
 62
     7
370
    25
100
AcDbLine
 10
504.4997355325
 20
652.1703033839
 30
0.0
 11
504.4997355325
 21
649.1703033839
 31
0.0
  0
LINE
  5
154
330
1F
100
AcDbEntity
  8
0
  6
Continuous
 62
     7
370
    25
100
AcDbLine
 10
545.5190930854
 20
487.7751420936
 30
0.0
 11
164.2323178492
 21
432.5542987835
 31
0.0
  0
LINE
  5
155
330
1F
100
AcDbEntity
  8
0
  6
Continuous
 62
     7
370
    25
100
AcDbLine
 10
164.2323178492
 20
432.5542987835
 30
0.0
 11
163.8023212835
 21
435.5233226894
 31
0.0
  0
LINE
  5
156
330
1F
100
AcDbEntity
  8
0
  6
Continuous
 62
     7
370
    25
100
AcDbLine
 10
549.063757555
 20
491.3198065632
 30
0.0
 11
545.5190930854
 21
487.7751420936
 31
0.0
  0
LINE
  5
157
330
1F
100
AcDbEntity
  8
0
  6
Continuous
 62
     7
370
    25
100
AcDbLine
 10
-99.671226781
 20
652.1703033839
 30
0.0
 11
504.4997355325
 21
652.1703033839
 31
0.0
  0
LINE
  5
158
330
1F
100
AcDbEntity
  8
0
  6
Continuous
 62
     7
370
    25
100
AcDbLine
 10
-99.671226781
 20
652.1703033839
 30
0.0
 11
-99.671226781
 21
649.1703033839
 31
0.0
  0
ARC
  5
159
330
1F
100
AcDbEntity
  8
0
  6
Continuous
 62
     7
370
    25
100
AcDbCircle
 10
161.365674078
 20
452.3477914892
 30
0.0
 40
19.99999999999996
100
AcDbArc
 50
262.9816677607
 51
278.2407118297
  0
LINE
  5
15A
330
1F
100
AcDbEntity
  8
0
  6
Continuous
 62
     7
370
    25
100
AcDbLine
 10
158.9219358745
 20
432.4976493337
 30
0.0
 11
159.288496605
 21
435.475170657
 31
0.0
  0
LINE
  5
15B
330
1F
100
AcDbEntity
  8
0
  6
Continuous
 62
     7
370
    25
100
AcDbLine
 10
158.9219358745
 20
432.4976493337
 30
0.0
 11
-739.0967604563
 21
543.0521520949
 31
0.0
  0
LINE
  5
15C
330
1F
100
AcDbEntity
  8
0
  6
Continuous
 62
     7
370
    25
100
AcDbLine
 10
-739.0967604563
 20
543.0521520949
 30
0.0
 11
-738.7301997258
 21
546.0296734182
 31
0.0
  0
ARC
  5
15D
330
1F
100
AcDbEntity
  8
0
  6
Continuous
 62
     7
370
    25
100
AcDbCircle
 10
546.6463051833
 20
605.1703033839
 30
0.0
 40
3.000000000000152
100
AcDbArc
 50
210.0
 51
270.0
  0
ARC
  5
15E
330
1F
100
AcDbEntity
  8
0
  6
Continuous
 62
     7
370
    25
100
AcDbCircle
 10
-141.8177964318
 20
605.1703033839
 30
0.0
 40
3.000000000000082
100
AcDbArc
 50
270.0
 51
330.0
  0
LINE
  5
15F
330
1F
100
AcDbEntity
  8
0
  6
Continuous
 62
     7
370
    25
100
AcDbLine
 10
-139.2197202205
 20
603.6703033839
 30
0.0
 11
-136.6216440091
 21
602.1703033839
 31
0.0
  0
LINE
  5
160
330
1F
100
AcDbEntity
  8
0
  6
Continuous
 62
     7
370
    25
100
AcDbLine
 10
-141.8177964318
 20
602.1703033839
 30
0.0
 11
-141.8177964318
 21
599.1703033839
 31
0.0
  0
LINE
  5
161
330
1F
100
AcDbEntity
  8
0
  6
Continuous
 62
     7
370
    25
100
AcDbLine
 10
-139.2197202205
 20
603.6703033839
 30
0.0
 11
-116.9917348567
 21
642.1703033839
 31
0.0
  0
LINE
  5
162
330
1F
100
AcDbEntity
  8
0
  6
Continuous
 62
     7
370
    25
100
AcDbLine
 10
-116.9917348567
 20
642.1703033839
 30
0.0
 11
-114.3936586453
 21
640.6703033839
 31
0.0
  0
LINE
  5
163
330
1F
100
AcDbEntity
  8
0
  6
Continuous
 62
     7
370
    25
100
AcDbLine
 10
-438.3536948167
 20
602.1703033839
 30
0.0
 11
-141.8177964318
 21
602.1703033839
 31
0.0
  0
LINE
  5
164
330
1F
100
AcDbEntity
  8
0
  6
Continuous
 62
     7
370
    25
100
AcDbLine
 10
-438.3536948167
 20
602.1703033839
 30
0.0
 11
-438.3536948167
 21
599.1703033839
 31
0.0
  0
ARC
  5
165
330
1F
100
AcDbEntity
  8
0
  6
Continuous
 62
     7
370
    25
100
AcDbCircle
 10
-99.671226781
 20
632.1703033839
 30
0.0
 40
20.00000000000015
100
AcDbArc
 50
90.0
 51
150.0
  0
ARC
  5
166
330
1F
100
AcDbEntity
  8
0
  6
Continuous
 62
     7
370
    25
100
AcDbCircle
 10
-480.5002644675
 20
632.1703033839
 30
0.0
 40
20.00000000000043
100
AcDbArc
 50
30.0
 51
90.0
  0
LINE
  5
167
330
1F
100
AcDbEntity
  8
0
  6
Continuous
 62
     7
370
    25
100
AcDbLine
 10
-463.1797563918
 20
642.1703033839
 30
0.0
 11
-465.7778326032
 21
640.6703033839
 31
0.0
  0
LINE
  5
168
330
1F
100
AcDbEntity
  8
0
  6
Continuous
 62
     7
370
    25
100
AcDbLine
 10
-480.5002644675
 20
652.1703033839
 30
0.0
 11
-480.5002644675
 21
649.1703033839
 31
0.0
  0
LINE
  5
169
330
1F
100
AcDbEntity
  8
0
  6
Continuous
 62
     7
370
    25
100
AcDbLine
 10
-1084.671226781
 20
652.1703033839
 30
0.0
 11
-480.5002644675
 21
652.1703033839
 31
0.0
  0
LINE
  5
16A
330
1F
100
AcDbEntity
  8
0
  6
Continuous
 62
     7
370
    25
100
AcDbLine
 10
-1084.671226781
 20
652.1703033839
 30
0.0
 11
-1084.671226781
 21
649.1703033839
 31
0.0
  0
LINE
  5
16B
330
1F
100
AcDbEntity
  8
0
  6
Continuous
 62
     7
370
    25
100
AcDbLine
 10
-463.1797563918
 20
642.1703033839
 30
0.0
 11
-440.951771028
 21
603.6703033839
 31
0.0
  0
LINE
  5
16C
330
1F
100
AcDbEntity
  8
0
  6
Continuous
 62
     7
370
    25
100
AcDbLine
 10
-440.951771028
 20
603.6703033839
 30
0.0
 11
-443.5498472394
 21
602.1703033839
 31
0.0
  0
ARC
  5
16D
330
1F
100
AcDbEntity
  8
0
  6
Continuous
 62
     7
370
    25
100
AcDbCircle
 10
-438.3536948167
 20
605.1703033839
 30
0.0
 40
3.000000000000621
100
AcDbArc
 50
210.0
 51
270.0
  0
LINE
  5
16E
330
1F
100
AcDbEntity
  8
0
  6
Continuous
 62
     7
370
    25
100
AcDbLine
 10
-744.4071424311
 20
542.995502645
 30
0.0
 11
-1125.6905843339
 21
487.7751420936
 31
0.0
  0
LINE
  5
16F
330
1F
100
AcDbEntity
  8
0
  6
Continuous
 62
     7
370
    25
100
AcDbLine
 10
-1125.6905843339
 20
487.7751420936
 30
0.0
 11
-1128.3384059859
 21
490.4229637456
 31
0.0
  0
LINE
  5
170
330
1F
100
AcDbEntity
  8
0
  6
Continuous
 62
     7
370
    25
100
AcDbLine
 10
-744.4071424311
 20
542.995502645
 30
0.0
 11
-744.8371389967
 21
545.9645265509
 31
0.0
  0
ARC
  5
171
330
1F
100
AcDbEntity
  8
0
  6
Continuous
 62
     7
370
    25
100
AcDbCircle
 10
-1084.671226781
 20
632.1703033839
 30
0.0
 40
20.00000000000029
100
AcDbArc
 50
90.0
 51
150.0
  0
LINE
  5
172
330
1F
100
AcDbEntity
  8
0
  6
Continuous
 62
     7
370
    25
100
AcDbLine
 10
-1101.9917348567
 20
642.1703033839
 30
0.0
 11
-1099.3936586453
 21
640.6703033839
 31
0.0
  0
LINE
  5
173
330
1F
100
AcDbEntity
  8
0
  6
Continuous
 62
     7
370
    25
100
AcDbLine
 10
-1222.0857456243
 20
602.1703033839
 30
0.0
 11
-1126.8177964318
 21
602.1703033839
 31
0.0
  0
LINE
  5
174
330
1F
100
AcDbEntity
  8
0
  6
Continuous
 62
     7
370
    25
100
AcDbLine
 10
-1126.8177964318
 20
602.1703033839
 30
0.0
 11
-1126.8177964318
 21
599.1703033839
 31
0.0
  0
LINE
  5
175
330
1F
100
AcDbEntity
  8
0
  6
Continuous
 62
     7
370
    25
100
AcDbLine
 10
-1222.0857456243
 20
602.1703033839
 30
0.0
 11
-1222.0857456243
 21
599.1703033839
 31
0.0
  0
ARC
  5
176
330
1F
100
AcDbEntity
  8
0
  6
Continuous
 62
     7
370
    25
100
AcDbCircle
 10
-1126.8177964318
 20
605.1703033839
 30
0.0
 40
3.0000000000005
100
AcDbArc
 50
270.0
 51
330.0
  0
LINE
  5
177
330
1F
100
AcDbEntity
  8
0
  6
Continuous
 62
     7
370
    25
100
AcDbLine
 10
-1124.2197202205
 20
603.6703033839
 30
0.0
 11
-1121.6216440091
 21
602.1703033839
 31
0.0
  0
LINE
  5
178
330
1F
100
AcDbEntity
  8
0
  6
Continuous
 62
     7
370
    25
100
AcDbLine
 10
-1124.2197202205
 20
603.6703033839
 30
0.0
 11
-1101.9917348567
 21
642.1703033839
 31
0.0
  0
ARC
  5
179
330
1F
100
AcDbEntity
  8
0
  6
Continuous
 62
     7
370
    25
100
AcDbCircle
 10
-741.5404986599
 20
523.2020099394
 30
0.0
 40
20.00000000000009
100
AcDbArc
 50
82.9816677607
 51
98.2407118297
  0
LINE
  5
17A
330
1F
100
AcDbEntity
  8
0
  6
Continuous
 62
     7
370
    25
100
AcDbLine
 10
-1225.0857456243
 20
599.1703033839
 30
0.0
 11
-1222.0857456243
 21
599.1703033839
 31
0.0
  0
ARC
  5
17B
330
1F
100
AcDbEntity
  8
0
  6
Continuous
 62
     7
370
    25
100
AcDbCircle
 10
-1222.0857456243
 20
599.1703033839
 30
0.0
 40
3.0
100
AcDbArc
 50
90.0
 51
180.0
  0
LINE
  5
17C
330
1F
100
AcDbEntity
  8
0
  6
Continuous
 62
     7
370
    25
100
AcDbLine
 10
-1225.0857456243
 20
587.1703033839
 30
0.0
 11
-1225.0857456243
 21
599.1703033839
 31
0.0
  0
LINE
  5
17D
330
1F
100
AcDbEntity
  8
0
  6
Continuous
 62
     7
370
    25
100
AcDbLine
 10
-1222.0857456243
 20
584.1703033839
 30
0.0
 11
-1225.0857456243
 21
587.1703033839
 31
0.0
  0
LINE
  5
17E
330
1F
100
AcDbEntity
  8
0
  6
Continuous
 62
     7
370
    25
100
AcDbLine
 10
-1237.0857456243
 20
584.1703033839
 30
0.0
 11
-1240.0857456243
 21
584.1703033839
 31
0.0
  0
ARC
  5
17F
330
1F
100
AcDbEntity
  8
0
  6
Continuous
 62
     7
370
    25
100
AcDbCircle
 10
-1237.0857456243
 20
584.1703033839
 30
0.0
 40
3.000000000000114
100
AcDbArc
 50
90.0
 51
180.0
  0
LINE
  5
180
330
1F
100
AcDbEntity
  8
0
  6
Continuous
 62
     7
370
    25
100
AcDbLine
 10
-1237.0857456243
 20
584.1703033839
 30
0.0
 11
-1237.0857456243
 21
587.1703033839
 31
0.0
  0
LINE
  5
181
330
1F
100
AcDbEntity
  8
0
  6
Continuous
 62
     7
370
    25
100
AcDbLine
 10
-1225.0857456243
 20
329.6703033839
 30
0.0
 11
-1240.0857456243
 21
329.6703033839
 31
0.0
  0
LINE
  5
182
330
1F
100
AcDbEntity
  8
0
  6
Continuous
 62
     7
370
    25
100
AcDbLine
 10
-1240.0857456243
 20
269.6703033839
 30
0.0
 11
-1240.0857456243
 21
329.6703033839
 31
0.0
  0
LINE
  5
183
330
1F
100
AcDbEntity
  8
0
  6
Continuous
 62
     7
370
    25
100
AcDbLine
 10
-1225.0857456243
 20
269.6703033839
 30
0.0
 11
-1240.0857456243
 21
269.6703033839
 31
0.0
  0
LINE
  5
184
330
1F
100
AcDbEntity
  8
0
  6
Continuous
 62
     7
370
    25
100
AcDbLine
 10
-1225.0857456243
 20
269.6703033839
 30
0.0
 11
-1225.0857456243
 21
329.6703033839
 31
0.0
  0
LINE
  5
185
330
1F
100
AcDbEntity
  8
0
  6
Continuous
 62
     7
370
    25
100
AcDbLine
 10
-1240.0857456243
 20
-1025.3296966161
 30
0.0
 11
-1240.0857456243
 21
-965.3296966161
 31
0.0
  0
LINE
  5
186
330
1F
100
AcDbEntity
  8
0
  6
Continuous
 62
     7
370
    25
100
AcDbLine
 10
-1240.0857456243
 20
-1025.3296966161
 30
0.0
 11
-1225.0857456243
 21
-1025.3296966161
 31
0.0
  0
LINE
  5
187
330
1F
100
AcDbEntity
  8
0
  6
Continuous
 62
     7
370
    25
100
AcDbLine
 10
-1225.0857456243
 20
-1025.3296966161
 30
0.0
 11
-1225.0857456243
 21
-965.3296966161
 31
0.0
  0
LINE
  5
188
330
1F
100
AcDbEntity
  8
0
  6
Continuous
 62
     7
370
    25
100
AcDbLine
 10
-1240.0857456243
 20
-965.3296966161
 30
0.0
 11
-1225.0857456243
 21
-965.3296966161
 31
0.0
  0
LINE
  5
189
330
1F
100
AcDbEntity
  8
0
  6
Continuous
 62
     7
370
    25
100
AcDbLine
 10
-1225.0857456243
 20
-785.3296966161
 30
0.0
 11
-1225.0857456243
 21
-845.3296966161
 31
0.0
  0
LINE
  5
18A
330
1F
100
AcDbEntity
  8
0
  6
Continuous
 62
     7
370
    25
100
AcDbLine
 10
-1225.0857456243
 20
-785.3296966161
 30
0.0
 11
-1240.0857456243
 21
-785.3296966161
 31
0.0
  0
LINE
  5
18B
330
1F
100
AcDbEntity
  8
0
  6
Continuous
 62
     7
370
    25
100
AcDbLine
 10
-1240.0857456243
 20
-785.3296966161
 30
0.0
 11
-1240.0857456243
 21
-845.3296966161
 31
0.0
  0
LINE
  5
18C
330
1F
100
AcDbEntity
  8
0
  6
Continuous
 62
     7
370
    25
100
AcDbLine
 10
-1225.0857456243
 20
-845.3296966161
 30
0.0
 11
-1240.0857456243
 21
-845.3296966161
 31
0.0
  0
LINE
  5
18D
330
1F
100
AcDbEntity
  8
0
  6
Continuous
 62
     7
370
    25
100
AcDbLine
 10
-1225.0857456243
 20
-605.3296966161
 30
0.0
 11
-1225.0857456243
 21
-665.3296966161
 31
0.0
  0
LINE
  5
18E
330
1F
100
AcDbEntity
  8
0
  6
Continuous
 62
     7
370
    25
100
AcDbLine
 10
-1225.0857456243
 20
-605.3296966161
 30
0.0
 11
-1240.0857456243
 21
-605.3296966161
 31
0.0
  0
LINE
  5
18F
330
1F
100
AcDbEntity
  8
0
  6
Continuous
 62
     7
370
    25
100
AcDbLine
 10
-1240.0857456243
 20
-605.3296966161
 30
0.0
 11
-1240.0857456243
 21
-665.3296966161
 31
0.0
  0
LINE
  5
190
330
1F
100
AcDbEntity
  8
0
  6
Continuous
 62
     7
370
    25
100
AcDbLine
 10
-1225.0857456243
 20
-665.3296966161
 30
0.0
 11
-1240.0857456243
 21
-665.3296966161
 31
0.0
  0
LINE
  5
191
330
1F
100
AcDbEntity
  8
0
  6
Continuous
 62
     7
370
    25
100
AcDbLine
 10
-1225.0857456243
 20
-30.3296966161
 30
0.0
 11
-1225.0857456243
 21
-90.3296966161
 31
0.0
  0
LINE
  5
192
330
1F
100
AcDbEntity
  8
0
  6
Continuous
 62
     7
370
    25
100
AcDbLine
 10
-1225.0857456243
 20
-30.3296966161
 30
0.0
 11
-1240.0857456243
 21
-30.3296966161
 31
0.0
  0
LINE
  5
193
330
1F
100
AcDbEntity
  8
0
  6
Continuous
 62
     7
370
    25
100
AcDbLine
 10
-1240.0857456243
 20
-30.3296966161
 30
0.0
 11
-1240.0857456243
 21
-90.3296966161
 31
0.0
  0
LINE
  5
194
330
1F
100
AcDbEntity
  8
0
  6
Continuous
 62
     7
370
    25
100
AcDbLine
 10
-1225.0857456243
 20
-90.3296966161
 30
0.0
 11
-1240.0857456243
 21
-90.3296966161
 31
0.0
  0
LINE
  5
195
330
1F
100
AcDbEntity
  8
0
  6
Continuous
 62
     7
370
    25
100
AcDbLine
 10
-1240.0857456243
 20
89.6703033839
 30
0.0
 11
-1240.0857456243
 21
149.6703033839
 31
0.0
  0
LINE
  5
196
330
1F
100
AcDbEntity
  8
0
  6
Continuous
 62
     7
370
    25
100
AcDbLine
 10
-1240.0857456243
 20
89.6703033839
 30
0.0
 11
-1225.0857456243
 21
89.6703033839
 31
0.0
  0
LINE
  5
197
330
1F
100
AcDbEntity
  8
0
  6
Continuous
 62
     7
370
    25
100
AcDbLine
 10
-1225.0857456243
 20
89.6703033839
 30
0.0
 11
-1225.0857456243
 21
149.6703033839
 31
0.0
  0
LINE
  5
198
330
1F
100
AcDbEntity
  8
0
  6
Continuous
 62
     7
370
    25
100
AcDbLine
 10
-1240.0857456243
 20
149.6703033839
 30
0.0
 11
-1225.0857456243
 21
149.6703033839
 31
0.0
  0
ARC
  5
199
330
1F
100
AcDbEntity
  8
0
  6
Continuous
 62
     7
370
    25
100
AcDbCircle
 10
-1243.0857456243
 20
-1184.5617474237
 30
0.0
 40
6.000000000000129
100
AcDbArc
 50
0.0
 51
60.0
  0
LINE
  5
19A
330
1F
100
AcDbEntity
  8
0
  6
Continuous
 62
     7
370
    25
100
AcDbLine
 10
-1278.5857456243
 20
-1157.1376096372
 30
0.0
 11
-1240.0857456243
 21
-1179.365595001
 31
0.0
  0
ARC
  5
19B
330
1F
100
AcDbEntity
  8
0
  6
Continuous
 62
     7
370
    25
100
AcDbCircle
 10
-1270.0857456243
 20
-1142.4151777728
 30
0.0
 40
17.00000000000007
100
AcDbArc
 50
180.0
 51
240.0
  0
LINE
  5
19C
330
1F
100
AcDbEntity
  8
0
  6
Continuous
 62
     7
370
    25
100
AcDbLine
 10
-1287.0857456243
 20
-538.2442154594
 30
0.0
 11
-1287.0857456243
 21
-1142.4151777728
 31
0.0
  0
ARC
  5
19D
330
1F
100
AcDbEntity
  8
0
  6
Continuous
 62
     7
370
    25
100
AcDbCircle
 10
-1270.0857456243
 20
-538.2442154594
 30
0.0
 40
17.0
100
AcDbArc
 50
120.0
 51
180.0
  0
LINE
  5
19E
330
1F
100
AcDbEntity
  8
0
  6
Continuous
 62
     7
370
    25
100
AcDbLine
 10
-1240.0857456243
 20
-501.2937982312
 30
0.0
 11
-1278.5857456243
 21
-523.521783595
 31
0.0
  0
ARC
  5
19F
330
1F
100
AcDbEntity
  8
0
  6
Continuous
 62
     7
370
    25
100
AcDbCircle
 10
-1243.0857456243
 20
-496.0976458085
 30
0.0
 40
6.000000000000458
100
AcDbArc
 50
300.0
 51
0.0
  0
LINE
  5
1A0
330
1F
100
AcDbEntity
  8
0
  6
Continuous
 62
     7
370
    25
100
AcDbLine
 10
-1237.0857456243
 20
-199.5617474237
 30
0.0
 11
-1237.0857456243
 21
-496.0976458085
 31
0.0
  0
ARC
  5
1A1
330
1F
100
AcDbEntity
  8
0
  6
Continuous
 62
     7
370
    25
100
AcDbCircle
 10
-1243.0857456243
 20
-199.5617474237
 30
0.0
 40
6.000000000000252
100
AcDbArc
 50
0.0
 51
60.0
  0
LINE
  5
1A2
330
1F
100
AcDbEntity
  8
0
  6
Continuous
 62
     7
370
    25
100
AcDbLine
 10
-1278.5857456243
 20
-172.1376096372
 30
0.0
 11
-1240.0857456243
 21
-194.365595001
 31
0.0
  0
ARC
  5
1A3
330
1F
100
AcDbEntity
  8
0
  6
Continuous
 62
     7
370
    25
100
AcDbCircle
 10
-1270.0857456243
 20
-157.4151777728
 30
0.0
 40
17.00000000000018
100
AcDbArc
 50
180.0
 51
240.0
  0
LINE
  5
1A4
330
1F
100
AcDbEntity
  8
0
  6
Continuous
 62
     7
370
    25
100
AcDbLine
 10
-1287.0857456243
 20
446.7557845406
 30
0.0
 11
-1287.0857456243
 21
-157.4151777728
 31
0.0
  0
ARC
  5
1A5
330
1F
100
AcDbEntity
  8
0
  6
Continuous
 62
     7
370
    25
100
AcDbCircle
 10
-1270.0857456243
 20
446.7557845406
 30
0.0
 40
17.00000000000023
100
AcDbArc
 50
120.0
 51
180.0
  0
LINE
  5
1A6
330
1F
100
AcDbEntity
  8
0
  6
Continuous
 62
     7
370
    25
100
AcDbLine
 10
-1240.0857456243
 20
483.7062017688
 30
0.0
 11
-1278.5857456243
 21
461.478216405
 31
0.0
  0
ARC
  5
1A7
330
1F
100
AcDbEntity
  8
0
  6
Continuous
 62
     7
370
    25
100
AcDbCircle
 10
-1243.0857456243
 20
488.9023541915
 30
0.0
 40
6.0
100
AcDbArc
 50
300.0
 51
0.0
  0
LINE
  5
1A8
330
1F
100
AcDbEntity
  8
0
  6
Continuous
 62
     7
370
    25
100
AcDbLine
 10
-1237.0857456243
 20
584.1703033839
 30
0.0
 11
-1237.0857456243
 21
488.9023541915
 31
0.0
  0
LINE
  5
1A9
330
1F
100
AcDbEntity
  8
0
  6
Continuous
 62
     7
370
    25
100
AcDbLine
 10
-1222.0857456243
 20
584.1703033839
 30
0.0
 11
-1237.0857456243
 21
584.1703033839
 31
0.0
  0
LINE
  5
1AA
330
1F
100
AcDbEntity
  8
0
  6
Continuous
 62
     7
370
    25
100
AcDbLine
 10
-1183.8799687913
 20
106.9216967564
 30
0.0
 11
-1128.3384059859
 21
490.4229637455
 31
0.0
  0
ARC
  5
1AB
330
1F
100
AcDbEntity
  8
0
  6
Continuous
 62
     7
370
    25
100
AcDbCircle
 10
-1161.1174521797
 20
103.6250564195
 30
0.0
 40
22.99999999999981
100
AcDbArc
 50
171.7592881703
 51
187.0183322393
  0
LINE
  5
1AC
330
1F
100
AcDbEntity
  8
0
  6
Continuous
 62
     7
370
    25
100
AcDbLine
 10
-1073.3906128974
 20
-797.2039388454
 30
0.0
 11
-1183.9451156585
 21
100.8147574854
 31
0.0
  0
ARC
  5
1AD
330
1F
100
AcDbEntity
  8
0
  6
Continuous
 62
     7
370
    25
100
AcDbCircle
 10
-1090.2632337296
 20
-799.2811163184
 30
0.0
 40
17.00000000000006
100
AcDbArc
 50
351.7592881703
 51
7.0183322393
  0
LINE
  5
1AE
330
1F
100
AcDbEntity
  8
0
  6
Continuous
 62
     7
370
    25
100
AcDbLine
 10
-1129.2352488035
 20
-1186.9791997954
 30
0.0
 11
-1073.4387649297
 21
-801.7177635239
 31
0.0
  0
LINE
  5
1AF
330
1F
100
AcDbEntity
  8
0
  6
Continuous
 62
     7
370
    25
100
AcDbLine
 10
-1141.6250611455
 20
-1199.3690121373
 30
0.0
 11
-1129.2352488035
 21
-1186.9791997954
 31
0.0
  0
ARC
  5
1B0
330
1F
100
AcDbEntity
  8
0
  6
Continuous
 62
     7
370
    25
100
AcDbCircle
 10
-1143.7463814891
 20
-1197.2476917938
 30
0.0
 40
3.000000000000432
100
AcDbArc
 50
234.5940682269
 51
315.0
  0
ARC
  5
1B1
330
1F
100
AcDbEntity
  8
0
  6
Continuous
 62
     7
370
    25
100
AcDbCircle
 10
-1154.1749615435
 20
-1211.9189125353
 30
0.0
 40
15.00000000000032
100
AcDbArc
 50
54.5940682269
 51
215.4059317731
  0
ARC
  5
1B2
330
1F
100
AcDbEntity
  8
0
  6
Continuous
 62
     7
370
    25
100
AcDbCircle
 10
-1168.8461822851
 20
-1222.3474925898
 30
0.0
 40
3.000000000000276
100
AcDbArc
 50
315.0
 51
35.4059317731
  0
LINE
  5
1B3
330
1F
100
AcDbEntity
  8
0
  6
Continuous
 62
     7
370
    25
100
AcDbLine
 10
-1222.0857456243
 20
-1279.8296966161
 30
0.0
 11
-1166.7248619415
 21
-1224.4688129334
 31
0.0
  0
LINE
  5
1B4
330
1F
100
AcDbEntity
  8
0
  6
Continuous
 62
     7
370
    25
100
AcDbLine
 10
-1237.0857456243
 20
-1279.8296966161
 30
0.0
 11
-1222.0857456243
 21
-1279.8296966161
 31
0.0
  0
LINE
  5
1B5
330
1F
100
AcDbEntity
  8
0
  6
Continuous
 62
     7
370
    25
100
AcDbLine
 10
-1237.0857456243
 20
-1184.5617474237
 30
0.0
 11
-1237.0857456243
 21
-1279.8296966161
 31
0.0
  0
LINE
  5
1B6
330
1F
100
AcDbEntity
  8
0
  6
Continuous
 62
     7
370
    25
100
AcDbLine
 10
-1237.0857456243
 20
488.9023541915
 30
0.0
 11
-1240.0857456243
 21
488.9023541915
 31
0.0
  0
LINE
  5
1B7
330
1F
100
AcDbEntity
  8
0
  6
Continuous
 62
     7
370
    25
100
AcDbLine
 10
-1240.0857456243
 20
488.9023541915
 30
0.0
 11
-1240.0857456243
 21
584.1703033839
 31
0.0
  0
LINE
  5
1B8
330
1F
100
AcDbEntity
  8
0
  6
Continuous
 62
     7
370
    25
100
AcDbLine
 10
-1237.0857456243
 20
587.1703033839
 30
0.0
 11
-1225.0857456243
 21
587.1703033839
 31
0.0
  0
LINE
  5
1B9
330
1F
100
AcDbEntity
  8
0
  6
Continuous
 62
     7
370
    25
100
AcDbLine
 10
-1225.0857456243
 20
587.1703033839
 30
0.0
 11
-1222.0857456243
 21
584.1703033839
 31
0.0
  0
LINE
  5
1BA
330
1F
100
AcDbEntity
  8
0
  6
Continuous
 62
     7
370
    25
100
AcDbLine
 10
-1125.690584334
 20
487.7751420936
 30
0.0
 11
-1180.9109448854
 21
106.4917001907
 31
0.0
  0
LINE
  5
1BB
330
1F
100
AcDbEntity
  8
0
  6
Continuous
 62
     7
370
    25
100
AcDbLine
 10
-1180.9109448854
 20
106.4917001907
 30
0.0
 11
-1183.8799687913
 21
106.9216967564
 31
0.0
  0
LINE
  5
1BC
330
1F
100
AcDbEntity
  8
0
  6
Continuous
 62
     7
370
    25
100
AcDbLine
 10
-1128.3384059859
 20
490.4229637455
 30
0.0
 11
-1125.690584334
 21
487.7751420936
 31
0.0
  0
LINE
  5
1BD
330
1F
100
AcDbEntity
  8
0
  6
Continuous
 62
     7
370
    25
100
AcDbLine
 10
-1287.0857456243
 20
446.7557845406
 30
0.0
 11
-1290.0857456243
 21
446.7557845406
 31
0.0
  0
ARC
  5
1BE
330
1F
100
AcDbEntity
  8
0
  6
Continuous
 62
     7
370
    25
100
AcDbCircle
 10
-1270.0857456243
 20
446.7557845406
 30
0.0
 40
20.00000000000023
100
AcDbArc
 50
120.0
 51
180.0
  0
LINE
  5
1BF
330
1F
100
AcDbEntity
  8
0
  6
Continuous
 62
     7
370
    25
100
AcDbLine
 10
-1278.5857456243
 20
461.478216405
 30
0.0
 11
-1280.0857456243
 21
464.0762926163
 31
0.0
  0
LINE
  5
1C0
330
1F
100
AcDbEntity
  8
0
  6
Continuous
 62
     7
370
    25
100
AcDbLine
 10
-1240.0857456243
 20
483.7062017688
 30
0.0
 11
-1241.5857456243
 21
486.3042779801
 31
0.0
  0
ARC
  5
1C1
330
1F
100
AcDbEntity
  8
0
  6
Continuous
 62
     7
370
    25
100
AcDbCircle
 10
-1243.0857456243
 20
488.9023541915
 30
0.0
 40
3.000000000000508
100
AcDbArc
 50
300.0
 51
360.0
  0
LINE
  5
1C2
330
1F
100
AcDbEntity
  8
0
  6
Continuous
 62
     7
370
    25
100
AcDbLine
 10
-1280.0857456243
 20
464.0762926163
 30
0.0
 11
-1241.5857456243
 21
486.3042779801
 31
0.0
  0
LINE
  5
1C3
330
1F
100
AcDbEntity
  8
0
  6
Continuous
 62
     7
370
    25
100
AcDbLine
 10
-1287.0857456243
 20
-157.4151777728
 30
0.0
 11
-1290.0857456243
 21
-157.4151777728
 31
0.0
  0
LINE
  5
1C4
330
1F
100
AcDbEntity
  8
0
  6
Continuous
 62
     7
370
    25
100
AcDbLine
 10
-1290.0857456243
 20
-157.4151777728
 30
0.0
 11
-1290.0857456243
 21
446.7557845406
 31
0.0
  0
ARC
  5
1C5
330
1F
100
AcDbEntity
  8
0
  6
Continuous
 62
     7
370
    25
100
AcDbCircle
 10
-1161.1174521797
 20
103.6250564195
 30
0.0
 40
20.00000000000004
100
AcDbArc
 50
171.7592881703
 51
187.0183322393
  0
LINE
  5
1C6
330
1F
100
AcDbEntity
  8
0
  6
Continuous
 62
     7
370
    25
100
AcDbLine
 10
-1180.9675943352
 20
101.181318216
 30
0.0
 11
-1183.9451156585
 21
100.8147574854
 31
0.0
  0
LINE
  5
1C7
330
1F
100
AcDbEntity
  8
0
  6
Continuous
 62
     7
370
    25
100
AcDbLine
 10
-1180.9675943352
 20
101.181318216
 30
0.0
 11
-1070.4130915741
 21
-796.8373781149
 31
0.0
  0
LINE
  5
1C8
330
1F
100
AcDbEntity
  8
0
  6
Continuous
 62
     7
370
    25
100
AcDbLine
 10
-1070.4130915741
 20
-796.8373781149
 30
0.0
 11
-1073.3906128974
 21
-797.2039388454
 31
0.0
  0
LINE
  5
1C9
330
1F
100
AcDbEntity
  8
0
  6
Continuous
 62
     7
370
    25
100
AcDbLine
 10
-1237.0857456243
 20
-496.0976458085
 30
0.0
 11
-1240.0857456243
 21
-496.0976458085
 31
0.0
  0
LINE
  5
1CA
330
1F
100
AcDbEntity
  8
0
  6
Continuous
 62
     7
370
    25
100
AcDbLine
 10
-1240.0857456243
 20
-496.0976458085
 30
0.0
 11
-1240.0857456243
 21
-199.5617474237
 31
0.0
  0
LINE
  5
1CB
330
1F
100
AcDbEntity
  8
0
  6
Continuous
 62
     7
370
    25
100
AcDbLine
 10
-1237.0857456243
 20
-199.5617474237
 30
0.0
 11
-1240.0857456243
 21
-199.5617474237
 31
0.0
  0
ARC
  5
1CC
330
1F
100
AcDbEntity
  8
0
  6
Continuous
 62
     7
370
    25
100
AcDbCircle
 10
-1243.0857456243
 20
-199.5617474237
 30
0.0
 40
3.000000000000621
100
AcDbArc
 50
0.0
 51
60.0
  0
LINE
  5
1CD
330
1F
100
AcDbEntity
  8
0
  6
Continuous
 62
     7
370
    25
100
AcDbLine
 10
-1240.0857456243
 20
-194.365595001
 30
0.0
 11
-1241.5857456243
 21
-196.9636712123
 31
0.0
  0
LINE
  5
1CE
330
1F
100
AcDbEntity
  8
0
  6
Continuous
 62
     7
370
    25
100
AcDbLine
 10
-1241.5857456243
 20
-196.9636712123
 30
0.0
 11
-1280.0857456243
 21
-174.7356858485
 31
0.0
  0
LINE
  5
1CF
330
1F
100
AcDbEntity
  8
0
  6
Continuous
 62
     7
370
    25
100
AcDbLine
 10
-1278.5857456243
 20
-172.1376096372
 30
0.0
 11
-1280.0857456243
 21
-174.7356858485
 31
0.0
  0
ARC
  5
1D0
330
1F
100
AcDbEntity
  8
0
  6
Continuous
 62
     7
370
    25
100
AcDbCircle
 10
-1270.0857456243
 20
-157.4151777728
 30
0.0
 40
20.00000000000035
100
AcDbArc
 50
180.0
 51
240.0
  0
LINE
  5
1D1
330
1F
100
AcDbEntity
  8
0
  6
Continuous
 62
     7
370
    25
100
AcDbLine
 10
-1240.0857456243
 20
-501.2937982312
 30
0.0
 11
-1241.5857456243
 21
-498.6957220199
 31
0.0
  0
ARC
  5
1D2
330
1F
100
AcDbEntity
  8
0
  6
Continuous
 62
     7
370
    25
100
AcDbCircle
 10
-1243.0857456243
 20
-496.0976458085
 30
0.0
 40
3.000000000000114
100
AcDbArc
 50
300.0
 51
360.0
  0
LINE
  5
1D3
330
1F
100
AcDbEntity
  8
0
  6
Continuous
 62
     7
370
    25
100
AcDbLine
 10
-1287.0857456243
 20
-538.2442154594
 30
0.0
 11
-1290.0857456243
 21
-538.2442154594
 31
0.0
  0
ARC
  5
1D4
330
1F
100
AcDbEntity
  8
0
  6
Continuous
 62
     7
370
    25
100
AcDbCircle
 10
-1270.0857456243
 20
-538.2442154594
 30
0.0
 40
20.0
100
AcDbArc
 50
120.0
 51
180.0
  0
LINE
  5
1D5
330
1F
100
AcDbEntity
  8
0
  6
Continuous
 62
     7
370
    25
100
AcDbLine
 10
-1278.5857456243
 20
-523.521783595
 30
0.0
 11
-1280.0857456243
 21
-520.9237073837
 31
0.0
  0
LINE
  5
1D6
330
1F
100
AcDbEntity
  8
0
  6
Continuous
 62
     7
370
    25
100
AcDbLine
 10
-1280.0857456243
 20
-520.9237073837
 30
0.0
 11
-1241.5857456243
 21
-498.6957220199
 31
0.0
  0
LINE
  5
1D7
330
1F
100
AcDbEntity
  8
0
  6
Continuous
 62
     7
370
    25
100
AcDbLine
 10
-1287.0857456243
 20
-1142.4151777728
 30
0.0
 11
-1290.0857456243
 21
-1142.4151777728
 31
0.0
  0
LINE
  5
1D8
330
1F
100
AcDbEntity
  8
0
  6
Continuous
 62
     7
370
    25
100
AcDbLine
 10
-1290.0857456243
 20
-1142.4151777728
 30
0.0
 11
-1290.0857456243
 21
-538.2442154594
 31
0.0
  0
LINE
  5
1D9
330
1F
100
AcDbEntity
  8
0
  6
Continuous
 62
     7
370
    25
100
AcDbLine
 10
-1070.4697410239
 20
-802.1477600896
 30
0.0
 11
-1073.4387649297
 21
-801.7177635239
 31
0.0
  0
LINE
  5
1DA
330
1F
100
AcDbEntity
  8
0
  6
Continuous
 62
     7
370
    25
100
AcDbLine
 10
-1070.4697410239
 20
-802.1477600896
 30
0.0
 11
-1125.690584334
 21
-1183.4345353258
 31
0.0
  0
LINE
  5
1DB
330
1F
100
AcDbEntity
  8
0
  6
Continuous
 62
     7
370
    25
100
AcDbLine
 10
-1125.690584334
 20
-1183.4345353258
 30
0.0
 11
-1129.2352488035
 21
-1186.9791997954
 31
0.0
  0
ARC
  5
1DC
330
1F
100
AcDbEntity
  8
0
  6
Continuous
 62
     7
370
    25
100
AcDbCircle
 10
-1090.2632337296
 20
-799.2811163184
 30
0.0
 40
20.00000000000007
100
AcDbArc
 50
351.7592881703
 51
7.0183322393
  0
LINE
  5
1DD
330
1F
100
AcDbEntity
  8
0
  6
Continuous
 62
     7
370
    25
100
AcDbLine
 10
-1237.0857456243
 20
-1279.8296966161
 30
0.0
 11
-1240.0857456243
 21
-1279.8296966161
 31
0.0
  0
LINE
  5
1DE
330
1F
100
AcDbEntity
  8
0
  6
Continuous
 62
     7
370
    25
100
AcDbLine
 10
-1240.0857456243
 20
-1279.8296966161
 30
0.0
 11
-1240.0857456243
 21
-1184.5617474237
 31
0.0
  0
LINE
  5
1DF
330
1F
100
AcDbEntity
  8
0
  6
Continuous
 62
     7
370
    25
100
AcDbLine
 10
-1237.0857456243
 20
-1184.5617474237
 30
0.0
 11
-1240.0857456243
 21
-1184.5617474237
 31
0.0
  0
LINE
  5
1E0
330
1F
100
AcDbEntity
  8
0
  6
Continuous
 62
     7
370
    25
100
AcDbLine
 10
-1240.0857456243
 20
-1179.365595001
 30
0.0
 11
-1241.5857456243
 21
-1181.9636712123
 31
0.0
  0
LINE
  5
1E1
330
1F
100
AcDbEntity
  8
0
  6
Continuous
 62
     7
370
    25
100
AcDbLine
 10
-1241.5857456243
 20
-1181.9636712123
 30
0.0
 11
-1280.0857456243
 21
-1159.7356858485
 31
0.0
  0
LINE
  5
1E2
330
1F
100
AcDbEntity
  8
0
  6
Continuous
 62
     7
370
    25
100
AcDbLine
 10
-1278.5857456243
 20
-1157.1376096372
 30
0.0
 11
-1280.0857456243
 21
-1159.7356858485
 31
0.0
  0
ARC
  5
1E3
330
1F
100
AcDbEntity
  8
0
  6
Continuous
 62
     7
370
    25
100
AcDbCircle
 10
-1243.0857456243
 20
-1184.5617474237
 30
0.0
 40
3.000000000000194
100
AcDbArc
 50
0.0
 51
60.0
  0
ARC
  5
1E4
330
1F
100
AcDbEntity
  8
0
  6
Continuous
 62
     7
370
    25
100
AcDbCircle
 10
-1270.0857456243
 20
-1142.4151777728
 30
0.0
 40
20.0
100
AcDbArc
 50
180.0
 51
240.0
  0
LINE
  5
1E5
330
1F
100
AcDbEntity
  8
0
  6
Continuous
 62
     7
370
    25
100
AcDbLine
 10
-1237.0857456243
 20
-1279.8296966161
 30
0.0
 11
-1237.0857456243
 21
-1282.8296966161
 31
0.0
  0
ARC
  5
1E6
330
1F
100
AcDbEntity
  8
0
  6
Continuous
 62
     7
370
    25
100
AcDbCircle
 10
-1237.0857456243
 20
-1279.8296966161
 30
0.0
 40
3.0
100
AcDbArc
 50
180.0
 51
270.0
  0
LINE
  5
1E7
330
1F
100
AcDbEntity
  8
0
  6
Continuous
 62
     7
370
    25
100
AcDbLine
 10
-1225.0857456243
 20
-1282.8296966161
 30
0.0
 11
-1237.0857456243
 21
-1282.8296966161
 31
0.0
  0
LINE
  5
1E8
330
1F
100
AcDbEntity
  8
0
  6
Continuous
 62
     7
370
    25
100
AcDbLine
 10
-1222.0857456243
 20
-1279.8296966161
 30
0.0
 11
-1225.0857456243
 21
-1282.8296966161
 31
0.0
  0
LINE
  5
1E9
330
1F
100
AcDbEntity
  8
0
  6
Continuous
 62
     7
370
    25
100
AcDbLine
 10
-1101.9917348567
 20
-1337.8296966161
 30
0.0
 11
-1124.2197202205
 21
-1299.3296966161
 31
0.0
  0
LINE
  5
1EA
330
1F
100
AcDbEntity
  8
0
  6
Continuous
 62
     7
370
    25
100
AcDbLine
 10
-1124.2197202205
 20
-1299.3296966161
 30
0.0
 11
-1121.6216440091
 21
-1297.8296966161
 31
0.0
  0
LINE
  5
1EB
330
1F
100
AcDbEntity
  8
0
  6
Continuous
 62
     7
370
    25
100
AcDbLine
 10
-1121.6216440091
 20
-1297.8296966161
 30
0.0
 11
-1099.3936586453
 21
-1336.3296966161
 31
0.0
  0
LINE
  5
1EC
330
1F
100
AcDbEntity
  8
0
  6
Continuous
 62
     7
370
    25
100
AcDbLine
 10
-1101.9917348567
 20
-1337.8296966161
 30
0.0
 11
-1099.3936586453
 21
-1336.3296966161
 31
0.0
  0
ARC
  5
1ED
330
1F
100
AcDbEntity
  8
0
  6
Continuous
 62
     7
370
    25
100
AcDbCircle
 10
-1084.671226781
 20
-1327.8296966161
 30
0.0
 40
20.0
100
AcDbArc
 50
210.0
 51
270.0
  0
ARC
  5
1EE
330
1F
100
AcDbEntity
  8
0
  6
Continuous
 62
     7
370
    25
100
AcDbCircle
 10
-1084.671226781
 20
-1327.8296966161
 30
0.0
 40
16.99999999999987
100
AcDbArc
 50
210.0
 51
270.0
  0
LINE
  5
1EF
330
1F
100
AcDbEntity
  8
0
  6
Continuous
 62
     7
370
    25
100
AcDbLine
 10
-1084.671226781
 20
-1347.8296966161
 30
0.0
 11
-1084.671226781
 21
-1344.8296966161
 31
0.0
  0
LINE
  5
1F0
330
1F
100
AcDbEntity
  8
0
  6
Continuous
 62
     7
370
    25
100
AcDbLine
 10
-1222.0857456243
 20
-1279.8296966161
 30
0.0
 11
-1222.0857456243
 21
-1294.8296966161
 31
0.0
  0
LINE
  5
1F1
330
1F
100
AcDbEntity
  8
0
  6
Continuous
 62
     7
370
    25
100
AcDbLine
 10
-1225.0857456243
 20
-1294.8296966161
 30
0.0
 11
-1222.0857456243
 21
-1294.8296966161
 31
0.0
  0
LINE
  5
1F2
330
1F
100
AcDbEntity
  8
0
  6
Continuous
 62
     7
370
    25
100
AcDbLine
 10
-1225.0857456243
 20
-1294.8296966161
 30
0.0
 11
-1225.0857456243
 21
-1282.8296966161
 31
0.0
  0
LINE
  5
1F3
330
1F
100
AcDbEntity
  8
0
  6
Continuous
 62
     7
370
    25
100
AcDbLine
 10
-1225.0857456243
 20
-1282.8296966161
 30
0.0
 11
-1222.0857456243
 21
-1279.8296966161
 31
0.0
  0
LINE
  5
1F4
330
1F
100
AcDbEntity
  8
0
  6
Continuous
 62
     7
370
    25
100
AcDbLine
 10
327.4142543757
 20
-1282.8296966161
 30
0.0
 11
327.4142543757
 21
-1297.8296966161
 31
0.0
  0
LINE
  5
1F5
330
1F
100
AcDbEntity
  8
0
  6
Continuous
 62
     7
370
    25
100
AcDbLine
 10
327.4142543757
 20
-1297.8296966161
 30
0.0
 11
387.4142543757
 21
-1297.8296966161
 31
0.0
  0
LINE
  5
1F6
330
1F
100
AcDbEntity
  8
0
  6
Continuous
 62
     7
370
    25
100
AcDbLine
 10
387.4142543757
 20
-1282.8296966161
 30
0.0
 11
387.4142543757
 21
-1297.8296966161
 31
0.0
  0
LINE
  5
1F7
330
1F
100
AcDbEntity
  8
0
  6
Continuous
 62
     7
370
    25
100
AcDbLine
 10
327.4142543757
 20
-1282.8296966161
 30
0.0
 11
387.4142543757
 21
-1282.8296966161
 31
0.0
  0
LINE
  5
1F8
330
1F
100
AcDbEntity
  8
0
  6
Continuous
 62
     7
370
    25
100
AcDbLine
 10
-907.5857456243
 20
-1297.8296966161
 30
0.0
 11
-907.5857456243
 21
-1282.8296966161
 31
0.0
  0
LINE
  5
1F9
330
1F
100
AcDbEntity
  8
0
  6
Continuous
 62
     7
370
    25
100
AcDbLine
 10
-727.5857456243
 20
-1297.8296966161
 30
0.0
 11
-787.5857456243
 21
-1297.8296966161
 31
0.0
  0
LINE
  5
1FA
330
1F
100
AcDbEntity
  8
0
  6
Continuous
 62
     7
370
    25
100
AcDbLine
 10
-727.5857456243
 20
-1282.8296966161
 30
0.0
 11
-727.5857456243
 21
-1297.8296966161
 31
0.0
  0
LINE
  5
1FB
330
1F
100
AcDbEntity
  8
0
  6
Continuous
 62
     7
370
    25
100
AcDbLine
 10
-727.5857456243
 20
-1282.8296966161
 30
0.0
 11
-787.5857456243
 21
-1282.8296966161
 31
0.0
  0
LINE
  5
1FC
330
1F
100
AcDbEntity
  8
0
  6
Continuous
 62
     7
370
    25
100
AcDbLine
 10
-787.5857456243
 20
-1282.8296966161
 30
0.0
 11
-787.5857456243
 21
-1297.8296966161
 31
0.0
  0
LINE
  5
1FD
330
1F
100
AcDbEntity
  8
0
  6
Continuous
 62
     7
370
    25
100
AcDbLine
 10
-547.5857456243
 20
-1297.8296966161
 30
0.0
 11
-607.5857456243
 21
-1297.8296966161
 31
0.0
  0
LINE
  5
1FE
330
1F
100
AcDbEntity
  8
0
  6
Continuous
 62
     7
370
    25
100
AcDbLine
 10
-547.5857456243
 20
-1282.8296966161
 30
0.0
 11
-547.5857456243
 21
-1297.8296966161
 31
0.0
  0
LINE
  5
1FF
330
1F
100
AcDbEntity
  8
0
  6
Continuous
 62
     7
370
    25
100
AcDbLine
 10
-547.5857456243
 20
-1282.8296966161
 30
0.0
 11
-607.5857456243
 21
-1282.8296966161
 31
0.0
  0
LINE
  5
200
330
1F
100
AcDbEntity
  8
0
  6
Continuous
 62
     7
370
    25
100
AcDbLine
 10
-607.5857456243
 20
-1282.8296966161
 30
0.0
 11
-607.5857456243
 21
-1297.8296966161
 31
0.0
  0
LINE
  5
201
330
1F
100
AcDbEntity
  8
0
  6
Continuous
 62
     7
370
    25
100
AcDbLine
 10
27.4142543757
 20
-1297.8296966161
 30
0.0
 11
-32.5857456243
 21
-1297.8296966161
 31
0.0
  0
LINE
  5
202
330
1F
100
AcDbEntity
  8
0
  6
Continuous
 62
     7
370
    25
100
AcDbLine
 10
27.4142543757
 20
-1282.8296966161
 30
0.0
 11
27.4142543757
 21
-1297.8296966161
 31
0.0
  0
LINE
  5
203
330
1F
100
AcDbEntity
  8
0
  6
Continuous
 62
     7
370
    25
100
AcDbLine
 10
27.4142543757
 20
-1282.8296966161
 30
0.0
 11
-32.5857456243
 21
-1282.8296966161
 31
0.0
  0
LINE
  5
204
330
1F
100
AcDbEntity
  8
0
  6
Continuous
 62
     7
370
    25
100
AcDbLine
 10
-32.5857456243
 20
-1282.8296966161
 30
0.0
 11
-32.5857456243
 21
-1297.8296966161
 31
0.0
  0
LINE
  5
205
330
1F
100
AcDbEntity
  8
0
  6
Continuous
 62
     7
370
    25
100
AcDbLine
 10
147.4142543757
 20
-1282.8296966161
 30
0.0
 11
207.4142543757
 21
-1282.8296966161
 31
0.0
  0
LINE
  5
206
330
1F
100
AcDbEntity
  8
0
  6
Continuous
 62
     7
370
    25
100
AcDbLine
 10
147.4142543757
 20
-1297.8296966161
 30
0.0
 11
147.4142543757
 21
-1282.8296966161
 31
0.0
  0
LINE
  5
207
330
1F
100
AcDbEntity
  8
0
  6
Continuous
 62
     7
370
    25
100
AcDbLine
 10
147.4142543757
 20
-1297.8296966161
 30
0.0
 11
207.4142543757
 21
-1297.8296966161
 31
0.0
  0
LINE
  5
208
330
1F
100
AcDbEntity
  8
0
  6
Continuous
 62
     7
370
    25
100
AcDbLine
 10
207.4142543757
 20
-1297.8296966161
 30
0.0
 11
207.4142543757
 21
-1282.8296966161
 31
0.0
  0
LINE
  5
209
330
1F
100
AcDbEntity
  8
0
  6
Continuous
 62
     7
370
    25
100
AcDbLine
 10
-743.9738125321
 20
-1131.1827159216
 30
0.0
 11
-1129.2352488035
 21
-1186.9791997954
 31
0.0
  0
ARC
  5
20A
330
1F
100
AcDbEntity
  8
0
  6
Continuous
 62
     7
370
    25
100
AcDbCircle
 10
-741.5371653266
 20
-1148.0071847214
 30
0.0
 40
17.00000000000009
100
AcDbArc
 50
82.9816677607
 51
98.2407118297
  0
LINE
  5
20B
330
1F
100
AcDbEntity
  8
0
  6
Continuous
 62
     7
370
    25
100
AcDbLine
 10
158.5587084773
 20
-1241.6890666504
 30
0.0
 11
-739.4599878536
 21
-1131.1345638892
 31
0.0
  0
ARC
  5
20C
330
1F
100
AcDbEntity
  8
0
  6
Continuous
 62
     7
370
    25
100
AcDbCircle
 10
161.3690074114
 20
-1218.8614031716
 30
0.0
 40
22.99999999999981
100
AcDbArc
 50
262.9816677607
 51
278.2407118297
  0
LINE
  5
20D
330
1F
100
AcDbEntity
  8
0
  6
Continuous
 62
     7
370
    25
100
AcDbLine
 10
548.1669147374
 20
-1186.0823569778
 30
0.0
 11
164.6656477482
 21
-1241.6239197831
 31
0.0
  0
LINE
  5
20E
330
1F
100
AcDbEntity
  8
0
  6
Continuous
 62
     7
370
    25
100
AcDbLine
 10
641.9142543757
 20
-1294.8296966161
 30
0.0
 11
641.9142543757
 21
-1279.8296966161
 31
0.0
  0
LINE
  5
20F
330
1F
100
AcDbEntity
  8
0
  6
Continuous
 62
     7
370
    25
100
AcDbLine
 10
546.6463051833
 20
-1294.8296966161
 30
0.0
 11
641.9142543757
 21
-1294.8296966161
 31
0.0
  0
ARC
  5
210
330
1F
100
AcDbEntity
  8
0
  6
Continuous
 62
     7
370
    25
100
AcDbCircle
 10
546.6463051833
 20
-1300.8296966161
 30
0.0
 40
6.0
100
AcDbArc
 50
90.0
 51
150.0
  0
LINE
  5
211
330
1F
100
AcDbEntity
  8
0
  6
Continuous
 62
     7
370
    25
100
AcDbLine
 10
519.2221673968
 20
-1336.3296966161
 30
0.0
 11
541.4501527606
 21
-1297.8296966161
 31
0.0
  0
ARC
  5
212
330
1F
100
AcDbEntity
  8
0
  6
Continuous
 62
     7
370
    25
100
AcDbCircle
 10
504.4997355324
 20
-1327.8296966161
 30
0.0
 40
17.0
100
AcDbArc
 50
270.0
 51
330.0
  0
LINE
  5
213
330
1F
100
AcDbEntity
  8
0
  6
Continuous
 62
     7
370
    25
100
AcDbLine
 10
-99.671226781
 20
-1344.8296966161
 30
0.0
 11
504.4997355324
 21
-1344.8296966161
 31
0.0
  0
ARC
  5
214
330
1F
100
AcDbEntity
  8
0
  6
Continuous
 62
     7
370
    25
100
AcDbCircle
 10
-99.671226781
 20
-1327.8296966161
 30
0.0
 40
17.00000000000007
100
AcDbArc
 50
210.0
 51
270.0
  0
LINE
  5
215
330
1F
100
AcDbEntity
  8
0
  6
Continuous
 62
     7
370
    25
100
AcDbLine
 10
-136.6216440091
 20
-1297.8296966161
 30
0.0
 11
-114.3936586453
 21
-1336.3296966161
 31
0.0
  0
ARC
  5
216
330
1F
100
AcDbEntity
  8
0
  6
Continuous
 62
     7
370
    25
100
AcDbCircle
 10
-141.8177964318
 20
-1300.8296966161
 30
0.0
 40
6.000000000000252
100
AcDbArc
 50
30.0
 51
90.0
  0
LINE
  5
217
330
1F
100
AcDbEntity
  8
0
  6
Continuous
 62
     7
370
    25
100
AcDbLine
 10
-438.3536948167
 20
-1294.8296966161
 30
0.0
 11
-141.8177964318
 21
-1294.8296966161
 31
0.0
  0
ARC
  5
218
330
1F
100
AcDbEntity
  8
0
  6
Continuous
 62
     7
370
    25
100
AcDbCircle
 10
-438.3536948167
 20
-1300.8296966161
 30
0.0
 40
6.0
100
AcDbArc
 50
90.0
 51
150.0
  0
LINE
  5
219
330
1F
100
AcDbEntity
  8
0
  6
Continuous
 62
     7
370
    25
100
AcDbLine
 10
-465.7778326032
 20
-1336.3296966161
 30
0.0
 11
-443.5498472394
 21
-1297.8296966161
 31
0.0
  0
ARC
  5
21A
330
1F
100
AcDbEntity
  8
0
  6
Continuous
 62
     7
370
    25
100
AcDbCircle
 10
-480.5002644676
 20
-1327.8296966161
 30
0.0
 40
16.99999999999999
100
AcDbArc
 50
270.0
 51
330.0
  0
LINE
  5
21B
330
1F
100
AcDbEntity
  8
0
  6
Continuous
 62
     7
370
    25
100
AcDbLine
 10
-1084.671226781
 20
-1344.8296966161
 30
0.0
 11
-480.5002644676
 21
-1344.8296966161
 31
0.0
  0
ARC
  5
21C
330
1F
100
AcDbEntity
  8
0
  6
Continuous
 62
     7
370
    25
100
AcDbCircle
 10
-1126.8177964318
 20
-1300.8296966161
 30
0.0
 40
6.000000000000129
100
AcDbArc
 50
30.0
 51
90.0
  0
LINE
  5
21D
330
1F
100
AcDbEntity
  8
0
  6
Continuous
 62
     7
370
    25
100
AcDbLine
 10
-1222.0857456243
 20
-1294.8296966161
 30
0.0
 11
-1126.8177964318
 21
-1294.8296966161
 31
0.0
  0
LINE
  5
21E
330
1F
100
AcDbEntity
  8
0
  6
Continuous
 62
     7
370
    25
100
AcDbLine
 10
-967.5857456243
 20
-1282.8296966161
 30
0.0
 11
-907.5857456243
 21
-1282.8296966161
 31
0.0
  0
LINE
  5
21F
330
1F
100
AcDbEntity
  8
0
  6
Continuous
 62
     7
370
    25
100
AcDbLine
 10
-967.5857456243
 20
-1297.8296966161
 30
0.0
 11
-907.5857456243
 21
-1297.8296966161
 31
0.0
  0
LINE
  5
220
330
1F
100
AcDbEntity
  8
0
  6
Continuous
 62
     7
370
    25
100
AcDbLine
 10
-967.5857456243
 20
-1297.8296966161
 30
0.0
 11
-967.5857456243
 21
-1282.8296966161
 31
0.0
  0
LINE
  5
221
330
1F
100
AcDbEntity
  8
0
  6
Continuous
 62
     7
370
    25
100
AcDbLine
 10
-1222.0857456243
 20
-1297.8296966161
 30
0.0
 11
-1222.0857456243
 21
-1294.8296966161
 31
0.0
  0
ARC
  5
222
330
1F
100
AcDbEntity
  8
0
  6
Continuous
 62
     7
370
    25
100
AcDbCircle
 10
-1222.0857456243
 20
-1294.8296966161
 30
0.0
 40
3.0
100
AcDbArc
 50
180.0
 51
270.0
  0
LINE
  5
223
330
1F
100
AcDbEntity
  8
0
  6
Continuous
 62
     7
370
    25
100
AcDbLine
 10
-1126.8177964318
 20
-1297.8296966161
 30
0.0
 11
-1126.8177964318
 21
-1294.8296966161
 31
0.0
  0
LINE
  5
224
330
1F
100
AcDbEntity
  8
0
  6
Continuous
 62
     7
370
    25
100
AcDbLine
 10
-1126.8177964318
 20
-1297.8296966161
 30
0.0
 11
-1222.0857456243
 21
-1297.8296966161
 31
0.0
  0
LINE
  5
225
330
1F
100
AcDbEntity
  8
0
  6
Continuous
 62
     7
370
    25
100
AcDbLine
 10
-739.093427123
 20
-1128.1570425659
 30
0.0
 11
158.9252692078
 21
-1238.711545327
 31
0.0
  0
LINE
  5
226
330
1F
100
AcDbEntity
  8
0
  6
Continuous
 62
     7
370
    25
100
AcDbLine
 10
158.9252692078
 20
-1238.711545327
 30
0.0
 11
158.5587084773
 21
-1241.6890666504
 31
0.0
  0
LINE
  5
227
330
1F
100
AcDbEntity
  8
0
  6
Continuous
 62
     7
370
    25
100
AcDbLine
 10
-739.093427123
 20
-1128.1570425659
 30
0.0
 11
-739.4599878536
 21
-1131.1345638892
 31
0.0
  0
ARC
  5
228
330
1F
100
AcDbEntity
  8
0
  6
Continuous
 62
     7
370
    25
100
AcDbCircle
 10
-741.5371653266
 20
-1148.0071847214
 30
0.0
 40
19.99999999999984
100
AcDbArc
 50
82.9816677607
 51
98.2407118297
  0
LINE
  5
229
330
1F
100
AcDbEntity
  8
0
  6
Continuous
 62
     7
370
    25
100
AcDbLine
 10
-744.4038090978
 20
-1128.2136920157
 30
0.0
 11
-743.9738125321
 21
-1131.1827159216
 31
0.0
  0
LINE
  5
22A
330
1F
100
AcDbEntity
  8
0
  6
Continuous
 62
     7
370
    25
100
AcDbLine
 10
-480.5002644676
 20
-1347.8296966161
 30
0.0
 11
-1084.671226781
 21
-1347.8296966161
 31
0.0
  0
LINE
  5
22B
330
1F
100
AcDbEntity
  8
0
  6
Continuous
 62
     7
370
    25
100
AcDbLine
 10
-480.5002644676
 20
-1347.8296966161
 30
0.0
 11
-480.5002644676
 21
-1344.8296966161
 31
0.0
  0
LINE
  5
22C
330
1F
100
AcDbEntity
  8
0
  6
Continuous
 62
     7
370
    25
100
AcDbLine
 10
-1125.690584334
 20
-1183.4345353258
 30
0.0
 11
-744.4038090978
 21
-1128.2136920157
 31
0.0
  0
LINE
  5
22D
330
1F
100
AcDbEntity
  8
0
  6
Continuous
 62
     7
370
    25
100
AcDbLine
 10
-1129.2352488035
 20
-1186.9791997954
 30
0.0
 11
-1125.690584334
 21
-1183.4345353258
 31
0.0
  0
ARC
  5
22E
330
1F
100
AcDbEntity
  8
0
  6
Continuous
 62
     7
370
    25
100
AcDbCircle
 10
-438.3536948167
 20
-1300.8296966161
 30
0.0
 40
3.0
100
AcDbArc
 50
90.0
 51
150.0
  0
LINE
  5
22F
330
1F
100
AcDbEntity
  8
0
  6
Continuous
 62
     7
370
    25
100
AcDbLine
 10
-440.9517710281
 20
-1299.3296966161
 30
0.0
 11
-443.5498472394
 21
-1297.8296966161
 31
0.0
  0
LINE
  5
230
330
1F
100
AcDbEntity
  8
0
  6
Continuous
 62
     7
370
    25
100
AcDbLine
 10
-438.3536948167
 20
-1297.8296966161
 30
0.0
 11
-438.3536948167
 21
-1294.8296966161
 31
0.0
  0
ARC
  5
231
330
1F
100
AcDbEntity
  8
0
  6
Continuous
 62
     7
370
    25
100
AcDbCircle
 10
-1126.8177964318
 20
-1300.8296966161
 30
0.0
 40
3.000000000000194
100
AcDbArc
 50
30.0
 51
90.0
  0
LINE
  5
232
330
1F
100
AcDbEntity
  8
0
  6
Continuous
 62
     7
370
    25
100
AcDbLine
 10
-141.8177964318
 20
-1297.8296966161
 30
0.0
 11
-438.3536948167
 21
-1297.8296966161
 31
0.0
  0
LINE
  5
233
330
1F
100
AcDbEntity
  8
0
  6
Continuous
 62
     7
370
    25
100
AcDbLine
 10
-141.8177964318
 20
-1297.8296966161
 30
0.0
 11
-141.8177964318
 21
-1294.8296966161
 31
0.0
  0
LINE
  5
234
330
1F
100
AcDbEntity
  8
0
  6
Continuous
 62
     7
370
    25
100
AcDbLine
 10
-440.9517710281
 20
-1299.3296966161
 30
0.0
 11
-463.1797563919
 21
-1337.8296966161
 31
0.0
  0
LINE
  5
235
330
1F
100
AcDbEntity
  8
0
  6
Continuous
 62
     7
370
    25
100
AcDbLine
 10
-463.1797563919
 20
-1337.8296966161
 30
0.0
 11
-465.7778326032
 21
-1336.3296966161
 31
0.0
  0
ARC
  5
236
330
1F
100
AcDbEntity
  8
0
  6
Continuous
 62
     7
370
    25
100
AcDbCircle
 10
-99.671226781
 20
-1327.8296966161
 30
0.0
 40
20.00000000000035
100
AcDbArc
 50
210.0
 51
270.0
  0
LINE
  5
237
330
1F
100
AcDbEntity
  8
0
  6
Continuous
 62
     7
370
    25
100
AcDbLine
 10
-116.9917348567
 20
-1337.8296966161
 30
0.0
 11
-114.3936586453
 21
-1336.3296966161
 31
0.0
  0
LINE
  5
238
330
1F
100
AcDbEntity
  8
0
  6
Continuous
 62
     7
370
    25
100
AcDbLine
 10
-99.671226781
 20
-1347.8296966161
 30
0.0
 11
-99.671226781
 21
-1344.8296966161
 31
0.0
  0
LINE
  5
239
330
1F
100
AcDbEntity
  8
0
  6
Continuous
 62
     7
370
    25
100
AcDbLine
 10
504.4997355324
 20
-1347.8296966161
 30
0.0
 11
-99.671226781
 21
-1347.8296966161
 31
0.0
  0
LINE
  5
23A
330
1F
100
AcDbEntity
  8
0
  6
Continuous
 62
     7
370
    25
100
AcDbLine
 10
504.4997355324
 20
-1347.8296966161
 30
0.0
 11
504.4997355324
 21
-1344.8296966161
 31
0.0
  0
LINE
  5
23B
330
1F
100
AcDbEntity
  8
0
  6
Continuous
 62
     7
370
    25
100
AcDbLine
 10
-116.9917348567
 20
-1337.8296966161
 30
0.0
 11
-139.2197202205
 21
-1299.3296966161
 31
0.0
  0
LINE
  5
23C
330
1F
100
AcDbEntity
  8
0
  6
Continuous
 62
     7
370
    25
100
AcDbLine
 10
-139.2197202205
 20
-1299.3296966161
 30
0.0
 11
-136.6216440091
 21
-1297.8296966161
 31
0.0
  0
ARC
  5
23D
330
1F
100
AcDbEntity
  8
0
  6
Continuous
 62
     7
370
    25
100
AcDbCircle
 10
-480.5002644676
 20
-1327.8296966161
 30
0.0
 40
20.00000000000023
100
AcDbArc
 50
270.0
 51
330.0
  0
ARC
  5
23E
330
1F
100
AcDbEntity
  8
0
  6
Continuous
 62
     7
370
    25
100
AcDbCircle
 10
546.6463051833
 20
-1300.8296966161
 30
0.0
 40
3.000000000000148
100
AcDbArc
 50
90.0
 51
150.0
  0
LINE
  5
23F
330
1F
100
AcDbEntity
  8
0
  6
Continuous
 62
     7
370
    25
100
AcDbLine
 10
544.0482289719
 20
-1299.3296966161
 30
0.0
 11
541.4501527606
 21
-1297.8296966161
 31
0.0
  0
LINE
  5
240
330
1F
100
AcDbEntity
  8
0
  6
Continuous
 62
     7
370
    25
100
AcDbLine
 10
546.6463051833
 20
-1297.8296966161
 30
0.0
 11
546.6463051833
 21
-1294.8296966161
 31
0.0
  0
LINE
  5
241
330
1F
100
AcDbEntity
  8
0
  6
Continuous
 62
     7
370
    25
100
AcDbLine
 10
544.0482289719
 20
-1299.3296966161
 30
0.0
 11
521.8202436081
 21
-1337.8296966161
 31
0.0
  0
LINE
  5
242
330
1F
100
AcDbEntity
  8
0
  6
Continuous
 62
     7
370
    25
100
AcDbLine
 10
521.8202436081
 20
-1337.8296966161
 30
0.0
 11
519.2221673968
 21
-1336.3296966161
 31
0.0
  0
LINE
  5
243
330
1F
100
AcDbEntity
  8
0
  6
Continuous
 62
     7
370
    25
100
AcDbLine
 10
164.2356511825
 20
-1238.6548958772
 30
0.0
 11
545.5190930854
 21
-1183.4345353258
 31
0.0
  0
LINE
  5
244
330
1F
100
AcDbEntity
  8
0
  6
Continuous
 62
     7
370
    25
100
AcDbLine
 10
545.5190930854
 20
-1183.4345353258
 30
0.0
 11
548.1669147374
 21
-1186.0823569778
 31
0.0
  0
LINE
  5
245
330
1F
100
AcDbEntity
  8
0
  6
Continuous
 62
     7
370
    25
100
AcDbLine
 10
164.2356511825
 20
-1238.6548958772
 30
0.0
 11
164.6656477482
 21
-1241.6239197831
 31
0.0
  0
ARC
  5
246
330
1F
100
AcDbEntity
  8
0
  6
Continuous
 62
     7
370
    25
100
AcDbCircle
 10
-141.8177964318
 20
-1300.8296966161
 30
0.0
 40
3.000000000000621
100
AcDbArc
 50
30.0
 51
90.0
  0
LINE
  5
247
330
1F
100
AcDbEntity
  8
0
  6
Continuous
 62
     7
370
    25
100
AcDbLine
 10
641.9142543757
 20
-1297.8296966161
 30
0.0
 11
546.6463051833
 21
-1297.8296966161
 31
0.0
  0
LINE
  5
248
330
1F
100
AcDbEntity
  8
0
  6
Continuous
 62
     7
370
    25
100
AcDbLine
 10
641.9142543757
 20
-1297.8296966161
 30
0.0
 11
641.9142543757
 21
-1294.8296966161
 31
0.0
  0
ARC
  5
249
330
1F
100
AcDbEntity
  8
0
  6
Continuous
 62
     7
370
    25
100
AcDbCircle
 10
504.4997355324
 20
-1327.8296966161
 30
0.0
 40
20.00000000000023
100
AcDbArc
 50
270.0
 51
330.0
  0
ARC
  5
24A
330
1F
100
AcDbEntity
  8
0
  6
Continuous
 62
     7
370
    25
100
AcDbCircle
 10
161.3690074114
 20
-1218.8614031716
 30
0.0
 40
20.00000000000004
100
AcDbArc
 50
262.9816677607
 51
278.2407118297
  0
LINE
  5
24B
330
1F
100
AcDbEntity
  8
0
  6
Continuous
 62
     7
370
    25
100
AcDbLine
 10
644.9142543757
 20
-1282.8296966161
 30
0.0
 11
644.9142543757
 21
-1294.8296966161
 31
0.0
  0
LINE
  5
24C
330
1F
100
AcDbEntity
  8
0
  6
Continuous
 62
     7
370
    25
100
AcDbLine
 10
644.9142543757
 20
-1294.8296966161
 30
0.0
 11
641.9142543757
 21
-1294.8296966161
 31
0.0
  0
LINE
  5
24D
330
1F
100
AcDbEntity
  8
0
  6
Continuous
 62
     7
370
    25
100
AcDbLine
 10
641.9142543757
 20
-1279.8296966161
 30
0.0
 11
644.9142543757
 21
-1282.8296966161
 31
0.0
  0
ARC
  5
24E
330
1F
100
AcDbEntity
  8
0
  6
Continuous
 62
     7
370
    25
100
AcDbCircle
 10
641.9142543757
 20
-1294.8296966161
 30
0.0
 40
3.000000000000114
100
AcDbArc
 50
270.0
 51
0.0
  0
ARC
  5
24F
330
1F
100
AcDbEntity
  8
0
  6
Continuous
 62
     7
370
    25
100
AcDbCircle
 10
652.4142543757
 20
-565.3296966161
 30
0.0
 40
2.250000000000231
100
AcDbArc
 50
101.1281260491
 51
161.1281260491
  0
ARC
  5
250
330
1F
100
AcDbEntity
  8
0
  6
Continuous
 62
     7
370
    25
100
AcDbCircle
 10
652.0668478018
 20
-563.5635401473
 30
0.0
 40
0.4500000000004848
100
AcDbArc
 50
101.128126049
 51
177.7863678218
  0
ARC
  5
251
330
1F
100
AcDbEntity
  8
0
  6
Continuous
 62
     7
370
    25
100
AcDbCircle
 10
650.7110147197
 20
-564.7474813002
 30
0.0
 40
0.4500000000001827
100
AcDbArc
 50
84.4698842763
 51
161.1281260491
  0
ARC
  5
252
330
1F
100
AcDbEntity
  8
0
  6
Continuous
 62
     7
370
    25
100
AcDbCircle
 10
650.8302712804
 20
-563.515741018
 30
0.0
 40
0.7874999999997447
100
AcDbArc
 50
264.4698842763
 51
357.7863678218
  0
ARC
  5
253
330
1F
100
AcDbEntity
  8
0
  6
Continuous
 62
     7
370
    25
100
AcDbCircle
 10
652.4142543757
 20
-565.3296966161
 30
0.0
 40
2.250000000000231
100
AcDbArc
 50
41.1281260491
 51
101.1281260491
  0
ARC
  5
254
330
1F
100
AcDbEntity
  8
0
  6
Continuous
 62
     7
370
    25
100
AcDbCircle
 10
652.4142543757
 20
-565.3296966161
 30
0.0
 40
2.250000000000218
100
AcDbArc
 50
161.1281260491
 51
221.1281260491
  0
ARC
  5
255
330
1F
100
AcDbEntity
  8
0
  6
Continuous
 62
     7
370
    25
100
AcDbCircle
 10
652.4142543757
 20
-565.3296966161
 30
0.0
 40
2.250000000000321
100
AcDbArc
 50
221.1281260491
 51
281.1281260491
  0
ARC
  5
256
330
1F
100
AcDbEntity
  8
0
  6
Continuous
 62
     7
370
    25
100
AcDbCircle
 10
652.4142543757
 20
-565.3296966161
 30
0.0
 40
2.250000000000321
100
AcDbArc
 50
281.1281260491
 51
341.1281260491
  0
ARC
  5
257
330
1F
100
AcDbEntity
  8
0
  6
Continuous
 62
     7
370
    25
100
AcDbCircle
 10
652.4142543757
 20
-565.3296966161
 30
0.0
 40
2.250000000000222
100
AcDbArc
 50
341.1281260491
 51
41.1281260491
  0
CIRCLE
  5
258
330
1F
100
AcDbEntity
  8
0
  6
Continuous
 62
     7
370
    25
100
AcDbCircle
 10
652.4142543757
 20
-565.3296966161
 30
0.0
 40
3.84999999999991
  0
ARC
  5
259
330
1F
100
AcDbEntity
  8
0
  6
Continuous
 62
     7
370
    25
100
AcDbCircle
 10
653.7700874578
 20
-564.1457554632
 30
0.0
 40
0.4499999999998993
100
AcDbArc
 50
41.1281260491
 51
117.7863678218
  0
ARC
  5
25A
330
1F
100
AcDbEntity
  8
0
  6
Continuous
 62
     7
370
    25
100
AcDbCircle
 10
653.1931944574
 20
-563.0509492173
 30
0.0
 40
0.7875000000000301
100
AcDbArc
 50
204.4698842763
 51
297.7863678218
  0
ARC
  5
25B
330
1F
100
AcDbEntity
  8
0
  6
Continuous
 62
     7
370
    25
100
AcDbCircle
 10
652.0668478018
 20
-563.5635401473
 30
0.0
 40
0.4500000000004848
100
AcDbArc
 50
24.4698842763
 51
101.128126049
  0
ARC
  5
25C
330
1F
100
AcDbEntity
  8
0
  6
Continuous
 62
     7
370
    25
100
AcDbCircle
 10
653.7700874578
 20
-564.1457554632
 30
0.0
 40
0.4499999999999885
100
AcDbArc
 50
324.4698842763
 51
41.1281260491
  0
ARC
  5
25D
330
1F
100
AcDbEntity
  8
0
  6
Continuous
 62
     7
370
    25
100
AcDbCircle
 10
654.1174940318
 20
-565.911911932
 30
0.0
 40
0.4500000000002656
100
AcDbArc
 50
341.1281260491
 51
57.7863678219
  0
ARC
  5
25E
330
1F
100
AcDbEntity
  8
0
  6
Continuous
 62
     7
370
    25
100
AcDbCircle
 10
654.7771775527
 20
-564.8649048155
 30
0.0
 40
0.7875000000000592
100
AcDbArc
 50
144.4698842763
 51
237.7863678219
  0
ARC
  5
25F
330
1F
100
AcDbEntity
  8
0
  6
Continuous
 62
     7
370
    25
100
AcDbCircle
 10
652.7616609497
 20
-567.0958530849
 30
0.0
 40
0.4500000000002398
100
AcDbArc
 50
281.128126049
 51
357.7863678219
  0
ARC
  5
260
330
1F
100
AcDbEntity
  8
0
  6
Continuous
 62
     7
370
    25
100
AcDbCircle
 10
653.9982374711
 20
-567.1436522142
 30
0.0
 40
0.7874999999997447
100
AcDbArc
 50
84.4698842763
 51
177.7863678218
  0
ARC
  5
261
330
1F
100
AcDbEntity
  8
0
  6
Continuous
 62
     7
370
    25
100
AcDbCircle
 10
654.1174940318
 20
-565.911911932
 30
0.0
 40
0.4500000000001344
100
AcDbArc
 50
264.4698842763
 51
341.1281260491
  0
ARC
  5
262
330
1F
100
AcDbEntity
  8
0
  6
Continuous
 62
     7
370
    25
100
AcDbCircle
 10
651.0584212936
 20
-566.513637769
 30
0.0
 40
0.4500000000001004
100
AcDbArc
 50
221.1281260491
 51
297.7863678218
  0
ARC
  5
263
330
1F
100
AcDbEntity
  8
0
  6
Continuous
 62
     7
370
    25
100
AcDbCircle
 10
651.6353142941
 20
-567.6084440149
 30
0.0
 40
0.7875000000000771
100
AcDbArc
 50
24.4698842763
 51
117.7863678218
  0
ARC
  5
264
330
1F
100
AcDbEntity
  8
0
  6
Continuous
 62
     7
370
    25
100
AcDbCircle
 10
652.7616609497
 20
-567.0958530849
 30
0.0
 40
0.4500000000002398
100
AcDbArc
 50
204.4698842763
 51
281.128126049
  0
ARC
  5
265
330
1F
100
AcDbEntity
  8
0
  6
Continuous
 62
     7
370
    25
100
AcDbCircle
 10
651.0584212936
 20
-566.513637769
 30
0.0
 40
0.4499999999999224
100
AcDbArc
 50
144.4698842763
 51
221.1281260491
  0
ARC
  5
266
330
1F
100
AcDbEntity
  8
0
  6
Continuous
 62
     7
370
    25
100
AcDbCircle
 10
650.0513311988
 20
-565.7944884168
 30
0.0
 40
0.7874999999999931
100
AcDbArc
 50
324.4698842763
 51
57.7863678219
  0
ARC
  5
267
330
1F
100
AcDbEntity
  8
0
  6
Continuous
 62
     7
370
    25
100
AcDbCircle
 10
650.7110147197
 20
-564.7474813002
 30
0.0
 40
0.4500000000001344
100
AcDbArc
 50
161.1281260491
 51
237.7863678218
  0
ARC
  5
268
330
1F
100
AcDbEntity
  8
0
  6
Continuous
 62
     7
370
    25
100
AcDbCircle
 10
-1007.5857456243
 20
-1290.3296966161
 30
0.0
 40
2.250000000000292
100
AcDbArc
 50
341.1281260491
 51
41.1281260491
  0
ARC
  5
269
330
1F
100
AcDbEntity
  8
0
  6
Continuous
 62
     7
370
    25
100
AcDbCircle
 10
-1005.8825059682
 20
-1290.9119119321
 30
0.0
 40
0.450000000000242
100
AcDbArc
 50
341.1281260491
 51
57.7863678219
  0
ARC
  5
26A
330
1F
100
AcDbEntity
  8
0
  6
Continuous
 62
     7
370
    25
100
AcDbCircle
 10
-1005.2228224473
 20
-1289.8649048155
 30
0.0
 40
0.7874999999999931
100
AcDbArc
 50
144.4698842763
 51
237.7863678218
  0
ARC
  5
26B
330
1F
100
AcDbEntity
  8
0
  6
Continuous
 62
     7
370
    25
100
AcDbCircle
 10
-1006.2299125422
 20
-1289.1457554632
 30
0.0
 40
0.449999999999962
100
AcDbArc
 50
324.4698842762
 51
41.1281260491
  0
ARC
  5
26C
330
1F
100
AcDbEntity
  8
0
  6
Continuous
 62
     7
370
    25
100
AcDbCircle
 10
-1007.5857456243
 20
-1290.3296966161
 30
0.0
 40
2.250000000000275
100
AcDbArc
 50
101.1281260491
 51
161.1281260491
  0
ARC
  5
26D
330
1F
100
AcDbEntity
  8
0
  6
Continuous
 62
     7
370
    25
100
AcDbCircle
 10
-1009.1697287196
 20
-1288.515741018
 30
0.0
 40
0.7874999999997083
100
AcDbArc
 50
264.4698842763
 51
357.7863678218
  0
ARC
  5
26E
330
1F
100
AcDbEntity
  8
0
  6
Continuous
 62
     7
370
    25
100
AcDbCircle
 10
-1009.2889852803
 20
-1289.7474813002
 30
0.0
 40
0.450000000000242
100
AcDbArc
 50
84.4698842763
 51
161.1281260491
  0
ARC
  5
26F
330
1F
100
AcDbEntity
  8
0
  6
Continuous
 62
     7
370
    25
100
AcDbCircle
 10
-1007.9331521982
 20
-1288.5635401473
 30
0.0
 40
0.4500000000004172
100
AcDbArc
 50
101.128126049
 51
177.7863678219
  0
ARC
  5
270
330
1F
100
AcDbEntity
  8
0
  6
Continuous
 62
     7
370
    25
100
AcDbCircle
 10
-1007.5857456243
 20
-1290.3296966161
 30
0.0
 40
2.250000000000275
100
AcDbArc
 50
41.1281260491
 51
101.1281260491
  0
ARC
  5
271
330
1F
100
AcDbEntity
  8
0
  6
Continuous
 62
     7
370
    25
100
AcDbCircle
 10
-1007.5857456243
 20
-1290.3296966161
 30
0.0
 40
2.250000000000218
100
AcDbArc
 50
161.1281260491
 51
221.1281260491
  0
ARC
  5
272
330
1F
100
AcDbEntity
  8
0
  6
Continuous
 62
     7
370
    25
100
AcDbCircle
 10
-1007.5857456243
 20
-1290.3296966161
 30
0.0
 40
2.250000000000498
100
AcDbArc
 50
221.1281260491
 51
281.1281260491
  0
ARC
  5
273
330
1F
100
AcDbEntity
  8
0
  6
Continuous
 62
     7
370
    25
100
AcDbCircle
 10
-1007.5857456243
 20
-1290.3296966161
 30
0.0
 40
2.250000000000498
100
AcDbArc
 50
281.1281260491
 51
341.1281260491
  0
CIRCLE
  5
274
330
1F
100
AcDbEntity
  8
0
  6
Continuous
 62
     7
370
    25
100
AcDbCircle
 10
-1007.5857456243
 20
-1290.3296966161
 30
0.0
 40
3.849999999999985
  0
ARC
  5
275
330
1F
100
AcDbEntity
  8
0
  6
Continuous
 62
     7
370
    25
100
AcDbCircle
 10
-1007.2383390503
 20
-1292.0958530849
 30
0.0
 40
0.4500000000004172
100
AcDbArc
 50
281.128126049
 51
357.7863678219
  0
ARC
  5
276
330
1F
100
AcDbEntity
  8
0
  6
Continuous
 62
     7
370
    25
100
AcDbCircle
 10
-1005.8825059682
 20
-1290.9119119321
 30
0.0
 40
0.450000000000242
100
AcDbArc
 50
264.4698842763
 51
341.1281260491
  0
ARC
  5
277
330
1F
100
AcDbEntity
  8
0
  6
Continuous
 62
     7
370
    25
100
AcDbCircle
 10
-1006.001762529
 20
-1292.1436522142
 30
0.0
 40
0.7874999999997172
100
AcDbArc
 50
84.4698842763
 51
177.7863678218
  0
ARC
  5
278
330
1F
100
AcDbEntity
  8
0
  6
Continuous
 62
     7
370
    25
100
AcDbCircle
 10
-1006.2299125422
 20
-1289.1457554632
 30
0.0
 40
0.4500000000000475
100
AcDbArc
 50
41.1281260491
 51
117.7863678218
  0
ARC
  5
279
330
1F
100
AcDbEntity
  8
0
  6
Continuous
 62
     7
370
    25
100
AcDbCircle
 10
-1007.9331521982
 20
-1288.5635401473
 30
0.0
 40
0.4500000000004172
100
AcDbArc
 50
24.4698842763
 51
101.128126049
  0
ARC
  5
27A
330
1F
100
AcDbEntity
  8
0
  6
Continuous
 62
     7
370
    25
100
AcDbCircle
 10
-1006.8068055426
 20
-1288.0509492173
 30
0.0
 40
0.7875000000001899
100
AcDbArc
 50
204.4698842763
 51
297.7863678218
  0
ARC
  5
27B
330
1F
100
AcDbEntity
  8
0
  6
Continuous
 62
     7
370
    25
100
AcDbCircle
 10
-1008.9415787064
 20
-1291.513637769
 30
0.0
 40
0.4499999999999523
100
AcDbArc
 50
221.1281260491
 51
297.7863678219
  0
ARC
  5
27C
330
1F
100
AcDbEntity
  8
0
  6
Continuous
 62
     7
370
    25
100
AcDbCircle
 10
-1008.3646857059
 20
-1292.6084440149
 30
0.0
 40
0.7875000000001899
100
AcDbArc
 50
24.4698842763
 51
117.7863678218
  0
ARC
  5
27D
330
1F
100
AcDbEntity
  8
0
  6
Continuous
 62
     7
370
    25
100
AcDbCircle
 10
-1007.2383390503
 20
-1292.0958530849
 30
0.0
 40
0.4500000000004172
100
AcDbArc
 50
204.4698842763
 51
281.128126049
  0
ARC
  5
27E
330
1F
100
AcDbEntity
  8
0
  6
Continuous
 62
     7
370
    25
100
AcDbCircle
 10
-1009.9486688012
 20
-1290.7944884168
 30
0.0
 40
0.7874999999999931
100
AcDbArc
 50
324.4698842763
 51
57.7863678218
  0
ARC
  5
27F
330
1F
100
AcDbEntity
  8
0
  6
Continuous
 62
     7
370
    25
100
AcDbCircle
 10
-1008.9415787064
 20
-1291.513637769
 30
0.0
 40
0.449999999999962
100
AcDbArc
 50
144.4698842762
 51
221.1281260491
  0
ARC
  5
280
330
1F
100
AcDbEntity
  8
0
  6
Continuous
 62
     7
370
    25
100
AcDbCircle
 10
-1009.2889852803
 20
-1289.7474813002
 30
0.0
 40
0.450000000000242
100
AcDbArc
 50
161.1281260491
 51
237.7863678219
  0
ARC
  5
281
330
1F
100
AcDbEntity
  8
0
  6
Continuous
 62
     7
370
    25
100
AcDbCircle
 10
-667.5857456243
 20
-1290.3296966161
 30
0.0
 40
2.250000000000455
100
AcDbArc
 50
41.1281260491
 51
101.1281260491
  0
ARC
  5
282
330
1F
100
AcDbEntity
  8
0
  6
Continuous
 62
     7
370
    25
100
AcDbCircle
 10
-667.5857456243
 20
-1290.3296966161
 30
0.0
 40
2.250000000000455
100
AcDbArc
 50
101.1281260491
 51
161.1281260491
  0
ARC
  5
283
330
1F
100
AcDbEntity
  8
0
  6
Continuous
 62
     7
370
    25
100
AcDbCircle
 10
-667.5857456243
 20
-1290.3296966161
 30
0.0
 40
2.250000000000292
100
AcDbArc
 50
161.1281260491
 51
221.1281260491
  0
ARC
  5
284
330
1F
100
AcDbEntity
  8
0
  6
Continuous
 62
     7
370
    25
100
AcDbCircle
 10
-667.5857456243
 20
-1290.3296966161
 30
0.0
 40
2.250000000000254
100
AcDbArc
 50
221.1281260491
 51
281.1281260491
  0
ARC
  5
285
330
1F
100
AcDbEntity
  8
0
  6
Continuous
 62
     7
370
    25
100
AcDbCircle
 10
-667.5857456243
 20
-1290.3296966161
 30
0.0
 40
2.250000000000254
100
AcDbArc
 50
281.1281260491
 51
341.1281260491
  0
ARC
  5
286
330
1F
100
AcDbEntity
  8
0
  6
Continuous
 62
     7
370
    25
100
AcDbCircle
 10
-667.5857456243
 20
-1290.3296966161
 30
0.0
 40
2.250000000000111
100
AcDbArc
 50
341.1281260491
 51
41.1281260491
  0
CIRCLE
  5
287
330
1F
100
AcDbEntity
  8
0
  6
Continuous
 62
     7
370
    25
100
AcDbCircle
 10
-667.5857456243
 20
-1290.3296966161
 30
0.0
 40
3.850000000000135
  0
ARC
  5
288
330
1F
100
AcDbEntity
  8
0
  6
Continuous
 62
     7
370
    25
100
AcDbCircle
 10
-665.8825059682
 20
-1290.9119119321
 30
0.0
 40
0.4500000000001344
100
AcDbArc
 50
341.1281260491
 51
57.7863678218
  0
ARC
  5
289
330
1F
100
AcDbEntity
  8
0
  6
Continuous
 62
     7
370
    25
100
AcDbCircle
 10
-665.2228224473
 20
-1289.8649048155
 30
0.0
 40
0.7874999999999931
100
AcDbArc
 50
144.4698842763
 51
237.7863678219
  0
ARC
  5
28A
330
1F
100
AcDbEntity
  8
0
  6
Continuous
 62
     7
370
    25
100
AcDbCircle
 10
-666.2299125422
 20
-1289.1457554632
 30
0.0
 40
0.4499999999998696
100
AcDbArc
 50
324.4698842762
 51
41.1281260491
  0
ARC
  5
28B
330
1F
100
AcDbEntity
  8
0
  6
Continuous
 62
     7
370
    25
100
AcDbCircle
 10
-666.8068055426
 20
-1288.0509492173
 30
0.0
 40
0.787499999999983
100
AcDbArc
 50
204.4698842763
 51
297.7863678218
  0
ARC
  5
28C
330
1F
100
AcDbEntity
  8
0
  6
Continuous
 62
     7
370
    25
100
AcDbCircle
 10
-667.9331521982
 20
-1288.5635401473
 30
0.0
 40
0.4500000000003733
100
AcDbArc
 50
24.4698842763
 51
101.128126049
  0
ARC
  5
28D
330
1F
100
AcDbEntity
  8
0
  6
Continuous
 62
     7
370
    25
100
AcDbCircle
 10
-666.2299125422
 20
-1289.1457554632
 30
0.0
 40
0.4500000000002064
100
AcDbArc
 50
41.1281260491
 51
117.7863678219
  0
ARC
  5
28E
330
1F
100
AcDbEntity
  8
0
  6
Continuous
 62
     7
370
    25
100
AcDbCircle
 10
-669.2889852803
 20
-1289.7474813002
 30
0.0
 40
0.4500000000003496
100
AcDbArc
 50
84.4698842763
 51
161.1281260491
  0
ARC
  5
28F
330
1F
100
AcDbEntity
  8
0
  6
Continuous
 62
     7
370
    25
100
AcDbCircle
 10
-667.9331521982
 20
-1288.5635401473
 30
0.0
 40
0.4500000000003733
100
AcDbArc
 50
101.128126049
 51
177.7863678219
  0
ARC
  5
290
330
1F
100
AcDbEntity
  8
0
  6
Continuous
 62
     7
370
    25
100
AcDbCircle
 10
-669.1697287196
 20
-1288.515741018
 30
0.0
 40
0.7874999999997172
100
AcDbArc
 50
264.4698842763
 51
357.7863678218
  0
ARC
  5
291
330
1F
100
AcDbEntity
  8
0
  6
Continuous
 62
     7
370
    25
100
AcDbCircle
 10
-667.2383390503
 20
-1292.0958530849
 30
0.0
 40
0.4500000000003953
100
AcDbArc
 50
281.128126049
 51
357.7863678219
  0
ARC
  5
292
330
1F
100
AcDbEntity
  8
0
  6
Continuous
 62
     7
370
    25
100
AcDbCircle
 10
-666.001762529
 20
-1292.1436522142
 30
0.0
 40
0.7874999999997083
100
AcDbArc
 50
84.4698842763
 51
177.7863678218
  0
ARC
  5
293
330
1F
100
AcDbEntity
  8
0
  6
Continuous
 62
     7
370
    25
100
AcDbCircle
 10
-665.8825059682
 20
-1290.9119119321
 30
0.0
 40
0.4500000000001827
100
AcDbArc
 50
264.4698842763
 51
341.1281260491
  0
ARC
  5
294
330
1F
100
AcDbEntity
  8
0
  6
Continuous
 62
     7
370
    25
100
AcDbCircle
 10
-668.9415787064
 20
-1291.513637769
 30
0.0
 40
0.4499999999998993
100
AcDbArc
 50
221.1281260491
 51
297.7863678218
  0
ARC
  5
295
330
1F
100
AcDbEntity
  8
0
  6
Continuous
 62
     7
370
    25
100
AcDbCircle
 10
-668.3646857059
 20
-1292.6084440149
 30
0.0
 40
0.7875000000001441
100
AcDbArc
 50
24.4698842763
 51
117.7863678219
  0
ARC
  5
296
330
1F
100
AcDbEntity
  8
0
  6
Continuous
 62
     7
370
    25
100
AcDbCircle
 10
-667.2383390503
 20
-1292.0958530849
 30
0.0
 40
0.4500000000003953
100
AcDbArc
 50
204.4698842763
 51
281.128126049
  0
ARC
  5
297
330
1F
100
AcDbEntity
  8
0
  6
Continuous
 62
     7
370
    25
100
AcDbCircle
 10
-669.9486688012
 20
-1290.7944884168
 30
0.0
 40
0.7875000000001252
100
AcDbArc
 50
324.4698842763
 51
57.7863678218
  0
ARC
  5
298
330
1F
100
AcDbEntity
  8
0
  6
Continuous
 62
     7
370
    25
100
AcDbCircle
 10
-668.9415787064
 20
-1291.513637769
 30
0.0
 40
0.4499999999999224
100
AcDbArc
 50
144.4698842763
 51
221.1281260491
  0
ARC
  5
299
330
1F
100
AcDbEntity
  8
0
  6
Continuous
 62
     7
370
    25
100
AcDbCircle
 10
-669.2889852803
 20
-1289.7474813002
 30
0.0
 40
0.4500000000003496
100
AcDbArc
 50
161.1281260491
 51
237.7863678218
  0
ARC
  5
29A
330
1F
100
AcDbEntity
  8
0
  6
Continuous
 62
     7
370
    25
100
AcDbCircle
 10
-507.5857456243
 20
-1290.3296966161
 30
0.0
 40
2.25000000000022
100
AcDbArc
 50
41.1281260491
 51
101.1281260491
  0
ARC
  5
29B
330
1F
100
AcDbEntity
  8
0
  6
Continuous
 62
     7
370
    25
100
AcDbCircle
 10
-506.2299125422
 20
-1289.1457554632
 30
0.0
 40
0.4500000000001799
100
AcDbArc
 50
41.1281260491
 51
117.7863678218
  0
ARC
  5
29C
330
1F
100
AcDbEntity
  8
0
  6
Continuous
 62
     7
370
    25
100
AcDbCircle
 10
-506.8068055426
 20
-1288.0509492173
 30
0.0
 40
0.787499999999983
100
AcDbArc
 50
204.4698842763
 51
297.7863678218
  0
ARC
  5
29D
330
1F
100
AcDbEntity
  8
0
  6
Continuous
 62
     7
370
    25
100
AcDbCircle
 10
-507.9331521982
 20
-1288.5635401473
 30
0.0
 40
0.4500000000002041
100
AcDbArc
 50
24.4698842763
 51
101.128126049
  0
ARC
  5
29E
330
1F
100
AcDbEntity
  8
0
  6
Continuous
 62
     7
370
    25
100
AcDbCircle
 10
-507.5857456243
 20
-1290.3296966161
 30
0.0
 40
2.250000000000275
100
AcDbArc
 50
281.1281260491
 51
341.1281260491
  0
ARC
  5
29F
330
1F
100
AcDbEntity
  8
0
  6
Continuous
 62
     7
370
    25
100
AcDbCircle
 10
-507.2383390503
 20
-1292.0958530849
 30
0.0
 40
0.4500000000002402
100
AcDbArc
 50
281.128126049
 51
357.7863678219
  0
ARC
  5
2A0
330
1F
100
AcDbEntity
  8
0
  6
Continuous
 62
     7
370
    25
100
AcDbCircle
 10
-506.001762529
 20
-1292.1436522142
 30
0.0
 40
0.7874999999997083
100
AcDbArc
 50
84.4698842763
 51
177.7863678218
  0
ARC
  5
2A1
330
1F
100
AcDbEntity
  8
0
  6
Continuous
 62
     7
370
    25
100
AcDbCircle
 10
-505.8825059682
 20
-1290.911911932
 30
0.0
 40
0.4500000000001882
100
AcDbArc
 50
264.4698842763
 51
341.1281260491
  0
ARC
  5
2A2
330
1F
100
AcDbEntity
  8
0
  6
Continuous
 62
     7
370
    25
100
AcDbCircle
 10
-507.5857456243
 20
-1290.3296966161
 30
0.0
 40
2.250000000000238
100
AcDbArc
 50
101.1281260491
 51
161.1281260491
  0
ARC
  5
2A3
330
1F
100
AcDbEntity
  8
0
  6
Continuous
 62
     7
370
    25
100
AcDbCircle
 10
-507.9331521982
 20
-1288.5635401473
 30
0.0
 40
0.4500000000001834
100
AcDbArc
 50
101.128126049
 51
177.7863678219
  0
ARC
  5
2A4
330
1F
100
AcDbEntity
  8
0
  6
Continuous
 62
     7
370
    25
100
AcDbCircle
 10
-509.1697287196
 20
-1288.515741018
 30
0.0
 40
0.7874999999997172
100
AcDbArc
 50
264.4698842763
 51
357.7863678218
  0
ARC
  5
2A5
330
1F
100
AcDbEntity
  8
0
  6
Continuous
 62
     7
370
    25
100
AcDbCircle
 10
-509.2889852803
 20
-1289.7474813002
 30
0.0
 40
0.4500000000004034
100
AcDbArc
 50
84.4698842763
 51
161.1281260491
  0
ARC
  5
2A6
330
1F
100
AcDbEntity
  8
0
  6
Continuous
 62
     7
370
    25
100
AcDbCircle
 10
-507.5857456243
 20
-1290.3296966161
 30
0.0
 40
2.250000000000218
100
AcDbArc
 50
341.1281260491
 51
41.1281260491
  0
ARC
  5
2A7
330
1F
100
AcDbEntity
  8
0
  6
Continuous
 62
     7
370
    25
100
AcDbCircle
 10
-506.2299125422
 20
-1289.1457554632
 30
0.0
 40
0.4499999999999158
100
AcDbArc
 50
324.4698842762
 51
41.1281260491
  0
ARC
  5
2A8
330
1F
100
AcDbEntity
  8
0
  6
Continuous
 62
     7
370
    25
100
AcDbCircle
 10
-505.2228224473
 20
-1289.8649048155
 30
0.0
 40
0.7874999999999931
100
AcDbArc
 50
144.4698842763
 51
237.7863678218
  0
ARC
  5
2A9
330
1F
100
AcDbEntity
  8
0
  6
Continuous
 62
     7
370
    25
100
AcDbCircle
 10
-505.8825059682
 20
-1290.911911932
 30
0.0
 40
0.4500000000001882
100
AcDbArc
 50
341.1281260491
 51
57.7863678218
  0
ARC
  5
2AA
330
1F
100
AcDbEntity
  8
0
  6
Continuous
 62
     7
370
    25
100
AcDbCircle
 10
-507.5857456243
 20
-1290.3296966161
 30
0.0
 40
2.250000000000238
100
AcDbArc
 50
161.1281260491
 51
221.1281260491
  0
ARC
  5
2AB
330
1F
100
AcDbEntity
  8
0
  6
Continuous
 62
     7
370
    25
100
AcDbCircle
 10
-507.5857456243
 20
-1290.3296966161
 30
0.0
 40
2.250000000000275
100
AcDbArc
 50
221.1281260491
 51
281.1281260491
  0
CIRCLE
  5
2AC
330
1F
100
AcDbEntity
  8
0
  6
Continuous
 62
     7
370
    25
100
AcDbCircle
 10
-507.5857456243
 20
-1290.3296966161
 30
0.0
 40
3.850000000000135
  0
ARC
  5
2AD
330
1F
100
AcDbEntity
  8
0
  6
Continuous
 62
     7
370
    25
100
AcDbCircle
 10
-509.9486688012
 20
-1290.7944884168
 30
0.0
 40
0.7875000000001252
100
AcDbArc
 50
324.4698842763
 51
57.7863678218
  0
ARC
  5
2AE
330
1F
100
AcDbEntity
  8
0
  6
Continuous
 62
     7
370
    25
100
AcDbCircle
 10
-508.9415787064
 20
-1291.513637769
 30
0.0
 40
0.4499999999999687
100
AcDbArc
 50
144.4698842763
 51
221.1281260491
  0
ARC
  5
2AF
330
1F
100
AcDbEntity
  8
0
  6
Continuous
 62
     7
370
    25
100
AcDbCircle
 10
-509.2889852803
 20
-1289.7474813002
 30
0.0
 40
0.4500000000004034
100
AcDbArc
 50
161.1281260491
 51
237.7863678218
  0
ARC
  5
2B0
330
1F
100
AcDbEntity
  8
0
  6
Continuous
 62
     7
370
    25
100
AcDbCircle
 10
-508.3646857059
 20
-1292.6084440149
 30
0.0
 40
0.7875000000001177
100
AcDbArc
 50
24.4698842763
 51
117.7863678218
  0
ARC
  5
2B1
330
1F
100
AcDbEntity
  8
0
  6
Continuous
 62
     7
370
    25
100
AcDbCircle
 10
-508.9415787064
 20
-1291.513637769
 30
0.0
 40
0.4499999999998728
100
AcDbArc
 50
221.1281260491
 51
297.7863678218
  0
ARC
  5
2B2
330
1F
100
AcDbEntity
  8
0
  6
Continuous
 62
     7
370
    25
100
AcDbCircle
 10
-507.2383390503
 20
-1292.0958530849
 30
0.0
 40
0.4500000000001941
100
AcDbArc
 50
204.4698842763
 51
281.128126049
  0
ARC
  5
2B3
330
1F
100
AcDbEntity
  8
0
  6
Continuous
 62
     7
370
    25
100
AcDbCircle
 10
-72.5857456243
 20
-1290.3296966161
 30
0.0
 40
2.250000000000265
100
AcDbArc
 50
101.1281260491
 51
161.1281260491
  0
ARC
  5
2B4
330
1F
100
AcDbEntity
  8
0
  6
Continuous
 62
     7
370
    25
100
AcDbCircle
 10
-72.9331521982
 20
-1288.5635401473
 30
0.0
 40
0.450000000000155
100
AcDbArc
 50
101.128126049
 51
177.7863678219
  0
ARC
  5
2B5
330
1F
100
AcDbEntity
  8
0
  6
Continuous
 62
     7
370
    25
100
AcDbCircle
 10
-74.2889852803
 20
-1289.7474813002
 30
0.0
 40
0.4500000000004021
100
AcDbArc
 50
84.4698842763
 51
161.1281260491
  0
ARC
  5
2B6
330
1F
100
AcDbEntity
  8
0
  6
Continuous
 62
     7
370
    25
100
AcDbCircle
 10
-74.1697287196
 20
-1288.515741018
 30
0.0
 40
0.7874999999997172
100
AcDbArc
 50
264.4698842763
 51
357.7863678218
  0
ARC
  5
2B7
330
1F
100
AcDbEntity
  8
0
  6
Continuous
 62
     7
370
    25
100
AcDbCircle
 10
-72.5857456243
 20
-1290.3296966161
 30
0.0
 40
2.25000000000024
100
AcDbArc
 50
41.1281260491
 51
101.1281260491
  0
ARC
  5
2B8
330
1F
100
AcDbEntity
  8
0
  6
Continuous
 62
     7
370
    25
100
AcDbCircle
 10
-72.5857456243
 20
-1290.3296966161
 30
0.0
 40
2.250000000000265
100
AcDbArc
 50
161.1281260491
 51
221.1281260491
  0
ARC
  5
2B9
330
1F
100
AcDbEntity
  8
0
  6
Continuous
 62
     7
370
    25
100
AcDbCircle
 10
-72.5857456243
 20
-1290.3296966161
 30
0.0
 40
2.250000000000237
100
AcDbArc
 50
221.1281260491
 51
281.1281260491
  0
ARC
  5
2BA
330
1F
100
AcDbEntity
  8
0
  6
Continuous
 62
     7
370
    25
100
AcDbCircle
 10
-72.5857456243
 20
-1290.3296966161
 30
0.0
 40
2.250000000000237
100
AcDbArc
 50
281.1281260491
 51
341.1281260491
  0
ARC
  5
2BB
330
1F
100
AcDbEntity
  8
0
  6
Continuous
 62
     7
370
    25
100
AcDbCircle
 10
-72.5857456243
 20
-1290.3296966161
 30
0.0
 40
2.250000000000179
100
AcDbArc
 50
341.1281260491
 51
41.1281260491
  0
CIRCLE
  5
2BC
330
1F
100
AcDbEntity
  8
0
  6
Continuous
 62
     7
370
    25
100
AcDbCircle
 10
-72.5857456243
 20
-1290.3296966161
 30
0.0
 40
3.850000000000113
  0
ARC
  5
2BD
330
1F
100
AcDbEntity
  8
0
  6
Continuous
 62
     7
370
    25
100
AcDbCircle
 10
-71.2299125422
 20
-1289.1457554632
 30
0.0
 40
0.4500000000001004
100
AcDbArc
 50
41.1281260491
 51
117.7863678218
  0
ARC
  5
2BE
330
1F
100
AcDbEntity
  8
0
  6
Continuous
 62
     7
370
    25
100
AcDbCircle
 10
-72.9331521982
 20
-1288.5635401473
 30
0.0
 40
0.4500000000001474
100
AcDbArc
 50
24.4698842763
 51
101.128126049
  0
ARC
  5
2BF
330
1F
100
AcDbEntity
  8
0
  6
Continuous
 62
     7
370
    25
100
AcDbCircle
 10
-71.8068055426
 20
-1288.0509492173
 30
0.0
 40
0.7875000000000476
100
AcDbArc
 50
204.4698842763
 51
297.7863678218
  0
ARC
  5
2C0
330
1F
100
AcDbEntity
  8
0
  6
Continuous
 62
     7
370
    25
100
AcDbCircle
 10
-70.8825059682
 20
-1290.911911932
 30
0.0
 40
0.450000000000242
100
AcDbArc
 50
341.1281260491
 51
57.7863678218
  0
ARC
  5
2C1
330
1F
100
AcDbEntity
  8
0
  6
Continuous
 62
     7
370
    25
100
AcDbCircle
 10
-70.2228224473
 20
-1289.8649048155
 30
0.0
 40
0.7875000000000048
100
AcDbArc
 50
144.4698842763
 51
237.7863678218
  0
ARC
  5
2C2
330
1F
100
AcDbEntity
  8
0
  6
Continuous
 62
     7
370
    25
100
AcDbCircle
 10
-71.2299125422
 20
-1289.1457554632
 30
0.0
 40
0.450000000000043
100
AcDbArc
 50
324.4698842763
 51
41.1281260491
  0
ARC
  5
2C3
330
1F
100
AcDbEntity
  8
0
  6
Continuous
 62
     7
370
    25
100
AcDbCircle
 10
-72.2383390503
 20
-1292.0958530849
 30
0.0
 40
0.4500000000002118
100
AcDbArc
 50
281.128126049
 51
357.7863678219
  0
ARC
  5
2C4
330
1F
100
AcDbEntity
  8
0
  6
Continuous
 62
     7
370
    25
100
AcDbCircle
 10
-70.8825059682
 20
-1290.911911932
 30
0.0
 40
0.450000000000242
100
AcDbArc
 50
264.4698842763
 51
341.1281260491
  0
ARC
  5
2C5
330
1F
100
AcDbEntity
  8
0
  6
Continuous
 62
     7
370
    25
100
AcDbCircle
 10
-71.001762529
 20
-1292.1436522142
 30
0.0
 40
0.7874999999997083
100
AcDbArc
 50
84.4698842763
 51
177.7863678218
  0
ARC
  5
2C6
330
1F
100
AcDbEntity
  8
0
  6
Continuous
 62
     7
370
    25
100
AcDbCircle
 10
-74.2889852803
 20
-1289.7474813002
 30
0.0
 40
0.4500000000003155
100
AcDbArc
 50
161.1281260491
 51
237.7863678218
  0
ARC
  5
2C7
330
1F
100
AcDbEntity
  8
0
  6
Continuous
 62
     7
370
    25
100
AcDbCircle
 10
-73.9415787064
 20
-1291.513637769
 30
0.0
 40
0.4499999999999687
100
AcDbArc
 50
144.4698842763
 51
221.1281260491
  0
ARC
  5
2C8
330
1F
100
AcDbEntity
  8
0
  6
Continuous
 62
     7
370
    25
100
AcDbCircle
 10
-74.9486688012
 20
-1290.7944884168
 30
0.0
 40
0.7875000000000906
100
AcDbArc
 50
324.4698842763
 51
57.7863678218
  0
ARC
  5
2C9
330
1F
100
AcDbEntity
  8
0
  6
Continuous
 62
     7
370
    25
100
AcDbCircle
 10
-72.2383390503
 20
-1292.0958530849
 30
0.0
 40
0.4500000000001584
100
AcDbArc
 50
204.4698842763
 51
281.128126049
  0
ARC
  5
2CA
330
1F
100
AcDbEntity
  8
0
  6
Continuous
 62
     7
370
    25
100
AcDbCircle
 10
-73.9415787064
 20
-1291.513637769
 30
0.0
 40
0.4499999999998661
100
AcDbArc
 50
221.1281260491
 51
297.7863678218
  0
ARC
  5
2CB
330
1F
100
AcDbEntity
  8
0
  6
Continuous
 62
     7
370
    25
100
AcDbCircle
 10
-73.3646857059
 20
-1292.6084440149
 30
0.0
 40
0.7875000000000845
100
AcDbArc
 50
24.4698842763
 51
117.7863678218
  0
ARC
  5
2CC
330
1F
100
AcDbEntity
  8
0
  6
Continuous
 62
     7
370
    25
100
AcDbCircle
 10
-1232.5857456243
 20
-905.3296966161
 30
0.0
 40
2.250000000000387
100
AcDbArc
 50
41.1281260491
 51
101.1281260491
  0
ARC
  5
2CD
330
1F
100
AcDbEntity
  8
0
  6
Continuous
 62
     7
370
    25
100
AcDbCircle
 10
-1231.2299125422
 20
-904.1457554632
 30
0.0
 40
0.4499999999998462
100
AcDbArc
 50
41.1281260491
 51
117.7863678218
  0
ARC
  5
2CE
330
1F
100
AcDbEntity
  8
0
  6
Continuous
 62
     7
370
    25
100
AcDbCircle
 10
-1231.8068055426
 20
-903.0509492173
 30
0.0
 40
0.7875000000002934
100
AcDbArc
 50
204.4698842763
 51
297.7863678218
  0
ARC
  5
2CF
330
1F
100
AcDbEntity
  8
0
  6
Continuous
 62
     7
370
    25
100
AcDbCircle
 10
-1232.9331521982
 20
-903.5635401473
 30
0.0
 40
0.4500000000003276
100
AcDbArc
 50
24.4698842763
 51
101.128126049
  0
ARC
  5
2D0
330
1F
100
AcDbEntity
  8
0
  6
Continuous
 62
     7
370
    25
100
AcDbCircle
 10
-1232.5857456243
 20
-905.3296966161
 30
0.0
 40
2.250000000000387
100
AcDbArc
 50
101.1281260491
 51
161.1281260491
  0
ARC
  5
2D1
330
1F
100
AcDbEntity
  8
0
  6
Continuous
 62
     7
370
    25
100
AcDbCircle
 10
-1232.5857456243
 20
-905.3296966161
 30
0.0
 40
2.250000000000222
100
AcDbArc
 50
161.1281260491
 51
221.1281260491
  0
ARC
  5
2D2
330
1F
100
AcDbEntity
  8
0
  6
Continuous
 62
     7
370
    25
100
AcDbCircle
 10
-1232.5857456243
 20
-905.3296966161
 30
0.0
 40
2.250000000000275
100
AcDbArc
 50
221.1281260491
 51
281.1281260491
  0
ARC
  5
2D3
330
1F
100
AcDbEntity
  8
0
  6
Continuous
 62
     7
370
    25
100
AcDbCircle
 10
-1232.5857456243
 20
-905.3296966161
 30
0.0
 40
2.2500000000004
100
AcDbArc
 50
281.1281260491
 51
341.1281260491
  0
ARC
  5
2D4
330
1F
100
AcDbEntity
  8
0
  6
Continuous
 62
     7
370
    25
100
AcDbCircle
 10
-1232.5857456243
 20
-905.3296966161
 30
0.0
 40
2.2500000000004
100
AcDbArc
 50
341.1281260491
 51
41.1281260491
  0
CIRCLE
  5
2D5
330
1F
100
AcDbEntity
  8
0
  6
Continuous
 62
     7
370
    25
100
AcDbCircle
 10
-1232.5857456243
 20
-905.3296966161
 30
0.0
 40
3.850000000000071
  0
ARC
  5
2D6
330
1F
100
AcDbEntity
  8
0
  6
Continuous
 62
     7
370
    25
100
AcDbCircle
 10
-1232.9331521982
 20
-903.5635401473
 30
0.0
 40
0.4500000000003276
100
AcDbArc
 50
101.128126049
 51
177.7863678219
  0
ARC
  5
2D7
330
1F
100
AcDbEntity
  8
0
  6
Continuous
 62
     7
370
    25
100
AcDbCircle
 10
-1234.1697287196
 20
-903.515741018
 30
0.0
 40
0.7874999999997447
100
AcDbArc
 50
264.4698842763
 51
357.7863678218
  0
ARC
  5
2D8
330
1F
100
AcDbEntity
  8
0
  6
Continuous
 62
     7
370
    25
100
AcDbCircle
 10
-1234.2889852803
 20
-904.7474813002
 30
0.0
 40
0.450000000000208
100
AcDbArc
 50
84.4698842763
 51
161.1281260491
  0
ARC
  5
2D9
330
1F
100
AcDbEntity
  8
0
  6
Continuous
 62
     7
370
    25
100
AcDbCircle
 10
-1230.2228224473
 20
-904.8649048154
 30
0.0
 40
0.7875000000000044
100
AcDbArc
 50
144.4698842763
 51
237.7863678218
  0
ARC
  5
2DA
330
1F
100
AcDbEntity
  8
0
  6
Continuous
 62
     7
370
    25
100
AcDbCircle
 10
-1231.2299125422
 20
-904.1457554632
 30
0.0
 40
0.4499999999998299
100
AcDbArc
 50
324.4698842763
 51
41.1281260491
  0
ARC
  5
2DB
330
1F
100
AcDbEntity
  8
0
  6
Continuous
 62
     7
370
    25
100
AcDbCircle
 10
-1230.8825059682
 20
-905.911911932
 30
0.0
 40
0.4500000000004231
100
AcDbArc
 50
341.1281260491
 51
57.7863678219
  0
ARC
  5
2DC
330
1F
100
AcDbEntity
  8
0
  6
Continuous
 62
     7
370
    25
100
AcDbCircle
 10
-1232.2383390503
 20
-907.0958530849
 30
0.0
 40
0.4500000000002837
100
AcDbArc
 50
281.128126049
 51
357.7863678219
  0
ARC
  5
2DD
330
1F
100
AcDbEntity
  8
0
  6
Continuous
 62
     7
370
    25
100
AcDbCircle
 10
-1231.001762529
 20
-907.1436522142
 30
0.0
 40
0.7874999999997447
100
AcDbArc
 50
84.4698842763
 51
177.7863678218
  0
ARC
  5
2DE
330
1F
100
AcDbEntity
  8
0
  6
Continuous
 62
     7
370
    25
100
AcDbCircle
 10
-1230.8825059682
 20
-905.911911932
 30
0.0
 40
0.4500000000004231
100
AcDbArc
 50
264.4698842763
 51
341.1281260491
  0
ARC
  5
2DF
330
1F
100
AcDbEntity
  8
0
  6
Continuous
 62
     7
370
    25
100
AcDbCircle
 10
-1234.2889852803
 20
-904.7474813002
 30
0.0
 40
0.450000000000208
100
AcDbArc
 50
161.1281260491
 51
237.7863678219
  0
ARC
  5
2E0
330
1F
100
AcDbEntity
  8
0
  6
Continuous
 62
     7
370
    25
100
AcDbCircle
 10
-1234.9486688012
 20
-905.7944884168
 30
0.0
 40
0.7875000000001255
100
AcDbArc
 50
324.4698842763
 51
57.7863678218
  0
ARC
  5
2E1
330
1F
100
AcDbEntity
  8
0
  6
Continuous
 62
     7
370
    25
100
AcDbCircle
 10
-1233.9415787064
 20
-906.513637769
 30
0.0
 40
0.4499999999998299
100
AcDbArc
 50
144.4698842763
 51
221.1281260491
  0
ARC
  5
2E2
330
1F
100
AcDbEntity
  8
0
  6
Continuous
 62
     7
370
    25
100
AcDbCircle
 10
-1233.9415787064
 20
-906.513637769
 30
0.0
 40
0.4499999999999523
100
AcDbArc
 50
221.1281260491
 51
297.7863678219
  0
ARC
  5
2E3
330
1F
100
AcDbEntity
  8
0
  6
Continuous
 62
     7
370
    25
100
AcDbCircle
 10
-1232.2383390503
 20
-907.0958530849
 30
0.0
 40
0.4500000000002837
100
AcDbArc
 50
204.4698842763
 51
281.128126049
  0
ARC
  5
2E4
330
1F
100
AcDbEntity
  8
0
  6
Continuous
 62
     7
370
    25
100
AcDbCircle
 10
-1233.3646857059
 20
-907.6084440149
 30
0.0
 40
0.7875000000001335
100
AcDbArc
 50
24.4698842763
 51
117.7863678218
  0
ARC
  5
2E5
330
1F
100
AcDbEntity
  8
0
  6
Continuous
 62
     7
370
    25
100
AcDbCircle
 10
-847.5857456243
 20
-1290.3296966161
 30
0.0
 40
2.250000000000477
100
AcDbArc
 50
41.1281260491
 51
101.1281260491
  0
ARC
  5
2E6
330
1F
100
AcDbEntity
  8
0
  6
Continuous
 62
     7
370
    25
100
AcDbCircle
 10
-846.2299125422
 20
-1289.1457554632
 30
0.0
 40
0.4500000000002064
100
AcDbArc
 50
41.1281260491
 51
117.7863678219
  0
ARC
  5
2E7
330
1F
100
AcDbEntity
  8
0
  6
Continuous
 62
     7
370
    25
100
AcDbCircle
 10
-846.8068055426
 20
-1288.0509492173
 30
0.0
 40
0.787499999999983
100
AcDbArc
 50
204.4698842763
 51
297.7863678218
  0
ARC
  5
2E8
330
1F
100
AcDbEntity
  8
0
  6
Continuous
 62
     7
370
    25
100
AcDbCircle
 10
-847.9331521982
 20
-1288.5635401473
 30
0.0
 40
0.4500000000003513
100
AcDbArc
 50
24.4698842763
 51
101.128126049
  0
ARC
  5
2E9
330
1F
100
AcDbEntity
  8
0
  6
Continuous
 62
     7
370
    25
100
AcDbCircle
 10
-847.5857456243
 20
-1290.3296966161
 30
0.0
 40
2.250000000000477
100
AcDbArc
 50
101.1281260491
 51
161.1281260491
  0
ARC
  5
2EA
330
1F
100
AcDbEntity
  8
0
  6
Continuous
 62
     7
370
    25
100
AcDbCircle
 10
-847.9331521982
 20
-1288.5635401473
 30
0.0
 40
0.4500000000003513
100
AcDbArc
 50
101.128126049
 51
177.7863678219
  0
ARC
  5
2EB
330
1F
100
AcDbEntity
  8
0
  6
Continuous
 62
     7
370
    25
100
AcDbCircle
 10
-849.1697287196
 20
-1288.515741018
 30
0.0
 40
0.7874999999997172
100
AcDbArc
 50
264.4698842763
 51
357.7863678218
  0
ARC
  5
2EC
330
1F
100
AcDbEntity
  8
0
  6
Continuous
 62
     7
370
    25
100
AcDbCircle
 10
-849.2889852803
 20
-1289.7474813002
 30
0.0
 40
0.4500000000003496
100
AcDbArc
 50
84.4698842763
 51
161.1281260491
  0
ARC
  5
2ED
330
1F
100
AcDbEntity
  8
0
  6
Continuous
 62
     7
370
    25
100
AcDbCircle
 10
-847.5857456243
 20
-1290.3296966161
 30
0.0
 40
2.250000000000231
100
AcDbArc
 50
281.1281260491
 51
341.1281260491
  0
ARC
  5
2EE
330
1F
100
AcDbEntity
  8
0
  6
Continuous
 62
     7
370
    25
100
AcDbCircle
 10
-847.2383390503
 20
-1292.0958530849
 30
0.0
 40
0.4500000000004172
100
AcDbArc
 50
281.128126049
 51
357.7863678219
  0
ARC
  5
2EF
330
1F
100
AcDbEntity
  8
0
  6
Continuous
 62
     7
370
    25
100
AcDbCircle
 10
-845.8825059682
 20
-1290.9119119321
 30
0.0
 40
0.4500000000001827
100
AcDbArc
 50
264.4698842763
 51
341.1281260491
  0
ARC
  5
2F0
330
1F
100
AcDbEntity
  8
0
  6
Continuous
 62
     7
370
    25
100
AcDbCircle
 10
-846.001762529
 20
-1292.1436522142
 30
0.0
 40
0.7874999999997083
100
AcDbArc
 50
84.4698842763
 51
177.7863678218
  0
ARC
  5
2F1
330
1F
100
AcDbEntity
  8
0
  6
Continuous
 62
     7
370
    25
100
AcDbCircle
 10
-847.5857456243
 20
-1290.3296966161
 30
0.0
 40
2.250000000000004
100
AcDbArc
 50
341.1281260491
 51
41.1281260491
  0
ARC
  5
2F2
330
1F
100
AcDbEntity
  8
0
  6
Continuous
 62
     7
370
    25
100
AcDbCircle
 10
-845.8825059682
 20
-1290.9119119321
 30
0.0
 40
0.4500000000001344
100
AcDbArc
 50
341.1281260491
 51
57.7863678218
  0
ARC
  5
2F3
330
1F
100
AcDbEntity
  8
0
  6
Continuous
 62
     7
370
    25
100
AcDbCircle
 10
-845.2228224473
 20
-1289.8649048155
 30
0.0
 40
0.7875000000001782
100
AcDbArc
 50
144.4698842763
 51
237.7863678218
  0
ARC
  5
2F4
330
1F
100
AcDbEntity
  8
0
  6
Continuous
 62
     7
370
    25
100
AcDbCircle
 10
-846.2299125422
 20
-1289.1457554632
 30
0.0
 40
0.4499999999998696
100
AcDbArc
 50
324.4698842762
 51
41.1281260491
  0
ARC
  5
2F5
330
1F
100
AcDbEntity
  8
0
  6
Continuous
 62
     7
370
    25
100
AcDbCircle
 10
-847.5857456243
 20
-1290.3296966161
 30
0.0
 40
2.2500000000004
100
AcDbArc
 50
161.1281260491
 51
221.1281260491
  0
ARC
  5
2F6
330
1F
100
AcDbEntity
  8
0
  6
Continuous
 62
     7
370
    25
100
AcDbCircle
 10
-847.5857456243
 20
-1290.3296966161
 30
0.0
 40
2.250000000000231
100
AcDbArc
 50
221.1281260491
 51
281.1281260491
  0
CIRCLE
  5
2F7
330
1F
100
AcDbEntity
  8
0
  6
Continuous
 62
     7
370
    25
100
AcDbCircle
 10
-847.5857456243
 20
-1290.3296966161
 30
0.0
 40
3.849999999999963
  0
ARC
  5
2F8
330
1F
100
AcDbEntity
  8
0
  6
Continuous
 62
     7
370
    25
100
AcDbCircle
 10
-849.2889852803
 20
-1289.7474813002
 30
0.0
 40
0.4500000000003496
100
AcDbArc
 50
161.1281260491
 51
237.7863678218
  0
ARC
  5
2F9
330
1F
100
AcDbEntity
  8
0
  6
Continuous
 62
     7
370
    25
100
AcDbCircle
 10
-849.9486688012
 20
-1290.7944884168
 30
0.0
 40
0.7874999999998081
100
AcDbArc
 50
324.4698842763
 51
57.7863678219
  0
ARC
  5
2FA
330
1F
100
AcDbEntity
  8
0
  6
Continuous
 62
     7
370
    25
100
AcDbCircle
 10
-848.9415787064
 20
-1291.513637769
 30
0.0
 40
0.4500000000000546
100
AcDbArc
 50
144.4698842763
 51
221.1281260491
  0
ARC
  5
2FB
330
1F
100
AcDbEntity
  8
0
  6
Continuous
 62
     7
370
    25
100
AcDbCircle
 10
-848.9415787064
 20
-1291.513637769
 30
0.0
 40
0.4499999999998993
100
AcDbArc
 50
221.1281260491
 51
297.7863678218
  0
ARC
  5
2FC
330
1F
100
AcDbEntity
  8
0
  6
Continuous
 62
     7
370
    25
100
AcDbCircle
 10
-848.3646857059
 20
-1292.6084440149
 30
0.0
 40
0.7875000000000911
100
AcDbArc
 50
24.4698842763
 51
117.7863678218
  0
ARC
  5
2FD
330
1F
100
AcDbEntity
  8
0
  6
Continuous
 62
     7
370
    25
100
AcDbCircle
 10
-847.2383390503
 20
-1292.0958530849
 30
0.0
 40
0.4500000000004172
100
AcDbArc
 50
204.4698842763
 51
281.128126049
  0
ARC
  5
2FE
330
1F
100
AcDbEntity
  8
0
  6
Continuous
 62
     7
370
    25
100
AcDbCircle
 10
87.4142543757
 20
-1290.3296966161
 30
0.0
 40
2.250000000000248
100
AcDbArc
 50
41.1281260491
 51
101.1281260491
  0
ARC
  5
2FF
330
1F
100
AcDbEntity
  8
0
  6
Continuous
 62
     7
370
    25
100
AcDbCircle
 10
88.7700874578
 20
-1289.1457554632
 30
0.0
 40
0.4500000000000673
100
AcDbArc
 50
41.128126049
 51
117.7863678218
  0
ARC
  5
300
330
1F
100
AcDbEntity
  8
0
  6
Continuous
 62
     7
370
    25
100
AcDbCircle
 10
88.1931944574
 20
-1288.0509492173
 30
0.0
 40
0.7874999999999959
100
AcDbArc
 50
204.4698842763
 51
297.7863678219
  0
ARC
  5
301
330
1F
100
AcDbEntity
  8
0
  6
Continuous
 62
     7
370
    25
100
AcDbCircle
 10
87.0668478018
 20
-1288.5635401473
 30
0.0
 40
0.4500000000001694
100
AcDbArc
 50
24.4698842763
 51
101.128126049
  0
ARC
  5
302
330
1F
100
AcDbEntity
  8
0
  6
Continuous
 62
     7
370
    25
100
AcDbCircle
 10
87.4142543757
 20
-1290.3296966161
 30
0.0
 40
2.250000000000252
100
AcDbArc
 50
101.1281260491
 51
161.1281260491
  0
ARC
  5
303
330
1F
100
AcDbEntity
  8
0
  6
Continuous
 62
     7
370
    25
100
AcDbCircle
 10
87.4142543757
 20
-1290.3296966161
 30
0.0
 40
2.250000000000252
100
AcDbArc
 50
161.1281260491
 51
221.1281260491
  0
ARC
  5
304
330
1F
100
AcDbEntity
  8
0
  6
Continuous
 62
     7
370
    25
100
AcDbCircle
 10
87.4142543757
 20
-1290.3296966161
 30
0.0
 40
2.25000000000025
100
AcDbArc
 50
221.1281260491
 51
281.1281260491
  0
ARC
  5
305
330
1F
100
AcDbEntity
  8
0
  6
Continuous
 62
     7
370
    25
100
AcDbCircle
 10
87.4142543757
 20
-1290.3296966161
 30
0.0
 40
2.25000000000025
100
AcDbArc
 50
281.1281260491
 51
341.1281260491
  0
ARC
  5
306
330
1F
100
AcDbEntity
  8
0
  6
Continuous
 62
     7
370
    25
100
AcDbCircle
 10
87.4142543757
 20
-1290.3296966161
 30
0.0
 40
2.250000000000192
100
AcDbArc
 50
341.1281260491
 51
41.1281260491
  0
CIRCLE
  5
307
330
1F
100
AcDbEntity
  8
0
  6
Continuous
 62
     7
370
    25
100
AcDbCircle
 10
87.4142543757
 20
-1290.3296966161
 30
0.0
 40
3.850000000000124
  0
ARC
  5
308
330
1F
100
AcDbEntity
  8
0
  6
Continuous
 62
     7
370
    25
100
AcDbCircle
 10
87.0668478018
 20
-1288.5635401473
 30
0.0
 40
0.4500000000002118
100
AcDbArc
 50
101.128126049
 51
177.7863678219
  0
ARC
  5
309
330
1F
100
AcDbEntity
  8
0
  6
Continuous
 62
     7
370
    25
100
AcDbCircle
 10
85.8302712804
 20
-1288.515741018
 30
0.0
 40
0.7874999999997313
100
AcDbArc
 50
264.4698842763
 51
357.7863678218
  0
ARC
  5
30A
330
1F
100
AcDbEntity
  8
0
  6
Continuous
 62
     7
370
    25
100
AcDbCircle
 10
85.7110147197
 20
-1289.7474813002
 30
0.0
 40
0.4500000000002823
100
AcDbArc
 50
84.4698842763
 51
161.1281260491
  0
ARC
  5
30B
330
1F
100
AcDbEntity
  8
0
  6
Continuous
 62
     7
370
    25
100
AcDbCircle
 10
89.7771775527
 20
-1289.8649048155
 30
0.0
 40
0.7875000000000048
100
AcDbArc
 50
144.4698842763
 51
237.7863678218
  0
ARC
  5
30C
330
1F
100
AcDbEntity
  8
0
  6
Continuous
 62
     7
370
    25
100
AcDbCircle
 10
88.7700874578
 20
-1289.1457554632
 30
0.0
 40
0.4500000000000083
100
AcDbArc
 50
324.4698842763
 51
41.1281260491
  0
ARC
  5
30D
330
1F
100
AcDbEntity
  8
0
  6
Continuous
 62
     7
370
    25
100
AcDbCircle
 10
89.1174940318
 20
-1290.911911932
 30
0.0
 40
0.4500000000002958
100
AcDbArc
 50
341.1281260491
 51
57.7863678218
  0
ARC
  5
30E
330
1F
100
AcDbEntity
  8
0
  6
Continuous
 62
     7
370
    25
100
AcDbCircle
 10
87.7616609497
 20
-1292.0958530849
 30
0.0
 40
0.4500000000001976
100
AcDbArc
 50
281.128126049
 51
357.7863678219
  0
ARC
  5
30F
330
1F
100
AcDbEntity
  8
0
  6
Continuous
 62
     7
370
    25
100
AcDbCircle
 10
88.998237471
 20
-1292.1436522142
 30
0.0
 40
0.7874999999997225
100
AcDbArc
 50
84.4698842763
 51
177.7863678218
  0
ARC
  5
310
330
1F
100
AcDbEntity
  8
0
  6
Continuous
 62
     7
370
    25
100
AcDbCircle
 10
89.1174940318
 20
-1290.911911932
 30
0.0
 40
0.4500000000002958
100
AcDbArc
 50
264.4698842763
 51
341.1281260491
  0
ARC
  5
311
330
1F
100
AcDbEntity
  8
0
  6
Continuous
 62
     7
370
    25
100
AcDbCircle
 10
86.0584212936
 20
-1291.513637769
 30
0.0
 40
0.4499999999999257
100
AcDbArc
 50
221.1281260491
 51
297.7863678219
  0
ARC
  5
312
330
1F
100
AcDbEntity
  8
0
  6
Continuous
 62
     7
370
    25
100
AcDbCircle
 10
86.6353142941
 20
-1292.6084440149
 30
0.0
 40
0.7875000000000779
100
AcDbArc
 50
24.4698842763
 51
117.7863678218
  0
ARC
  5
313
330
1F
100
AcDbEntity
  8
0
  6
Continuous
 62
     7
370
    25
100
AcDbCircle
 10
87.7616609497
 20
-1292.0958530849
 30
0.0
 40
0.4500000000001694
100
AcDbArc
 50
204.4698842763
 51
281.128126049
  0
ARC
  5
314
330
1F
100
AcDbEntity
  8
0
  6
Continuous
 62
     7
370
    25
100
AcDbCircle
 10
86.0584212936
 20
-1291.513637769
 30
0.0
 40
0.4499999999998762
100
AcDbArc
 50
144.4698842763
 51
221.1281260491
  0
ARC
  5
315
330
1F
100
AcDbEntity
  8
0
  6
Continuous
 62
     7
370
    25
100
AcDbCircle
 10
85.0513311988
 20
-1290.7944884168
 30
0.0
 40
0.7875000000001252
100
AcDbArc
 50
324.4698842763
 51
57.7863678218
  0
ARC
  5
316
330
1F
100
AcDbEntity
  8
0
  6
Continuous
 62
     7
370
    25
100
AcDbCircle
 10
85.7110147197
 20
-1289.7474813002
 30
0.0
 40
0.4500000000002823
100
AcDbArc
 50
161.1281260491
 51
237.7863678218
  0
ARC
  5
317
330
1F
100
AcDbEntity
  8
0
  6
Continuous
 62
     7
370
    25
100
AcDbCircle
 10
427.4142543757
 20
-1290.3296966161
 30
0.0
 40
2.250000000000242
100
AcDbArc
 50
281.1281260491
 51
341.1281260491
  0
ARC
  5
318
330
1F
100
AcDbEntity
  8
0
  6
Continuous
 62
     7
370
    25
100
AcDbCircle
 10
427.7616609497
 20
-1292.0958530849
 30
0.0
 40
0.4500000000001834
100
AcDbArc
 50
281.128126049
 51
357.7863678219
  0
ARC
  5
319
330
1F
100
AcDbEntity
  8
0
  6
Continuous
 62
     7
370
    25
100
AcDbCircle
 10
428.998237471
 20
-1292.1436522142
 30
0.0
 40
0.7874999999997083
100
AcDbArc
 50
84.4698842763
 51
177.7863678218
  0
ARC
  5
31A
330
1F
100
AcDbEntity
  8
0
  6
Continuous
 62
     7
370
    25
100
AcDbCircle
 10
429.1174940318
 20
-1290.911911932
 30
0.0
 40
0.4500000000002958
100
AcDbArc
 50
264.4698842763
 51
341.1281260491
  0
ARC
  5
31B
330
1F
100
AcDbEntity
  8
0
  6
Continuous
 62
     7
370
    25
100
AcDbCircle
 10
427.4142543757
 20
-1290.3296966161
 30
0.0
 40
2.250000000000254
100
AcDbArc
 50
41.1281260491
 51
101.1281260491
  0
ARC
  5
31C
330
1F
100
AcDbEntity
  8
0
  6
Continuous
 62
     7
370
    25
100
AcDbCircle
 10
428.7700874578
 20
-1289.1457554632
 30
0.0
 40
0.450000000000074
100
AcDbArc
 50
41.128126049
 51
117.7863678218
  0
ARC
  5
31D
330
1F
100
AcDbEntity
  8
0
  6
Continuous
 62
     7
370
    25
100
AcDbCircle
 10
428.1931944574
 20
-1288.0509492173
 30
0.0
 40
0.787499999999983
100
AcDbArc
 50
204.4698842763
 51
297.7863678219
  0
ARC
  5
31E
330
1F
100
AcDbEntity
  8
0
  6
Continuous
 62
     7
370
    25
100
AcDbCircle
 10
427.0668478018
 20
-1288.5635401473
 30
0.0
 40
0.4500000000001722
100
AcDbArc
 50
24.4698842763
 51
101.128126049
  0
ARC
  5
31F
330
1F
100
AcDbEntity
  8
0
  6
Continuous
 62
     7
370
    25
100
AcDbCircle
 10
427.4142543757
 20
-1290.3296966161
 30
0.0
 40
2.250000000000165
100
AcDbArc
 50
341.1281260491
 51
41.1281260491
  0
ARC
  5
320
330
1F
100
AcDbEntity
  8
0
  6
Continuous
 62
     7
370
    25
100
AcDbCircle
 10
428.7700874578
 20
-1289.1457554632
 30
0.0
 40
0.4500000000000083
100
AcDbArc
 50
324.4698842763
 51
41.1281260491
  0
ARC
  5
321
330
1F
100
AcDbEntity
  8
0
  6
Continuous
 62
     7
370
    25
100
AcDbCircle
 10
429.1174940318
 20
-1290.911911932
 30
0.0
 40
0.4500000000002958
100
AcDbArc
 50
341.1281260491
 51
57.7863678218
  0
ARC
  5
322
330
1F
100
AcDbEntity
  8
0
  6
Continuous
 62
     7
370
    25
100
AcDbCircle
 10
429.7771775527
 20
-1289.8649048155
 30
0.0
 40
0.7874999999999931
100
AcDbArc
 50
144.4698842763
 51
237.7863678218
  0
ARC
  5
323
330
1F
100
AcDbEntity
  8
0
  6
Continuous
 62
     7
370
    25
100
AcDbCircle
 10
427.4142543757
 20
-1290.3296966161
 30
0.0
 40
2.250000000000292
100
AcDbArc
 50
101.1281260491
 51
161.1281260491
  0
ARC
  5
324
330
1F
100
AcDbEntity
  8
0
  6
Continuous
 62
     7
370
    25
100
AcDbCircle
 10
425.8302712804
 20
-1288.515741018
 30
0.0
 40
0.7874999999997172
100
AcDbArc
 50
264.4698842763
 51
357.7863678218
  0
ARC
  5
325
330
1F
100
AcDbEntity
  8
0
  6
Continuous
 62
     7
370
    25
100
AcDbCircle
 10
425.7110147197
 20
-1289.7474813002
 30
0.0
 40
0.4500000000003925
100
AcDbArc
 50
84.4698842763
 51
161.1281260491
  0
ARC
  5
326
330
1F
100
AcDbEntity
  8
0
  6
Continuous
 62
     7
370
    25
100
AcDbCircle
 10
427.0668478018
 20
-1288.5635401473
 30
0.0
 40
0.4500000000002402
100
AcDbArc
 50
101.128126049
 51
177.7863678219
  0
ARC
  5
327
330
1F
100
AcDbEntity
  8
0
  6
Continuous
 62
     7
370
    25
100
AcDbCircle
 10
427.4142543757
 20
-1290.3296966161
 30
0.0
 40
2.250000000000292
100
AcDbArc
 50
161.1281260491
 51
221.1281260491
  0
ARC
  5
328
330
1F
100
AcDbEntity
  8
0
  6
Continuous
 62
     7
370
    25
100
AcDbCircle
 10
427.4142543757
 20
-1290.3296966161
 30
0.0
 40
2.250000000000242
100
AcDbArc
 50
221.1281260491
 51
281.1281260491
  0
CIRCLE
  5
329
330
1F
100
AcDbEntity
  8
0
  6
Continuous
 62
     7
370
    25
100
AcDbCircle
 10
427.4142543757
 20
-1290.3296966161
 30
0.0
 40
3.850000000000092
  0
ARC
  5
32A
330
1F
100
AcDbEntity
  8
0
  6
Continuous
 62
     7
370
    25
100
AcDbCircle
 10
425.7110147197
 20
-1289.7474813002
 30
0.0
 40
0.4500000000003693
100
AcDbArc
 50
161.1281260491
 51
237.7863678218
  0
ARC
  5
32B
330
1F
100
AcDbEntity
  8
0
  6
Continuous
 62
     7
370
    25
100
AcDbCircle
 10
425.0513311988
 20
-1290.7944884168
 30
0.0
 40
0.7875000000001252
100
AcDbArc
 50
324.4698842763
 51
57.7863678218
  0
ARC
  5
32C
330
1F
100
AcDbEntity
  8
0
  6
Continuous
 62
     7
370
    25
100
AcDbCircle
 10
426.0584212936
 20
-1291.513637769
 30
0.0
 40
0.4499999999998762
100
AcDbArc
 50
144.4698842763
 51
221.1281260491
  0
ARC
  5
32D
330
1F
100
AcDbEntity
  8
0
  6
Continuous
 62
     7
370
    25
100
AcDbCircle
 10
427.7616609497
 20
-1292.0958530849
 30
0.0
 40
0.4500000000001612
100
AcDbArc
 50
204.4698842763
 51
281.128126049
  0
ARC
  5
32E
330
1F
100
AcDbEntity
  8
0
  6
Continuous
 62
     7
370
    25
100
AcDbCircle
 10
426.6353142941
 20
-1292.6084440149
 30
0.0
 40
0.7875000000000911
100
AcDbArc
 50
24.4698842763
 51
117.7863678218
  0
ARC
  5
32F
330
1F
100
AcDbEntity
  8
0
  6
Continuous
 62
     7
370
    25
100
AcDbCircle
 10
426.0584212936
 20
-1291.513637769
 30
0.0
 40
0.4499999999999257
100
AcDbArc
 50
221.1281260491
 51
297.7863678219
  0
ARC
  5
330
330
1F
100
AcDbEntity
  8
0
  6
Continuous
 62
     7
370
    25
100
AcDbCircle
 10
-72.5857456243
 20
594.6703033839
 30
0.0
 40
2.250000000000348
100
AcDbArc
 50
281.1281260491
 51
341.1281260491
  0
ARC
  5
331
330
1F
100
AcDbEntity
  8
0
  6
Continuous
 62
     7
370
    25
100
AcDbCircle
 10
-72.2383390503
 20
592.9041469151
 30
0.0
 40
0.45000000000027
100
AcDbArc
 50
281.128126049
 51
357.7863678219
  0
ARC
  5
332
330
1F
100
AcDbEntity
  8
0
  6
Continuous
 62
     7
370
    25
100
AcDbCircle
 10
-71.0017625289
 20
592.8563477858
 30
0.0
 40
0.7874999999997405
100
AcDbArc
 50
84.4698842763
 51
177.7863678218
  0
ARC
  5
333
330
1F
100
AcDbEntity
  8
0
  6
Continuous
 62
     7
370
    25
100
AcDbCircle
 10
-70.8825059682
 20
594.088088068
 30
0.0
 40
0.450000000000242
100
AcDbArc
 50
264.4698842763
 51
341.1281260491
  0
ARC
  5
334
330
1F
100
AcDbEntity
  8
0
  6
Continuous
 62
     7
370
    25
100
AcDbCircle
 10
-72.5857456243
 20
594.6703033839
 30
0.0
 40
2.25000000000024
100
AcDbArc
 50
101.1281260491
 51
161.1281260491
  0
ARC
  5
335
330
1F
100
AcDbEntity
  8
0
  6
Continuous
 62
     7
370
    25
100
AcDbCircle
 10
-72.9331521982
 20
596.4364598527
 30
0.0
 40
0.450000000000259
100
AcDbArc
 50
101.128126049
 51
177.7863678219
  0
ARC
  5
336
330
1F
100
AcDbEntity
  8
0
  6
Continuous
 62
     7
370
    25
100
AcDbCircle
 10
-74.1697287196
 20
596.484258982
 30
0.0
 40
0.7874999999997405
100
AcDbArc
 50
264.4698842763
 51
357.7863678218
  0
ARC
  5
337
330
1F
100
AcDbEntity
  8
0
  6
Continuous
 62
     7
370
    25
100
AcDbCircle
 10
-74.2889852803
 20
595.2525186999
 30
0.0
 40
0.450000000000242
100
AcDbArc
 50
84.4698842763
 51
161.1281260491
  0
ARC
  5
338
330
1F
100
AcDbEntity
  8
0
  6
Continuous
 62
     7
370
    25
100
AcDbCircle
 10
-72.5857456243
 20
594.6703033839
 30
0.0
 40
2.25000000000024
100
AcDbArc
 50
41.1281260491
 51
101.1281260491
  0
ARC
  5
339
330
1F
100
AcDbEntity
  8
0
  6
Continuous
 62
     7
370
    25
100
AcDbCircle
 10
-72.5857456243
 20
594.6703033839
 30
0.0
 40
2.250000000000192
100
AcDbArc
 50
161.1281260491
 51
221.1281260491
  0
ARC
  5
33A
330
1F
100
AcDbEntity
  8
0
  6
Continuous
 62
     7
370
    25
100
AcDbCircle
 10
-72.5857456243
 20
594.6703033839
 30
0.0
 40
2.250000000000348
100
AcDbArc
 50
221.1281260491
 51
281.1281260491
  0
ARC
  5
33B
330
1F
100
AcDbEntity
  8
0
  6
Continuous
 62
     7
370
    25
100
AcDbCircle
 10
-72.5857456243
 20
594.6703033839
 30
0.0
 40
2.250000000000215
100
AcDbArc
 50
341.1281260491
 51
41.1281260491
  0
CIRCLE
  5
33C
330
1F
100
AcDbEntity
  8
0
  6
Continuous
 62
     7
370
    25
100
AcDbCircle
 10
-72.5857456243
 20
594.6703033839
 30
0.0
 40
3.850000000000038
  0
ARC
  5
33D
330
1F
100
AcDbEntity
  8
0
  6
Continuous
 62
     7
370
    25
100
AcDbCircle
 10
-70.2228224473
 20
595.1350951846
 30
0.0
 40
0.7875000000000048
100
AcDbArc
 50
144.4698842763
 51
237.7863678218
  0
ARC
  5
33E
330
1F
100
AcDbEntity
  8
0
  6
Continuous
 62
     7
370
    25
100
AcDbCircle
 10
-71.2299125422
 20
595.8542445368
 30
0.0
 40
0.450000000000043
100
AcDbArc
 50
324.4698842763
 51
41.1281260491
  0
ARC
  5
33F
330
1F
100
AcDbEntity
  8
0
  6
Continuous
 62
     7
370
    25
100
AcDbCircle
 10
-70.8825059682
 20
594.088088068
 30
0.0
 40
0.450000000000242
100
AcDbArc
 50
341.1281260491
 51
57.7863678218
  0
ARC
  5
340
330
1F
100
AcDbEntity
  8
0
  6
Continuous
 62
     7
370
    25
100
AcDbCircle
 10
-72.9331521982
 20
596.4364598527
 30
0.0
 40
0.450000000000259
100
AcDbArc
 50
24.4698842763
 51
101.128126049
  0
ARC
  5
341
330
1F
100
AcDbEntity
  8
0
  6
Continuous
 62
     7
370
    25
100
AcDbCircle
 10
-71.2299125422
 20
595.8542445368
 30
0.0
 40
0.4500000000001004
100
AcDbArc
 50
41.1281260491
 51
117.7863678218
  0
ARC
  5
342
330
1F
100
AcDbEntity
  8
0
  6
Continuous
 62
     7
370
    25
100
AcDbCircle
 10
-71.8068055426
 20
596.9490507827
 30
0.0
 40
0.7875000000000947
100
AcDbArc
 50
204.4698842763
 51
297.7863678218
  0
ARC
  5
343
330
1F
100
AcDbEntity
  8
0
  6
Continuous
 62
     7
370
    25
100
AcDbCircle
 10
-74.2889852803
 20
595.2525186999
 30
0.0
 40
0.450000000000242
100
AcDbArc
 50
161.1281260491
 51
237.7863678218
  0
ARC
  5
344
330
1F
100
AcDbEntity
  8
0
  6
Continuous
 62
     7
370
    25
100
AcDbCircle
 10
-74.9486688012
 20
594.2055115833
 30
0.0
 40
0.7874999999999585
100
AcDbArc
 50
324.4698842763
 51
57.7863678218
  0
ARC
  5
345
330
1F
100
AcDbEntity
  8
0
  6
Continuous
 62
     7
370
    25
100
AcDbCircle
 10
-73.9415787064
 20
593.486362231
 30
0.0
 40
0.4500000000001008
100
AcDbArc
 50
144.4698842763
 51
221.1281260491
  0
ARC
  5
346
330
1F
100
AcDbEntity
  8
0
  6
Continuous
 62
     7
370
    25
100
AcDbCircle
 10
-72.2383390503
 20
592.9041469151
 30
0.0
 40
0.45000000000027
100
AcDbArc
 50
204.4698842763
 51
281.128126049
  0
ARC
  5
347
330
1F
100
AcDbEntity
  8
0
  6
Continuous
 62
     7
370
    25
100
AcDbCircle
 10
-73.3646857059
 20
592.3915559851
 30
0.0
 40
0.7875000000000347
100
AcDbArc
 50
24.4698842763
 51
117.7863678218
  0
ARC
  5
348
330
1F
100
AcDbEntity
  8
0
  6
Continuous
 62
     7
370
    25
100
AcDbCircle
 10
-73.9415787064
 20
593.486362231
 30
0.0
 40
0.4499999999998661
100
AcDbArc
 50
221.1281260491
 51
297.7863678218
  0
ARC
  5
349
330
1F
100
AcDbEntity
  8
0
  6
Continuous
 62
     7
370
    25
100
AcDbCircle
 10
-1232.5857456243
 20
-725.3296966161
 30
0.0
 40
2.250000000000148
100
AcDbArc
 50
341.1281260491
 51
41.1281260491
  0
ARC
  5
34A
330
1F
100
AcDbEntity
  8
0
  6
Continuous
 62
     7
370
    25
100
AcDbCircle
 10
-1230.8825059682
 20
-725.911911932
 30
0.0
 40
0.4500000000003863
100
AcDbArc
 50
341.1281260491
 51
57.7863678218
  0
ARC
  5
34B
330
1F
100
AcDbEntity
  8
0
  6
Continuous
 62
     7
370
    25
100
AcDbCircle
 10
-1231.2299125422
 20
-724.1457554632
 30
0.0
 40
0.4499999999997639
100
AcDbArc
 50
324.4698842763
 51
41.1281260491
  0
ARC
  5
34C
330
1F
100
AcDbEntity
  8
0
  6
Continuous
 62
     7
370
    25
100
AcDbCircle
 10
-1230.2228224473
 20
-724.8649048154
 30
0.0
 40
0.7875000000001516
100
AcDbArc
 50
144.4698842763
 51
237.7863678218
  0
ARC
  5
34D
330
1F
100
AcDbEntity
  8
0
  6
Continuous
 62
     7
370
    25
100
AcDbCircle
 10
-1232.5857456243
 20
-725.3296966161
 30
0.0
 40
2.250000000000231
100
AcDbArc
 50
281.1281260491
 51
341.1281260491
  0
ARC
  5
34E
330
1F
100
AcDbEntity
  8
0
  6
Continuous
 62
     7
370
    25
100
AcDbCircle
 10
-1232.2383390503
 20
-727.0958530849
 30
0.0
 40
0.4500000000003953
100
AcDbArc
 50
281.128126049
 51
357.7863678219
  0
ARC
  5
34F
330
1F
100
AcDbEntity
  8
0
  6
Continuous
 62
     7
370
    25
100
AcDbCircle
 10
-1230.8825059682
 20
-725.911911932
 30
0.0
 40
0.4500000000003863
100
AcDbArc
 50
264.4698842763
 51
341.1281260491
  0
ARC
  5
350
330
1F
100
AcDbEntity
  8
0
  6
Continuous
 62
     7
370
    25
100
AcDbCircle
 10
-1231.001762529
 20
-727.1436522142
 30
0.0
 40
0.7874999999997666
100
AcDbArc
 50
84.4698842763
 51
177.7863678218
  0
ARC
  5
351
330
1F
100
AcDbEntity
  8
0
  6
Continuous
 62
     7
370
    25
100
AcDbCircle
 10
-1232.5857456243
 20
-725.3296966161
 30
0.0
 40
2.250000000000275
100
AcDbArc
 50
41.1281260491
 51
101.1281260491
  0
ARC
  5
352
330
1F
100
AcDbEntity
  8
0
  6
Continuous
 62
     7
370
    25
100
AcDbCircle
 10
-1231.2299125422
 20
-724.1457554632
 30
0.0
 40
0.4500000000000475
100
AcDbArc
 50
41.1281260491
 51
117.7863678218
  0
ARC
  5
353
330
1F
100
AcDbEntity
  8
0
  6
Continuous
 62
     7
370
    25
100
AcDbCircle
 10
-1232.9331521982
 20
-723.5635401473
 30
0.0
 40
0.4500000000001722
100
AcDbArc
 50
24.4698842763
 51
101.128126049
  0
ARC
  5
354
330
1F
100
AcDbEntity
  8
0
  6
Continuous
 62
     7
370
    25
100
AcDbCircle
 10
-1231.8068055426
 20
-723.0509492173
 30
0.0
 40
0.7875000000001806
100
AcDbArc
 50
204.4698842763
 51
297.7863678218
  0
ARC
  5
355
330
1F
100
AcDbEntity
  8
0
  6
Continuous
 62
     7
370
    25
100
AcDbCircle
 10
-1232.5857456243
 20
-725.3296966161
 30
0.0
 40
2.2500000000004
100
AcDbArc
 50
101.1281260491
 51
161.1281260491
  0
ARC
  5
356
330
1F
100
AcDbEntity
  8
0
  6
Continuous
 62
     7
370
    25
100
AcDbCircle
 10
-1232.5857456243
 20
-725.3296966161
 30
0.0
 40
2.2500000000004
100
AcDbArc
 50
161.1281260491
 51
221.1281260491
  0
ARC
  5
357
330
1F
100
AcDbEntity
  8
0
  6
Continuous
 62
     7
370
    25
100
AcDbCircle
 10
-1232.5857456243
 20
-725.3296966161
 30
0.0
 40
2.250000000000231
100
AcDbArc
 50
221.1281260491
 51
281.1281260491
  0
CIRCLE
  5
358
330
1F
100
AcDbEntity
  8
0
  6
Continuous
 62
     7
370
    25
100
AcDbCircle
 10
-1232.5857456243
 20
-725.3296966161
 30
0.0
 40
3.849999999999974
  0
ARC
  5
359
330
1F
100
AcDbEntity
  8
0
  6
Continuous
 62
     7
370
    25
100
AcDbCircle
 10
-1234.2889852803
 20
-724.7474813002
 30
0.0
 40
0.4500000000003496
100
AcDbArc
 50
84.4698842763
 51
161.1281260491
  0
ARC
  5
35A
330
1F
100
AcDbEntity
  8
0
  6
Continuous
 62
     7
370
    25
100
AcDbCircle
 10
-1234.1697287196
 20
-723.515741018
 30
0.0
 40
0.787499999999836
100
AcDbArc
 50
264.4698842763
 51
357.7863678218
  0
ARC
  5
35B
330
1F
100
AcDbEntity
  8
0
  6
Continuous
 62
     7
370
    25
100
AcDbCircle
 10
-1232.9331521982
 20
-723.5635401473
 30
0.0
 40
0.450000000000249
100
AcDbArc
 50
101.128126049
 51
177.7863678219
  0
ARC
  5
35C
330
1F
100
AcDbEntity
  8
0
  6
Continuous
 62
     7
370
    25
100
AcDbCircle
 10
-1233.9415787064
 20
-726.513637769
 30
0.0
 40
0.4500000000001471
100
AcDbArc
 50
144.4698842763
 51
221.1281260491
  0
ARC
  5
35D
330
1F
100
AcDbEntity
  8
0
  6
Continuous
 62
     7
370
    25
100
AcDbCircle
 10
-1234.2889852803
 20
-724.7474813002
 30
0.0
 40
0.4500000000003496
100
AcDbArc
 50
161.1281260491
 51
237.7863678219
  0
ARC
  5
35E
330
1F
100
AcDbEntity
  8
0
  6
Continuous
 62
     7
370
    25
100
AcDbCircle
 10
-1234.9486688012
 20
-725.7944884168
 30
0.0
 40
0.7874999999999006
100
AcDbArc
 50
324.4698842763
 51
57.7863678218
  0
ARC
  5
35F
330
1F
100
AcDbEntity
  8
0
  6
Continuous
 62
     7
370
    25
100
AcDbCircle
 10
-1233.3646857059
 20
-727.6084440149
 30
0.0
 40
0.7875000000000435
100
AcDbArc
 50
24.4698842763
 51
117.7863678219
  0
ARC
  5
360
330
1F
100
AcDbEntity
  8
0
  6
Continuous
 62
     7
370
    25
100
AcDbCircle
 10
-1233.9415787064
 20
-726.513637769
 30
0.0
 40
0.4499999999998462
100
AcDbArc
 50
221.1281260491
 51
297.7863678218
  0
ARC
  5
361
330
1F
100
AcDbEntity
  8
0
  6
Continuous
 62
     7
370
    25
100
AcDbCircle
 10
-1232.2383390503
 20
-727.0958530849
 30
0.0
 40
0.4500000000003953
100
AcDbArc
 50
204.4698842763
 51
281.128126049
  0
ARC
  5
362
330
1F
100
AcDbEntity
  8
0
  6
Continuous
 62
     7
370
    25
100
AcDbCircle
 10
267.4142543757
 20
594.6703033839
 30
0.0
 40
2.250000000000242
100
AcDbArc
 50
281.1281260491
 51
341.1281260491
  0
ARC
  5
363
330
1F
100
AcDbEntity
  8
0
  6
Continuous
 62
     7
370
    25
100
AcDbCircle
 10
267.7616609497
 20
592.9041469151
 30
0.0
 40
0.4500000000001834
100
AcDbArc
 50
281.128126049
 51
357.7863678219
  0
ARC
  5
364
330
1F
100
AcDbEntity
  8
0
  6
Continuous
 62
     7
370
    25
100
AcDbCircle
 10
268.9982374711
 20
592.8563477858
 30
0.0
 40
0.7874999999997502
100
AcDbArc
 50
84.4698842763
 51
177.7863678218
  0
ARC
  5
365
330
1F
100
AcDbEntity
  8
0
  6
Continuous
 62
     7
370
    25
100
AcDbCircle
 10
269.1174940318
 20
594.088088068
 30
0.0
 40
0.4500000000003325
100
AcDbArc
 50
264.4698842763
 51
341.1281260491
  0
ARC
  5
366
330
1F
100
AcDbEntity
  8
0
  6
Continuous
 62
     7
370
    25
100
AcDbCircle
 10
267.4142543757
 20
594.6703033839
 30
0.0
 40
2.250000000000202
100
AcDbArc
 50
341.1281260491
 51
41.1281260491
  0
ARC
  5
367
330
1F
100
AcDbEntity
  8
0
  6
Continuous
 62
     7
370
    25
100
AcDbCircle
 10
269.1174940318
 20
594.088088068
 30
0.0
 40
0.4500000000003325
100
AcDbArc
 50
341.1281260491
 51
57.7863678218
  0
ARC
  5
368
330
1F
100
AcDbEntity
  8
0
  6
Continuous
 62
     7
370
    25
100
AcDbCircle
 10
268.7700874578
 20
595.8542445368
 30
0.0
 40
0.4499999999999423
100
AcDbArc
 50
324.4698842763
 51
41.1281260491
  0
ARC
  5
369
330
1F
100
AcDbEntity
  8
0
  6
Continuous
 62
     7
370
    25
100
AcDbCircle
 10
269.7771775527
 20
595.1350951846
 30
0.0
 40
0.7875000000000592
100
AcDbArc
 50
144.4698842763
 51
237.7863678218
  0
ARC
  5
36A
330
1F
100
AcDbEntity
  8
0
  6
Continuous
 62
     7
370
    25
100
AcDbCircle
 10
267.4142543757
 20
594.6703033839
 30
0.0
 40
2.250000000000254
100
AcDbArc
 50
101.1281260491
 51
161.1281260491
  0
ARC
  5
36B
330
1F
100
AcDbEntity
  8
0
  6
Continuous
 62
     7
370
    25
100
AcDbCircle
 10
267.0668478018
 20
596.4364598527
 30
0.0
 40
0.4500000000001834
100
AcDbArc
 50
101.128126049
 51
177.7863678219
  0
ARC
  5
36C
330
1F
100
AcDbEntity
  8
0
  6
Continuous
 62
     7
370
    25
100
AcDbCircle
 10
265.8302712804
 20
596.484258982
 30
0.0
 40
0.7874999999997695
100
AcDbArc
 50
264.4698842763
 51
357.7863678218
  0
ARC
  5
36D
330
1F
100
AcDbEntity
  8
0
  6
Continuous
 62
     7
370
    25
100
AcDbCircle
 10
265.7110147197
 20
595.2525186998
 30
0.0
 40
0.4500000000002958
100
AcDbArc
 50
84.4698842763
 51
161.1281260491
  0
ARC
  5
36E
330
1F
100
AcDbEntity
  8
0
  6
Continuous
 62
     7
370
    25
100
AcDbCircle
 10
267.4142543757
 20
594.6703033839
 30
0.0
 40
2.250000000000254
100
AcDbArc
 50
41.1281260491
 51
101.1281260491
  0
ARC
  5
36F
330
1F
100
AcDbEntity
  8
0
  6
Continuous
 62
     7
370
    25
100
AcDbCircle
 10
267.4142543757
 20
594.6703033839
 30
0.0
 40
2.250000000000218
100
AcDbArc
 50
161.1281260491
 51
221.1281260491
  0
ARC
  5
370
330
1F
100
AcDbEntity
  8
0
  6
Continuous
 62
     7
370
    25
100
AcDbCircle
 10
267.4142543757
 20
594.6703033839
 30
0.0
 40
2.250000000000242
100
AcDbArc
 50
221.1281260491
 51
281.1281260491
  0
CIRCLE
  5
371
330
1F
100
AcDbEntity
  8
0
  6
Continuous
 62
     7
370
    25
100
AcDbCircle
 10
267.4142543757
 20
594.6703033839
 30
0.0
 40
3.85000000000006
  0
ARC
  5
372
330
1F
100
AcDbEntity
  8
0
  6
Continuous
 62
     7
370
    25
100
AcDbCircle
 10
267.0668478018
 20
596.4364598527
 30
0.0
 40
0.4500000000001722
100
AcDbArc
 50
24.4698842763
 51
101.128126049
  0
ARC
  5
373
330
1F
100
AcDbEntity
  8
0
  6
Continuous
 62
     7
370
    25
100
AcDbCircle
 10
268.7700874578
 20
595.8542445368
 30
0.0
 40
0.450000000000074
100
AcDbArc
 50
41.1281260491
 51
117.7863678218
  0
ARC
  5
374
330
1F
100
AcDbEntity
  8
0
  6
Continuous
 62
     7
370
    25
100
AcDbCircle
 10
268.1931944574
 20
596.9490507827
 30
0.0
 40
0.787499999999983
100
AcDbArc
 50
204.4698842763
 51
297.7863678219
  0
ARC
  5
375
330
1F
100
AcDbEntity
  8
0
  6
Continuous
 62
     7
370
    25
100
AcDbCircle
 10
266.0584212936
 20
593.486362231
 30
0.0
 40
0.4500000000000083
100
AcDbArc
 50
144.4698842762
 51
221.1281260491
  0
ARC
  5
376
330
1F
100
AcDbEntity
  8
0
  6
Continuous
 62
     7
370
    25
100
AcDbCircle
 10
265.0513311988
 20
594.2055115832
 30
0.0
 40
0.7874999999999931
100
AcDbArc
 50
324.4698842763
 51
57.7863678218
  0
ARC
  5
377
330
1F
100
AcDbEntity
  8
0
  6
Continuous
 62
     7
370
    25
100
AcDbCircle
 10
265.7110147197
 20
595.2525186998
 30
0.0
 40
0.4500000000002958
100
AcDbArc
 50
161.1281260491
 51
237.7863678218
  0
ARC
  5
378
330
1F
100
AcDbEntity
  8
0
  6
Continuous
 62
     7
370
    25
100
AcDbCircle
 10
266.6353142941
 20
592.3915559851
 30
0.0
 40
0.7874999999999905
100
AcDbArc
 50
24.4698842763
 51
117.7863678218
  0
ARC
  5
379
330
1F
100
AcDbEntity
  8
0
  6
Continuous
 62
     7
370
    25
100
AcDbCircle
 10
266.0584212936
 20
593.486362231
 30
0.0
 40
0.4499999999999257
100
AcDbArc
 50
221.1281260491
 51
297.7863678219
  0
ARC
  5
37A
330
1F
100
AcDbEntity
  8
0
  6
Continuous
 62
     7
370
    25
100
AcDbCircle
 10
267.7616609497
 20
592.9041469151
 30
0.0
 40
0.4500000000001612
100
AcDbArc
 50
204.4698842763
 51
281.128126049
  0
ARC
  5
37B
330
1F
100
AcDbEntity
  8
0
  6
Continuous
 62
     7
370
    25
100
AcDbCircle
 10
-1232.5857456243
 20
-1065.3296966161
 30
0.0
 40
2.250000000000455
100
AcDbArc
 50
281.1281260491
 51
341.1281260491
  0
ARC
  5
37C
330
1F
100
AcDbEntity
  8
0
  6
Continuous
 62
     7
370
    25
100
AcDbCircle
 10
-1232.2383390503
 20
-1067.0958530849
 30
0.0
 40
0.4500000000005744
100
AcDbArc
 50
281.128126049
 51
357.7863678219
  0
ARC
  5
37D
330
1F
100
AcDbEntity
  8
0
  6
Continuous
 62
     7
370
    25
100
AcDbCircle
 10
-1231.001762529
 20
-1067.1436522142
 30
0.0
 40
0.7874999999997172
100
AcDbArc
 50
84.4698842763
 51
177.7863678218
  0
ARC
  5
37E
330
1F
100
AcDbEntity
  8
0
  6
Continuous
 62
     7
370
    25
100
AcDbCircle
 10
-1230.8825059682
 20
-1065.911911932
 30
0.0
 40
0.4500000000003496
100
AcDbArc
 50
264.4698842763
 51
341.1281260491
  0
ARC
  5
37F
330
1F
100
AcDbEntity
  8
0
  6
Continuous
 62
     7
370
    25
100
AcDbCircle
 10
-1232.5857456243
 20
-1065.3296966161
 30
0.0
 40
2.2500000000004
100
AcDbArc
 50
341.1281260491
 51
41.1281260491
  0
ARC
  5
380
330
1F
100
AcDbEntity
  8
0
  6
Continuous
 62
     7
370
    25
100
AcDbCircle
 10
-1230.8825059682
 20
-1065.911911932
 30
0.0
 40
0.4500000000003496
100
AcDbArc
 50
341.1281260491
 51
57.7863678218
  0
ARC
  5
381
330
1F
100
AcDbEntity
  8
0
  6
Continuous
 62
     7
370
    25
100
AcDbCircle
 10
-1230.2228224473
 20
-1064.8649048154
 30
0.0
 40
0.7875000000000327
100
AcDbArc
 50
144.4698842763
 51
237.7863678219
  0
ARC
  5
382
330
1F
100
AcDbEntity
  8
0
  6
Continuous
 62
     7
370
    25
100
AcDbCircle
 10
-1231.2299125422
 20
-1064.1457554632
 30
0.0
 40
0.4499999999998828
100
AcDbArc
 50
324.4698842763
 51
41.1281260491
  0
ARC
  5
383
330
1F
100
AcDbEntity
  8
0
  6
Continuous
 62
     7
370
    25
100
AcDbCircle
 10
-1232.5857456243
 20
-1065.3296966161
 30
0.0
 40
2.250000000000231
100
AcDbArc
 50
41.1281260491
 51
101.1281260491
  0
ARC
  5
384
330
1F
100
AcDbEntity
  8
0
  6
Continuous
 62
     7
370
    25
100
AcDbCircle
 10
-1231.2299125422
 20
-1064.1457554632
 30
0.0
 40
0.4500000000000475
100
AcDbArc
 50
41.1281260491
 51
117.7863678218
  0
ARC
  5
385
330
1F
100
AcDbEntity
  8
0
  6
Continuous
 62
     7
370
    25
100
AcDbCircle
 10
-1232.9331521982
 20
-1063.5635401473
 30
0.0
 40
0.4500000000003953
100
AcDbArc
 50
24.4698842763
 51
101.128126049
  0
ARC
  5
386
330
1F
100
AcDbEntity
  8
0
  6
Continuous
 62
     7
370
    25
100
AcDbCircle
 10
-1231.8068055426
 20
-1063.0509492173
 30
0.0
 40
0.7875000000001441
100
AcDbArc
 50
204.4698842763
 51
297.7863678219
  0
ARC
  5
387
330
1F
100
AcDbEntity
  8
0
  6
Continuous
 62
     7
370
    25
100
AcDbCircle
 10
-1232.5857456243
 20
-1065.3296966161
 30
0.0
 40
2.250000000000231
100
AcDbArc
 50
101.1281260491
 51
161.1281260491
  0
ARC
  5
388
330
1F
100
AcDbEntity
  8
0
  6
Continuous
 62
     7
370
    25
100
AcDbCircle
 10
-1232.5857456243
 20
-1065.3296966161
 30
0.0
 40
2.250000000000185
100
AcDbArc
 50
161.1281260491
 51
221.1281260491
  0
ARC
  5
389
330
1F
100
AcDbEntity
  8
0
  6
Continuous
 62
     7
370
    25
100
AcDbCircle
 10
-1232.5857456243
 20
-1065.3296966161
 30
0.0
 40
2.250000000000455
100
AcDbArc
 50
221.1281260491
 51
281.1281260491
  0
CIRCLE
  5
38A
330
1F
100
AcDbEntity
  8
0
  6
Continuous
 62
     7
370
    25
100
AcDbCircle
 10
-1232.5857456243
 20
-1065.3296966161
 30
0.0
 40
3.850000000000071
  0
ARC
  5
38B
330
1F
100
AcDbEntity
  8
0
  6
Continuous
 62
     7
370
    25
100
AcDbCircle
 10
-1234.2889852803
 20
-1064.7474813002
 30
0.0
 40
0.4500000000003496
100
AcDbArc
 50
84.4698842763
 51
161.1281260491
  0
ARC
  5
38C
330
1F
100
AcDbEntity
  8
0
  6
Continuous
 62
     7
370
    25
100
AcDbCircle
 10
-1232.9331521982
 20
-1063.5635401473
 30
0.0
 40
0.4500000000003953
100
AcDbArc
 50
101.128126049
 51
177.7863678218
  0
ARC
  5
38D
330
1F
100
AcDbEntity
  8
0
  6
Continuous
 62
     7
370
    25
100
AcDbCircle
 10
-1234.1697287196
 20
-1063.515741018
 30
0.0
 40
0.787499999999858
100
AcDbArc
 50
264.4698842763
 51
357.7863678218
  0
ARC
  5
38E
330
1F
100
AcDbEntity
  8
0
  6
Continuous
 62
     7
370
    25
100
AcDbCircle
 10
-1234.2889852803
 20
-1064.7474813002
 30
0.0
 40
0.4500000000003496
100
AcDbArc
 50
161.1281260491
 51
237.7863678218
  0
ARC
  5
38F
330
1F
100
AcDbEntity
  8
0
  6
Continuous
 62
     7
370
    25
100
AcDbCircle
 10
-1234.9486688012
 20
-1065.7944884168
 30
0.0
 40
0.7874999999999006
100
AcDbArc
 50
324.4698842763
 51
57.7863678219
  0
ARC
  5
390
330
1F
100
AcDbEntity
  8
0
  6
Continuous
 62
     7
370
    25
100
AcDbCircle
 10
-1233.9415787064
 20
-1066.513637769
 30
0.0
 40
0.4500000000000149
100
AcDbArc
 50
144.4698842763
 51
221.1281260491
  0
ARC
  5
391
330
1F
100
AcDbEntity
  8
0
  6
Continuous
 62
     7
370
    25
100
AcDbCircle
 10
-1233.3646857059
 20
-1067.6084440149
 30
0.0
 40
0.7875000000001441
100
AcDbArc
 50
24.4698842763
 51
117.7863678219
  0
ARC
  5
392
330
1F
100
AcDbEntity
  8
0
  6
Continuous
 62
     7
370
    25
100
AcDbCircle
 10
-1232.2383390503
 20
-1067.0958530849
 30
0.0
 40
0.4500000000005744
100
AcDbArc
 50
204.4698842763
 51
281.128126049
  0
ARC
  5
393
330
1F
100
AcDbEntity
  8
0
  6
Continuous
 62
     7
370
    25
100
AcDbCircle
 10
-1233.9415787064
 20
-1066.513637769
 30
0.0
 40
0.4500000000000475
100
AcDbArc
 50
221.1281260491
 51
297.7863678218
  0
ARC
  5
394
330
1F
100
AcDbEntity
  8
0
  6
Continuous
 62
     7
370
    25
100
AcDbCircle
 10
-1232.5857456243
 20
209.6703033839
 30
0.0
 40
2.250000000000259
100
AcDbArc
 50
101.1281260491
 51
161.1281260491
  0
ARC
  5
395
330
1F
100
AcDbEntity
  8
0
  6
Continuous
 62
     7
370
    25
100
AcDbCircle
 10
-1232.9331521982
 20
211.4364598527
 30
0.0
 40
0.4500000000002718
100
AcDbArc
 50
101.128126049
 51
177.7863678219
  0
ARC
  5
396
330
1F
100
AcDbEntity
  8
0
  6
Continuous
 62
     7
370
    25
100
AcDbCircle
 10
-1234.1697287196
 20
211.484258982
 30
0.0
 40
0.7874999999997384
100
AcDbArc
 50
264.4698842763
 51
357.7863678218
  0
ARC
  5
397
330
1F
100
AcDbEntity
  8
0
  6
Continuous
 62
     7
370
    25
100
AcDbCircle
 10
-1234.2889852803
 20
210.2525186998
 30
0.0
 40
0.4500000000002173
100
AcDbArc
 50
84.4698842763
 51
161.1281260491
  0
ARC
  5
398
330
1F
100
AcDbEntity
  8
0
  6
Continuous
 62
     7
370
    25
100
AcDbCircle
 10
-1232.5857456243
 20
209.6703033839
 30
0.0
 40
2.250000000000551
100
AcDbArc
 50
281.1281260491
 51
341.1281260491
  0
ARC
  5
399
330
1F
100
AcDbEntity
  8
0
  6
Continuous
 62
     7
370
    25
100
AcDbCircle
 10
-1232.2383390503
 20
207.9041469151
 30
0.0
 40
0.4500000000002413
100
AcDbArc
 50
281.128126049
 51
357.7863678219
  0
ARC
  5
39A
330
1F
100
AcDbEntity
  8
0
  6
Continuous
 62
     7
370
    25
100
AcDbCircle
 10
-1231.001762529
 20
207.8563477858
 30
0.0
 40
0.787499999999715
100
AcDbArc
 50
84.4698842763
 51
177.7863678218
  0
ARC
  5
39B
330
1F
100
AcDbEntity
  8
0
  6
Continuous
 62
     7
370
    25
100
AcDbCircle
 10
-1230.8825059682
 20
209.088088068
 30
0.0
 40
0.4500000000005647
100
AcDbArc
 50
264.4698842763
 51
341.1281260491
  0
ARC
  5
39C
330
1F
100
AcDbEntity
  8
0
  6
Continuous
 62
     7
370
    25
100
AcDbCircle
 10
-1232.5857456243
 20
209.6703033839
 30
0.0
 40
2.250000000000259
100
AcDbArc
 50
41.1281260491
 51
101.1281260491
  0
ARC
  5
39D
330
1F
100
AcDbEntity
  8
0
  6
Continuous
 62
     7
370
    25
100
AcDbCircle
 10
-1231.2299125422
 20
210.8542445368
 30
0.0
 40
0.4500000000000475
100
AcDbArc
 50
41.1281260491
 51
117.7863678218
  0
ARC
  5
39E
330
1F
100
AcDbEntity
  8
0
  6
Continuous
 62
     7
370
    25
100
AcDbCircle
 10
-1231.8068055426
 20
211.9490507827
 30
0.0
 40
0.7875000000000982
100
AcDbArc
 50
204.4698842763
 51
297.7863678219
  0
ARC
  5
39F
330
1F
100
AcDbEntity
  8
0
  6
Continuous
 62
     7
370
    25
100
AcDbCircle
 10
-1232.9331521982
 20
211.4364598527
 30
0.0
 40
0.4500000000002718
100
AcDbArc
 50
24.4698842763
 51
101.128126049
  0
ARC
  5
3A0
330
1F
100
AcDbEntity
  8
0
  6
Continuous
 62
     7
370
    25
100
AcDbCircle
 10
-1232.5857456243
 20
209.6703033839
 30
0.0
 40
2.249999999999914
100
AcDbArc
 50
161.1281260491
 51
221.1281260491
  0
ARC
  5
3A1
330
1F
100
AcDbEntity
  8
0
  6
Continuous
 62
     7
370
    25
100
AcDbCircle
 10
-1232.5857456243
 20
209.6703033839
 30
0.0
 40
2.250000000000303
100
AcDbArc
 50
221.1281260491
 51
281.1281260491
  0
ARC
  5
3A2
330
1F
100
AcDbEntity
  8
0
  6
Continuous
 62
     7
370
    25
100
AcDbCircle
 10
-1232.5857456243
 20
209.6703033839
 30
0.0
 40
2.250000000000551
100
AcDbArc
 50
341.1281260491
 51
41.1281260491
  0
CIRCLE
  5
3A3
330
1F
100
AcDbEntity
  8
0
  6
Continuous
 62
     7
370
    25
100
AcDbCircle
 10
-1232.5857456243
 20
209.6703033839
 30
0.0
 40
3.850000000000335
  0
ARC
  5
3A4
330
1F
100
AcDbEntity
  8
0
  6
Continuous
 62
     7
370
    25
100
AcDbCircle
 10
-1230.8825059682
 20
209.088088068
 30
0.0
 40
0.4500000000005647
100
AcDbArc
 50
341.1281260491
 51
57.7863678218
  0
ARC
  5
3A5
330
1F
100
AcDbEntity
  8
0
  6
Continuous
 62
     7
370
    25
100
AcDbCircle
 10
-1231.2299125422
 20
210.8542445368
 30
0.0
 40
0.4500000000001141
100
AcDbArc
 50
324.4698842763
 51
41.1281260491
  0
ARC
  5
3A6
330
1F
100
AcDbEntity
  8
0
  6
Continuous
 62
     7
370
    25
100
AcDbCircle
 10
-1230.2228224473
 20
210.1350951846
 30
0.0
 40
0.7874999999997486
100
AcDbArc
 50
144.4698842763
 51
237.7863678219
  0
ARC
  5
3A7
330
1F
100
AcDbEntity
  8
0
  6
Continuous
 62
     7
370
    25
100
AcDbCircle
 10
-1233.9415787064
 20
208.486362231
 30
0.0
 40
0.449999999999929
100
AcDbArc
 50
144.4698842763
 51
221.128126049
  0
ARC
  5
3A8
330
1F
100
AcDbEntity
  8
0
  6
Continuous
 62
     7
370
    25
100
AcDbCircle
 10
-1234.9486688012
 20
209.2055115832
 30
0.0
 40
0.7875000000003037
100
AcDbArc
 50
324.4698842763
 51
57.7863678218
  0
ARC
  5
3A9
330
1F
100
AcDbEntity
  8
0
  6
Continuous
 62
     7
370
    25
100
AcDbCircle
 10
-1234.2889852803
 20
210.2525186998
 30
0.0
 40
0.4500000000001436
100
AcDbArc
 50
161.1281260491
 51
237.7863678218
  0
ARC
  5
3AA
330
1F
100
AcDbEntity
  8
0
  6
Continuous
 62
     7
370
    25
100
AcDbCircle
 10
-1233.9415787064
 20
208.486362231
 30
0.0
 40
0.4499999999999523
100
AcDbArc
 50
221.128126049
 51
297.7863678219
  0
ARC
  5
3AB
330
1F
100
AcDbEntity
  8
0
  6
Continuous
 62
     7
370
    25
100
AcDbCircle
 10
-1232.2383390503
 20
207.9041469151
 30
0.0
 40
0.4500000000002604
100
AcDbArc
 50
204.4698842763
 51
281.128126049
  0
ARC
  5
3AC
330
1F
100
AcDbEntity
  8
0
  6
Continuous
 62
     7
370
    25
100
AcDbCircle
 10
-1233.3646857059
 20
207.3915559851
 30
0.0
 40
0.7874999999999879
100
AcDbArc
 50
24.4698842763
 51
117.7863678218
  0
ARC
  5
3AD
330
1F
100
AcDbEntity
  8
0
  6
Continuous
 62
     7
370
    25
100
AcDbCircle
 10
-1232.5857456243
 20
-565.3296966161
 30
0.0
 40
2.250000000000185
100
AcDbArc
 50
341.1281260491
 51
41.1281260491
  0
ARC
  5
3AE
330
1F
100
AcDbEntity
  8
0
  6
Continuous
 62
     7
370
    25
100
AcDbCircle
 10
-1230.8825059682
 20
-565.911911932
 30
0.0
 40
0.4500000000003496
100
AcDbArc
 50
341.1281260491
 51
57.7863678218
  0
ARC
  5
3AF
330
1F
100
AcDbEntity
  8
0
  6
Continuous
 62
     7
370
    25
100
AcDbCircle
 10
-1230.2228224473
 20
-564.8649048154
 30
0.0
 40
0.7875000000000856
100
AcDbArc
 50
144.4698842763
 51
237.7863678218
  0
ARC
  5
3B0
330
1F
100
AcDbEntity
  8
0
  6
Continuous
 62
     7
370
    25
100
AcDbCircle
 10
-1231.2299125422
 20
-564.1457554632
 30
0.0
 40
0.449999999999962
100
AcDbArc
 50
324.4698842762
 51
41.1281260491
  0
ARC
  5
3B1
330
1F
100
AcDbEntity
  8
0
  6
Continuous
 62
     7
370
    25
100
AcDbCircle
 10
-1232.5857456243
 20
-565.3296966161
 30
0.0
 40
2.250000000000275
100
AcDbArc
 50
41.1281260491
 51
101.1281260491
  0
ARC
  5
3B2
330
1F
100
AcDbEntity
  8
0
  6
Continuous
 62
     7
370
    25
100
AcDbCircle
 10
-1232.5857456243
 20
-565.3296966161
 30
0.0
 40
2.250000000000363
100
AcDbArc
 50
101.1281260491
 51
161.1281260491
  0
ARC
  5
3B3
330
1F
100
AcDbEntity
  8
0
  6
Continuous
 62
     7
370
    25
100
AcDbCircle
 10
-1232.5857456243
 20
-565.3296966161
 30
0.0
 40
2.250000000000363
100
AcDbArc
 50
161.1281260491
 51
221.1281260491
  0
ARC
  5
3B4
330
1F
100
AcDbEntity
  8
0
  6
Continuous
 62
     7
370
    25
100
AcDbCircle
 10
-1232.5857456243
 20
-565.3296966161
 30
0.0
 40
2.250000000000231
100
AcDbArc
 50
221.1281260491
 51
281.1281260491
  0
ARC
  5
3B5
330
1F
100
AcDbEntity
  8
0
  6
Continuous
 62
     7
370
    25
100
AcDbCircle
 10
-1232.5857456243
 20
-565.3296966161
 30
0.0
 40
2.250000000000231
100
AcDbArc
 50
281.1281260491
 51
341.1281260491
  0
CIRCLE
  5
3B6
330
1F
100
AcDbEntity
  8
0
  6
Continuous
 62
     7
370
    25
100
AcDbCircle
 10
-1232.5857456243
 20
-565.3296966161
 30
0.0
 40
3.849999999999824
  0
ARC
  5
3B7
330
1F
100
AcDbEntity
  8
0
  6
Continuous
 62
     7
370
    25
100
AcDbCircle
 10
-1232.9331521982
 20
-563.5635401473
 30
0.0
 40
0.4500000000003953
100
AcDbArc
 50
24.4698842763
 51
101.128126049
  0
ARC
  5
3B8
330
1F
100
AcDbEntity
  8
0
  6
Continuous
 62
     7
370
    25
100
AcDbCircle
 10
-1231.2299125422
 20
-564.1457554632
 30
0.0
 40
0.4499999999998462
100
AcDbArc
 50
41.128126049
 51
117.7863678218
  0
ARC
  5
3B9
330
1F
100
AcDbEntity
  8
0
  6
Continuous
 62
     7
370
    25
100
AcDbCircle
 10
-1231.8068055426
 20
-563.0509492173
 30
0.0
 40
0.7875000000000865
100
AcDbArc
 50
204.4698842763
 51
297.7863678218
  0
ARC
  5
3BA
330
1F
100
AcDbEntity
  8
0
  6
Continuous
 62
     7
370
    25
100
AcDbCircle
 10
-1232.2383390503
 20
-567.0958530849
 30
0.0
 40
0.450000000000249
100
AcDbArc
 50
281.128126049
 51
357.7863678219
  0
ARC
  5
3BB
330
1F
100
AcDbEntity
  8
0
  6
Continuous
 62
     7
370
    25
100
AcDbCircle
 10
-1231.001762529
 20
-567.1436522142
 30
0.0
 40
0.787499999999704
100
AcDbArc
 50
84.4698842763
 51
177.7863678218
  0
ARC
  5
3BC
330
1F
100
AcDbEntity
  8
0
  6
Continuous
 62
     7
370
    25
100
AcDbCircle
 10
-1230.8825059682
 20
-565.911911932
 30
0.0
 40
0.4500000000003496
100
AcDbArc
 50
264.4698842763
 51
341.1281260491
  0
ARC
  5
3BD
330
1F
100
AcDbEntity
  8
0
  6
Continuous
 62
     7
370
    25
100
AcDbCircle
 10
-1234.2889852803
 20
-564.7474813002
 30
0.0
 40
0.4500000000003863
100
AcDbArc
 50
84.4698842763
 51
161.1281260491
  0
ARC
  5
3BE
330
1F
100
AcDbEntity
  8
0
  6
Continuous
 62
     7
370
    25
100
AcDbCircle
 10
-1234.1697287196
 20
-563.515741018
 30
0.0
 40
0.7874999999997228
100
AcDbArc
 50
264.4698842763
 51
357.7863678218
  0
ARC
  5
3BF
330
1F
100
AcDbEntity
  8
0
  6
Continuous
 62
     7
370
    25
100
AcDbCircle
 10
-1232.9331521982
 20
-563.5635401473
 30
0.0
 40
0.4500000000003953
100
AcDbArc
 50
101.128126049
 51
177.7863678219
  0
ARC
  5
3C0
330
1F
100
AcDbEntity
  8
0
  6
Continuous
 62
     7
370
    25
100
AcDbCircle
 10
-1234.2889852803
 20
-564.7474813002
 30
0.0
 40
0.4500000000003863
100
AcDbArc
 50
161.1281260491
 51
237.7863678218
  0
ARC
  5
3C1
330
1F
100
AcDbEntity
  8
0
  6
Continuous
 62
     7
370
    25
100
AcDbCircle
 10
-1233.9415787064
 20
-566.513637769
 30
0.0
 40
0.4499999999999489
100
AcDbArc
 50
144.4698842763
 51
221.1281260491
  0
ARC
  5
3C2
330
1F
100
AcDbEntity
  8
0
  6
Continuous
 62
     7
370
    25
100
AcDbCircle
 10
-1234.9486688012
 20
-565.7944884168
 30
0.0
 40
0.7874999999999667
100
AcDbArc
 50
324.4698842763
 51
57.7863678219
  0
ARC
  5
3C3
330
1F
100
AcDbEntity
  8
0
  6
Continuous
 62
     7
370
    25
100
AcDbCircle
 10
-1233.3646857059
 20
-567.6084440149
 30
0.0
 40
0.7875000000001441
100
AcDbArc
 50
24.4698842763
 51
117.7863678219
  0
ARC
  5
3C4
330
1F
100
AcDbEntity
  8
0
  6
Continuous
 62
     7
370
    25
100
AcDbCircle
 10
-1233.9415787064
 20
-566.513637769
 30
0.0
 40
0.4500000000000475
100
AcDbArc
 50
221.1281260491
 51
297.7863678218
  0
ARC
  5
3C5
330
1F
100
AcDbEntity
  8
0
  6
Continuous
 62
     7
370
    25
100
AcDbCircle
 10
-1232.2383390503
 20
-567.0958530849
 30
0.0
 40
0.4500000000001722
100
AcDbArc
 50
204.4698842763
 51
281.128126049
  0
ARC
  5
3C6
330
1F
100
AcDbEntity
  8
0
  6
Continuous
 62
     7
370
    25
100
AcDbCircle
 10
-1232.5857456243
 20
-130.3296966161
 30
0.0
 40
2.250000000000551
100
AcDbArc
 50
281.1281260491
 51
341.1281260491
  0
ARC
  5
3C7
330
1F
100
AcDbEntity
  8
0
  6
Continuous
 62
     7
370
    25
100
AcDbCircle
 10
-1232.2383390503
 20
-132.0958530849
 30
0.0
 40
0.4500000000002413
100
AcDbArc
 50
281.128126049
 51
357.7863678219
  0
ARC
  5
3C8
330
1F
100
AcDbEntity
  8
0
  6
Continuous
 62
     7
370
    25
100
AcDbCircle
 10
-1230.8825059682
 20
-130.911911932
 30
0.0
 40
0.4500000000005647
100
AcDbArc
 50
264.4698842763
 51
341.1281260491
  0
ARC
  5
3C9
330
1F
100
AcDbEntity
  8
0
  6
Continuous
 62
     7
370
    25
100
AcDbCircle
 10
-1231.001762529
 20
-132.1436522142
 30
0.0
 40
0.787499999999715
100
AcDbArc
 50
84.4698842763
 51
177.7863678218
  0
ARC
  5
3CA
330
1F
100
AcDbEntity
  8
0
  6
Continuous
 62
     7
370
    25
100
AcDbCircle
 10
-1232.5857456243
 20
-130.3296966161
 30
0.0
 40
2.250000000000259
100
AcDbArc
 50
101.1281260491
 51
161.1281260491
  0
ARC
  5
3CB
330
1F
100
AcDbEntity
  8
0
  6
Continuous
 62
     7
370
    25
100
AcDbCircle
 10
-1232.9331521982
 20
-128.5635401473
 30
0.0
 40
0.4500000000002718
100
AcDbArc
 50
101.128126049
 51
177.7863678219
  0
ARC
  5
3CC
330
1F
100
AcDbEntity
  8
0
  6
Continuous
 62
     7
370
    25
100
AcDbCircle
 10
-1234.2889852803
 20
-129.7474813002
 30
0.0
 40
0.4500000000002173
100
AcDbArc
 50
84.4698842763
 51
161.1281260491
  0
ARC
  5
3CD
330
1F
100
AcDbEntity
  8
0
  6
Continuous
 62
     7
370
    25
100
AcDbCircle
 10
-1234.1697287196
 20
-128.515741018
 30
0.0
 40
0.7874999999997384
100
AcDbArc
 50
264.4698842763
 51
357.7863678218
  0
ARC
  5
3CE
330
1F
100
AcDbEntity
  8
0
  6
Continuous
 62
     7
370
    25
100
AcDbCircle
 10
-1232.5857456243
 20
-130.3296966161
 30
0.0
 40
2.250000000000551
100
AcDbArc
 50
341.1281260491
 51
41.1281260491
  0
ARC
  5
3CF
330
1F
100
AcDbEntity
  8
0
  6
Continuous
 62
     7
370
    25
100
AcDbCircle
 10
-1230.8825059682
 20
-130.911911932
 30
0.0
 40
0.4500000000005647
100
AcDbArc
 50
341.1281260491
 51
57.7863678218
  0
ARC
  5
3D0
330
1F
100
AcDbEntity
  8
0
  6
Continuous
 62
     7
370
    25
100
AcDbCircle
 10
-1230.2228224473
 20
-129.8649048154
 30
0.0
 40
0.7874999999997486
100
AcDbArc
 50
144.4698842763
 51
237.7863678219
  0
ARC
  5
3D1
330
1F
100
AcDbEntity
  8
0
  6
Continuous
 62
     7
370
    25
100
AcDbCircle
 10
-1231.2299125422
 20
-129.1457554632
 30
0.0
 40
0.4500000000001141
100
AcDbArc
 50
324.4698842763
 51
41.1281260491
  0
ARC
  5
3D2
330
1F
100
AcDbEntity
  8
0
  6
Continuous
 62
     7
370
    25
100
AcDbCircle
 10
-1232.5857456243
 20
-130.3296966161
 30
0.0
 40
2.250000000000259
100
AcDbArc
 50
41.1281260491
 51
101.1281260491
  0
ARC
  5
3D3
330
1F
100
AcDbEntity
  8
0
  6
Continuous
 62
     7
370
    25
100
AcDbCircle
 10
-1232.5857456243
 20
-130.3296966161
 30
0.0
 40
2.249999999999914
100
AcDbArc
 50
161.1281260491
 51
221.1281260491
  0
ARC
  5
3D4
330
1F
100
AcDbEntity
  8
0
  6
Continuous
 62
     7
370
    25
100
AcDbCircle
 10
-1232.5857456243
 20
-130.3296966161
 30
0.0
 40
2.250000000000303
100
AcDbArc
 50
221.1281260491
 51
281.1281260491
  0
CIRCLE
  5
3D5
330
1F
100
AcDbEntity
  8
0
  6
Continuous
 62
     7
370
    25
100
AcDbCircle
 10
-1232.5857456243
 20
-130.3296966161
 30
0.0
 40
3.850000000000326
  0
ARC
  5
3D6
330
1F
100
AcDbEntity
  8
0
  6
Continuous
 62
     7
370
    25
100
AcDbCircle
 10
-1232.9331521982
 20
-128.5635401473
 30
0.0
 40
0.4500000000002718
100
AcDbArc
 50
24.4698842763
 51
101.128126049
  0
ARC
  5
3D7
330
1F
100
AcDbEntity
  8
0
  6
Continuous
 62
     7
370
    25
100
AcDbCircle
 10
-1231.2299125422
 20
-129.1457554632
 30
0.0
 40
0.4500000000000475
100
AcDbArc
 50
41.1281260491
 51
117.7863678218
  0
ARC
  5
3D8
330
1F
100
AcDbEntity
  8
0
  6
Continuous
 62
     7
370
    25
100
AcDbCircle
 10
-1231.8068055426
 20
-128.0509492173
 30
0.0
 40
0.7875000000000982
100
AcDbArc
 50
204.4698842763
 51
297.7863678219
  0
ARC
  5
3D9
330
1F
100
AcDbEntity
  8
0
  6
Continuous
 62
     7
370
    25
100
AcDbCircle
 10
-1233.9415787064
 20
-131.513637769
 30
0.0
 40
0.449999999999929
100
AcDbArc
 50
144.4698842763
 51
221.128126049
  0
ARC
  5
3DA
330
1F
100
AcDbEntity
  8
0
  6
Continuous
 62
     7
370
    25
100
AcDbCircle
 10
-1234.9486688012
 20
-130.7944884168
 30
0.0
 40
0.7875000000003037
100
AcDbArc
 50
324.4698842763
 51
57.7863678218
  0
ARC
  5
3DB
330
1F
100
AcDbEntity
  8
0
  6
Continuous
 62
     7
370
    25
100
AcDbCircle
 10
-1234.2889852803
 20
-129.7474813002
 30
0.0
 40
0.4500000000001436
100
AcDbArc
 50
161.1281260491
 51
237.7863678218
  0
ARC
  5
3DC
330
1F
100
AcDbEntity
  8
0
  6
Continuous
 62
     7
370
    25
100
AcDbCircle
 10
-1233.9415787064
 20
-131.513637769
 30
0.0
 40
0.4499999999999523
100
AcDbArc
 50
221.128126049
 51
297.7863678219
  0
ARC
  5
3DD
330
1F
100
AcDbEntity
  8
0
  6
Continuous
 62
     7
370
    25
100
AcDbCircle
 10
-1233.3646857059
 20
-132.6084440149
 30
0.0
 40
0.7874999999999879
100
AcDbArc
 50
24.4698842763
 51
117.7863678218
  0
ARC
  5
3DE
330
1F
100
AcDbEntity
  8
0
  6
Continuous
 62
     7
370
    25
100
AcDbCircle
 10
-1232.2383390503
 20
-132.0958530849
 30
0.0
 40
0.4500000000002604
100
AcDbArc
 50
204.4698842763
 51
281.128126049
  0
ARC
  5
3DF
330
1F
100
AcDbEntity
  8
0
  6
Continuous
 62
     7
370
    25
100
AcDbCircle
 10
-1232.5857456243
 20
29.6703033839
 30
0.0
 40
2.250000000000296
100
AcDbArc
 50
41.1281260491
 51
101.1281260491
  0
ARC
  5
3E0
330
1F
100
AcDbEntity
  8
0
  6
Continuous
 62
     7
370
    25
100
AcDbCircle
 10
-1231.2299125422
 20
30.8542445368
 30
0.0
 40
0.4500000000000411
100
AcDbArc
 50
41.128126049
 51
117.7863678218
  0
ARC
  5
3E1
330
1F
100
AcDbEntity
  8
0
  6
Continuous
 62
     7
370
    25
100
AcDbCircle
 10
-1231.8068055426
 20
31.9490507827
 30
0.0
 40
0.7875000000000968
100
AcDbArc
 50
204.4698842763
 51
297.7863678218
  0
ARC
  5
3E2
330
1F
100
AcDbEntity
  8
0
  6
Continuous
 62
     7
370
    25
100
AcDbCircle
 10
-1232.9331521982
 20
31.4364598527
 30
0.0
 40
0.450000000000214
100
AcDbArc
 50
24.4698842763
 51
101.128126049
  0
ARC
  5
3E3
330
1F
100
AcDbEntity
  8
0
  6
Continuous
 62
     7
370
    25
100
AcDbCircle
 10
-1232.5857456243
 20
29.6703033839
 30
0.0
 40
2.250000000000125
100
AcDbArc
 50
341.1281260491
 51
41.1281260491
  0
ARC
  5
3E4
330
1F
100
AcDbEntity
  8
0
  6
Continuous
 62
     7
370
    25
100
AcDbCircle
 10
-1230.8825059682
 20
29.088088068
 30
0.0
 40
0.4500000000003553
100
AcDbArc
 50
341.1281260491
 51
57.7863678218
  0
ARC
  5
3E5
330
1F
100
AcDbEntity
  8
0
  6
Continuous
 62
     7
370
    25
100
AcDbCircle
 10
-1230.2228224473
 20
30.1350951846
 30
0.0
 40
0.7875000000001167
100
AcDbArc
 50
144.4698842763
 51
237.7863678218
  0
ARC
  5
3E6
330
1F
100
AcDbEntity
  8
0
  6
Continuous
 62
     7
370
    25
100
AcDbCircle
 10
-1231.2299125422
 20
30.8542445368
 30
0.0
 40
0.4499999999999393
100
AcDbArc
 50
324.4698842763
 51
41.1281260491
  0
ARC
  5
3E7
330
1F
100
AcDbEntity
  8
0
  6
Continuous
 62
     7
370
    25
100
AcDbCircle
 10
-1232.5857456243
 20
29.6703033839
 30
0.0
 40
2.25000000000034
100
AcDbArc
 50
101.1281260491
 51
161.1281260491
  0
ARC
  5
3E8
330
1F
100
AcDbEntity
  8
0
  6
Continuous
 62
     7
370
    25
100
AcDbCircle
 10
-1232.5857456243
 20
29.6703033839
 30
0.0
 40
2.25000000000034
100
AcDbArc
 50
161.1281260491
 51
221.1281260491
  0
ARC
  5
3E9
330
1F
100
AcDbEntity
  8
0
  6
Continuous
 62
     7
370
    25
100
AcDbCircle
 10
-1232.5857456243
 20
29.6703033839
 30
0.0
 40
2.250000000000252
100
AcDbArc
 50
221.1281260491
 51
281.1281260491
  0
ARC
  5
3EA
330
1F
100
AcDbEntity
  8
0
  6
Continuous
 62
     7
370
    25
100
AcDbCircle
 10
-1232.5857456243
 20
29.6703033839
 30
0.0
 40
2.250000000000252
100
AcDbArc
 50
281.1281260491
 51
341.1281260491
  0
CIRCLE
  5
3EB
330
1F
100
AcDbEntity
  8
0
  6
Continuous
 62
     7
370
    25
100
AcDbCircle
 10
-1232.5857456243
 20
29.6703033839
 30
0.0
 40
3.849999999999986
  0
ARC
  5
3EC
330
1F
100
AcDbEntity
  8
0
  6
Continuous
 62
     7
370
    25
100
AcDbCircle
 10
-1232.9331521982
 20
31.4364598527
 30
0.0
 40
0.4500000000002409
100
AcDbArc
 50
101.128126049
 51
177.7863678219
  0
ARC
  5
3ED
330
1F
100
AcDbEntity
  8
0
  6
Continuous
 62
     7
370
    25
100
AcDbCircle
 10
-1234.1697287196
 20
31.484258982
 30
0.0
 40
0.7874999999997154
100
AcDbArc
 50
264.4698842763
 51
357.7863678218
  0
ARC
  5
3EE
330
1F
100
AcDbEntity
  8
0
  6
Continuous
 62
     7
370
    25
100
AcDbCircle
 10
-1234.2889852803
 20
30.2525186998
 30
0.0
 40
0.4500000000003542
100
AcDbArc
 50
84.4698842763
 51
161.1281260491
  0
ARC
  5
3EF
330
1F
100
AcDbEntity
  8
0
  6
Continuous
 62
     7
370
    25
100
AcDbCircle
 10
-1232.2383390503
 20
27.9041469151
 30
0.0
 40
0.450000000000241
100
AcDbArc
 50
281.128126049
 51
357.7863678219
  0
ARC
  5
3F0
330
1F
100
AcDbEntity
  8
0
  6
Continuous
 62
     7
370
    25
100
AcDbCircle
 10
-1230.8825059682
 20
29.088088068
 30
0.0
 40
0.4500000000003553
100
AcDbArc
 50
264.4698842763
 51
341.1281260491
  0
ARC
  5
3F1
330
1F
100
AcDbEntity
  8
0
  6
Continuous
 62
     7
370
    25
100
AcDbCircle
 10
-1231.001762529
 20
27.8563477858
 30
0.0
 40
0.7874999999997384
100
AcDbArc
 50
84.4698842763
 51
177.7863678218
  0
ARC
  5
3F2
330
1F
100
AcDbEntity
  8
0
  6
Continuous
 62
     7
370
    25
100
AcDbCircle
 10
-1233.9415787064
 20
28.486362231
 30
0.0
 40
0.4499999999998431
100
AcDbArc
 50
221.1281260491
 51
297.7863678218
  0
ARC
  5
3F3
330
1F
100
AcDbEntity
  8
0
  6
Continuous
 62
     7
370
    25
100
AcDbCircle
 10
-1233.3646857059
 20
27.3915559851
 30
0.0
 40
0.7875000000000876
100
AcDbArc
 50
24.4698842763
 51
117.7863678219
  0
ARC
  5
3F4
330
1F
100
AcDbEntity
  8
0
  6
Continuous
 62
     7
370
    25
100
AcDbCircle
 10
-1232.2383390503
 20
27.9041469151
 30
0.0
 40
0.4500000000002174
100
AcDbArc
 50
204.4698842763
 51
281.128126049
  0
ARC
  5
3F5
330
1F
100
AcDbEntity
  8
0
  6
Continuous
 62
     7
370
    25
100
AcDbCircle
 10
-1234.2889852803
 20
30.2525186998
 30
0.0
 40
0.4500000000003542
100
AcDbArc
 50
161.1281260491
 51
237.7863678218
  0
ARC
  5
3F6
330
1F
100
AcDbEntity
  8
0
  6
Continuous
 62
     7
370
    25
100
AcDbCircle
 10
-1233.9415787064
 20
28.486362231
 30
0.0
 40
0.4500000000001244
100
AcDbArc
 50
144.4698842763
 51
221.1281260491
  0
ARC
  5
3F7
330
1F
100
AcDbEntity
  8
0
  6
Continuous
 62
     7
370
    25
100
AcDbCircle
 10
-1234.9486688012
 20
29.2055115832
 30
0.0
 40
0.7874999999999316
100
AcDbArc
 50
324.4698842763
 51
57.7863678218
  0
ARC
  5
3F8
330
1F
100
AcDbEntity
  8
0
  6
Continuous
 62
     7
370
    25
100
AcDbCircle
 10
652.4142543757
 20
-1065.3296966161
 30
0.0
 40
2.250000000000231
100
AcDbArc
 50
101.1281260491
 51
161.1281260491
  0
ARC
  5
3F9
330
1F
100
AcDbEntity
  8
0
  6
Continuous
 62
     7
370
    25
100
AcDbCircle
 10
652.0668478018
 20
-1063.5635401473
 30
0.0
 40
0.4500000000003733
100
AcDbArc
 50
101.128126049
 51
177.7863678219
  0
ARC
  5
3FA
330
1F
100
AcDbEntity
  8
0
  6
Continuous
 62
     7
370
    25
100
AcDbCircle
 10
650.8302712804
 20
-1063.515741018
 30
0.0
 40
0.787499999999858
100
AcDbArc
 50
264.4698842763
 51
357.7863678218
  0
ARC
  5
3FB
330
1F
100
AcDbEntity
  8
0
  6
Continuous
 62
     7
370
    25
100
AcDbCircle
 10
650.7110147197
 20
-1064.7474813002
 30
0.0
 40
0.450000000000242
100
AcDbArc
 50
84.4698842763
 51
161.1281260491
  0
ARC
  5
3FC
330
1F
100
AcDbEntity
  8
0
  6
Continuous
 62
     7
370
    25
100
AcDbCircle
 10
652.4142543757
 20
-1065.3296966161
 30
0.0
 40
2.250000000000231
100
AcDbArc
 50
281.1281260491
 51
341.1281260491
  0
ARC
  5
3FD
330
1F
100
AcDbEntity
  8
0
  6
Continuous
 62
     7
370
    25
100
AcDbCircle
 10
652.7616609497
 20
-1067.0958530849
 30
0.0
 40
0.4500000000001502
100
AcDbArc
 50
281.128126049
 51
357.7863678219
  0
ARC
  5
3FE
330
1F
100
AcDbEntity
  8
0
  6
Continuous
 62
     7
370
    25
100
AcDbCircle
 10
654.1174940318
 20
-1065.9119119321
 30
0.0
 40
0.450000000000398
100
AcDbArc
 50
264.4698842763
 51
341.1281260491
  0
ARC
  5
3FF
330
1F
100
AcDbEntity
  8
0
  6
Continuous
 62
     7
370
    25
100
AcDbCircle
 10
653.998237471
 20
-1067.1436522142
 30
0.0
 40
0.7874999999997083
100
AcDbArc
 50
84.4698842763
 51
177.7863678218
  0
ARC
  5
400
330
1F
100
AcDbEntity
  8
0
  6
Continuous
 62
     7
370
    25
100
AcDbCircle
 10
652.4142543757
 20
-1065.3296966161
 30
0.0
 40
2.250000000000231
100
AcDbArc
 50
41.1281260491
 51
101.1281260491
  0
ARC
  5
401
330
1F
100
AcDbEntity
  8
0
  6
Continuous
 62
     7
370
    25
100
AcDbCircle
 10
653.7700874578
 20
-1064.1457554632
 30
0.0
 40
0.4499999999998462
100
AcDbArc
 50
41.128126049
 51
117.7863678218
  0
ARC
  5
402
330
1F
100
AcDbEntity
  8
0
  6
Continuous
 62
     7
370
    25
100
AcDbCircle
 10
652.0668478018
 20
-1063.5635401473
 30
0.0
 40
0.4500000000003733
100
AcDbArc
 50
24.4698842763
 51
101.128126049
  0
ARC
  5
403
330
1F
100
AcDbEntity
  8
0
  6
Continuous
 62
     7
370
    25
100
AcDbCircle
 10
653.1931944574
 20
-1063.0509492173
 30
0.0
 40
0.787499999999983
100
AcDbArc
 50
204.4698842763
 51
297.7863678218
  0
ARC
  5
404
330
1F
100
AcDbEntity
  8
0
  6
Continuous
 62
     7
370
    25
100
AcDbCircle
 10
652.4142543757
 20
-1065.3296966161
 30
0.0
 40
2.250000000000218
100
AcDbArc
 50
161.1281260491
 51
221.1281260491
  0
ARC
  5
405
330
1F
100
AcDbEntity
  8
0
  6
Continuous
 62
     7
370
    25
100
AcDbCircle
 10
652.4142543757
 20
-1065.3296966161
 30
0.0
 40
2.250000000000231
100
AcDbArc
 50
221.1281260491
 51
281.1281260491
  0
ARC
  5
406
330
1F
100
AcDbEntity
  8
0
  6
Continuous
 62
     7
370
    25
100
AcDbCircle
 10
652.4142543757
 20
-1065.3296966161
 30
0.0
 40
2.250000000000185
100
AcDbArc
 50
341.1281260491
 51
41.1281260491
  0
CIRCLE
  5
407
330
1F
100
AcDbEntity
  8
0
  6
Continuous
 62
     7
370
    25
100
AcDbCircle
 10
652.4142543757
 20
-1065.3296966161
 30
0.0
 40
3.849999999999835
  0
ARC
  5
408
330
1F
100
AcDbEntity
  8
0
  6
Continuous
 62
     7
370
    25
100
AcDbCircle
 10
653.7700874578
 20
-1064.1457554632
 30
0.0
 40
0.4500000000000546
100
AcDbArc
 50
324.4698842763
 51
41.128126049
  0
ARC
  5
409
330
1F
100
AcDbEntity
  8
0
  6
Continuous
 62
     7
370
    25
100
AcDbCircle
 10
654.7771775527
 20
-1064.8649048155
 30
0.0
 40
0.7875000000000856
100
AcDbArc
 50
144.4698842763
 51
237.7863678218
  0
ARC
  5
40A
330
1F
100
AcDbEntity
  8
0
  6
Continuous
 62
     7
370
    25
100
AcDbCircle
 10
654.1174940318
 20
-1065.9119119321
 30
0.0
 40
0.450000000000208
100
AcDbArc
 50
341.1281260491
 51
57.7863678218
  0
ARC
  5
40B
330
1F
100
AcDbEntity
  8
0
  6
Continuous
 62
     7
370
    25
100
AcDbCircle
 10
650.7110147197
 20
-1064.7474813002
 30
0.0
 40
0.450000000000242
100
AcDbArc
 50
161.1281260491
 51
237.7863678218
  0
ARC
  5
40C
330
1F
100
AcDbEntity
  8
0
  6
Continuous
 62
     7
370
    25
100
AcDbCircle
 10
650.0513311988
 20
-1065.7944884168
 30
0.0
 40
0.7874999999999931
100
AcDbArc
 50
324.4698842763
 51
57.7863678219
  0
ARC
  5
40D
330
1F
100
AcDbEntity
  8
0
  6
Continuous
 62
     7
370
    25
100
AcDbCircle
 10
651.0584212936
 20
-1066.513637769
 30
0.0
 40
0.4499999999999224
100
AcDbArc
 50
144.4698842763
 51
221.1281260491
  0
ARC
  5
40E
330
1F
100
AcDbEntity
  8
0
  6
Continuous
 62
     7
370
    25
100
AcDbCircle
 10
651.6353142941
 20
-1067.6084440149
 30
0.0
 40
0.787499999999983
100
AcDbArc
 50
24.4698842763
 51
117.7863678218
  0
ARC
  5
40F
330
1F
100
AcDbEntity
  8
0
  6
Continuous
 62
     7
370
    25
100
AcDbCircle
 10
652.7616609497
 20
-1067.0958530849
 30
0.0
 40
0.4500000000002041
100
AcDbArc
 50
204.4698842763
 51
281.128126049
  0
ARC
  5
410
330
1F
100
AcDbEntity
  8
0
  6
Continuous
 62
     7
370
    25
100
AcDbCircle
 10
651.0584212936
 20
-1066.513637769
 30
0.0
 40
0.4500000000001004
100
AcDbArc
 50
221.1281260491
 51
297.7863678218
  0
ARC
  5
411
330
1F
100
AcDbEntity
  8
0
  6
Continuous
 62
     7
370
    25
100
AcDbCircle
 10
427.4142543757
 20
594.6703033839
 30
0.0
 40
2.250000000000254
100
AcDbArc
 50
281.1281260491
 51
341.1281260491
  0
ARC
  5
412
330
1F
100
AcDbEntity
  8
0
  6
Continuous
 62
     7
370
    25
100
AcDbCircle
 10
427.7616609497
 20
592.9041469151
 30
0.0
 40
0.4500000000002837
100
AcDbArc
 50
281.128126049
 51
357.7863678219
  0
ARC
  5
413
330
1F
100
AcDbEntity
  8
0
  6
Continuous
 62
     7
370
    25
100
AcDbCircle
 10
428.9982374711
 20
592.8563477858
 30
0.0
 40
0.7874999999997128
100
AcDbArc
 50
84.4698842763
 51
177.7863678218
  0
ARC
  5
414
330
1F
100
AcDbEntity
  8
0
  6
Continuous
 62
     7
370
    25
100
AcDbCircle
 10
429.1174940318
 20
594.088088068
 30
0.0
 40
0.4500000000002958
100
AcDbArc
 50
264.4698842763
 51
341.1281260491
  0
ARC
  5
415
330
1F
100
AcDbEntity
  8
0
  6
Continuous
 62
     7
370
    25
100
AcDbCircle
 10
427.4142543757
 20
594.6703033839
 30
0.0
 40
2.250000000000354
100
AcDbArc
 50
101.1281260491
 51
161.1281260491
  0
ARC
  5
416
330
1F
100
AcDbEntity
  8
0
  6
Continuous
 62
     7
370
    25
100
AcDbCircle
 10
427.0668478018
 20
596.4364598527
 30
0.0
 40
0.4500000000002727
100
AcDbArc
 50
101.128126049
 51
177.7863678219
  0
ARC
  5
417
330
1F
100
AcDbEntity
  8
0
  6
Continuous
 62
     7
370
    25
100
AcDbCircle
 10
425.8302712804
 20
596.484258982
 30
0.0
 40
0.7874999999997447
100
AcDbArc
 50
264.4698842763
 51
357.7863678218
  0
ARC
  5
418
330
1F
100
AcDbEntity
  8
0
  6
Continuous
 62
     7
370
    25
100
AcDbCircle
 10
425.7110147197
 20
595.2525186998
 30
0.0
 40
0.4500000000002958
100
AcDbArc
 50
84.4698842763
 51
161.1281260491
  0
ARC
  5
419
330
1F
100
AcDbEntity
  8
0
  6
Continuous
 62
     7
370
    25
100
AcDbCircle
 10
427.4142543757
 20
594.6703033839
 30
0.0
 40
2.250000000000354
100
AcDbArc
 50
41.1281260491
 51
101.1281260491
  0
ARC
  5
41A
330
1F
100
AcDbEntity
  8
0
  6
Continuous
 62
     7
370
    25
100
AcDbCircle
 10
428.7700874578
 20
595.8542445368
 30
0.0
 40
0.450000000000074
100
AcDbArc
 50
41.128126049
 51
117.7863678218
  0
ARC
  5
41B
330
1F
100
AcDbEntity
  8
0
  6
Continuous
 62
     7
370
    25
100
AcDbCircle
 10
427.0668478018
 20
596.4364598527
 30
0.0
 40
0.4500000000002727
100
AcDbArc
 50
24.4698842763
 51
101.128126049
  0
ARC
  5
41C
330
1F
100
AcDbEntity
  8
0
  6
Continuous
 62
     7
370
    25
100
AcDbCircle
 10
428.1931944574
 20
596.9490507827
 30
0.0
 40
0.787499999999983
100
AcDbArc
 50
204.4698842763
 51
297.7863678219
  0
ARC
  5
41D
330
1F
100
AcDbEntity
  8
0
  6
Continuous
 62
     7
370
    25
100
AcDbCircle
 10
427.4142543757
 20
594.6703033839
 30
0.0
 40
2.250000000000202
100
AcDbArc
 50
161.1281260491
 51
221.1281260491
  0
ARC
  5
41E
330
1F
100
AcDbEntity
  8
0
  6
Continuous
 62
     7
370
    25
100
AcDbCircle
 10
427.4142543757
 20
594.6703033839
 30
0.0
 40
2.250000000000254
100
AcDbArc
 50
221.1281260491
 51
281.1281260491
  0
ARC
  5
41F
330
1F
100
AcDbEntity
  8
0
  6
Continuous
 62
     7
370
    25
100
AcDbCircle
 10
427.4142543757
 20
594.6703033839
 30
0.0
 40
2.250000000000218
100
AcDbArc
 50
341.1281260491
 51
41.1281260491
  0
CIRCLE
  5
420
330
1F
100
AcDbEntity
  8
0
  6
Continuous
 62
     7
370
    25
100
AcDbCircle
 10
427.4142543757
 20
594.6703033839
 30
0.0
 40
3.85000000000006
  0
ARC
  5
421
330
1F
100
AcDbEntity
  8
0
  6
Continuous
 62
     7
370
    25
100
AcDbCircle
 10
428.7700874578
 20
595.8542445368
 30
0.0
 40
0.4500000000000083
100
AcDbArc
 50
324.4698842763
 51
41.1281260491
  0
ARC
  5
422
330
1F
100
AcDbEntity
  8
0
  6
Continuous
 62
     7
370
    25
100
AcDbCircle
 10
429.7771775527
 20
595.1350951846
 30
0.0
 40
0.7874999999999931
100
AcDbArc
 50
144.4698842763
 51
237.7863678218
  0
ARC
  5
423
330
1F
100
AcDbEntity
  8
0
  6
Continuous
 62
     7
370
    25
100
AcDbCircle
 10
429.1174940318
 20
594.088088068
 30
0.0
 40
0.4500000000002958
100
AcDbArc
 50
341.1281260491
 51
57.7863678218
  0
ARC
  5
424
330
1F
100
AcDbEntity
  8
0
  6
Continuous
 62
     7
370
    25
100
AcDbCircle
 10
426.0584212936
 20
593.486362231
 30
0.0
 40
0.4499999999999423
100
AcDbArc
 50
144.4698842763
 51
221.1281260491
  0
ARC
  5
425
330
1F
100
AcDbEntity
  8
0
  6
Continuous
 62
     7
370
    25
100
AcDbCircle
 10
425.0513311988
 20
594.2055115832
 30
0.0
 40
0.7875000000000592
100
AcDbArc
 50
324.4698842763
 51
57.7863678218
  0
ARC
  5
426
330
1F
100
AcDbEntity
  8
0
  6
Continuous
 62
     7
370
    25
100
AcDbCircle
 10
425.7110147197
 20
595.2525186998
 30
0.0
 40
0.4500000000002958
100
AcDbArc
 50
161.1281260491
 51
237.7863678218
  0
ARC
  5
427
330
1F
100
AcDbEntity
  8
0
  6
Continuous
 62
     7
370
    25
100
AcDbCircle
 10
427.7616609497
 20
592.9041469151
 30
0.0
 40
0.4500000000002837
100
AcDbArc
 50
204.4698842763
 51
281.128126049
  0
ARC
  5
428
330
1F
100
AcDbEntity
  8
0
  6
Continuous
 62
     7
370
    25
100
AcDbCircle
 10
426.0584212936
 20
593.486362231
 30
0.0
 40
0.4499999999999257
100
AcDbArc
 50
221.1281260491
 51
297.7863678219
  0
ARC
  5
429
330
1F
100
AcDbEntity
  8
0
  6
Continuous
 62
     7
370
    25
100
AcDbCircle
 10
426.6353142941
 20
592.3915559851
 30
0.0
 40
0.7875000000000818
100
AcDbArc
 50
24.4698842763
 51
117.7863678218
  0
ARC
  5
42A
330
1F
100
AcDbEntity
  8
0
  6
Continuous
 62
     7
370
    25
100
AcDbCircle
 10
652.4142543757
 20
-905.3296966161
 30
0.0
 40
2.250000000000292
100
AcDbArc
 50
341.1281260491
 51
41.1281260491
  0
ARC
  5
42B
330
1F
100
AcDbEntity
  8
0
  6
Continuous
 62
     7
370
    25
100
AcDbCircle
 10
654.7771775527
 20
-904.8649048155
 30
0.0
 40
0.7875000000000592
100
AcDbArc
 50
144.4698842763
 51
237.7863678219
  0
ARC
  5
42C
330
1F
100
AcDbEntity
  8
0
  6
Continuous
 62
     7
370
    25
100
AcDbCircle
 10
653.7700874578
 20
-904.1457554632
 30
0.0
 40
0.4499999999999224
100
AcDbArc
 50
324.4698842763
 51
41.1281260491
  0
ARC
  5
42D
330
1F
100
AcDbEntity
  8
0
  6
Continuous
 62
     7
370
    25
100
AcDbCircle
 10
654.1174940318
 20
-905.911911932
 30
0.0
 40
0.4500000000001344
100
AcDbArc
 50
341.1281260491
 51
57.7863678218
  0
ARC
  5
42E
330
1F
100
AcDbEntity
  8
0
  6
Continuous
 62
     7
370
    25
100
AcDbCircle
 10
652.4142543757
 20
-905.3296966161
 30
0.0
 40
2.25000000000021
100
AcDbArc
 50
101.1281260491
 51
161.1281260491
  0
ARC
  5
42F
330
1F
100
AcDbEntity
  8
0
  6
Continuous
 62
     7
370
    25
100
AcDbCircle
 10
652.0668478018
 20
-903.5635401473
 30
0.0
 40
0.4500000000003513
100
AcDbArc
 50
101.128126049
 51
177.7863678219
  0
ARC
  5
430
330
1F
100
AcDbEntity
  8
0
  6
Continuous
 62
     7
370
    25
100
AcDbCircle
 10
650.8302712804
 20
-903.515741018
 30
0.0
 40
0.7874999999997128
100
AcDbArc
 50
264.4698842763
 51
357.7863678218
  0
ARC
  5
431
330
1F
100
AcDbEntity
  8
0
  6
Continuous
 62
     7
370
    25
100
AcDbCircle
 10
650.7110147197
 20
-904.7474813002
 30
0.0
 40
0.4500000000002958
100
AcDbArc
 50
84.4698842763
 51
161.1281260491
  0
ARC
  5
432
330
1F
100
AcDbEntity
  8
0
  6
Continuous
 62
     7
370
    25
100
AcDbCircle
 10
652.4142543757
 20
-905.3296966161
 30
0.0
 40
2.25000000000021
100
AcDbArc
 50
41.1281260491
 51
101.1281260491
  0
ARC
  5
433
330
1F
100
AcDbEntity
  8
0
  6
Continuous
 62
     7
370
    25
100
AcDbCircle
 10
652.0668478018
 20
-903.5635401473
 30
0.0
 40
0.4500000000003513
100
AcDbArc
 50
24.4698842763
 51
101.128126049
  0
ARC
  5
434
330
1F
100
AcDbEntity
  8
0
  6
Continuous
 62
     7
370
    25
100
AcDbCircle
 10
653.7700874578
 20
-904.1457554632
 30
0.0
 40
0.4499999999999998
100
AcDbArc
 50
41.1281260491
 51
117.7863678218
  0
ARC
  5
435
330
1F
100
AcDbEntity
  8
0
  6
Continuous
 62
     7
370
    25
100
AcDbCircle
 10
653.1931944574
 20
-903.0509492173
 30
0.0
 40
0.7875000000000381
100
AcDbArc
 50
204.4698842763
 51
297.7863678218
  0
ARC
  5
436
330
1F
100
AcDbEntity
  8
0
  6
Continuous
 62
     7
370
    25
100
AcDbCircle
 10
652.4142543757
 20
-905.3296966161
 30
0.0
 40
2.250000000000292
100
AcDbArc
 50
281.1281260491
 51
341.1281260491
  0
ARC
  5
437
330
1F
100
AcDbEntity
  8
0
  6
Continuous
 62
     7
370
    25
100
AcDbCircle
 10
652.7616609497
 20
-907.0958530849
 30
0.0
 40
0.450000000000249
100
AcDbArc
 50
281.128126049
 51
357.7863678219
  0
ARC
  5
438
330
1F
100
AcDbEntity
  8
0
  6
Continuous
 62
     7
370
    25
100
AcDbCircle
 10
653.998237471
 20
-907.1436522142
 30
0.0
 40
0.7874999999999711
100
AcDbArc
 50
84.4698842763
 51
177.7863678218
  0
ARC
  5
439
330
1F
100
AcDbEntity
  8
0
  6
Continuous
 62
     7
370
    25
100
AcDbCircle
 10
654.1174940318
 20
-905.911911932
 30
0.0
 40
0.4500000000001344
100
AcDbArc
 50
264.4698842763
 51
341.1281260491
  0
ARC
  5
43A
330
1F
100
AcDbEntity
  8
0
  6
Continuous
 62
     7
370
    25
100
AcDbCircle
 10
652.4142543757
 20
-905.3296966161
 30
0.0
 40
2.250000000000111
100
AcDbArc
 50
161.1281260491
 51
221.1281260491
  0
ARC
  5
43B
330
1F
100
AcDbEntity
  8
0
  6
Continuous
 62
     7
370
    25
100
AcDbCircle
 10
652.4142543757
 20
-905.3296966161
 30
0.0
 40
2.250000000000231
100
AcDbArc
 50
221.1281260491
 51
281.1281260491
  0
CIRCLE
  5
43C
330
1F
100
AcDbEntity
  8
0
  6
Continuous
 62
     7
370
    25
100
AcDbCircle
 10
652.4142543757
 20
-905.3296966161
 30
0.0
 40
3.84999999999991
  0
ARC
  5
43D
330
1F
100
AcDbEntity
  8
0
  6
Continuous
 62
     7
370
    25
100
AcDbCircle
 10
651.0584212936
 20
-906.513637769
 30
0.0
 40
0.4500000000001004
100
AcDbArc
 50
221.1281260491
 51
297.7863678218
  0
ARC
  5
43E
330
1F
100
AcDbEntity
  8
0
  6
Continuous
 62
     7
370
    25
100
AcDbCircle
 10
651.6353142941
 20
-907.6084440149
 30
0.0
 40
0.787499999999983
100
AcDbArc
 50
24.4698842763
 51
117.7863678218
  0
ARC
  5
43F
330
1F
100
AcDbEntity
  8
0
  6
Continuous
 62
     7
370
    25
100
AcDbCircle
 10
652.7616609497
 20
-907.0958530849
 30
0.0
 40
0.4500000000001569
100
AcDbArc
 50
204.4698842763
 51
281.128126049
  0
ARC
  5
440
330
1F
100
AcDbEntity
  8
0
  6
Continuous
 62
     7
370
    25
100
AcDbCircle
 10
650.7110147197
 20
-904.7474813002
 30
0.0
 40
0.4500000000001344
100
AcDbArc
 50
161.1281260491
 51
237.7863678218
  0
ARC
  5
441
330
1F
100
AcDbEntity
  8
0
  6
Continuous
 62
     7
370
    25
100
AcDbCircle
 10
651.0584212936
 20
-906.513637769
 30
0.0
 40
0.4499999999999224
100
AcDbArc
 50
144.4698842763
 51
221.1281260491
  0
ARC
  5
442
330
1F
100
AcDbEntity
  8
0
  6
Continuous
 62
     7
370
    25
100
AcDbCircle
 10
650.0513311988
 20
-905.7944884168
 30
0.0
 40
0.7875000000000592
100
AcDbArc
 50
324.4698842763
 51
57.7863678219
  0
ARC
  5
443
330
1F
100
AcDbEntity
  8
0
  6
Continuous
 62
     7
370
    25
100
AcDbCircle
 10
652.4142543757
 20
-725.3296966161
 30
0.0
 40
2.250000000000231
100
AcDbArc
 50
41.1281260491
 51
101.1281260491
  0
ARC
  5
444
330
1F
100
AcDbEntity
  8
0
  6
Continuous
 62
     7
370
    25
100
AcDbCircle
 10
653.7700874578
 20
-724.1457554632
 30
0.0
 40
0.4500000000000475
100
AcDbArc
 50
41.1281260491
 51
117.7863678218
  0
ARC
  5
445
330
1F
100
AcDbEntity
  8
0
  6
Continuous
 62
     7
370
    25
100
AcDbCircle
 10
653.1931944574
 20
-723.0509492173
 30
0.0
 40
0.7875000000000771
100
AcDbArc
 50
204.4698842763
 51
297.7863678218
  0
ARC
  5
446
330
1F
100
AcDbEntity
  8
0
  6
Continuous
 62
     7
370
    25
100
AcDbCircle
 10
652.0668478018
 20
-723.5635401473
 30
0.0
 40
0.4500000000001569
100
AcDbArc
 50
24.4698842763
 51
101.128126049
  0
ARC
  5
447
330
1F
100
AcDbEntity
  8
0
  6
Continuous
 62
     7
370
    25
100
AcDbCircle
 10
652.4142543757
 20
-725.3296966161
 30
0.0
 40
2.250000000000231
100
AcDbArc
 50
281.1281260491
 51
341.1281260491
  0
ARC
  5
448
330
1F
100
AcDbEntity
  8
0
  6
Continuous
 62
     7
370
    25
100
AcDbCircle
 10
652.7616609497
 20
-727.0958530849
 30
0.0
 40
0.4500000000003733
100
AcDbArc
 50
281.128126049
 51
357.7863678219
  0
ARC
  5
449
330
1F
100
AcDbEntity
  8
0
  6
Continuous
 62
     7
370
    25
100
AcDbCircle
 10
653.998237471
 20
-727.1436522142
 30
0.0
 40
0.7874999999997128
100
AcDbArc
 50
84.4698842763
 51
177.7863678218
  0
ARC
  5
44A
330
1F
100
AcDbEntity
  8
0
  6
Continuous
 62
     7
370
    25
100
AcDbCircle
 10
654.1174940318
 20
-725.911911932
 30
0.0
 40
0.4500000000002849
100
AcDbArc
 50
264.4698842763
 51
341.1281260491
  0
ARC
  5
44B
330
1F
100
AcDbEntity
  8
0
  6
Continuous
 62
     7
370
    25
100
AcDbCircle
 10
652.4142543757
 20
-725.3296966161
 30
0.0
 40
2.250000000000218
100
AcDbArc
 50
341.1281260491
 51
41.1281260491
  0
ARC
  5
44C
330
1F
100
AcDbEntity
  8
0
  6
Continuous
 62
     7
370
    25
100
AcDbCircle
 10
654.7771775527
 20
-724.8649048155
 30
0.0
 40
0.7874999999999931
100
AcDbArc
 50
144.4698842763
 51
237.7863678219
  0
ARC
  5
44D
330
1F
100
AcDbEntity
  8
0
  6
Continuous
 62
     7
370
    25
100
AcDbCircle
 10
653.7700874578
 20
-724.1457554632
 30
0.0
 40
0.4500000000000149
100
AcDbArc
 50
324.4698842763
 51
41.1281260491
  0
ARC
  5
44E
330
1F
100
AcDbEntity
  8
0
  6
Continuous
 62
     7
370
    25
100
AcDbCircle
 10
654.1174940318
 20
-725.911911932
 30
0.0
 40
0.450000000000242
100
AcDbArc
 50
341.1281260491
 51
57.7863678218
  0
ARC
  5
44F
330
1F
100
AcDbEntity
  8
0
  6
Continuous
 62
     7
370
    25
100
AcDbCircle
 10
652.4142543757
 20
-725.3296966161
 30
0.0
 40
2.250000000000329
100
AcDbArc
 50
101.1281260491
 51
161.1281260491
  0
ARC
  5
450
330
1F
100
AcDbEntity
  8
0
  6
Continuous
 62
     7
370
    25
100
AcDbCircle
 10
650.7110147197
 20
-724.7474813002
 30
0.0
 40
0.4500000000002787
100
AcDbArc
 50
84.4698842763
 51
161.1281260491
  0
ARC
  5
451
330
1F
100
AcDbEntity
  8
0
  6
Continuous
 62
     7
370
    25
100
AcDbCircle
 10
650.8302712804
 20
-723.515741018
 30
0.0
 40
0.7874999999999711
100
AcDbArc
 50
264.4698842763
 51
357.7863678218
  0
ARC
  5
452
330
1F
100
AcDbEntity
  8
0
  6
Continuous
 62
     7
370
    25
100
AcDbCircle
 10
652.0668478018
 20
-723.5635401473
 30
0.0
 40
0.450000000000249
100
AcDbArc
 50
101.128126049
 51
177.7863678219
  0
ARC
  5
453
330
1F
100
AcDbEntity
  8
0
  6
Continuous
 62
     7
370
    25
100
AcDbCircle
 10
652.4142543757
 20
-725.3296966161
 30
0.0
 40
2.250000000000329
100
AcDbArc
 50
161.1281260491
 51
221.1281260491
  0
ARC
  5
454
330
1F
100
AcDbEntity
  8
0
  6
Continuous
 62
     7
370
    25
100
AcDbCircle
 10
652.4142543757
 20
-725.3296966161
 30
0.0
 40
2.250000000000231
100
AcDbArc
 50
221.1281260491
 51
281.1281260491
  0
CIRCLE
  5
455
330
1F
100
AcDbEntity
  8
0
  6
Continuous
 62
     7
370
    25
100
AcDbCircle
 10
652.4142543757
 20
-725.3296966161
 30
0.0
 40
3.85000000000006
  0
ARC
  5
456
330
1F
100
AcDbEntity
  8
0
  6
Continuous
 62
     7
370
    25
100
AcDbCircle
 10
650.7110147197
 20
-724.7474813002
 30
0.0
 40
0.4500000000002787
100
AcDbArc
 50
161.1281260491
 51
237.7863678218
  0
ARC
  5
457
330
1F
100
AcDbEntity
  8
0
  6
Continuous
 62
     7
370
    25
100
AcDbCircle
 10
651.0584212936
 20
-726.513637769
 30
0.0
 40
0.4500000000000811
100
AcDbArc
 50
144.4698842763
 51
221.1281260491
  0
ARC
  5
458
330
1F
100
AcDbEntity
  8
0
  6
Continuous
 62
     7
370
    25
100
AcDbCircle
 10
650.0513311988
 20
-725.7944884168
 30
0.0
 40
0.7875000000000592
100
AcDbArc
 50
324.4698842763
 51
57.7863678219
  0
ARC
  5
459
330
1F
100
AcDbEntity
  8
0
  6
Continuous
 62
     7
370
    25
100
AcDbCircle
 10
652.7616609497
 20
-727.0958530849
 30
0.0
 40
0.4500000000003733
100
AcDbArc
 50
204.4698842763
 51
281.128126049
  0
ARC
  5
45A
330
1F
100
AcDbEntity
  8
0
  6
Continuous
 62
     7
370
    25
100
AcDbCircle
 10
651.0584212936
 20
-726.513637769
 30
0.0
 40
0.4499999999998462
100
AcDbArc
 50
221.1281260491
 51
297.7863678218
  0
ARC
  5
45B
330
1F
100
AcDbEntity
  8
0
  6
Continuous
 62
     7
370
    25
100
AcDbCircle
 10
651.6353142941
 20
-727.6084440149
 30
0.0
 40
0.7875000000000381
100
AcDbArc
 50
24.4698842763
 51
117.7863678218
  0
ARC
  5
45C
330
1F
100
AcDbEntity
  8
0
  6
Continuous
 62
     7
370
    25
100
AcDbCircle
 10
267.4142543757
 20
-1290.3296966161
 30
0.0
 40
2.250000000000254
100
AcDbArc
 50
281.1281260491
 51
341.1281260491
  0
ARC
  5
45D
330
1F
100
AcDbEntity
  8
0
  6
Continuous
 62
     7
370
    25
100
AcDbCircle
 10
267.7616609497
 20
-1292.0958530849
 30
0.0
 40
0.4500000000002402
100
AcDbArc
 50
281.128126049
 51
357.7863678219
  0
ARC
  5
45E
330
1F
100
AcDbEntity
  8
0
  6
Continuous
 62
     7
370
    25
100
AcDbCircle
 10
268.998237471
 20
-1292.1436522142
 30
0.0
 40
0.7874999999997083
100
AcDbArc
 50
84.4698842763
 51
177.7863678218
  0
ARC
  5
45F
330
1F
100
AcDbEntity
  8
0
  6
Continuous
 62
     7
370
    25
100
AcDbCircle
 10
269.1174940318
 20
-1290.911911932
 30
0.0
 40
0.4500000000002958
100
AcDbArc
 50
264.4698842763
 51
341.1281260491
  0
ARC
  5
460
330
1F
100
AcDbEntity
  8
0
  6
Continuous
 62
     7
370
    25
100
AcDbCircle
 10
267.4142543757
 20
-1290.3296966161
 30
0.0
 40
2.250000000000242
100
AcDbArc
 50
41.1281260491
 51
101.1281260491
  0
ARC
  5
461
330
1F
100
AcDbEntity
  8
0
  6
Continuous
 62
     7
370
    25
100
AcDbCircle
 10
268.7700874578
 20
-1289.1457554632
 30
0.0
 40
0.450000000000074
100
AcDbArc
 50
41.128126049
 51
117.7863678218
  0
ARC
  5
462
330
1F
100
AcDbEntity
  8
0
  6
Continuous
 62
     7
370
    25
100
AcDbCircle
 10
268.1931944574
 20
-1288.0509492173
 30
0.0
 40
0.787499999999983
100
AcDbArc
 50
204.4698842763
 51
297.7863678219
  0
ARC
  5
463
330
1F
100
AcDbEntity
  8
0
  6
Continuous
 62
     7
370
    25
100
AcDbCircle
 10
267.0668478018
 20
-1288.5635401473
 30
0.0
 40
0.4500000000001612
100
AcDbArc
 50
24.4698842763
 51
101.128126049
  0
ARC
  5
464
330
1F
100
AcDbEntity
  8
0
  6
Continuous
 62
     7
370
    25
100
AcDbCircle
 10
267.4142543757
 20
-1290.3296966161
 30
0.0
 40
2.250000000000218
100
AcDbArc
 50
341.1281260491
 51
41.1281260491
  0
ARC
  5
465
330
1F
100
AcDbEntity
  8
0
  6
Continuous
 62
     7
370
    25
100
AcDbCircle
 10
268.7700874578
 20
-1289.1457554632
 30
0.0
 40
0.4500000000000083
100
AcDbArc
 50
324.4698842763
 51
41.1281260491
  0
ARC
  5
466
330
1F
100
AcDbEntity
  8
0
  6
Continuous
 62
     7
370
    25
100
AcDbCircle
 10
269.7771775527
 20
-1289.8649048155
 30
0.0
 40
0.7874999999999931
100
AcDbArc
 50
144.4698842763
 51
237.7863678218
  0
ARC
  5
467
330
1F
100
AcDbEntity
  8
0
  6
Continuous
 62
     7
370
    25
100
AcDbCircle
 10
269.1174940318
 20
-1290.911911932
 30
0.0
 40
0.4500000000002958
100
AcDbArc
 50
341.1281260491
 51
57.7863678218
  0
ARC
  5
468
330
1F
100
AcDbEntity
  8
0
  6
Continuous
 62
     7
370
    25
100
AcDbCircle
 10
267.4142543757
 20
-1290.3296966161
 30
0.0
 40
2.250000000000242
100
AcDbArc
 50
101.1281260491
 51
161.1281260491
  0
ARC
  5
469
330
1F
100
AcDbEntity
  8
0
  6
Continuous
 62
     7
370
    25
100
AcDbCircle
 10
267.4142543757
 20
-1290.3296966161
 30
0.0
 40
2.250000000000238
100
AcDbArc
 50
161.1281260491
 51
221.1281260491
  0
ARC
  5
46A
330
1F
100
AcDbEntity
  8
0
  6
Continuous
 62
     7
370
    25
100
AcDbCircle
 10
267.4142543757
 20
-1290.3296966161
 30
0.0
 40
2.250000000000254
100
AcDbArc
 50
221.1281260491
 51
281.1281260491
  0
CIRCLE
  5
46B
330
1F
100
AcDbEntity
  8
0
  6
Continuous
 62
     7
370
    25
100
AcDbCircle
 10
267.4142543757
 20
-1290.3296966161
 30
0.0
 40
3.850000000000135
  0
ARC
  5
46C
330
1F
100
AcDbEntity
  8
0
  6
Continuous
 62
     7
370
    25
100
AcDbCircle
 10
265.7110147197
 20
-1289.7474813002
 30
0.0
 40
0.4500000000003925
100
AcDbArc
 50
84.4698842763
 51
161.1281260491
  0
ARC
  5
46D
330
1F
100
AcDbEntity
  8
0
  6
Continuous
 62
     7
370
    25
100
AcDbCircle
 10
265.8302712804
 20
-1288.515741018
 30
0.0
 40
0.7874999999997172
100
AcDbArc
 50
264.4698842763
 51
357.7863678218
  0
ARC
  5
46E
330
1F
100
AcDbEntity
  8
0
  6
Continuous
 62
     7
370
    25
100
AcDbCircle
 10
267.0668478018
 20
-1288.5635401473
 30
0.0
 40
0.4500000000001834
100
AcDbArc
 50
101.128126049
 51
177.7863678219
  0
ARC
  5
46F
330
1F
100
AcDbEntity
  8
0
  6
Continuous
 62
     7
370
    25
100
AcDbCircle
 10
265.7110147197
 20
-1289.7474813002
 30
0.0
 40
0.4500000000003693
100
AcDbArc
 50
161.1281260491
 51
237.7863678218
  0
ARC
  5
470
330
1F
100
AcDbEntity
  8
0
  6
Continuous
 62
     7
370
    25
100
AcDbCircle
 10
265.0513311988
 20
-1290.7944884168
 30
0.0
 40
0.7875000000001252
100
AcDbArc
 50
324.4698842763
 51
57.7863678218
  0
ARC
  5
471
330
1F
100
AcDbEntity
  8
0
  6
Continuous
 62
     7
370
    25
100
AcDbCircle
 10
266.0584212936
 20
-1291.513637769
 30
0.0
 40
0.4499999999998762
100
AcDbArc
 50
144.4698842763
 51
221.1281260491
  0
ARC
  5
472
330
1F
100
AcDbEntity
  8
0
  6
Continuous
 62
     7
370
    25
100
AcDbCircle
 10
267.7616609497
 20
-1292.0958530849
 30
0.0
 40
0.4500000000001722
100
AcDbArc
 50
204.4698842763
 51
281.128126049
  0
ARC
  5
473
330
1F
100
AcDbEntity
  8
0
  6
Continuous
 62
     7
370
    25
100
AcDbCircle
 10
266.6353142941
 20
-1292.6084440149
 30
0.0
 40
0.7875000000000646
100
AcDbArc
 50
24.4698842763
 51
117.7863678218
  0
ARC
  5
474
330
1F
100
AcDbEntity
  8
0
  6
Continuous
 62
     7
370
    25
100
AcDbCircle
 10
266.0584212936
 20
-1291.513637769
 30
0.0
 40
0.4499999999999257
100
AcDbArc
 50
221.1281260491
 51
297.7863678219
  0
ARC
  5
475
330
1F
100
AcDbEntity
  8
0
  6
Continuous
 62
     7
370
    25
100
AcDbCircle
 10
652.4142543757
 20
209.6703033839
 30
0.0
 40
2.250000000000237
100
AcDbArc
 50
341.1281260491
 51
41.1281260491
  0
ARC
  5
476
330
1F
100
AcDbEntity
  8
0
  6
Continuous
 62
     7
370
    25
100
AcDbCircle
 10
654.1174940318
 20
209.088088068
 30
0.0
 40
0.4500000000002512
100
AcDbArc
 50
341.1281260491
 51
57.7863678218
  0
ARC
  5
477
330
1F
100
AcDbEntity
  8
0
  6
Continuous
 62
     7
370
    25
100
AcDbCircle
 10
654.7771775527
 20
210.1350951845
 30
0.0
 40
0.7875000000000262
100
AcDbArc
 50
144.4698842763
 51
237.7863678218
  0
ARC
  5
478
330
1F
100
AcDbEntity
  8
0
  6
Continuous
 62
     7
370
    25
100
AcDbCircle
 10
653.7700874578
 20
210.8542445368
 30
0.0
 40
0.4500000000001306
100
AcDbArc
 50
324.4698842763
 51
41.128126049
  0
ARC
  5
479
330
1F
100
AcDbEntity
  8
0
  6
Continuous
 62
     7
370
    25
100
AcDbCircle
 10
652.4142543757
 20
209.6703033839
 30
0.0
 40
2.250000000000231
100
AcDbArc
 50
101.1281260491
 51
161.1281260491
  0
ARC
  5
47A
330
1F
100
AcDbEntity
  8
0
  6
Continuous
 62
     7
370
    25
100
AcDbCircle
 10
652.0668478018
 20
211.4364598527
 30
0.0
 40
0.4500000000002413
100
AcDbArc
 50
101.128126049
 51
177.7863678219
  0
ARC
  5
47B
330
1F
100
AcDbEntity
  8
0
  6
Continuous
 62
     7
370
    25
100
AcDbCircle
 10
650.7110147197
 20
210.2525186998
 30
0.0
 40
0.450000000000242
100
AcDbArc
 50
84.4698842763
 51
161.1281260491
  0
ARC
  5
47C
330
1F
100
AcDbEntity
  8
0
  6
Continuous
 62
     7
370
    25
100
AcDbCircle
 10
650.8302712804
 20
211.484258982
 30
0.0
 40
0.7874999999997164
100
AcDbArc
 50
264.4698842763
 51
357.7863678218
  0
ARC
  5
47D
330
1F
100
AcDbEntity
  8
0
  6
Continuous
 62
     7
370
    25
100
AcDbCircle
 10
652.4142543757
 20
209.6703033839
 30
0.0
 40
2.250000000000259
100
AcDbArc
 50
281.1281260491
 51
341.1281260491
  0
ARC
  5
47E
330
1F
100
AcDbEntity
  8
0
  6
Continuous
 62
     7
370
    25
100
AcDbCircle
 10
652.7616609497
 20
207.9041469151
 30
0.0
 40
0.4500000000002413
100
AcDbArc
 50
281.128126049
 51
357.7863678219
  0
ARC
  5
47F
330
1F
100
AcDbEntity
  8
0
  6
Continuous
 62
     7
370
    25
100
AcDbCircle
 10
653.9982374711
 20
207.8563477858
 30
0.0
 40
0.7874999999997164
100
AcDbArc
 50
84.4698842763
 51
177.7863678218
  0
ARC
  5
480
330
1F
100
AcDbEntity
  8
0
  6
Continuous
 62
     7
370
    25
100
AcDbCircle
 10
654.1174940318
 20
209.088088068
 30
0.0
 40
0.4500000000002566
100
AcDbArc
 50
264.4698842763
 51
341.1281260491
  0
ARC
  5
481
330
1F
100
AcDbEntity
  8
0
  6
Continuous
 62
     7
370
    25
100
AcDbCircle
 10
652.4142543757
 20
209.6703033839
 30
0.0
 40
2.250000000000231
100
AcDbArc
 50
41.1281260491
 51
101.1281260491
  0
ARC
  5
482
330
1F
100
AcDbEntity
  8
0
  6
Continuous
 62
     7
370
    25
100
AcDbCircle
 10
652.4142543757
 20
209.6703033839
 30
0.0
 40
2.250000000000228
100
AcDbArc
 50
161.1281260491
 51
221.1281260491
  0
ARC
  5
483
330
1F
100
AcDbEntity
  8
0
  6
Continuous
 62
     7
370
    25
100
AcDbCircle
 10
652.4142543757
 20
209.6703033839
 30
0.0
 40
2.250000000000259
100
AcDbArc
 50
221.1281260491
 51
281.1281260491
  0
CIRCLE
  5
484
330
1F
100
AcDbEntity
  8
0
  6
Continuous
 62
     7
370
    25
100
AcDbCircle
 10
652.4142543757
 20
209.6703033839
 30
0.0
 40
3.85000000000006
  0
ARC
  5
485
330
1F
100
AcDbEntity
  8
0
  6
Continuous
 62
     7
370
    25
100
AcDbCircle
 10
652.0668478018
 20
211.4364598527
 30
0.0
 40
0.450000000000178
100
AcDbArc
 50
24.4698842763
 51
101.128126049
  0
ARC
  5
486
330
1F
100
AcDbEntity
  8
0
  6
Continuous
 62
     7
370
    25
100
AcDbCircle
 10
653.7700874578
 20
210.8542445368
 30
0.0
 40
0.4500000000000475
100
AcDbArc
 50
41.128126049
 51
117.7863678218
  0
ARC
  5
487
330
1F
100
AcDbEntity
  8
0
  6
Continuous
 62
     7
370
    25
100
AcDbCircle
 10
653.1931944574
 20
211.9490507827
 30
0.0
 40
0.7874999999999948
100
AcDbArc
 50
204.4698842763
 51
297.7863678218
  0
ARC
  5
488
330
1F
100
AcDbEntity
  8
0
  6
Continuous
 62
     7
370
    25
100
AcDbCircle
 10
651.0584212936
 20
208.486362231
 30
0.0
 40
0.4499999999998212
100
AcDbArc
 50
221.128126049
 51
297.7863678218
  0
ARC
  5
489
330
1F
100
AcDbEntity
  8
0
  6
Continuous
 62
     7
370
    25
100
AcDbCircle
 10
652.7616609497
 20
207.9041469151
 30
0.0
 40
0.450000000000206
100
AcDbArc
 50
204.4698842763
 51
281.128126049
  0
ARC
  5
48A
330
1F
100
AcDbEntity
  8
0
  6
Continuous
 62
     7
370
    25
100
AcDbCircle
 10
651.6353142941
 20
207.3915559851
 30
0.0
 40
0.7874999999999948
100
AcDbArc
 50
24.4698842763
 51
117.7863678218
  0
ARC
  5
48B
330
1F
100
AcDbEntity
  8
0
  6
Continuous
 62
     7
370
    25
100
AcDbCircle
 10
650.0513311988
 20
209.2055115832
 30
0.0
 40
0.7875000000000262
100
AcDbArc
 50
324.4698842763
 51
57.7863678218
  0
ARC
  5
48C
330
1F
100
AcDbEntity
  8
0
  6
Continuous
 62
     7
370
    25
100
AcDbCircle
 10
651.0584212936
 20
208.486362231
 30
0.0
 40
0.4500000000001306
100
AcDbArc
 50
144.4698842763
 51
221.128126049
  0
ARC
  5
48D
330
1F
100
AcDbEntity
  8
0
  6
Continuous
 62
     7
370
    25
100
AcDbCircle
 10
650.7110147197
 20
210.2525186998
 30
0.0
 40
0.450000000000242
100
AcDbArc
 50
161.1281260491
 51
237.7863678218
  0
ARC
  5
48E
330
1F
100
AcDbEntity
  8
0
  6
Continuous
 62
     7
370
    25
100
AcDbCircle
 10
652.4142543757
 20
29.6703033839
 30
0.0
 40
2.250000000000252
100
AcDbArc
 50
281.1281260491
 51
341.1281260491
  0
ARC
  5
48F
330
1F
100
AcDbEntity
  8
0
  6
Continuous
 62
     7
370
    25
100
AcDbCircle
 10
652.7616609497
 20
27.9041469151
 30
0.0
 40
0.4500000000002409
100
AcDbArc
 50
281.128126049
 51
357.7863678219
  0
ARC
  5
490
330
1F
100
AcDbEntity
  8
0
  6
Continuous
 62
     7
370
    25
100
AcDbCircle
 10
653.9982374711
 20
27.8563477858
 30
0.0
 40
0.7874999999997154
100
AcDbArc
 50
84.4698842763
 51
177.7863678218
  0
ARC
  5
491
330
1F
100
AcDbEntity
  8
0
  6
Continuous
 62
     7
370
    25
100
AcDbCircle
 10
654.1174940318
 20
29.088088068
 30
0.0
 40
0.4500000000002534
100
AcDbArc
 50
264.4698842763
 51
341.1281260491
  0
ARC
  5
492
330
1F
100
AcDbEntity
  8
0
  6
Continuous
 62
     7
370
    25
100
AcDbCircle
 10
652.4142543757
 20
29.6703033839
 30
0.0
 40
2.250000000000233
100
AcDbArc
 50
341.1281260491
 51
41.1281260491
  0
ARC
  5
493
330
1F
100
AcDbEntity
  8
0
  6
Continuous
 62
     7
370
    25
100
AcDbCircle
 10
654.1174940318
 20
29.088088068
 30
0.0
 40
0.450000000000139
100
AcDbArc
 50
341.1281260491
 51
57.7863678218
  0
ARC
  5
494
330
1F
100
AcDbEntity
  8
0
  6
Continuous
 62
     7
370
    25
100
AcDbCircle
 10
654.7771775527
 20
30.1350951845
 30
0.0
 40
0.7875000000000241
100
AcDbArc
 50
144.4698842763
 51
237.7863678219
  0
ARC
  5
495
330
1F
100
AcDbEntity
  8
0
  6
Continuous
 62
     7
370
    25
100
AcDbCircle
 10
653.7700874578
 20
30.8542445368
 30
0.0
 40
0.4500000000000318
100
AcDbArc
 50
324.4698842763
 51
41.128126049
  0
ARC
  5
496
330
1F
100
AcDbEntity
  8
0
  6
Continuous
 62
     7
370
    25
100
AcDbCircle
 10
652.4142543757
 20
29.6703033839
 30
0.0
 40
2.25000000000023
100
AcDbArc
 50
41.1281260491
 51
101.1281260491
  0
ARC
  5
497
330
1F
100
AcDbEntity
  8
0
  6
Continuous
 62
     7
370
    25
100
AcDbCircle
 10
653.1931944574
 20
31.9490507827
 30
0.0
 40
0.7874999999999933
100
AcDbArc
 50
204.4698842763
 51
297.7863678218
  0
ARC
  5
498
330
1F
100
AcDbEntity
  8
0
  6
Continuous
 62
     7
370
    25
100
AcDbCircle
 10
652.0668478018
 20
31.4364598527
 30
0.0
 40
0.4500000000001735
100
AcDbArc
 50
24.4698842763
 51
101.128126049
  0
ARC
  5
499
330
1F
100
AcDbEntity
  8
0
  6
Continuous
 62
     7
370
    25
100
AcDbCircle
 10
653.7700874578
 20
30.8542445368
 30
0.0
 40
0.4500000000000942
100
AcDbArc
 50
41.128126049
 51
117.7863678218
  0
ARC
  5
49A
330
1F
100
AcDbEntity
  8
0
  6
Continuous
 62
     7
370
    25
100
AcDbCircle
 10
652.4142543757
 20
29.6703033839
 30
0.0
 40
2.25000000000023
100
AcDbArc
 50
101.1281260491
 51
161.1281260491
  0
ARC
  5
49B
330
1F
100
AcDbEntity
  8
0
  6
Continuous
 62
     7
370
    25
100
AcDbCircle
 10
652.4142543757
 20
29.6703033839
 30
0.0
 40
2.250000000000125
100
AcDbArc
 50
161.1281260491
 51
221.1281260491
  0
ARC
  5
49C
330
1F
100
AcDbEntity
  8
0
  6
Continuous
 62
     7
370
    25
100
AcDbCircle
 10
652.4142543757
 20
29.6703033839
 30
0.0
 40
2.250000000000252
100
AcDbArc
 50
221.1281260491
 51
281.1281260491
  0
CIRCLE
  5
49D
330
1F
100
AcDbEntity
  8
0
  6
Continuous
 62
     7
370
    25
100
AcDbCircle
 10
652.4142543757
 20
29.6703033839
 30
0.0
 40
3.850000000000069
  0
ARC
  5
49E
330
1F
100
AcDbEntity
  8
0
  6
Continuous
 62
     7
370
    25
100
AcDbCircle
 10
650.7110147197
 20
30.2525186998
 30
0.0
 40
0.4500000000002534
100
AcDbArc
 50
84.4698842763
 51
161.1281260491
  0
ARC
  5
49F
330
1F
100
AcDbEntity
  8
0
  6
Continuous
 62
     7
370
    25
100
AcDbCircle
 10
650.8302712804
 20
31.484258982
 30
0.0
 40
0.7874999999997164
100
AcDbArc
 50
264.4698842763
 51
357.7863678218
  0
ARC
  5
4A0
330
1F
100
AcDbEntity
  8
0
  6
Continuous
 62
     7
370
    25
100
AcDbCircle
 10
652.0668478018
 20
31.4364598527
 30
0.0
 40
0.4500000000001735
100
AcDbArc
 50
101.128126049
 51
177.7863678219
  0
ARC
  5
4A1
330
1F
100
AcDbEntity
  8
0
  6
Continuous
 62
     7
370
    25
100
AcDbCircle
 10
650.0513311988
 20
29.2055115832
 30
0.0
 40
0.7875000000000241
100
AcDbArc
 50
324.4698842763
 51
57.7863678218
  0
ARC
  5
4A2
330
1F
100
AcDbEntity
  8
0
  6
Continuous
 62
     7
370
    25
100
AcDbCircle
 10
651.0584212936
 20
28.486362231
 30
0.0
 40
0.4500000000000318
100
AcDbArc
 50
144.4698842763
 51
221.128126049
  0
ARC
  5
4A3
330
1F
100
AcDbEntity
  8
0
  6
Continuous
 62
     7
370
    25
100
AcDbCircle
 10
650.7110147197
 20
30.2525186998
 30
0.0
 40
0.4500000000001402
100
AcDbArc
 50
161.1281260491
 51
237.7863678218
  0
ARC
  5
4A4
330
1F
100
AcDbEntity
  8
0
  6
Continuous
 62
     7
370
    25
100
AcDbCircle
 10
651.0584212936
 20
28.486362231
 30
0.0
 40
0.4499999999998993
100
AcDbArc
 50
221.128126049
 51
297.7863678218
  0
ARC
  5
4A5
330
1F
100
AcDbEntity
  8
0
  6
Continuous
 62
     7
370
    25
100
AcDbCircle
 10
651.6353142941
 20
27.3915559851
 30
0.0
 40
0.7874999999999933
100
AcDbArc
 50
24.4698842763
 51
117.7863678218
  0
ARC
  5
4A6
330
1F
100
AcDbEntity
  8
0
  6
Continuous
 62
     7
370
    25
100
AcDbCircle
 10
652.7616609497
 20
27.9041469151
 30
0.0
 40
0.450000000000192
100
AcDbArc
 50
204.4698842763
 51
281.128126049
  0
ARC
  5
4A7
330
1F
100
AcDbEntity
  8
0
  6
Continuous
 62
     7
370
    25
100
AcDbCircle
 10
652.4142543757
 20
369.6703033839
 30
0.0
 40
2.250000000000265
100
AcDbArc
 50
281.1281260491
 51
341.1281260491
  0
ARC
  5
4A8
330
1F
100
AcDbEntity
  8
0
  6
Continuous
 62
     7
370
    25
100
AcDbCircle
 10
652.7616609497
 20
367.9041469151
 30
0.0
 40
0.4500000000002402
100
AcDbArc
 50
281.128126049
 51
357.7863678219
  0
ARC
  5
4A9
330
1F
100
AcDbEntity
  8
0
  6
Continuous
 62
     7
370
    25
100
AcDbCircle
 10
653.9982374711
 20
367.8563477858
 30
0.0
 40
0.787499999999715
100
AcDbArc
 50
84.4698842763
 51
177.7863678218
  0
ARC
  5
4AA
330
1F
100
AcDbEntity
  8
0
  6
Continuous
 62
     7
370
    25
100
AcDbCircle
 10
654.1174940318
 20
369.088088068
 30
0.0
 40
0.4500000000002393
100
AcDbArc
 50
264.4698842763
 51
341.1281260491
  0
ARC
  5
4AB
330
1F
100
AcDbEntity
  8
0
  6
Continuous
 62
     7
370
    25
100
AcDbCircle
 10
652.4142543757
 20
369.6703033839
 30
0.0
 40
2.250000000000237
100
AcDbArc
 50
101.1281260491
 51
161.1281260491
  0
ARC
  5
4AC
330
1F
100
AcDbEntity
  8
0
  6
Continuous
 62
     7
370
    25
100
AcDbCircle
 10
652.0668478018
 20
371.4364598527
 30
0.0
 40
0.4500000000002424
100
AcDbArc
 50
101.128126049
 51
177.7863678219
  0
ARC
  5
4AD
330
1F
100
AcDbEntity
  8
0
  6
Continuous
 62
     7
370
    25
100
AcDbCircle
 10
650.7110147197
 20
370.2525186998
 30
0.0
 40
0.4500000000002958
100
AcDbArc
 50
84.4698842763
 51
161.1281260491
  0
ARC
  5
4AE
330
1F
100
AcDbEntity
  8
0
  6
Continuous
 62
     7
370
    25
100
AcDbCircle
 10
650.8302712804
 20
371.484258982
 30
0.0
 40
0.787499999999715
100
AcDbArc
 50
264.4698842763
 51
357.7863678218
  0
ARC
  5
4AF
330
1F
100
AcDbEntity
  8
0
  6
Continuous
 62
     7
370
    25
100
AcDbCircle
 10
652.4142543757
 20
369.6703033839
 30
0.0
 40
2.250000000000231
100
AcDbArc
 50
41.1281260491
 51
101.1281260491
  0
ARC
  5
4B0
330
1F
100
AcDbEntity
  8
0
  6
Continuous
 62
     7
370
    25
100
AcDbCircle
 10
653.7700874578
 20
370.8542445368
 30
0.0
 40
0.4500000000001004
100
AcDbArc
 50
41.128126049
 51
117.7863678218
  0
ARC
  5
4B1
330
1F
100
AcDbEntity
  8
0
  6
Continuous
 62
     7
370
    25
100
AcDbCircle
 10
652.0668478018
 20
371.4364598527
 30
0.0
 40
0.450000000000206
100
AcDbArc
 50
24.4698842763
 51
101.128126049
  0
ARC
  5
4B2
330
1F
100
AcDbEntity
  8
0
  6
Continuous
 62
     7
370
    25
100
AcDbCircle
 10
653.1931944574
 20
371.9490507827
 30
0.0
 40
0.78750000000011
100
AcDbArc
 50
204.4698842763
 51
297.7863678218
  0
ARC
  5
4B3
330
1F
100
AcDbEntity
  8
0
  6
Continuous
 62
     7
370
    25
100
AcDbCircle
 10
652.4142543757
 20
369.6703033839
 30
0.0
 40
2.25000000000013
100
AcDbArc
 50
341.1281260491
 51
41.1281260491
  0
ARC
  5
4B4
330
1F
100
AcDbEntity
  8
0
  6
Continuous
 62
     7
370
    25
100
AcDbCircle
 10
654.1174940318
 20
369.088088068
 30
0.0
 40
0.4500000000001344
100
AcDbArc
 50
341.1281260491
 51
57.7863678218
  0
ARC
  5
4B5
330
1F
100
AcDbEntity
  8
0
  6
Continuous
 62
     7
370
    25
100
AcDbCircle
 10
654.7771775527
 20
370.1350951845
 30
0.0
 40
0.7875000000000262
100
AcDbArc
 50
144.4698842763
 51
237.7863678219
  0
ARC
  5
4B6
330
1F
100
AcDbEntity
  8
0
  6
Continuous
 62
     7
370
    25
100
AcDbCircle
 10
653.7700874578
 20
370.8542445368
 30
0.0
 40
0.4500000000000215
100
AcDbArc
 50
324.4698842763
 51
41.128126049
  0
ARC
  5
4B7
330
1F
100
AcDbEntity
  8
0
  6
Continuous
 62
     7
370
    25
100
AcDbCircle
 10
652.4142543757
 20
369.6703033839
 30
0.0
 40
2.250000000000237
100
AcDbArc
 50
161.1281260491
 51
221.1281260491
  0
ARC
  5
4B8
330
1F
100
AcDbEntity
  8
0
  6
Continuous
 62
     7
370
    25
100
AcDbCircle
 10
652.4142543757
 20
369.6703033839
 30
0.0
 40
2.250000000000265
100
AcDbArc
 50
221.1281260491
 51
281.1281260491
  0
CIRCLE
  5
4B9
330
1F
100
AcDbEntity
  8
0
  6
Continuous
 62
     7
370
    25
100
AcDbCircle
 10
652.4142543757
 20
369.6703033839
 30
0.0
 40
3.849999999999974
  0
ARC
  5
4BA
330
1F
100
AcDbEntity
  8
0
  6
Continuous
 62
     7
370
    25
100
AcDbCircle
 10
650.7110147197
 20
370.2525186998
 30
0.0
 40
0.4500000000001528
100
AcDbArc
 50
161.1281260491
 51
237.7863678218
  0
ARC
  5
4BB
330
1F
100
AcDbEntity
  8
0
  6
Continuous
 62
     7
370
    25
100
AcDbCircle
 10
650.0513311988
 20
369.2055115832
 30
0.0
 40
0.7875000000000262
100
AcDbArc
 50
324.4698842763
 51
57.7863678219
  0
ARC
  5
4BC
330
1F
100
AcDbEntity
  8
0
  6
Continuous
 62
     7
370
    25
100
AcDbCircle
 10
651.0584212936
 20
368.486362231
 30
0.0
 40
0.4500000000000215
100
AcDbArc
 50
144.4698842763
 51
221.128126049
  0
ARC
  5
4BD
330
1F
100
AcDbEntity
  8
0
  6
Continuous
 62
     7
370
    25
100
AcDbCircle
 10
652.7616609497
 20
367.9041469151
 30
0.0
 40
0.450000000000206
100
AcDbArc
 50
204.4698842763
 51
281.128126049
  0
ARC
  5
4BE
330
1F
100
AcDbEntity
  8
0
  6
Continuous
 62
     7
370
    25
100
AcDbCircle
 10
651.0584212936
 20
368.486362231
 30
0.0
 40
0.4499999999998993
100
AcDbArc
 50
221.128126049
 51
297.7863678218
  0
ARC
  5
4BF
330
1F
100
AcDbEntity
  8
0
  6
Continuous
 62
     7
370
    25
100
AcDbCircle
 10
651.6353142941
 20
367.3915559851
 30
0.0
 40
0.7874999999999879
100
AcDbArc
 50
24.4698842763
 51
117.7863678218
  0
ARC
  5
4C0
330
1F
100
AcDbEntity
  8
0
  6
Continuous
 62
     7
370
    25
100
AcDbCircle
 10
87.4142543757
 20
594.6703033839
 30
0.0
 40
2.250000000000248
100
AcDbArc
 50
41.1281260491
 51
101.1281260491
  0
ARC
  5
4C1
330
1F
100
AcDbEntity
  8
0
  6
Continuous
 62
     7
370
    25
100
AcDbCircle
 10
87.4142543757
 20
594.6703033839
 30
0.0
 40
2.250000000000248
100
AcDbArc
 50
101.1281260491
 51
161.1281260491
  0
ARC
  5
4C2
330
1F
100
AcDbEntity
  8
0
  6
Continuous
 62
     7
370
    25
100
AcDbCircle
 10
87.4142543757
 20
594.6703033839
 30
0.0
 40
2.250000000000192
100
AcDbArc
 50
161.1281260491
 51
221.1281260491
  0
ARC
  5
4C3
330
1F
100
AcDbEntity
  8
0
  6
Continuous
 62
     7
370
    25
100
AcDbCircle
 10
87.4142543757
 20
594.6703033839
 30
0.0
 40
2.250000000000248
100
AcDbArc
 50
221.1281260491
 51
281.1281260491
  0
ARC
  5
4C4
330
1F
100
AcDbEntity
  8
0
  6
Continuous
 62
     7
370
    25
100
AcDbCircle
 10
87.4142543757
 20
594.6703033839
 30
0.0
 40
2.250000000000248
100
AcDbArc
 50
281.1281260491
 51
341.1281260491
  0
ARC
  5
4C5
330
1F
100
AcDbEntity
  8
0
  6
Continuous
 62
     7
370
    25
100
AcDbCircle
 10
87.4142543757
 20
594.6703033839
 30
0.0
 40
2.250000000000192
100
AcDbArc
 50
341.1281260491
 51
41.1281260491
  0
CIRCLE
  5
4C6
330
1F
100
AcDbEntity
  8
0
  6
Continuous
 62
     7
370
    25
100
AcDbCircle
 10
87.4142543757
 20
594.6703033839
 30
0.0
 40
3.850000000000049
  0
ARC
  5
4C7
330
1F
100
AcDbEntity
  8
0
  6
Continuous
 62
     7
370
    25
100
AcDbCircle
 10
88.1931944574
 20
596.9490507827
 30
0.0
 40
0.787499999999983
100
AcDbArc
 50
204.4698842763
 51
297.7863678219
  0
ARC
  5
4C8
330
1F
100
AcDbEntity
  8
0
  6
Continuous
 62
     7
370
    25
100
AcDbCircle
 10
88.7700874578
 20
595.8542445368
 30
0.0
 40
0.450000000000074
100
AcDbArc
 50
41.128126049
 51
117.7863678218
  0
ARC
  5
4C9
330
1F
100
AcDbEntity
  8
0
  6
Continuous
 62
     7
370
    25
100
AcDbCircle
 10
87.0668478018
 20
596.4364598527
 30
0.0
 40
0.4500000000001667
100
AcDbArc
 50
24.4698842763
 51
101.128126049
  0
ARC
  5
4CA
330
1F
100
AcDbEntity
  8
0
  6
Continuous
 62
     7
370
    25
100
AcDbCircle
 10
89.1174940318
 20
594.088088068
 30
0.0
 40
0.4500000000002958
100
AcDbArc
 50
341.1281260491
 51
57.7863678218
  0
ARC
  5
4CB
330
1F
100
AcDbEntity
  8
0
  6
Continuous
 62
     7
370
    25
100
AcDbCircle
 10
89.7771775527
 20
595.1350951846
 30
0.0
 40
0.7874999999999931
100
AcDbArc
 50
144.4698842763
 51
237.7863678218
  0
ARC
  5
4CC
330
1F
100
AcDbEntity
  8
0
  6
Continuous
 62
     7
370
    25
100
AcDbCircle
 10
88.7700874578
 20
595.8542445368
 30
0.0
 40
0.4500000000000083
100
AcDbArc
 50
324.4698842763
 51
41.1281260491
  0
ARC
  5
4CD
330
1F
100
AcDbEntity
  8
0
  6
Continuous
 62
     7
370
    25
100
AcDbCircle
 10
87.7616609497
 20
592.9041469151
 30
0.0
 40
0.4500000000001976
100
AcDbArc
 50
281.128126049
 51
357.7863678219
  0
ARC
  5
4CE
330
1F
100
AcDbEntity
  8
0
  6
Continuous
 62
     7
370
    25
100
AcDbCircle
 10
88.9982374711
 20
592.8563477858
 30
0.0
 40
0.7874999999997461
100
AcDbArc
 50
84.4698842763
 51
177.7863678218
  0
ARC
  5
4CF
330
1F
100
AcDbEntity
  8
0
  6
Continuous
 62
     7
370
    25
100
AcDbCircle
 10
89.1174940318
 20
594.088088068
 30
0.0
 40
0.4500000000002958
100
AcDbArc
 50
264.4698842763
 51
341.1281260491
  0
ARC
  5
4D0
330
1F
100
AcDbEntity
  8
0
  6
Continuous
 62
     7
370
    25
100
AcDbCircle
 10
85.7110147197
 20
595.2525186998
 30
0.0
 40
0.4500000000002958
100
AcDbArc
 50
84.4698842763
 51
161.1281260491
  0
ARC
  5
4D1
330
1F
100
AcDbEntity
  8
0
  6
Continuous
 62
     7
370
    25
100
AcDbCircle
 10
85.8302712804
 20
596.484258982
 30
0.0
 40
0.7874999999997447
100
AcDbArc
 50
264.4698842763
 51
357.7863678218
  0
ARC
  5
4D2
330
1F
100
AcDbEntity
  8
0
  6
Continuous
 62
     7
370
    25
100
AcDbCircle
 10
87.0668478018
 20
596.4364598527
 30
0.0
 40
0.4500000000001976
100
AcDbArc
 50
101.128126049
 51
177.7863678219
  0
ARC
  5
4D3
330
1F
100
AcDbEntity
  8
0
  6
Continuous
 62
     7
370
    25
100
AcDbCircle
 10
85.7110147197
 20
595.2525186998
 30
0.0
 40
0.4500000000002958
100
AcDbArc
 50
161.1281260491
 51
237.7863678218
  0
ARC
  5
4D4
330
1F
100
AcDbEntity
  8
0
  6
Continuous
 62
     7
370
    25
100
AcDbCircle
 10
86.0584212936
 20
593.486362231
 30
0.0
 40
0.4499999999999423
100
AcDbArc
 50
144.4698842763
 51
221.1281260491
  0
ARC
  5
4D5
330
1F
100
AcDbEntity
  8
0
  6
Continuous
 62
     7
370
    25
100
AcDbCircle
 10
85.0513311988
 20
594.2055115833
 30
0.0
 40
0.7875000000000592
100
AcDbArc
 50
324.4698842763
 51
57.7863678218
  0
ARC
  5
4D6
330
1F
100
AcDbEntity
  8
0
  6
Continuous
 62
     7
370
    25
100
AcDbCircle
 10
86.6353142941
 20
592.3915559851
 30
0.0
 40
0.7875000000000779
100
AcDbArc
 50
24.4698842763
 51
117.7863678218
  0
ARC
  5
4D7
330
1F
100
AcDbEntity
  8
0
  6
Continuous
 62
     7
370
    25
100
AcDbCircle
 10
86.0584212936
 20
593.486362231
 30
0.0
 40
0.4499999999999257
100
AcDbArc
 50
221.1281260491
 51
297.7863678219
  0
ARC
  5
4D8
330
1F
100
AcDbEntity
  8
0
  6
Continuous
 62
     7
370
    25
100
AcDbCircle
 10
87.7616609497
 20
592.9041469151
 30
0.0
 40
0.4500000000001667
100
AcDbArc
 50
204.4698842763
 51
281.128126049
  0
ARC
  5
4D9
330
1F
100
AcDbEntity
  8
0
  6
Continuous
 62
     7
370
    25
100
AcDbCircle
 10
652.4142543757
 20
-130.3296966161
 30
0.0
 40
2.25000000000013
100
AcDbArc
 50
341.1281260491
 51
41.1281260491
  0
ARC
  5
4DA
330
1F
100
AcDbEntity
  8
0
  6
Continuous
 62
     7
370
    25
100
AcDbCircle
 10
654.1174940318
 20
-130.911911932
 30
0.0
 40
0.4500000000001436
100
AcDbArc
 50
341.1281260491
 51
57.7863678218
  0
ARC
  5
4DB
330
1F
100
AcDbEntity
  8
0
  6
Continuous
 62
     7
370
    25
100
AcDbCircle
 10
653.7700874578
 20
-129.1457554632
 30
0.0
 40
0.4500000000001306
100
AcDbArc
 50
324.4698842763
 51
41.128126049
  0
ARC
  5
4DC
330
1F
100
AcDbEntity
  8
0
  6
Continuous
 62
     7
370
    25
100
AcDbCircle
 10
654.7771775527
 20
-129.8649048155
 30
0.0
 40
0.7875000000000262
100
AcDbArc
 50
144.4698842763
 51
237.7863678218
  0
ARC
  5
4DD
330
1F
100
AcDbEntity
  8
0
  6
Continuous
 62
     7
370
    25
100
AcDbCircle
 10
652.4142543757
 20
-130.3296966161
 30
0.0
 40
2.250000000000231
100
AcDbArc
 50
101.1281260491
 51
161.1281260491
  0
ARC
  5
4DE
330
1F
100
AcDbEntity
  8
0
  6
Continuous
 62
     7
370
    25
100
AcDbCircle
 10
650.8302712804
 20
-128.515741018
 30
0.0
 40
0.7874999999997164
100
AcDbArc
 50
264.4698842763
 51
357.7863678218
  0
ARC
  5
4DF
330
1F
100
AcDbEntity
  8
0
  6
Continuous
 62
     7
370
    25
100
AcDbCircle
 10
650.7110147197
 20
-129.7474813002
 30
0.0
 40
0.450000000000242
100
AcDbArc
 50
84.4698842763
 51
161.1281260491
  0
ARC
  5
4E0
330
1F
100
AcDbEntity
  8
0
  6
Continuous
 62
     7
370
    25
100
AcDbCircle
 10
652.0668478018
 20
-128.5635401473
 30
0.0
 40
0.4500000000002413
100
AcDbArc
 50
101.128126049
 51
177.7863678219
  0
ARC
  5
4E1
330
1F
100
AcDbEntity
  8
0
  6
Continuous
 62
     7
370
    25
100
AcDbCircle
 10
652.4142543757
 20
-130.3296966161
 30
0.0
 40
2.250000000000259
100
AcDbArc
 50
281.1281260491
 51
341.1281260491
  0
ARC
  5
4E2
330
1F
100
AcDbEntity
  8
0
  6
Continuous
 62
     7
370
    25
100
AcDbCircle
 10
652.7616609497
 20
-132.0958530849
 30
0.0
 40
0.450000000000206
100
AcDbArc
 50
281.128126049
 51
357.7863678219
  0
ARC
  5
4E3
330
1F
100
AcDbEntity
  8
0
  6
Continuous
 62
     7
370
    25
100
AcDbCircle
 10
653.9982374711
 20
-132.1436522142
 30
0.0
 40
0.7874999999998296
100
AcDbArc
 50
84.4698842763
 51
177.7863678218
  0
ARC
  5
4E4
330
1F
100
AcDbEntity
  8
0
  6
Continuous
 62
     7
370
    25
100
AcDbCircle
 10
654.1174940318
 20
-130.911911932
 30
0.0
 40
0.4500000000002566
100
AcDbArc
 50
264.4698842763
 51
341.1281260491
  0
ARC
  5
4E5
330
1F
100
AcDbEntity
  8
0
  6
Continuous
 62
     7
370
    25
100
AcDbCircle
 10
652.4142543757
 20
-130.3296966161
 30
0.0
 40
2.250000000000231
100
AcDbArc
 50
41.1281260491
 51
101.1281260491
  0
ARC
  5
4E6
330
1F
100
AcDbEntity
  8
0
  6
Continuous
 62
     7
370
    25
100
AcDbCircle
 10
653.1931944574
 20
-128.0509492173
 30
0.0
 40
0.7874999999999948
100
AcDbArc
 50
204.4698842763
 51
297.7863678218
  0
ARC
  5
4E7
330
1F
100
AcDbEntity
  8
0
  6
Continuous
 62
     7
370
    25
100
AcDbCircle
 10
653.7700874578
 20
-129.1457554632
 30
0.0
 40
0.4500000000000475
100
AcDbArc
 50
41.128126049
 51
117.7863678218
  0
ARC
  5
4E8
330
1F
100
AcDbEntity
  8
0
  6
Continuous
 62
     7
370
    25
100
AcDbCircle
 10
652.0668478018
 20
-128.5635401473
 30
0.0
 40
0.450000000000178
100
AcDbArc
 50
24.4698842763
 51
101.128126049
  0
ARC
  5
4E9
330
1F
100
AcDbEntity
  8
0
  6
Continuous
 62
     7
370
    25
100
AcDbCircle
 10
652.4142543757
 20
-130.3296966161
 30
0.0
 40
2.250000000000228
100
AcDbArc
 50
161.1281260491
 51
221.1281260491
  0
ARC
  5
4EA
330
1F
100
AcDbEntity
  8
0
  6
Continuous
 62
     7
370
    25
100
AcDbCircle
 10
652.4142543757
 20
-130.3296966161
 30
0.0
 40
2.250000000000259
100
AcDbArc
 50
221.1281260491
 51
281.1281260491
  0
CIRCLE
  5
4EB
330
1F
100
AcDbEntity
  8
0
  6
Continuous
 62
     7
370
    25
100
AcDbCircle
 10
652.4142543757
 20
-130.3296966161
 30
0.0
 40
3.85000000000006
  0
ARC
  5
4EC
330
1F
100
AcDbEntity
  8
0
  6
Continuous
 62
     7
370
    25
100
AcDbCircle
 10
650.7110147197
 20
-129.7474813002
 30
0.0
 40
0.450000000000242
100
AcDbArc
 50
161.1281260491
 51
237.7863678218
  0
ARC
  5
4ED
330
1F
100
AcDbEntity
  8
0
  6
Continuous
 62
     7
370
    25
100
AcDbCircle
 10
650.0513311988
 20
-130.7944884168
 30
0.0
 40
0.7875000000000262
100
AcDbArc
 50
324.4698842763
 51
57.7863678218
  0
ARC
  5
4EE
330
1F
100
AcDbEntity
  8
0
  6
Continuous
 62
     7
370
    25
100
AcDbCircle
 10
651.0584212936
 20
-131.513637769
 30
0.0
 40
0.4500000000001306
100
AcDbArc
 50
144.4698842763
 51
221.128126049
  0
ARC
  5
4EF
330
1F
100
AcDbEntity
  8
0
  6
Continuous
 62
     7
370
    25
100
AcDbCircle
 10
652.7616609497
 20
-132.0958530849
 30
0.0
 40
0.450000000000206
100
AcDbArc
 50
204.4698842763
 51
281.128126049
  0
ARC
  5
4F0
330
1F
100
AcDbEntity
  8
0
  6
Continuous
 62
     7
370
    25
100
AcDbCircle
 10
651.6353142941
 20
-132.6084440149
 30
0.0
 40
0.7874999999999948
100
AcDbArc
 50
24.4698842763
 51
117.7863678218
  0
ARC
  5
4F1
330
1F
100
AcDbEntity
  8
0
  6
Continuous
 62
     7
370
    25
100
AcDbCircle
 10
651.0584212936
 20
-131.513637769
 30
0.0
 40
0.4499999999998212
100
AcDbArc
 50
221.128126049
 51
297.7863678218
  0
ARC
  5
4F2
330
1F
100
AcDbEntity
  8
0
  6
Continuous
 62
     7
370
    25
100
AcDbCircle
 10
-1232.5857456243
 20
369.6703033839
 30
0.0
 40
2.250000000000231
100
AcDbArc
 50
41.1281260491
 51
101.1281260491
  0
ARC
  5
4F3
330
1F
100
AcDbEntity
  8
0
  6
Continuous
 62
     7
370
    25
100
AcDbCircle
 10
-1231.2299125422
 20
370.8542445368
 30
0.0
 40
0.4500000000000475
100
AcDbArc
 50
41.1281260491
 51
117.7863678218
  0
ARC
  5
4F4
330
1F
100
AcDbEntity
  8
0
  6
Continuous
 62
     7
370
    25
100
AcDbCircle
 10
-1231.8068055426
 20
371.9490507827
 30
0.0
 40
0.787499999999903
100
AcDbArc
 50
204.4698842763
 51
297.7863678219
  0
ARC
  5
4F5
330
1F
100
AcDbEntity
  8
0
  6
Continuous
 62
     7
370
    25
100
AcDbCircle
 10
-1232.9331521982
 20
371.4364598527
 30
0.0
 40
0.4500000000002279
100
AcDbArc
 50
24.4698842763
 51
101.128126049
  0
ARC
  5
4F6
330
1F
100
AcDbEntity
  8
0
  6
Continuous
 62
     7
370
    25
100
AcDbCircle
 10
-1232.5857456243
 20
369.6703033839
 30
0.0
 40
2.250000000000345
100
AcDbArc
 50
341.1281260491
 51
41.1281260491
  0
ARC
  5
4F7
330
1F
100
AcDbEntity
  8
0
  6
Continuous
 62
     7
370
    25
100
AcDbCircle
 10
-1230.8825059682
 20
369.088088068
 30
0.0
 40
0.4500000000005647
100
AcDbArc
 50
341.1281260491
 51
57.7863678218
  0
ARC
  5
4F8
330
1F
100
AcDbEntity
  8
0
  6
Continuous
 62
     7
370
    25
100
AcDbCircle
 10
-1231.2299125422
 20
370.8542445368
 30
0.0
 40
0.4500000000001141
100
AcDbArc
 50
324.4698842763
 51
41.1281260491
  0
ARC
  5
4F9
330
1F
100
AcDbEntity
  8
0
  6
Continuous
 62
     7
370
    25
100
AcDbCircle
 10
-1230.2228224473
 20
370.1350951846
 30
0.0
 40
0.7874999999999337
100
AcDbArc
 50
144.4698842763
 51
237.7863678219
  0
ARC
  5
4FA
330
1F
100
AcDbEntity
  8
0
  6
Continuous
 62
     7
370
    25
100
AcDbCircle
 10
-1232.5857456243
 20
369.6703033839
 30
0.0
 40
2.250000000000231
100
AcDbArc
 50
101.1281260491
 51
161.1281260491
  0
ARC
  5
4FB
330
1F
100
AcDbEntity
  8
0
  6
Continuous
 62
     7
370
    25
100
AcDbCircle
 10
-1232.5857456243
 20
369.6703033839
 30
0.0
 40
2.25000000000013
100
AcDbArc
 50
161.1281260491
 51
221.1281260491
  0
ARC
  5
4FC
330
1F
100
AcDbEntity
  8
0
  6
Continuous
 62
     7
370
    25
100
AcDbCircle
 10
-1232.5857456243
 20
369.6703033839
 30
0.0
 40
2.250000000000287
100
AcDbArc
 50
221.1281260491
 51
281.1281260491
  0
ARC
  5
4FD
330
1F
100
AcDbEntity
  8
0
  6
Continuous
 62
     7
370
    25
100
AcDbCircle
 10
-1232.5857456243
 20
369.6703033839
 30
0.0
 40
2.250000000000345
100
AcDbArc
 50
281.1281260491
 51
341.1281260491
  0
CIRCLE
  5
4FE
330
1F
100
AcDbEntity
  8
0
  6
Continuous
 62
     7
370
    25
100
AcDbCircle
 10
-1232.5857456243
 20
369.6703033839
 30
0.0
 40
3.850000000000146
  0
ARC
  5
4FF
330
1F
100
AcDbEntity
  8
0
  6
Continuous
 62
     7
370
    25
100
AcDbCircle
 10
-1232.2383390503
 20
367.9041469151
 30
0.0
 40
0.450000000000184
100
AcDbArc
 50
281.128126049
 51
357.7863678219
  0
ARC
  5
500
330
1F
100
AcDbEntity
  8
0
  6
Continuous
 62
     7
370
    25
100
AcDbCircle
 10
-1230.8825059682
 20
369.088088068
 30
0.0
 40
0.4500000000005647
100
AcDbArc
 50
264.4698842763
 51
341.1281260491
  0
ARC
  5
501
330
1F
100
AcDbEntity
  8
0
  6
Continuous
 62
     7
370
    25
100
AcDbCircle
 10
-1231.001762529
 20
367.8563477858
 30
0.0
 40
0.7874999999999421
100
AcDbArc
 50
84.4698842763
 51
177.7863678218
  0
ARC
  5
502
330
1F
100
AcDbEntity
  8
0
  6
Continuous
 62
     7
370
    25
100
AcDbCircle
 10
-1234.2889852803
 20
370.2525186998
 30
0.0
 40
0.4500000000003679
100
AcDbArc
 50
84.4698842763
 51
161.1281260491
  0
ARC
  5
503
330
1F
100
AcDbEntity
  8
0
  6
Continuous
 62
     7
370
    25
100
AcDbCircle
 10
-1234.1697287196
 20
371.484258982
 30
0.0
 40
0.787499999999715
100
AcDbArc
 50
264.4698842763
 51
357.7863678218
  0
ARC
  5
504
330
1F
100
AcDbEntity
  8
0
  6
Continuous
 62
     7
370
    25
100
AcDbCircle
 10
-1232.9331521982
 20
371.4364598527
 30
0.0
 40
0.4500000000002424
100
AcDbArc
 50
101.128126049
 51
177.7863678219
  0
ARC
  5
505
330
1F
100
AcDbEntity
  8
0
  6
Continuous
 62
     7
370
    25
100
AcDbCircle
 10
-1234.2889852803
 20
370.2525186998
 30
0.0
 40
0.4500000000003679
100
AcDbArc
 50
161.1281260491
 51
237.7863678218
  0
ARC
  5
506
330
1F
100
AcDbEntity
  8
0
  6
Continuous
 62
     7
370
    25
100
AcDbCircle
 10
-1233.9415787064
 20
368.486362231
 30
0.0
 40
0.4500000000001141
100
AcDbArc
 50
144.4698842763
 51
221.128126049
  0
ARC
  5
507
330
1F
100
AcDbEntity
  8
0
  6
Continuous
 62
     7
370
    25
100
AcDbCircle
 10
-1234.9486688012
 20
369.2055115832
 30
0.0
 40
0.7875000000001187
100
AcDbArc
 50
324.4698842763
 51
57.7863678219
  0
ARC
  5
508
330
1F
100
AcDbEntity
  8
0
  6
Continuous
 62
     7
370
    25
100
AcDbCircle
 10
-1233.3646857059
 20
367.3915559851
 30
0.0
 40
0.7875000000000938
100
AcDbArc
 50
24.4698842763
 51
117.7863678219
  0
ARC
  5
509
330
1F
100
AcDbEntity
  8
0
  6
Continuous
 62
     7
370
    25
100
AcDbCircle
 10
-1233.9415787064
 20
368.486362231
 30
0.0
 40
0.4499999999998462
100
AcDbArc
 50
221.128126049
 51
297.7863678218
  0
ARC
  5
50A
330
1F
100
AcDbEntity
  8
0
  6
Continuous
 62
     7
370
    25
100
AcDbCircle
 10
-1232.2383390503
 20
367.9041469151
 30
0.0
 40
0.4500000000002604
100
AcDbArc
 50
204.4698842763
 51
281.128126049
  0
ARC
  5
50B
330
1F
100
AcDbEntity
  8
0
  6
Continuous
 62
     7
370
    25
100
AcDbCircle
 10
-1007.5857456243
 20
594.6703033839
 30
0.0
 40
2.250000000000255
100
AcDbArc
 50
341.1281260491
 51
41.1281260491
  0
ARC
  5
50C
330
1F
100
AcDbEntity
  8
0
  6
Continuous
 62
     7
370
    25
100
AcDbCircle
 10
-1005.8825059682
 20
594.088088068
 30
0.0
 40
0.4500000000003496
100
AcDbArc
 50
341.1281260491
 51
57.7863678218
  0
ARC
  5
50D
330
1F
100
AcDbEntity
  8
0
  6
Continuous
 62
     7
370
    25
100
AcDbCircle
 10
-1005.2228224473
 20
595.1350951846
 30
0.0
 40
0.7875000000000592
100
AcDbArc
 50
144.4698842763
 51
237.7863678219
  0
ARC
  5
50E
330
1F
100
AcDbEntity
  8
0
  6
Continuous
 62
     7
370
    25
100
AcDbCircle
 10
-1006.2299125422
 20
595.8542445368
 30
0.0
 40
0.4499999999999885
100
AcDbArc
 50
324.4698842763
 51
41.1281260491
  0
ARC
  5
50F
330
1F
100
AcDbEntity
  8
0
  6
Continuous
 62
     7
370
    25
100
AcDbCircle
 10
-1007.5857456243
 20
594.6703033839
 30
0.0
 40
2.25000000000021
100
AcDbArc
 50
41.1281260491
 51
101.1281260491
  0
ARC
  5
510
330
1F
100
AcDbEntity
  8
0
  6
Continuous
 62
     7
370
    25
100
AcDbCircle
 10
-1006.2299125422
 20
595.8542445368
 30
0.0
 40
0.4500000000001004
100
AcDbArc
 50
41.1281260491
 51
117.7863678218
  0
ARC
  5
511
330
1F
100
AcDbEntity
  8
0
  6
Continuous
 62
     7
370
    25
100
AcDbCircle
 10
-1006.8068055426
 20
596.9490507827
 30
0.0
 40
0.7874999999999429
100
AcDbArc
 50
204.4698842763
 51
297.7863678219
  0
ARC
  5
512
330
1F
100
AcDbEntity
  8
0
  6
Continuous
 62
     7
370
    25
100
AcDbCircle
 10
-1007.9331521982
 20
596.4364598528
 30
0.0
 40
0.4500000000002398
100
AcDbArc
 50
24.4698842763
 51
101.128126049
  0
ARC
  5
513
330
1F
100
AcDbEntity
  8
0
  6
Continuous
 62
     7
370
    25
100
AcDbCircle
 10
-1007.5857456243
 20
594.6703033839
 30
0.0
 40
2.25000000000021
100
AcDbArc
 50
101.1281260491
 51
161.1281260491
  0
ARC
  5
514
330
1F
100
AcDbEntity
  8
0
  6
Continuous
 62
     7
370
    25
100
AcDbCircle
 10
-1009.1697287196
 20
596.484258982
 30
0.0
 40
0.7874999999997447
100
AcDbArc
 50
264.4698842763
 51
357.7863678218
  0
ARC
  5
515
330
1F
100
AcDbEntity
  8
0
  6
Continuous
 62
     7
370
    25
100
AcDbCircle
 10
-1009.2889852803
 20
595.2525186999
 30
0.0
 40
0.4500000000003496
100
AcDbArc
 50
84.4698842763
 51
161.1281260491
  0
ARC
  5
516
330
1F
100
AcDbEntity
  8
0
  6
Continuous
 62
     7
370
    25
100
AcDbCircle
 10
-1007.9331521982
 20
596.4364598528
 30
0.0
 40
0.4500000000002398
100
AcDbArc
 50
101.128126049
 51
177.7863678219
  0
ARC
  5
517
330
1F
100
AcDbEntity
  8
0
  6
Continuous
 62
     7
370
    25
100
AcDbCircle
 10
-1007.5857456243
 20
594.6703033839
 30
0.0
 40
2.250000000000343
100
AcDbArc
 50
281.1281260491
 51
341.1281260491
  0
ARC
  5
518
330
1F
100
AcDbEntity
  8
0
  6
Continuous
 62
     7
370
    25
100
AcDbCircle
 10
-1007.2383390503
 20
592.9041469151
 30
0.0
 40
0.4500000000002617
100
AcDbArc
 50
281.128126049
 51
357.7863678219
  0
ARC
  5
519
330
1F
100
AcDbEntity
  8
0
  6
Continuous
 62
     7
370
    25
100
AcDbCircle
 10
-1005.8825059682
 20
594.088088068
 30
0.0
 40
0.4500000000003496
100
AcDbArc
 50
264.4698842763
 51
341.1281260491
  0
ARC
  5
51A
330
1F
100
AcDbEntity
  8
0
  6
Continuous
 62
     7
370
    25
100
AcDbCircle
 10
-1006.0017625289
 20
592.8563477858
 30
0.0
 40
0.7874999999997447
100
AcDbArc
 50
84.4698842763
 51
177.7863678218
  0
ARC
  5
51B
330
1F
100
AcDbEntity
  8
0
  6
Continuous
 62
     7
370
    25
100
AcDbCircle
 10
-1007.5857456243
 20
594.6703033839
 30
0.0
 40
2.250000000000111
100
AcDbArc
 50
161.1281260491
 51
221.1281260491
  0
ARC
  5
51C
330
1F
100
AcDbEntity
  8
0
  6
Continuous
 62
     7
370
    25
100
AcDbCircle
 10
-1007.5857456243
 20
594.6703033839
 30
0.0
 40
2.250000000000343
100
AcDbArc
 50
221.1281260491
 51
281.1281260491
  0
CIRCLE
  5
51D
330
1F
100
AcDbEntity
  8
0
  6
Continuous
 62
     7
370
    25
100
AcDbCircle
 10
-1007.5857456243
 20
594.6703033839
 30
0.0
 40
3.85000000000006
  0
ARC
  5
51E
330
1F
100
AcDbEntity
  8
0
  6
Continuous
 62
     7
370
    25
100
AcDbCircle
 10
-1009.2889852803
 20
595.2525186999
 30
0.0
 40
0.4500000000003496
100
AcDbArc
 50
161.1281260491
 51
237.7863678218
  0
ARC
  5
51F
330
1F
100
AcDbEntity
  8
0
  6
Continuous
 62
     7
370
    25
100
AcDbCircle
 10
-1009.9486688012
 20
594.2055115833
 30
0.0
 40
0.7874999999999931
100
AcDbArc
 50
324.4698842763
 51
57.7863678219
  0
ARC
  5
520
330
1F
100
AcDbEntity
  8
0
  6
Continuous
 62
     7
370
    25
100
AcDbCircle
 10
-1008.9415787064
 20
593.486362231
 30
0.0
 40
0.4500000000000546
100
AcDbArc
 50
144.4698842763
 51
221.128126049
  0
ARC
  5
521
330
1F
100
AcDbEntity
  8
0
  6
Continuous
 62
     7
370
    25
100
AcDbCircle
 10
-1007.2383390503
 20
592.9041469151
 30
0.0
 40
0.4500000000002617
100
AcDbArc
 50
204.4698842763
 51
281.128126049
  0
ARC
  5
522
330
1F
100
AcDbEntity
  8
0
  6
Continuous
 62
     7
370
    25
100
AcDbCircle
 10
-1008.9415787064
 20
593.486362231
 30
0.0
 40
0.4499999999998993
100
AcDbArc
 50
221.128126049
 51
297.7863678218
  0
ARC
  5
523
330
1F
100
AcDbEntity
  8
0
  6
Continuous
 62
     7
370
    25
100
AcDbCircle
 10
-1008.3646857059
 20
592.3915559852
 30
0.0
 40
0.7874999999999905
100
AcDbArc
 50
24.4698842763
 51
117.7863678218
  0
ARC
  5
524
330
1F
100
AcDbEntity
  8
0
  6
Continuous
 62
     7
370
    25
100
AcDbCircle
 10
-847.5857456243
 20
594.6703033839
 30
0.0
 40
2.250000000000231
100
AcDbArc
 50
41.1281260491
 51
101.1281260491
  0
ARC
  5
525
330
1F
100
AcDbEntity
  8
0
  6
Continuous
 62
     7
370
    25
100
AcDbCircle
 10
-847.5857456243
 20
594.6703033839
 30
0.0
 40
2.250000000000255
100
AcDbArc
 50
101.1281260491
 51
161.1281260491
  0
ARC
  5
526
330
1F
100
AcDbEntity
  8
0
  6
Continuous
 62
     7
370
    25
100
AcDbCircle
 10
-847.5857456243
 20
594.6703033839
 30
0.0
 40
2.250000000000255
100
AcDbArc
 50
161.1281260491
 51
221.1281260491
  0
ARC
  5
527
330
1F
100
AcDbEntity
  8
0
  6
Continuous
 62
     7
370
    25
100
AcDbCircle
 10
-847.5857456243
 20
594.6703033839
 30
0.0
 40
2.25000000000021
100
AcDbArc
 50
221.1281260491
 51
281.1281260491
  0
ARC
  5
528
330
1F
100
AcDbEntity
  8
0
  6
Continuous
 62
     7
370
    25
100
AcDbCircle
 10
-847.5857456243
 20
594.6703033839
 30
0.0
 40
2.25000000000021
100
AcDbArc
 50
281.1281260491
 51
341.1281260491
  0
ARC
  5
529
330
1F
100
AcDbEntity
  8
0
  6
Continuous
 62
     7
370
    25
100
AcDbCircle
 10
-847.5857456243
 20
594.6703033839
 30
0.0
 40
2.250000000000111
100
AcDbArc
 50
341.1281260491
 51
41.1281260491
  0
CIRCLE
  5
52A
330
1F
100
AcDbEntity
  8
0
  6
Continuous
 62
     7
370
    25
100
AcDbCircle
 10
-847.5857456243
 20
594.6703033839
 30
0.0
 40
3.849999999999974
  0
ARC
  5
52B
330
1F
100
AcDbEntity
  8
0
  6
Continuous
 62
     7
370
    25
100
AcDbCircle
 10
-847.9331521982
 20
596.4364598528
 30
0.0
 40
0.4500000000002402
100
AcDbArc
 50
101.128126049
 51
177.7863678219
  0
ARC
  5
52C
330
1F
100
AcDbEntity
  8
0
  6
Continuous
 62
     7
370
    25
100
AcDbCircle
 10
-849.2889852803
 20
595.2525186999
 30
0.0
 40
0.4500000000002958
100
AcDbArc
 50
84.4698842763
 51
161.1281260491
  0
ARC
  5
52D
330
1F
100
AcDbEntity
  8
0
  6
Continuous
 62
     7
370
    25
100
AcDbCircle
 10
-849.1697287196
 20
596.484258982
 30
0.0
 40
0.7874999999997447
100
AcDbArc
 50
264.4698842763
 51
357.7863678218
  0
ARC
  5
52E
330
1F
100
AcDbEntity
  8
0
  6
Continuous
 62
     7
370
    25
100
AcDbCircle
 10
-846.2299125422
 20
595.8542445368
 30
0.0
 40
0.4500000000000546
100
AcDbArc
 50
324.4698842763
 51
41.128126049
  0
ARC
  5
52F
330
1F
100
AcDbEntity
  8
0
  6
Continuous
 62
     7
370
    25
100
AcDbCircle
 10
-845.2228224473
 20
595.1350951846
 30
0.0
 40
0.7874999999999931
100
AcDbArc
 50
144.4698842763
 51
237.7863678219
  0
ARC
  5
530
330
1F
100
AcDbEntity
  8
0
  6
Continuous
 62
     7
370
    25
100
AcDbCircle
 10
-845.8825059682
 20
594.088088068
 30
0.0
 40
0.4500000000001344
100
AcDbArc
 50
341.1281260491
 51
57.7863678218
  0
ARC
  5
531
330
1F
100
AcDbEntity
  8
0
  6
Continuous
 62
     7
370
    25
100
AcDbCircle
 10
-846.8068055426
 20
596.9490507827
 30
0.0
 40
0.787499999999983
100
AcDbArc
 50
204.4698842763
 51
297.7863678218
  0
ARC
  5
532
330
1F
100
AcDbEntity
  8
0
  6
Continuous
 62
     7
370
    25
100
AcDbCircle
 10
-846.2299125422
 20
595.8542445368
 30
0.0
 40
0.4500000000001004
100
AcDbArc
 50
41.128126049
 51
117.7863678218
  0
ARC
  5
533
330
1F
100
AcDbEntity
  8
0
  6
Continuous
 62
     7
370
    25
100
AcDbCircle
 10
-847.9331521982
 20
596.4364598528
 30
0.0
 40
0.4500000000001569
100
AcDbArc
 50
24.4698842763
 51
101.128126049
  0
ARC
  5
534
330
1F
100
AcDbEntity
  8
0
  6
Continuous
 62
     7
370
    25
100
AcDbCircle
 10
-847.2383390503
 20
592.9041469151
 30
0.0
 40
0.4500000000001282
100
AcDbArc
 50
281.128126049
 51
357.7863678219
  0
ARC
  5
535
330
1F
100
AcDbEntity
  8
0
  6
Continuous
 62
     7
370
    25
100
AcDbCircle
 10
-846.0017625289
 20
592.8563477858
 30
0.0
 40
0.7874999999997128
100
AcDbArc
 50
84.4698842763
 51
177.7863678218
  0
ARC
  5
536
330
1F
100
AcDbEntity
  8
0
  6
Continuous
 62
     7
370
    25
100
AcDbCircle
 10
-845.8825059682
 20
594.088088068
 30
0.0
 40
0.4500000000002958
100
AcDbArc
 50
264.4698842763
 51
341.1281260491
  0
ARC
  5
537
330
1F
100
AcDbEntity
  8
0
  6
Continuous
 62
     7
370
    25
100
AcDbCircle
 10
-848.9415787064
 20
593.486362231
 30
0.0
 40
0.4499999999998993
100
AcDbArc
 50
221.1281260491
 51
297.7863678218
  0
ARC
  5
538
330
1F
100
AcDbEntity
  8
0
  6
Continuous
 62
     7
370
    25
100
AcDbCircle
 10
-847.2383390503
 20
592.9041469151
 30
0.0
 40
0.4500000000001569
100
AcDbArc
 50
204.4698842763
 51
281.128126049
  0
ARC
  5
539
330
1F
100
AcDbEntity
  8
0
  6
Continuous
 62
     7
370
    25
100
AcDbCircle
 10
-848.3646857059
 20
592.3915559852
 30
0.0
 40
0.7875000000000381
100
AcDbArc
 50
24.4698842763
 51
117.7863678218
  0
ARC
  5
53A
330
1F
100
AcDbEntity
  8
0
  6
Continuous
 62
     7
370
    25
100
AcDbCircle
 10
-849.2889852803
 20
595.2525186999
 30
0.0
 40
0.4500000000001712
100
AcDbArc
 50
161.1281260491
 51
237.7863678218
  0
ARC
  5
53B
330
1F
100
AcDbEntity
  8
0
  6
Continuous
 62
     7
370
    25
100
AcDbCircle
 10
-849.9486688012
 20
594.2055115833
 30
0.0
 40
0.7875000000000592
100
AcDbArc
 50
324.4698842763
 51
57.7863678219
  0
ARC
  5
53C
330
1F
100
AcDbEntity
  8
0
  6
Continuous
 62
     7
370
    25
100
AcDbCircle
 10
-848.9415787064
 20
593.486362231
 30
0.0
 40
0.4499999999999885
100
AcDbArc
 50
144.4698842763
 51
221.1281260491
  0
ARC
  5
53D
330
1F
100
AcDbEntity
  8
0
  6
Continuous
 62
     7
370
    25
100
AcDbCircle
 10
-667.5857456243
 20
594.6703033839
 30
0.0
 40
2.250000000000275
100
AcDbArc
 50
281.1281260491
 51
341.1281260491
  0
ARC
  5
53E
330
1F
100
AcDbEntity
  8
0
  6
Continuous
 62
     7
370
    25
100
AcDbCircle
 10
-667.2383390503
 20
592.9041469151
 30
0.0
 40
0.4500000000002402
100
AcDbArc
 50
281.128126049
 51
357.7863678219
  0
ARC
  5
53F
330
1F
100
AcDbEntity
  8
0
  6
Continuous
 62
     7
370
    25
100
AcDbCircle
 10
-665.8825059682
 20
594.088088068
 30
0.0
 40
0.4500000000002849
100
AcDbArc
 50
264.4698842763
 51
341.1281260491
  0
ARC
  5
540
330
1F
100
AcDbEntity
  8
0
  6
Continuous
 62
     7
370
    25
100
AcDbCircle
 10
-666.0017625289
 20
592.8563477858
 30
0.0
 40
0.7874999999997447
100
AcDbArc
 50
84.4698842763
 51
177.7863678218
  0
ARC
  5
541
330
1F
100
AcDbEntity
  8
0
  6
Continuous
 62
     7
370
    25
100
AcDbCircle
 10
-667.5857456243
 20
594.6703033839
 30
0.0
 40
2.250000000000218
100
AcDbArc
 50
341.1281260491
 51
41.1281260491
  0
ARC
  5
542
330
1F
100
AcDbEntity
  8
0
  6
Continuous
 62
     7
370
    25
100
AcDbCircle
 10
-665.8825059682
 20
594.088088068
 30
0.0
 40
0.450000000000242
100
AcDbArc
 50
341.1281260491
 51
57.7863678218
  0
ARC
  5
543
330
1F
100
AcDbEntity
  8
0
  6
Continuous
 62
     7
370
    25
100
AcDbCircle
 10
-665.2228224473
 20
595.1350951846
 30
0.0
 40
0.7875000000000592
100
AcDbArc
 50
144.4698842763
 51
237.7863678218
  0
ARC
  5
544
330
1F
100
AcDbEntity
  8
0
  6
Continuous
 62
     7
370
    25
100
AcDbCircle
 10
-666.2299125422
 20
595.8542445368
 30
0.0
 40
0.449999999999962
100
AcDbArc
 50
324.4698842762
 51
41.1281260491
  0
ARC
  5
545
330
1F
100
AcDbEntity
  8
0
  6
Continuous
 62
     7
370
    25
100
AcDbCircle
 10
-667.5857456243
 20
594.6703033839
 30
0.0
 40
2.250000000000231
100
AcDbArc
 50
41.1281260491
 51
101.1281260491
  0
ARC
  5
546
330
1F
100
AcDbEntity
  8
0
  6
Continuous
 62
     7
370
    25
100
AcDbCircle
 10
-667.5857456243
 20
594.6703033839
 30
0.0
 40
2.250000000000231
100
AcDbArc
 50
101.1281260491
 51
161.1281260491
  0
ARC
  5
547
330
1F
100
AcDbEntity
  8
0
  6
Continuous
 62
     7
370
    25
100
AcDbCircle
 10
-667.5857456243
 20
594.6703033839
 30
0.0
 40
2.250000000000218
100
AcDbArc
 50
161.1281260491
 51
221.1281260491
  0
ARC
  5
548
330
1F
100
AcDbEntity
  8
0
  6
Continuous
 62
     7
370
    25
100
AcDbCircle
 10
-667.5857456243
 20
594.6703033839
 30
0.0
 40
2.250000000000275
100
AcDbArc
 50
221.1281260491
 51
281.1281260491
  0
CIRCLE
  5
549
330
1F
100
AcDbEntity
  8
0
  6
Continuous
 62
     7
370
    25
100
AcDbCircle
 10
-667.5857456243
 20
594.6703033839
 30
0.0
 40
3.85000000000006
  0
ARC
  5
54A
330
1F
100
AcDbEntity
  8
0
  6
Continuous
 62
     7
370
    25
100
AcDbCircle
 10
-669.2889852803
 20
595.2525186999
 30
0.0
 40
0.4500000000004571
100
AcDbArc
 50
84.4698842763
 51
161.1281260491
  0
ARC
  5
54B
330
1F
100
AcDbEntity
  8
0
  6
Continuous
 62
     7
370
    25
100
AcDbCircle
 10
-669.1697287196
 20
596.484258982
 30
0.0
 40
0.7874999999997447
100
AcDbArc
 50
264.4698842763
 51
357.7863678218
  0
ARC
  5
54C
330
1F
100
AcDbEntity
  8
0
  6
Continuous
 62
     7
370
    25
100
AcDbCircle
 10
-667.9331521982
 20
596.4364598528
 30
0.0
 40
0.4500000000002402
100
AcDbArc
 50
101.128126049
 51
177.7863678219
  0
ARC
  5
54D
330
1F
100
AcDbEntity
  8
0
  6
Continuous
 62
     7
370
    25
100
AcDbCircle
 10
-667.9331521982
 20
596.4364598528
 30
0.0
 40
0.4500000000001569
100
AcDbArc
 50
24.4698842763
 51
101.128126049
  0
ARC
  5
54E
330
1F
100
AcDbEntity
  8
0
  6
Continuous
 62
     7
370
    25
100
AcDbCircle
 10
-666.2299125422
 20
595.8542445368
 30
0.0
 40
0.4500000000000528
100
AcDbArc
 50
41.1281260491
 51
117.7863678219
  0
ARC
  5
54F
330
1F
100
AcDbEntity
  8
0
  6
Continuous
 62
     7
370
    25
100
AcDbCircle
 10
-666.8068055426
 20
596.9490507827
 30
0.0
 40
0.787499999999983
100
AcDbArc
 50
204.4698842763
 51
297.7863678218
  0
ARC
  5
550
330
1F
100
AcDbEntity
  8
0
  6
Continuous
 62
     7
370
    25
100
AcDbCircle
 10
-668.3646857059
 20
592.3915559851
 30
0.0
 40
0.7875000000000435
100
AcDbArc
 50
24.4698842763
 51
117.7863678219
  0
ARC
  5
551
330
1F
100
AcDbEntity
  8
0
  6
Continuous
 62
     7
370
    25
100
AcDbCircle
 10
-667.2383390503
 20
592.9041469151
 30
0.0
 40
0.4500000000001941
100
AcDbArc
 50
204.4698842763
 51
281.128126049
  0
ARC
  5
552
330
1F
100
AcDbEntity
  8
0
  6
Continuous
 62
     7
370
    25
100
AcDbCircle
 10
-668.9415787064
 20
593.486362231
 30
0.0
 40
0.4499999999998462
100
AcDbArc
 50
221.1281260491
 51
297.7863678218
  0
ARC
  5
553
330
1F
100
AcDbEntity
  8
0
  6
Continuous
 62
     7
370
    25
100
AcDbCircle
 10
-669.2889852803
 20
595.2525186999
 30
0.0
 40
0.4500000000004571
100
AcDbArc
 50
161.1281260491
 51
237.7863678218
  0
ARC
  5
554
330
1F
100
AcDbEntity
  8
0
  6
Continuous
 62
     7
370
    25
100
AcDbCircle
 10
-669.9486688012
 20
594.2055115833
 30
0.0
 40
0.7875000000000592
100
AcDbArc
 50
324.4698842763
 51
57.7863678218
  0
ARC
  5
555
330
1F
100
AcDbEntity
  8
0
  6
Continuous
 62
     7
370
    25
100
AcDbCircle
 10
-668.9415787064
 20
593.486362231
 30
0.0
 40
0.4500000000001471
100
AcDbArc
 50
144.4698842763
 51
221.1281260491
  0
ARC
  5
556
330
1F
100
AcDbEntity
  8
0
  6
Continuous
 62
     7
370
    25
100
AcDbCircle
 10
-507.5857456243
 20
594.6703033839
 30
0.0
 40
2.250000000000202
100
AcDbArc
 50
341.1281260491
 51
41.1281260491
  0
ARC
  5
557
330
1F
100
AcDbEntity
  8
0
  6
Continuous
 62
     7
370
    25
100
AcDbCircle
 10
-505.8825059682
 20
594.088088068
 30
0.0
 40
0.4500000000004034
100
AcDbArc
 50
341.1281260491
 51
57.7863678218
  0
ARC
  5
558
330
1F
100
AcDbEntity
  8
0
  6
Continuous
 62
     7
370
    25
100
AcDbCircle
 10
-505.2228224473
 20
595.1350951846
 30
0.0
 40
0.7875000000000592
100
AcDbArc
 50
144.4698842763
 51
237.7863678218
  0
ARC
  5
559
330
1F
100
AcDbEntity
  8
0
  6
Continuous
 62
     7
370
    25
100
AcDbCircle
 10
-506.2299125422
 20
595.8542445368
 30
0.0
 40
0.4500000000000348
100
AcDbArc
 50
324.4698842763
 51
41.1281260491
  0
ARC
  5
55A
330
1F
100
AcDbEntity
  8
0
  6
Continuous
 62
     7
370
    25
100
AcDbCircle
 10
-507.5857456243
 20
594.6703033839
 30
0.0
 40
2.250000000000275
100
AcDbArc
 50
41.1281260491
 51
101.1281260491
  0
ARC
  5
55B
330
1F
100
AcDbEntity
  8
0
  6
Continuous
 62
     7
370
    25
100
AcDbCircle
 10
-507.5857456243
 20
594.6703033839
 30
0.0
 40
2.250000000000275
100
AcDbArc
 50
101.1281260491
 51
161.1281260491
  0
ARC
  5
55C
330
1F
100
AcDbEntity
  8
0
  6
Continuous
 62
     7
370
    25
100
AcDbCircle
 10
-507.5857456243
 20
594.6703033839
 30
0.0
 40
2.250000000000218
100
AcDbArc
 50
161.1281260491
 51
221.1281260491
  0
ARC
  5
55D
330
1F
100
AcDbEntity
  8
0
  6
Continuous
 62
     7
370
    25
100
AcDbCircle
 10
-507.5857456243
 20
594.6703033839
 30
0.0
 40
2.25000000000022
100
AcDbArc
 50
221.1281260491
 51
281.1281260491
  0
ARC
  5
55E
330
1F
100
AcDbEntity
  8
0
  6
Continuous
 62
     7
370
    25
100
AcDbCircle
 10
-507.5857456243
 20
594.6703033839
 30
0.0
 40
2.25000000000022
100
AcDbArc
 50
281.1281260491
 51
341.1281260491
  0
CIRCLE
  5
55F
330
1F
100
AcDbEntity
  8
0
  6
Continuous
 62
     7
370
    25
100
AcDbCircle
 10
-507.5857456243
 20
594.6703033839
 30
0.0
 40
3.850000000000017
  0
ARC
  5
560
330
1F
100
AcDbEntity
  8
0
  6
Continuous
 62
     7
370
    25
100
AcDbCircle
 10
-507.2383390503
 20
592.9041469151
 30
0.0
 40
0.4500000000001834
100
AcDbArc
 50
281.128126049
 51
357.7863678219
  0
ARC
  5
561
330
1F
100
AcDbEntity
  8
0
  6
Continuous
 62
     7
370
    25
100
AcDbCircle
 10
-506.0017625289
 20
592.8563477858
 30
0.0
 40
0.7874999999997447
100
AcDbArc
 50
84.4698842763
 51
177.7863678218
  0
ARC
  5
562
330
1F
100
AcDbEntity
  8
0
  6
Continuous
 62
     7
370
    25
100
AcDbCircle
 10
-505.8825059682
 20
594.088088068
 30
0.0
 40
0.4500000000004034
100
AcDbArc
 50
264.4698842763
 51
341.1281260491
  0
ARC
  5
563
330
1F
100
AcDbEntity
  8
0
  6
Continuous
 62
     7
370
    25
100
AcDbCircle
 10
-506.8068055426
 20
596.9490507827
 30
0.0
 40
0.7875000000000301
100
AcDbArc
 50
204.4698842763
 51
297.7863678219
  0
ARC
  5
564
330
1F
100
AcDbEntity
  8
0
  6
Continuous
 62
     7
370
    25
100
AcDbCircle
 10
-506.2299125422
 20
595.8542445368
 30
0.0
 40
0.450000000000074
100
AcDbArc
 50
41.1281260491
 51
117.7863678218
  0
ARC
  5
565
330
1F
100
AcDbEntity
  8
0
  6
Continuous
 62
     7
370
    25
100
AcDbCircle
 10
-507.9331521982
 20
596.4364598527
 30
0.0
 40
0.4500000000001941
100
AcDbArc
 50
24.4698842763
 51
101.128126049
  0
ARC
  5
566
330
1F
100
AcDbEntity
  8
0
  6
Continuous
 62
     7
370
    25
100
AcDbCircle
 10
-509.2889852803
 20
595.2525186999
 30
0.0
 40
0.4500000000002903
100
AcDbArc
 50
84.4698842763
 51
161.1281260491
  0
ARC
  5
567
330
1F
100
AcDbEntity
  8
0
  6
Continuous
 62
     7
370
    25
100
AcDbCircle
 10
-507.9331521982
 20
596.4364598527
 30
0.0
 40
0.4500000000002402
100
AcDbArc
 50
101.128126049
 51
177.7863678219
  0
ARC
  5
568
330
1F
100
AcDbEntity
  8
0
  6
Continuous
 62
     7
370
    25
100
AcDbCircle
 10
-509.1697287196
 20
596.484258982
 30
0.0
 40
0.7874999999997128
100
AcDbArc
 50
264.4698842763
 51
357.7863678218
  0
ARC
  5
569
330
1F
100
AcDbEntity
  8
0
  6
Continuous
 62
     7
370
    25
100
AcDbCircle
 10
-509.9486688012
 20
594.2055115833
 30
0.0
 40
0.7874999999999931
100
AcDbArc
 50
324.4698842763
 51
57.7863678218
  0
ARC
  5
56A
330
1F
100
AcDbEntity
  8
0
  6
Continuous
 62
     7
370
    25
100
AcDbCircle
 10
-508.9415787064
 20
593.486362231
 30
0.0
 40
0.4499999999999158
100
AcDbArc
 50
144.4698842762
 51
221.1281260491
  0
ARC
  5
56B
330
1F
100
AcDbEntity
  8
0
  6
Continuous
 62
     7
370
    25
100
AcDbCircle
 10
-509.2889852803
 20
595.2525186999
 30
0.0
 40
0.4500000000001882
100
AcDbArc
 50
161.1281260491
 51
237.7863678218
  0
ARC
  5
56C
330
1F
100
AcDbEntity
  8
0
  6
Continuous
 62
     7
370
    25
100
AcDbCircle
 10
-508.9415787064
 20
593.486362231
 30
0.0
 40
0.4499999999999788
100
AcDbArc
 50
221.1281260491
 51
297.7863678219
  0
ARC
  5
56D
330
1F
100
AcDbEntity
  8
0
  6
Continuous
 62
     7
370
    25
100
AcDbCircle
 10
-507.2383390503
 20
592.9041469151
 30
0.0
 40
0.4500000000001569
100
AcDbArc
 50
204.4698842763
 51
281.128126049
  0
ARC
  5
56E
330
1F
100
AcDbEntity
  8
0
  6
Continuous
 62
     7
370
    25
100
AcDbCircle
 10
-508.3646857059
 20
592.3915559851
 30
0.0
 40
0.787499999999983
100
AcDbArc
 50
24.4698842763
 51
117.7863678218
  0
CIRCLE
  5
56F
330
1F
100
AcDbEntity
  8
0
  6
Continuous
 62
     7
370
    25
100
AcDbCircle
 10
574.0034702949
 20
516.2595193032
 30
0.0
 40
6.637921400061256
  0
CIRCLE
  5
570
330
1F
100
AcDbEntity
  8
0
  6
Continuous
 62
     7
370
    25
100
AcDbCircle
 10
-1154.1749615435
 20
-1211.9189125354
 30
0.0
 40
6.637921400061468
  0
CIRCLE
  5
571
330
1F
100
AcDbEntity
  8
0
  6
Continuous
 62
     7
370
    25
100
AcDbCircle
 10
-1154.1749615436
 20
516.2595193031
 30
0.0
 40
6.637921400061327
  0
CIRCLE
  5
572
330
1F
100
AcDbEntity
  8
0
  6
Continuous
 62
     7
370
    25
100
AcDbCircle
 10
574.003470295
 20
-1211.9189125353
 30
0.0
 40
6.637921400061209
  0
LWPOLYLINE
  5
573
330
1F
100
AcDbEntity
  8
0
  6
Continuous
 62
     8
370
    25
100
AcDbPolyline
 90
        5
 70
   128
 43
0.0
 10
-1002.3892761783
 20
-1165.5771044894
 10
-1017.4391316952
 20
-1161.1093876611
 10
-1052.3639694306
 20
-1150.2235728548
 10
-1087.1612970883
 20
-1138.7700776637
 10
-1117.676385026
 20
-1128.0983972468
  0
LWPOLYLINE
  5
574
330
1F
100
AcDbEntity
  8
0
  6
Continuous
 62
     8
370
    25
100
AcDbPolyline
 90
       28
 70
   128
 43
0.0
 10
177.0678622206
 20
-1236.7964377269
 10
177.4586850963
 20
-1235.8940107272
 10
183.0692558805
 20
-1224.611220638
 10
186.4706413262
 20
-1218.5563677845
 10
190.1738609253
 20
-1212.6474834688
 10
194.2217121457
 20
-1206.9579529403
 10
198.6569924557
 20
-1201.5611614488
 10
202.2708656909
 20
-1197.7508873184
 10
206.1484091127
 20
-1194.1871949617
 10
210.2810540263
 20
-1190.9233884034
 10
214.7361142276
 20
-1187.9595479697
 10
219.4309995467
 20
-1185.3614409745
 10
224.3134137521
 20
-1183.1491786025
 10
230.2362501823
 20
-1181.0382720415
 10
236.3197922716
 20
-1179.4034764002
 10
242.4943810007
 20
-1178.2059786606
 10
251.1159585031
 20
-1177.2157553781
 10
259.8023590637
 20
-1176.9079848205
 10
268.5103270437
 20
-1177.1599595532
 10
277.1966068044
 20
-1177.8489721414
 10
285.8179427073
 20
-1178.8523151504
 10
304.1332565782
 20
-1181.6982258928
 10
322.2954254802
 20
-1185.3383686351
 10
340.3164007417
 20
-1189.6324654759
 10
358.2081336913
 20
-1194.4402385136
 10
375.9825756577
 20
-1199.621409847
 10
393.6516779695
 20
-1205.0357015745
 10
394.4912097761
 20
-1205.3075391154
  0
LWPOLYLINE
  5
575
330
1F
100
AcDbEntity
  8
0
  6
Continuous
 62
     8
370
    25
100
AcDbPolyline
 90
       15
 70
   128
 43
0.0
 10
-478.9292504454
 20
-929.0302425064
 10
-478.951514067
 20
-929.1481250647
 10
-481.9556685757
 20
-944.9681515396
 10
-485.0275503559
 20
-960.7598109495
 10
-488.2161480875
 20
-976.4733503377
 10
-491.5704504502
 20
-992.0590167471
 10
-495.1394461241
 20
-1007.4670572208
 10
-500.0741643899
 20
-1027.128085395
 10
-505.3206840425
 20
-1046.5485095172
 10
-510.8687194486
 20
-1065.7527935043
 10
-516.7079849748
 20
-1084.7654012731
 10
-522.4406191496
 20
-1102.4468356243
 10
-528.4383949853
 20
-1120.0552695137
 10
-534.710205399
 20
-1137.6197417793
 10
-540.3159277649
 20
-1152.6284123619
  0
LWPOLYLINE
  5
576
330
1F
100
AcDbEntity
  8
0
  6
Continuous
 62
     8
370
    25
100
AcDbPolyline
 90
       24
 70
   128
 43
0.0
 10
-140.1502116869
 20
113.6244278204
 10
-140.0280733493
 20
113.6001951614
 10
-109.6120505339
 20
107.6071500616
 10
-79.2167843962
 20
101.5706205809
 10
-48.9012665777
 20
95.3079281023
 10
-18.7244887202
 20
88.6363940086
 10
11.2801834194
 20
81.5238906425
 10
41.1657869988
 20
74.0668568318
 10
70.9372831488
 20
66.2905999213
 10
100.5996330005
 20
58.2204272563
 10
140.7790212156
 20
46.8118003548
 10
180.8010090582
 20
34.9236075768
 10
220.6800402092
 20
22.5758318323
 10
258.1528548172
 20
10.5656107564
 10
295.5397773123
 20
-1.8300930598
 10
332.8062380635
 20
-14.6851569049
 10
369.9176674396
 20
-28.0734580676
 10
406.8394958096
 20
-42.0688738368
 10
443.5371535424
 20
-56.7452815011
 10
459.1485033248
 20
-63.2231845515
 10
474.7117550895
 20
-69.8844864284
 10
490.1568614138
 20
-76.8325208396
 10
505.4137748754
 20
-84.1706214926
 10
513.5850031883
 20
-88.4371975227
  0
LWPOLYLINE
  5
577
330
1F
100
AcDbEntity
  8
0
  6
Continuous
 62
     8
370
    25
100
AcDbPolyline
 90
       46
 70
   128
 43
0.0
 10
538.1919339282
 20
-288.3158393856
 10
536.3662749597
 20
-291.7409070694
 10
525.7902960636
 20
-310.4417564738
 10
514.8328417093
 20
-328.9398739848
 10
506.781902735
 20
-342.1153761725
 10
498.5238540393
 20
-355.2365570134
 10
490.0109921903
 20
-368.2634152379
 10
481.1956137562
 20
-381.1559495762
 10
472.0300153053
 20
-393.8741587588
 10
462.4664934056
 20
-406.3780415159
 10
457.1657461443
 20
-412.9324612542
 10
451.6454795738
 20
-419.3310612987
 10
445.8372720104
 20
-425.4851651221
 10
441.2101210179
 20
-429.8980432597
 10
436.2952923917
 20
-434.0070675219
 10
431.0520527007
 20
-437.6701583238
 10
426.5404190762
 20
-440.2007330098
 10
421.7964133773
 20
-442.2975976001
 10
416.885309651
 20
-443.9303247603
 10
409.4942885608
 20
-445.5385714537
 10
401.9566910659
 20
-446.409927867
 10
394.3839569537
 20
-446.7216899363
 10
382.0188292517
 20
-446.4781699928
 10
369.6789151284
 20
-445.5777773001
 10
357.3775964629
 20
-444.2132923834
 10
345.1282551345
 20
-442.5774957679
 10
320.4466877278
 20
-438.760655302
 10
295.8993621573
 20
-434.3572044027
 10
265.9335681808
 20
-428.4000503051
 10
236.1109440359
 20
-421.9294092749
 10
206.4177486797
 20
-414.9975914481
 10
176.840241069
 20
-407.6569069611
 10
147.364680161
 20
-399.9596659502
 10
117.9773249126
 20
-391.9581785516
 10
82.6285430003
 20
-381.9329900438
 10
47.3649461888
 20
-371.486127093
 10
12.1852359389
 20
-360.625362885
 10
-22.9118862886
 20
-349.3584706059
 10
-57.927719033
 20
-337.6932234414
 10
-92.1565081165
 20
-325.899009802
 10
-126.3215361451
 20
-313.7209652609
 10
-160.3830423498
 20
-301.12138649
 10
-194.3012659621
 20
-288.0625701613
 10
-228.0364462131
 20
-274.5068129464
 10
-261.548822334
 20
-260.4164115174
 10
-261.6669293592
 20
-260.365573651
  0
LWPOLYLINE
  5
578
330
1F
100
AcDbEntity
  8
0
  6
Continuous
 62
     8
370
    25
100
AcDbPolyline
 90
       19
 70
   128
 43
0.0
 10
-23.3312841528
 20
454.9347257543
 10
-25.1100668747
 20
448.0337916279
 10
-31.1218376772
 20
425.5347470709
 10
-37.3260156533
 20
403.2008432079
 10
-43.715955523
 20
381.0277697205
 10
-50.2850120068
 20
359.0112162903
 10
-59.7869135892
 20
328.3882142465
 10
-69.6631807101
 20
297.9428990038
 10
-79.9447745581
 20
267.6038241049
 10
-86.6429671318
 20
248.5249063498
 10
-93.535485209
 20
229.4409084055
 10
-100.6358313849
 20
210.3479450027
 10
-107.9575082546
 20
191.2421308718
 10
-115.5942230491
 20
171.9224340109
 10
-123.4794443437
 20
152.5958702034
 10
-128.9136781347
 20
139.6263104502
 10
-134.4572543692
 20
126.6678338934
 10
-140.0997083721
 20
113.7390174005
 10
-140.1502116869
 20
113.6244278204
  0
LWPOLYLINE
  5
579
330
1F
100
AcDbEntity
  8
0
  6
Continuous
 62
     8
370
    25
100
AcDbPolyline
 90
        7
 70
   128
 43
0.0
 10
528.5102514127
 20
370.3331400676
 10
472.4159384831
 20
386.5753251339
 10
421.2184990374
 20
401.5104702475
 10
370.0284238489
 20
416.6079412744
 10
318.8569890339
 20
431.9314938329
 10
276.960517368
 20
444.6718526492
 10
267.6955233126
 20
447.538625092
  0
LWPOLYLINE
  5
57A
330
1F
100
AcDbEntity
  8
0
  6
Continuous
 62
     8
370
    25
100
AcDbPolyline
 90
       59
 70
   128
 43
0.0
 10
585.2634211803
 20
-909.0094127658
 10
583.2953435924
 20
-908.4218195887
 10
552.6095270068
 20
-898.8567742807
 10
522.1576970485
 20
-888.9674274728
 10
491.7961539005
 20
-878.6589415198
 10
461.5667592501
 20
-867.8571766048
 10
431.5113747844
 20
-856.4879929107
 10
410.3799280136
 20
-848.02810881
 10
389.4451918111
 20
-839.0543601278
 10
375.4524053458
 20
-832.580827373
 10
361.7083120109
 20
-825.5879018618
 10
354.8236178985
 20
-821.7466970604
 10
348.0872137783
 20
-817.6232499971
 10
341.6177412385
 20
-813.1184924591
 10
335.5338418672
 20
-808.1333562338
 10
331.8986957158
 20
-804.6140506196
 10
328.5628568354
 20
-800.8008735181
 10
325.6224387259
 20
-796.6939859272
 10
323.2103220154
 20
-792.3837917046
 10
321.2825376032
 20
-787.8215461805
 10
319.8594603632
 20
-783.0961148115
 10
318.719428886
 20
-776.7676271625
 10
318.235213328
 20
-770.1755308721
 10
318.3072212356
 20
-763.5577782955
 10
318.8170159378
 20
-756.9566059943
 10
319.6461607634
 20
-750.4142505303
 10
321.1725230099
 20
-741.4028035702
 10
323.0456025526
 20
-732.4764705259
 10
325.1743398192
 20
-723.6340077232
 10
329.1922029222
 20
-708.7934964197
 10
333.6013350967
 20
-694.12877187
 10
340.5575315483
 20
-672.831068852
 10
347.9855430957
 20
-651.7802916894
 10
355.8336811217
 20
-630.9326877934
 10
364.0502570097
 20
-610.2445045752
 10
370.9091314932
 20
-593.6574596858
 10
378.0342758122
 20
-577.1241319482
 10
385.4975205193
 20
-560.6748109045
 10
393.3706961674
 20
-544.3397860966
 10
401.7256333092
 20
-528.1493470664
 10
408.3358124768
 20
-516.2487398142
 10
415.5001427242
 20
-504.6112757651
 10
419.6155786996
 20
-498.6033229644
 10
424.0653627829
 20
-492.816991727
 10
428.957010531
 20
-487.4043788646
 10
432.0545023609
 20
-484.5043098815
 10
435.3780188327
 20
-481.8526338506
 10
438.9253379111
 20
-479.524619284
 10
444.3659958177
 20
-476.8633467915
 10
450.125803302
 20
-474.9728758393
 10
456.9057242469
 20
-473.6401804356
 10
463.8099944572
 20
-472.9850489009
 10
470.7658223537
 20
-472.839795341
 10
477.7004163569
 20
-473.0367338613
 10
492.2658969079
 20
-474.0814532946
 10
506.7729628001
 20
-475.7706580558
 10
521.2202784126
 20
-477.9176245747
 10
535.6065081246
 20
-480.3356292815
 10
562.4486157616
 20
-485.3494585807
  0
LWPOLYLINE
  5
57B
330
1F
100
AcDbEntity
  8
0
  6
Continuous
 62
     8
370
    25
100
AcDbPolyline
 90
       45
 70
   128
 43
0.0
 10
-261.6669293592
 20
-260.365573651
 10
-261.5414952856
 20
-260.3938596867
 10
-232.2128353745
 20
-266.7843139514
 10
-202.8165242605
 20
-272.8523817658
 10
-173.3936433146
 20
-278.7497394297
 10
-143.9852739079
 20
-284.6280632423
 10
-114.6324974113
 20
-290.6390295033
 10
-78.0509569687
 20
-298.442382125
 10
-41.5782020548
 20
-306.5430655791
 10
-5.2267505772
 20
-314.9518336266
 10
30.9908795566
 20
-323.6794400291
 10
79.0593500749
 20
-335.8234052856
 10
126.9009156587
 20
-348.5845688594
 10
174.5166582448
 20
-362.0095979353
 10
211.0638559704
 20
-372.8601465045
 10
247.4896463361
 20
-384.1945027585
 10
283.8003570713
 20
-396.0295621854
 10
320.0023159057
 20
-408.3822202735
 10
332.563856778
 20
-412.8901675739
 10
345.1089775285
 20
-417.5177640782
 10
357.6834926485
 20
-422.0980444722
 10
370.3332166292
 20
-426.4640434415
 10
383.1039639617
 20
-430.4487956719
 10
396.0415491372
 20
-433.8853358492
 10
400.8807626491
 20
-434.9313735332
 10
405.797661548
 20
-435.6800744526
 10
410.7364728781
 20
-435.9660729379
 10
415.6414236835
 20
-435.6240033195
 10
419.9433468128
 20
-434.6265172737
 10
424.0127940553
 20
-432.9208326773
 10
427.3255789873
 20
-430.857841627
 10
431.6068554626
 20
-427.2280177174
 10
435.4098833876
 20
-423.0646920253
 10
438.8440204028
 20
-418.6078291721
 10
443.3583683135
 20
-412.0021183532
 10
447.5644677593
 20
-405.2110227866
 10
451.5811374724
 20
-398.3304453954
 10
460.6734881261
 20
-382.245606062
 10
469.5428417513
 20
-366.1507868688
 10
478.279637533
 20
-350.0824403497
 10
486.9743146565
 20
-334.0770190384
 10
495.7173123069
 20
-318.1709754688
 10
508.5941702611
 20
-295.1765169725
 10
521.5286607121
 20
-272.2159221107
 10
533.5537226478
 20
-250.6403006849
  0
LWPOLYLINE
  5
57C
330
1F
100
AcDbEntity
  8
0
  6
Continuous
 62
     8
370
    25
100
AcDbPolyline
 90
       24
 70
   128
 43
0.0
 10
516.2184160201
 20
-109.8280400398
 10
512.1524892614
 20
-108.1792366892
 10
496.7233289223
 20
-102.5433561893
 10
481.1408937996
 20
-97.3268765535
 10
465.456895685
 20
-92.4114143942
 10
449.7230463699
 20
-87.6785863239
 10
433.9910576459
 20
-83.0100089551
 10
388.7511276672
 20
-69.648768428
 10
343.5427783235
 20
-56.392146044
 10
298.4049829596
 20
-43.0925737575
 10
253.37671492
 20
-29.6024835232
 10
208.4969475494
 20
-15.7743072958
 10
164.4624726641
 20
-1.759912873
 10
120.5589752879
 20
12.6753051056
 10
76.795863873
 20
27.6041359191
 10
33.1825468715
 20
43.0993688466
 10
4.0862204628
 20
53.8278504221
 10
-24.927357797
 20
64.8894766545
 10
-53.8383474374
 20
76.3210472396
 10
-75.5309609857
 20
85.2221551738
 10
-97.1371358942
 20
94.4030751591
 10
-118.6436182835
 20
103.8557808096
 10
-140.0371542748
 20
113.5722457393
 10
-140.1502116869
 20
113.6244278204
  0
LWPOLYLINE
  5
57D
330
1F
100
AcDbEntity
  8
0
  6
Continuous
 62
     8
370
    25
100
AcDbPolyline
 90
       22
 70
   128
 43
0.0
 10
315.5584734515
 20
-1216.73917679
 10
299.82598129
 20
-1210.7944492367
 10
279.0200431008
 20
-1203.4721415008
 10
271.7203591114
 20
-1201.0549408517
 10
264.3478646449
 20
-1198.7847616117
 10
256.8976677508
 20
-1196.806704889
 10
249.3648764785
 20
-1195.2658717921
 10
241.7445988773
 20
-1194.3073634293
 10
236.8938425636
 20
-1194.1243589838
 10
232.0380607392
 20
-1194.4224303574
 10
227.2774343788
 20
-1195.3058494208
 10
223.4745409748
 20
-1196.5567646048
 10
219.8475997037
 20
-1198.2834469579
 10
216.4870966125
 20
-1200.4436497944
 10
213.3156990465
 20
-1203.101221323
 10
210.4470992629
 20
-1206.0938509802
 10
207.872992797
 20
-1209.3248362582
 10
204.5202918719
 20
-1214.3917931646
 10
201.5947198486
 20
-1219.7185080831
 10
199.0121070698
 20
-1225.2190939804
 10
196.6882838781
 20
-1230.8076638231
 10
195.4769245616
 20
-1234.1302976637
  0
LWPOLYLINE
  5
57E
330
1F
100
AcDbEntity
  8
0
  6
Continuous
 62
     8
370
    25
100
AcDbPolyline
 90
        8
 70
   128
 43
0.0
 10
-1112.8630548876
 20
-1094.8634986722
 10
-1080.4648007304
 20
-1102.5079780978
 10
-1044.415123668
 20
-1111.1425060874
 10
-1008.4634690971
 20
-1119.9590188865
 10
-972.2656157351
 20
-1129.1093474604
 10
-936.1824447175
 20
-1138.5544985701
 10
-900.2216665997
 20
-1148.346364622
 10
-894.540195253
 20
-1149.9575824244
  0
LWPOLYLINE
  5
57F
330
1F
100
AcDbEntity
  8
0
  6
Continuous
 62
     8
370
    25
100
AcDbPolyline
 90
       28
 70
   128
 43
0.0
 10
-478.9292504454
 20
-929.0302425064
 10
-479.045034835
 20
-929.0059778313
 10
-514.2490044288
 20
-921.3403819298
 10
-549.33593791
 20
-913.1440687539
 10
-584.2870868354
 20
-904.448653032
 10
-619.0837027619
 20
-895.2857494926
 10
-653.7070372463
 20
-885.6869728641
 10
-688.1383418454
 20
-875.683937875
 10
-723.7530500845
 20
-864.8525311078
 10
-759.1707983654
 20
-853.5685136184
 10
-794.3882501083
 20
-841.8311597316
 10
-829.4020687333
 20
-829.6397437722
 10
-860.9071253807
 20
-818.2112235794
 10
-892.2480135284
 20
-806.3573801669
 10
-923.4087074066
 20
-794.0224488027
 10
-944.5179419343
 20
-785.3121968815
 10
-965.514008078
 20
-776.2882427505
 10
-986.3629419973
 20
-766.8822615326
 10
-1000.5830246211
 20
-760.1570374443
 10
-1014.6838905204
 20
-753.1501571006
 10
-1028.6180260031
 20
-745.7899180085
 10
-1038.271253515
 20
-740.3672083731
 10
-1047.7737385306
 20
-734.6630674458
 10
-1057.0622795159
 20
-728.60791864
 10
-1063.699590081
 20
-723.899797909
 10
-1070.1375415128
 20
-718.8918646547
 10
-1076.2759270603
 20
-713.5292090002
 10
-1081.2900092881
 20
-708.4857034054
  0
LWPOLYLINE
  5
580
330
1F
100
AcDbEntity
  8
0
  6
Continuous
 62
     8
370
    25
100
AcDbPolyline
 90
       55
 70
   128
 43
0.0
 10
-1094.3637740282
 20
-602.2893488936
 10
-1093.9971468517
 20
-600.6003131093
 10
-1091.33829278
 20
-589.5215208771
 10
-1086.575653515
 20
-571.3727949113
 10
-1081.3674138518
 20
-553.3932822238
 10
-1075.7570869244
 20
-535.5411383607
 10
-1070.9582675661
 20
-521.2093696946
 10
-1065.8688361401
 20
-506.9221992353
 10
-1060.4326176747
 20
-492.6959387865
 10
-1054.5934371981
 20
-478.5469001519
 10
-1050.7287060098
 20
-469.6980122012
 10
-1046.6419600813
 20
-460.8578589658
 10
-1042.2300529926
 20
-452.1324398189
 10
-1037.3898383238
 20
-443.6277541334
 10
-1032.0181696549
 20
-435.4498012824
 10
-1026.0119005661
 20
-427.7045806391
 10
-1022.0160446985
 20
-423.3482061935
 10
-1017.6400090122
 20
-419.34590042
 10
-1012.8772729454
 20
-415.8337056534
 10
-1008.8639898937
 20
-413.5011016662
 10
-1004.6326445813
 20
-411.5580916695
 10
-1000.2473371503
 20
-410.0177827871
 10
-994.3430397745
 20
-408.5704414611
 10
-988.3168535911
 20
-407.6541303861
 10
-982.2464293814
 20
-407.1626075799
 10
-970.3845282072
 20
-406.9987962679
 10
-958.5237064361
 20
-407.6107815341
 10
-946.6825383643
 20
-408.8095325271
 10
-934.8795982877
 20
-410.4060183953
 10
-923.1334605025
 20
-412.2112082872
 10
-894.4850882966
 20
-417.1291941967
 10
-865.9796479199
 20
-422.7186269113
 10
-837.6054957312
 20
-428.8191214865
 10
-809.3509880896
 20
-435.2702929779
 10
-771.6315417798
 20
-444.3425863685
 10
-734.0957517385
 20
-453.9151294482
 10
-696.744351471
 20
-463.9625186916
 10
-663.1785831224
 20
-473.4214977277
 10
-629.7481711097
 20
-483.2790286787
 10
-596.461424056
 20
-493.5828992743
 10
-563.3266505848
 20
-504.3808972444
 10
-530.3521593195
 20
-515.7208103188
 10
-502.8064781839
 20
-525.7121288743
 10
-475.4039478017
 20
-536.2238998741
 10
-448.1849972227
 20
-547.3357138609
 10
-427.7727309332
 20
-556.1801719199
 10
-407.5182603971
 20
-565.467545567
 10
-393.0446522828
 20
-572.4923014133
 10
-378.6930733897
 20
-579.793105624
 10
-371.7428121794
 20
-583.4122102793
 10
-368.9801050082
 20
-584.8568208323
 10
-367.9519692781
 20
-585.3952741194
 10
-367.580243682
 20
-585.5900648077
 10
-367.4688235221
 20
-585.6484623695
 10
-367.3739113589
 20
-585.6982119161
  0
LWPOLYLINE
  5
581
330
1F
100
AcDbEntity
  8
0
  6
Continuous
 62
     8
370
    25
100
AcDbPolyline
 90
       55
 70
   128
 43
0.0
 10
-367.3739113589
 20
-585.6982119161
 10
-367.4799396474
 20
-585.6826754977
 10
-390.6026648092
 20
-582.2617368062
 10
-413.6972136356
 20
-578.7150337545
 10
-436.7310197163
 20
-574.9518541897
 10
-459.6715166408
 20
-570.8814859588
 10
-482.4861379988
 20
-566.4132169089
 10
-510.7912770243
 20
-560.3210014502
 10
-538.9583926039
 20
-553.7982648939
 10
-566.9991600414
 20
-546.8901495731
 10
-594.9252546409
 20
-539.6417978211
 10
-633.2183961063
 20
-529.1664813267
 10
-671.3634851796
 20
-518.1523913355
 10
-709.3843277261
 20
-506.6381900164
 10
-745.8846408127
 20
-495.0104810284
 10
-782.2885222879
 20
-482.8762376095
 10
-818.6470607733
 20
-470.4056704529
 10
-855.0113448905
 20
-457.7689902513
 10
-891.4324632611
 20
-445.1364076976
 10
-927.9615045068
 20
-432.6781334848
 10
-936.8168378594
 20
-429.6841261979
 10
-945.7140545665
 20
-426.7382532328
 10
-954.6684473521
 20
-423.9723804253
 10
-963.6953089397
 20
-421.518373611
 10
-972.8099320534
 20
-419.5080986259
 10
-982.0276094168
 20
-418.0734213056
 10
-987.1554811393
 20
-417.6332538137
 10
-992.3072437581
 20
-417.6445732497
 10
-997.3895592109
 20
-418.2910162137
 10
-1001.6079370031
 20
-419.5194154222
 10
-1005.5420302266
 20
-421.4568334392
 10
-1007.3284102251
 20
-422.6719997464
 10
-1010.8911896677
 20
-425.8617113963
 10
-1013.9564392398
 20
-429.5696930308
 10
-1016.5831871308
 20
-433.5798237397
 10
-1016.728960789
 20
-433.8267216098
 10
-1021.0274575777
 20
-441.9798556821
 10
-1024.6587927351
 20
-450.4271964823
 10
-1027.7804294613
 20
-459.079603206
 10
-1030.5498309565
 20
-467.8479350488
 10
-1033.1244604209
 20
-476.6430512065
 10
-1035.6617810545
 20
-485.3758108748
 10
-1041.7144812431
 20
-505.8847500197
 10
-1047.731131619
 20
-526.2548867277
 10
-1053.8100330611
 20
-546.5079177212
 10
-1060.0494864485
 20
-566.6655397227
 10
-1064.4074315071
 20
-580.0523220359
 10
-1068.900869028
 20
-593.442278544
 10
-1073.3575076535
 20
-606.8929450058
 10
-1077.6050560262
 20
-620.4618571801
 10
-1081.4712227883
 20
-634.2065508257
 10
-1084.7837165824
 20
-648.1845617013
 10
-1085.8951282962
 20
-654.0732264571
 10
-1086.6758184019
 20
-660.0322749886
 10
-1086.8647885589
 20
-663.2025544778
  0
LWPOLYLINE
  5
582
330
1F
100
AcDbEntity
  8
0
  6
Continuous
 62
     8
370
    25
100
AcDbPolyline
 90
       31
 70
   128
 43
0.0
 10
-1085.0114266633
 20
-678.2571528142
 10
-1084.675477618
 20
-679.3367487214
 10
-1082.5593683339
 20
-683.5321871229
 10
-1081.486164602
 20
-685.1365499472
 10
-1078.6195875182
 20
-688.5920203226
 10
-1075.3413486011
 20
-691.6929694731
 10
-1071.791932965
 20
-694.4665661543
 10
-1065.8473430958
 20
-698.3408321138
 10
-1059.6061818149
 20
-701.7418704714
 10
-1053.1698194697
 20
-704.7816501022
 10
-1046.6396264074
 20
-707.5721398814
 10
-1031.9987570829
 20
-713.2288895346
 10
-1017.1989149393
 20
-718.4050085446
 10
-995.3040351216
 20
-725.6434808036
 10
-973.3783705763
 20
-732.6809518785
 10
-941.0173864757
 20
-743.0970362104
 10
-908.7608721749
 20
-753.6988518293
 10
-861.3447870774
 20
-769.9219250113
 10
-814.1772865517
 20
-786.876659868
 10
-779.5087843424
 20
-799.8747440148
 10
-744.942264759
 20
-813.276981968
 10
-710.4740930923
 20
-827.069666375
 10
-676.1006346334
 20
-841.2390898832
 10
-643.1381044547
 20
-855.2030882008
 10
-610.2513344277
 20
-869.4793035886
 10
-577.4438215472
 20
-884.0378287123
 10
-552.8199943089
 20
-895.1543845689
 10
-528.2343238747
 20
-906.3927163782
 10
-503.6634203688
 20
-917.7415149146
 10
-479.0371816367
 20
-928.981809976
 10
-478.9292504454
 20
-929.0302425064
  0
LWPOLYLINE
  5
583
330
1F
100
AcDbEntity
  8
0
  6
Continuous
 62
     8
370
    25
100
AcDbPolyline
 90
       19
 70
   128
 43
0.0
 10
-140.1502116869
 20
113.6244278204
 10
-140.1237156623
 20
113.7468178419
 10
-136.5445696399
 20
129.9363822782
 10
-132.8281271669
 20
146.0823287584
 10
-128.9805151974
 20
162.1618904162
 10
-125.0078606857
 20
178.1523003849
 10
-120.9162905859
 20
194.0307917979
 10
-115.5323573897
 20
214.1260249356
 10
-109.9706458921
 20
234.075756163
 10
-104.2403378911
 20
253.891368321
 10
-98.350615185
 20
273.5842442503
 10
-90.1378204459
 20
300.0792230924
 10
-81.634869535
 20
326.457864861
 10
-72.8268738615
 20
352.7622119371
 10
-63.6989448349
 20
379.0343067018
 10
-54.2361938643
 20
405.3161915359
 10
-46.0111452946
 20
427.4283999182
 10
-37.5203607483
 20
449.5743130735
 10
-34.8423119004
 20
456.3518409593
  0
LWPOLYLINE
  5
584
330
1F
100
AcDbEntity
  8
0
  6
Continuous
 62
     8
370
    25
100
AcDbPolyline
 90
       17
 70
   128
 43
0.0
 10
-561.76541
 20
-1149.9877804322
 10
-559.1279664961
 20
-1140.2495598259
 10
-553.0637981794
 20
-1119.0699851452
 10
-546.6629730915
 20
-1098.0810528712
 10
-539.9044417715
 20
-1077.228415577
 10
-533.6364647484
 20
-1058.9353364873
 10
-527.0401861954
 20
-1040.6587523657
 10
-520.0943080168
 20
-1022.3850868673
 10
-512.7775321164
 20
-1004.1007636471
 10
-507.5886309402
 20
-991.6761378468
 10
-502.2197310669
 20
-979.2420325433
 10
-496.6788539552
 20
-966.8118910397
 10
-492.3695247173
 20
-957.3978502046
 10
-487.9736075095
 20
-947.9935275769
 10
-483.480774873
 20
-938.5699991602
 10
-478.980528426
 20
-929.138697728
 10
-478.9292504454
 20
-929.0302425064
  0
LWPOLYLINE
  5
585
330
1F
100
AcDbEntity
  8
0
  6
Continuous
 62
     8
370
    25
100
AcDbPolyline
 90
       57
 70
   128
 43
0.0
 10
-1179.8564579006
 20
92.1557130387
 10
-1161.0058473356
 20
84.8112159584
 10
-1131.0771177749
 20
72.7080164794
 10
-1101.2995023388
 20
60.162808992
 10
-1078.9865850562
 20
50.414366017
 10
-1056.7909688792
 20
40.3241994221
 10
-1034.7897495736
 20
29.7671091267
 10
-1013.0600229051
 20
18.6178950503
 10
-1005.3631195205
 20
14.4978702911
 10
-997.6949139599
 20
10.2561565663
 10
-990.1490714115
 20
5.7994169782
 10
-982.8192570634
 20
1.0343146294
 10
-975.7991361039
 20
-4.1324873778
 10
-969.1823737209
 20
-9.794325941
 10
-965.6901338558
 20
-13.2921699394
 10
-962.4994526992
 20
-17.0762008348
 10
-959.7186595553
 20
-21.1513397212
 10
-957.0785680741
 20
-26.3515224449
 10
-955.1669564955
 20
-31.8605000516
 10
-954.1358106792
 20
-36.3804679823
 10
-953.4579125337
 20
-40.9717808923
 10
-953.0656462644
 20
-45.5883348772
 10
-952.8533287986
 20
-55.9884814095
 10
-953.3322747477
 20
-66.3670602973
 10
-954.3363658918
 20
-76.7030140008
 10
-955.6994840107
 20
-86.9752849798
 10
-957.2555108846
 20
-97.1628156944
 10
-960.5932060525
 20
-116.595483649
 10
-964.4002347011
 20
-135.8464995235
 10
-968.5981196485
 20
-154.9395278743
 10
-973.1083837133
 20
-173.8982332577
 10
-979.0255351345
 20
-197.0764588317
 10
-985.4010809782
 20
-220.1468832673
 10
-992.2886522244
 20
-243.1308806518
 10
-996.7046506316
 20
-257.0316067282
 10
-1001.3773882494
 20
-270.9195310109
 10
-1006.4410367502
 20
-284.7205429796
 10
-1012.0297678062
 20
-298.3605321137
 10
-1018.2777530897
 20
-311.765387893
 10
-1021.205118729
 20
-317.4153295414
 10
-1024.3712888877
 20
-322.9761934388
 10
-1027.8377584481
 20
-328.3582605077
 10
-1031.666022292
 20
-333.4718116705
 10
-1035.9175753015
 20
-338.2271278498
 10
-1040.6805192554
 20
-342.5063002708
 10
-1045.9658914057
 20
-346.1239352641
 10
-1049.9302835696
 20
-348.1650945958
 10
-1054.0894359028
 20
-349.8104447298
 10
-1058.374683487
 20
-351.0641357762
 10
-1064.22405142
 20
-352.18144382
 10
-1070.165397741
 20
-352.7721551203
 10
-1076.1281650638
 20
-352.9407237587
 10
-1084.272862587
 20
-352.6666491835
 10
-1092.3975182208
 20
-351.949428801
 10
-1100.4847339925
 20
-350.9149934314
 10
-1116.3904631721
 20
-348.2972838726
 10
-1125.8683545925
 20
-346.3820664203
  0
LWPOLYLINE
  5
586
330
1F
100
AcDbEntity
  8
0
  6
Continuous
 62
     8
370
    25
100
AcDbPolyline
 90
       24
 70
   128
 43
0.0
 10
-937.0217028775
 20
515.0996007873
 10
-938.7713668409
 20
509.7879264809
 10
-942.6917152759
 20
500.0176320804
 10
-947.3619647893
 20
490.5786380505
 10
-951.053886622
 20
484.4731906595
 10
-955.3105105739
 20
478.7199140159
 10
-960.1764167075
 20
473.4973371373
 10
-964.6300998222
 20
469.7507084549
 10
-969.5000290461
 20
466.5195804869
 10
-974.6934250708
 20
463.8746817023
 10
-980.2026333631
 20
461.8184563023
 10
-985.9082637972
 20
460.318335755
 10
-991.7139583262
 20
459.3208034812
 10
-999.0501070139
 20
458.6693489693
 10
-1006.4304841489
 20
458.5652454454
 10
-1013.8134160145
 20
458.9104723626
 10
-1021.1572288942
 20
459.607009174
 10
-1031.2603195146
 20
461.014735647
 10
-1041.298747547
 20
462.8449322315
 10
-1051.2680391068
 20
464.9994508732
 10
-1070.5962422976
 20
469.8047387506
 10
-1089.7594501914
 20
475.216302735
 10
-1108.7785433422
 20
481.1218933072
 10
-1125.8323421953
 20
486.796337813
  0
LWPOLYLINE
  5
587
330
1F
100
AcDbEntity
  8
0
  6
Continuous
 62
     8
370
    25
100
AcDbPolyline
 90
       59
 70
   128
 43
0.0
 10
-1128.5176737644
 20
-324.8620189369
 10
-1126.9428944357
 20
-325.5043198494
 10
-1112.323315004
 20
-331.1551826977
 10
-1097.5485822104
 20
-336.3889506848
 10
-1090.3698191137
 20
-338.696797472
 10
-1083.1092543196
 20
-340.740205312
 10
-1075.7525745682
 20
-342.3697141992
 10
-1070.6827935935
 20
-343.1362878655
 10
-1065.560402145
 20
-343.463643262
 10
-1060.4603300751
 20
-343.182522943
 10
-1056.2253602246
 20
-342.3245576486
 10
-1052.1905474171
 20
-340.7987320529
 10
-1050.3065723073
 20
-339.7778288208
 10
-1047.4593462773
 20
-337.7693123213
 10
-1044.887106259
 20
-335.3963841065
 10
-1042.6034302104
 20
-332.7604981643
 10
-1039.3381984002
 20
-328.0180867364
 10
-1036.5767334764
 20
-322.9530127892
 10
-1034.2136072597
 20
-317.6632753673
 10
-1032.1433915706
 20
-312.2468735149
 10
-1030.2606582295
 20
-306.8018062765
 10
-1025.9077706527
 20
-293.0031468195
 10
-1021.9946868749
 20
-279.127642614
 10
-1018.3784490384
 20
-265.2190738391
 10
-1014.9160992859
 20
-251.3212206737
 10
-1011.46467976
 20
-237.4778632969
 10
-1005.5857962909
 20
-214.4166637597
 10
-999.6208839893
 20
-191.4441643663
 10
-993.5222747112
 20
-168.5247907716
 10
-988.4391166524
 20
-149.9384042287
 10
-983.252062267
 20
-131.3269520415
 10
-978.0076696475
 20
-112.6558336201
 10
-972.7524968866
 20
-93.8904483742
 10
-970.0723463226
 20
-84.4382720856
 10
-967.4202448119
 20
-74.9270691554
 10
-964.9961155499
 20
-65.3347840318
 10
-962.9998817319
 20
-55.639361163
 10
-961.6314665533
 20
-45.818744997
 10
-961.3480713789
 20
-41.8570468107
 10
-961.3680789688
 20
-37.8779952272
 10
-961.8178015491
 20
-33.9366581283
 10
-962.7552335145
 20
-30.3627582041
 10
-964.2674051241
 20
-26.9928052585
 10
-965.2835273764
 20
-25.3623328322
 10
-967.7721456724
 20
-22.3367002482
 10
-970.6974195509
 20
-19.6880854009
 10
-973.8938207158
 20
-17.3879714906
 10
-974.3812910225
 20
-17.0743762841
 10
-981.5342024109
 20
-13.0111267781
 10
-989.0118439655
 20
-9.566433996
 10
-996.7257823849
 20
-6.5938978429
 10
-1004.5875843681
 20
-3.9471182235
 10
-1012.5088166139
 20
-1.4796950427
 10
-1020.4010458211
 20
0.9547717944
 10
-1057.3449591918
 20
12.4660310889
 10
-1094.2522253736
 20
23.8771796299
 10
-1131.0824800144
 20
35.3444629392
 10
-1167.7953587621
 20
47.0241265386
 10
-1174.575445407
 20
49.2587903774
  0
LWPOLYLINE
  5
588
330
1F
100
AcDbEntity
  8
0
  6
Continuous
 62
     8
370
    25
100
AcDbPolyline
 90
       56
 70
   128
 43
0.0
 10
566.1749785251
 20
-515.6181798659
 10
548.6294597738
 20
-509.3159857536
 10
530.5681973307
 20
-502.8635232713
 10
512.4217101562
 20
-496.6359491666
 10
494.1322074569
 20
-490.8330236709
 10
475.6418984393
 20
-485.654507016
 10
470.8128073116
 20
-484.4535258639
 10
465.9165078376
 20
-483.4104423439
 10
460.9807541035
 20
-482.661771742
 10
456.0333001957
 20
-482.3440293444
 10
451.1019002005
 20
-482.5937304371
 10
447.3464796881
 20
-483.3120335937
 10
443.7592391917
 20
-484.6167712082
 10
441.879866886
 20
-485.6196394684
 10
439.0711606298
 20
-487.6403131329
 10
436.5622298347
 20
-490.0521656327
 10
434.3439041059
 20
-492.7200313673
 10
430.6947396402
 20
-498.2176529332
 10
427.5755185945
 20
-504.0444820303
 10
424.7885635506
 20
-510.0221433195
 10
419.6901814262
 20
-522.123909299
 10
414.9679730942
 20
-534.322775138
 10
407.0916212954
 20
-555.318962555
 10
399.351952446
 20
-576.2270238221
 10
391.6352798919
 20
-597.0356932827
 10
383.8279169788
 20
-617.7337052805
 10
373.1656109167
 20
-645.2321719961
 10
362.2989987281
 20
-672.7049669979
 10
351.3080162537
 20
-700.2735728371
 10
345.1590007921
 20
-715.7211241237
 10
339.1824978241
 20
-731.3161028506
 10
333.659626901
 20
-747.1502891547
 10
331.8420725993
 20
-752.8761686245
 10
330.1809942463
 20
-758.6862064798
 10
328.817499168
 20
-764.570094107
 10
327.8926946908
 20
-770.5175228928
 10
327.547688141
 20
-776.5181842236
 10
327.9294905947
 20
-781.8830235672
 10
328.8896869495
 20
-786.0099772084
 10
330.5118326812
 20
-789.9238422537
 10
332.3235005861
 20
-792.8508520335
 10
335.0231567996
 20
-796.0304500684
 10
338.1538177982
 20
-798.8268767727
 10
341.5639135052
 20
-801.2601564718
 10
347.7705564269
 20
-804.7888173176
 10
354.2991478451
 20
-807.7339771474
 10
361.0256030481
 20
-810.2596293564
 10
367.8258373246
 20
-812.5297673398
 10
382.0230750711
 20
-816.7965466394
 10
396.3386690736
 20
-820.6379546309
 10
418.028912992
 20
-826.0393377508
 10
439.7690649338
 20
-831.1785563311
 10
481.2139259438
 20
-840.7847266426
 10
522.595133188
 20
-850.3918414896
 10
563.8540878383
 20
-860.2053507151
 10
591.3477751677
 20
-866.9983971387
  0
LWPOLYLINE
  5
589
330
1F
100
AcDbEntity
  8
0
  6
Continuous
 62
     8
370
    25
100
AcDbPolyline
 90
       22
 70
   128
 43
0.0
 10
-1077.0775145966
 20
494.8156556418
 10
-1068.4258902802
 20
491.1043327859
 10
-1046.6461703125
 20
482.3897261642
 10
-1038.0714756324
 20
479.1942101374
 10
-1029.4151258657
 20
476.2197242281
 10
-1020.6572446471
 20
473.5686665243
 10
-1013.847903601
 20
471.8087409642
 10
-1006.9434476517
 20
470.3849649479
 10
-999.9738720496
 20
469.4398609626
 10
-992.969172045
 20
469.1159514956
 10
-987.9944519881
 20
469.3707099838
 10
-983.064134095
 20
470.1478200941
 10
-978.2988206324
 20
471.5390481012
 10
-973.4185295275
 20
473.8491771468
 10
-969.0035060722
 20
476.9480740767
 10
-966.3575398725
 20
479.4284321858
 10
-963.3587323902
 20
482.9638370666
 10
-960.7537883583
 20
486.8205414361
 10
-958.5001825876
 20
490.903605084
 10
-956.5553898886
 20
495.1180878001
 10
-953.0543034441
 20
504.4857216775
 10
-950.5615826202
 20
513.1386526866
  0
LWPOLYLINE
  5
58A
330
1F
100
AcDbEntity
  8
0
  6
Continuous
 62
     8
370
    25
100
AcDbPolyline
 90
        6
 70
   128
 43
0.0
 10
341.7453453359
 20
458.2630820747
 10
379.0922051253
 20
449.07596255
 10
430.8700111794
 20
435.8151266196
 10
482.4537435181
 20
421.9981444454
 10
523.339417103
 20
410.5661807726
 10
533.8899021455
 20
407.4783475081
  0
LINE
  5
58B
330
1F
100
AcDbEntity
  8
0
  6
Continuous
 62
     8
370
    25
100
AcDbLine
 10
618.8609653776
 20
604.1552968782
 30
0.0
 11
635.9675433738
 21
604.1552968782
 31
0.0
  0
LINE
  5
58C
330
1F
100
AcDbEntity
  8
0
  6
Continuous
 62
     8
370
    25
100
AcDbLine
 10
-1216.1390346224
 20
604.1552968782
 30
0.0
 11
-1199.0324566262
 21
604.1552968782
 31
0.0
  0
LINE
  5
58D
330
1F
100
AcDbEntity
  8
0
  6
Continuous
 62
     8
370
    25
100
AcDbLine
 10
-1199.0324566262
 20
-1299.8146901104
 30
0.0
 11
-1216.1390346224
 21
-1299.8146901104
 31
0.0
  0
LINE
  5
58E
330
1F
100
AcDbEntity
  8
0
  6
Continuous
 62
     8
370
    25
100
AcDbLine
 10
635.9675433738
 20
-1299.8146901104
 30
0.0
 11
618.8609653776
 21
-1299.8146901104
 31
0.0
  0
LINE
  5
58F
330
1F
100
AcDbEntity
  8
0
  6
Continuous
 62
     8
370
    25
100
AcDbLine
 10
-1242.0707391186
 20
561.1170143858
 30
0.0
 11
-1242.0707391186
 21
578.223592382
 31
0.0
  0
LINE
  5
590
330
1F
100
AcDbEntity
  8
0
  6
Continuous
 62
     8
370
    25
100
AcDbLine
 10
661.89924787
 20
-1256.776407618
 30
0.0
 11
661.89924787
 21
-1273.8829856142
 31
0.0
  0
LINE
  5
591
330
1F
100
AcDbEntity
  8
0
  6
Continuous
 62
     8
370
    25
100
AcDbLine
 10
-1242.0707391186
 20
-1273.8829856142
 30
0.0
 11
-1242.0707391186
 21
-1256.776407618
 31
0.0
  0
LINE
  5
592
330
1F
100
AcDbEntity
  8
0
  6
Continuous
 62
     8
370
    25
100
AcDbLine
 10
661.89924787
 20
578.223592382
 30
0.0
 11
661.89924787
 21
561.1170143858
 31
0.0
  0
ENDSEC
  0
SECTION
  2
OBJECTS
  0
DICTIONARY
  5
C
330
0
100
AcDbDictionary
281
     1
  3
ACAD_GROUP
350
D
  3
ACAD_LAYOUT
350
1A
  3
ACAD_MLINESTYLE
350
17
  3
ACAD_PLOTSETTINGS
350
19
  3
ACAD_PLOTSTYLENAME
350
E
  3
ACAD_SCALELIST
350
47
  3
DWGPROPS
350
593
  0
DICTIONARY
  5
D
102
{ACAD_REACTORS
330
C
102
}
330
C
100
AcDbDictionary
281
     1
  0
DICTIONARY
  5
1A
102
{ACAD_REACTORS
330
C
102
}
330
C
100
AcDbDictionary
281
     1
  3
Layout1
350
1E
  3
Layout2
350
26
  3
Model
350
22
  0
DICTIONARY
  5
17
102
{ACAD_REACTORS
330
C
102
}
330
C
100
AcDbDictionary
281
     1
  3
Standard
350
18
  0
DICTIONARY
  5
19
102
{ACAD_REACTORS
330
C
102
}
330
C
100
AcDbDictionary
281
     1
  0
ACDBDICTIONARYWDFLT
  5
E
102
{ACAD_REACTORS
330
C
102
}
330
C
100
AcDbDictionary
281
     1
  3
Normal
350
F
100
AcDbDictionaryWithDefault
340
F
  0
DICTIONARY
  5
47
102
{ACAD_REACTORS
330
C
102
}
330
C
100
AcDbDictionary
281
     1
  3
A0
350
48
  3
A1
350
49
  3
A2
350
4A
  3
A3
350
4B
  3
A4
350
4C
  3
A5
350
4D
  3
A6
350
4E
  3
A7
350
4F
  3
A8
350
50
  3
A9
350
51
  3
B0
350
52
  3
B1
350
53
  3
B2
350
54
  3
B3
350
55
  3
B4
350
56
  3
B5
350
57
  3
B6
350
58
  3
B7
350
59
  3
B8
350
5A
  3
B9
350
5B
  3
C0
350
5C
  3
C1
350
5D
  3
C2
350
5E
  3
C3
350
5F
  3
C4
350
60
  3
C5
350
61
  3
C6
350
62
  3
C7
350
63
  3
C8
350
64
  3
C9
350
65
  3
D0
350
66
  3
D1
350
67
  3
D2
350
68
  0
XRECORD
  5
593
102
{ACAD_REACTORS
330
C
102
}
330
C
100
AcDbXrecord
280
     1
  1
DWGPROPS COOKIE
  2

  3

  4

  6

  7

  8
Swing
  9

300
=
301
=
302
=
303
=
304
=
305
=
306
=
307
=
308
=
309
=
 40
0.0
 41
2459675.500914849
 42
2459675.500915197
  1

 90
        0
  0
LAYOUT
  5
1E
102
{ACAD_REACTORS
330
1A
102
}
330
1A
100
AcDbPlotSettings
  1

  2
none_device
  4

  6

 40
0.0
 41
0.0
 42
0.0
 43
0.0
 44
0.0
 45
0.0
 46
0.0
 47
0.0
 48
0.0
 49
0.0
140
0.0
141
0.0
142
1.0
143
1.0
 70
   688
 72
     1
 73
     0
 74
     5
  7

 75
    16
147
1.0
148
0.0
149
0.0
100
AcDbLayout
  1
Layout1
 70
     1
 71
     1
 10
0.0
 20
0.0
 11
420.0
 21
297.0
 12
0.0
 22
0.0
 32
0.0
 14
1.0000000000E+20
 24
1.0000000000E+20
 34
1.0000000000E+20
 15
-1.0000000000E+20
 25
-1.0000000000E+20
 35
-1.0000000000E+20
146
0.0
 13
0.0
 23
0.0
 33
0.0
 16
1.0
 26
0.0
 36
0.0
 17
0.0
 27
1.0
 37
0.0
 76
     0
330
1B
  0
LAYOUT
  5
26
102
{ACAD_REACTORS
330
1A
102
}
330
1A
100
AcDbPlotSettings
  1

  2
none_device
  4

  6

 40
0.0
 41
0.0
 42
0.0
 43
0.0
 44
0.0
 45
0.0
 46
0.0
 47
0.0
 48
0.0
 49
0.0
140
0.0
141
0.0
142
1.0
143
1.0
 70
   688
 72
     1
 73
     0
 74
     5
  7

 75
    16
147
1.0
148
0.0
149
0.0
100
AcDbLayout
  1
Layout2
 70
     1
 71
     2
 10
0.0
 20
0.0
 11
0.0
 21
0.0
 12
0.0
 22
0.0
 32
0.0
 14
0.0
 24
0.0
 34
0.0
 15
0.0
 25
0.0
 35
0.0
146
0.0
 13
0.0
 23
0.0
 33
0.0
 16
1.0
 26
0.0
 36
0.0
 17
0.0
 27
1.0
 37
0.0
 76
     0
330
23
  0
LAYOUT
  5
22
102
{ACAD_REACTORS
330
1A
102
}
330
1A
100
AcDbPlotSettings
  1

  2
none_device
  4
Letter_(8.50_x_11.00_Inches)
  6

 40
6.35
 41
6.35
 42
6.35000508
 43
6.35000508
 44
215.9
 45
279.4
 46
0.0
 47
0.0
 48
0.0
 49
0.0
140
0.0
141
0.0
142
1.0
143
1.0
 70
  1712
 72
     1
 73
     0
 74
     0
  7

 75
     0
147
1.0
148
0.0
149
0.0
100
AcDbLayout
  1
Model
 70
     1
 71
     0
 10
0.0
 20
0.0
 11
431.8
 21
279.4
 12
0.0
 22
0.0
 32
0.0
 14
0.0
 24
0.0
 34
0.0
 15
431.8
 25
279.4
 35
0.0
146
0.0
 13
0.0
 23
0.0
 33
0.0
 16
1.0
 26
0.0
 36
0.0
 17
0.0
 27
1.0
 37
0.0
 76
     0
330
1F
331
29
  0
MLINESTYLE
  5
18
102
{ACAD_REACTORS
330
17
102
}
330
17
100
AcDbMlineStyle
  2
Standard
 70
     0
  3

 62
   256
 51
90.0
 52
90.0
 71
     2
 49
0.5
 62
   256
  6
BYLAYER
 49
-0.5
 62
   256
  6
BYLAYER
  0
ACDBPLACEHOLDER
  5
F
102
{ACAD_REACTORS
330
E
102
}
330
E
  0
SCALE
  5
48
102
{ACAD_REACTORS
330
47
102
}
330
47
100
AcDbScale
 70
     0
300
1:1
140
1.0
141
1.0
290
     1
  0
SCALE
  5
49
102
{ACAD_REACTORS
330
47
102
}
330
47
100
AcDbScale
 70
     0
300
1:2
140
1.0
141
2.0
290
     0
  0
SCALE
  5
4A
102
{ACAD_REACTORS
330
47
102
}
330
47
100
AcDbScale
 70
     0
300
1:4
140
1.0
141
4.0
290
     0
  0
SCALE
  5
4B
102
{ACAD_REACTORS
330
47
102
}
330
47
100
AcDbScale
 70
     0
300
1:5
140
1.0
141
5.0
290
     0
  0
SCALE
  5
4C
102
{ACAD_REACTORS
330
47
102
}
330
47
100
AcDbScale
 70
     0
300
1:8
140
1.0
141
8.0
290
     0
  0
SCALE
  5
4D
102
{ACAD_REACTORS
330
47
102
}
330
47
100
AcDbScale
 70
     0
300
1:10
140
1.0
141
10.0
290
     0
  0
SCALE
  5
4E
102
{ACAD_REACTORS
330
47
102
}
330
47
100
AcDbScale
 70
     0
300
1:16
140
1.0
141
16.0
290
     0
  0
SCALE
  5
4F
102
{ACAD_REACTORS
330
47
102
}
330
47
100
AcDbScale
 70
     0
300
1:20
140
1.0
141
20.0
290
     0
  0
SCALE
  5
50
102
{ACAD_REACTORS
330
47
102
}
330
47
100
AcDbScale
 70
     0
300
1:30
140
1.0
141
30.0
290
     0
  0
SCALE
  5
51
102
{ACAD_REACTORS
330
47
102
}
330
47
100
AcDbScale
 70
     0
300
1:40
140
1.0
141
40.0
290
     0
  0
SCALE
  5
52
102
{ACAD_REACTORS
330
47
102
}
330
47
100
AcDbScale
 70
     0
300
1:50
140
1.0
141
50.0
290
     0
  0
SCALE
  5
53
102
{ACAD_REACTORS
330
47
102
}
330
47
100
AcDbScale
 70
     0
300
1:100
140
1.0
141
100.0
290
     0
  0
SCALE
  5
54
102
{ACAD_REACTORS
330
47
102
}
330
47
100
AcDbScale
 70
     0
300
2:1
140
2.0
141
1.0
290
     0
  0
SCALE
  5
55
102
{ACAD_REACTORS
330
47
102
}
330
47
100
AcDbScale
 70
     0
300
4:1
140
4.0
141
1.0
290
     0
  0
SCALE
  5
56
102
{ACAD_REACTORS
330
47
102
}
330
47
100
AcDbScale
 70
     0
300
8:1
140
8.0
141
1.0
290
     0
  0
SCALE
  5
57
102
{ACAD_REACTORS
330
47
102
}
330
47
100
AcDbScale
 70
     0
300
10:1
140
10.0
141
1.0
290
     0
  0
SCALE
  5
58
102
{ACAD_REACTORS
330
47
102
}
330
47
100
AcDbScale
 70
     0
300
100:1
140
100.0
141
1.0
290
     0
  0
SCALE
  5
59
102
{ACAD_REACTORS
330
47
102
}
330
47
100
AcDbScale
 70
     0
300
1/128" = 1'-0"
140
0.0078125
141
12.0
290
     0
  0
SCALE
  5
5A
102
{ACAD_REACTORS
330
47
102
}
330
47
100
AcDbScale
 70
     0
300
1/64" = 1'-0"
140
0.015625
141
12.0
290
     0
  0
SCALE
  5
5B
102
{ACAD_REACTORS
330
47
102
}
330
47
100
AcDbScale
 70
     0
300
1/32" = 1'-0"
140
0.03125
141
12.0
290
     0
  0
SCALE
  5
5C
102
{ACAD_REACTORS
330
47
102
}
330
47
100
AcDbScale
 70
     0
300
1/16" = 1'-0"
140
0.0625
141
12.0
290
     0
  0
SCALE
  5
5D
102
{ACAD_REACTORS
330
47
102
}
330
47
100
AcDbScale
 70
     0
300
3/32" = 1'-0"
140
0.09375
141
12.0
290
     0
  0
SCALE
  5
5E
102
{ACAD_REACTORS
330
47
102
}
330
47
100
AcDbScale
 70
     0
300
1/8" = 1'-0"
140
0.125
141
12.0
290
     0
  0
SCALE
  5
5F
102
{ACAD_REACTORS
330
47
102
}
330
47
100
AcDbScale
 70
     0
300
3/16" = 1'-0"
140
0.1875
141
12.0
290
     0
  0
SCALE
  5
60
102
{ACAD_REACTORS
330
47
102
}
330
47
100
AcDbScale
 70
     0
300
1/4" = 1'-0"
140
0.25
141
12.0
290
     0
  0
SCALE
  5
61
102
{ACAD_REACTORS
330
47
102
}
330
47
100
AcDbScale
 70
     0
300
3/8" = 1'-0"
140
0.375
141
12.0
290
     0
  0
SCALE
  5
62
102
{ACAD_REACTORS
330
47
102
}
330
47
100
AcDbScale
 70
     0
300
1/2" = 1'-0"
140
0.5
141
12.0
290
     0
  0
SCALE
  5
63
102
{ACAD_REACTORS
330
47
102
}
330
47
100
AcDbScale
 70
     0
300
3/4" = 1'-0"
140
0.75
141
12.0
290
     0
  0
SCALE
  5
64
102
{ACAD_REACTORS
330
47
102
}
330
47
100
AcDbScale
 70
     0
300
1" = 1'-0"
140
1.0
141
12.0
290
     0
  0
SCALE
  5
65
102
{ACAD_REACTORS
330
47
102
}
330
47
100
AcDbScale
 70
     0
300
1-1/2" = 1'-0"
140
1.5
141
12.0
290
     0
  0
SCALE
  5
66
102
{ACAD_REACTORS
330
47
102
}
330
47
100
AcDbScale
 70
     0
300
3" = 1'-0"
140
3.0
141
12.0
290
     0
  0
SCALE
  5
67
102
{ACAD_REACTORS
330
47
102
}
330
47
100
AcDbScale
 70
     0
300
6" = 1'-0"
140
6.0
141
12.0
290
     0
  0
SCALE
  5
68
102
{ACAD_REACTORS
330
47
102
}
330
47
100
AcDbScale
 70
     0
300
1'-0" = 1'-0"
140
12.0
141
12.0
290
     0
  0
ENDSEC
  0
EOF
