  0
SECTION
  2
HEADER
  9
$ACADVER
  1
AC1015
  9
$ACADMAINTVER
 70
     6
  9
$DWGCODEPAGE
  3
ANSI_1250
  9
$INSBASE
 10
0.0
 20
0.0
 30
0.0
  9
$EXTMIN
 10
0.0
 20
0.0
 30
0.0
  9
$EXTMAX
 10
431.8
 20
279.4
 30
0.0
  9
$LIMMIN
 10
0.0
 20
0.0
  9
$LIMMAX
 10
431.8
 20
279.4
  9
$ORTHOMODE
 70
     0
  9
$REGENMODE
 70
     1
  9
$FILLMODE
 70
     1
  9
$QTEXTMODE
 70
     0
  9
$MIRRTEXT
 70
     1
  9
$LTSCALE
 40
1.0
  9
$ATTMODE
 70
     1
  9
$TEXTSIZE
 40
3.8805555556
  9
$TRACEWID
 40
1.0
  9
$TEXTSTYLE
  7
Standard
  9
$CLAYER
  8
0
  9
$CELTYPE
  6
ByLayer
  9
$CECOLOR
 62
   256
  9
$CELTSCALE
 40
1.0
  9
$DISPSILH
 70
     0
  9
$DIMSCALE
 40
1.0
  9
$DIMASZ
 40
3.302
  9
$DIMEXO
 40
1.0
  9
$DIMDLI
 40
3.75
  9
$DIMRND
 40
0.0
  9
$DIMDLE
 40
0.0
  9
$DIMEXE
 40
1.0
  9
$DIMTP
 40
0.0
  9
$DIMTM
 40
0.0
  9
$DIMTXT
 40
3.8805555556
  9
$DIMCEN
 40
2.5
  9
$DIMTSZ
 40
0.0
  9
$DIMTOL
 70
     0
  9
$DIMLIM
 70
     0
  9
$DIMTIH
 70
     1
  9
$DIMTOH
 70
     1
  9
$DIMSE1
 70
     0
  9
$DIMSE2
 70
     0
  9
$DIMTAD
 70
     1
  9
$DIMZIN
 70
     0
  9
$DIMBLK
  1

  9
$DIMASO
 70
     1
  9
$DIMSHO
 70
     1
  9
$DIMPOST
  1

  9
$DIMAPOST
  1

  9
$DIMALT
 70
     0
  9
$DIMALTD
 70
     3
  9
$DIMALTF
 40
0.0393700787
  9
$DIMLFAC
 40
1.0
  9
$DIMTOFL
 70
     1
  9
$DIMTVP
 40
0.0
  9
$DIMTIX
 70
     0
  9
$DIMSOXD
 70
     0
  9
$DIMSAH
 70
     0
  9
$DIMBLK1
  1

  9
$DIMBLK2
  1

  9
$DIMSTYLE
  2
ISO-25
  9
$DIMCLRD
 70
     0
  9
$DIMCLRE
 70
     0
  9
$DIMCLRT
 70
     0
  9
$DIMTFAC
 40
1.0
  9
$DIMGAP
 40
1.524
  9
$DIMJUST
 70
     0
  9
$DIMSD1
 70
     0
  9
$DIMSD2
 70
     0
  9
$DIMTOLJ
 70
     0
  9
$DIMTZIN
 70
     0
  9
$DIMALTZ
 70
     0
  9
$DIMALTTZ
 70
     0
  9
$DIMUPT
 70
     0
  9
$DIMDEC
 70
     1
  9
$DIMTDEC
 70
     1
  9
$DIMALTU
 70
     2
  9
$DIMALTTD
 70
     3
  9
$DIMTXSTY
  7
Standard
  9
$DIMAUNIT
 70
     0
  9
$DIMADEC
 70
     1
  9
$DIMALTRND
 40
0.0
  9
$DIMAZIN
 70
     0
  9
$DIMDSEP
 70
    44
  9
$DIMATFIT
 70
     3
  9
$DIMFRAC
 70
     0
  9
$DIMLDRBLK
  1

  9
$DIMLUNIT
 70
     2
  9
$DIMLWD
 70
    -2
  9
$DIMLWE
 70
    -2
  9
$DIMTMOVE
 70
     0
  9
$LUNITS
 70
     2
  9
$LUPREC
 70
     1
  9
$SKETCHINC
 40
1.0
  9
$FILLETRAD
 40
10.0
  9
$AUNITS
 70
     0
  9
$AUPREC
 70
     1
  9
$MENU
  1
.
  9
$ELEVATION
 40
0.0
  9
$PELEVATION
 40
0.0
  9
$THICKNESS
 40
0.0
  9
$LIMCHECK
 70
     0
  9
$CHAMFERA
 40
0.0
  9
$CHAMFERB
 40
0.0
  9
$CHAMFERC
 40
0.0
  9
$CHAMFERD
 40
0.0
  9
$SKPOLY
 70
     0
  9
$TDCREATE
 40
2459675.58172412
  9
$TDUCREATE
 40
2459675.498390787
  9
$TDUPDATE
 40
2459675.581724491
  9
$TDUUPDATE
 40
2459675.498391157
  9
$TDINDWG
 40
0.0000000116
  9
$TDUSRTIMER
 40
0.0000000116
  9
$USRTIMER
 70
     1
  9
$ANGBASE
 50
0.0
  9
$ANGDIR
 70
     0
  9
$PDMODE
 70
     0
  9
$PDSIZE
 40
-1.0
  9
$PLINEWID
 40
0.0
  9
$SPLFRAME
 70
     0
  9
$SPLINETYPE
 70
     6
  9
$SPLINESEGS
 70
     8
  9
$HANDSEED
  5
546
  9
$SURFTAB1
 70
     6
  9
$SURFTAB2
 70
     6
  9
$SURFTYPE
 70
     6
  9
$SURFU
 70
     6
  9
$SURFV
 70
     6
  9
$UCSBASE
  2

  9
$UCSNAME
  2

  9
$UCSORG
 10
0.0
 20
0.0
 30
0.0
  9
$UCSXDIR
 10
1.0
 20
0.0
 30
0.0
  9
$UCSYDIR
 10
0.0
 20
1.0
 30
0.0
  9
$UCSORTHOREF
  2

  9
$UCSORTHOVIEW
 70
     0
  9
$UCSORGTOP
 10
0.0
 20
0.0
 30
0.0
  9
$UCSORGBOTTOM
 10
0.0
 20
0.0
 30
0.0
  9
$UCSORGLEFT
 10
0.0
 20
0.0
 30
0.0
  9
$UCSORGRIGHT
 10
0.0
 20
0.0
 30
0.0
  9
$UCSORGFRONT
 10
0.0
 20
0.0
 30
0.0
  9
$UCSORGBACK
 10
0.0
 20
0.0
 30
0.0
  9
$PUCSBASE
  2

  9
$PUCSNAME
  2

  9
$PUCSORG
 10
0.0
 20
0.0
 30
0.0
  9
$PUCSXDIR
 10
1.0
 20
0.0
 30
0.0
  9
$PUCSYDIR
 10
0.0
 20
1.0
 30
0.0
  9
$PUCSORTHOREF
  2

  9
$PUCSORTHOVIEW
 70
     0
  9
$PUCSORGTOP
 10
0.0
 20
0.0
 30
0.0
  9
$PUCSORGBOTTOM
 10
0.0
 20
0.0
 30
0.0
  9
$PUCSORGLEFT
 10
0.0
 20
0.0
 30
0.0
  9
$PUCSORGRIGHT
 10
0.0
 20
0.0
 30
0.0
  9
$PUCSORGFRONT
 10
0.0
 20
0.0
 30
0.0
  9
$PUCSORGBACK
 10
0.0
 20
0.0
 30
0.0
  9
$USERI1
 70
     0
  9
$USERI2
 70
     0
  9
$USERI3
 70
     0
  9
$USERI4
 70
     0
  9
$USERI5
 70
     0
  9
$USERR1
 40
0.0
  9
$USERR2
 40
0.0
  9
$USERR3
 40
0.0
  9
$USERR4
 40
0.0
  9
$USERR5
 40
0.0
  9
$WORLDVIEW
 70
     1
  9
$SHADEDGE
 70
     3
  9
$SHADEDIF
 70
    70
  9
$TILEMODE
 70
     1
  9
$MAXACTVP
 70
    64
  9
$PINSBASE
 10
0.0
 20
0.0
 30
0.0
  9
$PLIMCHECK
 70
     0
  9
$PEXTMIN
 10
1.0000000000E+20
 20
1.0000000000E+20
 30
1.0000000000E+20
  9
$PEXTMAX
 10
-1.0000000000E+20
 20
-1.0000000000E+20
 30
-1.0000000000E+20
  9
$PLIMMIN
 10
0.0
 20
0.0
  9
$PLIMMAX
 10
420.0
 20
297.0
  9
$UNITMODE
 70
     0
  9
$VISRETAIN
 70
     1
  9
$PLINEGEN
 70
     0
  9
$PSLTSCALE
 70
     1
  9
$TREEDEPTH
 70
  3020
  9
$CMLSTYLE
  2
Standard
  9
$CMLJUST
 70
     0
  9
$CMLSCALE
 40
20.0
  9
$PROXYGRAPHICS
 70
     1
  9
$MEASUREMENT
 70
     1
  9
$CELWEIGHT
370
    -1
  9
$ENDCAPS
280
     0
  9
$JOINSTYLE
280
     0
  9
$LWDISPLAY
290
     1
  9
$INSUNITS
 70
     4
  9
$HYPERLINKBASE
  1

  9
$STYLESHEET
  1

  9
$XEDIT
290
     1
  9
$CEPSNTYPE
380
     0
  9
$PSTYLEMODE
290
     1
  9
$FINGERPRINTGUID
  2
{87a082b6-f496-40c1-9577-dfc46f9ef768}
  9
$VERSIONGUID
  2
{FAEB1C32-E019-11D5-929B-00C0DF256EC4}
  9
$EXTNAMES
290
     1
  9
$PSVPSCALE
 40
0.0
  9
$OLESTARTUP
290
     0
  0
ENDSEC
  0
SECTION
  2
CLASSES
  0
CLASS
  1
ACDBDICTIONARYWDFLT
  2
AcDbDictionaryWithDefault
  3
ObjectDBX Classes
 90
        0
280
     0
281
     0
  0
CLASS
  1
VISUALSTYLE
  2
AcDbVisualStyle
  3
ObjectDBX Classes
 90
     4095
280
     0
281
     0
  0
CLASS
  1
MATERIAL
  2
AcDbMaterial
  3
ObjectDBX Classes
 90
     1153
280
     0
281
     0
  0
CLASS
  1
SCALE
  2
AcDbScale
  3
ObjectDBX Classes
 90
     1153
280
     0
281
     0
  0
CLASS
  1
TABLESTYLE
  2
AcDbTableStyle
  3
ObjectDBX Classes
 90
     4095
280
     0
281
     0
  0
CLASS
  1
MLEADERSTYLE
  2
AcDbMLeaderStyle
  3
ACDB_MLEADERSTYLE_CLASS
 90
     4095
280
     0
281
     0
  0
CLASS
  1
SUN
  2
AcDbSun
  3
SCENEOE
 90
     1153
280
     0
281
     0
  0
CLASS
  1
ACDBPLACEHOLDER
  2
AcDbPlaceHolder
  3
ObjectDBX Classes
 90
        0
280
     0
281
     0
  0
CLASS
  1
LAYOUT
  2
AcDbLayout
  3
ObjectDBX Classes
 90
        0
280
     0
281
     0
  0
ENDSEC
  0
SECTION
  2
TABLES
  0
TABLE
  2
VPORT
  5
8
330
0
100
AcDbSymbolTable
 70
     1
  0
VPORT
  5
29
330
8
100
AcDbSymbolTableRecord
100
AcDbViewportTableRecord
  2
*Active
 70
     0
 10
0.0
 20
0.0
 11
1.0
 21
1.0
 12
215.9
 22
139.7
 13
0.0
 23
0.0
 14
10.0
 24
10.0
 15
10.0
 25
10.0
 16
0.0
 26
0.0
 36
1.0
 17
0.0
 27
0.0
 37
0.0
 40
279.4
 41
1.5454545455
 42
50.0
 43
0.0
 44
0.0
 50
0.0
 51
0.0
 71
     0
 72
  2000
 73
     1
 74
     3
 75
     0
 76
     0
 77
     0
 78
     0
281
     0
 65
     1
110
0.0
120
0.0
130
0.0
111
1.0
121
0.0
131
0.0
112
0.0
122
1.0
132
0.0
 79
     0
146
0.0
  0
ENDTAB
  0
TABLE
  2
LTYPE
  5
5
330
0
100
AcDbSymbolTable
 70
     6
  0
LTYPE
  5
14
330
5
100
AcDbSymbolTableRecord
100
AcDbLinetypeTableRecord
  2
ByBlock
 70
     0
  3

 72
    65
 73
     0
 40
0.0
  0
LTYPE
  5
15
330
5
100
AcDbSymbolTableRecord
100
AcDbLinetypeTableRecord
  2
ByLayer
 70
     0
  3

 72
    65
 73
     0
 40
0.0
  0
LTYPE
  5
16
330
5
100
AcDbSymbolTableRecord
100
AcDbLinetypeTableRecord
  2
Continuous
 70
     0
  3
Solid line
 72
    65
 73
     0
 40
0.0
  0
LTYPE
  5
6E
330
5
100
AcDbSymbolTableRecord
100
AcDbLinetypeTableRecord
  2
HIDDEN
 70
     0
  3
Hidden __ __ __ __ __ __ __ __ __ __ __ __ __ __
 72
    65
 73
     2
 40
1.905
 49
1.27
 74
     0
 49
-0.635
 74
     0
  0
LTYPE
  5
6F
330
5
100
AcDbSymbolTableRecord
100
AcDbLinetypeTableRecord
  2
PHANTOM
 70
     0
  3
Phantom ______  __  __  ______  __  __  ______
 72
    65
 73
     6
 40
12.7
 49
6.35
 74
     0
 49
-1.27
 74
     0
 49
1.27
 74
     0
 49
-1.27
 74
     0
 49
1.27
 74
     0
 49
-1.27
 74
     0
  0
LTYPE
  5
70
330
5
100
AcDbSymbolTableRecord
100
AcDbLinetypeTableRecord
  2
CENTER
 70
     0
  3
Center ____ _ ____ _ ____ _ ____ _ ____ _ ____
 72
    65
 73
     4
 40
10.16
 49
6.35
 74
     0
 49
-1.27
 74
     0
 49
1.27
 74
     0
 49
-1.27
 74
     0
  0
LTYPE
  5
71
330
5
100
AcDbSymbolTableRecord
100
AcDbLinetypeTableRecord
  2
CENTERX2
 70
     0
  3
Center (2x) ________  __  ________  __  _____
 72
    65
 73
     4
 40
20.32
 49
12.7
 74
     0
 49
-2.54
 74
     0
 49
2.54
 74
     0
 49
-2.54
 74
     0
  0
LTYPE
  5
72
330
5
100
AcDbSymbolTableRecord
100
AcDbLinetypeTableRecord
  2
DOT2
 70
     0
  3
Dot (.5x) ........................................
 72
    65
 73
     2
 40
0.635
 49
0.0
 74
     0
 49
-0.635
 74
     0
  0
ENDTAB
  0
TABLE
  2
LAYER
  5
2
330
0
100
AcDbSymbolTable
 70
     3
  0
LAYER
  5
10
330
2
100
AcDbSymbolTableRecord
100
AcDbLayerTableRecord
  2
0
 70
     0
 62
     7
  6
Continuous
370
    -3
390
F
  0
LAYER
  5
73
330
2
100
AcDbSymbolTableRecord
100
AcDbLayerTableRecord
  2
FRAME_&_TABLE
 70
     0
 62
     8
  6
Continuous
370
    50
390
F
  0
LAYER
  5
74
330
2
100
AcDbSymbolTableRecord
100
AcDbLayerTableRecord
  2
DIMENSIONS
 70
     0
 62
     7
  6
Continuous
370
    -3
390
F
  0
ENDTAB
  0
TABLE
  2
STYLE
  5
3
330
0
100
AcDbSymbolTable
 70
     1
  0
STYLE
  5
11
330
3
100
AcDbSymbolTableRecord
100
AcDbTextStyleTableRecord
  2
Standard
 70
     0
 40
0.0
 41
1.0
 50
0.0
 71
     0
 42
3.8805555556
  3
txt
  4

  0
ENDTAB
  0
TABLE
  2
VIEW
  5
6
330
0
100
AcDbSymbolTable
 70
     0
  0
ENDTAB
  0
TABLE
  2
UCS
  5
7
330
0
100
AcDbSymbolTable
 70
     0
  0
ENDTAB
  0
TABLE
  2
APPID
  5
9
330
0
100
AcDbSymbolTable
 70
     1
  0
APPID
  5
12
330
9
100
AcDbSymbolTableRecord
100
AcDbRegAppTableRecord
  2
ACAD
 70
     0
  0
ENDTAB
  0
TABLE
  2
DIMSTYLE
  5
A
330
0
100
AcDbSymbolTable
 70
     1
100
AcDbDimStyleTable
  0
DIMSTYLE
105
27
330
A
100
AcDbSymbolTableRecord
100
AcDbDimStyleTableRecord
  2
ISO-25
 70
     0
 41
2.5
 42
0.625
 43
3.75
 44
1.25
 73
     0
 74
     0
 77
     1
 78
     8
140
2.5
141
2.5
143
0.0393700787
147
0.625
171
     3
172
     1
178
     0
271
     2
272
     2
274
     3
278
    44
283
     0
284
     8
340
11
  0
ENDTAB
  0
TABLE
  2
BLOCK_RECORD
  5
1
330
0
100
AcDbSymbolTable
 70
     1
  0
BLOCK_RECORD
  5
1F
330
1
100
AcDbSymbolTableRecord
100
AcDbBlockTableRecord
  2
*Model_Space
340
22
  0
BLOCK_RECORD
  5
1B
330
1
100
AcDbSymbolTableRecord
100
AcDbBlockTableRecord
  2
*Paper_Space
340
1E
  0
BLOCK_RECORD
  5
23
330
1
100
AcDbSymbolTableRecord
100
AcDbBlockTableRecord
  2
*Paper_Space0
340
26
  0
ENDTAB
  0
ENDSEC
  0
SECTION
  2
BLOCKS
  0
BLOCK
  5
20
330
1F
100
AcDbEntity
  8
0
100
AcDbBlockBegin
  2
*Model_Space
 70
     0
 10
0.0
 20
0.0
 30
0.0
  3
*Model_Space
  1

  0
ENDBLK
  5
21
330
1F
100
AcDbEntity
  8
0
100
AcDbBlockEnd
  0
BLOCK
  5
1C
330
1B
100
AcDbEntity
 67
     1
  8
0
100
AcDbBlockBegin
  2
*Paper_Space
 70
     0
 10
0.0
 20
0.0
 30
0.0
  3
*Paper_Space
  1

  0
ENDBLK
  5
1D
330
1B
100
AcDbEntity
 67
     1
  8
0
100
AcDbBlockEnd
  0
BLOCK
  5
24
330
23
100
AcDbEntity
  8
0
100
AcDbBlockBegin
  2
*Paper_Space0
 70
     0
 10
0.0
 20
0.0
 30
0.0
  3
*Paper_Space0
  1

  0
ENDBLK
  5
25
330
23
100
AcDbEntity
  8
0
100
AcDbBlockEnd
  0
ENDSEC
  0
SECTION
  2
ENTITIES
  0
CIRCLE
  5
75
330
1F
100
AcDbEntity
  8
0
  6
Continuous
 62
     7
370
    25
100
AcDbCircle
 10
-1154.174903498
 20
-1211.9188544899
 30
0.0
 40
7.10000000000012
  0
CIRCLE
  5
76
330
1F
100
AcDbEntity
  8
0
  6
Continuous
 62
     7
370
    25
100
AcDbCircle
 10
1574.0034122495
 20
-1211.9188544899
 30
0.0
 40
7.099999999999922
  0
CIRCLE
  5
77
330
1F
100
AcDbEntity
  8
0
  6
Continuous
 62
     7
370
    25
100
AcDbCircle
 10
-1154.174903498
 20
1516.2594612577
 30
0.0
 40
7.10000000000016
  0
CIRCLE
  5
78
330
1F
100
AcDbEntity
  8
0
  6
Continuous
 62
     7
370
    25
100
AcDbCircle
 10
1574.0034122495
 20
1516.2594612577
 30
0.0
 40
7.099999999999709
  0
ARC
  5
79
330
1F
100
AcDbEntity
  8
0
  6
Continuous
 62
     7
370
    25
100
AcDbCircle
 10
1635.3142543757
 20
-1298.9296966161
 30
0.0
 40
1.100000000000092
100
AcDbArc
 50
306.4341903957
 51
90.0
  0
ARC
  5
7A
330
1F
100
AcDbEntity
  8
0
  6
Continuous
 62
     7
370
    25
100
AcDbCircle
 10
1619.5142543757
 20
-1298.9296966161
 30
0.0
 40
1.100000000000092
100
AcDbArc
 50
90.0
 51
233.5658096043
  0
ARC
  5
7B
330
1F
100
AcDbEntity
  8
0
  6
Continuous
 62
     7
370
    25
100
AcDbCircle
 10
1627.4142543757
 20
-1288.2277735392
 30
0.0
 40
14.4019230769231
100
AcDbArc
 50
233.5658096044
 51
306.4341903957
  0
ARC
  5
7C
330
1F
100
AcDbEntity
  8
0
  6
Continuous
 62
     7
370
    25
100
AcDbCircle
 10
1619.5142543757
 20
1603.2703033839
 30
0.0
 40
1.100000000000136
100
AcDbArc
 50
126.4341903957
 51
270.0
  0
ARC
  5
7D
330
1F
100
AcDbEntity
  8
0
  6
Continuous
 62
     7
370
    25
100
AcDbCircle
 10
1635.3142543757
 20
1603.2703033839
 30
0.0
 40
1.100000000000136
100
AcDbArc
 50
270.0
 51
53.5658096043
  0
ARC
  5
7E
330
1F
100
AcDbEntity
  8
0
  6
Continuous
 62
     7
370
    25
100
AcDbCircle
 10
1627.4142543757
 20
1592.568380307
 30
0.0
 40
14.40192307692329
100
AcDbArc
 50
53.5658096044
 51
126.4341903956
  0
ARC
  5
7F
330
1F
100
AcDbEntity
  8
0
  6
Continuous
 62
     7
370
    25
100
AcDbCircle
 10
1661.0142543757
 20
1577.5703033839
 30
0.0
 40
1.099999999999957
100
AcDbArc
 50
36.4341903957
 51
180.0
  0
ARC
  5
80
330
1F
100
AcDbEntity
  8
0
  6
Continuous
 62
     7
370
    25
100
AcDbCircle
 10
1661.0142543757
 20
1561.7703033839
 30
0.0
 40
1.100000000000092
100
AcDbArc
 50
180.0
 51
323.5658096043
  0
ARC
  5
81
330
1F
100
AcDbEntity
  8
0
  6
Continuous
 62
     7
370
    25
100
AcDbCircle
 10
1650.3123312988
 20
1569.6703033839
 30
0.0
 40
14.40192307692329
100
AcDbArc
 50
323.5658096044
 51
36.4341903956
  0
ARC
  5
82
330
1F
100
AcDbEntity
  8
0
  6
Continuous
 62
     7
370
    25
100
AcDbCircle
 10
1661.0142543757
 20
-1257.4296966161
 30
0.0
 40
1.099999999999909
100
AcDbArc
 50
36.4341903956
 51
180.0
  0
ARC
  5
83
330
1F
100
AcDbEntity
  8
0
  6
Continuous
 62
     7
370
    25
100
AcDbCircle
 10
1661.0142543757
 20
-1273.2296966161
 30
0.0
 40
1.099999999999909
100
AcDbArc
 50
180.0
 51
323.5658096044
  0
ARC
  5
84
330
1F
100
AcDbEntity
  8
0
  6
Continuous
 62
     7
370
    25
100
AcDbCircle
 10
1650.3123312988
 20
-1265.3296966161
 30
0.0
 40
14.40192307692315
100
AcDbArc
 50
323.5658096044
 51
36.4341903956
  0
ARC
  5
85
330
1F
100
AcDbEntity
  8
0
  6
Continuous
 62
     7
370
    25
100
AcDbCircle
 10
-1241.1857456243
 20
-1273.2296966161
 30
0.0
 40
1.100000000000136
100
AcDbArc
 50
216.4341903956
 51
0.0
  0
ARC
  5
86
330
1F
100
AcDbEntity
  8
0
  6
Continuous
 62
     7
370
    25
100
AcDbCircle
 10
-1241.1857456243
 20
-1257.4296966161
 30
0.0
 40
1.100000000000136
100
AcDbArc
 50
0.0
 51
143.5658096044
  0
ARC
  5
87
330
1F
100
AcDbEntity
  8
0
  6
Continuous
 62
     7
370
    25
100
AcDbCircle
 10
-1230.4838225474
 20
-1265.3296966161
 30
0.0
 40
14.40192307692315
100
AcDbArc
 50
143.5658096044
 51
216.4341903956
  0
ARC
  5
88
330
1F
100
AcDbEntity
  8
0
  6
Continuous
 62
     7
370
    25
100
AcDbCircle
 10
-1199.6857456243
 20
-1298.9296966161
 30
0.0
 40
1.099999999999909
100
AcDbArc
 50
306.4341903956
 51
90.0
  0
ARC
  5
89
330
1F
100
AcDbEntity
  8
0
  6
Continuous
 62
     7
370
    25
100
AcDbCircle
 10
-1215.4857456243
 20
-1298.9296966161
 30
0.0
 40
1.099999999999957
100
AcDbArc
 50
90.0
 51
233.5658096043
  0
ARC
  5
8A
330
1F
100
AcDbEntity
  8
0
  6
Continuous
 62
     7
370
    25
100
AcDbCircle
 10
-1207.5857456243
 20
-1288.2277735392
 30
0.0
 40
14.4019230769231
100
AcDbArc
 50
233.5658096044
 51
306.4341903957
  0
ARC
  5
8B
330
1F
100
AcDbEntity
  8
0
  6
Continuous
 62
     7
370
    25
100
AcDbCircle
 10
-1215.4857456243
 20
1603.2703033839
 30
0.0
 40
1.100000000000136
100
AcDbArc
 50
126.4341903957
 51
270.0
  0
ARC
  5
8C
330
1F
100
AcDbEntity
  8
0
  6
Continuous
 62
     7
370
    25
100
AcDbCircle
 10
-1199.6857456243
 20
1603.2703033839
 30
0.0
 40
1.100000000000136
100
AcDbArc
 50
270.0
 51
53.5658096044
  0
ARC
  5
8D
330
1F
100
AcDbEntity
  8
0
  6
Continuous
 62
     7
370
    25
100
AcDbCircle
 10
-1207.5857456243
 20
1592.568380307
 30
0.0
 40
14.40192307692329
100
AcDbArc
 50
53.5658096044
 51
126.4341903956
  0
ARC
  5
8E
330
1F
100
AcDbEntity
  8
0
  6
Continuous
 62
     7
370
    25
100
AcDbCircle
 10
-1241.1857456243
 20
1561.7703033839
 30
0.0
 40
1.100000000000275
100
AcDbArc
 50
216.4341903957
 51
0.0
  0
ARC
  5
8F
330
1F
100
AcDbEntity
  8
0
  6
Continuous
 62
     7
370
    25
100
AcDbCircle
 10
-1241.1857456243
 20
1577.5703033839
 30
0.0
 40
1.10000000000014
100
AcDbArc
 50
0.0
 51
143.5658096044
  0
ARC
  5
90
330
1F
100
AcDbEntity
  8
0
  6
Continuous
 62
     7
370
    25
100
AcDbCircle
 10
-1230.4838225474
 20
1569.6703033839
 30
0.0
 40
14.40192307692329
100
AcDbArc
 50
143.5658096044
 51
216.4341903957
  0
LINE
  5
91
330
1F
100
AcDbEntity
  8
0
  6
Continuous
 62
     7
370
    25
100
AcDbLine
 10
-2790.0857456243
 20
-1347.8296966161
 30
0.0
 11
-2790.0857456243
 21
1652.1703033839
 31
0.0
  0
ARC
  5
92
330
1F
100
AcDbEntity
  8
0
  6
Continuous
 62
     7
370
    25
100
AcDbCircle
 10
-1290.0857456243
 20
1652.1703033839
 30
0.0
 40
1500.0
100
AcDbArc
 50
90.0
 51
180.0
  0
LINE
  5
93
330
1F
100
AcDbEntity
  8
0
  6
Continuous
 62
     7
370
    25
100
AcDbLine
 10
-1290.0857456243
 20
3152.1703033839
 30
0.0
 11
1709.9142543757
 21
3152.1703033839
 31
0.0
  0
ARC
  5
94
330
1F
100
AcDbEntity
  8
0
  6
Continuous
 62
     7
370
    25
100
AcDbCircle
 10
1709.9142543757
 20
1652.1703033839
 30
0.0
 40
1500.0
100
AcDbArc
 50
0.0
 51
90.0
  0
LINE
  5
95
330
1F
100
AcDbEntity
  8
0
  6
Continuous
 62
     7
370
    25
100
AcDbLine
 10
3209.9142543757
 20
1652.1703033839
 30
0.0
 11
3209.9142543757
 21
-1347.8296966161
 31
0.0
  0
ARC
  5
96
330
1F
100
AcDbEntity
  8
0
  6
Continuous
 62
     7
370
    25
100
AcDbCircle
 10
1709.9142543757
 20
-1347.8296966161
 30
0.0
 40
1500.0
100
AcDbArc
 50
270.0
 51
0.0
  0
LINE
  5
97
330
1F
100
AcDbEntity
  8
0
  6
Continuous
 62
     7
370
    25
100
AcDbLine
 10
1709.9142543757
 20
-2847.8296966161
 30
0.0
 11
-1290.0857456243
 21
-2847.8296966161
 31
0.0
  0
ARC
  5
98
330
1F
100
AcDbEntity
  8
0
  6
Continuous
 62
     7
370
    25
100
AcDbCircle
 10
-1290.0857456243
 20
-1347.8296966161
 30
0.0
 40
1500.0
100
AcDbArc
 50
180.0
 51
270.0
  0
LWPOLYLINE
  5
99
330
1F
100
AcDbEntity
  8
0
  6
Continuous
 62
     7
370
    25
100
AcDbPolyline
 90
       93
 70
   128
 43
0.0
 10
-17.8778789408
 20
-441.2484921423
 10
-17.7682758879
 20
-441.2599924496
 10
0.6338078378
 20
-443.3174208795
 10
18.9996194901
 20
-445.6939765825
 10
37.2862852175
 20
-448.4893380318
 10
55.450931168
 20
-451.8031837009
 10
73.4506834901
 20
-455.7351920631
 10
95.6969092313
 20
-461.3821081404
 10
117.7698824907
 20
-467.6017412822
 10
139.6810278822
 20
-474.3109439922
 10
161.4417700193
 20
-481.4265687739
 10
192.0703859118
 20
-492.0914698864
 10
222.4786407451
 20
-503.3574530122
 10
252.6912888714
 20
-515.1393419692
 10
292.9187016393
 20
-531.6138735951
 10
332.8866203837
 20
-548.8139195318
 10
372.6067887994
 20
-566.6855496804
 10
412.0909505812
 20
-585.1748339419
 10
446.211605006
 20
-601.7137135218
 10
480.1527672126
 20
-618.7094880143
 10
513.8908416944
 20
-636.1762783936
 10
538.5052801715
 20
-649.2781041251
 10
562.9745514987
 20
-662.6918141166
 10
587.2153341858
 20
-676.53236839
 10
611.1443067428
 20
-690.9147269675
 10
622.7249878168
 20
-698.2154848599
 10
634.130539468
 20
-705.7922963378
 10
645.2648625845
 20
-713.7554829266
 10
653.2864414324
 20
-720.0040162042
 10
660.9653744832
 20
-726.6759157736
 10
668.115859904
 20
-733.8844458992
 10
672.5060105182
 20
-739.0841650149
 10
676.4842869737
 20
-744.6151718141
 10
679.9582294248
 20
-750.4563576579
 10
682.6964570789
 20
-756.1953304023
 10
684.9490977661
 20
-762.1506586666
 10
686.733238122
 20
-768.2476415672
 10
688.801011324
 20
-778.5362067594
 10
689.9741218474
 20
-788.9729134601
 10
690.4424771181
 20
-799.460178248
 10
690.3959845619
 20
-809.9004177019
 10
689.681791667
 20
-825.0898878908
 10
688.3111288086
 20
-840.1712827984
 10
686.3827804657
 20
-855.121285809
 10
683.9955311174
 20
-869.9165803073
 10
680.0814081214
 20
-889.8910061465
 10
675.3510879081
 20
-909.5996981668
 10
669.7345618833
 20
-929.0018247562
 10
666.0539426035
 20
-940.0311040957
 10
661.9849345201
 20
-950.930850646
 10
657.4728656926
 20
-961.665577708
 10
653.0342307989
 20
-971.0474866339
 10
648.112269078
 20
-980.2569864347
 10
642.6546228761
 20
-989.2008334313
 10
636.6089345392
 20
-997.7857839449
 10
629.9228464134
 20
-1005.9185942966
 10
623.8302929122
 20
-1012.2751368692
 10
617.2541387262
 20
-1018.2142412161
 10
610.2385237899
 20
-1023.6718240243
 10
603.6996771065
 20
-1028.0901961767
 10
596.8696677322
 20
-1032.1049009573
 10
589.7748963214
 20
-1035.6367623306
 10
582.1200361051
 20
-1038.7232899948
 10
574.2243606161
 20
-1041.2160797282
 10
566.1680533728
 20
-1043.14963642
 10
558.0312978933
 20
-1044.5584649592
 10
546.544948522
 20
-1045.7655403765
 10
534.9937850041
 20
-1046.2094304999
 10
523.4240350006
 20
-1045.9996002075
 10
511.8819261724
 20
-1045.2455143772
 10
500.4136861806
 20
-1044.0566378869
 10
480.5997520331
 20
-1041.1755431551
 10
460.9342433737
 20
-1037.4347607204
 10
441.422603802
 20
-1033.0296117752
 10
414.9889848308
 20
-1026.234791974
 10
388.7573894414
 20
-1018.6899940771
 10
362.7082857192
 20
-1010.5109517722
 10
336.8221417495
 20
-1001.8133987473
 10
311.0794256179
 20
-992.7130686902
 10
268.4977498396
 20
-976.8361167269
 10
226.1944623782
 20
-960.1116352097
 10
184.1424046907
 20
-942.6548370126
 10
141.1779481035
 20
-924.0534233302
 10
98.4320086969
 20
-904.8171430548
 10
55.9038019141
 20
-884.9958149079
 10
21.5712641397
 20
-868.5215906486
 10
-12.6275091747
 20
-851.7094477293
 10
-46.6910881058
 20
-834.5833486919
 10
-72.1940764676
 20
-821.5246859624
 10
-97.6263609049
 20
-808.3141506397
 10
-123.0027141356
 20
-794.9629003122
 10
-148.3924061068
 20
-781.6323158322
 10
-148.5145672241
 20
-781.568700237
  0
LWPOLYLINE
  5
9A
330
1F
100
AcDbEntity
  8
0
  6
Continuous
 62
     7
370
    25
100
AcDbPolyline
 90
       22
 70
   128
 43
0.0
 10
102.9946969
 20
-126.364666598
 10
102.9634084245
 20
-126.502717528
 10
99.2500409354
 20
-143.1822813041
 10
95.580919565
 20
-159.8596652952
 10
91.8396183896
 20
-176.4628892365
 10
87.9097114852
 20
-192.9199728635
 10
83.6747729279
 20
-209.1589359114
 10
77.7252132167
 20
-229.8553524494
 10
71.3469950075
 20
-250.2491336228
 10
64.5515689967
 20
-270.3620170185
 10
57.3503858807
 20
-290.2157402236
 10
49.9805044042
 20
-309.2576688907
 10
42.1784727944
 20
-328.1565763488
 10
33.8927470054
 20
-346.9324969772
 10
25.0717829913
 20
-365.6054651552
 10
18.6309886857
 20
-378.2982094139
 10
11.7992815494
 20
-390.9393366141
 10
4.6575227391
 20
-403.5370740088
 10
-2.7134265883
 20
-416.0996488507
 10
-10.2327052761
 20
-428.6352883927
 10
-17.8194521674
 20
-441.1522198876
 10
-17.8778789408
 20
-441.2484921423
  0
LWPOLYLINE
  5
9B
330
1F
100
AcDbEntity
  8
0
  6
Continuous
 62
     7
370
    25
100
AcDbPolyline
 90
       90
 70
   128
 43
0.0
 10
240.6712839022
 20
232.2951046657
 10
240.7948053008
 20
232.2726633114
 10
272.2279119255
 20
226.3946193291
 10
303.5789261828
 20
220.1271696932
 10
334.800657817
 20
213.3747879217
 10
365.8459165725
 20
206.0419475325
 10
396.6675121938
 20
198.0331220435
 10
435.3617850177
 20
187.0366573433
 10
473.8060727608
 20
175.2991547176
 10
512.0194064301
 20
162.9033554201
 10
550.0208170326
 20
149.9320007047
 10
600.0911368009
 20
131.9676977237
 10
649.8751409917
 20
113.151648322
 10
699.3745056323
 20
93.5098379384
 10
748.5909067503
 20
73.068252012
 10
786.5429665029
 20
56.6739132747
 10
824.294099774
 20
39.7336272383
 10
861.7929752162
 20
22.172760115
 10
881.2132351291
 20
12.795805927
 10
900.561225487
 20
3.2125910292
 10
919.7603470687
 20
-6.681752528
 10
938.7340006532
 20
-16.9920926944
 10
957.4055870194
 20
-27.8232974196
 10
975.6985069463
 20
-39.2802346532
 10
985.2341781068
 20
-45.7045145269
 10
994.5313698809
 20
-52.4761113168
 10
1003.4826088496
 20
-59.6866164976
 10
1010.4985111957
 20
-66.0260625477
 10
1017.0579721654
 20
-72.8469694742
 10
1022.9486340494
 20
-80.2176129571
 10
1026.3540990694
 20
-85.4207886888
 10
1029.2880391529
 20
-90.9124821144
 10
1031.6513600686
 20
-96.6478768112
 10
1033.2932098485
 20
-102.2927264566
 10
1034.3545236934
 20
-108.0838947756
 10
1034.856881974
 20
-113.9275750177
 10
1034.7544223875
 20
-121.5729910564
 10
1033.933428112
 20
-129.1839297756
 10
1032.5272108933
 20
-136.7068269558
 10
1030.6690824774
 20
-144.0881183772
 10
1026.5979175123
 20
-156.9234596676
 10
1021.7480229177
 20
-169.4437312622
 10
1016.2555594669
 20
-181.6756322189
 10
1010.256687933
 20
-193.6458615953
 10
1003.8875690893
 20
-205.3811184492
 10
997.2843637089
 20
-216.9081018383
 10
986.5978518401
 20
-234.6253107952
 10
975.4041929609
 20
-252.0323506042
 10
963.6954599418
 20
-269.1300410323
 10
951.463725653
 20
-285.9192018466
 10
938.7010629647
 20
-302.4006528144
 10
925.3995447474
 20
-318.5752137028
 10
916.6363448525
 20
-328.6795151414
 10
907.5450462398
 20
-338.5708012021
 10
898.0556909425
 20
-348.1488680357
 10
891.2457199314
 20
-354.4973408733
 10
884.1225263683
 20
-360.5342524902
 10
876.6211409051
 20
-366.1045470263
 10
870.874377503
 20
-369.7570615362
 10
864.8569698576
 20
-372.9763844248
 10
858.5985527113
 20
-375.6718143328
 10
851.0806190312
 20
-378.0710142832
 10
843.3530943001
 20
-379.7747471571
 10
835.5296498775
 20
-380.8909830228
 10
824.8121249641
 20
-381.6069021813
 10
814.0552748103
 20
-381.5451203026
 10
803.3048111403
 20
-380.903465653
 10
792.6064456782
 20
-379.8797664986
 10
778.0441145916
 20
-378.0677416559
 10
763.5481963133
 20
-375.8368717829
 10
749.1201607653
 20
-373.2751493182
 10
718.9844389355
 20
-367.1127224832
 10
689.0688449544
 20
-360.0568383402
 10
659.3553153948
 20
-352.2441471249
 10
629.8257868294
 20
-343.8112990732
 10
600.4621958311
 20
-334.8949444209
 10
563.6273023903
 20
-323.0731659101
 10
526.9798851331
 20
-310.6264532172
 10
490.5071687798
 20
-297.6076633693
 10
454.196378051
 20
-284.0696533933
 10
409.6589494882
 20
-266.7288154746
 10
365.3288890239
 20
-248.6832851522
 10
321.2144167992
 20
-229.9699604792
 10
277.323752955
 20
-210.6257395088
 10
233.3989867225
 20
-190.5616596663
 10
189.7166068654
 20
-169.8897311715
 10
146.258280136
 20
-148.5155580701
 10
124.6470484372
 20
-137.5553948631
 10
103.116448316
 20
-126.4281627025
 10
102.9946969
 20
-126.364666598
  0
LWPOLYLINE
  5
9C
330
1F
100
AcDbEntity
  8
0
  6
Continuous
 62
     7
370
    25
100
AcDbPolyline
 90
       21
 70
   128
 43
0.0
 10
397.2747309824
 20
640.2610321478
 10
397.2239365239
 20
640.0884100661
 10
391.1092828555
 20
618.9509244518
 10
385.1157353268
 20
597.7853665
 10
379.1440157449
 20
576.6610356661
 10
373.0948459169
 20
555.6472314056
 10
366.8689476498
 20
534.8132531737
 10
358.5661629798
 20
508.4669763903
 10
349.8938430829
 20
482.4027622329
 10
340.8577766736
 20
456.5975390254
 10
331.4637524665
 20
431.0282350916
 10
318.596870569
 20
397.8125937614
 10
305.0189603273
 20
364.8092692876
 10
295.518645607
 20
342.8614720388
 10
285.6229406335
 20
320.9523198487
 10
275.3022015828
 20
299.0894152051
 10
267.0663098662
 20
282.3385251837
 10
258.5468196965
 20
265.6150539577
 10
249.7627517899
 20
248.9580506179
 10
240.7331268629
 20
232.406564255
 10
240.6712839022
 20
232.2951046657
  0
LWPOLYLINE
  5
9D
330
1F
100
AcDbEntity
  8
0
  6
Continuous
 62
     7
370
    25
100
AcDbPolyline
 90
       23
 70
   128
 43
0.0
 10
240.6712839022
 20
232.2951046657
 10
240.6999066486
 20
232.4193163005
 10
244.9131822671
 20
250.1446927979
 10
249.3628120081
 20
267.7906710465
 10
254.0382096812
 20
285.3184947223
 10
258.9287890958
 20
302.6894075015
 10
265.749116835
 20
325.5395965633
 10
272.9094963644
 20
348.1450603842
 10
280.382955612
 20
370.5172898068
 10
288.6528703886
 20
394.0882825291
 10
297.2514968954
 20
417.4806855114
 10
306.1777507618
 20
440.7346217359
 10
316.1054598411
 20
465.5322839258
 10
326.4401398332
 20
490.2672483907
 10
337.2006005632
 20
514.952825031
 10
348.4056518562
 20
539.6023237473
 10
356.2612616302
 20
556.2392915389
 10
364.3253909597
 20
572.8644256872
 10
372.5233010203
 20
589.4932966819
 10
380.8073567404
 20
606.3010935225
 10
389.0377686839
 20
623.1762595644
 10
397.1969719021
 20
640.0987608146
 10
397.2747309824
 20
640.2610321478
  0
LWPOLYLINE
  5
9E
330
1F
100
AcDbEntity
  8
0
  6
Continuous
 62
     7
370
    25
100
AcDbPolyline
 90
       92
 70
   128
 43
0.0
 10
102.9946969
 20
-126.364666598
 10
102.8617307784
 20
-126.3303858005
 10
63.6552787045
 20
-115.9391616028
 10
24.5857127508
 20
-105.0345362052
 10
-14.3341661541
 20
-93.6437078056
 10
-53.0915570817
 20
-81.7938746016
 10
-91.6736591034
 20
-69.5122347912
 10
-140.0243725889
 20
-53.4382220863
 10
-188.080251439
 20
-36.6599396808
 10
-235.8045653352
 20
-19.1480177754
 10
-283.1605839591
 20
-0.8730865709
 10
-322.3275503858
 20
14.9458725986
 10
-361.223864904
 20
31.3732977226
 10
-399.7932852289
 20
48.5114040526
 10
-437.9795690758
 20
66.4624068402
 10
-475.7264741597
 20
85.3285213371
 10
-498.1867752638
 20
97.1802673173
 10
-520.4081296995
 20
109.5198990539
 10
-542.3168325874
 20
122.445550325
 10
-553.6244961864
 20
129.4119952352
 10
-564.8532843056
 20
136.5851849628
 10
-575.8884223267
 20
144.0670391327
 10
-586.6151356316
 20
151.9594773698
 10
-596.9186496021
 20
160.3644192989
 10
-606.6841896201
 20
169.3837845449
 10
-612.4293784961
 20
175.4525912411
 10
-617.7258252491
 20
181.9327569934
 10
-622.4404958449
 20
188.8268474707
 10
-625.7128359433
 20
194.703999975
 10
-628.473437638
 20
200.8505540686
 10
-630.7129659461
 20
207.1885607333
 10
-633.0073128726
 20
216.040581275
 10
-634.6121606051
 20
225.0459128334
 10
-635.6967377115
 20
234.1029209833
 10
-636.8278785248
 20
249.9256139741
 10
-637.2171122075
 20
265.7239716026
 10
-636.9802016962
 20
281.475600554
 10
-636.2329099274
 20
297.1581075129
 10
-635.0909998375
 20
312.7490991645
 10
-633.670234363
 20
328.2261821935
 10
-630.7069622362
 20
354.0391226113
 10
-626.8743749216
 20
379.6862867628
 10
-622.0878382957
 20
405.1760808341
 10
-619.2738573305
 20
418.1514420232
 10
-616.1455020301
 20
431.1253118444
 10
-612.5825312724
 20
444.0252158047
 10
-608.4647039357
 20
456.7786794112
 10
-603.671778898
 20
469.3132281712
 10
-598.0835150374
 20
481.5563875918
 10
-594.1483656824
 20
488.8951719411
 10
-589.6932668558
 20
495.966606897
 10
-584.6303602612
 20
502.6193236383
 10
-580.215627148
 20
507.3860942512
 10
-575.3367290829
 20
511.7168800583
 10
-570.0254982537
 20
515.4855771014
 10
-563.8665296552
 20
518.8102513421
 10
-557.3309053804
 20
521.4115520571
 10
-550.5733674621
 20
523.3209940383
 10
-541.6991225724
 20
524.8864426351
 10
-532.6940722005
 20
525.6464791717
 10
-523.6650404331
 20
525.773828495
 10
-509.7989692667
 20
525.0991644014
 10
-495.9795304897
 20
523.6128280003
 10
-482.226215011
 20
521.513508692
 10
-468.5585137394
 20
518.9998958769
 10
-450.1290407025
 20
515.1468769654
 10
-431.7968521003
 20
510.8625459893
 10
-413.5510195407
 20
506.2514693341
 10
-378.1778107788
 20
496.6465088567
 10
-343.0131477349
 20
486.3609040206
 10
-308.0452405493
 20
475.478242331
 10
-273.2622993623
 20
464.0821112928
 10
-238.6525343143
 20
452.2560984112
 10
-204.2041555455
 20
440.0837911912
 10
-152.412070352
 20
421.0626577252
 10
-100.9705567224
 20
401.1993162607
 10
-49.909278132
 20
380.4345891642
 10
0.7421019441
 20
358.7092988019
 10
31.4663494663
 20
344.9277099652
 10
62.0099157348
 20
330.6954018706
 10
92.339931246
 20
315.9594038965
 10
122.4235264962
 20
300.6667454211
 10
152.4159156773
 20
284.6468618555
 10
182.0689811831
 20
267.9206550462
 10
205.8871715521
 20
253.7296782513
 10
229.521150103
 20
239.1902575773
 10
236.6815689041
 20
234.7605416642
 10
239.1743800427
 20
233.2198599848
 10
240.1010209066
 20
232.6473638955
 10
240.4528326889
 20
232.4300394981
 10
240.564473417
 20
232.3610794378
 10
240.6712839022
 20
232.2951046657
  0
LWPOLYLINE
  5
9F
330
1F
100
AcDbEntity
  8
0
  6
Continuous
 62
     7
370
    25
100
AcDbPolyline
 90
       24
 70
   128
 43
0.0
 10
-17.8778789408
 20
-441.2484921423
 10
-17.8568797824
 20
-441.1378527724
 10
-15.285538806
 20
-427.2937774053
 10
-12.7200861752
 20
-413.4699561683
 10
-10.0119147915
 20
-399.7413147243
 10
-7.012417556
 20
-386.1827787363
 10
-2.5364491211
 20
-368.4383791258
 10
2.3655416728
 20
-350.9597828361
 10
7.6473697383
 20
-333.7368157757
 10
13.8021524224
 20
-315.1928460237
 10
20.349275515
 20
-296.8525201562
 10
27.2772621989
 20
-278.671749621
 10
34.965797248
 20
-259.6850489598
 10
43.1001428446
 20
-240.77407535
 10
51.7015789385
 20
-221.9297632855
 10
60.7913854796
 20
-203.1430472606
 10
67.2743766378
 20
-190.3788976122
 10
74.0002033021
 20
-177.642685407
 10
80.9615553643
 20
-164.9530732828
 10
86.405721267
 20
-155.3710575471
 10
91.9334817735
 20
-145.803309134
 10
97.4609185517
 20
-136.1689451547
 10
102.9255746664
 20
-126.4881945089
 10
102.9946969
 20
-126.364666598
  0
LWPOLYLINE
  5
A0
330
1F
100
AcDbEntity
  8
0
  6
Continuous
 62
     7
370
    25
100
AcDbPolyline
 90
       97
 70
   128
 43
0.0
 10
-148.5145672241
 20
-781.568700237
 10
-148.6479177679
 20
-781.534234094
 10
-194.5262101086
 20
-769.7036005874
 10
-240.375788497
 20
-757.7775662179
 10
-286.120245749
 20
-745.5425823308
 10
-331.6831746804
 20
-732.7851002715
 10
-377.0471031043
 20
-719.4243562456
 10
-422.2026384877
 20
-705.5034254239
 10
-467.1165541186
 20
-690.9855711694
 10
-511.7556232852
 20
-675.834056845
 10
-547.9373458128
 20
-662.9981436833
 10
-583.9158202228
 20
-649.6656344137
 10
-619.6397354747
 20
-635.7426220697
 10
-655.0577805278
 20
-621.1351996847
 10
-690.1186443415
 20
-605.7494602923
 10
-707.9783157876
 20
-597.4906272378
 10
-725.6985489324
 20
-588.9350658884
 10
-746.4289054968
 20
-578.3846231059
 10
-766.8560710585
 20
-567.2339873651
 10
-786.8615493719
 20
-555.335792579
 10
-798.8821281691
 20
-547.6034679706
 10
-810.6627561532
 20
-539.4329229949
 10
-822.0638148514
 20
-530.7350241617
 10
-832.9456857911
 20
-521.4206379809
 10
-843.1687504993
 20
-511.4006309622
 10
-849.9924411777
 20
-503.6971849366
 10
-856.274308581
 20
-495.4874813144
 10
-861.8591526979
 20
-486.8021495873
 10
-866.5917735172
 20
-477.6718192471
 10
-869.7720604593
 20
-469.8681159186
 10
-872.3588298606
 20
-461.848769822
 10
-874.3925977242
 20
-453.7078125616
 10
-875.7794911372
 20
-446.1375340209
 10
-876.6791478578
 20
-438.5158284032
 10
-877.094384792
 20
-430.8936424807
 10
-876.8851342962
 20
-420.1691379014
 10
-875.8376701431
 20
-409.5223114656
 10
-874.060033919
 20
-398.9963438349
 10
-871.6602672106
 20
-388.6344156709
 10
-868.7464116043
 20
-378.479707635
 10
-863.5503837716
 20
-363.4371413848
 10
-857.5456859639
 20
-348.7063714327
 10
-850.8581125434
 20
-334.2620428518
 10
-843.613457872
 20
-320.0788007152
 10
-835.684722142
 20
-305.7479819782
 10
-827.2438047481
 20
-291.6242943335
 10
-818.2832318191
 20
-277.7342807862
 10
-808.7955294839
 20
-264.1044843417
 10
-800.7148310288
 20
-253.3102013268
 10
-792.1873092072
 20
-242.7865316545
 10
-786.4398114406
 20
-236.1961615567
 10
-780.4195194789
 20
-229.784239501
 10
-774.0821814015
 20
-223.6646600599
 10
-767.3835452878
 20
-217.9513178057
 10
-760.279359217
 20
-212.7581073109
 10
-754.8812745233
 20
-209.4284107163
 10
-749.2306550071
 20
-206.5164229467
 10
-743.3646969397
 20
-204.0887067848
 10
-736.8857047425
 20
-202.0759665317
 10
-730.2400263849
 20
-200.6292958648
 10
-723.5100992346
 20
-199.7027916361
 10
-713.4842175093
 20
-199.1301373448
 10
-703.4248029579
 20
-199.2963252708
 10
-693.3929764109
 20
-199.9986814257
 10
-679.7554685556
 20
-201.5205081376
 10
-666.1752793779
 20
-203.5180087484
 10
-652.6501667572
 20
-205.8419652784
 10
-625.1784481676
 20
-211.1711860412
 10
-597.8384137167
 20
-217.1166577842
 10
-570.6148857739
 20
-223.5355330197
 10
-543.4926867085
 20
-230.2849642598
 10
-506.7146191606
 20
-239.8846513935
 10
-470.1009625659
 20
-249.970736262
 10
-433.6598171592
 20
-260.5169117033
 10
-391.9483754392
 20
-273.1967488444
 10
-350.4748271109
 20
-286.4934677811
 10
-309.2665348068
 20
-300.4550271347
 10
-268.3508611596
 20
-315.1293855264
 10
-235.8766319858
 20
-327.4073339835
 10
-203.6271089002
 20
-340.2798550779
 10
-171.6661724914
 20
-353.8696316379
 10
-140.0577033483
 20
-368.2993464921
 10
-118.9400559746
 20
-378.6046557074
 10
-98.0716901814
 20
-389.4718085569
 10
-77.5320334693
 20
-401.0001586289
 10
-62.2232920051
 20
-410.2564518807
 10
-47.2283632018
 20
-420.0527055762
 10
-39.2528835345
 20
-425.6689319285
 10
-31.364221277
 20
-431.4178817233
 10
-24.704970563
 20
-436.2788723729
 10
-21.1884500494
 20
-438.8405341461
 10
-19.4435788759
 20
-440.1101314397
 10
-18.6087670173
 20
-440.7171948412
 10
-18.2168924773
 20
-441.0020790272
 10
-18.0346496239
 20
-441.1345477382
 10
-17.9670250904
 20
-441.1836997794
 10
-17.8778789408
 20
-441.2484921423
  0
LWPOLYLINE
  5
A1
330
1F
100
AcDbEntity
  8
0
  6
Continuous
 62
     7
370
    25
100
AcDbPolyline
 90
       25
 70
   128
 43
0.0
 10
613.3598952743
 20
1203.1821306872
 10
613.3040095188
 20
1203.0022302712
 10
605.913578997
 20
1178.9994541474
 10
598.5755598893
 20
1154.9964436914
 10
591.1931434456
 20
1131.0612959311
 10
583.6695209154
 20
1107.2621078941
 10
575.9728136592
 20
1083.6487392759
 10
568.1232262893
 20
1060.1694396647
 10
560.1284642437
 20
1036.8219274573
 10
551.9962329599
 20
1013.6039210502
 10
540.5095256903
 20
981.626959609
 10
528.7636748845
 20
949.8261590776
 10
516.7556335202
 20
918.1631577144
 10
516.5687320197
 20
917.6766545785
 10
503.1122865416
 20
883.1299273972
 10
489.3081657441
 20
848.6445328556
 10
475.1344733195
 20
814.1923332527
 10
460.5693129599
 20
779.7451908872
 10
450.5496022068
 20
756.5882181293
 10
440.3359538898
 20
733.4231458707
 10
429.9295460923
 20
710.2626267197
 10
419.2539354152
 20
686.950423341
 10
408.3881725081
 20
663.6593258835
 10
397.3524821094
 20
640.4233060849
 10
397.2747309824
 20
640.2610321478
  0
LWPOLYLINE
  5
A2
330
1F
100
AcDbEntity
  8
0
  6
Continuous
 62
     7
370
    25
100
AcDbPolyline
 90
       26
 70
   128
 43
0.0
 10
397.2747309824
 20
640.2610321478
 10
397.3255330931
 20
640.4336508431
 10
404.5184915178
 20
664.5731043732
 10
411.8697331416
 20
688.6479593745
 10
419.3716635148
 20
712.626341034
 10
427.0166881879
 20
736.4763745387
 10
437.4138859616
 20
768.0269922544
 10
448.0525342997
 20
799.3568210107
 10
458.9202894085
 20
830.4632911062
 10
470.4473497221
 20
862.5621900112
 10
482.2214002913
 20
894.4782179333
 10
494.2492950516
 20
926.2442837128
 10
507.6643444909
 20
960.7521919337
 10
521.4259075205
 20
995.1800941227
 10
535.5660412962
 20
1029.5596570575
 10
550.1168029737
 20
1063.922547516
 10
560.1391543351
 20
1087.0081877278
 10
570.374560102
 20
1110.0995778108
 10
580.8259390172
 20
1133.1833365647
 10
592.4683740999
 20
1158.2999630447
 10
604.217896372
 20
1183.4402968583
 10
609.9025774102
 20
1195.6937532045
 10
612.105853445
 20
1200.462720732
 10
612.9131611987
 20
1202.2129573882
 10
613.2810496118
 20
1203.0110437538
 10
613.3598952743
 20
1203.1821306872
  0
LWPOLYLINE
  5
A3
330
1F
100
AcDbEntity
  8
0
  6
Continuous
 62
     7
370
    25
100
AcDbPolyline
 90
       84
 70
   128
 43
0.0
 10
-17.8778789408
 20
-441.2484921423
 10
-17.9874815648
 20
-441.2369896638
 10
-41.0720270473
 20
-438.7092426988
 10
-64.1104516482
 20
-435.8613734218
 10
-87.0489554121
 20
-432.5261548198
 10
-109.8337383841
 20
-428.53635988
 10
-139.9389244701
 20
-422.233317741
 10
-169.8147104823
 20
-415.0720540664
 10
-199.4727485852
 20
-407.2001451794
 10
-230.1535856616
 20
-398.3813142168
 10
-260.6587641526
 20
-389.0045756188
 10
-291.0057422569
 20
-379.1414391888
 10
-332.1022156019
 20
-365.0394296138
 10
-372.9851439304
 20
-350.2283826575
 10
-413.673036402
 20
-334.7770210477
 10
-454.1844021765
 20
-318.7540675126
 10
-489.1259652873
 20
-304.4643810319
 10
-523.9690678812
 20
-289.8305645676
 10
-558.7302511336
 20
-274.9135271589
 10
-592.2833836181
 20
-260.2432097658
 10
-625.8708108288
 20
-245.5792291572
 10
-659.6464420099
 20
-231.3060600714
 10
-671.6774400643
 20
-226.4404880376
 10
-683.8100531966
 20
-221.8273967454
 10
-696.0924343149
 20
-217.6423072221
 10
-702.4409863608
 20
-215.7354370819
 10
-708.8784046038
 20
-214.0987967817
 10
-715.391102635
 20
-212.8823378551
 10
-721.9654940456
 20
-212.2360118357
 10
-726.382761085
 20
-212.2179855843
 10
-730.7891410078
 20
-212.6201087923
 10
-735.1062600308
 20
-213.5046828493
 10
-738.1331484595
 20
-214.4710680844
 10
-742.7780932637
 20
-216.6016406797
 10
-747.1129660455
 20
-219.3512707825
 10
-751.0850836413
 20
-222.570229299
 10
-756.6311910863
 20
-228.169311749
 10
-761.6140347651
 20
-234.2812996429
 10
-766.1518388707
 20
-240.7562302931
 10
-770.3628275958
 20
-247.4441410119
 10
-774.365225133
 20
-254.1950691113
 10
-783.7111160014
 20
-270.752549886
 10
-792.5847452638
 20
-287.4394520175
 10
-801.133446366
 20
-304.1800921977
 10
-809.504552754
 20
-320.8987871186
 10
-817.8516702235
 20
-337.7017543027
 10
-825.9941103726
 20
-354.5666581753
 10
-833.7623356724
 20
-371.5945618331
 10
-840.9868085937
 20
-388.886528373
 10
-844.1219875091
 20
-397.0421629282
 10
-847.0130175814
 20
-405.3468536859
 10
-849.465203556
 20
-413.8019657835
 10
-851.2838501782
 20
-422.4088643584
 10
-852.2742621934
 20
-431.1689145479
 10
-852.3498184855
 20
-436.1743458887
 10
-851.9371718322
 20
-441.1938813169
 10
-850.9395752406
 20
-446.1319115352
 10
-848.8184462943
 20
-451.8711982455
 10
-845.7216727454
 20
-457.1775810743
 10
-844.2020193769
 20
-459.1856814978
 10
-839.1834795303
 20
-464.6244621976
 10
-833.5443862543
 20
-469.4776680652
 10
-827.4912387031
 20
-473.8566655671
 10
-821.2305360311
 20
-477.8728211696
 10
-809.8960528813
 20
-484.4323420053
 10
-798.2751746666
 20
-490.45999495
 10
-786.44713241
 20
-496.0787903287
 10
-774.4911571347
 20
-501.411738466
 10
-762.4864798635
 20
-506.5818496867
 10
-732.0906103385
 20
-519.2443358758
 10
-701.577937346
 20
-531.5564300691
 10
-654.9990915915
 20
-550.2870112257
 10
-608.4762360107
 20
-569.1650862962
 10
-562.039504678
 20
-588.2978867328
 10
-515.719031668
 20
-607.7926439879
 10
-469.5449510549
 20
-627.756589514
 10
-423.3809539274
 20
-648.2991753563
 10
-377.3586552557
 20
-669.3214660601
 10
-331.4886861407
 20
-690.8031052108
 10
-285.7816776833
 20
-712.7237363938
 10
-240.2482609843
 20
-735.0630031946
 10
-194.3489305422
 20
-758.065336853
 10
-148.6367303997
 20
-781.5050888996
 10
-148.5145672241
 20
-781.568700237
  0
LWPOLYLINE
  5
A4
330
1F
100
AcDbEntity
  8
0
  6
Continuous
 62
     7
370
    25
100
AcDbPolyline
 90
       91
 70
   128
 43
0.0
 10
-148.5145672241
 20
-781.568700237
 10
-148.3812179998
 20
-781.6031709213
 10
-102.5704066611
 20
-793.686392837
 10
-56.8780246816
 20
-806.1964601377
 10
-11.3144509655
 20
-819.0959231059
 10
34.1099355833
 20
-832.3473320243
 10
79.3796562378
 20
-845.9571125876
 10
124.4887673556
 20
-859.9591171483
 10
169.4251922738
 20
-874.3523030704
 10
214.1768543292
 20
-889.1356277179
 10
259.4064757563
 20
-904.5475742633
 10
304.464295721
 20
-920.3337435786
 10
349.3832796966
 20
-936.4292173312
 10
394.1963931563
 20
-952.7690771887
 10
427.1286766062
 20
-964.8773981264
 10
460.1116420816
 20
-976.8903463451
 10
485.1007261323
 20
-985.7585336178
 10
510.2678751211
 20
-994.1802997855
 10
523.0364753517
 20
-998.1730655202
 10
535.9263049954
 20
-1001.8460538499
 10
548.9590556436
 20
-1004.9453592172
 10
562.1564188875
 20
-1007.2170760644
 10
567.8675925591
 20
-1007.8558197149
 10
573.6261125379
 20
-1008.1749044771
 10
579.3749287396
 20
-1008.0481812965
 10
585.0569910799
 20
-1007.349501119
 10
590.6946378148
 20
-1005.8551104144
 10
595.9934103634
 20
-1003.474308365
 10
597.9015118098
 20
-1002.3294009848
 10
602.595380839
 20
-998.7779162574
 10
606.7772724091
 20
-994.6317205263
 10
610.4705350827
 20
-990.0960493841
 10
615.3450128065
 20
-982.8001522127
 10
619.5668616506
 20
-975.1313865409
 10
623.2681619717
 20
-967.1975171752
 10
626.5809941263
 20
-959.1063089218
 10
629.637438471
 20
-950.965526587
 10
635.6952431021
 20
-933.4178172853
 10
641.2189680777
 20
-915.7161312055
 10
646.3848109643
 20
-897.8923565102
 10
651.3689693285
 20
-879.9783813618
 10
656.3442159131
 20
-861.8891265533
 10
661.1994633247
 20
-843.6607815809
 10
665.7563849209
 20
-825.2488377198
 10
669.8366540592
 20
-806.6087862449
 10
671.2631096656
 20
-799.2734388392
 10
672.4945605101
 20
-791.8525721564
 10
673.3620052303
 20
-784.3766942019
 10
673.6964424632
 20
-776.8763129808
 10
673.3288708462
 20
-769.3819364984
 10
672.5323979791
 20
-764.322920413
 10
671.1507980804
 20
-759.3699070364
 10
669.1225169498
 20
-754.6700244173
 10
666.3603611847
 20
-750.2626080497
 10
662.9969743483
 20
-746.2520339737
 10
659.1926846136
 20
-742.6772496375
 10
658.5823912812
 20
-742.1708516358
 10
653.1990306515
 20
-738.2109359681
 10
647.4742025381
 20
-734.725010914
 10
641.5209794249
 20
-731.607614159
 10
635.4524337961
 20
-728.7532833886
 10
623.5431210025
 20
-723.6683245847
 10
611.4622023816
 20
-718.9946106519
 10
599.289407233
 20
-714.5727007806
 10
564.7163450718
 20
-702.6116083072
 10
530.0235112811
 20
-691.0614464651
 10
495.3521367493
 20
-679.537914513
 10
459.5558918707
 20
-667.369776924
 10
423.8881425886
 20
-654.9366404053
 10
388.377314737
 20
-642.1822435105
 10
347.5473801271
 20
-626.9819678535
 10
306.9687314262
 20
-611.2387993902
 10
266.6735984212
 20
-594.8892866484
 10
226.6942108987
 20
-577.8699781561
 10
194.9834430668
 20
-563.7392175833
 10
163.5157705274
 20
-549.0487948038
 10
132.3501097473
 20
-533.6977003903
 10
101.5453771936
 20
-517.5849249156
 10
81.0272108727
 20
-506.2329237082
 10
60.7449851381
 20
-494.4043333488
 10
40.7550079738
 20
-482.038550582
 10
25.8797035923
 20
-472.2979230678
 10
11.2176211654
 20
-462.204348775
 10
-8.3358477281
 20
-448.1674806822
 10
-13.8230317665
 20
-444.1926731171
 10
-16.0684113295
 20
-442.5630392392
 10
-17.0552679387
 20
-441.846245538
 10
-17.5009352158
 20
-441.5224286684
 10
-17.7045423129
 20
-441.3744672319
 10
-17.7887316572
 20
-441.3132826046
 10
-17.8778789408
 20
-441.2484921423
  0
LWPOLYLINE
  5
A5
330
1F
100
AcDbEntity
  8
0
  6
Continuous
 62
     7
370
    25
100
AcDbPolyline
 90
       23
 70
   128
 43
0.0
 10
-17.8778789408
 20
-441.2484921423
 10
-17.8988920199
 20
-441.3591254045
 10
-20.988179762
 20
-456.8015394229
 10
-24.3661128866
 20
-472.1617114159
 10
-28.0158645662
 20
-487.3992567883
 10
-31.9206079735
 20
-502.4737909448
 10
-37.4736544152
 20
-522.2479528182
 10
-43.407344889
 20
-541.7765972943
 10
-49.6826906348
 20
-561.073930685
 10
-56.8046822169
 20
-581.6781750529
 10
-64.2809705302
 20
-602.1030891353
 10
-72.1061375025
 20
-622.3880293836
 10
-80.1596959366
 20
-642.2800285921
 10
-88.5764992967
 20
-662.1106184252
 10
-97.3746335436
 20
-681.8866370327
 10
-106.5721846377
 20
-701.6149225645
 10
-116.3426972825
 20
-721.6026112666
 10
-126.5575101006
 20
-741.5234223935
 10
-131.876018963
 20
-751.5330274428
 10
-137.3025841637
 20
-761.5121687454
 10
-142.8559198806
 20
-771.4831572154
 10
-148.4453952297
 20
-781.4447863812
 10
-148.5145672241
 20
-781.568700237
  0
LWPOLYLINE
  5
A6
330
1F
100
AcDbEntity
  8
0
  6
Continuous
 62
     7
370
    25
100
AcDbPolyline
 90
       23
 70
   128
 43
0.0
 10
240.6712839022
 20
232.2951046657
 10
240.6426719103
 20
232.1708883395
 10
236.257604897
 20
213.3684064732
 10
231.7268258972
 20
194.6292659746
 10
226.9885952583
 20
176.0130180469
 10
221.9811733276
 20
157.5792138934
 10
216.6428204527
 20
139.3874047174
 10
209.3195839142
 20
116.2854053502
 10
201.5903029423
 20
93.4439239032
 10
193.4723068036
 20
70.8204962295
 10
184.9829247651
 20
48.3726581824
 10
176.3164425515
 20
26.5219508029
 10
167.2692229241
 20
4.7470555653
 10
157.8209386459
 20
-16.965495096
 10
147.9512624796
 20
-38.6291687467
 10
141.0287440381
 20
-53.2500482513
 10
133.8953448708
 20
-67.8505814815
 10
126.5523988374
 20
-82.4164167628
 10
120.8587391781
 20
-93.406135937
 10
115.0487656907
 20
-104.3659189366
 10
109.1077963151
 20
-115.3255239987
 10
103.0638055998
 20
-126.2411350424
 10
102.9946969
 20
-126.364666598
  0
LWPOLYLINE
  5
A7
330
1F
100
AcDbEntity
  8
0
  6
Continuous
 62
     7
370
    25
100
AcDbPolyline
 90
       93
 70
   128
 43
0.0
 10
102.9946969
 20
-126.364666598
 10
103.1276645931
 20
-126.3989419768
 10
148.7166557487
 20
-137.7911704761
 10
194.4077216755
 20
-148.7563183821
 10
240.0940510223
 20
-159.6618172267
 10
285.6688324377
 20
-170.875098542
 10
331.0826610163
 20
-182.5963416684
 10
376.3290651384
 20
-194.7973034897
 10
421.3816548325
 20
-207.5068290622
 10
466.214040127
 20
-220.753763442
 10
511.3950115821
 20
-234.7464562839
 10
556.3297271238
 20
-249.371344865
 10
600.988522432
 20
-264.7013910562
 10
645.3417331864
 20
-280.809556728
 10
675.045552192
 20
-292.1629611931
 10
704.5859068541
 20
-303.9735476128
 10
733.9497180943
 20
-316.2698233032
 10
763.1239068344
 20
-329.0802955809
 10
781.6346469937
 20
-337.5138698837
 10
800.1340511402
 20
-346.0285953744
 10
809.4161339236
 20
-350.3368846323
 10
818.7720751677
 20
-354.5330405056
 10
828.2895205176
 20
-358.2971606847
 10
838.0561156187
 20
-361.30934286
 10
842.5029745606
 20
-362.256119392
 10
847.0300886138
 20
-362.7592238471
 10
851.5580739585
 20
-362.6635673163
 10
856.0348681792
 20
-361.8233560451
 10
859.4246537911
 20
-360.5957012336
 10
862.6387197071
 20
-358.9276273315
 10
865.6328631524
 20
-356.9151436255
 10
869.4078646667
 20
-353.7357235667
 10
875.0801879933
 20
-347.8168976774
 10
880.2138881912
 20
-341.4232888027
 10
885.0106143571
 20
-334.8037186727
 10
892.1815546203
 20
-324.3382674603
 10
899.1097650892
 20
-313.7720129706
 10
905.9202475346
 20
-303.1914288031
 10
922.3785556889
 20
-277.7619301753
 10
938.8644396104
 20
-252.5472121102
 10
955.4026652699
 20
-227.4394183154
 10
972.0179986385
 20
-202.3306924985
 10
980.4102342076
 20
-189.7421133041
 10
988.7786410758
 20
-177.0612999647
 10
996.9155795738
 20
-164.180422816
 10
1004.6134100324
 20
-150.9916521934
 10
1011.6644927824
 20
-137.3871584327
 10
1014.3513967953
 20
-131.5211392392
 10
1016.7205510975
 20
-125.4827773856
 10
1018.5670366409
 20
-119.2819054213
 10
1019.6859343775
 20
-112.9283558958
 10
1019.8590950083
 20
-107.6819333641
 10
1019.1485718657
 20
-102.4808282319
 10
1018.3996201426
 20
-99.9188519618
 10
1016.7837010282
 20
-96.1932391169
 10
1014.6719067593
 20
-92.6938528591
 10
1012.1797103393
 20
-89.4648980132
 10
1010.9299461763
 20
-88.0701793635
 10
1006.6459748786
 20
-83.9564790853
 10
1001.9754984551
 20
-80.2516039651
 10
997.0328309247
 20
-76.8882027319
 10
991.9322863065
 20
-73.7989241145
 10
982.680009722
 20
-68.8082165985
 10
973.1852684813
 20
-64.2775156443
 10
963.543657611
 20
-60.0753090215
 10
940.1941425205
 20
-50.7231794275
 10
916.5776903199
 20
-42.0724330502
 10
892.7836904688
 20
-33.9101051433
 10
868.9015324264
 20
-26.0232309606
 10
845.0206056521
 20
-18.1988457558
 10
786.5469074155
 20
1.1071986886
 10
728.234133811
 20
20.6654912483
 10
678.0205959316
 20
37.9970472777
 10
628.0239587958
 20
55.8167670343
 10
578.2753544854
 20
74.2131455618
 10
528.8059150822
 20
93.2746779036
 10
491.9259249099
 20
108.0514241916
 10
455.233346056
 20
123.3263923561
 10
418.7683831609
 20
139.1851573726
 10
382.5712408653
 20
155.7132942164
 10
358.452314639
 20
167.2330620094
 10
334.5006015879
 20
179.1565384669
 10
310.753453132
 20
191.5331744404
 10
293.0155206923
 20
201.1927728186
 10
275.4427347731
 20
211.1796312758
 10
264.0758696062
 20
217.9281574719
 10
252.7905141483
 20
224.8211678168
 10
245.6405770422
 20
229.2275588056
 10
242.6355432394
 20
231.082116025
 10
241.4348734886
 20
231.8234980162
 10
240.9660854641
 20
232.1130199311
 10
240.7780950433
 20
232.2291311222
 10
240.6712839022
 20
232.2951046657
  0
LWPOLYLINE
  5
A8
330
1F
100
AcDbEntity
  8
0
  6
Continuous
 62
     7
370
    25
100
AcDbPolyline
 90
       21
 70
   128
 43
0.0
 10
-148.5145672241
 20
-781.568700237
 10
-148.4830574811
 20
-781.4303291974
 10
-144.4945551629
 20
-764.1733530203
 10
-140.3661648115
 20
-746.9635337155
 10
-136.0607534841
 20
-729.8464066289
 10
-131.5411882378
 20
-712.8675071062
 10
-126.7703361299
 20
-696.0723704933
 10
-120.2825761679
 20
-674.7435198939
 10
-113.4490307972
 20
-653.6582373213
 10
-106.2796634568
 20
-632.7987260779
 10
-98.7844375859
 20
-612.1471894657
 10
-87.7117953551
 20
-583.4656486401
 10
-75.9093574285
 20
-555.0217557336
 10
-67.5791016667
 20
-536.1339825057
 10
-58.8326426308
 20
-517.3059302837
 10
-49.6290967175
 20
-498.5508582861
 10
-42.1768084783
 20
-484.1271099336
 10
-34.4005744704
 20
-469.7542553105
 10
-26.3154002272
 20
-455.478179897
 10
-17.9362912822
 20
-441.3447691728
 10
-17.8778789408
 20
-441.2484921423
  0
LWPOLYLINE
  5
A9
330
1F
100
AcDbEntity
  8
0
  6
Continuous
 62
     7
370
    25
100
AcDbPolyline
 90
       84
 70
   128
 43
0.0
 10
240.6712839022
 20
232.2951046657
 10
240.5477628382
 20
232.3175473719
 10
213.970940341
 20
237.4062190752
 10
187.4987436533
 20
243.0041863268
 10
161.1586182859
 20
249.1196971003
 10
134.9780097496
 20
255.7609993692
 10
108.9843635554
 20
262.9363411072
 10
76.3260975356
 20
272.6676454807
 10
43.8712437243
 20
282.9686640089
 10
11.601627164
 20
293.7662366486
 10
-20.500927103
 20
304.9872033563
 10
-71.6648219315
 20
323.7165032476
 10
-122.5312074777
 20
343.2655178104
 10
-173.1441262589
 20
363.5288388978
 10
-223.5476207924
 20
384.4010583632
 10
-273.8881471954
 20
405.9088168743
 10
-324.1145628738
 20
427.8401876419
 10
-374.3509301064
 20
449.890080724
 10
-424.7213111721
 20
471.7534061784
 10
-449.0455798914
 20
482.04086729
 10
-473.565797531
 20
491.8741348413
 10
-486.0093460817
 20
496.5788482844
 10
-498.5801212659
 20
500.9762077046
 10
-511.3120776659
 20
504.8247689138
 10
-524.2391698643
 20
507.8830877244
 10
-531.6899612973
 20
509.1353173264
 10
-539.2226135278
 20
509.7860161356
 10
-546.7421957386
 20
509.5615643435
 10
-551.8825602467
 20
508.7160585379
 10
-556.8336007069
 20
507.1365754071
 10
-561.5925669264
 20
504.5925490666
 10
-564.7604864418
 20
502.0857520187
 10
-567.56535846
 20
499.1545723952
 10
-570.0011838612
 20
495.931551055
 10
-571.4719537752
 20
493.6079841974
 10
-574.7420899789
 20
487.2540044452
 10
-577.3748582375
 20
480.6014882018
 10
-579.5531442215
 20
473.8059818435
 10
-583.4351332495
 20
459.0134333474
 10
-586.5490243413
 20
444.0933145713
 10
-589.123862981
 20
429.1057809963
 10
-591.3886946527
 20
414.1109881035
 10
-593.5725648404
 20
399.1690913742
 10
-599.1169814028
 20
361.739980643
 10
-604.793554688
 20
324.3633573668
 10
-607.6759199768
 20
306.8600568534
 10
-610.6956353211
 20
289.3023319065
 10
-613.6232440604
 20
271.6503223078
 10
-616.2292895339
 20
253.8641678387
 10
-618.2843150811
 20
235.9040082809
 10
-618.7618380747
 20
230.0870139889
 10
-618.9908101443
 20
224.2274866773
 10
-618.8005198377
 20
218.3769639996
 10
-618.0202557028
 20
212.5869836089
 10
-616.7951710066
 20
208.0278979534
 10
-614.8764456846
 20
203.7168547885
 10
-613.3397148422
 20
201.2987844649
 10
-611.5440200864
 20
199.0646335178
 10
-608.1044293152
 20
195.8124116936
 10
-604.2265558678
 20
193.0456491487
 10
-600.0945885446
 20
190.6934655217
 10
-594.9687366015
 20
188.2774472731
 10
-580.8977599838
 20
182.6964979651
 10
-566.5695069112
 20
177.8350549537
 10
-552.0943726845
 20
173.4040250784
 10
-537.5827526041
 20
169.1143151783
 10
-523.1450419708
 20
164.6768320927
 10
-487.3853626571
 20
152.8017069154
 10
-451.9145413415
 20
140.2179989619
 10
-412.6097144081
 20
125.3849403512
 10
-373.5845875641
 20
109.8235731186
 10
-334.8127923535
 20
93.6033450074
 10
-296.2679603204
 20
76.7937037609
 10
-257.9237230091
 20
59.4640971224
 10
-212.2524678052
 20
38.0908045548
 10
-166.8149065769
 20
16.0568540205
 10
-121.6104219041
 20
-6.5896619595
 10
-76.6383963664
 20
-29.8006508646
 10
-31.6850089946
 20
-53.6395972441
 10
13.0761250938
 20
-77.9165151599
 10
42.9069751297
 20
-94.22046428
 10
72.8173914211
 20
-110.3948010554
 10
102.872947942
 20
-126.3011654152
 10
102.9946969
 20
-126.364666598
  0
LWPOLYLINE
  5
AA
330
1F
100
AcDbEntity
  8
0
  6
Continuous
 62
     7
370
    25
100
AcDbPolyline
 90
       22
 70
   128
 43
0.0
 10
102.9946969
 20
-126.364666598
 10
103.0259978719
 20
-126.2266220154
 10
107.4420726175
 20
-107.3781620457
 10
112.1220524373
 20
-88.6107204955
 10
117.0567677697
 20
-69.9623245421
 10
122.2370490532
 20
-51.4710013626
 10
127.6537267263
 20
-33.1747781345
 10
134.9497067738
 20
-9.9307725219
 10
142.6087201865
 20
13.0551519003
 10
150.6237206114
 20
35.8076320278
 10
158.9876616958
 20
58.3513047559
 10
167.4980284495
 20
80.2084422163
 10
176.3833261254
 20
101.9518377316
 10
185.6818015169
 20
123.600822566
 10
195.4317014177
 20
145.1747279836
 10
202.3676842431
 20
159.7555875471
 10
209.6085363749
 20
174.3078798885
 10
217.1036974052
 20
188.8292185956
 10
224.8026069264
 20
203.3172172558
 10
232.6547045306
 20
217.7694894568
 10
240.6094298102
 20
232.1836487862
 10
240.6712839022
 20
232.2951046657
  0
ARC
  5
AB
330
1F
100
AcDbEntity
  8
0
  6
Continuous
 62
     7
370
    25
100
AcDbCircle
 10
1652.4142543757
 20
-992.8296966161
 30
0.0
 40
2.2500000000004
100
AcDbArc
 50
281.1281260491
 51
341.1281260491
  0
ARC
  5
AC
330
1F
100
AcDbEntity
  8
0
  6
Continuous
 62
     7
370
    25
100
AcDbCircle
 10
1652.7616609497
 20
-994.595853085
 30
0.0
 40
0.4500000000002837
100
AcDbArc
 50
281.128126049
 51
357.7863678219
  0
ARC
  5
AD
330
1F
100
AcDbEntity
  8
0
  6
Continuous
 62
     7
370
    25
100
AcDbCircle
 10
1653.998237471
 20
-994.6436522142
 30
0.0
 40
0.7875000000001671
100
AcDbArc
 50
84.4698842763
 51
177.7863678218
  0
ARC
  5
AE
330
1F
100
AcDbEntity
  8
0
  6
Continuous
 62
     7
370
    25
100
AcDbCircle
 10
1654.1174940318
 20
-993.4119119321
 30
0.0
 40
0.4500000000003496
100
AcDbArc
 50
264.4698842763
 51
341.1281260491
  0
ARC
  5
AF
330
1F
100
AcDbEntity
  8
0
  6
Continuous
 62
     7
370
    25
100
AcDbCircle
 10
1652.4142543757
 20
-992.8296966161
 30
0.0
 40
2.250000000000387
100
AcDbArc
 50
41.1281260491
 51
101.1281260491
  0
ARC
  5
B0
330
1F
100
AcDbEntity
  8
0
  6
Continuous
 62
     7
370
    25
100
AcDbCircle
 10
1652.4142543757
 20
-992.8296966161
 30
0.0
 40
2.250000000000387
100
AcDbArc
 50
101.1281260491
 51
161.1281260491
  0
ARC
  5
B1
330
1F
100
AcDbEntity
  8
0
  6
Continuous
 62
     7
370
    25
100
AcDbCircle
 10
1652.4142543757
 20
-992.8296966161
 30
0.0
 40
2.250000000000363
100
AcDbArc
 50
161.1281260491
 51
221.1281260491
  0
ARC
  5
B2
330
1F
100
AcDbEntity
  8
0
  6
Continuous
 62
     7
370
    25
100
AcDbCircle
 10
1652.4142543757
 20
-992.8296966161
 30
0.0
 40
2.250000000000275
100
AcDbArc
 50
221.1281260491
 51
281.1281260491
  0
ARC
  5
B3
330
1F
100
AcDbEntity
  8
0
  6
Continuous
 62
     7
370
    25
100
AcDbCircle
 10
1652.4142543757
 20
-992.8296966161
 30
0.0
 40
2.2500000000004
100
AcDbArc
 50
341.1281260491
 51
41.1281260491
  0
CIRCLE
  5
B4
330
1F
100
AcDbEntity
  8
0
  6
Continuous
 62
     7
370
    25
100
AcDbCircle
 10
1652.4142543757
 20
-992.8296966161
 30
0.0
 40
3.850000000000071
  0
ARC
  5
B5
330
1F
100
AcDbEntity
  8
0
  6
Continuous
 62
     7
370
    25
100
AcDbCircle
 10
1653.7700874578
 20
-991.6457554632
 30
0.0
 40
0.4500000000001471
100
AcDbArc
 50
324.4698842763
 51
41.1281260491
  0
ARC
  5
B6
330
1F
100
AcDbEntity
  8
0
  6
Continuous
 62
     7
370
    25
100
AcDbCircle
 10
1654.1174940318
 20
-993.4119119321
 30
0.0
 40
0.4500000000003496
100
AcDbArc
 50
341.1281260491
 51
57.7863678219
  0
ARC
  5
B7
330
1F
100
AcDbEntity
  8
0
  6
Continuous
 62
     7
370
    25
100
AcDbCircle
 10
1654.7771775527
 20
-992.3649048155
 30
0.0
 40
0.7874999999999006
100
AcDbArc
 50
144.4698842763
 51
237.7863678218
  0
ARC
  5
B8
330
1F
100
AcDbEntity
  8
0
  6
Continuous
 62
     7
370
    25
100
AcDbCircle
 10
1650.7110147197
 20
-992.2474813002
 30
0.0
 40
0.4500000000003496
100
AcDbArc
 50
84.4698842763
 51
161.1281260491
  0
ARC
  5
B9
330
1F
100
AcDbEntity
  8
0
  6
Continuous
 62
     7
370
    25
100
AcDbCircle
 10
1650.8302712804
 20
-991.015741018
 30
0.0
 40
0.7875000000001715
100
AcDbArc
 50
264.4698842763
 51
357.7863678218
  0
ARC
  5
BA
330
1F
100
AcDbEntity
  8
0
  6
Continuous
 62
     7
370
    25
100
AcDbCircle
 10
1652.0668478018
 20
-991.0635401473
 30
0.0
 40
0.4500000000004629
100
AcDbArc
 50
101.128126049
 51
177.7863678219
  0
ARC
  5
BB
330
1F
100
AcDbEntity
  8
0
  6
Continuous
 62
     7
370
    25
100
AcDbCircle
 10
1653.1931944574
 20
-990.5509492174
 30
0.0
 40
0.7875000000001806
100
AcDbArc
 50
204.4698842763
 51
297.7863678219
  0
ARC
  5
BC
330
1F
100
AcDbEntity
  8
0
  6
Continuous
 62
     7
370
    25
100
AcDbCircle
 10
1653.7700874578
 20
-991.6457554632
 30
0.0
 40
0.4499999999998462
100
AcDbArc
 50
41.1281260491
 51
117.7863678218
  0
ARC
  5
BD
330
1F
100
AcDbEntity
  8
0
  6
Continuous
 62
     7
370
    25
100
AcDbCircle
 10
1652.0668478018
 20
-991.0635401473
 30
0.0
 40
0.4500000000004629
100
AcDbArc
 50
24.4698842763
 51
101.128126049
  0
ARC
  5
BE
330
1F
100
AcDbEntity
  8
0
  6
Continuous
 62
     7
370
    25
100
AcDbCircle
 10
1650.7110147197
 20
-992.2474813002
 30
0.0
 40
0.4500000000003496
100
AcDbArc
 50
161.1281260491
 51
237.7863678219
  0
ARC
  5
BF
330
1F
100
AcDbEntity
  8
0
  6
Continuous
 62
     7
370
    25
100
AcDbCircle
 10
1650.0513311988
 20
-993.2944884168
 30
0.0
 40
0.7875000000000044
100
AcDbArc
 50
324.4698842763
 51
57.7863678218
  0
ARC
  5
C0
330
1F
100
AcDbEntity
  8
0
  6
Continuous
 62
     7
370
    25
100
AcDbCircle
 10
1651.0584212936
 20
-994.013637769
 30
0.0
 40
0.4500000000000149
100
AcDbArc
 50
144.4698842763
 51
221.1281260491
  0
ARC
  5
C1
330
1F
100
AcDbEntity
  8
0
  6
Continuous
 62
     7
370
    25
100
AcDbCircle
 10
1651.6353142941
 20
-995.1084440149
 30
0.0
 40
0.7875000000004347
100
AcDbArc
 50
24.4698842763
 51
117.7863678219
  0
ARC
  5
C2
330
1F
100
AcDbEntity
  8
0
  6
Continuous
 62
     7
370
    25
100
AcDbCircle
 10
1652.7616609497
 20
-994.595853085
 30
0.0
 40
0.4500000000002837
100
AcDbArc
 50
204.4698842763
 51
281.128126049
  0
ARC
  5
C3
330
1F
100
AcDbEntity
  8
0
  6
Continuous
 62
     7
370
    25
100
AcDbCircle
 10
1651.0584212936
 20
-994.013637769
 30
0.0
 40
0.4500000000000475
100
AcDbArc
 50
221.1281260491
 51
297.7863678218
  0
ARC
  5
C4
330
1F
100
AcDbEntity
  8
0
  6
Continuous
 62
     7
370
    25
100
AcDbCircle
 10
1652.4142543757
 20
1117.1703033839
 30
0.0
 40
2.250000000000326
100
AcDbArc
 50
341.1281260491
 51
41.1281260491
  0
ARC
  5
C5
330
1F
100
AcDbEntity
  8
0
  6
Continuous
 62
     7
370
    25
100
AcDbCircle
 10
1654.1174940318
 20
1116.5880880679
 30
0.0
 40
0.450000000000276
100
AcDbArc
 50
341.1281260492
 51
57.7863678219
  0
ARC
  5
C6
330
1F
100
AcDbEntity
  8
0
  6
Continuous
 62
     7
370
    25
100
AcDbCircle
 10
1653.7700874578
 20
1118.3542445368
 30
0.0
 40
0.4500000000001471
100
AcDbArc
 50
324.4698842763
 51
41.1281260491
  0
ARC
  5
C7
330
1F
100
AcDbEntity
  8
0
  6
Continuous
 62
     7
370
    25
100
AcDbCircle
 10
1654.7771775527
 20
1117.6350951845
 30
0.0
 40
0.7874999999999333
100
AcDbArc
 50
144.4698842763
 51
237.7863678218
  0
ARC
  5
C8
330
1F
100
AcDbEntity
  8
0
  6
Continuous
 62
     7
370
    25
100
AcDbCircle
 10
1652.4142543757
 20
1117.1703033839
 30
0.0
 40
2.250000000000275
100
AcDbArc
 50
41.1281260491
 51
101.1281260491
  0
ARC
  5
C9
330
1F
100
AcDbEntity
  8
0
  6
Continuous
 62
     7
370
    25
100
AcDbCircle
 10
1653.1931944574
 20
1119.4490507826
 30
0.0
 40
0.7875000000002749
100
AcDbArc
 50
204.4698842763
 51
297.7863678219
  0
ARC
  5
CA
330
1F
100
AcDbEntity
  8
0
  6
Continuous
 62
     7
370
    25
100
AcDbCircle
 10
1653.7700874578
 20
1118.3542445368
 30
0.0
 40
0.4500000000000475
100
AcDbArc
 50
41.1281260491
 51
117.7863678218
  0
ARC
  5
CB
330
1F
100
AcDbEntity
  8
0
  6
Continuous
 62
     7
370
    25
100
AcDbCircle
 10
1652.0668478018
 20
1118.9364598527
 30
0.0
 40
0.4500000000003513
100
AcDbArc
 50
24.4698842763
 51
101.128126049
  0
ARC
  5
CC
330
1F
100
AcDbEntity
  8
0
  6
Continuous
 62
     7
370
    25
100
AcDbCircle
 10
1652.4142543757
 20
1117.1703033839
 30
0.0
 40
2.250000000000541
100
AcDbArc
 50
101.1281260491
 51
161.1281260491
  0
ARC
  5
CD
330
1F
100
AcDbEntity
  8
0
  6
Continuous
 62
     7
370
    25
100
AcDbCircle
 10
1650.8302712804
 20
1118.984258982
 30
0.0
 40
0.7875000000001715
100
AcDbArc
 50
264.4698842763
 51
357.7863678218
  0
ARC
  5
CE
330
1F
100
AcDbEntity
  8
0
  6
Continuous
 62
     7
370
    25
100
AcDbCircle
 10
1650.7110147197
 20
1117.7525186998
 30
0.0
 40
0.4500000000004912
100
AcDbArc
 50
84.4698842763
 51
161.1281260492
  0
ARC
  5
CF
330
1F
100
AcDbEntity
  8
0
  6
Continuous
 62
     7
370
    25
100
AcDbCircle
 10
1652.0668478018
 20
1118.9364598527
 30
0.0
 40
0.4500000000003513
100
AcDbArc
 50
101.128126049
 51
177.7863678219
  0
ARC
  5
D0
330
1F
100
AcDbEntity
  8
0
  6
Continuous
 62
     7
370
    25
100
AcDbCircle
 10
1652.4142543757
 20
1117.1703033839
 30
0.0
 40
2.250000000000326
100
AcDbArc
 50
281.1281260491
 51
341.1281260491
  0
ARC
  5
D1
330
1F
100
AcDbEntity
  8
0
  6
Continuous
 62
     7
370
    25
100
AcDbCircle
 10
1652.7616609497
 20
1115.404146915
 30
0.0
 40
0.4500000000003953
100
AcDbArc
 50
281.128126049
 51
357.7863678219
  0
ARC
  5
D2
330
1F
100
AcDbEntity
  8
0
  6
Continuous
 62
     7
370
    25
100
AcDbCircle
 10
1653.9982374711
 20
1115.3563477858
 30
0.0
 40
0.7875000000001715
100
AcDbArc
 50
84.4698842763
 51
177.7863678218
  0
ARC
  5
D3
330
1F
100
AcDbEntity
  8
0
  6
Continuous
 62
     7
370
    25
100
AcDbCircle
 10
1654.1174940318
 20
1116.5880880679
 30
0.0
 40
0.450000000000276
100
AcDbArc
 50
264.4698842763
 51
341.1281260492
  0
ARC
  5
D4
330
1F
100
AcDbEntity
  8
0
  6
Continuous
 62
     7
370
    25
100
AcDbCircle
 10
1652.4142543757
 20
1117.1703033839
 30
0.0
 40
2.250000000000541
100
AcDbArc
 50
161.1281260491
 51
221.1281260491
  0
ARC
  5
D5
330
1F
100
AcDbEntity
  8
0
  6
Continuous
 62
     7
370
    25
100
AcDbCircle
 10
1652.4142543757
 20
1117.1703033839
 30
0.0
 40
2.250000000000275
100
AcDbArc
 50
221.1281260491
 51
281.1281260491
  0
CIRCLE
  5
D6
330
1F
100
AcDbEntity
  8
0
  6
Continuous
 62
     7
370
    25
100
AcDbCircle
 10
1652.4142543757
 20
1117.1703033839
 30
0.0
 40
3.85000000000022
  0
ARC
  5
D7
330
1F
100
AcDbEntity
  8
0
  6
Continuous
 62
     7
370
    25
100
AcDbCircle
 10
1650.7110147197
 20
1117.7525186998
 30
0.0
 40
0.4500000000004912
100
AcDbArc
 50
161.1281260492
 51
237.7863678219
  0
ARC
  5
D8
330
1F
100
AcDbEntity
  8
0
  6
Continuous
 62
     7
370
    25
100
AcDbCircle
 10
1650.0513311988
 20
1116.7055115832
 30
0.0
 40
0.787499999999812
100
AcDbArc
 50
324.4698842763
 51
57.7863678218
  0
ARC
  5
D9
330
1F
100
AcDbEntity
  8
0
  6
Continuous
 62
     7
370
    25
100
AcDbCircle
 10
1651.0584212936
 20
1115.986362231
 30
0.0
 40
0.4500000000001471
100
AcDbArc
 50
144.4698842763
 51
221.1281260491
  0
ARC
  5
DA
330
1F
100
AcDbEntity
  8
0
  6
Continuous
 62
     7
370
    25
100
AcDbCircle
 10
1651.0584212936
 20
1115.986362231
 30
0.0
 40
0.4500000000000475
100
AcDbArc
 50
221.1281260491
 51
297.7863678218
  0
ARC
  5
DB
330
1F
100
AcDbEntity
  8
0
  6
Continuous
 62
     7
370
    25
100
AcDbCircle
 10
1652.7616609497
 20
1115.404146915
 30
0.0
 40
0.4500000000003953
100
AcDbArc
 50
204.4698842763
 51
281.128126049
  0
ARC
  5
DC
330
1F
100
AcDbEntity
  8
0
  6
Continuous
 62
     7
370
    25
100
AcDbCircle
 10
1651.6353142941
 20
1114.8915559851
 30
0.0
 40
0.7875000000004818
100
AcDbArc
 50
24.4698842763
 51
117.7863678219
  0
ARC
  5
DD
330
1F
100
AcDbEntity
  8
0
  6
Continuous
 62
     7
370
    25
100
AcDbCircle
 10
1652.4142543757
 20
1297.1703033839
 30
0.0
 40
2.250000000000326
100
AcDbArc
 50
101.1281260491
 51
161.1281260491
  0
ARC
  5
DE
330
1F
100
AcDbEntity
  8
0
  6
Continuous
 62
     7
370
    25
100
AcDbCircle
 10
1652.0668478018
 20
1298.9364598527
 30
0.0
 40
0.4500000000003513
100
AcDbArc
 50
101.128126049
 51
177.7863678219
  0
ARC
  5
DF
330
1F
100
AcDbEntity
  8
0
  6
Continuous
 62
     7
370
    25
100
AcDbCircle
 10
1650.8302712804
 20
1298.984258982
 30
0.0
 40
0.7875000000001627
100
AcDbArc
 50
264.4698842763
 51
357.7863678218
  0
ARC
  5
E0
330
1F
100
AcDbEntity
  8
0
  6
Continuous
 62
     7
370
    25
100
AcDbCircle
 10
1650.7110147197
 20
1297.7525186998
 30
0.0
 40
0.450000000000276
100
AcDbArc
 50
84.4698842763
 51
161.1281260492
  0
ARC
  5
E1
330
1F
100
AcDbEntity
  8
0
  6
Continuous
 62
     7
370
    25
100
AcDbCircle
 10
1652.4142543757
 20
1297.1703033839
 30
0.0
 40
2.250000000000231
100
AcDbArc
 50
41.1281260491
 51
101.1281260491
  0
ARC
  5
E2
330
1F
100
AcDbEntity
  8
0
  6
Continuous
 62
     7
370
    25
100
AcDbCircle
 10
1653.7700874578
 20
1298.3542445368
 30
0.0
 40
0.4500000000000475
100
AcDbArc
 50
41.1281260491
 51
117.7863678218
  0
ARC
  5
E3
330
1F
100
AcDbEntity
  8
0
  6
Continuous
 62
     7
370
    25
100
AcDbCircle
 10
1652.0668478018
 20
1298.9364598527
 30
0.0
 40
0.4500000000003513
100
AcDbArc
 50
24.4698842763
 51
101.128126049
  0
ARC
  5
E4
330
1F
100
AcDbEntity
  8
0
  6
Continuous
 62
     7
370
    25
100
AcDbCircle
 10
1653.1931944574
 20
1299.4490507826
 30
0.0
 40
0.7875000000004818
100
AcDbArc
 50
204.4698842763
 51
297.7863678219
  0
ARC
  5
E5
330
1F
100
AcDbEntity
  8
0
  6
Continuous
 62
     7
370
    25
100
AcDbCircle
 10
1652.4142543757
 20
1297.1703033839
 30
0.0
 40
2.250000000000541
100
AcDbArc
 50
341.1281260491
 51
41.1281260491
  0
ARC
  5
E6
330
1F
100
AcDbEntity
  8
0
  6
Continuous
 62
     7
370
    25
100
AcDbCircle
 10
1654.7771775527
 20
1297.6350951845
 30
0.0
 40
0.7874999999998478
100
AcDbArc
 50
144.4698842763
 51
237.7863678218
  0
ARC
  5
E7
330
1F
100
AcDbEntity
  8
0
  6
Continuous
 62
     7
370
    25
100
AcDbCircle
 10
1654.1174940318
 20
1296.5880880679
 30
0.0
 40
0.450000000000276
100
AcDbArc
 50
341.1281260492
 51
57.7863678219
  0
ARC
  5
E8
330
1F
100
AcDbEntity
  8
0
  6
Continuous
 62
     7
370
    25
100
AcDbCircle
 10
1653.7700874578
 20
1298.3542445368
 30
0.0
 40
0.4500000000000149
100
AcDbArc
 50
324.4698842763
 51
41.1281260491
  0
ARC
  5
E9
330
1F
100
AcDbEntity
  8
0
  6
Continuous
 62
     7
370
    25
100
AcDbCircle
 10
1652.4142543757
 20
1297.1703033839
 30
0.0
 40
2.250000000000326
100
AcDbArc
 50
161.1281260491
 51
221.1281260491
  0
ARC
  5
EA
330
1F
100
AcDbEntity
  8
0
  6
Continuous
 62
     7
370
    25
100
AcDbCircle
 10
1652.4142543757
 20
1297.1703033839
 30
0.0
 40
2.250000000000275
100
AcDbArc
 50
221.1281260491
 51
281.1281260491
  0
ARC
  5
EB
330
1F
100
AcDbEntity
  8
0
  6
Continuous
 62
     7
370
    25
100
AcDbCircle
 10
1652.4142543757
 20
1297.1703033839
 30
0.0
 40
2.250000000000541
100
AcDbArc
 50
281.1281260491
 51
341.1281260491
  0
CIRCLE
  5
EC
330
1F
100
AcDbEntity
  8
0
  6
Continuous
 62
     7
370
    25
100
AcDbCircle
 10
1652.4142543757
 20
1297.1703033839
 30
0.0
 40
3.850000000000242
  0
ARC
  5
ED
330
1F
100
AcDbEntity
  8
0
  6
Continuous
 62
     7
370
    25
100
AcDbCircle
 10
1652.7616609497
 20
1295.404146915
 30
0.0
 40
0.4500000000003513
100
AcDbArc
 50
281.128126049
 51
357.7863678219
  0
ARC
  5
EE
330
1F
100
AcDbEntity
  8
0
  6
Continuous
 62
     7
370
    25
100
AcDbCircle
 10
1654.1174940318
 20
1296.5880880679
 30
0.0
 40
0.450000000000409
100
AcDbArc
 50
264.4698842763
 51
341.1281260492
  0
ARC
  5
EF
330
1F
100
AcDbEntity
  8
0
  6
Continuous
 62
     7
370
    25
100
AcDbCircle
 10
1653.9982374711
 20
1295.3563477858
 30
0.0
 40
0.7875000000001715
100
AcDbArc
 50
84.4698842763
 51
177.7863678218
  0
ARC
  5
F0
330
1F
100
AcDbEntity
  8
0
  6
Continuous
 62
     7
370
    25
100
AcDbCircle
 10
1651.0584212937
 20
1295.986362231
 30
0.0
 40
0.4500000000000475
100
AcDbArc
 50
221.1281260491
 51
297.7863678218
  0
ARC
  5
F1
330
1F
100
AcDbEntity
  8
0
  6
Continuous
 62
     7
370
    25
100
AcDbCircle
 10
1652.7616609497
 20
1295.404146915
 30
0.0
 40
0.4500000000003513
100
AcDbArc
 50
204.4698842763
 51
281.128126049
  0
ARC
  5
F2
330
1F
100
AcDbEntity
  8
0
  6
Continuous
 62
     7
370
    25
100
AcDbCircle
 10
1651.6353142941
 20
1294.8915559851
 30
0.0
 40
0.7875000000002749
100
AcDbArc
 50
24.4698842763
 51
117.7863678219
  0
ARC
  5
F3
330
1F
100
AcDbEntity
  8
0
  6
Continuous
 62
     7
370
    25
100
AcDbCircle
 10
1651.0584212937
 20
1295.986362231
 30
0.0
 40
0.4500000000001471
100
AcDbArc
 50
144.4698842763
 51
221.1281260491
  0
ARC
  5
F4
330
1F
100
AcDbEntity
  8
0
  6
Continuous
 62
     7
370
    25
100
AcDbCircle
 10
1650.7110147197
 20
1297.7525186998
 30
0.0
 40
0.450000000000276
100
AcDbArc
 50
161.1281260492
 51
237.7863678219
  0
ARC
  5
F5
330
1F
100
AcDbEntity
  8
0
  6
Continuous
 62
     7
370
    25
100
AcDbCircle
 10
1650.0513311988
 20
1296.7055115832
 30
0.0
 40
0.787499999999812
100
AcDbArc
 50
324.4698842763
 51
57.7863678218
  0
ARC
  5
F6
330
1F
100
AcDbEntity
  8
0
  6
Continuous
 62
     7
370
    25
100
AcDbCircle
 10
1354.9142543758
 20
1594.6703033839
 30
0.0
 40
2.250000000000187
100
AcDbArc
 50
281.128126049
 51
341.1281260491
  0
ARC
  5
F7
330
1F
100
AcDbEntity
  8
0
  6
Continuous
 62
     7
370
    25
100
AcDbCircle
 10
1355.2616609497
 20
1592.904146915
 30
0.0
 40
0.4500000000003513
100
AcDbArc
 50
281.128126049
 51
357.7863678219
  0
ARC
  5
F8
330
1F
100
AcDbEntity
  8
0
  6
Continuous
 62
     7
370
    25
100
AcDbCircle
 10
1356.4982374711
 20
1592.8563477857
 30
0.0
 40
0.7874999999997172
100
AcDbArc
 50
84.4698842763
 51
177.7863678218
  0
ARC
  5
F9
330
1F
100
AcDbEntity
  8
0
  6
Continuous
 62
     7
370
    25
100
AcDbCircle
 10
1356.6174940318
 20
1594.0880880679
 30
0.0
 40
0.4500000000001827
100
AcDbArc
 50
264.4698842763
 51
341.1281260492
  0
ARC
  5
FA
330
1F
100
AcDbEntity
  8
0
  6
Continuous
 62
     7
370
    25
100
AcDbCircle
 10
1354.9142543758
 20
1594.6703033839
 30
0.0
 40
2.250000000000231
100
AcDbArc
 50
41.1281260491
 51
101.1281260491
  0
ARC
  5
FB
330
1F
100
AcDbEntity
  8
0
  6
Continuous
 62
     7
370
    25
100
AcDbCircle
 10
1354.9142543758
 20
1594.6703033839
 30
0.0
 40
2.250000000000326
100
AcDbArc
 50
101.1281260491
 51
161.1281260491
  0
ARC
  5
FC
330
1F
100
AcDbEntity
  8
0
  6
Continuous
 62
     7
370
    25
100
AcDbCircle
 10
1354.9142543758
 20
1594.6703033839
 30
0.0
 40
2.250000000000326
100
AcDbArc
 50
161.1281260491
 51
221.1281260491
  0
ARC
  5
FD
330
1F
100
AcDbEntity
  8
0
  6
Continuous
 62
     7
370
    25
100
AcDbCircle
 10
1354.9142543758
 20
1594.6703033839
 30
0.0
 40
2.250000000000187
100
AcDbArc
 50
221.1281260491
 51
281.128126049
  0
ARC
  5
FE
330
1F
100
AcDbEntity
  8
0
  6
Continuous
 62
     7
370
    25
100
AcDbCircle
 10
1354.9142543758
 20
1594.6703033839
 30
0.0
 40
2.250000000000111
100
AcDbArc
 50
341.1281260491
 51
41.1281260491
  0
CIRCLE
  5
FF
330
1F
100
AcDbEntity
  8
0
  6
Continuous
 62
     7
370
    25
100
AcDbCircle
 10
1354.9142543758
 20
1594.6703033839
 30
0.0
 40
3.850000000000048
  0
ARC
  5
100
330
1F
100
AcDbEntity
  8
0
  6
Continuous
 62
     7
370
    25
100
AcDbCircle
 10
1356.2700874579
 20
1595.8542445367
 30
0.0
 40
0.4500000000001471
100
AcDbArc
 50
324.4698842763
 51
41.128126049
  0
ARC
  5
101
330
1F
100
AcDbEntity
  8
0
  6
Continuous
 62
     7
370
    25
100
AcDbCircle
 10
1357.2771775527
 20
1595.1350951845
 30
0.0
 40
0.7874999999999006
100
AcDbArc
 50
144.4698842763
 51
237.7863678219
  0
ARC
  5
102
330
1F
100
AcDbEntity
  8
0
  6
Continuous
 62
     7
370
    25
100
AcDbCircle
 10
1356.6174940318
 20
1594.0880880679
 30
0.0
 40
0.450000000000205
100
AcDbArc
 50
341.1281260492
 51
57.7863678219
  0
ARC
  5
103
330
1F
100
AcDbEntity
  8
0
  6
Continuous
 62
     7
370
    25
100
AcDbCircle
 10
1354.5668478018
 20
1596.4364598527
 30
0.0
 40
0.4500000000003513
100
AcDbArc
 50
101.128126049
 51
177.7863678219
  0
ARC
  5
104
330
1F
100
AcDbEntity
  8
0
  6
Continuous
 62
     7
370
    25
100
AcDbCircle
 10
1353.3302712805
 20
1596.484258982
 30
0.0
 40
0.7874999999997172
100
AcDbArc
 50
264.4698842763
 51
357.7863678218
  0
ARC
  5
105
330
1F
100
AcDbEntity
  8
0
  6
Continuous
 62
     7
370
    25
100
AcDbCircle
 10
1353.2110147197
 20
1595.2525186998
 30
0.0
 40
0.4500000000001827
100
AcDbArc
 50
84.4698842763
 51
161.1281260492
  0
ARC
  5
106
330
1F
100
AcDbEntity
  8
0
  6
Continuous
 62
     7
370
    25
100
AcDbCircle
 10
1355.6931944574
 20
1596.9490507826
 30
0.0
 40
0.7875000000001621
100
AcDbArc
 50
204.4698842763
 51
297.7863678218
  0
ARC
  5
107
330
1F
100
AcDbEntity
  8
0
  6
Continuous
 62
     7
370
    25
100
AcDbCircle
 10
1354.5668478018
 20
1596.4364598527
 30
0.0
 40
0.4500000000003513
100
AcDbArc
 50
24.4698842763
 51
101.128126049
  0
ARC
  5
108
330
1F
100
AcDbEntity
  8
0
  6
Continuous
 62
     7
370
    25
100
AcDbCircle
 10
1356.2700874579
 20
1595.8542445367
 30
0.0
 40
0.4500000000000475
100
AcDbArc
 50
41.128126049
 51
117.7863678218
  0
ARC
  5
109
330
1F
100
AcDbEntity
  8
0
  6
Continuous
 62
     7
370
    25
100
AcDbCircle
 10
1353.2110147197
 20
1595.2525186998
 30
0.0
 40
0.450000000000205
100
AcDbArc
 50
161.1281260492
 51
237.7863678219
  0
ARC
  5
10A
330
1F
100
AcDbEntity
  8
0
  6
Continuous
 62
     7
370
    25
100
AcDbCircle
 10
1352.5513311988
 20
1594.2055115832
 30
0.0
 40
0.7874999999999006
100
AcDbArc
 50
324.4698842763
 51
57.7863678219
  0
ARC
  5
10B
330
1F
100
AcDbEntity
  8
0
  6
Continuous
 62
     7
370
    25
100
AcDbCircle
 10
1353.5584212937
 20
1593.486362231
 30
0.0
 40
0.4500000000001471
100
AcDbArc
 50
144.4698842763
 51
221.128126049
  0
ARC
  5
10C
330
1F
100
AcDbEntity
  8
0
  6
Continuous
 62
     7
370
    25
100
AcDbCircle
 10
1354.1353142941
 20
1592.3915559851
 30
0.0
 40
0.7875000000002749
100
AcDbArc
 50
24.4698842763
 51
117.7863678218
  0
ARC
  5
10D
330
1F
100
AcDbEntity
  8
0
  6
Continuous
 62
     7
370
    25
100
AcDbCircle
 10
1353.5584212937
 20
1593.486362231
 30
0.0
 40
0.4500000000000475
100
AcDbArc
 50
221.128126049
 51
297.7863678218
  0
ARC
  5
10E
330
1F
100
AcDbEntity
  8
0
  6
Continuous
 62
     7
370
    25
100
AcDbCircle
 10
1355.2616609497
 20
1592.904146915
 30
0.0
 40
0.4500000000003513
100
AcDbArc
 50
204.4698842763
 51
281.128126049
  0
ARC
  5
10F
330
1F
100
AcDbEntity
  8
0
  6
Continuous
 62
     7
370
    25
100
AcDbCircle
 10
1174.9142543758
 20
1594.6703033839
 30
0.0
 40
2.250000000000231
100
AcDbArc
 50
41.1281260491
 51
101.1281260491
  0
ARC
  5
110
330
1F
100
AcDbEntity
  8
0
  6
Continuous
 62
     7
370
    25
100
AcDbCircle
 10
1174.5668478018
 20
1596.4364598527
 30
0.0
 40
0.4500000000003513
100
AcDbArc
 50
24.4698842763
 51
101.128126049
  0
ARC
  5
111
330
1F
100
AcDbEntity
  8
0
  6
Continuous
 62
     7
370
    25
100
AcDbCircle
 10
1176.2700874579
 20
1595.8542445367
 30
0.0
 40
0.4500000000001534
100
AcDbArc
 50
41.128126049
 51
117.7863678218
  0
ARC
  5
112
330
1F
100
AcDbEntity
  8
0
  6
Continuous
 62
     7
370
    25
100
AcDbCircle
 10
1175.6931944574
 20
1596.9490507826
 30
0.0
 40
0.7875000000000678
100
AcDbArc
 50
204.4698842763
 51
297.7863678218
  0
ARC
  5
113
330
1F
100
AcDbEntity
  8
0
  6
Continuous
 62
     7
370
    25
100
AcDbCircle
 10
1174.9142543758
 20
1594.6703033839
 30
0.0
 40
2.250000000000231
100
AcDbArc
 50
101.1281260491
 51
161.1281260491
  0
ARC
  5
114
330
1F
100
AcDbEntity
  8
0
  6
Continuous
 62
     7
370
    25
100
AcDbCircle
 10
1174.9142543758
 20
1594.6703033839
 30
0.0
 40
2.250000000000111
100
AcDbArc
 50
161.1281260491
 51
221.1281260491
  0
ARC
  5
115
330
1F
100
AcDbEntity
  8
0
  6
Continuous
 62
     7
370
    25
100
AcDbCircle
 10
1174.9142543758
 20
1594.6703033839
 30
0.0
 40
2.250000000000231
100
AcDbArc
 50
221.1281260491
 51
281.1281260491
  0
ARC
  5
116
330
1F
100
AcDbEntity
  8
0
  6
Continuous
 62
     7
370
    25
100
AcDbCircle
 10
1174.9142543758
 20
1594.6703033839
 30
0.0
 40
2.250000000000231
100
AcDbArc
 50
281.1281260491
 51
341.1281260491
  0
ARC
  5
117
330
1F
100
AcDbEntity
  8
0
  6
Continuous
 62
     7
370
    25
100
AcDbCircle
 10
1174.9142543758
 20
1594.6703033839
 30
0.0
 40
2.250000000000111
100
AcDbArc
 50
341.1281260491
 51
41.1281260491
  0
CIRCLE
  5
118
330
1F
100
AcDbEntity
  8
0
  6
Continuous
 62
     7
370
    25
100
AcDbCircle
 10
1174.9142543758
 20
1594.6703033839
 30
0.0
 40
3.849999999999899
  0
ARC
  5
119
330
1F
100
AcDbEntity
  8
0
  6
Continuous
 62
     7
370
    25
100
AcDbCircle
 10
1173.2110147197
 20
1595.2525186998
 30
0.0
 40
0.4500000000001608
100
AcDbArc
 50
84.4698842763
 51
161.1281260492
  0
ARC
  5
11A
330
1F
100
AcDbEntity
  8
0
  6
Continuous
 62
     7
370
    25
100
AcDbCircle
 10
1174.5668478018
 20
1596.4364598527
 30
0.0
 40
0.4500000000003513
100
AcDbArc
 50
101.128126049
 51
177.7863678219
  0
ARC
  5
11B
330
1F
100
AcDbEntity
  8
0
  6
Continuous
 62
     7
370
    25
100
AcDbCircle
 10
1173.3302712805
 20
1596.484258982
 30
0.0
 40
0.7874999999997172
100
AcDbArc
 50
264.4698842763
 51
357.7863678218
  0
ARC
  5
11C
330
1F
100
AcDbEntity
  8
0
  6
Continuous
 62
     7
370
    25
100
AcDbCircle
 10
1177.2771775527
 20
1595.1350951845
 30
0.0
 40
0.7875000000002178
100
AcDbArc
 50
144.4698842763
 51
237.7863678218
  0
ARC
  5
11D
330
1F
100
AcDbEntity
  8
0
  6
Continuous
 62
     7
370
    25
100
AcDbCircle
 10
1176.6174940318
 20
1594.0880880679
 30
0.0
 40
0.4500000000003263
100
AcDbArc
 50
341.1281260492
 51
57.7863678218
  0
ARC
  5
11E
330
1F
100
AcDbEntity
  8
0
  6
Continuous
 62
     7
370
    25
100
AcDbCircle
 10
1176.2700874579
 20
1595.8542445367
 30
0.0
 40
0.449999999999962
100
AcDbArc
 50
324.4698842762
 51
41.128126049
  0
ARC
  5
11F
330
1F
100
AcDbEntity
  8
0
  6
Continuous
 62
     7
370
    25
100
AcDbCircle
 10
1175.2616609497
 20
1592.904146915
 30
0.0
 40
0.4500000000003953
100
AcDbArc
 50
281.128126049
 51
357.7863678219
  0
ARC
  5
120
330
1F
100
AcDbEntity
  8
0
  6
Continuous
 62
     7
370
    25
100
AcDbCircle
 10
1176.6174940318
 20
1594.0880880679
 30
0.0
 40
0.450000000000409
100
AcDbArc
 50
264.4698842763
 51
341.1281260492
  0
ARC
  5
121
330
1F
100
AcDbEntity
  8
0
  6
Continuous
 62
     7
370
    25
100
AcDbCircle
 10
1176.4982374711
 20
1592.8563477857
 30
0.0
 40
0.7874999999997172
100
AcDbArc
 50
84.4698842763
 51
177.7863678218
  0
ARC
  5
122
330
1F
100
AcDbEntity
  8
0
  6
Continuous
 62
     7
370
    25
100
AcDbCircle
 10
1173.5584212937
 20
1593.486362231
 30
0.0
 40
0.4500000000001534
100
AcDbArc
 50
221.128126049
 51
297.7863678218
  0
ARC
  5
123
330
1F
100
AcDbEntity
  8
0
  6
Continuous
 62
     7
370
    25
100
AcDbCircle
 10
1174.1353142941
 20
1592.3915559851
 30
0.0
 40
0.7875000000002749
100
AcDbArc
 50
24.4698842763
 51
117.7863678218
  0
ARC
  5
124
330
1F
100
AcDbEntity
  8
0
  6
Continuous
 62
     7
370
    25
100
AcDbCircle
 10
1175.2616609497
 20
1592.904146915
 30
0.0
 40
0.4500000000003953
100
AcDbArc
 50
204.4698842763
 51
281.128126049
  0
ARC
  5
125
330
1F
100
AcDbEntity
  8
0
  6
Continuous
 62
     7
370
    25
100
AcDbCircle
 10
1172.5513311988
 20
1594.2055115832
 30
0.0
 40
0.7875000000000856
100
AcDbArc
 50
324.4698842763
 51
57.7863678219
  0
ARC
  5
126
330
1F
100
AcDbEntity
  8
0
  6
Continuous
 62
     7
370
    25
100
AcDbCircle
 10
1173.5584212937
 20
1593.486362231
 30
0.0
 40
0.449999999999962
100
AcDbArc
 50
144.4698842762
 51
221.128126049
  0
ARC
  5
127
330
1F
100
AcDbEntity
  8
0
  6
Continuous
 62
     7
370
    25
100
AcDbCircle
 10
1173.2110147197
 20
1595.2525186998
 30
0.0
 40
0.4500000000003263
100
AcDbArc
 50
161.1281260492
 51
237.7863678218
  0
ARC
  5
128
330
1F
100
AcDbEntity
  8
0
  6
Continuous
 62
     7
370
    25
100
AcDbCircle
 10
299.9142543758
 20
1594.6703033839
 30
0.0
 40
2.250000000000254
100
AcDbArc
 50
41.1281260491
 51
101.1281260491
  0
ARC
  5
129
330
1F
100
AcDbEntity
  8
0
  6
Continuous
 62
     7
370
    25
100
AcDbCircle
 10
301.2700874579
 20
1595.8542445368
 30
0.0
 40
0.450000000000074
100
AcDbArc
 50
41.128126049
 51
117.7863678218
  0
ARC
  5
12A
330
1F
100
AcDbEntity
  8
0
  6
Continuous
 62
     7
370
    25
100
AcDbCircle
 10
300.6931944574
 20
1596.9490507827
 30
0.0
 40
0.7875000000002231
100
AcDbArc
 50
204.4698842763
 51
297.7863678219
  0
ARC
  5
12B
330
1F
100
AcDbEntity
  8
0
  6
Continuous
 62
     7
370
    25
100
AcDbCircle
 10
299.5668478018
 20
1596.4364598527
 30
0.0
 40
0.4500000000003953
100
AcDbArc
 50
24.4698842763
 51
101.128126049
  0
ARC
  5
12C
330
1F
100
AcDbEntity
  8
0
  6
Continuous
 62
     7
370
    25
100
AcDbCircle
 10
299.9142543758
 20
1594.6703033839
 30
0.0
 40
2.250000000000254
100
AcDbArc
 50
101.1281260491
 51
161.1281260491
  0
ARC
  5
12D
330
1F
100
AcDbEntity
  8
0
  6
Continuous
 62
     7
370
    25
100
AcDbCircle
 10
299.5668478018
 20
1596.4364598527
 30
0.0
 40
0.4500000000003953
100
AcDbArc
 50
101.128126049
 51
177.7863678219
  0
ARC
  5
12E
330
1F
100
AcDbEntity
  8
0
  6
Continuous
 62
     7
370
    25
100
AcDbCircle
 10
298.3302712805
 20
1596.484258982
 30
0.0
 40
0.7874999999997172
100
AcDbArc
 50
264.4698842763
 51
357.7863678218
  0
ARC
  5
12F
330
1F
100
AcDbEntity
  8
0
  6
Continuous
 62
     7
370
    25
100
AcDbCircle
 10
298.2110147197
 20
1595.2525186998
 30
0.0
 40
0.4500000000002222
100
AcDbArc
 50
84.4698842763
 51
161.1281260492
  0
ARC
  5
130
330
1F
100
AcDbEntity
  8
0
  6
Continuous
 62
     7
370
    25
100
AcDbCircle
 10
299.9142543758
 20
1594.6703033839
 30
0.0
 40
2.250000000000242
100
AcDbArc
 50
281.1281260491
 51
341.1281260491
  0
ARC
  5
131
330
1F
100
AcDbEntity
  8
0
  6
Continuous
 62
     7
370
    25
100
AcDbCircle
 10
300.2616609497
 20
1592.9041469151
 30
0.0
 40
0.4500000000003953
100
AcDbArc
 50
281.128126049
 51
357.7863678219
  0
ARC
  5
132
330
1F
100
AcDbEntity
  8
0
  6
Continuous
 62
     7
370
    25
100
AcDbCircle
 10
301.4982374711
 20
1592.8563477858
 30
0.0
 40
0.7874999999997172
100
AcDbArc
 50
84.4698842763
 51
177.7863678218
  0
ARC
  5
133
330
1F
100
AcDbEntity
  8
0
  6
Continuous
 62
     7
370
    25
100
AcDbCircle
 10
301.6174940318
 20
1594.0880880679
 30
0.0
 40
0.4500000000002222
100
AcDbArc
 50
264.4698842763
 51
341.1281260492
  0
ARC
  5
134
330
1F
100
AcDbEntity
  8
0
  6
Continuous
 62
     7
370
    25
100
AcDbCircle
 10
299.9142543758
 20
1594.6703033839
 30
0.0
 40
2.250000000000165
100
AcDbArc
 50
341.1281260491
 51
41.1281260491
  0
ARC
  5
135
330
1F
100
AcDbEntity
  8
0
  6
Continuous
 62
     7
370
    25
100
AcDbCircle
 10
301.2700874579
 20
1595.8542445368
 30
0.0
 40
0.4500000000000083
100
AcDbArc
 50
324.4698842763
 51
41.1281260491
  0
ARC
  5
136
330
1F
100
AcDbEntity
  8
0
  6
Continuous
 62
     7
370
    25
100
AcDbCircle
 10
302.2771775527
 20
1595.1350951845
 30
0.0
 40
0.7874999999999931
100
AcDbArc
 50
144.4698842763
 51
237.7863678218
  0
ARC
  5
137
330
1F
100
AcDbEntity
  8
0
  6
Continuous
 62
     7
370
    25
100
AcDbCircle
 10
301.6174940318
 20
1594.0880880679
 30
0.0
 40
0.4500000000002959
100
AcDbArc
 50
341.1281260492
 51
57.7863678218
  0
ARC
  5
138
330
1F
100
AcDbEntity
  8
0
  6
Continuous
 62
     7
370
    25
100
AcDbCircle
 10
299.9142543758
 20
1594.6703033839
 30
0.0
 40
2.250000000000218
100
AcDbArc
 50
161.1281260491
 51
221.1281260491
  0
ARC
  5
139
330
1F
100
AcDbEntity
  8
0
  6
Continuous
 62
     7
370
    25
100
AcDbCircle
 10
299.9142543758
 20
1594.6703033839
 30
0.0
 40
2.250000000000242
100
AcDbArc
 50
221.1281260491
 51
281.1281260491
  0
CIRCLE
  5
13A
330
1F
100
AcDbEntity
  8
0
  6
Continuous
 62
     7
370
    25
100
AcDbCircle
 10
299.9142543758
 20
1594.6703033839
 30
0.0
 40
3.849999999999942
  0
ARC
  5
13B
330
1F
100
AcDbEntity
  8
0
  6
Continuous
 62
     7
370
    25
100
AcDbCircle
 10
298.5584212937
 20
1593.486362231
 30
0.0
 40
0.4500000000000083
100
AcDbArc
 50
144.4698842762
 51
221.1281260491
  0
ARC
  5
13C
330
1F
100
AcDbEntity
  8
0
  6
Continuous
 62
     7
370
    25
100
AcDbCircle
 10
298.2110147197
 20
1595.2525186998
 30
0.0
 40
0.4500000000002959
100
AcDbArc
 50
161.1281260492
 51
237.7863678218
  0
ARC
  5
13D
330
1F
100
AcDbEntity
  8
0
  6
Continuous
 62
     7
370
    25
100
AcDbCircle
 10
297.5513311988
 20
1594.2055115832
 30
0.0
 40
0.7874999999999931
100
AcDbArc
 50
324.4698842763
 51
57.7863678218
  0
ARC
  5
13E
330
1F
100
AcDbEntity
  8
0
  6
Continuous
 62
     7
370
    25
100
AcDbCircle
 10
299.1353142941
 20
1592.3915559851
 30
0.0
 40
0.7875000000002231
100
AcDbArc
 50
24.4698842763
 51
117.7863678218
  0
ARC
  5
13F
330
1F
100
AcDbEntity
  8
0
  6
Continuous
 62
     7
370
    25
100
AcDbCircle
 10
298.5584212937
 20
1593.486362231
 30
0.0
 40
0.4500000000001269
100
AcDbArc
 50
221.1281260491
 51
297.7863678218
  0
ARC
  5
140
330
1F
100
AcDbEntity
  8
0
  6
Continuous
 62
     7
370
    25
100
AcDbCircle
 10
300.2616609497
 20
1592.9041469151
 30
0.0
 40
0.4500000000003953
100
AcDbArc
 50
204.4698842763
 51
281.128126049
  0
ARC
  5
141
330
1F
100
AcDbEntity
  8
0
  6
Continuous
 62
     7
370
    25
100
AcDbCircle
 10
-1232.5857456243
 20
1297.1703033839
 30
0.0
 40
2.250000000000326
100
AcDbArc
 50
281.1281260491
 51
341.1281260491
  0
ARC
  5
142
330
1F
100
AcDbEntity
  8
0
  6
Continuous
 62
     7
370
    25
100
AcDbCircle
 10
-1232.2383390503
 20
1295.4041469151
 30
0.0
 40
0.4500000000003953
100
AcDbArc
 50
281.128126049
 51
357.7863678219
  0
ARC
  5
143
330
1F
100
AcDbEntity
  8
0
  6
Continuous
 62
     7
370
    25
100
AcDbCircle
 10
-1231.001762529
 20
1295.3563477858
 30
0.0
 40
0.7874999999997172
100
AcDbArc
 50
84.4698842763
 51
177.7863678218
  0
ARC
  5
144
330
1F
100
AcDbEntity
  8
0
  6
Continuous
 62
     7
370
    25
100
AcDbCircle
 10
-1230.8825059682
 20
1296.588088068
 30
0.0
 40
0.4500000000003871
100
AcDbArc
 50
264.4698842763
 51
341.1281260492
  0
ARC
  5
145
330
1F
100
AcDbEntity
  8
0
  6
Continuous
 62
     7
370
    25
100
AcDbCircle
 10
-1232.5857456243
 20
1297.1703033839
 30
0.0
 40
2.250000000000326
100
AcDbArc
 50
341.1281260491
 51
41.1281260491
  0
ARC
  5
146
330
1F
100
AcDbEntity
  8
0
  6
Continuous
 62
     7
370
    25
100
AcDbCircle
 10
-1231.2299125422
 20
1298.3542445368
 30
0.0
 40
0.449999999999962
100
AcDbArc
 50
324.4698842762
 51
41.1281260491
  0
ARC
  5
147
330
1F
100
AcDbEntity
  8
0
  6
Continuous
 62
     7
370
    25
100
AcDbCircle
 10
-1230.2228224473
 20
1297.6350951845
 30
0.0
 40
0.7874999999999006
100
AcDbArc
 50
144.4698842763
 51
237.7863678218
  0
ARC
  5
148
330
1F
100
AcDbEntity
  8
0
  6
Continuous
 62
     7
370
    25
100
AcDbCircle
 10
-1230.8825059682
 20
1296.588088068
 30
0.0
 40
0.450000000000276
100
AcDbArc
 50
341.1281260492
 51
57.7863678219
  0
ARC
  5
149
330
1F
100
AcDbEntity
  8
0
  6
Continuous
 62
     7
370
    25
100
AcDbCircle
 10
-1232.5857456243
 20
1297.1703033839
 30
0.0
 40
2.250000000000275
100
AcDbArc
 50
41.1281260491
 51
101.1281260491
  0
ARC
  5
14A
330
1F
100
AcDbEntity
  8
0
  6
Continuous
 62
     7
370
    25
100
AcDbCircle
 10
-1232.5857456243
 20
1297.1703033839
 30
0.0
 40
2.250000000000275
100
AcDbArc
 50
101.1281260491
 51
161.1281260491
  0
ARC
  5
14B
330
1F
100
AcDbEntity
  8
0
  6
Continuous
 62
     7
370
    25
100
AcDbCircle
 10
-1232.5857456243
 20
1297.1703033839
 30
0.0
 40
2.250000000000111
100
AcDbArc
 50
161.1281260491
 51
221.1281260491
  0
ARC
  5
14C
330
1F
100
AcDbEntity
  8
0
  6
Continuous
 62
     7
370
    25
100
AcDbCircle
 10
-1232.5857456243
 20
1297.1703033839
 30
0.0
 40
2.250000000000275
100
AcDbArc
 50
221.1281260491
 51
281.1281260491
  0
CIRCLE
  5
14D
330
1F
100
AcDbEntity
  8
0
  6
Continuous
 62
     7
370
    25
100
AcDbCircle
 10
-1232.5857456243
 20
1297.1703033839
 30
0.0
 40
3.850000000000071
  0
ARC
  5
14E
330
1F
100
AcDbEntity
  8
0
  6
Continuous
 62
     7
370
    25
100
AcDbCircle
 10
-1231.8068055426
 20
1299.4490507827
 30
0.0
 40
0.7875000000004818
100
AcDbArc
 50
204.4698842763
 51
297.7863678218
  0
ARC
  5
14F
330
1F
100
AcDbEntity
  8
0
  6
Continuous
 62
     7
370
    25
100
AcDbCircle
 10
-1231.2299125422
 20
1298.3542445368
 30
0.0
 40
0.4500000000000475
100
AcDbArc
 50
41.128126049
 51
117.7863678218
  0
ARC
  5
150
330
1F
100
AcDbEntity
  8
0
  6
Continuous
 62
     7
370
    25
100
AcDbCircle
 10
-1232.9331521982
 20
1298.9364598527
 30
0.0
 40
0.4500000000004391
100
AcDbArc
 50
24.4698842763
 51
101.128126049
  0
ARC
  5
151
330
1F
100
AcDbEntity
  8
0
  6
Continuous
 62
     7
370
    25
100
AcDbCircle
 10
-1234.2889852803
 20
1297.7525186998
 30
0.0
 40
0.4500000000001827
100
AcDbArc
 50
84.4698842763
 51
161.1281260492
  0
ARC
  5
152
330
1F
100
AcDbEntity
  8
0
  6
Continuous
 62
     7
370
    25
100
AcDbCircle
 10
-1232.9331521982
 20
1298.9364598527
 30
0.0
 40
0.4500000000004391
100
AcDbArc
 50
101.128126049
 51
177.7863678219
  0
ARC
  5
153
330
1F
100
AcDbEntity
  8
0
  6
Continuous
 62
     7
370
    25
100
AcDbCircle
 10
-1234.1697287196
 20
1298.984258982
 30
0.0
 40
0.7874999999997172
100
AcDbArc
 50
264.4698842763
 51
357.7863678218
  0
ARC
  5
154
330
1F
100
AcDbEntity
  8
0
  6
Continuous
 62
     7
370
    25
100
AcDbCircle
 10
-1234.2889852803
 20
1297.7525186998
 30
0.0
 40
0.450000000000205
100
AcDbArc
 50
161.1281260492
 51
237.7863678219
  0
ARC
  5
155
330
1F
100
AcDbEntity
  8
0
  6
Continuous
 62
     7
370
    25
100
AcDbCircle
 10
-1234.9486688012
 20
1296.7055115832
 30
0.0
 40
0.7875000000000856
100
AcDbArc
 50
324.4698842763
 51
57.7863678218
  0
ARC
  5
156
330
1F
100
AcDbEntity
  8
0
  6
Continuous
 62
     7
370
    25
100
AcDbCircle
 10
-1233.9415787064
 20
1295.986362231
 30
0.0
 40
0.449999999999962
100
AcDbArc
 50
144.4698842762
 51
221.1281260491
  0
ARC
  5
157
330
1F
100
AcDbEntity
  8
0
  6
Continuous
 62
     7
370
    25
100
AcDbCircle
 10
-1233.3646857059
 20
1294.8915559851
 30
0.0
 40
0.787500000000369
100
AcDbArc
 50
24.4698842763
 51
117.7863678218
  0
ARC
  5
158
330
1F
100
AcDbEntity
  8
0
  6
Continuous
 62
     7
370
    25
100
AcDbCircle
 10
-1233.9415787064
 20
1295.986362231
 30
0.0
 40
0.4500000000001534
100
AcDbArc
 50
221.1281260491
 51
297.7863678218
  0
ARC
  5
159
330
1F
100
AcDbEntity
  8
0
  6
Continuous
 62
     7
370
    25
100
AcDbCircle
 10
-1232.2383390503
 20
1295.4041469151
 30
0.0
 40
0.4500000000003953
100
AcDbArc
 50
204.4698842763
 51
281.128126049
  0
ARC
  5
15A
330
1F
100
AcDbEntity
  8
0
  6
Continuous
 62
     7
370
    25
100
AcDbCircle
 10
-1232.5857456243
 20
62.1703033839
 30
0.0
 40
2.25000000000034
100
AcDbArc
 50
281.1281260491
 51
341.1281260491
  0
ARC
  5
15B
330
1F
100
AcDbEntity
  8
0
  6
Continuous
 62
     7
370
    25
100
AcDbCircle
 10
-1232.2383390503
 20
60.4041469151
 30
0.0
 40
0.450000000000241
100
AcDbArc
 50
281.128126049
 51
357.7863678219
  0
ARC
  5
15C
330
1F
100
AcDbEntity
  8
0
  6
Continuous
 62
     7
370
    25
100
AcDbCircle
 10
-1230.8825059682
 20
61.588088068
 30
0.0
 40
0.4500000000005693
100
AcDbArc
 50
264.4698842763
 51
341.1281260491
  0
ARC
  5
15D
330
1F
100
AcDbEntity
  8
0
  6
Continuous
 62
     7
370
    25
100
AcDbCircle
 10
-1231.001762529
 20
60.3563477858
 30
0.0
 40
0.7874999999997164
100
AcDbArc
 50
84.4698842763
 51
177.7863678218
  0
ARC
  5
15E
330
1F
100
AcDbEntity
  8
0
  6
Continuous
 62
     7
370
    25
100
AcDbCircle
 10
-1232.5857456243
 20
62.1703033839
 30
0.0
 40
2.250000000000246
100
AcDbArc
 50
101.1281260491
 51
161.1281260491
  0
ARC
  5
15F
330
1F
100
AcDbEntity
  8
0
  6
Continuous
 62
     7
370
    25
100
AcDbCircle
 10
-1232.9331521982
 20
63.9364598527
 30
0.0
 40
0.450000000000241
100
AcDbArc
 50
101.128126049
 51
177.7863678219
  0
ARC
  5
160
330
1F
100
AcDbEntity
  8
0
  6
Continuous
 62
     7
370
    25
100
AcDbCircle
 10
-1234.2889852803
 20
62.7525186998
 30
0.0
 40
0.4500000000003564
100
AcDbArc
 50
84.4698842763
 51
161.1281260491
  0
ARC
  5
161
330
1F
100
AcDbEntity
  8
0
  6
Continuous
 62
     7
370
    25
100
AcDbCircle
 10
-1234.1697287196
 20
63.984258982
 30
0.0
 40
0.7874999999997164
100
AcDbArc
 50
264.4698842763
 51
357.7863678218
  0
ARC
  5
162
330
1F
100
AcDbEntity
  8
0
  6
Continuous
 62
     7
370
    25
100
AcDbCircle
 10
-1232.5857456243
 20
62.1703033839
 30
0.0
 40
2.25000000000034
100
AcDbArc
 50
341.1281260491
 51
41.1281260491
  0
ARC
  5
163
330
1F
100
AcDbEntity
  8
0
  6
Continuous
 62
     7
370
    25
100
AcDbCircle
 10
-1230.8825059682
 20
61.588088068
 30
0.0
 40
0.4500000000005693
100
AcDbArc
 50
341.1281260491
 51
57.7863678218
  0
ARC
  5
164
330
1F
100
AcDbEntity
  8
0
  6
Continuous
 62
     7
370
    25
100
AcDbCircle
 10
-1230.2228224473
 20
62.6350951846
 30
0.0
 40
0.7874999999999295
100
AcDbArc
 50
144.4698842763
 51
237.7863678219
  0
ARC
  5
165
330
1F
100
AcDbEntity
  8
0
  6
Continuous
 62
     7
370
    25
100
AcDbCircle
 10
-1231.2299125422
 20
63.3542445368
 30
0.0
 40
0.4500000000001265
100
AcDbArc
 50
324.4698842763
 51
41.1281260491
  0
ARC
  5
166
330
1F
100
AcDbEntity
  8
0
  6
Continuous
 62
     7
370
    25
100
AcDbCircle
 10
-1232.5857456243
 20
62.1703033839
 30
0.0
 40
2.250000000000246
100
AcDbArc
 50
41.1281260491
 51
101.1281260491
  0
ARC
  5
167
330
1F
100
AcDbEntity
  8
0
  6
Continuous
 62
     7
370
    25
100
AcDbCircle
 10
-1232.5857456243
 20
62.1703033839
 30
0.0
 40
2.250000000000125
100
AcDbArc
 50
161.1281260491
 51
221.1281260491
  0
ARC
  5
168
330
1F
100
AcDbEntity
  8
0
  6
Continuous
 62
     7
370
    25
100
AcDbCircle
 10
-1232.5857456243
 20
62.1703033839
 30
0.0
 40
2.250000000000252
100
AcDbArc
 50
221.1281260491
 51
281.1281260491
  0
CIRCLE
  5
169
330
1F
100
AcDbEntity
  8
0
  6
Continuous
 62
     7
370
    25
100
AcDbCircle
 10
-1232.5857456243
 20
62.1703033839
 30
0.0
 40
3.850000000000155
  0
ARC
  5
16A
330
1F
100
AcDbEntity
  8
0
  6
Continuous
 62
     7
370
    25
100
AcDbCircle
 10
-1231.8068055426
 20
64.4490507827
 30
0.0
 40
0.7874999999998927
100
AcDbArc
 50
204.4698842763
 51
297.7863678219
  0
ARC
  5
16B
330
1F
100
AcDbEntity
  8
0
  6
Continuous
 62
     7
370
    25
100
AcDbCircle
 10
-1232.9331521982
 20
63.9364598527
 30
0.0
 40
0.450000000000214
100
AcDbArc
 50
24.4698842763
 51
101.128126049
  0
ARC
  5
16C
330
1F
100
AcDbEntity
  8
0
  6
Continuous
 62
     7
370
    25
100
AcDbCircle
 10
-1231.2299125422
 20
63.3542445368
 30
0.0
 40
0.4500000000000411
100
AcDbArc
 50
41.1281260491
 51
117.7863678218
  0
ARC
  5
16D
330
1F
100
AcDbEntity
  8
0
  6
Continuous
 62
     7
370
    25
100
AcDbCircle
 10
-1233.9415787064
 20
60.986362231
 30
0.0
 40
0.4499999999998462
100
AcDbArc
 50
221.128126049
 51
297.7863678218
  0
ARC
  5
16E
330
1F
100
AcDbEntity
  8
0
  6
Continuous
 62
     7
370
    25
100
AcDbCircle
 10
-1233.3646857059
 20
59.8915559851
 30
0.0
 40
0.7875000000000876
100
AcDbArc
 50
24.4698842763
 51
117.7863678219
  0
ARC
  5
16F
330
1F
100
AcDbEntity
  8
0
  6
Continuous
 62
     7
370
    25
100
AcDbCircle
 10
-1232.2383390503
 20
60.4041469151
 30
0.0
 40
0.4500000000002604
100
AcDbArc
 50
204.4698842763
 51
281.128126049
  0
ARC
  5
170
330
1F
100
AcDbEntity
  8
0
  6
Continuous
 62
     7
370
    25
100
AcDbCircle
 10
-1234.2889852803
 20
62.7525186998
 30
0.0
 40
0.4500000000003564
100
AcDbArc
 50
161.1281260491
 51
237.7863678218
  0
ARC
  5
171
330
1F
100
AcDbEntity
  8
0
  6
Continuous
 62
     7
370
    25
100
AcDbCircle
 10
-1233.9415787064
 20
60.986362231
 30
0.0
 40
0.4500000000001223
100
AcDbArc
 50
144.4698842763
 51
221.128126049
  0
ARC
  5
172
330
1F
100
AcDbEntity
  8
0
  6
Continuous
 62
     7
370
    25
100
AcDbCircle
 10
-1234.9486688012
 20
61.7055115832
 30
0.0
 40
0.7875000000001187
100
AcDbArc
 50
324.4698842763
 51
57.7863678218
  0
ARC
  5
173
330
1F
100
AcDbEntity
  8
0
  6
Continuous
 62
     7
370
    25
100
AcDbCircle
 10
-1232.5857456243
 20
242.1703033839
 30
0.0
 40
2.250000000000259
100
AcDbArc
 50
281.1281260491
 51
341.1281260491
  0
ARC
  5
174
330
1F
100
AcDbEntity
  8
0
  6
Continuous
 62
     7
370
    25
100
AcDbCircle
 10
-1232.2383390503
 20
240.4041469151
 30
0.0
 40
0.4500000000002413
100
AcDbArc
 50
281.128126049
 51
357.7863678219
  0
ARC
  5
175
330
1F
100
AcDbEntity
  8
0
  6
Continuous
 62
     7
370
    25
100
AcDbCircle
 10
-1231.001762529
 20
240.3563477858
 30
0.0
 40
0.7874999999997384
100
AcDbArc
 50
84.4698842763
 51
177.7863678218
  0
ARC
  5
176
330
1F
100
AcDbEntity
  8
0
  6
Continuous
 62
     7
370
    25
100
AcDbCircle
 10
-1230.8825059682
 20
241.588088068
 30
0.0
 40
0.4500000000003496
100
AcDbArc
 50
264.4698842763
 51
341.1281260491
  0
ARC
  5
177
330
1F
100
AcDbEntity
  8
0
  6
Continuous
 62
     7
370
    25
100
AcDbCircle
 10
-1232.5857456243
 20
242.1703033839
 30
0.0
 40
2.250000000000345
100
AcDbArc
 50
101.1281260491
 51
161.1281260491
  0
ARC
  5
178
330
1F
100
AcDbEntity
  8
0
  6
Continuous
 62
     7
370
    25
100
AcDbCircle
 10
-1232.9331521982
 20
243.9364598527
 30
0.0
 40
0.4500000000002413
100
AcDbArc
 50
101.128126049
 51
177.7863678219
  0
ARC
  5
179
330
1F
100
AcDbEntity
  8
0
  6
Continuous
 62
     7
370
    25
100
AcDbCircle
 10
-1234.1697287196
 20
243.984258982
 30
0.0
 40
0.7874999999997161
100
AcDbArc
 50
264.4698842763
 51
357.7863678218
  0
ARC
  5
17A
330
1F
100
AcDbEntity
  8
0
  6
Continuous
 62
     7
370
    25
100
AcDbCircle
 10
-1234.2889852803
 20
242.7525186998
 30
0.0
 40
0.4500000000003587
100
AcDbArc
 50
84.4698842763
 51
161.1281260491
  0
ARC
  5
17B
330
1F
100
AcDbEntity
  8
0
  6
Continuous
 62
     7
370
    25
100
AcDbCircle
 10
-1232.5857456243
 20
242.1703033839
 30
0.0
 40
2.25000000000012
100
AcDbArc
 50
341.1281260491
 51
41.1281260491
  0
ARC
  5
17C
330
1F
100
AcDbEntity
  8
0
  6
Continuous
 62
     7
370
    25
100
AcDbCircle
 10
-1230.8825059682
 20
241.588088068
 30
0.0
 40
0.4500000000003496
100
AcDbArc
 50
341.1281260491
 51
57.7863678218
  0
ARC
  5
17D
330
1F
100
AcDbEntity
  8
0
  6
Continuous
 62
     7
370
    25
100
AcDbCircle
 10
-1230.2228224473
 20
242.6350951846
 30
0.0
 40
0.7875000000001187
100
AcDbArc
 50
144.4698842763
 51
237.7863678218
  0
ARC
  5
17E
330
1F
100
AcDbEntity
  8
0
  6
Continuous
 62
     7
370
    25
100
AcDbCircle
 10
-1231.2299125422
 20
243.3542445368
 30
0.0
 40
0.449999999999929
100
AcDbArc
 50
324.4698842763
 51
41.1281260491
  0
ARC
  5
17F
330
1F
100
AcDbEntity
  8
0
  6
Continuous
 62
     7
370
    25
100
AcDbCircle
 10
-1232.5857456243
 20
242.1703033839
 30
0.0
 40
2.250000000000303
100
AcDbArc
 50
41.1281260491
 51
101.1281260491
  0
ARC
  5
180
330
1F
100
AcDbEntity
  8
0
  6
Continuous
 62
     7
370
    25
100
AcDbCircle
 10
-1232.9331521982
 20
243.9364598527
 30
0.0
 40
0.4500000000002279
100
AcDbArc
 50
24.4698842763
 51
101.128126049
  0
ARC
  5
181
330
1F
100
AcDbEntity
  8
0
  6
Continuous
 62
     7
370
    25
100
AcDbCircle
 10
-1231.8068055426
 20
244.4490507827
 30
0.0
 40
0.7875000000000982
100
AcDbArc
 50
204.4698842763
 51
297.7863678218
  0
ARC
  5
182
330
1F
100
AcDbEntity
  8
0
  6
Continuous
 62
     7
370
    25
100
AcDbCircle
 10
-1231.2299125422
 20
243.3542445368
 30
0.0
 40
0.4500000000000475
100
AcDbArc
 50
41.128126049
 51
117.7863678218
  0
ARC
  5
183
330
1F
100
AcDbEntity
  8
0
  6
Continuous
 62
     7
370
    25
100
AcDbCircle
 10
-1232.5857456243
 20
242.1703033839
 30
0.0
 40
2.250000000000345
100
AcDbArc
 50
161.1281260491
 51
221.1281260491
  0
ARC
  5
184
330
1F
100
AcDbEntity
  8
0
  6
Continuous
 62
     7
370
    25
100
AcDbCircle
 10
-1232.5857456243
 20
242.1703033839
 30
0.0
 40
2.250000000000259
100
AcDbArc
 50
221.1281260491
 51
281.1281260491
  0
CIRCLE
  5
185
330
1F
100
AcDbEntity
  8
0
  6
Continuous
 62
     7
370
    25
100
AcDbCircle
 10
-1232.5857456243
 20
242.1703033839
 30
0.0
 40
3.849999999999993
  0
ARC
  5
186
330
1F
100
AcDbEntity
  8
0
  6
Continuous
 62
     7
370
    25
100
AcDbCircle
 10
-1233.9415787064
 20
240.986362231
 30
0.0
 40
0.4500000000001306
100
AcDbArc
 50
144.4698842763
 51
221.1281260491
  0
ARC
  5
187
330
1F
100
AcDbEntity
  8
0
  6
Continuous
 62
     7
370
    25
100
AcDbCircle
 10
-1234.9486688012
 20
241.7055115832
 30
0.0
 40
0.7874999999999172
100
AcDbArc
 50
324.4698842763
 51
57.7863678219
  0
ARC
  5
188
330
1F
100
AcDbEntity
  8
0
  6
Continuous
 62
     7
370
    25
100
AcDbCircle
 10
-1234.2889852803
 20
242.7525186998
 30
0.0
 40
0.4500000000003587
100
AcDbArc
 50
161.1281260491
 51
237.7863678218
  0
ARC
  5
189
330
1F
100
AcDbEntity
  8
0
  6
Continuous
 62
     7
370
    25
100
AcDbCircle
 10
-1233.3646857059
 20
239.8915559851
 30
0.0
 40
0.7875000000000938
100
AcDbArc
 50
24.4698842763
 51
117.7863678219
  0
ARC
  5
18A
330
1F
100
AcDbEntity
  8
0
  6
Continuous
 62
     7
370
    25
100
AcDbCircle
 10
-1233.9415787064
 20
240.986362231
 30
0.0
 40
0.4499999999998462
100
AcDbArc
 50
221.1281260491
 51
297.7863678218
  0
ARC
  5
18B
330
1F
100
AcDbEntity
  8
0
  6
Continuous
 62
     7
370
    25
100
AcDbCircle
 10
-1232.2383390503
 20
240.4041469151
 30
0.0
 40
0.4500000000002279
100
AcDbArc
 50
204.4698842763
 51
281.128126049
  0
ARC
  5
18C
330
1F
100
AcDbEntity
  8
0
  6
Continuous
 62
     7
370
    25
100
AcDbCircle
 10
-935.0857456242
 20
1594.6703033839
 30
0.0
 40
2.250000000000434
100
AcDbArc
 50
101.1281260491
 51
161.1281260491
  0
ARC
  5
18D
330
1F
100
AcDbEntity
  8
0
  6
Continuous
 62
     7
370
    25
100
AcDbCircle
 10
-935.4331521982
 20
1596.4364598527
 30
0.0
 40
0.4500000000003733
100
AcDbArc
 50
101.128126049
 51
177.7863678219
  0
ARC
  5
18E
330
1F
100
AcDbEntity
  8
0
  6
Continuous
 62
     7
370
    25
100
AcDbCircle
 10
-936.6697287195
 20
1596.484258982
 30
0.0
 40
0.7874999999997172
100
AcDbArc
 50
264.4698842763
 51
357.7863678218
  0
ARC
  5
18F
330
1F
100
AcDbEntity
  8
0
  6
Continuous
 62
     7
370
    25
100
AcDbCircle
 10
-936.7889852803
 20
1595.2525186998
 30
0.0
 40
0.450000000000398
100
AcDbArc
 50
84.4698842763
 51
161.1281260492
  0
ARC
  5
190
330
1F
100
AcDbEntity
  8
0
  6
Continuous
 62
     7
370
    25
100
AcDbCircle
 10
-935.0857456242
 20
1594.6703033839
 30
0.0
 40
2.250000000000004
100
AcDbArc
 50
341.1281260491
 51
41.1281260491
  0
ARC
  5
191
330
1F
100
AcDbEntity
  8
0
  6
Continuous
 62
     7
370
    25
100
AcDbCircle
 10
-933.3825059682
 20
1594.088088068
 30
0.0
 40
0.4500000000003263
100
AcDbArc
 50
341.1281260492
 51
57.7863678218
  0
ARC
  5
192
330
1F
100
AcDbEntity
  8
0
  6
Continuous
 62
     7
370
    25
100
AcDbCircle
 10
-933.7299125421
 20
1595.8542445368
 30
0.0
 40
0.449999999999962
100
AcDbArc
 50
324.4698842762
 51
41.1281260491
  0
ARC
  5
193
330
1F
100
AcDbEntity
  8
0
  6
Continuous
 62
     7
370
    25
100
AcDbCircle
 10
-932.7228224473
 20
1595.1350951846
 30
0.0
 40
0.7875000000001782
100
AcDbArc
 50
144.4698842763
 51
237.7863678218
  0
ARC
  5
194
330
1F
100
AcDbEntity
  8
0
  6
Continuous
 62
     7
370
    25
100
AcDbCircle
 10
-935.0857456242
 20
1594.6703033839
 30
0.0
 40
2.250000000000275
100
AcDbArc
 50
41.1281260491
 51
101.1281260491
  0
ARC
  5
195
330
1F
100
AcDbEntity
  8
0
  6
Continuous
 62
     7
370
    25
100
AcDbCircle
 10
-933.7299125421
 20
1595.8542445368
 30
0.0
 40
0.4500000000001534
100
AcDbArc
 50
41.1281260491
 51
117.7863678218
  0
ARC
  5
196
330
1F
100
AcDbEntity
  8
0
  6
Continuous
 62
     7
370
    25
100
AcDbCircle
 10
-934.3068055426
 20
1596.9490507827
 30
0.0
 40
0.7875000000001713
100
AcDbArc
 50
204.4698842763
 51
297.7863678218
  0
ARC
  5
197
330
1F
100
AcDbEntity
  8
0
  6
Continuous
 62
     7
370
    25
100
AcDbCircle
 10
-935.4331521982
 20
1596.4364598527
 30
0.0
 40
0.4500000000003733
100
AcDbArc
 50
24.4698842763
 51
101.128126049
  0
ARC
  5
198
330
1F
100
AcDbEntity
  8
0
  6
Continuous
 62
     7
370
    25
100
AcDbCircle
 10
-935.0857456242
 20
1594.6703033839
 30
0.0
 40
2.250000000000434
100
AcDbArc
 50
161.1281260491
 51
221.1281260491
  0
ARC
  5
199
330
1F
100
AcDbEntity
  8
0
  6
Continuous
 62
     7
370
    25
100
AcDbCircle
 10
-935.0857456242
 20
1594.6703033839
 30
0.0
 40
2.250000000000231
100
AcDbArc
 50
221.1281260491
 51
281.1281260491
  0
ARC
  5
19A
330
1F
100
AcDbEntity
  8
0
  6
Continuous
 62
     7
370
    25
100
AcDbCircle
 10
-935.0857456242
 20
1594.6703033839
 30
0.0
 40
2.250000000000231
100
AcDbArc
 50
281.1281260491
 51
341.1281260491
  0
CIRCLE
  5
19B
330
1F
100
AcDbEntity
  8
0
  6
Continuous
 62
     7
370
    25
100
AcDbCircle
 10
-935.0857456242
 20
1594.6703033839
 30
0.0
 40
3.849999999999963
  0
ARC
  5
19C
330
1F
100
AcDbEntity
  8
0
  6
Continuous
 62
     7
370
    25
100
AcDbCircle
 10
-934.7383390503
 20
1592.9041469151
 30
0.0
 40
0.4500000000004172
100
AcDbArc
 50
281.128126049
 51
357.7863678219
  0
ARC
  5
19D
330
1F
100
AcDbEntity
  8
0
  6
Continuous
 62
     7
370
    25
100
AcDbCircle
 10
-933.5017625289
 20
1592.8563477858
 30
0.0
 40
0.7874999999997172
100
AcDbArc
 50
84.4698842763
 51
177.7863678218
  0
ARC
  5
19E
330
1F
100
AcDbEntity
  8
0
  6
Continuous
 62
     7
370
    25
100
AcDbCircle
 10
-933.3825059682
 20
1594.088088068
 30
0.0
 40
0.4500000000001717
100
AcDbArc
 50
264.4698842763
 51
341.1281260492
  0
ARC
  5
19F
330
1F
100
AcDbEntity
  8
0
  6
Continuous
 62
     7
370
    25
100
AcDbCircle
 10
-936.7889852803
 20
1595.2525186998
 30
0.0
 40
0.4500000000003836
100
AcDbArc
 50
161.1281260492
 51
237.7863678219
  0
ARC
  5
1A0
330
1F
100
AcDbEntity
  8
0
  6
Continuous
 62
     7
370
    25
100
AcDbCircle
 10
-937.4486688012
 20
1594.2055115832
 30
0.0
 40
0.7874999999999402
100
AcDbArc
 50
324.4698842763
 51
57.7863678218
  0
ARC
  5
1A1
330
1F
100
AcDbEntity
  8
0
  6
Continuous
 62
     7
370
    25
100
AcDbCircle
 10
-936.4415787063
 20
1593.486362231
 30
0.0
 40
0.4500000000000149
100
AcDbArc
 50
144.4698842763
 51
221.1281260491
  0
ARC
  5
1A2
330
1F
100
AcDbEntity
  8
0
  6
Continuous
 62
     7
370
    25
100
AcDbCircle
 10
-935.8646857059
 20
1592.3915559851
 30
0.0
 40
0.7875000000001713
100
AcDbArc
 50
24.4698842763
 51
117.7863678219
  0
ARC
  5
1A3
330
1F
100
AcDbEntity
  8
0
  6
Continuous
 62
     7
370
    25
100
AcDbCircle
 10
-934.7383390503
 20
1592.9041469151
 30
0.0
 40
0.4500000000004172
100
AcDbArc
 50
204.4698842763
 51
281.128126049
  0
ARC
  5
1A4
330
1F
100
AcDbEntity
  8
0
  6
Continuous
 62
     7
370
    25
100
AcDbCircle
 10
-936.4415787063
 20
1593.486362231
 30
0.0
 40
0.4500000000000475
100
AcDbArc
 50
221.1281260491
 51
297.7863678218
  0
ARC
  5
1A5
330
1F
100
AcDbEntity
  8
0
  6
Continuous
 62
     7
370
    25
100
AcDbCircle
 10
-1232.5857456243
 20
1117.1703033839
 30
0.0
 40
2.250000000000275
100
AcDbArc
 50
41.1281260491
 51
101.1281260491
  0
ARC
  5
1A6
330
1F
100
AcDbEntity
  8
0
  6
Continuous
 62
     7
370
    25
100
AcDbCircle
 10
-1232.5857456243
 20
1117.1703033839
 30
0.0
 40
2.250000000000326
100
AcDbArc
 50
101.1281260491
 51
161.1281260491
  0
ARC
  5
1A7
330
1F
100
AcDbEntity
  8
0
  6
Continuous
 62
     7
370
    25
100
AcDbCircle
 10
-1232.5857456243
 20
1117.1703033839
 30
0.0
 40
2.250000000000326
100
AcDbArc
 50
161.1281260491
 51
221.1281260491
  0
ARC
  5
1A8
330
1F
100
AcDbEntity
  8
0
  6
Continuous
 62
     7
370
    25
100
AcDbCircle
 10
-1232.5857456243
 20
1117.1703033839
 30
0.0
 40
2.250000000000231
100
AcDbArc
 50
221.1281260491
 51
281.1281260491
  0
ARC
  5
1A9
330
1F
100
AcDbEntity
  8
0
  6
Continuous
 62
     7
370
    25
100
AcDbCircle
 10
-1232.5857456243
 20
1117.1703033839
 30
0.0
 40
2.250000000000231
100
AcDbArc
 50
281.1281260491
 51
341.1281260491
  0
ARC
  5
1AA
330
1F
100
AcDbEntity
  8
0
  6
Continuous
 62
     7
370
    25
100
AcDbCircle
 10
-1232.5857456243
 20
1117.1703033839
 30
0.0
 40
2.250000000000111
100
AcDbArc
 50
341.1281260491
 51
41.1281260491
  0
CIRCLE
  5
1AB
330
1F
100
AcDbEntity
  8
0
  6
Continuous
 62
     7
370
    25
100
AcDbCircle
 10
-1232.5857456243
 20
1117.1703033839
 30
0.0
 40
3.850000000000048
  0
ARC
  5
1AC
330
1F
100
AcDbEntity
  8
0
  6
Continuous
 62
     7
370
    25
100
AcDbCircle
 10
-1231.2299125422
 20
1118.3542445368
 30
0.0
 40
0.4500000000000475
100
AcDbArc
 50
41.128126049
 51
117.7863678218
  0
ARC
  5
1AD
330
1F
100
AcDbEntity
  8
0
  6
Continuous
 62
     7
370
    25
100
AcDbCircle
 10
-1231.8068055426
 20
1119.4490507827
 30
0.0
 40
0.7875000000002749
100
AcDbArc
 50
204.4698842763
 51
297.7863678218
  0
ARC
  5
1AE
330
1F
100
AcDbEntity
  8
0
  6
Continuous
 62
     7
370
    25
100
AcDbCircle
 10
-1232.9331521982
 20
1118.9364598527
 30
0.0
 40
0.4500000000003953
100
AcDbArc
 50
24.4698842763
 51
101.128126049
  0
ARC
  5
1AF
330
1F
100
AcDbEntity
  8
0
  6
Continuous
 62
     7
370
    25
100
AcDbCircle
 10
-1232.9331521982
 20
1118.9364598527
 30
0.0
 40
0.4500000000003953
100
AcDbArc
 50
101.128126049
 51
177.7863678219
  0
ARC
  5
1B0
330
1F
100
AcDbEntity
  8
0
  6
Continuous
 62
     7
370
    25
100
AcDbCircle
 10
-1234.2889852803
 20
1117.7525186998
 30
0.0
 40
0.450000000000409
100
AcDbArc
 50
84.4698842763
 51
161.1281260492
  0
ARC
  5
1B1
330
1F
100
AcDbEntity
  8
0
  6
Continuous
 62
     7
370
    25
100
AcDbCircle
 10
-1234.1697287196
 20
1118.984258982
 30
0.0
 40
0.7874999999997172
100
AcDbArc
 50
264.4698842763
 51
357.7863678218
  0
ARC
  5
1B2
330
1F
100
AcDbEntity
  8
0
  6
Continuous
 62
     7
370
    25
100
AcDbCircle
 10
-1230.8825059682
 20
1116.588088068
 30
0.0
 40
0.4500000000003263
100
AcDbArc
 50
341.1281260492
 51
57.7863678218
  0
ARC
  5
1B3
330
1F
100
AcDbEntity
  8
0
  6
Continuous
 62
     7
370
    25
100
AcDbCircle
 10
-1230.2228224473
 20
1117.6350951845
 30
0.0
 40
0.7875000000000856
100
AcDbArc
 50
144.4698842763
 51
237.7863678218
  0
ARC
  5
1B4
330
1F
100
AcDbEntity
  8
0
  6
Continuous
 62
     7
370
    25
100
AcDbCircle
 10
-1231.2299125422
 20
1118.3542445368
 30
0.0
 40
0.449999999999962
100
AcDbArc
 50
324.4698842762
 51
41.1281260491
  0
ARC
  5
1B5
330
1F
100
AcDbEntity
  8
0
  6
Continuous
 62
     7
370
    25
100
AcDbCircle
 10
-1232.2383390503
 20
1115.4041469151
 30
0.0
 40
0.4500000000003953
100
AcDbArc
 50
281.128126049
 51
357.7863678219
  0
ARC
  5
1B6
330
1F
100
AcDbEntity
  8
0
  6
Continuous
 62
     7
370
    25
100
AcDbCircle
 10
-1230.8825059682
 20
1116.588088068
 30
0.0
 40
0.450000000000276
100
AcDbArc
 50
264.4698842763
 51
341.1281260492
  0
ARC
  5
1B7
330
1F
100
AcDbEntity
  8
0
  6
Continuous
 62
     7
370
    25
100
AcDbCircle
 10
-1231.001762529
 20
1115.3563477858
 30
0.0
 40
0.7874999999997172
100
AcDbArc
 50
84.4698842763
 51
177.7863678218
  0
ARC
  5
1B8
330
1F
100
AcDbEntity
  8
0
  6
Continuous
 62
     7
370
    25
100
AcDbCircle
 10
-1233.9415787064
 20
1115.986362231
 30
0.0
 40
0.4500000000000475
100
AcDbArc
 50
221.1281260491
 51
297.7863678218
  0
ARC
  5
1B9
330
1F
100
AcDbEntity
  8
0
  6
Continuous
 62
     7
370
    25
100
AcDbCircle
 10
-1232.2383390503
 20
1115.4041469151
 30
0.0
 40
0.4500000000003953
100
AcDbArc
 50
204.4698842763
 51
281.128126049
  0
ARC
  5
1BA
330
1F
100
AcDbEntity
  8
0
  6
Continuous
 62
     7
370
    25
100
AcDbCircle
 10
-1233.3646857059
 20
1114.8915559851
 30
0.0
 40
0.7875000000000678
100
AcDbArc
 50
24.4698842763
 51
117.7863678219
  0
ARC
  5
1BB
330
1F
100
AcDbEntity
  8
0
  6
Continuous
 62
     7
370
    25
100
AcDbCircle
 10
-1234.2889852803
 20
1117.7525186998
 30
0.0
 40
0.4500000000003263
100
AcDbArc
 50
161.1281260492
 51
237.7863678218
  0
ARC
  5
1BC
330
1F
100
AcDbEntity
  8
0
  6
Continuous
 62
     7
370
    25
100
AcDbCircle
 10
-1234.9486688012
 20
1116.7055115832
 30
0.0
 40
0.7874999999999006
100
AcDbArc
 50
324.4698842763
 51
57.7863678219
  0
ARC
  5
1BD
330
1F
100
AcDbEntity
  8
0
  6
Continuous
 62
     7
370
    25
100
AcDbCircle
 10
-1233.9415787064
 20
1115.986362231
 30
0.0
 40
0.4500000000001471
100
AcDbArc
 50
144.4698842763
 51
221.1281260491
  0
ARC
  5
1BE
330
1F
100
AcDbEntity
  8
0
  6
Continuous
 62
     7
370
    25
100
AcDbCircle
 10
-755.0857456242
 20
1594.6703033839
 30
0.0
 40
2.250000000000231
100
AcDbArc
 50
41.1281260491
 51
101.1281260491
  0
ARC
  5
1BF
330
1F
100
AcDbEntity
  8
0
  6
Continuous
 62
     7
370
    25
100
AcDbCircle
 10
-753.7299125421
 20
1595.8542445368
 30
0.0
 40
0.4499999999998993
100
AcDbArc
 50
41.128126049
 51
117.7863678218
  0
ARC
  5
1C0
330
1F
100
AcDbEntity
  8
0
  6
Continuous
 62
     7
370
    25
100
AcDbCircle
 10
-754.3068055426
 20
1596.9490507827
 30
0.0
 40
0.7875000000003783
100
AcDbArc
 50
204.4698842763
 51
297.7863678218
  0
ARC
  5
1C1
330
1F
100
AcDbEntity
  8
0
  6
Continuous
 62
     7
370
    25
100
AcDbCircle
 10
-755.4331521982
 20
1596.4364598527
 30
0.0
 40
0.4500000000003733
100
AcDbArc
 50
24.4698842763
 51
101.128126049
  0
ARC
  5
1C2
330
1F
100
AcDbEntity
  8
0
  6
Continuous
 62
     7
370
    25
100
AcDbCircle
 10
-755.0857456242
 20
1594.6703033839
 30
0.0
 40
2.250000000000111
100
AcDbArc
 50
341.1281260491
 51
41.1281260491
  0
ARC
  5
1C3
330
1F
100
AcDbEntity
  8
0
  6
Continuous
 62
     7
370
    25
100
AcDbCircle
 10
-753.3825059682
 20
1594.088088068
 30
0.0
 40
0.4500000000001445
100
AcDbArc
 50
341.1281260492
 51
57.7863678219
  0
ARC
  5
1C4
330
1F
100
AcDbEntity
  8
0
  6
Continuous
 62
     7
370
    25
100
AcDbCircle
 10
-752.7228224473
 20
1595.1350951846
 30
0.0
 40
0.7875000000001252
100
AcDbArc
 50
144.4698842763
 51
237.7863678218
  0
ARC
  5
1C5
330
1F
100
AcDbEntity
  8
0
  6
Continuous
 62
     7
370
    25
100
AcDbCircle
 10
-753.7299125421
 20
1595.8542445368
 30
0.0
 40
0.4500000000000546
100
AcDbArc
 50
324.4698842763
 51
41.128126049
  0
ARC
  5
1C6
330
1F
100
AcDbEntity
  8
0
  6
Continuous
 62
     7
370
    25
100
AcDbCircle
 10
-755.0857456242
 20
1594.6703033839
 30
0.0
 40
2.250000000000231
100
AcDbArc
 50
101.1281260491
 51
161.1281260491
  0
ARC
  5
1C7
330
1F
100
AcDbEntity
  8
0
  6
Continuous
 62
     7
370
    25
100
AcDbCircle
 10
-755.4331521982
 20
1596.4364598527
 30
0.0
 40
0.4500000000003733
100
AcDbArc
 50
101.128126049
 51
177.7863678219
  0
ARC
  5
1C8
330
1F
100
AcDbEntity
  8
0
  6
Continuous
 62
     7
370
    25
100
AcDbCircle
 10
-756.6697287195
 20
1596.484258982
 30
0.0
 40
0.7874999999997172
100
AcDbArc
 50
264.4698842763
 51
357.7863678218
  0
ARC
  5
1C9
330
1F
100
AcDbEntity
  8
0
  6
Continuous
 62
     7
370
    25
100
AcDbCircle
 10
-756.7889852803
 20
1595.2525186998
 30
0.0
 40
0.4500000000001827
100
AcDbArc
 50
84.4698842763
 51
161.1281260492
  0
ARC
  5
1CA
330
1F
100
AcDbEntity
  8
0
  6
Continuous
 62
     7
370
    25
100
AcDbCircle
 10
-755.0857456242
 20
1594.6703033839
 30
0.0
 40
2.250000000000218
100
AcDbArc
 50
161.1281260491
 51
221.1281260491
  0
ARC
  5
1CB
330
1F
100
AcDbEntity
  8
0
  6
Continuous
 62
     7
370
    25
100
AcDbCircle
 10
-755.0857456242
 20
1594.6703033839
 30
0.0
 40
2.25000000000021
100
AcDbArc
 50
221.1281260491
 51
281.1281260491
  0
ARC
  5
1CC
330
1F
100
AcDbEntity
  8
0
  6
Continuous
 62
     7
370
    25
100
AcDbCircle
 10
-755.0857456242
 20
1594.6703033839
 30
0.0
 40
2.25000000000021
100
AcDbArc
 50
281.1281260491
 51
341.1281260491
  0
CIRCLE
  5
1CD
330
1F
100
AcDbEntity
  8
0
  6
Continuous
 62
     7
370
    25
100
AcDbCircle
 10
-755.0857456242
 20
1594.6703033839
 30
0.0
 40
3.849999999999899
  0
ARC
  5
1CE
330
1F
100
AcDbEntity
  8
0
  6
Continuous
 62
     7
370
    25
100
AcDbCircle
 10
-754.7383390503
 20
1592.9041469151
 30
0.0
 40
0.4500000000003513
100
AcDbArc
 50
281.128126049
 51
357.7863678219
  0
ARC
  5
1CF
330
1F
100
AcDbEntity
  8
0
  6
Continuous
 62
     7
370
    25
100
AcDbCircle
 10
-753.3825059682
 20
1594.088088068
 30
0.0
 40
0.450000000000409
100
AcDbArc
 50
264.4698842763
 51
341.1281260492
  0
ARC
  5
1D0
330
1F
100
AcDbEntity
  8
0
  6
Continuous
 62
     7
370
    25
100
AcDbCircle
 10
-753.5017625289
 20
1592.8563477858
 30
0.0
 40
0.7874999999997172
100
AcDbArc
 50
84.4698842763
 51
177.7863678218
  0
ARC
  5
1D1
330
1F
100
AcDbEntity
  8
0
  6
Continuous
 62
     7
370
    25
100
AcDbCircle
 10
-756.7889852803
 20
1595.2525186998
 30
0.0
 40
0.4500000000002656
100
AcDbArc
 50
161.1281260492
 51
237.7863678219
  0
ARC
  5
1D2
330
1F
100
AcDbEntity
  8
0
  6
Continuous
 62
     7
370
    25
100
AcDbCircle
 10
-757.4486688012
 20
1594.2055115832
 30
0.0
 40
0.7874999999999931
100
AcDbArc
 50
324.4698842763
 51
57.7863678219
  0
ARC
  5
1D3
330
1F
100
AcDbEntity
  8
0
  6
Continuous
 62
     7
370
    25
100
AcDbCircle
 10
-756.4415787063
 20
1593.486362231
 30
0.0
 40
0.4500000000000546
100
AcDbArc
 50
144.4698842763
 51
221.128126049
  0
ARC
  5
1D4
330
1F
100
AcDbEntity
  8
0
  6
Continuous
 62
     7
370
    25
100
AcDbCircle
 10
-754.7383390503
 20
1592.9041469151
 30
0.0
 40
0.4500000000003513
100
AcDbArc
 50
204.4698842763
 51
281.128126049
  0
ARC
  5
1D5
330
1F
100
AcDbEntity
  8
0
  6
Continuous
 62
     7
370
    25
100
AcDbCircle
 10
-755.8646857059
 20
1592.3915559851
 30
0.0
 40
0.7875000000001713
100
AcDbArc
 50
24.4698842763
 51
117.7863678218
  0
ARC
  5
1D6
330
1F
100
AcDbEntity
  8
0
  6
Continuous
 62
     7
370
    25
100
AcDbCircle
 10
-756.4415787063
 20
1593.486362231
 30
0.0
 40
0.4500000000001004
100
AcDbArc
 50
221.128126049
 51
297.7863678218
  0
ARC
  5
1D7
330
1F
100
AcDbEntity
  8
0
  6
Continuous
 62
     7
370
    25
100
AcDbCircle
 10
119.9142543758
 20
1594.6703033839
 30
0.0
 40
2.25000000000025
100
AcDbArc
 50
41.1281260491
 51
101.1281260491
  0
ARC
  5
1D8
330
1F
100
AcDbEntity
  8
0
  6
Continuous
 62
     7
370
    25
100
AcDbCircle
 10
119.9142543758
 20
1594.6703033839
 30
0.0
 40
2.25000000000025
100
AcDbArc
 50
101.1281260491
 51
161.1281260491
  0
ARC
  5
1D9
330
1F
100
AcDbEntity
  8
0
  6
Continuous
 62
     7
370
    25
100
AcDbCircle
 10
119.9142543758
 20
1594.6703033839
 30
0.0
 40
2.250000000000192
100
AcDbArc
 50
161.1281260491
 51
221.1281260491
  0
ARC
  5
1DA
330
1F
100
AcDbEntity
  8
0
  6
Continuous
 62
     7
370
    25
100
AcDbCircle
 10
119.9142543758
 20
1594.6703033839
 30
0.0
 40
2.250000000000471
100
AcDbArc
 50
221.1281260491
 51
281.1281260491
  0
ARC
  5
1DB
330
1F
100
AcDbEntity
  8
0
  6
Continuous
 62
     7
370
    25
100
AcDbCircle
 10
119.9142543758
 20
1594.6703033839
 30
0.0
 40
2.250000000000471
100
AcDbArc
 50
281.1281260491
 51
341.1281260491
  0
ARC
  5
1DC
330
1F
100
AcDbEntity
  8
0
  6
Continuous
 62
     7
370
    25
100
AcDbCircle
 10
119.9142543758
 20
1594.6703033839
 30
0.0
 40
2.250000000000252
100
AcDbArc
 50
341.1281260491
 51
41.1281260491
  0
CIRCLE
  5
1DD
330
1F
100
AcDbEntity
  8
0
  6
Continuous
 62
     7
370
    25
100
AcDbCircle
 10
119.9142543758
 20
1594.6703033839
 30
0.0
 40
3.849999999999964
  0
ARC
  5
1DE
330
1F
100
AcDbEntity
  8
0
  6
Continuous
 62
     7
370
    25
100
AcDbCircle
 10
118.2110147197
 20
1595.2525186998
 30
0.0
 40
0.4500000000002222
100
AcDbArc
 50
84.4698842763
 51
161.1281260492
  0
ARC
  5
1DF
330
1F
100
AcDbEntity
  8
0
  6
Continuous
 62
     7
370
    25
100
AcDbCircle
 10
119.5668478018
 20
1596.4364598527
 30
0.0
 40
0.4500000000006156
100
AcDbArc
 50
101.128126049
 51
177.7863678218
  0
ARC
  5
1E0
330
1F
100
AcDbEntity
  8
0
  6
Continuous
 62
     7
370
    25
100
AcDbCircle
 10
118.3302712805
 20
1596.484258982
 30
0.0
 40
0.7874999999997083
100
AcDbArc
 50
264.4698842763
 51
357.7863678218
  0
ARC
  5
1E1
330
1F
100
AcDbEntity
  8
0
  6
Continuous
 62
     7
370
    25
100
AcDbCircle
 10
120.2616609497
 20
1592.9041469151
 30
0.0
 40
0.4500000000006156
100
AcDbArc
 50
281.128126049
 51
357.7863678219
  0
ARC
  5
1E2
330
1F
100
AcDbEntity
  8
0
  6
Continuous
 62
     7
370
    25
100
AcDbCircle
 10
121.6174940318
 20
1594.0880880679
 30
0.0
 40
0.4500000000002222
100
AcDbArc
 50
264.4698842763
 51
341.1281260492
  0
ARC
  5
1E3
330
1F
100
AcDbEntity
  8
0
  6
Continuous
 62
     7
370
    25
100
AcDbCircle
 10
121.4982374711
 20
1592.8563477858
 30
0.0
 40
0.7874999999997172
100
AcDbArc
 50
84.4698842763
 51
177.7863678218
  0
ARC
  5
1E4
330
1F
100
AcDbEntity
  8
0
  6
Continuous
 62
     7
370
    25
100
AcDbCircle
 10
121.6174940318
 20
1594.0880880679
 30
0.0
 40
0.4500000000002884
100
AcDbArc
 50
341.1281260492
 51
57.7863678218
  0
ARC
  5
1E5
330
1F
100
AcDbEntity
  8
0
  6
Continuous
 62
     7
370
    25
100
AcDbCircle
 10
122.2771775527
 20
1595.1350951845
 30
0.0
 40
0.7875000000000048
100
AcDbArc
 50
144.4698842763
 51
237.7863678218
  0
ARC
  5
1E6
330
1F
100
AcDbEntity
  8
0
  6
Continuous
 62
     7
370
    25
100
AcDbCircle
 10
121.2700874579
 20
1595.8542445368
 30
0.0
 40
0.4500000000000083
100
AcDbArc
 50
324.4698842763
 51
41.1281260491
  0
ARC
  5
1E7
330
1F
100
AcDbEntity
  8
0
  6
Continuous
 62
     7
370
    25
100
AcDbCircle
 10
119.5668478018
 20
1596.4364598527
 30
0.0
 40
0.4500000000006156
100
AcDbArc
 50
24.4698842763
 51
101.128126049
  0
ARC
  5
1E8
330
1F
100
AcDbEntity
  8
0
  6
Continuous
 62
     7
370
    25
100
AcDbCircle
 10
120.6931944574
 20
1596.9490507827
 30
0.0
 40
0.7875000000001843
100
AcDbArc
 50
204.4698842763
 51
297.7863678218
  0
ARC
  5
1E9
330
1F
100
AcDbEntity
  8
0
  6
Continuous
 62
     7
370
    25
100
AcDbCircle
 10
121.2700874579
 20
1595.8542445368
 30
0.0
 40
0.450000000000074
100
AcDbArc
 50
41.1281260491
 51
117.7863678218
  0
ARC
  5
1EA
330
1F
100
AcDbEntity
  8
0
  6
Continuous
 62
     7
370
    25
100
AcDbCircle
 10
117.5513311988
 20
1594.2055115832
 30
0.0
 40
0.7875000000000048
100
AcDbArc
 50
324.4698842763
 51
57.7863678218
  0
ARC
  5
1EB
330
1F
100
AcDbEntity
  8
0
  6
Continuous
 62
     7
370
    25
100
AcDbCircle
 10
118.5584212937
 20
1593.486362231
 30
0.0
 40
0.4500000000000083
100
AcDbArc
 50
144.4698842762
 51
221.1281260491
  0
ARC
  5
1EC
330
1F
100
AcDbEntity
  8
0
  6
Continuous
 62
     7
370
    25
100
AcDbCircle
 10
118.2110147197
 20
1595.2525186998
 30
0.0
 40
0.4500000000002884
100
AcDbArc
 50
161.1281260492
 51
237.7863678219
  0
ARC
  5
1ED
330
1F
100
AcDbEntity
  8
0
  6
Continuous
 62
     7
370
    25
100
AcDbCircle
 10
118.5584212937
 20
1593.486362231
 30
0.0
 40
0.4500000000001203
100
AcDbArc
 50
221.1281260491
 51
297.7863678218
  0
ARC
  5
1EE
330
1F
100
AcDbEntity
  8
0
  6
Continuous
 62
     7
370
    25
100
AcDbCircle
 10
120.2616609497
 20
1592.9041469151
 30
0.0
 40
0.4500000000006156
100
AcDbArc
 50
204.4698842763
 51
281.128126049
  0
ARC
  5
1EF
330
1F
100
AcDbEntity
  8
0
  6
Continuous
 62
     7
370
    25
100
AcDbCircle
 10
119.1353142941
 20
1592.3915559851
 30
0.0
 40
0.7875000000001843
100
AcDbArc
 50
24.4698842763
 51
117.7863678218
  0
ARC
  5
1F0
330
1F
100
AcDbEntity
  8
0
  6
Continuous
 62
     7
370
    25
100
AcDbCircle
 10
-1232.5857456243
 20
-812.8296966161
 30
0.0
 40
2.250000000000231
100
AcDbArc
 50
41.1281260491
 51
101.1281260491
  0
ARC
  5
1F1
330
1F
100
AcDbEntity
  8
0
  6
Continuous
 62
     7
370
    25
100
AcDbCircle
 10
-1232.5857456243
 20
-812.8296966161
 30
0.0
 40
2.250000000000231
100
AcDbArc
 50
101.1281260491
 51
161.1281260491
  0
ARC
  5
1F2
330
1F
100
AcDbEntity
  8
0
  6
Continuous
 62
     7
370
    25
100
AcDbCircle
 10
-1232.5857456243
 20
-812.8296966161
 30
0.0
 40
2.250000000000111
100
AcDbArc
 50
161.1281260491
 51
221.1281260491
  0
ARC
  5
1F3
330
1F
100
AcDbEntity
  8
0
  6
Continuous
 62
     7
370
    25
100
AcDbCircle
 10
-1232.5857456243
 20
-812.8296966161
 30
0.0
 40
2.250000000000231
100
AcDbArc
 50
221.1281260491
 51
281.1281260491
  0
ARC
  5
1F4
330
1F
100
AcDbEntity
  8
0
  6
Continuous
 62
     7
370
    25
100
AcDbCircle
 10
-1232.5857456243
 20
-812.8296966161
 30
0.0
 40
2.2500000000004
100
AcDbArc
 50
281.1281260491
 51
341.1281260491
  0
ARC
  5
1F5
330
1F
100
AcDbEntity
  8
0
  6
Continuous
 62
     7
370
    25
100
AcDbCircle
 10
-1232.5857456243
 20
-812.8296966161
 30
0.0
 40
2.2500000000004
100
AcDbArc
 50
341.1281260491
 51
41.1281260491
  0
CIRCLE
  5
1F6
330
1F
100
AcDbEntity
  8
0
  6
Continuous
 62
     7
370
    25
100
AcDbCircle
 10
-1232.5857456243
 20
-812.8296966161
 30
0.0
 40
3.849999999999996
  0
ARC
  5
1F7
330
1F
100
AcDbEntity
  8
0
  6
Continuous
 62
     7
370
    25
100
AcDbCircle
 10
-1232.9331521982
 20
-811.0635401473
 30
0.0
 40
0.4500000000003953
100
AcDbArc
 50
101.128126049
 51
177.7863678219
  0
ARC
  5
1F8
330
1F
100
AcDbEntity
  8
0
  6
Continuous
 62
     7
370
    25
100
AcDbCircle
 10
-1234.1697287196
 20
-811.015741018
 30
0.0
 40
0.7874999999997128
100
AcDbArc
 50
264.4698842763
 51
357.7863678218
  0
ARC
  5
1F9
330
1F
100
AcDbEntity
  8
0
  6
Continuous
 62
     7
370
    25
100
AcDbCircle
 10
-1234.2889852803
 20
-812.2474813002
 30
0.0
 40
0.4500000000003496
100
AcDbArc
 50
84.4698842763
 51
161.1281260491
  0
ARC
  5
1FA
330
1F
100
AcDbEntity
  8
0
  6
Continuous
 62
     7
370
    25
100
AcDbCircle
 10
-1232.9331521982
 20
-811.0635401473
 30
0.0
 40
0.4500000000003953
100
AcDbArc
 50
24.4698842763
 51
101.128126049
  0
ARC
  5
1FB
330
1F
100
AcDbEntity
  8
0
  6
Continuous
 62
     7
370
    25
100
AcDbCircle
 10
-1231.8068055426
 20
-810.5509492173
 30
0.0
 40
0.7875000000001441
100
AcDbArc
 50
204.4698842763
 51
297.7863678219
  0
ARC
  5
1FC
330
1F
100
AcDbEntity
  8
0
  6
Continuous
 62
     7
370
    25
100
AcDbCircle
 10
-1231.2299125422
 20
-811.6457554632
 30
0.0
 40
0.4499999999998462
100
AcDbArc
 50
41.1281260491
 51
117.7863678218
  0
ARC
  5
1FD
330
1F
100
AcDbEntity
  8
0
  6
Continuous
 62
     7
370
    25
100
AcDbCircle
 10
-1232.2383390503
 20
-814.5958530849
 30
0.0
 40
0.4500000000002402
100
AcDbArc
 50
281.128126049
 51
357.7863678219
  0
ARC
  5
1FE
330
1F
100
AcDbEntity
  8
0
  6
Continuous
 62
     7
370
    25
100
AcDbCircle
 10
-1230.8825059682
 20
-813.411911932
 30
0.0
 40
0.4500000000005647
100
AcDbArc
 50
264.4698842763
 51
341.1281260491
  0
ARC
  5
1FF
330
1F
100
AcDbEntity
  8
0
  6
Continuous
 62
     7
370
    25
100
AcDbCircle
 10
-1231.001762529
 20
-814.6436522142
 30
0.0
 40
0.7874999999997447
100
AcDbArc
 50
84.4698842763
 51
177.7863678218
  0
ARC
  5
200
330
1F
100
AcDbEntity
  8
0
  6
Continuous
 62
     7
370
    25
100
AcDbCircle
 10
-1230.8825059682
 20
-813.411911932
 30
0.0
 40
0.4500000000005647
100
AcDbArc
 50
341.1281260491
 51
57.7863678218
  0
ARC
  5
201
330
1F
100
AcDbEntity
  8
0
  6
Continuous
 62
     7
370
    25
100
AcDbCircle
 10
-1230.2228224473
 20
-812.3649048155
 30
0.0
 40
0.7874999999999667
100
AcDbArc
 50
144.4698842763
 51
237.7863678219
  0
ARC
  5
202
330
1F
100
AcDbEntity
  8
0
  6
Continuous
 62
     7
370
    25
100
AcDbCircle
 10
-1231.2299125422
 20
-811.6457554632
 30
0.0
 40
0.4500000000000811
100
AcDbArc
 50
324.4698842763
 51
41.1281260491
  0
ARC
  5
203
330
1F
100
AcDbEntity
  8
0
  6
Continuous
 62
     7
370
    25
100
AcDbCircle
 10
-1233.9415787064
 20
-814.013637769
 30
0.0
 40
0.4500000000000475
100
AcDbArc
 50
221.128126049
 51
297.7863678218
  0
ARC
  5
204
330
1F
100
AcDbEntity
  8
0
  6
Continuous
 62
     7
370
    25
100
AcDbCircle
 10
-1233.3646857059
 20
-815.1084440149
 30
0.0
 40
0.7874999999998423
100
AcDbArc
 50
24.4698842763
 51
117.7863678219
  0
ARC
  5
205
330
1F
100
AcDbEntity
  8
0
  6
Continuous
 62
     7
370
    25
100
AcDbCircle
 10
-1232.2383390503
 20
-814.5958530849
 30
0.0
 40
0.4500000000002604
100
AcDbArc
 50
204.4698842763
 51
281.128126049
  0
ARC
  5
206
330
1F
100
AcDbEntity
  8
0
  6
Continuous
 62
     7
370
    25
100
AcDbCircle
 10
-1233.9415787064
 20
-814.013637769
 30
0.0
 40
0.4500000000000149
100
AcDbArc
 50
144.4698842763
 51
221.128126049
  0
ARC
  5
207
330
1F
100
AcDbEntity
  8
0
  6
Continuous
 62
     7
370
    25
100
AcDbCircle
 10
-1234.9486688012
 20
-813.2944884168
 30
0.0
 40
0.7875000000000856
100
AcDbArc
 50
324.4698842763
 51
57.7863678219
  0
ARC
  5
208
330
1F
100
AcDbEntity
  8
0
  6
Continuous
 62
     7
370
    25
100
AcDbCircle
 10
-1234.2889852803
 20
-812.2474813002
 30
0.0
 40
0.4500000000003496
100
AcDbArc
 50
161.1281260491
 51
237.7863678218
  0
ARC
  5
209
330
1F
100
AcDbEntity
  8
0
  6
Continuous
 62
     7
370
    25
100
AcDbCircle
 10
1652.4142543757
 20
-812.8296966161
 30
0.0
 40
2.250000000000326
100
AcDbArc
 50
281.1281260491
 51
341.1281260491
  0
ARC
  5
20A
330
1F
100
AcDbEntity
  8
0
  6
Continuous
 62
     7
370
    25
100
AcDbCircle
 10
1652.7616609497
 20
-814.595853085
 30
0.0
 40
0.4500000000003953
100
AcDbArc
 50
281.128126049
 51
357.7863678219
  0
ARC
  5
20B
330
1F
100
AcDbEntity
  8
0
  6
Continuous
 62
     7
370
    25
100
AcDbCircle
 10
1654.1174940318
 20
-813.4119119321
 30
0.0
 40
0.4500000000003496
100
AcDbArc
 50
264.4698842763
 51
341.1281260491
  0
ARC
  5
20C
330
1F
100
AcDbEntity
  8
0
  6
Continuous
 62
     7
370
    25
100
AcDbCircle
 10
1653.998237471
 20
-814.6436522142
 30
0.0
 40
0.7875000000001715
100
AcDbArc
 50
84.4698842763
 51
177.7863678218
  0
ARC
  5
20D
330
1F
100
AcDbEntity
  8
0
  6
Continuous
 62
     7
370
    25
100
AcDbCircle
 10
1652.4142543757
 20
-812.8296966161
 30
0.0
 40
2.250000000000615
100
AcDbArc
 50
101.1281260491
 51
161.1281260491
  0
ARC
  5
20E
330
1F
100
AcDbEntity
  8
0
  6
Continuous
 62
     7
370
    25
100
AcDbCircle
 10
1652.0668478018
 20
-811.0635401473
 30
0.0
 40
0.4500000000001282
100
AcDbArc
 50
101.128126049
 51
177.7863678219
  0
ARC
  5
20F
330
1F
100
AcDbEntity
  8
0
  6
Continuous
 62
     7
370
    25
100
AcDbCircle
 10
1650.7110147197
 20
-812.2474813002
 30
0.0
 40
0.4500000000005647
100
AcDbArc
 50
84.4698842763
 51
161.1281260491
  0
ARC
  5
210
330
1F
100
AcDbEntity
  8
0
  6
Continuous
 62
     7
370
    25
100
AcDbCircle
 10
1650.8302712804
 20
-811.015741018
 30
0.0
 40
0.7875000000001671
100
AcDbArc
 50
264.4698842763
 51
357.7863678218
  0
ARC
  5
211
330
1F
100
AcDbEntity
  8
0
  6
Continuous
 62
     7
370
    25
100
AcDbCircle
 10
1652.4142543757
 20
-812.8296966161
 30
0.0
 40
2.250000000000326
100
AcDbArc
 50
341.1281260491
 51
41.1281260491
  0
ARC
  5
212
330
1F
100
AcDbEntity
  8
0
  6
Continuous
 62
     7
370
    25
100
AcDbCircle
 10
1653.7700874578
 20
-811.6457554632
 30
0.0
 40
0.4499999999999489
100
AcDbArc
 50
324.4698842763
 51
41.1281260491
  0
ARC
  5
213
330
1F
100
AcDbEntity
  8
0
  6
Continuous
 62
     7
370
    25
100
AcDbCircle
 10
1654.1174940318
 20
-813.4119119321
 30
0.0
 40
0.4500000000003496
100
AcDbArc
 50
341.1281260491
 51
57.7863678219
  0
ARC
  5
214
330
1F
100
AcDbEntity
  8
0
  6
Continuous
 62
     7
370
    25
100
AcDbCircle
 10
1654.7771775527
 20
-812.3649048155
 30
0.0
 40
0.7875000000000294
100
AcDbArc
 50
144.4698842763
 51
237.7863678218
  0
ARC
  5
215
330
1F
100
AcDbEntity
  8
0
  6
Continuous
 62
     7
370
    25
100
AcDbCircle
 10
1652.4142543757
 20
-812.8296966161
 30
0.0
 40
2.250000000000275
100
AcDbArc
 50
41.1281260491
 51
101.1281260491
  0
ARC
  5
216
330
1F
100
AcDbEntity
  8
0
  6
Continuous
 62
     7
370
    25
100
AcDbCircle
 10
1653.1931944574
 20
-810.5509492174
 30
0.0
 40
0.7875000000001806
100
AcDbArc
 50
204.4698842763
 51
297.7863678219
  0
ARC
  5
217
330
1F
100
AcDbEntity
  8
0
  6
Continuous
 62
     7
370
    25
100
AcDbCircle
 10
1653.7700874578
 20
-811.6457554632
 30
0.0
 40
0.4500000000000475
100
AcDbArc
 50
41.1281260491
 51
117.7863678218
  0
ARC
  5
218
330
1F
100
AcDbEntity
  8
0
  6
Continuous
 62
     7
370
    25
100
AcDbCircle
 10
1652.0668478018
 20
-811.0635401473
 30
0.0
 40
0.4500000000002604
100
AcDbArc
 50
24.4698842763
 51
101.128126049
  0
ARC
  5
219
330
1F
100
AcDbEntity
  8
0
  6
Continuous
 62
     7
370
    25
100
AcDbCircle
 10
1652.4142543757
 20
-812.8296966161
 30
0.0
 40
2.250000000000615
100
AcDbArc
 50
161.1281260491
 51
221.1281260491
  0
ARC
  5
21A
330
1F
100
AcDbEntity
  8
0
  6
Continuous
 62
     7
370
    25
100
AcDbCircle
 10
1652.4142543757
 20
-812.8296966161
 30
0.0
 40
2.250000000000275
100
AcDbArc
 50
221.1281260491
 51
281.1281260491
  0
CIRCLE
  5
21B
330
1F
100
AcDbEntity
  8
0
  6
Continuous
 62
     7
370
    25
100
AcDbCircle
 10
1652.4142543757
 20
-812.8296966161
 30
0.0
 40
3.850000000000146
  0
ARC
  5
21C
330
1F
100
AcDbEntity
  8
0
  6
Continuous
 62
     7
370
    25
100
AcDbCircle
 10
1650.7110147197
 20
-812.2474813002
 30
0.0
 40
0.4500000000005647
100
AcDbArc
 50
161.1281260491
 51
237.7863678219
  0
ARC
  5
21D
330
1F
100
AcDbEntity
  8
0
  6
Continuous
 62
     7
370
    25
100
AcDbCircle
 10
1650.0513311988
 20
-813.2944884168
 30
0.0
 40
0.7874999999999082
100
AcDbArc
 50
324.4698842763
 51
57.7863678218
  0
ARC
  5
21E
330
1F
100
AcDbEntity
  8
0
  6
Continuous
 62
     7
370
    25
100
AcDbCircle
 10
1651.0584212936
 20
-814.013637769
 30
0.0
 40
0.4500000000000149
100
AcDbArc
 50
144.4698842763
 51
221.1281260491
  0
ARC
  5
21F
330
1F
100
AcDbEntity
  8
0
  6
Continuous
 62
     7
370
    25
100
AcDbCircle
 10
1652.7616609497
 20
-814.595853085
 30
0.0
 40
0.4500000000003953
100
AcDbArc
 50
204.4698842763
 51
281.128126049
  0
ARC
  5
220
330
1F
100
AcDbEntity
  8
0
  6
Continuous
 62
     7
370
    25
100
AcDbCircle
 10
1651.6353142941
 20
-815.1084440149
 30
0.0
 40
0.7875000000003876
100
AcDbArc
 50
24.4698842763
 51
117.7863678219
  0
ARC
  5
221
330
1F
100
AcDbEntity
  8
0
  6
Continuous
 62
     7
370
    25
100
AcDbCircle
 10
1651.0584212936
 20
-814.013637769
 30
0.0
 40
0.4500000000000475
100
AcDbArc
 50
221.1281260491
 51
297.7863678218
  0
ARC
  5
222
330
1F
100
AcDbEntity
  8
0
  6
Continuous
 62
     7
370
    25
100
AcDbCircle
 10
299.9142543757
 20
-1290.3296966161
 30
0.0
 40
2.250000000000165
100
AcDbArc
 50
341.1281260491
 51
41.1281260491
  0
ARC
  5
223
330
1F
100
AcDbEntity
  8
0
  6
Continuous
 62
     7
370
    25
100
AcDbCircle
 10
301.6174940318
 20
-1290.911911932
 30
0.0
 40
0.450000000000242
100
AcDbArc
 50
341.1281260491
 51
57.7863678218
  0
ARC
  5
224
330
1F
100
AcDbEntity
  8
0
  6
Continuous
 62
     7
370
    25
100
AcDbCircle
 10
302.2771775527
 20
-1289.8649048155
 30
0.0
 40
0.7874999999999931
100
AcDbArc
 50
144.4698842763
 51
237.7863678218
  0
ARC
  5
225
330
1F
100
AcDbEntity
  8
0
  6
Continuous
 62
     7
370
    25
100
AcDbCircle
 10
301.2700874578
 20
-1289.1457554632
 30
0.0
 40
0.4500000000000083
100
AcDbArc
 50
324.4698842763
 51
41.1281260491
  0
ARC
  5
226
330
1F
100
AcDbEntity
  8
0
  6
Continuous
 62
     7
370
    25
100
AcDbCircle
 10
299.9142543757
 20
-1290.3296966161
 30
0.0
 40
2.250000000000242
100
AcDbArc
 50
41.1281260491
 51
101.1281260491
  0
ARC
  5
227
330
1F
100
AcDbEntity
  8
0
  6
Continuous
 62
     7
370
    25
100
AcDbCircle
 10
299.9142543757
 20
-1290.3296966161
 30
0.0
 40
2.250000000000242
100
AcDbArc
 50
101.1281260491
 51
161.1281260491
  0
ARC
  5
228
330
1F
100
AcDbEntity
  8
0
  6
Continuous
 62
     7
370
    25
100
AcDbCircle
 10
299.9142543757
 20
-1290.3296966161
 30
0.0
 40
2.250000000000238
100
AcDbArc
 50
161.1281260491
 51
221.1281260491
  0
ARC
  5
229
330
1F
100
AcDbEntity
  8
0
  6
Continuous
 62
     7
370
    25
100
AcDbCircle
 10
299.9142543757
 20
-1290.3296966161
 30
0.0
 40
2.250000000000254
100
AcDbArc
 50
221.1281260491
 51
281.1281260491
  0
ARC
  5
22A
330
1F
100
AcDbEntity
  8
0
  6
Continuous
 62
     7
370
    25
100
AcDbCircle
 10
299.9142543757
 20
-1290.3296966161
 30
0.0
 40
2.250000000000254
100
AcDbArc
 50
281.1281260491
 51
341.1281260491
  0
CIRCLE
  5
22B
330
1F
100
AcDbEntity
  8
0
  6
Continuous
 62
     7
370
    25
100
AcDbCircle
 10
299.9142543757
 20
-1290.3296966161
 30
0.0
 40
3.850000000000135
  0
ARC
  5
22C
330
1F
100
AcDbEntity
  8
0
  6
Continuous
 62
     7
370
    25
100
AcDbCircle
 10
300.6931944574
 20
-1288.0509492173
 30
0.0
 40
0.787499999999983
100
AcDbArc
 50
204.4698842763
 51
297.7863678219
  0
ARC
  5
22D
330
1F
100
AcDbEntity
  8
0
  6
Continuous
 62
     7
370
    25
100
AcDbCircle
 10
301.2700874578
 20
-1289.1457554632
 30
0.0
 40
0.450000000000074
100
AcDbArc
 50
41.1281260491
 51
117.7863678218
  0
ARC
  5
22E
330
1F
100
AcDbEntity
  8
0
  6
Continuous
 62
     7
370
    25
100
AcDbCircle
 10
299.5668478018
 20
-1288.5635401473
 30
0.0
 40
0.4500000000001612
100
AcDbArc
 50
24.4698842763
 51
101.128126049
  0
ARC
  5
22F
330
1F
100
AcDbEntity
  8
0
  6
Continuous
 62
     7
370
    25
100
AcDbCircle
 10
300.2616609497
 20
-1292.0958530849
 30
0.0
 40
0.4500000000001834
100
AcDbArc
 50
281.128126049
 51
357.7863678219
  0
ARC
  5
230
330
1F
100
AcDbEntity
  8
0
  6
Continuous
 62
     7
370
    25
100
AcDbCircle
 10
301.498237471
 20
-1292.1436522142
 30
0.0
 40
0.787499999999765
100
AcDbArc
 50
84.4698842763
 51
177.7863678218
  0
ARC
  5
231
330
1F
100
AcDbEntity
  8
0
  6
Continuous
 62
     7
370
    25
100
AcDbCircle
 10
301.6174940318
 20
-1290.911911932
 30
0.0
 40
0.450000000000242
100
AcDbArc
 50
264.4698842763
 51
341.1281260491
  0
ARC
  5
232
330
1F
100
AcDbEntity
  8
0
  6
Continuous
 62
     7
370
    25
100
AcDbCircle
 10
298.2110147197
 20
-1289.7474813002
 30
0.0
 40
0.4500000000003871
100
AcDbArc
 50
84.4698842763
 51
161.1281260491
  0
ARC
  5
233
330
1F
100
AcDbEntity
  8
0
  6
Continuous
 62
     7
370
    25
100
AcDbCircle
 10
298.3302712804
 20
-1288.515741018
 30
0.0
 40
0.7874999999997172
100
AcDbArc
 50
264.4698842763
 51
357.7863678218
  0
ARC
  5
234
330
1F
100
AcDbEntity
  8
0
  6
Continuous
 62
     7
370
    25
100
AcDbCircle
 10
299.5668478018
 20
-1288.5635401473
 30
0.0
 40
0.4500000000001834
100
AcDbArc
 50
101.128126049
 51
177.7863678219
  0
ARC
  5
235
330
1F
100
AcDbEntity
  8
0
  6
Continuous
 62
     7
370
    25
100
AcDbCircle
 10
298.5584212936
 20
-1291.513637769
 30
0.0
 40
0.4499999999998993
100
AcDbArc
 50
221.1281260491
 51
297.7863678218
  0
ARC
  5
236
330
1F
100
AcDbEntity
  8
0
  6
Continuous
 62
     7
370
    25
100
AcDbCircle
 10
300.2616609497
 20
-1292.0958530849
 30
0.0
 40
0.4500000000001722
100
AcDbArc
 50
204.4698842763
 51
281.128126049
  0
ARC
  5
237
330
1F
100
AcDbEntity
  8
0
  6
Continuous
 62
     7
370
    25
100
AcDbCircle
 10
299.1353142941
 20
-1292.6084440149
 30
0.0
 40
0.7875000000000911
100
AcDbArc
 50
24.4698842763
 51
117.7863678218
  0
ARC
  5
238
330
1F
100
AcDbEntity
  8
0
  6
Continuous
 62
     7
370
    25
100
AcDbCircle
 10
298.5584212936
 20
-1291.513637769
 30
0.0
 40
0.4499999999998762
100
AcDbArc
 50
144.4698842763
 51
221.1281260491
  0
ARC
  5
239
330
1F
100
AcDbEntity
  8
0
  6
Continuous
 62
     7
370
    25
100
AcDbCircle
 10
297.5513311988
 20
-1290.7944884168
 30
0.0
 40
0.7875000000001252
100
AcDbArc
 50
324.4698842763
 51
57.7863678218
  0
ARC
  5
23A
330
1F
100
AcDbEntity
  8
0
  6
Continuous
 62
     7
370
    25
100
AcDbCircle
 10
298.2110147197
 20
-1289.7474813002
 30
0.0
 40
0.4500000000003693
100
AcDbArc
 50
161.1281260491
 51
237.7863678218
  0
ARC
  5
23B
330
1F
100
AcDbEntity
  8
0
  6
Continuous
 62
     7
370
    25
100
AcDbCircle
 10
119.9142543757
 20
-1290.3296966161
 30
0.0
 40
2.250000000000248
100
AcDbArc
 50
41.1281260491
 51
101.1281260491
  0
ARC
  5
23C
330
1F
100
AcDbEntity
  8
0
  6
Continuous
 62
     7
370
    25
100
AcDbCircle
 10
119.9142543757
 20
-1290.3296966161
 30
0.0
 40
2.250000000000265
100
AcDbArc
 50
101.1281260491
 51
161.1281260491
  0
ARC
  5
23D
330
1F
100
AcDbEntity
  8
0
  6
Continuous
 62
     7
370
    25
100
AcDbCircle
 10
119.9142543757
 20
-1290.3296966161
 30
0.0
 40
2.250000000000265
100
AcDbArc
 50
161.1281260491
 51
221.1281260491
  0
ARC
  5
23E
330
1F
100
AcDbEntity
  8
0
  6
Continuous
 62
     7
370
    25
100
AcDbCircle
 10
119.9142543757
 20
-1290.3296966161
 30
0.0
 40
2.250000000000248
100
AcDbArc
 50
221.1281260491
 51
281.1281260491
  0
ARC
  5
23F
330
1F
100
AcDbEntity
  8
0
  6
Continuous
 62
     7
370
    25
100
AcDbCircle
 10
119.9142543757
 20
-1290.3296966161
 30
0.0
 40
2.250000000000248
100
AcDbArc
 50
281.1281260491
 51
341.1281260491
  0
ARC
  5
240
330
1F
100
AcDbEntity
  8
0
  6
Continuous
 62
     7
370
    25
100
AcDbCircle
 10
119.9142543757
 20
-1290.3296966161
 30
0.0
 40
2.250000000000192
100
AcDbArc
 50
341.1281260491
 51
41.1281260491
  0
CIRCLE
  5
241
330
1F
100
AcDbEntity
  8
0
  6
Continuous
 62
     7
370
    25
100
AcDbCircle
 10
119.9142543757
 20
-1290.3296966161
 30
0.0
 40
3.850000000000124
  0
ARC
  5
242
330
1F
100
AcDbEntity
  8
0
  6
Continuous
 62
     7
370
    25
100
AcDbCircle
 10
120.2616609497
 20
-1292.0958530849
 30
0.0
 40
0.4500000000001976
100
AcDbArc
 50
281.128126049
 51
357.7863678219
  0
ARC
  5
243
330
1F
100
AcDbEntity
  8
0
  6
Continuous
 62
     7
370
    25
100
AcDbCircle
 10
121.6174940318
 20
-1290.911911932
 30
0.0
 40
0.4500000000002958
100
AcDbArc
 50
264.4698842763
 51
341.1281260491
  0
ARC
  5
244
330
1F
100
AcDbEntity
  8
0
  6
Continuous
 62
     7
370
    25
100
AcDbCircle
 10
121.498237471
 20
-1292.1436522142
 30
0.0
 40
0.7874999999997225
100
AcDbArc
 50
84.4698842763
 51
177.7863678218
  0
ARC
  5
245
330
1F
100
AcDbEntity
  8
0
  6
Continuous
 62
     7
370
    25
100
AcDbCircle
 10
121.2700874578
 20
-1289.1457554632
 30
0.0
 40
0.450000000000074
100
AcDbArc
 50
41.128126049
 51
117.7863678218
  0
ARC
  5
246
330
1F
100
AcDbEntity
  8
0
  6
Continuous
 62
     7
370
    25
100
AcDbCircle
 10
120.6931944574
 20
-1288.0509492173
 30
0.0
 40
0.787499999999983
100
AcDbArc
 50
204.4698842763
 51
297.7863678219
  0
ARC
  5
247
330
1F
100
AcDbEntity
  8
0
  6
Continuous
 62
     7
370
    25
100
AcDbCircle
 10
119.5668478018
 20
-1288.5635401473
 30
0.0
 40
0.4500000000001667
100
AcDbArc
 50
24.4698842763
 51
101.128126049
  0
ARC
  5
248
330
1F
100
AcDbEntity
  8
0
  6
Continuous
 62
     7
370
    25
100
AcDbCircle
 10
119.5668478018
 20
-1288.5635401473
 30
0.0
 40
0.4500000000001976
100
AcDbArc
 50
101.128126049
 51
177.7863678219
  0
ARC
  5
249
330
1F
100
AcDbEntity
  8
0
  6
Continuous
 62
     7
370
    25
100
AcDbCircle
 10
118.3302712804
 20
-1288.515741018
 30
0.0
 40
0.7874999999997313
100
AcDbArc
 50
264.4698842763
 51
357.7863678218
  0
ARC
  5
24A
330
1F
100
AcDbEntity
  8
0
  6
Continuous
 62
     7
370
    25
100
AcDbCircle
 10
118.2110147197
 20
-1289.7474813002
 30
0.0
 40
0.4500000000003925
100
AcDbArc
 50
84.4698842763
 51
161.1281260491
  0
ARC
  5
24B
330
1F
100
AcDbEntity
  8
0
  6
Continuous
 62
     7
370
    25
100
AcDbCircle
 10
121.2700874578
 20
-1289.1457554632
 30
0.0
 40
0.4500000000000083
100
AcDbArc
 50
324.4698842763
 51
41.1281260491
  0
ARC
  5
24C
330
1F
100
AcDbEntity
  8
0
  6
Continuous
 62
     7
370
    25
100
AcDbCircle
 10
122.2771775527
 20
-1289.8649048155
 30
0.0
 40
0.7874999999999931
100
AcDbArc
 50
144.4698842763
 51
237.7863678218
  0
ARC
  5
24D
330
1F
100
AcDbEntity
  8
0
  6
Continuous
 62
     7
370
    25
100
AcDbCircle
 10
121.6174940318
 20
-1290.911911932
 30
0.0
 40
0.4500000000002958
100
AcDbArc
 50
341.1281260491
 51
57.7863678218
  0
ARC
  5
24E
330
1F
100
AcDbEntity
  8
0
  6
Continuous
 62
     7
370
    25
100
AcDbCircle
 10
118.2110147197
 20
-1289.7474813002
 30
0.0
 40
0.4500000000003693
100
AcDbArc
 50
161.1281260491
 51
237.7863678218
  0
ARC
  5
24F
330
1F
100
AcDbEntity
  8
0
  6
Continuous
 62
     7
370
    25
100
AcDbCircle
 10
117.5513311988
 20
-1290.7944884168
 30
0.0
 40
0.7875000000001252
100
AcDbArc
 50
324.4698842763
 51
57.7863678218
  0
ARC
  5
250
330
1F
100
AcDbEntity
  8
0
  6
Continuous
 62
     7
370
    25
100
AcDbCircle
 10
118.5584212936
 20
-1291.513637769
 30
0.0
 40
0.4499999999998762
100
AcDbArc
 50
144.4698842763
 51
221.1281260491
  0
ARC
  5
251
330
1F
100
AcDbEntity
  8
0
  6
Continuous
 62
     7
370
    25
100
AcDbCircle
 10
119.1353142941
 20
-1292.6084440149
 30
0.0
 40
0.7875000000000779
100
AcDbArc
 50
24.4698842763
 51
117.7863678218
  0
ARC
  5
252
330
1F
100
AcDbEntity
  8
0
  6
Continuous
 62
     7
370
    25
100
AcDbCircle
 10
120.2616609497
 20
-1292.0958530849
 30
0.0
 40
0.4500000000001667
100
AcDbArc
 50
204.4698842763
 51
281.128126049
  0
ARC
  5
253
330
1F
100
AcDbEntity
  8
0
  6
Continuous
 62
     7
370
    25
100
AcDbCircle
 10
118.5584212936
 20
-1291.513637769
 30
0.0
 40
0.4499999999999257
100
AcDbArc
 50
221.1281260491
 51
297.7863678219
  0
ARC
  5
254
330
1F
100
AcDbEntity
  8
0
  6
Continuous
 62
     7
370
    25
100
AcDbCircle
 10
1174.9142543757
 20
-1290.3296966161
 30
0.0
 40
2.250000000000111
100
AcDbArc
 50
341.1281260491
 51
41.1281260491
  0
ARC
  5
255
330
1F
100
AcDbEntity
  8
0
  6
Continuous
 62
     7
370
    25
100
AcDbCircle
 10
1176.6174940318
 20
-1290.911911932
 30
0.0
 40
0.4500000000001344
100
AcDbArc
 50
341.1281260491
 51
57.7863678218
  0
ARC
  5
256
330
1F
100
AcDbEntity
  8
0
  6
Continuous
 62
     7
370
    25
100
AcDbCircle
 10
1177.2771775527
 20
-1289.8649048155
 30
0.0
 40
0.7875000000000856
100
AcDbArc
 50
144.4698842763
 51
237.7863678219
  0
ARC
  5
257
330
1F
100
AcDbEntity
  8
0
  6
Continuous
 62
     7
370
    25
100
AcDbCircle
 10
1176.2700874578
 20
-1289.1457554632
 30
0.0
 40
0.449999999999962
100
AcDbArc
 50
324.4698842762
 51
41.128126049
  0
ARC
  5
258
330
1F
100
AcDbEntity
  8
0
  6
Continuous
 62
     7
370
    25
100
AcDbCircle
 10
1174.9142543757
 20
-1290.3296966161
 30
0.0
 40
2.250000000000231
100
AcDbArc
 50
101.1281260491
 51
161.1281260491
  0
ARC
  5
259
330
1F
100
AcDbEntity
  8
0
  6
Continuous
 62
     7
370
    25
100
AcDbCircle
 10
1174.5668478018
 20
-1288.5635401473
 30
0.0
 40
0.4500000000002402
100
AcDbArc
 50
101.128126049
 51
177.7863678219
  0
ARC
  5
25A
330
1F
100
AcDbEntity
  8
0
  6
Continuous
 62
     7
370
    25
100
AcDbCircle
 10
1173.3302712804
 20
-1288.515741018
 30
0.0
 40
0.7874999999997172
100
AcDbArc
 50
264.4698842763
 51
357.7863678218
  0
ARC
  5
25B
330
1F
100
AcDbEntity
  8
0
  6
Continuous
 62
     7
370
    25
100
AcDbCircle
 10
1173.2110147197
 20
-1289.7474813002
 30
0.0
 40
0.450000000000409
100
AcDbArc
 50
84.4698842763
 51
161.1281260491
  0
ARC
  5
25C
330
1F
100
AcDbEntity
  8
0
  6
Continuous
 62
     7
370
    25
100
AcDbCircle
 10
1174.9142543757
 20
-1290.3296966161
 30
0.0
 40
2.250000000000231
100
AcDbArc
 50
41.1281260491
 51
101.1281260491
  0
ARC
  5
25D
330
1F
100
AcDbEntity
  8
0
  6
Continuous
 62
     7
370
    25
100
AcDbCircle
 10
1174.9142543757
 20
-1290.3296966161
 30
0.0
 40
2.250000000000185
100
AcDbArc
 50
161.1281260491
 51
221.1281260491
  0
ARC
  5
25E
330
1F
100
AcDbEntity
  8
0
  6
Continuous
 62
     7
370
    25
100
AcDbCircle
 10
1174.9142543757
 20
-1290.3296966161
 30
0.0
 40
2.250000000000231
100
AcDbArc
 50
221.1281260491
 51
281.1281260491
  0
ARC
  5
25F
330
1F
100
AcDbEntity
  8
0
  6
Continuous
 62
     7
370
    25
100
AcDbCircle
 10
1174.9142543757
 20
-1290.3296966161
 30
0.0
 40
2.250000000000231
100
AcDbArc
 50
281.1281260491
 51
341.1281260491
  0
CIRCLE
  5
260
330
1F
100
AcDbEntity
  8
0
  6
Continuous
 62
     7
370
    25
100
AcDbCircle
 10
1174.9142543757
 20
-1290.3296966161
 30
0.0
 40
3.850000000000048
  0
ARC
  5
261
330
1F
100
AcDbEntity
  8
0
  6
Continuous
 62
     7
370
    25
100
AcDbCircle
 10
1175.6931944574
 20
-1288.0509492173
 30
0.0
 40
0.7875000000000865
100
AcDbArc
 50
204.4698842763
 51
297.7863678218
  0
ARC
  5
262
330
1F
100
AcDbEntity
  8
0
  6
Continuous
 62
     7
370
    25
100
AcDbCircle
 10
1176.2700874578
 20
-1289.1457554632
 30
0.0
 40
0.4500000000001534
100
AcDbArc
 50
41.128126049
 51
117.7863678218
  0
ARC
  5
263
330
1F
100
AcDbEntity
  8
0
  6
Continuous
 62
     7
370
    25
100
AcDbCircle
 10
1174.5668478018
 20
-1288.5635401473
 30
0.0
 40
0.4500000000001722
100
AcDbArc
 50
24.4698842763
 51
101.128126049
  0
ARC
  5
264
330
1F
100
AcDbEntity
  8
0
  6
Continuous
 62
     7
370
    25
100
AcDbCircle
 10
1175.2616609497
 20
-1292.0958530849
 30
0.0
 40
0.4500000000002402
100
AcDbArc
 50
281.128126049
 51
357.7863678219
  0
ARC
  5
265
330
1F
100
AcDbEntity
  8
0
  6
Continuous
 62
     7
370
    25
100
AcDbCircle
 10
1176.6174940318
 20
-1290.911911932
 30
0.0
 40
0.4500000000001827
100
AcDbArc
 50
264.4698842763
 51
341.1281260491
  0
ARC
  5
266
330
1F
100
AcDbEntity
  8
0
  6
Continuous
 62
     7
370
    25
100
AcDbCircle
 10
1176.498237471
 20
-1292.1436522142
 30
0.0
 40
0.7874999999997083
100
AcDbArc
 50
84.4698842763
 51
177.7863678218
  0
ARC
  5
267
330
1F
100
AcDbEntity
  8
0
  6
Continuous
 62
     7
370
    25
100
AcDbCircle
 10
1173.2110147197
 20
-1289.7474813002
 30
0.0
 40
0.450000000000208
100
AcDbArc
 50
161.1281260491
 51
237.7863678218
  0
ARC
  5
268
330
1F
100
AcDbEntity
  8
0
  6
Continuous
 62
     7
370
    25
100
AcDbCircle
 10
1173.5584212936
 20
-1291.513637769
 30
0.0
 40
0.4499999999998299
100
AcDbArc
 50
144.4698842763
 51
221.1281260491
  0
ARC
  5
269
330
1F
100
AcDbEntity
  8
0
  6
Continuous
 62
     7
370
    25
100
AcDbCircle
 10
1172.5513311988
 20
-1290.7944884168
 30
0.0
 40
0.7875000000002178
100
AcDbArc
 50
324.4698842763
 51
57.7863678219
  0
ARC
  5
26A
330
1F
100
AcDbEntity
  8
0
  6
Continuous
 62
     7
370
    25
100
AcDbCircle
 10
1175.2616609497
 20
-1292.0958530849
 30
0.0
 40
0.4500000000001722
100
AcDbArc
 50
204.4698842763
 51
281.128126049
  0
ARC
  5
26B
330
1F
100
AcDbEntity
  8
0
  6
Continuous
 62
     7
370
    25
100
AcDbCircle
 10
1173.5584212936
 20
-1291.513637769
 30
0.0
 40
0.4499999999999523
100
AcDbArc
 50
221.1281260491
 51
297.7863678219
  0
ARC
  5
26C
330
1F
100
AcDbEntity
  8
0
  6
Continuous
 62
     7
370
    25
100
AcDbCircle
 10
1174.1353142941
 20
-1292.6084440149
 30
0.0
 40
0.7875000000000865
100
AcDbArc
 50
24.4698842763
 51
117.7863678218
  0
ARC
  5
26D
330
1F
100
AcDbEntity
  8
0
  6
Continuous
 62
     7
370
    25
100
AcDbCircle
 10
-935.0857456243
 20
-1290.3296966161
 30
0.0
 40
2.250000000000004
100
AcDbArc
 50
341.1281260491
 51
41.1281260491
  0
ARC
  5
26E
330
1F
100
AcDbEntity
  8
0
  6
Continuous
 62
     7
370
    25
100
AcDbCircle
 10
-933.3825059682
 20
-1290.911911932
 30
0.0
 40
0.450000000000242
100
AcDbArc
 50
341.1281260491
 51
57.7863678218
  0
ARC
  5
26F
330
1F
100
AcDbEntity
  8
0
  6
Continuous
 62
     7
370
    25
100
AcDbCircle
 10
-932.7228224473
 20
-1289.8649048155
 30
0.0
 40
0.7875000000001782
100
AcDbArc
 50
144.4698842763
 51
237.7863678218
  0
ARC
  5
270
330
1F
100
AcDbEntity
  8
0
  6
Continuous
 62
     7
370
    25
100
AcDbCircle
 10
-933.7299125422
 20
-1289.1457554632
 30
0.0
 40
0.449999999999962
100
AcDbArc
 50
324.4698842762
 51
41.1281260491
  0
ARC
  5
271
330
1F
100
AcDbEntity
  8
0
  6
Continuous
 62
     7
370
    25
100
AcDbCircle
 10
-935.0857456243
 20
-1290.3296966161
 30
0.0
 40
2.250000000000231
100
AcDbArc
 50
281.1281260491
 51
341.1281260491
  0
ARC
  5
272
330
1F
100
AcDbEntity
  8
0
  6
Continuous
 62
     7
370
    25
100
AcDbCircle
 10
-934.7383390503
 20
-1292.0958530849
 30
0.0
 40
0.4500000000002402
100
AcDbArc
 50
281.128126049
 51
357.7863678219
  0
ARC
  5
273
330
1F
100
AcDbEntity
  8
0
  6
Continuous
 62
     7
370
    25
100
AcDbCircle
 10
-933.3825059682
 20
-1290.911911932
 30
0.0
 40
0.450000000000242
100
AcDbArc
 50
264.4698842763
 51
341.1281260491
  0
ARC
  5
274
330
1F
100
AcDbEntity
  8
0
  6
Continuous
 62
     7
370
    25
100
AcDbCircle
 10
-933.501762529
 20
-1292.1436522142
 30
0.0
 40
0.7874999999997083
100
AcDbArc
 50
84.4698842763
 51
177.7863678218
  0
ARC
  5
275
330
1F
100
AcDbEntity
  8
0
  6
Continuous
 62
     7
370
    25
100
AcDbCircle
 10
-935.0857456243
 20
-1290.3296966161
 30
0.0
 40
2.250000000000507
100
AcDbArc
 50
101.1281260491
 51
161.1281260491
  0
ARC
  5
276
330
1F
100
AcDbEntity
  8
0
  6
Continuous
 62
     7
370
    25
100
AcDbCircle
 10
-936.7889852803
 20
-1289.7474813002
 30
0.0
 40
0.4500000000005307
100
AcDbArc
 50
84.4698842763
 51
161.1281260491
  0
ARC
  5
277
330
1F
100
AcDbEntity
  8
0
  6
Continuous
 62
     7
370
    25
100
AcDbCircle
 10
-935.4331521982
 20
-1288.5635401473
 30
0.0
 40
0.4500000000002402
100
AcDbArc
 50
101.128126049
 51
177.7863678219
  0
ARC
  5
278
330
1F
100
AcDbEntity
  8
0
  6
Continuous
 62
     7
370
    25
100
AcDbCircle
 10
-936.6697287196
 20
-1288.515741018
 30
0.0
 40
0.7874999999997172
100
AcDbArc
 50
264.4698842763
 51
357.7863678218
  0
ARC
  5
279
330
1F
100
AcDbEntity
  8
0
  6
Continuous
 62
     7
370
    25
100
AcDbCircle
 10
-935.0857456243
 20
-1290.3296966161
 30
0.0
 40
2.250000000000275
100
AcDbArc
 50
41.1281260491
 51
101.1281260491
  0
ARC
  5
27A
330
1F
100
AcDbEntity
  8
0
  6
Continuous
 62
     7
370
    25
100
AcDbCircle
 10
-935.0857456243
 20
-1290.3296966161
 30
0.0
 40
2.250000000000507
100
AcDbArc
 50
161.1281260491
 51
221.1281260491
  0
ARC
  5
27B
330
1F
100
AcDbEntity
  8
0
  6
Continuous
 62
     7
370
    25
100
AcDbCircle
 10
-935.0857456243
 20
-1290.3296966161
 30
0.0
 40
2.250000000000231
100
AcDbArc
 50
221.1281260491
 51
281.1281260491
  0
CIRCLE
  5
27C
330
1F
100
AcDbEntity
  8
0
  6
Continuous
 62
     7
370
    25
100
AcDbCircle
 10
-935.0857456243
 20
-1290.3296966161
 30
0.0
 40
3.849999999999963
  0
ARC
  5
27D
330
1F
100
AcDbEntity
  8
0
  6
Continuous
 62
     7
370
    25
100
AcDbCircle
 10
-935.4331521982
 20
-1288.5635401473
 30
0.0
 40
0.4500000000002041
100
AcDbArc
 50
24.4698842763
 51
101.128126049
  0
ARC
  5
27E
330
1F
100
AcDbEntity
  8
0
  6
Continuous
 62
     7
370
    25
100
AcDbCircle
 10
-934.3068055426
 20
-1288.0509492173
 30
0.0
 40
0.787499999999983
100
AcDbArc
 50
204.4698842763
 51
297.7863678218
  0
ARC
  5
27F
330
1F
100
AcDbEntity
  8
0
  6
Continuous
 62
     7
370
    25
100
AcDbCircle
 10
-933.7299125422
 20
-1289.1457554632
 30
0.0
 40
0.4500000000001534
100
AcDbArc
 50
41.1281260491
 51
117.7863678218
  0
ARC
  5
280
330
1F
100
AcDbEntity
  8
0
  6
Continuous
 62
     7
370
    25
100
AcDbCircle
 10
-936.4415787064
 20
-1291.513637769
 30
0.0
 40
0.4499999999998462
100
AcDbArc
 50
221.1281260491
 51
297.7863678218
  0
ARC
  5
281
330
1F
100
AcDbEntity
  8
0
  6
Continuous
 62
     7
370
    25
100
AcDbCircle
 10
-934.7383390503
 20
-1292.0958530849
 30
0.0
 40
0.4500000000001941
100
AcDbArc
 50
204.4698842763
 51
281.128126049
  0
ARC
  5
282
330
1F
100
AcDbEntity
  8
0
  6
Continuous
 62
     7
370
    25
100
AcDbCircle
 10
-935.8646857059
 20
-1292.6084440149
 30
0.0
 40
0.7875000000001441
100
AcDbArc
 50
24.4698842763
 51
117.7863678219
  0
ARC
  5
283
330
1F
100
AcDbEntity
  8
0
  6
Continuous
 62
     7
370
    25
100
AcDbCircle
 10
-936.4415787064
 20
-1291.513637769
 30
0.0
 40
0.4500000000000149
100
AcDbArc
 50
144.4698842763
 51
221.1281260491
  0
ARC
  5
284
330
1F
100
AcDbEntity
  8
0
  6
Continuous
 62
     7
370
    25
100
AcDbCircle
 10
-936.7889852803
 20
-1289.7474813002
 30
0.0
 40
0.4500000000005307
100
AcDbArc
 50
161.1281260491
 51
237.7863678218
  0
ARC
  5
285
330
1F
100
AcDbEntity
  8
0
  6
Continuous
 62
     7
370
    25
100
AcDbCircle
 10
-937.4486688012
 20
-1290.7944884168
 30
0.0
 40
0.7874999999999402
100
AcDbArc
 50
324.4698842763
 51
57.7863678218
  0
ARC
  5
286
330
1F
100
AcDbEntity
  8
0
  6
Continuous
 62
     7
370
    25
100
AcDbCircle
 10
-1232.5857456243
 20
-992.8296966161
 30
0.0
 40
2.250000000000148
100
AcDbArc
 50
341.1281260491
 51
41.1281260491
  0
ARC
  5
287
330
1F
100
AcDbEntity
  8
0
  6
Continuous
 62
     7
370
    25
100
AcDbCircle
 10
-1230.8825059682
 20
-993.411911932
 30
0.0
 40
0.4500000000003263
100
AcDbArc
 50
341.1281260492
 51
57.7863678218
  0
ARC
  5
288
330
1F
100
AcDbEntity
  8
0
  6
Continuous
 62
     7
370
    25
100
AcDbCircle
 10
-1230.2228224473
 20
-992.3649048155
 30
0.0
 40
0.7875000000000856
100
AcDbArc
 50
144.4698842763
 51
237.7863678218
  0
ARC
  5
289
330
1F
100
AcDbEntity
  8
0
  6
Continuous
 62
     7
370
    25
100
AcDbCircle
 10
-1231.2299125422
 20
-991.6457554632
 30
0.0
 40
0.449999999999962
100
AcDbArc
 50
324.4698842762
 51
41.1281260491
  0
ARC
  5
28A
330
1F
100
AcDbEntity
  8
0
  6
Continuous
 62
     7
370
    25
100
AcDbCircle
 10
-1232.5857456243
 20
-992.8296966161
 30
0.0
 40
2.250000000000343
100
AcDbArc
 50
281.1281260491
 51
341.1281260491
  0
ARC
  5
28B
330
1F
100
AcDbEntity
  8
0
  6
Continuous
 62
     7
370
    25
100
AcDbCircle
 10
-1232.2383390503
 20
-994.5958530849
 30
0.0
 40
0.4500000000005068
100
AcDbArc
 50
281.128126049
 51
357.7863678219
  0
ARC
  5
28C
330
1F
100
AcDbEntity
  8
0
  6
Continuous
 62
     7
370
    25
100
AcDbCircle
 10
-1231.001762529
 20
-994.6436522142
 30
0.0
 40
0.7874999999997666
100
AcDbArc
 50
84.4698842763
 51
177.7863678218
  0
ARC
  5
28D
330
1F
100
AcDbEntity
  8
0
  6
Continuous
 62
     7
370
    25
100
AcDbCircle
 10
-1230.8825059682
 20
-993.411911932
 30
0.0
 40
0.450000000000276
100
AcDbArc
 50
264.4698842763
 51
341.1281260492
  0
ARC
  5
28E
330
1F
100
AcDbEntity
  8
0
  6
Continuous
 62
     7
370
    25
100
AcDbCircle
 10
-1232.5857456243
 20
-992.8296966161
 30
0.0
 40
2.250000000000275
100
AcDbArc
 50
41.1281260491
 51
101.1281260491
  0
ARC
  5
28F
330
1F
100
AcDbEntity
  8
0
  6
Continuous
 62
     7
370
    25
100
AcDbCircle
 10
-1232.5857456243
 20
-992.8296966161
 30
0.0
 40
2.250000000000326
100
AcDbArc
 50
101.1281260491
 51
161.1281260491
  0
ARC
  5
290
330
1F
100
AcDbEntity
  8
0
  6
Continuous
 62
     7
370
    25
100
AcDbCircle
 10
-1232.5857456243
 20
-992.8296966161
 30
0.0
 40
2.250000000000326
100
AcDbArc
 50
161.1281260491
 51
221.1281260491
  0
ARC
  5
291
330
1F
100
AcDbEntity
  8
0
  6
Continuous
 62
     7
370
    25
100
AcDbCircle
 10
-1232.5857456243
 20
-992.8296966161
 30
0.0
 40
2.250000000000343
100
AcDbArc
 50
221.1281260491
 51
281.1281260491
  0
CIRCLE
  5
292
330
1F
100
AcDbEntity
  8
0
  6
Continuous
 62
     7
370
    25
100
AcDbCircle
 10
-1232.5857456243
 20
-992.8296966161
 30
0.0
 40
3.849999999999974
  0
ARC
  5
293
330
1F
100
AcDbEntity
  8
0
  6
Continuous
 62
     7
370
    25
100
AcDbCircle
 10
-1234.2889852803
 20
-992.2474813002
 30
0.0
 40
0.450000000000276
100
AcDbArc
 50
84.4698842763
 51
161.1281260492
  0
ARC
  5
294
330
1F
100
AcDbEntity
  8
0
  6
Continuous
 62
     7
370
    25
100
AcDbCircle
 10
-1234.1697287196
 20
-991.015741018
 30
0.0
 40
0.7874999999997228
100
AcDbArc
 50
264.4698842763
 51
357.7863678218
  0
ARC
  5
295
330
1F
100
AcDbEntity
  8
0
  6
Continuous
 62
     7
370
    25
100
AcDbCircle
 10
-1232.9331521982
 20
-991.0635401473
 30
0.0
 40
0.4500000000005068
100
AcDbArc
 50
101.128126049
 51
177.7863678218
  0
ARC
  5
296
330
1F
100
AcDbEntity
  8
0
  6
Continuous
 62
     7
370
    25
100
AcDbCircle
 10
-1231.2299125422
 20
-991.6457554632
 30
0.0
 40
0.4500000000000475
100
AcDbArc
 50
41.1281260491
 51
117.7863678218
  0
ARC
  5
297
330
1F
100
AcDbEntity
  8
0
  6
Continuous
 62
     7
370
    25
100
AcDbCircle
 10
-1231.8068055426
 20
-990.5509492173
 30
0.0
 40
0.7875000000001335
100
AcDbArc
 50
204.4698842763
 51
297.7863678218
  0
ARC
  5
298
330
1F
100
AcDbEntity
  8
0
  6
Continuous
 62
     7
370
    25
100
AcDbCircle
 10
-1232.9331521982
 20
-991.0635401473
 30
0.0
 40
0.4500000000005068
100
AcDbArc
 50
24.4698842763
 51
101.128126049
  0
ARC
  5
299
330
1F
100
AcDbEntity
  8
0
  6
Continuous
 62
     7
370
    25
100
AcDbCircle
 10
-1234.2889852803
 20
-992.2474813002
 30
0.0
 40
0.450000000000276
100
AcDbArc
 50
161.1281260492
 51
237.7863678219
  0
ARC
  5
29A
330
1F
100
AcDbEntity
  8
0
  6
Continuous
 62
     7
370
    25
100
AcDbCircle
 10
-1234.9486688012
 20
-993.2944884168
 30
0.0
 40
0.7874999999999006
100
AcDbArc
 50
324.4698842763
 51
57.7863678218
  0
ARC
  5
29B
330
1F
100
AcDbEntity
  8
0
  6
Continuous
 62
     7
370
    25
100
AcDbCircle
 10
-1233.9415787064
 20
-994.013637769
 30
0.0
 40
0.4500000000001471
100
AcDbArc
 50
144.4698842763
 51
221.1281260491
  0
ARC
  5
29C
330
1F
100
AcDbEntity
  8
0
  6
Continuous
 62
     7
370
    25
100
AcDbCircle
 10
-1232.2383390503
 20
-994.5958530849
 30
0.0
 40
0.4500000000005068
100
AcDbArc
 50
204.4698842763
 51
281.128126049
  0
ARC
  5
29D
330
1F
100
AcDbEntity
  8
0
  6
Continuous
 62
     7
370
    25
100
AcDbCircle
 10
-1233.3646857059
 20
-995.1084440149
 30
0.0
 40
0.7874999999998795
100
AcDbArc
 50
24.4698842763
 51
117.7863678219
  0
ARC
  5
29E
330
1F
100
AcDbEntity
  8
0
  6
Continuous
 62
     7
370
    25
100
AcDbCircle
 10
-1233.9415787064
 20
-994.013637769
 30
0.0
 40
0.4500000000000475
100
AcDbArc
 50
221.1281260491
 51
297.7863678218
  0
ARC
  5
29F
330
1F
100
AcDbEntity
  8
0
  6
Continuous
 62
     7
370
    25
100
AcDbCircle
 10
1652.4142543757
 20
242.1703033839
 30
0.0
 40
2.25000000000056
100
AcDbArc
 50
101.1281260491
 51
161.1281260491
  0
ARC
  5
2A0
330
1F
100
AcDbEntity
  8
0
  6
Continuous
 62
     7
370
    25
100
AcDbCircle
 10
1652.0668478018
 20
243.9364598527
 30
0.0
 40
0.450000000000184
100
AcDbArc
 50
101.128126049
 51
177.7863678219
  0
ARC
  5
2A1
330
1F
100
AcDbEntity
  8
0
  6
Continuous
 62
     7
370
    25
100
AcDbCircle
 10
1650.8302712804
 20
243.984258982
 30
0.0
 40
0.7875000000001704
100
AcDbArc
 50
264.4698842763
 51
357.7863678218
  0
ARC
  5
2A2
330
1F
100
AcDbEntity
  8
0
  6
Continuous
 62
     7
370
    25
100
AcDbCircle
 10
1650.7110147197
 20
242.7525186998
 30
0.0
 40
0.4500000000003587
100
AcDbArc
 50
84.4698842763
 51
161.1281260491
  0
ARC
  5
2A3
330
1F
100
AcDbEntity
  8
0
  6
Continuous
 62
     7
370
    25
100
AcDbCircle
 10
1652.4142543757
 20
242.1703033839
 30
0.0
 40
2.250000000000335
100
AcDbArc
 50
341.1281260491
 51
41.1281260491
  0
ARC
  5
2A4
330
1F
100
AcDbEntity
  8
0
  6
Continuous
 62
     7
370
    25
100
AcDbCircle
 10
1654.1174940318
 20
241.5880880679
 30
0.0
 40
0.4500000000003496
100
AcDbArc
 50
341.1281260491
 51
57.7863678219
  0
ARC
  5
2A5
330
1F
100
AcDbEntity
  8
0
  6
Continuous
 62
     7
370
    25
100
AcDbCircle
 10
1654.7771775527
 20
242.6350951845
 30
0.0
 40
0.7874999999997879
100
AcDbArc
 50
144.4698842763
 51
237.7863678218
  0
ARC
  5
2A6
330
1F
100
AcDbEntity
  8
0
  6
Continuous
 62
     7
370
    25
100
AcDbCircle
 10
1653.7700874578
 20
243.3542445368
 30
0.0
 40
0.4500000000001141
100
AcDbArc
 50
324.4698842763
 51
41.1281260491
  0
ARC
  5
2A7
330
1F
100
AcDbEntity
  8
0
  6
Continuous
 62
     7
370
    25
100
AcDbCircle
 10
1652.4142543757
 20
242.1703033839
 30
0.0
 40
2.250000000000335
100
AcDbArc
 50
281.1281260491
 51
341.1281260491
  0
ARC
  5
2A8
330
1F
100
AcDbEntity
  8
0
  6
Continuous
 62
     7
370
    25
100
AcDbCircle
 10
1652.7616609497
 20
240.404146915
 30
0.0
 40
0.450000000000184
100
AcDbArc
 50
281.128126049
 51
357.7863678219
  0
ARC
  5
2A9
330
1F
100
AcDbEntity
  8
0
  6
Continuous
 62
     7
370
    25
100
AcDbCircle
 10
1654.1174940318
 20
241.5880880679
 30
0.0
 40
0.4500000000003496
100
AcDbArc
 50
264.4698842763
 51
341.1281260491
  0
ARC
  5
2AA
330
1F
100
AcDbEntity
  8
0
  6
Continuous
 62
     7
370
    25
100
AcDbCircle
 10
1653.9982374711
 20
240.3563477858
 30
0.0
 40
0.7875000000001694
100
AcDbArc
 50
84.4698842763
 51
177.7863678218
  0
ARC
  5
2AB
330
1F
100
AcDbEntity
  8
0
  6
Continuous
 62
     7
370
    25
100
AcDbCircle
 10
1652.4142543757
 20
242.1703033839
 30
0.0
 40
2.250000000000303
100
AcDbArc
 50
41.1281260491
 51
101.1281260491
  0
ARC
  5
2AC
330
1F
100
AcDbEntity
  8
0
  6
Continuous
 62
     7
370
    25
100
AcDbCircle
 10
1652.4142543757
 20
242.1703033839
 30
0.0
 40
2.25000000000056
100
AcDbArc
 50
161.1281260491
 51
221.1281260491
  0
ARC
  5
2AD
330
1F
100
AcDbEntity
  8
0
  6
Continuous
 62
     7
370
    25
100
AcDbCircle
 10
1652.4142543757
 20
242.1703033839
 30
0.0
 40
2.250000000000259
100
AcDbArc
 50
221.1281260491
 51
281.1281260491
  0
CIRCLE
  5
2AE
330
1F
100
AcDbEntity
  8
0
  6
Continuous
 62
     7
370
    25
100
AcDbCircle
 10
1652.4142543757
 20
242.1703033839
 30
0.0
 40
3.850000000000164
  0
ARC
  5
2AF
330
1F
100
AcDbEntity
  8
0
  6
Continuous
 62
     7
370
    25
100
AcDbCircle
 10
1653.1931944574
 20
244.4490507826
 30
0.0
 40
0.7875000000000982
100
AcDbArc
 50
204.4698842763
 51
297.7863678219
  0
ARC
  5
2B0
330
1F
100
AcDbEntity
  8
0
  6
Continuous
 62
     7
370
    25
100
AcDbCircle
 10
1652.0668478018
 20
243.9364598527
 30
0.0
 40
0.4500000000002604
100
AcDbArc
 50
24.4698842763
 51
101.128126049
  0
ARC
  5
2B1
330
1F
100
AcDbEntity
  8
0
  6
Continuous
 62
     7
370
    25
100
AcDbCircle
 10
1653.7700874578
 20
243.3542445368
 30
0.0
 40
0.4500000000000475
100
AcDbArc
 50
41.1281260491
 51
117.7863678218
  0
ARC
  5
2B2
330
1F
100
AcDbEntity
  8
0
  6
Continuous
 62
     7
370
    25
100
AcDbCircle
 10
1650.7110147197
 20
242.7525186998
 30
0.0
 40
0.4500000000003587
100
AcDbArc
 50
161.1281260491
 51
237.7863678219
  0
ARC
  5
2B3
330
1F
100
AcDbEntity
  8
0
  6
Continuous
 62
     7
370
    25
100
AcDbCircle
 10
1650.0513311988
 20
241.7055115832
 30
0.0
 40
0.787499999999812
100
AcDbArc
 50
324.4698842763
 51
57.7863678218
  0
ARC
  5
2B4
330
1F
100
AcDbEntity
  8
0
  6
Continuous
 62
     7
370
    25
100
AcDbCircle
 10
1651.0584212936
 20
240.986362231
 30
0.0
 40
0.4500000000001306
100
AcDbArc
 50
144.4698842763
 51
221.1281260491
  0
ARC
  5
2B5
330
1F
100
AcDbEntity
  8
0
  6
Continuous
 62
     7
370
    25
100
AcDbCircle
 10
1652.7616609497
 20
240.404146915
 30
0.0
 40
0.450000000000184
100
AcDbArc
 50
204.4698842763
 51
281.128126049
  0
ARC
  5
2B6
330
1F
100
AcDbEntity
  8
0
  6
Continuous
 62
     7
370
    25
100
AcDbCircle
 10
1651.6353142941
 20
239.8915559851
 30
0.0
 40
0.7875000000003052
100
AcDbArc
 50
24.4698842763
 51
117.7863678219
  0
ARC
  5
2B7
330
1F
100
AcDbEntity
  8
0
  6
Continuous
 62
     7
370
    25
100
AcDbCircle
 10
1651.0584212936
 20
240.986362231
 30
0.0
 40
0.4499999999998462
100
AcDbArc
 50
221.1281260491
 51
297.7863678218
  0
ARC
  5
2B8
330
1F
100
AcDbEntity
  8
0
  6
Continuous
 62
     7
370
    25
100
AcDbCircle
 10
-755.0857456243
 20
-1290.3296966161
 30
0.0
 40
2.250000000000292
100
AcDbArc
 50
101.1281260491
 51
161.1281260491
  0
ARC
  5
2B9
330
1F
100
AcDbEntity
  8
0
  6
Continuous
 62
     7
370
    25
100
AcDbCircle
 10
-755.4331521982
 20
-1288.5635401473
 30
0.0
 40
0.4500000000002402
100
AcDbArc
 50
101.128126049
 51
177.7863678219
  0
ARC
  5
2BA
330
1F
100
AcDbEntity
  8
0
  6
Continuous
 62
     7
370
    25
100
AcDbCircle
 10
-756.7889852803
 20
-1289.7474813002
 30
0.0
 40
0.4500000000004231
100
AcDbArc
 50
84.4698842763
 51
161.1281260491
  0
ARC
  5
2BB
330
1F
100
AcDbEntity
  8
0
  6
Continuous
 62
     7
370
    25
100
AcDbCircle
 10
-756.6697287196
 20
-1288.515741018
 30
0.0
 40
0.7874999999997172
100
AcDbArc
 50
264.4698842763
 51
357.7863678218
  0
ARC
  5
2BC
330
1F
100
AcDbEntity
  8
0
  6
Continuous
 62
     7
370
    25
100
AcDbCircle
 10
-755.0857456243
 20
-1290.3296966161
 30
0.0
 40
2.250000000000231
100
AcDbArc
 50
41.1281260491
 51
101.1281260491
  0
ARC
  5
2BD
330
1F
100
AcDbEntity
  8
0
  6
Continuous
 62
     7
370
    25
100
AcDbCircle
 10
-755.0857456243
 20
-1290.3296966161
 30
0.0
 40
2.250000000000292
100
AcDbArc
 50
161.1281260491
 51
221.1281260491
  0
ARC
  5
2BE
330
1F
100
AcDbEntity
  8
0
  6
Continuous
 62
     7
370
    25
100
AcDbCircle
 10
-755.0857456243
 20
-1290.3296966161
 30
0.0
 40
2.250000000000254
100
AcDbArc
 50
221.1281260491
 51
281.1281260491
  0
ARC
  5
2BF
330
1F
100
AcDbEntity
  8
0
  6
Continuous
 62
     7
370
    25
100
AcDbCircle
 10
-755.0857456243
 20
-1290.3296966161
 30
0.0
 40
2.250000000000254
100
AcDbArc
 50
281.1281260491
 51
341.1281260491
  0
ARC
  5
2C0
330
1F
100
AcDbEntity
  8
0
  6
Continuous
 62
     7
370
    25
100
AcDbCircle
 10
-755.0857456243
 20
-1290.3296966161
 30
0.0
 40
2.250000000000111
100
AcDbArc
 50
341.1281260491
 51
41.1281260491
  0
CIRCLE
  5
2C1
330
1F
100
AcDbEntity
  8
0
  6
Continuous
 62
     7
370
    25
100
AcDbCircle
 10
-755.0857456243
 20
-1290.3296966161
 30
0.0
 40
3.850000000000048
  0
ARC
  5
2C2
330
1F
100
AcDbEntity
  8
0
  6
Continuous
 62
     7
370
    25
100
AcDbCircle
 10
-754.7383390503
 20
-1292.0958530849
 30
0.0
 40
0.4500000000001722
100
AcDbArc
 50
281.128126049
 51
357.7863678219
  0
ARC
  5
2C3
330
1F
100
AcDbEntity
  8
0
  6
Continuous
 62
     7
370
    25
100
AcDbCircle
 10
-753.3825059682
 20
-1290.911911932
 30
0.0
 40
0.4500000000001827
100
AcDbArc
 50
264.4698842763
 51
341.1281260491
  0
ARC
  5
2C4
330
1F
100
AcDbEntity
  8
0
  6
Continuous
 62
     7
370
    25
100
AcDbCircle
 10
-753.501762529
 20
-1292.1436522142
 30
0.0
 40
0.7874999999997083
100
AcDbArc
 50
84.4698842763
 51
177.7863678218
  0
ARC
  5
2C5
330
1F
100
AcDbEntity
  8
0
  6
Continuous
 62
     7
370
    25
100
AcDbCircle
 10
-755.4331521982
 20
-1288.5635401473
 30
0.0
 40
0.4500000000002041
100
AcDbArc
 50
24.4698842763
 51
101.128126049
  0
ARC
  5
2C6
330
1F
100
AcDbEntity
  8
0
  6
Continuous
 62
     7
370
    25
100
AcDbCircle
 10
-754.3068055426
 20
-1288.0509492173
 30
0.0
 40
0.787499999999983
100
AcDbArc
 50
204.4698842763
 51
297.7863678218
  0
ARC
  5
2C7
330
1F
100
AcDbEntity
  8
0
  6
Continuous
 62
     7
370
    25
100
AcDbCircle
 10
-753.7299125422
 20
-1289.1457554632
 30
0.0
 40
0.4500000000002064
100
AcDbArc
 50
41.1281260491
 51
117.7863678219
  0
ARC
  5
2C8
330
1F
100
AcDbEntity
  8
0
  6
Continuous
 62
     7
370
    25
100
AcDbCircle
 10
-753.3825059682
 20
-1290.911911932
 30
0.0
 40
0.4500000000001344
100
AcDbArc
 50
341.1281260491
 51
57.7863678218
  0
ARC
  5
2C9
330
1F
100
AcDbEntity
  8
0
  6
Continuous
 62
     7
370
    25
100
AcDbCircle
 10
-752.7228224473
 20
-1289.8649048155
 30
0.0
 40
0.7874999999999931
100
AcDbArc
 50
144.4698842763
 51
237.7863678219
  0
ARC
  5
2CA
330
1F
100
AcDbEntity
  8
0
  6
Continuous
 62
     7
370
    25
100
AcDbCircle
 10
-753.7299125422
 20
-1289.1457554632
 30
0.0
 40
0.4499999999998696
100
AcDbArc
 50
324.4698842762
 51
41.1281260491
  0
ARC
  5
2CB
330
1F
100
AcDbEntity
  8
0
  6
Continuous
 62
     7
370
    25
100
AcDbCircle
 10
-756.4415787064
 20
-1291.513637769
 30
0.0
 40
0.4499999999998993
100
AcDbArc
 50
221.1281260491
 51
297.7863678218
  0
ARC
  5
2CC
330
1F
100
AcDbEntity
  8
0
  6
Continuous
 62
     7
370
    25
100
AcDbCircle
 10
-755.8646857059
 20
-1292.6084440149
 30
0.0
 40
0.7875000000001441
100
AcDbArc
 50
24.4698842763
 51
117.7863678219
  0
ARC
  5
2CD
330
1F
100
AcDbEntity
  8
0
  6
Continuous
 62
     7
370
    25
100
AcDbCircle
 10
-754.7383390503
 20
-1292.0958530849
 30
0.0
 40
0.4500000000001722
100
AcDbArc
 50
204.4698842763
 51
281.128126049
  0
ARC
  5
2CE
330
1F
100
AcDbEntity
  8
0
  6
Continuous
 62
     7
370
    25
100
AcDbCircle
 10
-756.7889852803
 20
-1289.7474813002
 30
0.0
 40
0.4500000000004231
100
AcDbArc
 50
161.1281260491
 51
237.7863678218
  0
ARC
  5
2CF
330
1F
100
AcDbEntity
  8
0
  6
Continuous
 62
     7
370
    25
100
AcDbCircle
 10
-757.4486688012
 20
-1290.7944884168
 30
0.0
 40
0.7875000000001252
100
AcDbArc
 50
324.4698842763
 51
57.7863678218
  0
ARC
  5
2D0
330
1F
100
AcDbEntity
  8
0
  6
Continuous
 62
     7
370
    25
100
AcDbCircle
 10
-756.4415787064
 20
-1291.513637769
 30
0.0
 40
0.4499999999999224
100
AcDbArc
 50
144.4698842763
 51
221.1281260491
  0
ARC
  5
2D1
330
1F
100
AcDbEntity
  8
0
  6
Continuous
 62
     7
370
    25
100
AcDbCircle
 10
1354.9142543757
 20
-1290.3296966161
 30
0.0
 40
2.250000000000231
100
AcDbArc
 50
281.1281260491
 51
341.1281260491
  0
ARC
  5
2D2
330
1F
100
AcDbEntity
  8
0
  6
Continuous
 62
     7
370
    25
100
AcDbCircle
 10
1355.2616609497
 20
-1292.0958530849
 30
0.0
 40
0.4500000000002402
100
AcDbArc
 50
281.128126049
 51
357.7863678219
  0
ARC
  5
2D3
330
1F
100
AcDbEntity
  8
0
  6
Continuous
 62
     7
370
    25
100
AcDbCircle
 10
1356.498237471
 20
-1292.1436522142
 30
0.0
 40
0.7874999999997083
100
AcDbArc
 50
84.4698842763
 51
177.7863678218
  0
ARC
  5
2D4
330
1F
100
AcDbEntity
  8
0
  6
Continuous
 62
     7
370
    25
100
AcDbCircle
 10
1356.6174940318
 20
-1290.911911932
 30
0.0
 40
0.4500000000001827
100
AcDbArc
 50
264.4698842763
 51
341.1281260491
  0
ARC
  5
2D5
330
1F
100
AcDbEntity
  8
0
  6
Continuous
 62
     7
370
    25
100
AcDbCircle
 10
1354.9142543757
 20
-1290.3296966161
 30
0.0
 40
2.250000000000111
100
AcDbArc
 50
341.1281260491
 51
41.1281260491
  0
ARC
  5
2D6
330
1F
100
AcDbEntity
  8
0
  6
Continuous
 62
     7
370
    25
100
AcDbCircle
 10
1357.2771775527
 20
-1289.8649048155
 30
0.0
 40
0.7875000000000856
100
AcDbArc
 50
144.4698842763
 51
237.7863678218
  0
ARC
  5
2D7
330
1F
100
AcDbEntity
  8
0
  6
Continuous
 62
     7
370
    25
100
AcDbCircle
 10
1356.6174940318
 20
-1290.911911932
 30
0.0
 40
0.4500000000001344
100
AcDbArc
 50
341.1281260491
 51
57.7863678219
  0
ARC
  5
2D8
330
1F
100
AcDbEntity
  8
0
  6
Continuous
 62
     7
370
    25
100
AcDbCircle
 10
1356.2700874578
 20
-1289.1457554632
 30
0.0
 40
0.4500000000001471
100
AcDbArc
 50
324.4698842763
 51
41.128126049
  0
ARC
  5
2D9
330
1F
100
AcDbEntity
  8
0
  6
Continuous
 62
     7
370
    25
100
AcDbCircle
 10
1354.9142543757
 20
-1290.3296966161
 30
0.0
 40
2.250000000000231
100
AcDbArc
 50
41.1281260491
 51
101.1281260491
  0
ARC
  5
2DA
330
1F
100
AcDbEntity
  8
0
  6
Continuous
 62
     7
370
    25
100
AcDbCircle
 10
1354.9142543757
 20
-1290.3296966161
 30
0.0
 40
2.2500000000004
100
AcDbArc
 50
101.1281260491
 51
161.1281260491
  0
ARC
  5
2DB
330
1F
100
AcDbEntity
  8
0
  6
Continuous
 62
     7
370
    25
100
AcDbCircle
 10
1354.9142543757
 20
-1290.3296966161
 30
0.0
 40
2.2500000000004
100
AcDbArc
 50
161.1281260491
 51
221.1281260491
  0
ARC
  5
2DC
330
1F
100
AcDbEntity
  8
0
  6
Continuous
 62
     7
370
    25
100
AcDbCircle
 10
1354.9142543757
 20
-1290.3296966161
 30
0.0
 40
2.250000000000231
100
AcDbArc
 50
221.1281260491
 51
281.1281260491
  0
CIRCLE
  5
2DD
330
1F
100
AcDbEntity
  8
0
  6
Continuous
 62
     7
370
    25
100
AcDbCircle
 10
1354.9142543757
 20
-1290.3296966161
 30
0.0
 40
3.850000000000048
  0
ARC
  5
2DE
330
1F
100
AcDbEntity
  8
0
  6
Continuous
 62
     7
370
    25
100
AcDbCircle
 10
1355.6931944574
 20
-1288.0509492173
 30
0.0
 40
0.7874999999998795
100
AcDbArc
 50
204.4698842763
 51
297.7863678218
  0
ARC
  5
2DF
330
1F
100
AcDbEntity
  8
0
  6
Continuous
 62
     7
370
    25
100
AcDbCircle
 10
1354.5668478018
 20
-1288.5635401473
 30
0.0
 40
0.4500000000003075
100
AcDbArc
 50
24.4698842763
 51
101.128126049
  0
ARC
  5
2E0
330
1F
100
AcDbEntity
  8
0
  6
Continuous
 62
     7
370
    25
100
AcDbCircle
 10
1356.2700874578
 20
-1289.1457554632
 30
0.0
 40
0.4500000000000475
100
AcDbArc
 50
41.128126049
 51
117.7863678218
  0
ARC
  5
2E1
330
1F
100
AcDbEntity
  8
0
  6
Continuous
 62
     7
370
    25
100
AcDbCircle
 10
1353.2110147197
 20
-1289.7474813002
 30
0.0
 40
0.4500000000004231
100
AcDbArc
 50
84.4698842763
 51
161.1281260491
  0
ARC
  5
2E2
330
1F
100
AcDbEntity
  8
0
  6
Continuous
 62
     7
370
    25
100
AcDbCircle
 10
1353.3302712804
 20
-1288.515741018
 30
0.0
 40
0.7874999999997172
100
AcDbArc
 50
264.4698842763
 51
357.7863678218
  0
ARC
  5
2E3
330
1F
100
AcDbEntity
  8
0
  6
Continuous
 62
     7
370
    25
100
AcDbCircle
 10
1354.5668478018
 20
-1288.5635401473
 30
0.0
 40
0.4500000000002402
100
AcDbArc
 50
101.128126049
 51
177.7863678219
  0
ARC
  5
2E4
330
1F
100
AcDbEntity
  8
0
  6
Continuous
 62
     7
370
    25
100
AcDbCircle
 10
1353.2110147197
 20
-1289.7474813002
 30
0.0
 40
0.4500000000004231
100
AcDbArc
 50
161.1281260491
 51
237.7863678218
  0
ARC
  5
2E5
330
1F
100
AcDbEntity
  8
0
  6
Continuous
 62
     7
370
    25
100
AcDbCircle
 10
1353.5584212936
 20
-1291.513637769
 30
0.0
 40
0.4500000000000149
100
AcDbArc
 50
144.4698842763
 51
221.1281260491
  0
ARC
  5
2E6
330
1F
100
AcDbEntity
  8
0
  6
Continuous
 62
     7
370
    25
100
AcDbCircle
 10
1352.5513311988
 20
-1290.7944884168
 30
0.0
 40
0.7875000000000327
100
AcDbArc
 50
324.4698842763
 51
57.7863678219
  0
ARC
  5
2E7
330
1F
100
AcDbEntity
  8
0
  6
Continuous
 62
     7
370
    25
100
AcDbCircle
 10
1355.2616609497
 20
-1292.0958530849
 30
0.0
 40
0.4500000000001722
100
AcDbArc
 50
204.4698842763
 51
281.128126049
  0
ARC
  5
2E8
330
1F
100
AcDbEntity
  8
0
  6
Continuous
 62
     7
370
    25
100
AcDbCircle
 10
1354.1353142941
 20
-1292.6084440149
 30
0.0
 40
0.7875000000000865
100
AcDbArc
 50
24.4698842763
 51
117.7863678218
  0
ARC
  5
2E9
330
1F
100
AcDbEntity
  8
0
  6
Continuous
 62
     7
370
    25
100
AcDbCircle
 10
1353.5584212936
 20
-1291.513637769
 30
0.0
 40
0.4499999999998462
100
AcDbArc
 50
221.1281260491
 51
297.7863678218
  0
ARC
  5
2EA
330
1F
100
AcDbEntity
  8
0
  6
Continuous
 62
     7
370
    25
100
AcDbCircle
 10
1652.4142543757
 20
62.1703033839
 30
0.0
 40
2.250000000000555
100
AcDbArc
 50
101.1281260491
 51
161.1281260491
  0
ARC
  5
2EB
330
1F
100
AcDbEntity
  8
0
  6
Continuous
 62
     7
370
    25
100
AcDbCircle
 10
1652.0668478018
 20
63.9364598527
 30
0.0
 40
0.45000000000017
100
AcDbArc
 50
101.128126049
 51
177.7863678219
  0
ARC
  5
2EC
330
1F
100
AcDbEntity
  8
0
  6
Continuous
 62
     7
370
    25
100
AcDbCircle
 10
1650.8302712804
 20
63.984258982
 30
0.0
 40
0.7875000000001698
100
AcDbArc
 50
264.4698842763
 51
357.7863678218
  0
ARC
  5
2ED
330
1F
100
AcDbEntity
  8
0
  6
Continuous
 62
     7
370
    25
100
AcDbCircle
 10
1650.7110147197
 20
62.7525186998
 30
0.0
 40
0.4500000000005693
100
AcDbArc
 50
84.4698842763
 51
161.1281260491
  0
ARC
  5
2EE
330
1F
100
AcDbEntity
  8
0
  6
Continuous
 62
     7
370
    25
100
AcDbCircle
 10
1652.4142543757
 20
62.1703033839
 30
0.0
 40
2.25000000000034
100
AcDbArc
 50
341.1281260491
 51
41.1281260491
  0
ARC
  5
2EF
330
1F
100
AcDbEntity
  8
0
  6
Continuous
 62
     7
370
    25
100
AcDbCircle
 10
1654.7771775527
 20
62.6350951845
 30
0.0
 40
0.7874999999999337
100
AcDbArc
 50
144.4698842763
 51
237.7863678218
  0
ARC
  5
2F0
330
1F
100
AcDbEntity
  8
0
  6
Continuous
 62
     7
370
    25
100
AcDbCircle
 10
1653.7700874578
 20
63.3542445368
 30
0.0
 40
0.4500000000001223
100
AcDbArc
 50
324.4698842763
 51
41.1281260491
  0
ARC
  5
2F1
330
1F
100
AcDbEntity
  8
0
  6
Continuous
 62
     7
370
    25
100
AcDbCircle
 10
1654.1174940318
 20
61.5880880679
 30
0.0
 40
0.4500000000003542
100
AcDbArc
 50
341.1281260491
 51
57.7863678219
  0
ARC
  5
2F2
330
1F
100
AcDbEntity
  8
0
  6
Continuous
 62
     7
370
    25
100
AcDbCircle
 10
1652.4142543757
 20
62.1703033839
 30
0.0
 40
2.250000000000296
100
AcDbArc
 50
41.1281260491
 51
101.1281260491
  0
ARC
  5
2F3
330
1F
100
AcDbEntity
  8
0
  6
Continuous
 62
     7
370
    25
100
AcDbCircle
 10
1653.7700874578
 20
63.3542445368
 30
0.0
 40
0.4500000000000411
100
AcDbArc
 50
41.1281260491
 51
117.7863678218
  0
ARC
  5
2F4
330
1F
100
AcDbEntity
  8
0
  6
Continuous
 62
     7
370
    25
100
AcDbCircle
 10
1653.1931944574
 20
64.4490507826
 30
0.0
 40
0.7875000000000923
100
AcDbArc
 50
204.4698842763
 51
297.7863678219
  0
ARC
  5
2F5
330
1F
100
AcDbEntity
  8
0
  6
Continuous
 62
     7
370
    25
100
AcDbCircle
 10
1652.0668478018
 20
63.9364598527
 30
0.0
 40
0.4500000000002604
100
AcDbArc
 50
24.4698842763
 51
101.128126049
  0
ARC
  5
2F6
330
1F
100
AcDbEntity
  8
0
  6
Continuous
 62
     7
370
    25
100
AcDbCircle
 10
1652.4142543757
 20
62.1703033839
 30
0.0
 40
2.250000000000555
100
AcDbArc
 50
161.1281260491
 51
221.1281260491
  0
ARC
  5
2F7
330
1F
100
AcDbEntity
  8
0
  6
Continuous
 62
     7
370
    25
100
AcDbCircle
 10
1652.4142543757
 20
62.1703033839
 30
0.0
 40
2.250000000000296
100
AcDbArc
 50
221.1281260491
 51
281.1281260491
  0
ARC
  5
2F8
330
1F
100
AcDbEntity
  8
0
  6
Continuous
 62
     7
370
    25
100
AcDbCircle
 10
1652.4142543757
 20
62.1703033839
 30
0.0
 40
2.25000000000034
100
AcDbArc
 50
281.1281260491
 51
341.1281260491
  0
CIRCLE
  5
2F9
330
1F
100
AcDbEntity
  8
0
  6
Continuous
 62
     7
370
    25
100
AcDbCircle
 10
1652.4142543757
 20
62.1703033839
 30
0.0
 40
3.85000000000016
  0
ARC
  5
2FA
330
1F
100
AcDbEntity
  8
0
  6
Continuous
 62
     7
370
    25
100
AcDbCircle
 10
1652.7616609497
 20
60.404146915
 30
0.0
 40
0.450000000000214
100
AcDbArc
 50
281.128126049
 51
357.7863678219
  0
ARC
  5
2FB
330
1F
100
AcDbEntity
  8
0
  6
Continuous
 62
     7
370
    25
100
AcDbCircle
 10
1653.9982374711
 20
60.3563477858
 30
0.0
 40
0.7875000000001698
100
AcDbArc
 50
84.4698842763
 51
177.7863678218
  0
ARC
  5
2FC
330
1F
100
AcDbEntity
  8
0
  6
Continuous
 62
     7
370
    25
100
AcDbCircle
 10
1654.1174940318
 20
61.5880880679
 30
0.0
 40
0.4500000000003542
100
AcDbArc
 50
264.4698842763
 51
341.1281260491
  0
ARC
  5
2FD
330
1F
100
AcDbEntity
  8
0
  6
Continuous
 62
     7
370
    25
100
AcDbCircle
 10
1651.0584212936
 20
60.986362231
 30
0.0
 40
0.4499999999998462
100
AcDbArc
 50
221.1281260491
 51
297.7863678218
  0
ARC
  5
2FE
330
1F
100
AcDbEntity
  8
0
  6
Continuous
 62
     7
370
    25
100
AcDbCircle
 10
1652.7616609497
 20
60.404146915
 30
0.0
 40
0.450000000000214
100
AcDbArc
 50
204.4698842763
 51
281.128126049
  0
ARC
  5
2FF
330
1F
100
AcDbEntity
  8
0
  6
Continuous
 62
     7
370
    25
100
AcDbCircle
 10
1651.6353142941
 20
59.8915559851
 30
0.0
 40
0.7875000000003052
100
AcDbArc
 50
24.4698842763
 51
117.7863678219
  0
ARC
  5
300
330
1F
100
AcDbEntity
  8
0
  6
Continuous
 62
     7
370
    25
100
AcDbCircle
 10
1651.0584212936
 20
60.986362231
 30
0.0
 40
0.4500000000001265
100
AcDbArc
 50
144.4698842763
 51
221.1281260491
  0
ARC
  5
301
330
1F
100
AcDbEntity
  8
0
  6
Continuous
 62
     7
370
    25
100
AcDbCircle
 10
1650.7110147197
 20
62.7525186998
 30
0.0
 40
0.4500000000005693
100
AcDbArc
 50
161.1281260491
 51
237.7863678219
  0
ARC
  5
302
330
1F
100
AcDbEntity
  8
0
  6
Continuous
 62
     7
370
    25
100
AcDbCircle
 10
1650.0513311988
 20
61.7055115832
 30
0.0
 40
0.787499999999794
100
AcDbArc
 50
324.4698842763
 51
57.7863678218
  0
CIRCLE
  5
303
330
1F
100
AcDbEntity
  8
0
  6
Continuous
 62
     7
370
    25
100
AcDbCircle
 10
-1154.174903498
 20
-1211.9188544899
 30
0.0
 40
6.637921400061369
  0
CIRCLE
  5
304
330
1F
100
AcDbEntity
  8
0
  6
Continuous
 62
     7
370
    25
100
AcDbCircle
 10
1574.0034122495
 20
-1211.9188544899
 30
0.0
 40
6.63792140006145
  0
CIRCLE
  5
305
330
1F
100
AcDbEntity
  8
0
  6
Continuous
 62
     7
370
    25
100
AcDbCircle
 10
-1154.174903498
 20
1516.2594612577
 30
0.0
 40
6.63792140006172
  0
CIRCLE
  5
306
330
1F
100
AcDbEntity
  8
0
  6
Continuous
 62
     7
370
    25
100
AcDbCircle
 10
1574.0034122495
 20
1516.2594612577
 30
0.0
 40
6.637921400061098
  0
LINE
  5
307
330
1F
100
AcDbEntity
  8
0
  6
Continuous
 62
     7
370
    25
100
AcDbLine
 10
1659.9142543757
 20
-752.8296966161
 30
0.0
 11
1644.9142543757
 21
-752.8296966161
 31
0.0
  0
LINE
  5
308
330
1F
100
AcDbEntity
  8
0
  6
Continuous
 62
     7
370
    25
100
AcDbLine
 10
1659.9142543757
 20
-692.8296966161
 30
0.0
 11
1659.9142543757
 21
-752.8296966161
 31
0.0
  0
LINE
  5
309
330
1F
100
AcDbEntity
  8
0
  6
Continuous
 62
     7
370
    25
100
AcDbLine
 10
1644.9142543757
 20
-692.8296966161
 30
0.0
 11
1659.9142543757
 21
-692.8296966161
 31
0.0
  0
LINE
  5
30A
330
1F
100
AcDbEntity
  8
0
  6
Continuous
 62
     7
370
    25
100
AcDbLine
 10
1644.9142543757
 20
-752.8296966161
 30
0.0
 11
1644.9142543757
 21
-692.8296966161
 31
0.0
  0
LINE
  5
30B
330
1F
100
AcDbEntity
  8
0
  6
Continuous
 62
     7
370
    25
100
AcDbLine
 10
1659.9142543757
 20
-932.8296966161
 30
0.0
 11
1644.9142543757
 21
-932.8296966161
 31
0.0
  0
LINE
  5
30C
330
1F
100
AcDbEntity
  8
0
  6
Continuous
 62
     7
370
    25
100
AcDbLine
 10
1659.9142543757
 20
-872.8296966161
 30
0.0
 11
1659.9142543757
 21
-932.8296966161
 31
0.0
  0
LINE
  5
30D
330
1F
100
AcDbEntity
  8
0
  6
Continuous
 62
     7
370
    25
100
AcDbLine
 10
1644.9142543757
 20
-872.8296966161
 30
0.0
 11
1659.9142543757
 21
-872.8296966161
 31
0.0
  0
LINE
  5
30E
330
1F
100
AcDbEntity
  8
0
  6
Continuous
 62
     7
370
    25
100
AcDbLine
 10
1644.9142543757
 20
-932.8296966161
 30
0.0
 11
1644.9142543757
 21
-872.8296966161
 31
0.0
  0
LINE
  5
30F
330
1F
100
AcDbEntity
  8
0
  6
Continuous
 62
     7
370
    25
100
AcDbLine
 10
1659.9142543757
 20
-1112.8296966161
 30
0.0
 11
1644.9142543757
 21
-1112.8296966161
 31
0.0
  0
LINE
  5
310
330
1F
100
AcDbEntity
  8
0
  6
Continuous
 62
     7
370
    25
100
AcDbLine
 10
1659.9142543757
 20
-1052.8296966161
 30
0.0
 11
1659.9142543757
 21
-1112.8296966161
 31
0.0
  0
LINE
  5
311
330
1F
100
AcDbEntity
  8
0
  6
Continuous
 62
     7
370
    25
100
AcDbLine
 10
1644.9142543757
 20
-1052.8296966161
 30
0.0
 11
1659.9142543757
 21
-1052.8296966161
 31
0.0
  0
LINE
  5
312
330
1F
100
AcDbEntity
  8
0
  6
Continuous
 62
     7
370
    25
100
AcDbLine
 10
1644.9142543757
 20
-1112.8296966161
 30
0.0
 11
1644.9142543757
 21
-1052.8296966161
 31
0.0
  0
LINE
  5
313
330
1F
100
AcDbEntity
  8
0
  6
Continuous
 62
     7
370
    25
100
AcDbLine
 10
1659.9142543757
 20
-57.8296966161
 30
0.0
 11
1644.9142543757
 21
-57.8296966161
 31
0.0
  0
LINE
  5
314
330
1F
100
AcDbEntity
  8
0
  6
Continuous
 62
     7
370
    25
100
AcDbLine
 10
1659.9142543757
 20
2.1703033839
 30
0.0
 11
1659.9142543757
 21
-57.8296966161
 31
0.0
  0
LINE
  5
315
330
1F
100
AcDbEntity
  8
0
  6
Continuous
 62
     7
370
    25
100
AcDbLine
 10
1644.9142543757
 20
2.1703033839
 30
0.0
 11
1659.9142543757
 21
2.1703033839
 31
0.0
  0
LINE
  5
316
330
1F
100
AcDbEntity
  8
0
  6
Continuous
 62
     7
370
    25
100
AcDbLine
 10
1644.9142543757
 20
-57.8296966161
 30
0.0
 11
1644.9142543757
 21
2.1703033839
 31
0.0
  0
LINE
  5
317
330
1F
100
AcDbEntity
  8
0
  6
Continuous
 62
     7
370
    25
100
AcDbLine
 10
1659.9142543757
 20
122.1703033839
 30
0.0
 11
1644.9142543757
 21
122.1703033839
 31
0.0
  0
LINE
  5
318
330
1F
100
AcDbEntity
  8
0
  6
Continuous
 62
     7
370
    25
100
AcDbLine
 10
1659.9142543757
 20
182.1703033839
 30
0.0
 11
1659.9142543757
 21
122.1703033839
 31
0.0
  0
LINE
  5
319
330
1F
100
AcDbEntity
  8
0
  6
Continuous
 62
     7
370
    25
100
AcDbLine
 10
1644.9142543757
 20
182.1703033839
 30
0.0
 11
1659.9142543757
 21
182.1703033839
 31
0.0
  0
LINE
  5
31A
330
1F
100
AcDbEntity
  8
0
  6
Continuous
 62
     7
370
    25
100
AcDbLine
 10
1644.9142543757
 20
122.1703033839
 30
0.0
 11
1644.9142543757
 21
182.1703033839
 31
0.0
  0
LINE
  5
31B
330
1F
100
AcDbEntity
  8
0
  6
Continuous
 62
     7
370
    25
100
AcDbLine
 10
1659.9142543757
 20
302.1703033839
 30
0.0
 11
1644.9142543757
 21
302.1703033839
 31
0.0
  0
LINE
  5
31C
330
1F
100
AcDbEntity
  8
0
  6
Continuous
 62
     7
370
    25
100
AcDbLine
 10
1659.9142543757
 20
362.1703033839
 30
0.0
 11
1659.9142543757
 21
302.1703033839
 31
0.0
  0
LINE
  5
31D
330
1F
100
AcDbEntity
  8
0
  6
Continuous
 62
     7
370
    25
100
AcDbLine
 10
1644.9142543757
 20
362.1703033839
 30
0.0
 11
1659.9142543757
 21
362.1703033839
 31
0.0
  0
LINE
  5
31E
330
1F
100
AcDbEntity
  8
0
  6
Continuous
 62
     7
370
    25
100
AcDbLine
 10
1644.9142543757
 20
302.1703033839
 30
0.0
 11
1644.9142543757
 21
362.1703033839
 31
0.0
  0
LINE
  5
31F
330
1F
100
AcDbEntity
  8
0
  6
Continuous
 62
     7
370
    25
100
AcDbLine
 10
1659.9142543757
 20
997.1703033839
 30
0.0
 11
1644.9142543757
 21
997.1703033839
 31
0.0
  0
LINE
  5
320
330
1F
100
AcDbEntity
  8
0
  6
Continuous
 62
     7
370
    25
100
AcDbLine
 10
1659.9142543757
 20
1057.1703033839
 30
0.0
 11
1659.9142543757
 21
997.1703033839
 31
0.0
  0
LINE
  5
321
330
1F
100
AcDbEntity
  8
0
  6
Continuous
 62
     7
370
    25
100
AcDbLine
 10
1644.9142543757
 20
1057.1703033839
 30
0.0
 11
1659.9142543757
 21
1057.1703033839
 31
0.0
  0
LINE
  5
322
330
1F
100
AcDbEntity
  8
0
  6
Continuous
 62
     7
370
    25
100
AcDbLine
 10
1644.9142543757
 20
997.1703033839
 30
0.0
 11
1644.9142543757
 21
1057.1703033839
 31
0.0
  0
LINE
  5
323
330
1F
100
AcDbEntity
  8
0
  6
Continuous
 62
     7
370
    25
100
AcDbLine
 10
1659.9142543757
 20
1177.1703033839
 30
0.0
 11
1644.9142543757
 21
1177.1703033839
 31
0.0
  0
LINE
  5
324
330
1F
100
AcDbEntity
  8
0
  6
Continuous
 62
     7
370
    25
100
AcDbLine
 10
1659.9142543757
 20
1237.1703033839
 30
0.0
 11
1659.9142543757
 21
1177.1703033839
 31
0.0
  0
LINE
  5
325
330
1F
100
AcDbEntity
  8
0
  6
Continuous
 62
     7
370
    25
100
AcDbLine
 10
1644.9142543757
 20
1237.1703033839
 30
0.0
 11
1659.9142543757
 21
1237.1703033839
 31
0.0
  0
LINE
  5
326
330
1F
100
AcDbEntity
  8
0
  6
Continuous
 62
     7
370
    25
100
AcDbLine
 10
1644.9142543757
 20
1177.1703033839
 30
0.0
 11
1644.9142543757
 21
1237.1703033839
 31
0.0
  0
LINE
  5
327
330
1F
100
AcDbEntity
  8
0
  6
Continuous
 62
     7
370
    25
100
AcDbLine
 10
1644.9142543757
 20
1357.1703033839
 30
0.0
 11
1644.9142543757
 21
1417.1703033839
 31
0.0
  0
LINE
  5
328
330
1F
100
AcDbEntity
  8
0
  6
Continuous
 62
     7
370
    25
100
AcDbLine
 10
1659.9142543757
 20
1357.1703033839
 30
0.0
 11
1644.9142543757
 21
1357.1703033839
 31
0.0
  0
LINE
  5
329
330
1F
100
AcDbEntity
  8
0
  6
Continuous
 62
     7
370
    25
100
AcDbLine
 10
1659.9142543757
 20
1417.1703033839
 30
0.0
 11
1659.9142543757
 21
1357.1703033839
 31
0.0
  0
LINE
  5
32A
330
1F
100
AcDbEntity
  8
0
  6
Continuous
 62
     7
370
    25
100
AcDbLine
 10
1659.9142543757
 20
1417.1703033839
 30
0.0
 11
1644.9142543757
 21
1417.1703033839
 31
0.0
  0
LINE
  5
32B
330
1F
100
AcDbEntity
  8
0
  6
Continuous
 62
     7
370
    25
100
AcDbLine
 10
1493.0274860699
 20
1101.9899209592
 30
0.0
 11
1604.0002523724
 21
-797.2993396172
 31
0.0
  0
ARC
  5
32C
330
1F
100
AcDbEntity
  8
0
  6
Continuous
 62
     7
370
    25
100
AcDbCircle
 10
1509.998542021
 20
1102.9815155863
 30
0.0
 40
17.00000000000034
100
AcDbArc
 50
171.759232118
 51
183.3439089923
  0
LINE
  5
32D
330
1F
100
AcDbEntity
  8
0
  6
Continuous
 62
     7
370
    25
100
AcDbLine
 10
1549.0636461064
 20
1491.3196951145
 30
0.0
 11
1493.174075605
 21
1105.4181792511
 31
0.0
  0
LINE
  5
32E
330
1F
100
AcDbEntity
  8
0
  6
Continuous
 62
     7
370
    25
100
AcDbLine
 10
1561.4535118515
 20
1503.7095608596
 30
0.0
 11
1549.0636461064
 21
1491.3196951145
 31
0.0
  0
ARC
  5
32F
330
1F
100
AcDbEntity
  8
0
  6
Continuous
 62
     7
370
    25
100
AcDbCircle
 10
1559.3321915079
 20
1505.8308812032
 30
0.0
 40
3.00000000000115
100
AcDbArc
 50
315.0
 51
35.4059317731
  0
ARC
  5
330
330
1F
100
AcDbEntity
  8
0
  6
Continuous
 62
     7
370
    25
100
AcDbCircle
 10
1574.0034122495
 20
1516.2594612576
 30
0.0
 40
15.00000000000164
100
AcDbArc
 50
54.5940682269
 51
215.4059317731
  0
ARC
  5
331
330
1F
100
AcDbEntity
  8
0
  6
Continuous
 62
     7
370
    25
100
AcDbCircle
 10
1584.431992304
 20
1530.9306819992
 30
0.0
 40
3.000000000000346
100
AcDbArc
 50
234.5940682269
 51
315.0
  0
LINE
  5
332
330
1F
100
AcDbEntity
  8
0
  6
Continuous
 62
     7
370
    25
100
AcDbLine
 10
1641.9142543757
 20
1584.1703033839
 30
0.0
 11
1586.5533126475
 21
1528.8093616557
 31
0.0
  0
LINE
  5
333
330
1F
100
AcDbEntity
  8
0
  6
Continuous
 62
     7
370
    25
100
AcDbLine
 10
1656.9142543757
 20
1584.1703033839
 30
0.0
 11
1641.9142543757
 21
1584.1703033839
 31
0.0
  0
LINE
  5
334
330
1F
100
AcDbEntity
  8
0
  6
Continuous
 62
     7
370
    25
100
AcDbLine
 10
1656.9142543757
 20
1488.9023541914
 30
0.0
 11
1656.9142543757
 21
1584.1703033839
 31
0.0
  0
ARC
  5
335
330
1F
100
AcDbEntity
  8
0
  6
Continuous
 62
     7
370
    25
100
AcDbCircle
 10
1662.9142543757
 20
1488.9023541914
 30
0.0
 40
6.000000000000493
100
AcDbArc
 50
180.0
 51
240.0
  0
LINE
  5
336
330
1F
100
AcDbEntity
  8
0
  6
Continuous
 62
     7
370
    25
100
AcDbLine
 10
1706.9142543757
 20
1456.5707391168
 30
0.0
 11
1659.9142543757
 21
1483.7062017687
 31
0.0
  0
LINE
  5
337
330
1F
100
AcDbEntity
  8
0
  6
Continuous
 62
     7
370
    25
100
AcDbLine
 10
1706.9142543757
 20
760.2698676509
 30
0.0
 11
1706.9142543757
 21
1456.5707391168
 31
0.0
  0
LINE
  5
338
330
1F
100
AcDbEntity
  8
0
  6
Continuous
 62
     7
370
    25
100
AcDbLine
 10
1659.9142543757
 20
733.134404999
 30
0.0
 11
1706.9142543757
 21
760.2698676509
 31
0.0
  0
ARC
  5
339
330
1F
100
AcDbEntity
  8
0
  6
Continuous
 62
     7
370
    25
100
AcDbCircle
 10
1662.9142543757
 20
727.9382525763
 30
0.0
 40
6.000000000000841
100
AcDbArc
 50
120.0
 51
180.0
  0
LINE
  5
33A
330
1F
100
AcDbEntity
  8
0
  6
Continuous
 62
     7
370
    25
100
AcDbLine
 10
1656.9142543757
 20
631.4023541914
 30
0.0
 11
1656.9142543757
 21
727.9382525763
 31
0.0
  0
ARC
  5
33B
330
1F
100
AcDbEntity
  8
0
  6
Continuous
 62
     7
370
    25
100
AcDbCircle
 10
1662.9142543757
 20
631.4023541914
 30
0.0
 40
6.000000000000227
100
AcDbArc
 50
180.0
 51
240.0
  0
LINE
  5
33C
330
1F
100
AcDbEntity
  8
0
  6
Continuous
 62
     7
370
    25
100
AcDbLine
 10
1706.9142543757
 20
599.0707391168
 30
0.0
 11
1659.9142543757
 21
626.2062017687
 31
0.0
  0
LINE
  5
33D
330
1F
100
AcDbEntity
  8
0
  6
Continuous
 62
     7
370
    25
100
AcDbLine
 10
1706.9142543757
 20
-294.7301323491
 30
0.0
 11
1706.9142543757
 21
599.0707391168
 31
0.0
  0
LINE
  5
33E
330
1F
100
AcDbEntity
  8
0
  6
Continuous
 62
     7
370
    25
100
AcDbLine
 10
1659.9142543757
 20
-321.865595001
 30
0.0
 11
1706.9142543757
 21
-294.7301323491
 31
0.0
  0
ARC
  5
33F
330
1F
100
AcDbEntity
  8
0
  6
Continuous
 62
     7
370
    25
100
AcDbCircle
 10
1662.9142543757
 20
-327.0617474237
 30
0.0
 40
6.00000000000005
100
AcDbArc
 50
120.0
 51
180.0
  0
LINE
  5
340
330
1F
100
AcDbEntity
  8
0
  6
Continuous
 62
     7
370
    25
100
AcDbLine
 10
1656.9142543757
 20
-423.5976458086
 30
0.0
 11
1656.9142543757
 21
-327.0617474237
 31
0.0
  0
ARC
  5
341
330
1F
100
AcDbEntity
  8
0
  6
Continuous
 62
     7
370
    25
100
AcDbCircle
 10
1662.9142543757
 20
-423.5976458086
 30
0.0
 40
6.000000000000227
100
AcDbArc
 50
180.0
 51
240.0
  0
LINE
  5
342
330
1F
100
AcDbEntity
  8
0
  6
Continuous
 62
     7
370
    25
100
AcDbLine
 10
1706.9142543757
 20
-455.9292608832
 30
0.0
 11
1659.9142543757
 21
-428.7937982313
 31
0.0
  0
LINE
  5
343
330
1F
100
AcDbEntity
  8
0
  6
Continuous
 62
     7
370
    25
100
AcDbLine
 10
1706.9142543757
 20
-1152.2301323491
 30
0.0
 11
1706.9142543757
 21
-455.9292608832
 31
0.0
  0
LINE
  5
344
330
1F
100
AcDbEntity
  8
0
  6
Continuous
 62
     7
370
    25
100
AcDbLine
 10
1659.9142543757
 20
-1179.365595001
 30
0.0
 11
1706.9142543757
 21
-1152.2301323491
 31
0.0
  0
ARC
  5
345
330
1F
100
AcDbEntity
  8
0
  6
Continuous
 62
     7
370
    25
100
AcDbCircle
 10
1662.9142543757
 20
-1184.5617474237
 30
0.0
 40
5.999999999999773
100
AcDbArc
 50
120.0
 51
180.0
  0
LINE
  5
346
330
1F
100
AcDbEntity
  8
0
  6
Continuous
 62
     7
370
    25
100
AcDbLine
 10
1656.9142543757
 20
-1279.8296966161
 30
0.0
 11
1656.9142543757
 21
-1184.5617474237
 31
0.0
  0
LINE
  5
347
330
1F
100
AcDbEntity
  8
0
  6
Continuous
 62
     7
370
    25
100
AcDbLine
 10
1641.9142543757
 20
-1279.8296966161
 30
0.0
 11
1656.9142543757
 21
-1279.8296966161
 31
0.0
  0
LINE
  5
348
330
1F
100
AcDbEntity
  8
0
  6
Continuous
 62
     7
370
    25
100
AcDbLine
 10
1641.9142543757
 20
-1279.8296966161
 30
0.0
 11
1586.5533126475
 21
-1224.4687548879
 31
0.0
  0
ARC
  5
349
330
1F
100
AcDbEntity
  8
0
  6
Continuous
 62
     7
370
    25
100
AcDbCircle
 10
1584.4319923039
 20
-1226.5900752315
 30
0.0
 40
3.000000000000667
100
AcDbArc
 50
45.0
 51
125.4059317731
  0
ARC
  5
34A
330
1F
100
AcDbEntity
  8
0
  6
Continuous
 62
     7
370
    25
100
AcDbCircle
 10
1574.0034122495
 20
-1211.9188544899
 30
0.0
 40
14.99999999999995
100
AcDbArc
 50
144.5940682269
 51
305.4059317731
  0
ARC
  5
34B
330
1F
100
AcDbEntity
  8
0
  6
Continuous
 62
     7
370
    25
100
AcDbCircle
 10
1559.3321915079
 20
-1201.4902744354
 30
0.0
 40
3.000000000000301
100
AcDbArc
 50
324.5940682269
 51
45.0
  0
LINE
  5
34C
330
1F
100
AcDbEntity
  8
0
  6
Continuous
 62
     7
370
    25
100
AcDbLine
 10
1561.4535118515
 20
-1199.3689540919
 30
0.0
 11
1548.1667967115
 21
-1186.0822389519
 31
0.0
  0
LINE
  5
34D
330
1F
100
AcDbEntity
  8
0
  6
Continuous
 62
     7
370
    25
100
AcDbLine
 10
1603.8019253543
 20
-801.9375714239
 30
0.0
 11
1548.1667967115
 21
-1186.0822389519
 31
0.0
  0
ARC
  5
34E
330
1F
100
AcDbEntity
  8
0
  6
Continuous
 62
     7
370
    25
100
AcDbCircle
 10
1581.0394119679
 20
-798.6409088185
 30
0.0
 40
23.00000000000032
100
AcDbArc
 50
351.759232118
 51
3.3439089923
  0
LINE
  5
34F
330
1F
100
AcDbEntity
  8
0
  6
Continuous
 62
     7
370
    25
100
AcDbLine
 10
1604.0002523724
 20
-797.2993396172
 30
0.0
 11
1601.0053601457
 21
-797.4743269044
 31
0.0
  0
LINE
  5
350
330
1F
100
AcDbEntity
  8
0
  6
Continuous
 62
     7
370
    25
100
AcDbLine
 10
1601.0053601457
 20
-797.4743269044
 30
0.0
 11
1490.0325938432
 21
1101.8149336721
 31
0.0
  0
LINE
  5
351
330
1F
100
AcDbEntity
  8
0
  6
Continuous
 62
     7
370
    25
100
AcDbLine
 10
1493.0274860699
 20
1101.9899209592
 30
0.0
 11
1490.0325938432
 21
1101.8149336721
 31
0.0
  0
LINE
  5
352
330
1F
100
AcDbEntity
  8
0
  6
Continuous
 62
     7
370
    25
100
AcDbLine
 10
1656.9142543757
 20
-1184.5617474237
 30
0.0
 11
1659.9142543757
 21
-1184.5617474237
 31
0.0
  0
LINE
  5
353
330
1F
100
AcDbEntity
  8
0
  6
Continuous
 62
     7
370
    25
100
AcDbLine
 10
1659.9142543757
 20
-1184.5617474237
 30
0.0
 11
1659.9142543757
 21
-1279.8296966161
 31
0.0
  0
LINE
  5
354
330
1F
100
AcDbEntity
  8
0
  6
Continuous
 62
     7
370
    25
100
AcDbLine
 10
1656.9142543757
 20
-1279.8296966161
 30
0.0
 11
1659.9142543757
 21
-1279.8296966161
 31
0.0
  0
ARC
  5
355
330
1F
100
AcDbEntity
  8
0
  6
Continuous
 62
     7
370
    25
100
AcDbCircle
 10
1656.9142543757
 20
-1279.8296966161
 30
0.0
 40
3.0
100
AcDbArc
 50
270.0
 51
0.0
  0
LINE
  5
356
330
1F
100
AcDbEntity
  8
0
  6
Continuous
 62
     7
370
    25
100
AcDbLine
 10
1656.9142543757
 20
-1279.8296966161
 30
0.0
 11
1656.9142543757
 21
-1282.8296966161
 31
0.0
  0
LINE
  5
357
330
1F
100
AcDbEntity
  8
0
  6
Continuous
 62
     7
370
    25
100
AcDbLine
 10
1656.9142543757
 20
-1282.8296966161
 30
0.0
 11
1644.9142543757
 21
-1282.8296966161
 31
0.0
  0
LINE
  5
358
330
1F
100
AcDbEntity
  8
0
  6
Continuous
 62
     7
370
    25
100
AcDbLine
 10
1644.9142543757
 20
-1282.8296966161
 30
0.0
 11
1641.9142543757
 21
-1279.8296966161
 31
0.0
  0
LINE
  5
359
330
1F
100
AcDbEntity
  8
0
  6
Continuous
 62
     7
370
    25
100
AcDbLine
 10
1603.8019253543
 20
-801.9375714239
 30
0.0
 11
1600.8329018692
 21
-801.5075719536
 31
0.0
  0
ARC
  5
35A
330
1F
100
AcDbEntity
  8
0
  6
Continuous
 62
     7
370
    25
100
AcDbCircle
 10
1581.0394119679
 20
-798.6409088185
 30
0.0
 40
19.99999999999978
100
AcDbArc
 50
351.759232118
 51
3.3439089923
  0
LINE
  5
35B
330
1F
100
AcDbEntity
  8
0
  6
Continuous
 62
     7
370
    25
100
AcDbLine
 10
1548.1667967115
 20
-1186.0822389519
 30
0.0
 11
1545.5189769945
 21
-1183.4344192349
 31
0.0
  0
LINE
  5
35C
330
1F
100
AcDbEntity
  8
0
  6
Continuous
 62
     7
370
    25
100
AcDbLine
 10
1545.5189769945
 20
-1183.4344192349
 30
0.0
 11
1600.8329018692
 21
-801.5075719536
 31
0.0
  0
LINE
  5
35D
330
1F
100
AcDbEntity
  8
0
  6
Continuous
 62
     7
370
    25
100
AcDbLine
 10
1706.9142543757
 20
-1152.2301323491
 30
0.0
 11
1708.4142543757
 21
-1154.8282085604
 31
0.0
  0
LINE
  5
35E
330
1F
100
AcDbEntity
  8
0
  6
Continuous
 62
     7
370
    25
100
AcDbLine
 10
1708.4142543757
 20
-1154.8282085604
 30
0.0
 11
1661.4142543757
 21
-1181.9636712123
 31
0.0
  0
LINE
  5
35F
330
1F
100
AcDbEntity
  8
0
  6
Continuous
 62
     7
370
    25
100
AcDbLine
 10
1659.9142543757
 20
-1179.365595001
 30
0.0
 11
1661.4142543757
 21
-1181.9636712123
 31
0.0
  0
ARC
  5
360
330
1F
100
AcDbEntity
  8
0
  6
Continuous
 62
     7
370
    25
100
AcDbCircle
 10
1662.9142543757
 20
-1184.5617474237
 30
0.0
 40
3.000000000000246
100
AcDbArc
 50
120.0
 51
180.0
  0
LINE
  5
361
330
1F
100
AcDbEntity
  8
0
  6
Continuous
 62
     7
370
    25
100
AcDbLine
 10
1706.9142543757
 20
-455.9292608832
 30
0.0
 11
1709.9142543757
 21
-455.9292608832
 31
0.0
  0
LINE
  5
362
330
1F
100
AcDbEntity
  8
0
  6
Continuous
 62
     7
370
    25
100
AcDbLine
 10
1709.9142543757
 20
-455.9292608832
 30
0.0
 11
1709.9142543757
 21
-1152.2301323491
 31
0.0
  0
LINE
  5
363
330
1F
100
AcDbEntity
  8
0
  6
Continuous
 62
     7
370
    25
100
AcDbLine
 10
1706.9142543757
 20
-1152.2301323491
 30
0.0
 11
1709.9142543757
 21
-1152.2301323491
 31
0.0
  0
LINE
  5
364
330
1F
100
AcDbEntity
  8
0
  6
Continuous
 62
     7
370
    25
100
AcDbLine
 10
1706.9142543757
 20
-294.7301323491
 30
0.0
 11
1708.4142543757
 21
-297.3282085604
 31
0.0
  0
LINE
  5
365
330
1F
100
AcDbEntity
  8
0
  6
Continuous
 62
     7
370
    25
100
AcDbLine
 10
1708.4142543757
 20
-297.3282085604
 30
0.0
 11
1661.4142543757
 21
-324.4636712123
 31
0.0
  0
LINE
  5
366
330
1F
100
AcDbEntity
  8
0
  6
Continuous
 62
     7
370
    25
100
AcDbLine
 10
1659.9142543757
 20
-321.865595001
 30
0.0
 11
1661.4142543757
 21
-324.4636712123
 31
0.0
  0
ARC
  5
367
330
1F
100
AcDbEntity
  8
0
  6
Continuous
 62
     7
370
    25
100
AcDbCircle
 10
1662.9142543757
 20
-327.0617474237
 30
0.0
 40
3.0
100
AcDbArc
 50
120.0
 51
180.0
  0
LINE
  5
368
330
1F
100
AcDbEntity
  8
0
  6
Continuous
 62
     7
370
    25
100
AcDbLine
 10
1656.9142543757
 20
-327.0617474237
 30
0.0
 11
1659.9142543757
 21
-327.0617474237
 31
0.0
  0
LINE
  5
369
330
1F
100
AcDbEntity
  8
0
  6
Continuous
 62
     7
370
    25
100
AcDbLine
 10
1706.9142543757
 20
599.0707391168
 30
0.0
 11
1709.9142543757
 21
599.0707391168
 31
0.0
  0
LINE
  5
36A
330
1F
100
AcDbEntity
  8
0
  6
Continuous
 62
     7
370
    25
100
AcDbLine
 10
1709.9142543757
 20
599.0707391168
 30
0.0
 11
1709.9142543757
 21
-294.7301323491
 31
0.0
  0
LINE
  5
36B
330
1F
100
AcDbEntity
  8
0
  6
Continuous
 62
     7
370
    25
100
AcDbLine
 10
1706.9142543757
 20
-294.7301323491
 30
0.0
 11
1709.9142543757
 21
-294.7301323491
 31
0.0
  0
LINE
  5
36C
330
1F
100
AcDbEntity
  8
0
  6
Continuous
 62
     7
370
    25
100
AcDbLine
 10
1659.9142543757
 20
-327.0617474237
 30
0.0
 11
1659.9142543757
 21
-423.5976458086
 31
0.0
  0
LINE
  5
36D
330
1F
100
AcDbEntity
  8
0
  6
Continuous
 62
     7
370
    25
100
AcDbLine
 10
1656.9142543757
 20
-423.5976458086
 30
0.0
 11
1659.9142543757
 21
-423.5976458086
 31
0.0
  0
LINE
  5
36E
330
1F
100
AcDbEntity
  8
0
  6
Continuous
 62
     7
370
    25
100
AcDbLine
 10
1706.9142543757
 20
1456.5707391168
 30
0.0
 11
1709.9142543757
 21
1456.5707391168
 31
0.0
  0
LINE
  5
36F
330
1F
100
AcDbEntity
  8
0
  6
Continuous
 62
     7
370
    25
100
AcDbLine
 10
1709.9142543757
 20
1456.5707391168
 30
0.0
 11
1709.9142543757
 21
760.2698676509
 31
0.0
  0
LINE
  5
370
330
1F
100
AcDbEntity
  8
0
  6
Continuous
 62
     7
370
    25
100
AcDbLine
 10
1706.9142543757
 20
760.2698676509
 30
0.0
 11
1709.9142543757
 21
760.2698676509
 31
0.0
  0
LINE
  5
371
330
1F
100
AcDbEntity
  8
0
  6
Continuous
 62
     7
370
    25
100
AcDbLine
 10
1706.9142543757
 20
760.2698676509
 30
0.0
 11
1708.4142543757
 21
757.6717914396
 31
0.0
  0
LINE
  5
372
330
1F
100
AcDbEntity
  8
0
  6
Continuous
 62
     7
370
    25
100
AcDbLine
 10
1708.4142543757
 20
757.6717914396
 30
0.0
 11
1661.4142543757
 21
730.5363287877
 31
0.0
  0
LINE
  5
373
330
1F
100
AcDbEntity
  8
0
  6
Continuous
 62
     7
370
    25
100
AcDbLine
 10
1659.9142543757
 20
733.134404999
 30
0.0
 11
1661.4142543757
 21
730.5363287877
 31
0.0
  0
ARC
  5
374
330
1F
100
AcDbEntity
  8
0
  6
Continuous
 62
     7
370
    25
100
AcDbCircle
 10
1706.9142543757
 20
-1152.2301323491
 30
0.0
 40
3.0
100
AcDbArc
 50
300.0
 51
360.0
  0
ARC
  5
375
330
1F
100
AcDbEntity
  8
0
  6
Continuous
 62
     7
370
    25
100
AcDbCircle
 10
1662.9142543757
 20
727.9382525763
 30
0.0
 40
3.000000000001034
100
AcDbArc
 50
120.0
 51
180.0
  0
LINE
  5
376
330
1F
100
AcDbEntity
  8
0
  6
Continuous
 62
     7
370
    25
100
AcDbLine
 10
1656.9142543757
 20
727.9382525763
 30
0.0
 11
1659.9142543757
 21
727.9382525763
 31
0.0
  0
LINE
  5
377
330
1F
100
AcDbEntity
  8
0
  6
Continuous
 62
     7
370
    25
100
AcDbLine
 10
1659.9142543757
 20
727.9382525763
 30
0.0
 11
1659.9142543757
 21
631.4023541914
 31
0.0
  0
LINE
  5
378
330
1F
100
AcDbEntity
  8
0
  6
Continuous
 62
     7
370
    25
100
AcDbLine
 10
1656.9142543757
 20
631.4023541914
 30
0.0
 11
1659.9142543757
 21
631.4023541914
 31
0.0
  0
ARC
  5
379
330
1F
100
AcDbEntity
  8
0
  6
Continuous
 62
     7
370
    25
100
AcDbCircle
 10
1706.9142543757
 20
-294.7301323491
 30
0.0
 40
3.000000000000591
100
AcDbArc
 50
300.0
 51
360.0
  0
ARC
  5
37A
330
1F
100
AcDbEntity
  8
0
  6
Continuous
 62
     7
370
    25
100
AcDbCircle
 10
1706.9142543757
 20
760.2698676509
 30
0.0
 40
2.999999999999773
100
AcDbArc
 50
300.0
 51
0.0
  0
LINE
  5
37B
330
1F
100
AcDbEntity
  8
0
  6
Continuous
 62
     7
370
    25
100
AcDbLine
 10
1493.174075605
 20
1105.4181792511
 30
0.0
 11
1490.2050521198
 21
1105.8481787214
 31
0.0
  0
LINE
  5
37C
330
1F
100
AcDbEntity
  8
0
  6
Continuous
 62
     7
370
    25
100
AcDbLine
 10
1490.2050521198
 20
1105.8481787214
 30
0.0
 11
1545.5189769945
 21
1487.7750260026
 31
0.0
  0
LINE
  5
37D
330
1F
100
AcDbEntity
  8
0
  6
Continuous
 62
     7
370
    25
100
AcDbLine
 10
1545.5189769945
 20
1487.7750260026
 30
0.0
 11
1549.0636461064
 21
1491.3196951145
 31
0.0
  0
LINE
  5
37E
330
1F
100
AcDbEntity
  8
0
  6
Continuous
 62
     7
370
    25
100
AcDbLine
 10
1659.9142543757
 20
-428.7937982313
 30
0.0
 11
1661.4142543757
 21
-426.1957220199
 31
0.0
  0
LINE
  5
37F
330
1F
100
AcDbEntity
  8
0
  6
Continuous
 62
     7
370
    25
100
AcDbLine
 10
1661.4142543757
 20
-426.1957220199
 30
0.0
 11
1708.4142543757
 21
-453.3311846718
 31
0.0
  0
LINE
  5
380
330
1F
100
AcDbEntity
  8
0
  6
Continuous
 62
     7
370
    25
100
AcDbLine
 10
1706.9142543757
 20
-455.9292608832
 30
0.0
 11
1708.4142543757
 21
-453.3311846718
 31
0.0
  0
ARC
  5
381
330
1F
100
AcDbEntity
  8
0
  6
Continuous
 62
     7
370
    25
100
AcDbCircle
 10
1662.9142543757
 20
-423.5976458086
 30
0.0
 40
3.0
100
AcDbArc
 50
180.0
 51
240.0
  0
LINE
  5
382
330
1F
100
AcDbEntity
  8
0
  6
Continuous
 62
     7
370
    25
100
AcDbLine
 10
1659.9142543757
 20
626.2062017687
 30
0.0
 11
1661.4142543757
 21
628.8042779801
 31
0.0
  0
LINE
  5
383
330
1F
100
AcDbEntity
  8
0
  6
Continuous
 62
     7
370
    25
100
AcDbLine
 10
1661.4142543757
 20
628.8042779801
 30
0.0
 11
1708.4142543757
 21
601.6688153282
 31
0.0
  0
LINE
  5
384
330
1F
100
AcDbEntity
  8
0
  6
Continuous
 62
     7
370
    25
100
AcDbLine
 10
1706.9142543757
 20
599.0707391168
 30
0.0
 11
1708.4142543757
 21
601.6688153282
 31
0.0
  0
ARC
  5
385
330
1F
100
AcDbEntity
  8
0
  6
Continuous
 62
     7
370
    25
100
AcDbCircle
 10
1662.9142543757
 20
631.4023541914
 30
0.0
 40
3.0
100
AcDbArc
 50
180.0
 51
240.0
  0
ARC
  5
386
330
1F
100
AcDbEntity
  8
0
  6
Continuous
 62
     7
370
    25
100
AcDbCircle
 10
1509.998542021
 20
1102.9815155863
 30
0.0
 40
20.00000000000012
100
AcDbArc
 50
171.759232118
 51
183.3439089923
  0
LINE
  5
387
330
1F
100
AcDbEntity
  8
0
  6
Continuous
 62
     7
370
    25
100
AcDbLine
 10
1656.9142543757
 20
1488.9023541914
 30
0.0
 11
1659.9142543757
 21
1488.9023541914
 31
0.0
  0
ARC
  5
388
330
1F
100
AcDbEntity
  8
0
  6
Continuous
 62
     7
370
    25
100
AcDbCircle
 10
1662.9142543757
 20
1488.9023541914
 30
0.0
 40
3.000000000000246
100
AcDbArc
 50
180.0
 51
240.0
  0
LINE
  5
389
330
1F
100
AcDbEntity
  8
0
  6
Continuous
 62
     7
370
    25
100
AcDbLine
 10
1659.9142543757
 20
1483.7062017687
 30
0.0
 11
1661.4142543757
 21
1486.3042779801
 31
0.0
  0
LINE
  5
38A
330
1F
100
AcDbEntity
  8
0
  6
Continuous
 62
     7
370
    25
100
AcDbLine
 10
1661.4142543757
 20
1486.3042779801
 30
0.0
 11
1708.4142543757
 21
1459.1688153282
 31
0.0
  0
LINE
  5
38B
330
1F
100
AcDbEntity
  8
0
  6
Continuous
 62
     7
370
    25
100
AcDbLine
 10
1706.9142543757
 20
1456.5707391168
 30
0.0
 11
1708.4142543757
 21
1459.1688153282
 31
0.0
  0
LINE
  5
38C
330
1F
100
AcDbEntity
  8
0
  6
Continuous
 62
     7
370
    25
100
AcDbLine
 10
1656.9142543757
 20
1584.1703033839
 30
0.0
 11
1659.9142543757
 21
1584.1703033839
 31
0.0
  0
LINE
  5
38D
330
1F
100
AcDbEntity
  8
0
  6
Continuous
 62
     7
370
    25
100
AcDbLine
 10
1659.9142543757
 20
1584.1703033839
 30
0.0
 11
1659.9142543757
 21
1488.9023541914
 31
0.0
  0
ARC
  5
38E
330
1F
100
AcDbEntity
  8
0
  6
Continuous
 62
     7
370
    25
100
AcDbCircle
 10
1706.9142543757
 20
1456.5707391168
 30
0.0
 40
3.000000000000227
100
AcDbArc
 50
0.0
 51
60.0
  0
LINE
  5
38F
330
1F
100
AcDbEntity
  8
0
  6
Continuous
 62
     7
370
    25
100
AcDbLine
 10
1644.9142543757
 20
1587.1703033839
 30
0.0
 11
1656.9142543757
 21
1587.1703033839
 31
0.0
  0
LINE
  5
390
330
1F
100
AcDbEntity
  8
0
  6
Continuous
 62
     7
370
    25
100
AcDbLine
 10
1656.9142543757
 20
1584.1703033839
 30
0.0
 11
1656.9142543757
 21
1587.1703033839
 31
0.0
  0
LINE
  5
391
330
1F
100
AcDbEntity
  8
0
  6
Continuous
 62
     7
370
    25
100
AcDbLine
 10
1641.9142543757
 20
1584.1703033839
 30
0.0
 11
1644.9142543757
 21
1587.1703033839
 31
0.0
  0
ARC
  5
392
330
1F
100
AcDbEntity
  8
0
  6
Continuous
 62
     7
370
    25
100
AcDbCircle
 10
1706.9142543757
 20
-455.9292608832
 30
0.0
 40
3.000000000000682
100
AcDbArc
 50
0.0
 51
60.0
  0
ARC
  5
393
330
1F
100
AcDbEntity
  8
0
  6
Continuous
 62
     7
370
    25
100
AcDbCircle
 10
1656.9142543757
 20
1584.1703033839
 30
0.0
 40
3.0
100
AcDbArc
 50
0.0
 51
90.0
  0
ARC
  5
394
330
1F
100
AcDbEntity
  8
0
  6
Continuous
 62
     7
370
    25
100
AcDbCircle
 10
1706.9142543757
 20
599.0707391168
 30
0.0
 40
3.000000000000556
100
AcDbArc
 50
0.0
 51
60.0
  0
LINE
  5
395
330
1F
100
AcDbEntity
  8
0
  6
Continuous
 62
     7
370
    25
100
AcDbLine
 10
-1222.0857456243
 20
-1294.8296966161
 30
0.0
 11
-1126.8177964318
 21
-1294.8296966161
 31
0.0
  0
LINE
  5
396
330
1F
100
AcDbEntity
  8
0
  6
Continuous
 62
     7
370
    25
100
AcDbLine
 10
-1126.8177964318
 20
-1297.8296966161
 30
0.0
 11
-1126.8177964318
 21
-1294.8296966161
 31
0.0
  0
LINE
  5
397
330
1F
100
AcDbEntity
  8
0
  6
Continuous
 62
     7
370
    25
100
AcDbLine
 10
-1126.8177964318
 20
-1297.8296966161
 30
0.0
 11
-1222.0857456243
 21
-1297.8296966161
 31
0.0
  0
LINE
  5
398
330
1F
100
AcDbEntity
  8
0
  6
Continuous
 62
     7
370
    25
100
AcDbLine
 10
-1222.0857456243
 20
-1297.8296966161
 30
0.0
 11
-1222.0857456243
 21
-1294.8296966161
 31
0.0
  0
LINE
  5
399
330
1F
100
AcDbEntity
  8
0
  6
Continuous
 62
     7
370
    25
100
AcDbLine
 10
-1222.0857456243
 20
-1279.8296966161
 30
0.0
 11
-1222.0857456243
 21
-1294.8296966161
 31
0.0
  0
LINE
  5
39A
330
1F
100
AcDbEntity
  8
0
  6
Continuous
 62
     7
370
    25
100
AcDbLine
 10
-1225.0857456243
 20
-1294.8296966161
 30
0.0
 11
-1222.0857456243
 21
-1294.8296966161
 31
0.0
  0
LINE
  5
39B
330
1F
100
AcDbEntity
  8
0
  6
Continuous
 62
     7
370
    25
100
AcDbLine
 10
-1225.0857456243
 20
-1294.8296966161
 30
0.0
 11
-1225.0857456243
 21
-1282.8296966161
 31
0.0
  0
LINE
  5
39C
330
1F
100
AcDbEntity
  8
0
  6
Continuous
 62
     7
370
    25
100
AcDbLine
 10
-1225.0857456243
 20
-1282.8296966161
 30
0.0
 11
-1222.0857456243
 21
-1279.8296966161
 31
0.0
  0
ARC
  5
39D
330
1F
100
AcDbEntity
  8
0
  6
Continuous
 62
     7
370
    25
100
AcDbCircle
 10
-1222.0857456243
 20
-1294.8296966161
 30
0.0
 40
3.000000000000227
100
AcDbArc
 50
180.0
 51
270.0
  0
LINE
  5
39E
330
1F
100
AcDbEntity
  8
0
  6
Continuous
 62
     7
370
    25
100
AcDbLine
 10
1054.9142543757
 20
-1282.8296966161
 30
0.0
 11
1054.9142543757
 21
-1297.8296966161
 31
0.0
  0
LINE
  5
39F
330
1F
100
AcDbEntity
  8
0
  6
Continuous
 62
     7
370
    25
100
AcDbLine
 10
1054.9142543757
 20
-1297.8296966161
 30
0.0
 11
1114.9142543757
 21
-1297.8296966161
 31
0.0
  0
LINE
  5
3A0
330
1F
100
AcDbEntity
  8
0
  6
Continuous
 62
     7
370
    25
100
AcDbLine
 10
1114.9142543757
 20
-1297.8296966161
 30
0.0
 11
1114.9142543757
 21
-1282.8296966161
 31
0.0
  0
LINE
  5
3A1
330
1F
100
AcDbEntity
  8
0
  6
Continuous
 62
     7
370
    25
100
AcDbLine
 10
1114.9142543757
 20
-1282.8296966161
 30
0.0
 11
1054.9142543757
 21
-1282.8296966161
 31
0.0
  0
LINE
  5
3A2
330
1F
100
AcDbEntity
  8
0
  6
Continuous
 62
     7
370
    25
100
AcDbLine
 10
1234.9142543757
 20
-1282.8296966161
 30
0.0
 11
1234.9142543757
 21
-1297.8296966161
 31
0.0
  0
LINE
  5
3A3
330
1F
100
AcDbEntity
  8
0
  6
Continuous
 62
     7
370
    25
100
AcDbLine
 10
1234.9142543757
 20
-1297.8296966161
 30
0.0
 11
1294.9142543757
 21
-1297.8296966161
 31
0.0
  0
LINE
  5
3A4
330
1F
100
AcDbEntity
  8
0
  6
Continuous
 62
     7
370
    25
100
AcDbLine
 10
1294.9142543757
 20
-1297.8296966161
 30
0.0
 11
1294.9142543757
 21
-1282.8296966161
 31
0.0
  0
LINE
  5
3A5
330
1F
100
AcDbEntity
  8
0
  6
Continuous
 62
     7
370
    25
100
AcDbLine
 10
1294.9142543757
 20
-1282.8296966161
 30
0.0
 11
1234.9142543757
 21
-1282.8296966161
 31
0.0
  0
LINE
  5
3A6
330
1F
100
AcDbEntity
  8
0
  6
Continuous
 62
     7
370
    25
100
AcDbLine
 10
1414.9142543757
 20
-1282.8296966161
 30
0.0
 11
1414.9142543757
 21
-1297.8296966161
 31
0.0
  0
LINE
  5
3A7
330
1F
100
AcDbEntity
  8
0
  6
Continuous
 62
     7
370
    25
100
AcDbLine
 10
1414.9142543757
 20
-1297.8296966161
 30
0.0
 11
1474.9142543757
 21
-1297.8296966161
 31
0.0
  0
LINE
  5
3A8
330
1F
100
AcDbEntity
  8
0
  6
Continuous
 62
     7
370
    25
100
AcDbLine
 10
1474.9142543757
 20
-1297.8296966161
 30
0.0
 11
1474.9142543757
 21
-1282.8296966161
 31
0.0
  0
LINE
  5
3A9
330
1F
100
AcDbEntity
  8
0
  6
Continuous
 62
     7
370
    25
100
AcDbLine
 10
1474.9142543757
 20
-1282.8296966161
 30
0.0
 11
1414.9142543757
 21
-1282.8296966161
 31
0.0
  0
LINE
  5
3AA
330
1F
100
AcDbEntity
  8
0
  6
Continuous
 62
     7
370
    25
100
AcDbLine
 10
359.9142543757
 20
-1282.8296966161
 30
0.0
 11
359.9142543757
 21
-1297.8296966161
 31
0.0
  0
LINE
  5
3AB
330
1F
100
AcDbEntity
  8
0
  6
Continuous
 62
     7
370
    25
100
AcDbLine
 10
359.9142543757
 20
-1297.8296966161
 30
0.0
 11
419.9142543757
 21
-1297.8296966161
 31
0.0
  0
LINE
  5
3AC
330
1F
100
AcDbEntity
  8
0
  6
Continuous
 62
     7
370
    25
100
AcDbLine
 10
419.9142543757
 20
-1297.8296966161
 30
0.0
 11
419.9142543757
 21
-1282.8296966161
 31
0.0
  0
LINE
  5
3AD
330
1F
100
AcDbEntity
  8
0
  6
Continuous
 62
     7
370
    25
100
AcDbLine
 10
419.9142543757
 20
-1282.8296966161
 30
0.0
 11
359.9142543757
 21
-1282.8296966161
 31
0.0
  0
LINE
  5
3AE
330
1F
100
AcDbEntity
  8
0
  6
Continuous
 62
     7
370
    25
100
AcDbLine
 10
179.9142543757
 20
-1282.8296966161
 30
0.0
 11
179.9142543757
 21
-1297.8296966161
 31
0.0
  0
LINE
  5
3AF
330
1F
100
AcDbEntity
  8
0
  6
Continuous
 62
     7
370
    25
100
AcDbLine
 10
179.9142543757
 20
-1297.8296966161
 30
0.0
 11
239.9142543757
 21
-1297.8296966161
 31
0.0
  0
LINE
  5
3B0
330
1F
100
AcDbEntity
  8
0
  6
Continuous
 62
     7
370
    25
100
AcDbLine
 10
239.9142543757
 20
-1297.8296966161
 30
0.0
 11
239.9142543757
 21
-1282.8296966161
 31
0.0
  0
LINE
  5
3B1
330
1F
100
AcDbEntity
  8
0
  6
Continuous
 62
     7
370
    25
100
AcDbLine
 10
239.9142543757
 20
-1282.8296966161
 30
0.0
 11
179.9142543757
 21
-1282.8296966161
 31
0.0
  0
LINE
  5
3B2
330
1F
100
AcDbEntity
  8
0
  6
Continuous
 62
     7
370
    25
100
AcDbLine
 10
-0.0857456243
 20
-1282.8296966161
 30
0.0
 11
-0.0857456243
 21
-1297.8296966161
 31
0.0
  0
LINE
  5
3B3
330
1F
100
AcDbEntity
  8
0
  6
Continuous
 62
     7
370
    25
100
AcDbLine
 10
-0.0857456243
 20
-1297.8296966161
 30
0.0
 11
59.9142543757
 21
-1297.8296966161
 31
0.0
  0
LINE
  5
3B4
330
1F
100
AcDbEntity
  8
0
  6
Continuous
 62
     7
370
    25
100
AcDbLine
 10
59.9142543757
 20
-1297.8296966161
 30
0.0
 11
59.9142543757
 21
-1282.8296966161
 31
0.0
  0
LINE
  5
3B5
330
1F
100
AcDbEntity
  8
0
  6
Continuous
 62
     7
370
    25
100
AcDbLine
 10
59.9142543757
 20
-1282.8296966161
 30
0.0
 11
-0.0857456243
 21
-1282.8296966161
 31
0.0
  0
LINE
  5
3B6
330
1F
100
AcDbEntity
  8
0
  6
Continuous
 62
     7
370
    25
100
AcDbLine
 10
-695.0857456243
 20
-1282.8296966161
 30
0.0
 11
-695.0857456243
 21
-1297.8296966161
 31
0.0
  0
LINE
  5
3B7
330
1F
100
AcDbEntity
  8
0
  6
Continuous
 62
     7
370
    25
100
AcDbLine
 10
-695.0857456243
 20
-1297.8296966161
 30
0.0
 11
-635.0857456243
 21
-1297.8296966161
 31
0.0
  0
LINE
  5
3B8
330
1F
100
AcDbEntity
  8
0
  6
Continuous
 62
     7
370
    25
100
AcDbLine
 10
-635.0857456243
 20
-1297.8296966161
 30
0.0
 11
-635.0857456243
 21
-1282.8296966161
 31
0.0
  0
LINE
  5
3B9
330
1F
100
AcDbEntity
  8
0
  6
Continuous
 62
     7
370
    25
100
AcDbLine
 10
-635.0857456243
 20
-1282.8296966161
 30
0.0
 11
-695.0857456243
 21
-1282.8296966161
 31
0.0
  0
LINE
  5
3BA
330
1F
100
AcDbEntity
  8
0
  6
Continuous
 62
     7
370
    25
100
AcDbLine
 10
-875.0857456243
 20
-1282.8296966161
 30
0.0
 11
-875.0857456243
 21
-1297.8296966161
 31
0.0
  0
LINE
  5
3BB
330
1F
100
AcDbEntity
  8
0
  6
Continuous
 62
     7
370
    25
100
AcDbLine
 10
-875.0857456243
 20
-1297.8296966161
 30
0.0
 11
-815.0857456243
 21
-1297.8296966161
 31
0.0
  0
LINE
  5
3BC
330
1F
100
AcDbEntity
  8
0
  6
Continuous
 62
     7
370
    25
100
AcDbLine
 10
-815.0857456243
 20
-1297.8296966161
 30
0.0
 11
-815.0857456243
 21
-1282.8296966161
 31
0.0
  0
LINE
  5
3BD
330
1F
100
AcDbEntity
  8
0
  6
Continuous
 62
     7
370
    25
100
AcDbLine
 10
-815.0857456243
 20
-1282.8296966161
 30
0.0
 11
-875.0857456243
 21
-1282.8296966161
 31
0.0
  0
LINE
  5
3BE
330
1F
100
AcDbEntity
  8
0
  6
Continuous
 62
     7
370
    25
100
AcDbLine
 10
-1055.0857456243
 20
-1297.8296966161
 30
0.0
 11
-995.0857456243
 21
-1297.8296966161
 31
0.0
  0
LINE
  5
3BF
330
1F
100
AcDbEntity
  8
0
  6
Continuous
 62
     7
370
    25
100
AcDbLine
 10
-995.0857456243
 20
-1297.8296966161
 30
0.0
 11
-995.0857456243
 21
-1282.8296966161
 31
0.0
  0
LINE
  5
3C0
330
1F
100
AcDbEntity
  8
0
  6
Continuous
 62
     7
370
    25
100
AcDbLine
 10
-995.0857456243
 20
-1282.8296966161
 30
0.0
 11
-1055.0857456243
 21
-1282.8296966161
 31
0.0
  0
LINE
  5
3C1
330
1F
100
AcDbEntity
  8
0
  6
Continuous
 62
     7
370
    25
100
AcDbLine
 10
-1055.0857456243
 20
-1297.8296966161
 30
0.0
 11
-1055.0857456243
 21
-1282.8296966161
 31
0.0
  0
LINE
  5
3C2
330
1F
100
AcDbEntity
  8
0
  6
Continuous
 62
     7
370
    25
100
AcDbLine
 10
1641.9142543757
 20
-1294.8296966161
 30
0.0
 11
1641.9142543757
 21
-1279.8296966161
 31
0.0
  0
LINE
  5
3C3
330
1F
100
AcDbEntity
  8
0
  6
Continuous
 62
     7
370
    25
100
AcDbLine
 10
1546.6463051833
 20
-1294.8296966161
 30
0.0
 11
1641.9142543757
 21
-1294.8296966161
 31
0.0
  0
ARC
  5
3C4
330
1F
100
AcDbEntity
  8
0
  6
Continuous
 62
     7
370
    25
100
AcDbCircle
 10
1546.6463051833
 20
-1300.8296966161
 30
0.0
 40
5.999999999999773
100
AcDbArc
 50
90.0
 51
150.0
  0
LINE
  5
3C5
330
1F
100
AcDbEntity
  8
0
  6
Continuous
 62
     7
370
    25
100
AcDbLine
 10
1514.3146901087
 20
-1344.8296966161
 30
0.0
 11
1541.4501527606
 21
-1297.8296966161
 31
0.0
  0
LINE
  5
3C6
330
1F
100
AcDbEntity
  8
0
  6
Continuous
 62
     7
370
    25
100
AcDbLine
 10
818.0138186428
 20
-1344.8296966161
 30
0.0
 11
1514.3146901087
 21
-1344.8296966161
 31
0.0
  0
LINE
  5
3C7
330
1F
100
AcDbEntity
  8
0
  6
Continuous
 62
     7
370
    25
100
AcDbLine
 10
790.8783559909
 20
-1297.8296966161
 30
0.0
 11
818.0138186428
 21
-1344.8296966161
 31
0.0
  0
ARC
  5
3C8
330
1F
100
AcDbEntity
  8
0
  6
Continuous
 62
     7
370
    25
100
AcDbCircle
 10
785.6822035682
 20
-1300.8296966161
 30
0.0
 40
6.000000000000227
100
AcDbArc
 50
30.0
 51
90.0
  0
LINE
  5
3C9
330
1F
100
AcDbEntity
  8
0
  6
Continuous
 62
     7
370
    25
100
AcDbLine
 10
689.1463051833
 20
-1294.8296966161
 30
0.0
 11
785.6822035682
 21
-1294.8296966161
 31
0.0
  0
ARC
  5
3CA
330
1F
100
AcDbEntity
  8
0
  6
Continuous
 62
     7
370
    25
100
AcDbCircle
 10
689.1463051833
 20
-1300.8296966161
 30
0.0
 40
6.0
100
AcDbArc
 50
90.0
 51
150.0
  0
LINE
  5
3CB
330
1F
100
AcDbEntity
  8
0
  6
Continuous
 62
     7
370
    25
100
AcDbLine
 10
656.8146901087
 20
-1344.8296966161
 30
0.0
 11
683.9501527606
 21
-1297.8296966161
 31
0.0
  0
LINE
  5
3CC
330
1F
100
AcDbEntity
  8
0
  6
Continuous
 62
     7
370
    25
100
AcDbLine
 10
-236.9861813572
 20
-1344.8296966161
 30
0.0
 11
656.8146901087
 21
-1344.8296966161
 31
0.0
  0
LINE
  5
3CD
330
1F
100
AcDbEntity
  8
0
  6
Continuous
 62
     7
370
    25
100
AcDbLine
 10
-264.1216440091
 20
-1297.8296966161
 30
0.0
 11
-236.9861813572
 21
-1344.8296966161
 31
0.0
  0
ARC
  5
3CE
330
1F
100
AcDbEntity
  8
0
  6
Continuous
 62
     7
370
    25
100
AcDbCircle
 10
-269.3177964318
 20
-1300.8296966161
 30
0.0
 40
6.000000000000227
100
AcDbArc
 50
30.0
 51
90.0
  0
LINE
  5
3CF
330
1F
100
AcDbEntity
  8
0
  6
Continuous
 62
     7
370
    25
100
AcDbLine
 10
-365.8536948167
 20
-1294.8296966161
 30
0.0
 11
-269.3177964318
 21
-1294.8296966161
 31
0.0
  0
ARC
  5
3D0
330
1F
100
AcDbEntity
  8
0
  6
Continuous
 62
     7
370
    25
100
AcDbCircle
 10
-365.8536948167
 20
-1300.8296966161
 30
0.0
 40
6.000000000000333
100
AcDbArc
 50
90.0
 51
150.0
  0
LINE
  5
3D1
330
1F
100
AcDbEntity
  8
0
  6
Continuous
 62
     7
370
    25
100
AcDbLine
 10
-398.1853098913
 20
-1344.8296966161
 30
0.0
 11
-371.0498472394
 21
-1297.8296966161
 31
0.0
  0
LINE
  5
3D2
330
1F
100
AcDbEntity
  8
0
  6
Continuous
 62
     7
370
    25
100
AcDbLine
 10
-1094.4861813572
 20
-1344.8296966161
 30
0.0
 11
-398.1853098913
 21
-1344.8296966161
 31
0.0
  0
LINE
  5
3D3
330
1F
100
AcDbEntity
  8
0
  6
Continuous
 62
     7
370
    25
100
AcDbLine
 10
-1121.6216440091
 20
-1297.8296966161
 30
0.0
 11
-1094.4861813572
 21
-1344.8296966161
 31
0.0
  0
ARC
  5
3D4
330
1F
100
AcDbEntity
  8
0
  6
Continuous
 62
     7
370
    25
100
AcDbCircle
 10
-1126.8177964318
 20
-1300.8296966161
 30
0.0
 40
6.000000000000296
100
AcDbArc
 50
30.0
 51
90.0
  0
ARC
  5
3D5
330
1F
100
AcDbEntity
  8
0
  6
Continuous
 62
     7
370
    25
100
AcDbCircle
 10
-1139.5036827565
 20
-1201.4902744354
 30
0.0
 40
3.000000000000647
100
AcDbArc
 50
135.0
 51
215.4059317731
  0
LINE
  5
3D6
330
1F
100
AcDbEntity
  8
0
  6
Continuous
 62
     7
370
    25
100
AcDbLine
 10
-1141.6250031
 20
-1199.3689540919
 30
0.0
 11
-1129.2351373549
 21
-1186.9790883467
 31
0.0
  0
LINE
  5
3D7
330
1F
100
AcDbEntity
  8
0
  6
Continuous
 62
     7
370
    25
100
AcDbLine
 10
-743.3336214915
 20
-1131.0895178453
 30
0.0
 11
-1129.2351373549
 21
-1186.9790883467
 31
0.0
  0
ARC
  5
3D8
330
1F
100
AcDbEntity
  8
0
  6
Continuous
 62
     7
370
    25
100
AcDbCircle
 10
-740.8969578267
 20
-1147.9139842614
 30
0.0
 40
17.0000000000006
100
AcDbArc
 50
86.6560910077
 51
98.240767882
  0
LINE
  5
3D9
330
1F
100
AcDbEntity
  8
0
  6
Continuous
 62
     7
370
    25
100
AcDbLine
 10
1159.3838973768
 20
-1241.9156946127
 30
0.0
 11
-739.9053631996
 21
-1130.9429283103
 31
0.0
  0
ARC
  5
3DA
330
1F
100
AcDbEntity
  8
0
  6
Continuous
 62
     7
370
    25
100
AcDbCircle
 10
1160.7254665781
 20
-1218.9548542083
 30
0.0
 40
23.00000000000028
100
AcDbArc
 50
266.6560910077
 51
278.240767882
  0
LINE
  5
3DB
330
1F
100
AcDbEntity
  8
0
  6
Continuous
 62
     7
370
    25
100
AcDbLine
 10
1548.1667967115
 20
-1186.0822389518
 30
0.0
 11
1164.0221291835
 21
-1241.7173675947
 31
0.0
  0
ARC
  5
3DC
330
1F
100
AcDbEntity
  8
0
  6
Continuous
 62
     7
370
    25
100
AcDbCircle
 10
-1154.174903498
 20
-1211.9188544899
 30
0.0
 40
14.99999999999986
100
AcDbArc
 50
234.5940682269
 51
35.4059317731
  0
ARC
  5
3DD
330
1F
100
AcDbEntity
  8
0
  6
Continuous
 62
     7
370
    25
100
AcDbCircle
 10
-1164.6034835525
 20
-1226.5900752314
 30
0.0
 40
3.000000000000346
100
AcDbArc
 50
54.5940682269
 51
135.0
  0
LINE
  5
3DE
330
1F
100
AcDbEntity
  8
0
  6
Continuous
 62
     7
370
    25
100
AcDbLine
 10
-1222.0857456243
 20
-1279.8296966161
 30
0.0
 11
-1166.7248038961
 21
-1224.4687548879
 31
0.0
  0
LINE
  5
3DF
330
1F
100
AcDbEntity
  8
0
  6
Continuous
 62
     7
370
    25
100
AcDbLine
 10
-1097.0842575686
 20
-1346.3296966161
 30
0.0
 11
-1094.4861813572
 21
-1344.8296966161
 31
0.0
  0
LINE
  5
3E0
330
1F
100
AcDbEntity
  8
0
  6
Continuous
 62
     7
370
    25
100
AcDbLine
 10
-1094.4861813572
 20
-1347.8296966161
 30
0.0
 11
-1094.4861813572
 21
-1344.8296966161
 31
0.0
  0
ARC
  5
3E1
330
1F
100
AcDbEntity
  8
0
  6
Continuous
 62
     7
370
    25
100
AcDbCircle
 10
-1094.4861813572
 20
-1344.8296966161
 30
0.0
 40
3.000000000000227
100
AcDbArc
 50
210.0
 51
270.0
  0
LINE
  5
3E2
330
1F
100
AcDbEntity
  8
0
  6
Continuous
 62
     7
370
    25
100
AcDbLine
 10
-1125.690468243
 20
-1183.4344192348
 30
0.0
 11
-743.7636209618
 21
-1128.1204943601
 31
0.0
  0
LINE
  5
3E3
330
1F
100
AcDbEntity
  8
0
  6
Continuous
 62
     7
370
    25
100
AcDbLine
 10
-743.7636209618
 20
-1128.1204943601
 30
0.0
 11
-743.3336214915
 21
-1131.0895178453
 31
0.0
  0
LINE
  5
3E4
330
1F
100
AcDbEntity
  8
0
  6
Continuous
 62
     7
370
    25
100
AcDbLine
 10
-1129.2351373549
 20
-1186.9790883467
 30
0.0
 11
-1125.690468243
 21
-1183.4344192348
 31
0.0
  0
LINE
  5
3E5
330
1F
100
AcDbEntity
  8
0
  6
Continuous
 62
     7
370
    25
100
AcDbLine
 10
-1097.0842575686
 20
-1346.3296966161
 30
0.0
 11
-1124.2197202205
 21
-1299.3296966161
 31
0.0
  0
LINE
  5
3E6
330
1F
100
AcDbEntity
  8
0
  6
Continuous
 62
     7
370
    25
100
AcDbLine
 10
-1124.2197202205
 20
-1299.3296966161
 30
0.0
 11
-1121.6216440091
 21
-1297.8296966161
 31
0.0
  0
LINE
  5
3E7
330
1F
100
AcDbEntity
  8
0
  6
Continuous
 62
     7
370
    25
100
AcDbLine
 10
656.8146901087
 20
-1347.8296966161
 30
0.0
 11
656.8146901087
 21
-1344.8296966161
 31
0.0
  0
LINE
  5
3E8
330
1F
100
AcDbEntity
  8
0
  6
Continuous
 62
     7
370
    25
100
AcDbLine
 10
656.8146901087
 20
-1347.8296966161
 30
0.0
 11
-236.9861813572
 21
-1347.8296966161
 31
0.0
  0
LINE
  5
3E9
330
1F
100
AcDbEntity
  8
0
  6
Continuous
 62
     7
370
    25
100
AcDbLine
 10
-236.9861813572
 20
-1347.8296966161
 30
0.0
 11
-236.9861813572
 21
-1344.8296966161
 31
0.0
  0
LINE
  5
3EA
330
1F
100
AcDbEntity
  8
0
  6
Continuous
 62
     7
370
    25
100
AcDbLine
 10
-239.5842575686
 20
-1346.3296966161
 30
0.0
 11
-236.9861813572
 21
-1344.8296966161
 31
0.0
  0
ARC
  5
3EB
330
1F
100
AcDbEntity
  8
0
  6
Continuous
 62
     7
370
    25
100
AcDbCircle
 10
-236.9861813572
 20
-1344.8296966161
 30
0.0
 40
3.000000000000394
100
AcDbArc
 50
210.0
 51
270.0
  0
LINE
  5
3EC
330
1F
100
AcDbEntity
  8
0
  6
Continuous
 62
     7
370
    25
100
AcDbLine
 10
-398.1853098913
 20
-1347.8296966161
 30
0.0
 11
-398.1853098913
 21
-1344.8296966161
 31
0.0
  0
LINE
  5
3ED
330
1F
100
AcDbEntity
  8
0
  6
Continuous
 62
     7
370
    25
100
AcDbLine
 10
-398.1853098913
 20
-1347.8296966161
 30
0.0
 11
-1094.4861813572
 21
-1347.8296966161
 31
0.0
  0
LINE
  5
3EE
330
1F
100
AcDbEntity
  8
0
  6
Continuous
 62
     7
370
    25
100
AcDbLine
 10
-239.5842575686
 20
-1346.3296966161
 30
0.0
 11
-266.7197202205
 21
-1299.3296966161
 31
0.0
  0
LINE
  5
3EF
330
1F
100
AcDbEntity
  8
0
  6
Continuous
 62
     7
370
    25
100
AcDbLine
 10
-266.7197202205
 20
-1299.3296966161
 30
0.0
 11
-264.1216440091
 21
-1297.8296966161
 31
0.0
  0
ARC
  5
3F0
330
1F
100
AcDbEntity
  8
0
  6
Continuous
 62
     7
370
    25
100
AcDbCircle
 10
-1126.8177964318
 20
-1300.8296966161
 30
0.0
 40
3.000000000000049
100
AcDbArc
 50
30.0
 51
90.0
  0
LINE
  5
3F1
330
1F
100
AcDbEntity
  8
0
  6
Continuous
 62
     7
370
    25
100
AcDbLine
 10
-739.7303759125
 20
-1127.9480360836
 30
0.0
 11
1159.558884664
 21
-1238.9208023861
 31
0.0
  0
LINE
  5
3F2
330
1F
100
AcDbEntity
  8
0
  6
Continuous
 62
     7
370
    25
100
AcDbLine
 10
1159.558884664
 20
-1238.9208023861
 30
0.0
 11
1159.3838973768
 21
-1241.9156946127
 31
0.0
  0
LINE
  5
3F3
330
1F
100
AcDbEntity
  8
0
  6
Continuous
 62
     7
370
    25
100
AcDbLine
 10
-739.7303759125
 20
-1127.9480360836
 30
0.0
 11
-739.9053631996
 21
-1130.9429283103
 31
0.0
  0
ARC
  5
3F4
330
1F
100
AcDbEntity
  8
0
  6
Continuous
 62
     7
370
    25
100
AcDbCircle
 10
-740.8969578267
 20
-1147.9139842614
 30
0.0
 40
20.00000000000014
100
AcDbArc
 50
86.6560910077
 51
98.240767882
  0
LINE
  5
3F5
330
1F
100
AcDbEntity
  8
0
  6
Continuous
 62
     7
370
    25
100
AcDbLine
 10
-368.4517710281
 20
-1299.3296966161
 30
0.0
 11
-371.0498472394
 21
-1297.8296966161
 31
0.0
  0
LINE
  5
3F6
330
1F
100
AcDbEntity
  8
0
  6
Continuous
 62
     7
370
    25
100
AcDbLine
 10
-368.4517710281
 20
-1299.3296966161
 30
0.0
 11
-395.58723368
 21
-1346.3296966161
 31
0.0
  0
LINE
  5
3F7
330
1F
100
AcDbEntity
  8
0
  6
Continuous
 62
     7
370
    25
100
AcDbLine
 10
-395.58723368
 20
-1346.3296966161
 30
0.0
 11
-398.1853098913
 21
-1344.8296966161
 31
0.0
  0
LINE
  5
3F8
330
1F
100
AcDbEntity
  8
0
  6
Continuous
 62
     7
370
    25
100
AcDbLine
 10
1514.3146901087
 20
-1347.8296966161
 30
0.0
 11
1514.3146901087
 21
-1344.8296966161
 31
0.0
  0
LINE
  5
3F9
330
1F
100
AcDbEntity
  8
0
  6
Continuous
 62
     7
370
    25
100
AcDbLine
 10
1514.3146901087
 20
-1347.8296966161
 30
0.0
 11
818.0138186428
 21
-1347.8296966161
 31
0.0
  0
LINE
  5
3FA
330
1F
100
AcDbEntity
  8
0
  6
Continuous
 62
     7
370
    25
100
AcDbLine
 10
818.0138186428
 20
-1347.8296966161
 30
0.0
 11
818.0138186428
 21
-1344.8296966161
 31
0.0
  0
ARC
  5
3FB
330
1F
100
AcDbEntity
  8
0
  6
Continuous
 62
     7
370
    25
100
AcDbCircle
 10
-269.3177964318
 20
-1300.8296966161
 30
0.0
 40
3.0
100
AcDbArc
 50
30.0
 51
90.0
  0
LINE
  5
3FC
330
1F
100
AcDbEntity
  8
0
  6
Continuous
 62
     7
370
    25
100
AcDbLine
 10
-269.3177964318
 20
-1297.8296966161
 30
0.0
 11
-269.3177964318
 21
-1294.8296966161
 31
0.0
  0
LINE
  5
3FD
330
1F
100
AcDbEntity
  8
0
  6
Continuous
 62
     7
370
    25
100
AcDbLine
 10
815.4157424314
 20
-1346.3296966161
 30
0.0
 11
788.2802797795
 21
-1299.3296966161
 31
0.0
  0
LINE
  5
3FE
330
1F
100
AcDbEntity
  8
0
  6
Continuous
 62
     7
370
    25
100
AcDbLine
 10
788.2802797795
 20
-1299.3296966161
 30
0.0
 11
790.8783559909
 21
-1297.8296966161
 31
0.0
  0
LINE
  5
3FF
330
1F
100
AcDbEntity
  8
0
  6
Continuous
 62
     7
370
    25
100
AcDbLine
 10
815.4157424314
 20
-1346.3296966161
 30
0.0
 11
818.0138186428
 21
-1344.8296966161
 31
0.0
  0
ARC
  5
400
330
1F
100
AcDbEntity
  8
0
  6
Continuous
 62
     7
370
    25
100
AcDbCircle
 10
-398.1853098913
 20
-1344.8296966161
 30
0.0
 40
2.999999999999773
100
AcDbArc
 50
270.0
 51
330.0
  0
LINE
  5
401
330
1F
100
AcDbEntity
  8
0
  6
Continuous
 62
     7
370
    25
100
AcDbLine
 10
-269.3177964318
 20
-1297.8296966161
 30
0.0
 11
-365.8536948167
 21
-1297.8296966161
 31
0.0
  0
LINE
  5
402
330
1F
100
AcDbEntity
  8
0
  6
Continuous
 62
     7
370
    25
100
AcDbLine
 10
-365.8536948167
 20
-1297.8296966161
 30
0.0
 11
-365.8536948167
 21
-1294.8296966161
 31
0.0
  0
ARC
  5
403
330
1F
100
AcDbEntity
  8
0
  6
Continuous
 62
     7
370
    25
100
AcDbCircle
 10
818.0138186428
 20
-1344.8296966161
 30
0.0
 40
3.000000000000262
100
AcDbArc
 50
210.0
 51
270.0
  0
ARC
  5
404
330
1F
100
AcDbEntity
  8
0
  6
Continuous
 62
     7
370
    25
100
AcDbCircle
 10
-365.8536948167
 20
-1300.8296966161
 30
0.0
 40
3.000000000000936
100
AcDbArc
 50
90.0
 51
150.0
  0
LINE
  5
405
330
1F
100
AcDbEntity
  8
0
  6
Continuous
 62
     7
370
    25
100
AcDbLine
 10
659.41276632
 20
-1346.3296966161
 30
0.0
 11
656.8146901087
 21
-1344.8296966161
 31
0.0
  0
ARC
  5
406
330
1F
100
AcDbEntity
  8
0
  6
Continuous
 62
     7
370
    25
100
AcDbCircle
 10
656.8146901087
 20
-1344.8296966161
 30
0.0
 40
3.000000000000542
100
AcDbArc
 50
270.0
 51
330.0
  0
LINE
  5
407
330
1F
100
AcDbEntity
  8
0
  6
Continuous
 62
     7
370
    25
100
AcDbLine
 10
686.5482289719
 20
-1299.3296966161
 30
0.0
 11
683.9501527606
 21
-1297.8296966161
 31
0.0
  0
LINE
  5
408
330
1F
100
AcDbEntity
  8
0
  6
Continuous
 62
     7
370
    25
100
AcDbLine
 10
686.5482289719
 20
-1299.3296966161
 30
0.0
 11
659.41276632
 21
-1346.3296966161
 31
0.0
  0
LINE
  5
409
330
1F
100
AcDbEntity
  8
0
  6
Continuous
 62
     7
370
    25
100
AcDbLine
 10
785.6822035682
 20
-1297.8296966161
 30
0.0
 11
689.1463051833
 21
-1297.8296966161
 31
0.0
  0
LINE
  5
40A
330
1F
100
AcDbEntity
  8
0
  6
Continuous
 62
     7
370
    25
100
AcDbLine
 10
689.1463051833
 20
-1297.8296966161
 30
0.0
 11
689.1463051833
 21
-1294.8296966161
 31
0.0
  0
LINE
  5
40B
330
1F
100
AcDbEntity
  8
0
  6
Continuous
 62
     7
370
    25
100
AcDbLine
 10
785.6822035682
 20
-1297.8296966161
 30
0.0
 11
785.6822035682
 21
-1294.8296966161
 31
0.0
  0
ARC
  5
40C
330
1F
100
AcDbEntity
  8
0
  6
Continuous
 62
     7
370
    25
100
AcDbCircle
 10
785.6822035682
 20
-1300.8296966161
 30
0.0
 40
3.0
100
AcDbArc
 50
30.0
 51
90.0
  0
ARC
  5
40D
330
1F
100
AcDbEntity
  8
0
  6
Continuous
 62
     7
370
    25
100
AcDbCircle
 10
689.1463051833
 20
-1300.8296966161
 30
0.0
 40
2.999999999999853
100
AcDbArc
 50
90.0
 51
150.0
  0
LINE
  5
40E
330
1F
100
AcDbEntity
  8
0
  6
Continuous
 62
     7
370
    25
100
AcDbLine
 10
1544.0482289719
 20
-1299.3296966161
 30
0.0
 11
1541.4501527606
 21
-1297.8296966161
 31
0.0
  0
LINE
  5
40F
330
1F
100
AcDbEntity
  8
0
  6
Continuous
 62
     7
370
    25
100
AcDbLine
 10
1544.0482289719
 20
-1299.3296966161
 30
0.0
 11
1516.91276632
 21
-1346.3296966161
 31
0.0
  0
LINE
  5
410
330
1F
100
AcDbEntity
  8
0
  6
Continuous
 62
     7
370
    25
100
AcDbLine
 10
1516.91276632
 20
-1346.3296966161
 30
0.0
 11
1514.3146901087
 21
-1344.8296966161
 31
0.0
  0
ARC
  5
411
330
1F
100
AcDbEntity
  8
0
  6
Continuous
 62
     7
370
    25
100
AcDbCircle
 10
1514.3146901087
 20
-1344.8296966161
 30
0.0
 40
3.0
100
AcDbArc
 50
270.0
 51
330.0
  0
ARC
  5
412
330
1F
100
AcDbEntity
  8
0
  6
Continuous
 62
     7
370
    25
100
AcDbCircle
 10
1546.6463051833
 20
-1300.8296966161
 30
0.0
 40
3.000000000000246
100
AcDbArc
 50
90.0
 51
150.0
  0
LINE
  5
413
330
1F
100
AcDbEntity
  8
0
  6
Continuous
 62
     7
370
    25
100
AcDbLine
 10
1546.6463051833
 20
-1297.8296966161
 30
0.0
 11
1546.6463051833
 21
-1294.8296966161
 31
0.0
  0
ARC
  5
414
330
1F
100
AcDbEntity
  8
0
  6
Continuous
 62
     7
370
    25
100
AcDbCircle
 10
1160.7254665781
 20
-1218.9548542083
 30
0.0
 40
19.9999999999998
100
AcDbArc
 50
266.6560910077
 51
278.240767882
  0
LINE
  5
415
330
1F
100
AcDbEntity
  8
0
  6
Continuous
 62
     7
370
    25
100
AcDbLine
 10
1163.5921297132
 20
-1238.7483441095
 30
0.0
 11
1164.0221291835
 21
-1241.7173675947
 31
0.0
  0
LINE
  5
416
330
1F
100
AcDbEntity
  8
0
  6
Continuous
 62
     7
370
    25
100
AcDbLine
 10
1163.5921297132
 20
-1238.7483441095
 30
0.0
 11
1545.5189769945
 21
-1183.4344192348
 31
0.0
  0
LINE
  5
417
330
1F
100
AcDbEntity
  8
0
  6
Continuous
 62
     7
370
    25
100
AcDbLine
 10
1545.5189769945
 20
-1183.4344192348
 30
0.0
 11
1548.1667967115
 21
-1186.0822389518
 31
0.0
  0
LINE
  5
418
330
1F
100
AcDbEntity
  8
0
  6
Continuous
 62
     7
370
    25
100
AcDbLine
 10
1641.9142543757
 20
-1297.8296966161
 30
0.0
 11
1546.6463051833
 21
-1297.8296966161
 31
0.0
  0
LINE
  5
419
330
1F
100
AcDbEntity
  8
0
  6
Continuous
 62
     7
370
    25
100
AcDbLine
 10
1641.9142543757
 20
-1297.8296966161
 30
0.0
 11
1641.9142543757
 21
-1294.8296966161
 31
0.0
  0
LINE
  5
41A
330
1F
100
AcDbEntity
  8
0
  6
Continuous
 62
     7
370
    25
100
AcDbLine
 10
1644.9142543757
 20
-1294.8296966161
 30
0.0
 11
1641.9142543757
 21
-1294.8296966161
 31
0.0
  0
ARC
  5
41B
330
1F
100
AcDbEntity
  8
0
  6
Continuous
 62
     7
370
    25
100
AcDbCircle
 10
1641.9142543757
 20
-1294.8296966161
 30
0.0
 40
3.000000000000227
100
AcDbArc
 50
270.0
 51
0.0
  0
LINE
  5
41C
330
1F
100
AcDbEntity
  8
0
  6
Continuous
 62
     7
370
    25
100
AcDbLine
 10
1644.9142543757
 20
-1282.8296966161
 30
0.0
 11
1644.9142543757
 21
-1294.8296966161
 31
0.0
  0
LINE
  5
41D
330
1F
100
AcDbEntity
  8
0
  6
Continuous
 62
     7
370
    25
100
AcDbLine
 10
1641.9142543757
 20
-1279.8296966161
 30
0.0
 11
1644.9142543757
 21
-1282.8296966161
 31
0.0
  0
LINE
  5
41E
330
1F
100
AcDbEntity
  8
0
  6
Continuous
 62
     7
370
    25
100
AcDbLine
 10
-1240.0857456243
 20
1057.1703033839
 30
0.0
 11
-1225.0857456243
 21
1057.1703033839
 31
0.0
  0
LINE
  5
41F
330
1F
100
AcDbEntity
  8
0
  6
Continuous
 62
     7
370
    25
100
AcDbLine
 10
-1240.0857456243
 20
997.1703033839
 30
0.0
 11
-1240.0857456243
 21
1057.1703033839
 31
0.0
  0
LINE
  5
420
330
1F
100
AcDbEntity
  8
0
  6
Continuous
 62
     7
370
    25
100
AcDbLine
 10
-1225.0857456243
 20
997.1703033839
 30
0.0
 11
-1240.0857456243
 21
997.1703033839
 31
0.0
  0
LINE
  5
421
330
1F
100
AcDbEntity
  8
0
  6
Continuous
 62
     7
370
    25
100
AcDbLine
 10
-1225.0857456243
 20
1057.1703033839
 30
0.0
 11
-1225.0857456243
 21
997.1703033839
 31
0.0
  0
LINE
  5
422
330
1F
100
AcDbEntity
  8
0
  6
Continuous
 62
     7
370
    25
100
AcDbLine
 10
-1240.0857456243
 20
1237.1703033839
 30
0.0
 11
-1225.0857456243
 21
1237.1703033839
 31
0.0
  0
LINE
  5
423
330
1F
100
AcDbEntity
  8
0
  6
Continuous
 62
     7
370
    25
100
AcDbLine
 10
-1240.0857456243
 20
1177.1703033839
 30
0.0
 11
-1240.0857456243
 21
1237.1703033839
 31
0.0
  0
LINE
  5
424
330
1F
100
AcDbEntity
  8
0
  6
Continuous
 62
     7
370
    25
100
AcDbLine
 10
-1225.0857456243
 20
1177.1703033839
 30
0.0
 11
-1240.0857456243
 21
1177.1703033839
 31
0.0
  0
LINE
  5
425
330
1F
100
AcDbEntity
  8
0
  6
Continuous
 62
     7
370
    25
100
AcDbLine
 10
-1225.0857456243
 20
1237.1703033839
 30
0.0
 11
-1225.0857456243
 21
1177.1703033839
 31
0.0
  0
LINE
  5
426
330
1F
100
AcDbEntity
  8
0
  6
Continuous
 62
     7
370
    25
100
AcDbLine
 10
-1240.0857456243
 20
1417.1703033839
 30
0.0
 11
-1225.0857456243
 21
1417.1703033839
 31
0.0
  0
LINE
  5
427
330
1F
100
AcDbEntity
  8
0
  6
Continuous
 62
     7
370
    25
100
AcDbLine
 10
-1240.0857456243
 20
1357.1703033839
 30
0.0
 11
-1240.0857456243
 21
1417.1703033839
 31
0.0
  0
LINE
  5
428
330
1F
100
AcDbEntity
  8
0
  6
Continuous
 62
     7
370
    25
100
AcDbLine
 10
-1225.0857456243
 20
1357.1703033839
 30
0.0
 11
-1240.0857456243
 21
1357.1703033839
 31
0.0
  0
LINE
  5
429
330
1F
100
AcDbEntity
  8
0
  6
Continuous
 62
     7
370
    25
100
AcDbLine
 10
-1225.0857456243
 20
1417.1703033839
 30
0.0
 11
-1225.0857456243
 21
1357.1703033839
 31
0.0
  0
LINE
  5
42A
330
1F
100
AcDbEntity
  8
0
  6
Continuous
 62
     7
370
    25
100
AcDbLine
 10
-1240.0857456243
 20
362.1703033839
 30
0.0
 11
-1225.0857456243
 21
362.1703033839
 31
0.0
  0
LINE
  5
42B
330
1F
100
AcDbEntity
  8
0
  6
Continuous
 62
     7
370
    25
100
AcDbLine
 10
-1240.0857456243
 20
302.1703033839
 30
0.0
 11
-1240.0857456243
 21
362.1703033839
 31
0.0
  0
LINE
  5
42C
330
1F
100
AcDbEntity
  8
0
  6
Continuous
 62
     7
370
    25
100
AcDbLine
 10
-1225.0857456243
 20
302.1703033839
 30
0.0
 11
-1240.0857456243
 21
302.1703033839
 31
0.0
  0
LINE
  5
42D
330
1F
100
AcDbEntity
  8
0
  6
Continuous
 62
     7
370
    25
100
AcDbLine
 10
-1225.0857456243
 20
362.1703033839
 30
0.0
 11
-1225.0857456243
 21
302.1703033839
 31
0.0
  0
LINE
  5
42E
330
1F
100
AcDbEntity
  8
0
  6
Continuous
 62
     7
370
    25
100
AcDbLine
 10
-1240.0857456243
 20
182.1703033839
 30
0.0
 11
-1225.0857456243
 21
182.1703033839
 31
0.0
  0
LINE
  5
42F
330
1F
100
AcDbEntity
  8
0
  6
Continuous
 62
     7
370
    25
100
AcDbLine
 10
-1240.0857456243
 20
122.1703033839
 30
0.0
 11
-1240.0857456243
 21
182.1703033839
 31
0.0
  0
LINE
  5
430
330
1F
100
AcDbEntity
  8
0
  6
Continuous
 62
     7
370
    25
100
AcDbLine
 10
-1225.0857456243
 20
122.1703033839
 30
0.0
 11
-1240.0857456243
 21
122.1703033839
 31
0.0
  0
LINE
  5
431
330
1F
100
AcDbEntity
  8
0
  6
Continuous
 62
     7
370
    25
100
AcDbLine
 10
-1225.0857456243
 20
182.1703033839
 30
0.0
 11
-1225.0857456243
 21
122.1703033839
 31
0.0
  0
LINE
  5
432
330
1F
100
AcDbEntity
  8
0
  6
Continuous
 62
     7
370
    25
100
AcDbLine
 10
-1240.0857456243
 20
2.1703033839
 30
0.0
 11
-1225.0857456243
 21
2.1703033839
 31
0.0
  0
LINE
  5
433
330
1F
100
AcDbEntity
  8
0
  6
Continuous
 62
     7
370
    25
100
AcDbLine
 10
-1240.0857456243
 20
-57.8296966161
 30
0.0
 11
-1240.0857456243
 21
2.1703033839
 31
0.0
  0
LINE
  5
434
330
1F
100
AcDbEntity
  8
0
  6
Continuous
 62
     7
370
    25
100
AcDbLine
 10
-1225.0857456243
 20
-57.8296966161
 30
0.0
 11
-1240.0857456243
 21
-57.8296966161
 31
0.0
  0
LINE
  5
435
330
1F
100
AcDbEntity
  8
0
  6
Continuous
 62
     7
370
    25
100
AcDbLine
 10
-1225.0857456243
 20
2.1703033839
 30
0.0
 11
-1225.0857456243
 21
-57.8296966161
 31
0.0
  0
LINE
  5
436
330
1F
100
AcDbEntity
  8
0
  6
Continuous
 62
     7
370
    25
100
AcDbLine
 10
-1240.0857456243
 20
-692.8296966161
 30
0.0
 11
-1225.0857456243
 21
-692.8296966161
 31
0.0
  0
LINE
  5
437
330
1F
100
AcDbEntity
  8
0
  6
Continuous
 62
     7
370
    25
100
AcDbLine
 10
-1240.0857456243
 20
-752.8296966161
 30
0.0
 11
-1240.0857456243
 21
-692.8296966161
 31
0.0
  0
LINE
  5
438
330
1F
100
AcDbEntity
  8
0
  6
Continuous
 62
     7
370
    25
100
AcDbLine
 10
-1225.0857456243
 20
-752.8296966161
 30
0.0
 11
-1240.0857456243
 21
-752.8296966161
 31
0.0
  0
LINE
  5
439
330
1F
100
AcDbEntity
  8
0
  6
Continuous
 62
     7
370
    25
100
AcDbLine
 10
-1225.0857456243
 20
-692.8296966161
 30
0.0
 11
-1225.0857456243
 21
-752.8296966161
 31
0.0
  0
LINE
  5
43A
330
1F
100
AcDbEntity
  8
0
  6
Continuous
 62
     7
370
    25
100
AcDbLine
 10
-1240.0857456243
 20
-872.8296966161
 30
0.0
 11
-1225.0857456243
 21
-872.8296966161
 31
0.0
  0
LINE
  5
43B
330
1F
100
AcDbEntity
  8
0
  6
Continuous
 62
     7
370
    25
100
AcDbLine
 10
-1240.0857456243
 20
-932.8296966161
 30
0.0
 11
-1240.0857456243
 21
-872.8296966161
 31
0.0
  0
LINE
  5
43C
330
1F
100
AcDbEntity
  8
0
  6
Continuous
 62
     7
370
    25
100
AcDbLine
 10
-1225.0857456243
 20
-932.8296966161
 30
0.0
 11
-1240.0857456243
 21
-932.8296966161
 31
0.0
  0
LINE
  5
43D
330
1F
100
AcDbEntity
  8
0
  6
Continuous
 62
     7
370
    25
100
AcDbLine
 10
-1225.0857456243
 20
-872.8296966161
 30
0.0
 11
-1225.0857456243
 21
-932.8296966161
 31
0.0
  0
LINE
  5
43E
330
1F
100
AcDbEntity
  8
0
  6
Continuous
 62
     7
370
    25
100
AcDbLine
 10
-1225.0857456243
 20
-1052.8296966161
 30
0.0
 11
-1225.0857456243
 21
-1112.8296966161
 31
0.0
  0
LINE
  5
43F
330
1F
100
AcDbEntity
  8
0
  6
Continuous
 62
     7
370
    25
100
AcDbLine
 10
-1240.0857456243
 20
-1052.8296966161
 30
0.0
 11
-1225.0857456243
 21
-1052.8296966161
 31
0.0
  0
LINE
  5
440
330
1F
100
AcDbEntity
  8
0
  6
Continuous
 62
     7
370
    25
100
AcDbLine
 10
-1240.0857456243
 20
-1112.8296966161
 30
0.0
 11
-1240.0857456243
 21
-1052.8296966161
 31
0.0
  0
LINE
  5
441
330
1F
100
AcDbEntity
  8
0
  6
Continuous
 62
     7
370
    25
100
AcDbLine
 10
-1240.0857456243
 20
-1112.8296966161
 30
0.0
 11
-1225.0857456243
 21
-1112.8296966161
 31
0.0
  0
LINE
  5
442
330
1F
100
AcDbEntity
  8
0
  6
Continuous
 62
     7
370
    25
100
AcDbLine
 10
-1073.1989773184
 20
-797.6493141915
 30
0.0
 11
-1184.1717436209
 21
1101.639946385
 31
0.0
  0
ARC
  5
443
330
1F
100
AcDbEntity
  8
0
  6
Continuous
 62
     7
370
    25
100
AcDbCircle
 10
-1090.1700332695
 20
-798.6409088185
 30
0.0
 40
17.00000000000037
100
AcDbArc
 50
351.759232118
 51
3.3439089923
  0
LINE
  5
444
330
1F
100
AcDbEntity
  8
0
  6
Continuous
 62
     7
370
    25
100
AcDbLine
 10
-1129.2351373549
 20
-1186.9790883467
 30
0.0
 11
-1073.3455668535
 21
-801.0775724833
 31
0.0
  0
LINE
  5
445
330
1F
100
AcDbEntity
  8
0
  6
Continuous
 62
     7
370
    25
100
AcDbLine
 10
-1237.0857456243
 20
-1279.8296966161
 30
0.0
 11
-1222.0857456243
 21
-1279.8296966161
 31
0.0
  0
LINE
  5
446
330
1F
100
AcDbEntity
  8
0
  6
Continuous
 62
     7
370
    25
100
AcDbLine
 10
-1237.0857456243
 20
-1184.5617474237
 30
0.0
 11
-1237.0857456243
 21
-1279.8296966161
 31
0.0
  0
ARC
  5
447
330
1F
100
AcDbEntity
  8
0
  6
Continuous
 62
     7
370
    25
100
AcDbCircle
 10
-1243.0857456243
 20
-1184.5617474237
 30
0.0
 40
6.000000000000296
100
AcDbArc
 50
0.0
 51
60.0
  0
LINE
  5
448
330
1F
100
AcDbEntity
  8
0
  6
Continuous
 62
     7
370
    25
100
AcDbLine
 10
-1287.0857456243
 20
-1152.2301323491
 30
0.0
 11
-1240.0857456243
 21
-1179.365595001
 31
0.0
  0
LINE
  5
449
330
1F
100
AcDbEntity
  8
0
  6
Continuous
 62
     7
370
    25
100
AcDbLine
 10
-1287.0857456243
 20
-455.9292608832
 30
0.0
 11
-1287.0857456243
 21
-1152.2301323491
 31
0.0
  0
LINE
  5
44A
330
1F
100
AcDbEntity
  8
0
  6
Continuous
 62
     7
370
    25
100
AcDbLine
 10
-1240.0857456243
 20
-428.7937982312
 30
0.0
 11
-1287.0857456243
 21
-455.9292608832
 31
0.0
  0
ARC
  5
44B
330
1F
100
AcDbEntity
  8
0
  6
Continuous
 62
     7
370
    25
100
AcDbCircle
 10
-1243.0857456243
 20
-423.5976458085
 30
0.0
 40
6.000000000000447
100
AcDbArc
 50
300.0
 51
360.0
  0
LINE
  5
44C
330
1F
100
AcDbEntity
  8
0
  6
Continuous
 62
     7
370
    25
100
AcDbLine
 10
-1237.0857456243
 20
-327.0617474237
 30
0.0
 11
-1237.0857456243
 21
-423.5976458085
 31
0.0
  0
ARC
  5
44D
330
1F
100
AcDbEntity
  8
0
  6
Continuous
 62
     7
370
    25
100
AcDbCircle
 10
-1243.0857456243
 20
-327.0617474237
 30
0.0
 40
6.000000000000227
100
AcDbArc
 50
0.0
 51
60.0
  0
LINE
  5
44E
330
1F
100
AcDbEntity
  8
0
  6
Continuous
 62
     7
370
    25
100
AcDbLine
 10
-1287.0857456243
 20
-294.7301323491
 30
0.0
 11
-1240.0857456243
 21
-321.865595001
 31
0.0
  0
LINE
  5
44F
330
1F
100
AcDbEntity
  8
0
  6
Continuous
 62
     7
370
    25
100
AcDbLine
 10
-1287.0857456243
 20
599.0707391168
 30
0.0
 11
-1287.0857456243
 21
-294.7301323491
 31
0.0
  0
LINE
  5
450
330
1F
100
AcDbEntity
  8
0
  6
Continuous
 62
     7
370
    25
100
AcDbLine
 10
-1240.0857456243
 20
626.2062017688
 30
0.0
 11
-1287.0857456243
 21
599.0707391168
 31
0.0
  0
ARC
  5
451
330
1F
100
AcDbEntity
  8
0
  6
Continuous
 62
     7
370
    25
100
AcDbCircle
 10
-1243.0857456243
 20
631.4023541915
 30
0.0
 40
6.000000000000114
100
AcDbArc
 50
300.0
 51
360.0
  0
LINE
  5
452
330
1F
100
AcDbEntity
  8
0
  6
Continuous
 62
     7
370
    25
100
AcDbLine
 10
-1237.0857456243
 20
727.9382525763
 30
0.0
 11
-1237.0857456243
 21
631.4023541915
 31
0.0
  0
ARC
  5
453
330
1F
100
AcDbEntity
  8
0
  6
Continuous
 62
     7
370
    25
100
AcDbCircle
 10
-1243.0857456243
 20
727.9382525763
 30
0.0
 40
6.000000000000227
100
AcDbArc
 50
360.0
 51
60.0
  0
LINE
  5
454
330
1F
100
AcDbEntity
  8
0
  6
Continuous
 62
     7
370
    25
100
AcDbLine
 10
-1287.0857456243
 20
760.2698676509
 30
0.0
 11
-1240.0857456243
 21
733.134404999
 31
0.0
  0
LINE
  5
455
330
1F
100
AcDbEntity
  8
0
  6
Continuous
 62
     7
370
    25
100
AcDbLine
 10
-1287.0857456243
 20
1456.5707391168
 30
0.0
 11
-1287.0857456243
 21
760.2698676509
 31
0.0
  0
LINE
  5
456
330
1F
100
AcDbEntity
  8
0
  6
Continuous
 62
     7
370
    25
100
AcDbLine
 10
-1240.0857456243
 20
1483.7062017688
 30
0.0
 11
-1287.0857456243
 21
1456.5707391168
 31
0.0
  0
ARC
  5
457
330
1F
100
AcDbEntity
  8
0
  6
Continuous
 62
     7
370
    25
100
AcDbCircle
 10
-1243.0857456243
 20
1488.9023541915
 30
0.0
 40
5.999999999999773
100
AcDbArc
 50
300.0
 51
0.0
  0
LINE
  5
458
330
1F
100
AcDbEntity
  8
0
  6
Continuous
 62
     7
370
    25
100
AcDbLine
 10
-1237.0857456243
 20
1584.1703033839
 30
0.0
 11
-1237.0857456243
 21
1488.9023541915
 31
0.0
  0
LINE
  5
459
330
1F
100
AcDbEntity
  8
0
  6
Continuous
 62
     7
370
    25
100
AcDbLine
 10
-1222.0857456243
 20
1584.1703033839
 30
0.0
 11
-1237.0857456243
 21
1584.1703033839
 31
0.0
  0
LINE
  5
45A
330
1F
100
AcDbEntity
  8
0
  6
Continuous
 62
     7
370
    25
100
AcDbLine
 10
-1222.0857456243
 20
1584.1703033839
 30
0.0
 11
-1166.7248038961
 21
1528.8093616557
 31
0.0
  0
ARC
  5
45B
330
1F
100
AcDbEntity
  8
0
  6
Continuous
 62
     7
370
    25
100
AcDbCircle
 10
-1164.6034835525
 20
1530.9306819992
 30
0.0
 40
3.000000000000667
100
AcDbArc
 50
225.0
 51
305.4059317731
  0
ARC
  5
45C
330
1F
100
AcDbEntity
  8
0
  6
Continuous
 62
     7
370
    25
100
AcDbCircle
 10
-1154.174903498
 20
1516.2594612577
 30
0.0
 40
15.00000000000021
100
AcDbArc
 50
324.5940682269
 51
125.4059317731
  0
ARC
  5
45D
330
1F
100
AcDbEntity
  8
0
  6
Continuous
 62
     7
370
    25
100
AcDbCircle
 10
-1139.5036827565
 20
1505.8308812032
 30
0.0
 40
3.000000000000169
100
AcDbArc
 50
144.5940682269
 51
225.0
  0
LINE
  5
45E
330
1F
100
AcDbEntity
  8
0
  6
Continuous
 62
     7
370
    25
100
AcDbLine
 10
-1141.6250031
 20
1503.7095608597
 30
0.0
 11
-1128.33828796
 21
1490.4228457196
 31
0.0
  0
LINE
  5
45F
330
1F
100
AcDbEntity
  8
0
  6
Continuous
 62
     7
370
    25
100
AcDbLine
 10
-1183.9734166029
 20
1106.2781781917
 30
0.0
 11
-1128.33828796
 21
1490.4228457196
 31
0.0
  0
ARC
  5
460
330
1F
100
AcDbEntity
  8
0
  6
Continuous
 62
     7
370
    25
100
AcDbCircle
 10
-1161.2109032165
 20
1102.9815155863
 30
0.0
 40
23.00000000000028
100
AcDbArc
 50
171.759232118
 51
183.3439089923
  0
LINE
  5
461
330
1F
100
AcDbEntity
  8
0
  6
Continuous
 62
     7
370
    25
100
AcDbLine
 10
-1237.0857456243
 20
1584.1703033839
 30
0.0
 11
-1240.0857456243
 21
1584.1703033839
 31
0.0
  0
ARC
  5
462
330
1F
100
AcDbEntity
  8
0
  6
Continuous
 62
     7
370
    25
100
AcDbCircle
 10
-1237.0857456243
 20
1584.1703033839
 30
0.0
 40
3.0
100
AcDbArc
 50
90.0
 51
180.0
  0
LINE
  5
463
330
1F
100
AcDbEntity
  8
0
  6
Continuous
 62
     7
370
    25
100
AcDbLine
 10
-1237.0857456243
 20
1584.1703033839
 30
0.0
 11
-1237.0857456243
 21
1587.1703033839
 31
0.0
  0
LINE
  5
464
330
1F
100
AcDbEntity
  8
0
  6
Continuous
 62
     7
370
    25
100
AcDbLine
 10
-1237.0857456243
 20
1587.1703033839
 30
0.0
 11
-1225.0857456243
 21
1587.1703033839
 31
0.0
  0
LINE
  5
465
330
1F
100
AcDbEntity
  8
0
  6
Continuous
 62
     7
370
    25
100
AcDbLine
 10
-1225.0857456243
 20
1587.1703033839
 30
0.0
 11
-1222.0857456243
 21
1584.1703033839
 31
0.0
  0
LINE
  5
466
330
1F
100
AcDbEntity
  8
0
  6
Continuous
 62
     7
370
    25
100
AcDbLine
 10
-1237.0857456243
 20
1488.9023541915
 30
0.0
 11
-1240.0857456243
 21
1488.9023541915
 31
0.0
  0
LINE
  5
467
330
1F
100
AcDbEntity
  8
0
  6
Continuous
 62
     7
370
    25
100
AcDbLine
 10
-1240.0857456243
 20
1488.9023541915
 30
0.0
 11
-1240.0857456243
 21
1584.1703033839
 31
0.0
  0
LINE
  5
468
330
1F
100
AcDbEntity
  8
0
  6
Continuous
 62
     7
370
    25
100
AcDbLine
 10
-1287.0857456243
 20
1456.5707391168
 30
0.0
 11
-1288.5857456243
 21
1459.1688153282
 31
0.0
  0
LINE
  5
469
330
1F
100
AcDbEntity
  8
0
  6
Continuous
 62
     7
370
    25
100
AcDbLine
 10
-1288.5857456243
 20
1459.1688153282
 30
0.0
 11
-1241.5857456243
 21
1486.3042779801
 31
0.0
  0
LINE
  5
46A
330
1F
100
AcDbEntity
  8
0
  6
Continuous
 62
     7
370
    25
100
AcDbLine
 10
-1240.0857456243
 20
1483.7062017688
 30
0.0
 11
-1241.5857456243
 21
1486.3042779801
 31
0.0
  0
LINE
  5
46B
330
1F
100
AcDbEntity
  8
0
  6
Continuous
 62
     7
370
    25
100
AcDbLine
 10
-1128.33828796
 20
1490.4228457196
 30
0.0
 11
-1125.690468243
 21
1487.7750260026
 31
0.0
  0
LINE
  5
46C
330
1F
100
AcDbEntity
  8
0
  6
Continuous
 62
     7
370
    25
100
AcDbLine
 10
-1125.690468243
 20
1487.7750260026
 30
0.0
 11
-1181.0043931177
 21
1105.8481787214
 31
0.0
  0
LINE
  5
46D
330
1F
100
AcDbEntity
  8
0
  6
Continuous
 62
     7
370
    25
100
AcDbLine
 10
-1183.9734166029
 20
1106.2781781917
 30
0.0
 11
-1181.0043931177
 21
1105.8481787214
 31
0.0
  0
ARC
  5
46E
330
1F
100
AcDbEntity
  8
0
  6
Continuous
 62
     7
370
    25
100
AcDbCircle
 10
-1243.0857456243
 20
1488.9023541915
 30
0.0
 40
3.00000000000036
100
AcDbArc
 50
300.0
 51
0.0
  0
LINE
  5
46F
330
1F
100
AcDbEntity
  8
0
  6
Continuous
 62
     7
370
    25
100
AcDbLine
 10
-1287.0857456243
 20
1456.5707391168
 30
0.0
 11
-1290.0857456243
 21
1456.5707391168
 31
0.0
  0
ARC
  5
470
330
1F
100
AcDbEntity
  8
0
  6
Continuous
 62
     7
370
    25
100
AcDbCircle
 10
-1287.0857456243
 20
1456.5707391168
 30
0.0
 40
3.0
100
AcDbArc
 50
120.0
 51
180.0
  0
LINE
  5
471
330
1F
100
AcDbEntity
  8
0
  6
Continuous
 62
     7
370
    25
100
AcDbLine
 10
-1287.0857456243
 20
760.2698676509
 30
0.0
 11
-1290.0857456243
 21
760.2698676509
 31
0.0
  0
LINE
  5
472
330
1F
100
AcDbEntity
  8
0
  6
Continuous
 62
     7
370
    25
100
AcDbLine
 10
-1290.0857456243
 20
760.2698676509
 30
0.0
 11
-1290.0857456243
 21
1456.5707391168
 31
0.0
  0
ARC
  5
473
330
1F
100
AcDbEntity
  8
0
  6
Continuous
 62
     7
370
    25
100
AcDbCircle
 10
-1161.2109032165
 20
1102.9815155863
 30
0.0
 40
20.00000000000003
100
AcDbArc
 50
171.759232118
 51
183.3439089923
  0
LINE
  5
474
330
1F
100
AcDbEntity
  8
0
  6
Continuous
 62
     7
370
    25
100
AcDbLine
 10
-1184.1717436209
 20
1101.639946385
 30
0.0
 11
-1181.1768513943
 21
1101.8149336721
 31
0.0
  0
LINE
  5
475
330
1F
100
AcDbEntity
  8
0
  6
Continuous
 62
     7
370
    25
100
AcDbLine
 10
-1181.1768513943
 20
1101.8149336721
 30
0.0
 11
-1070.2040850918
 21
-797.4743269044
 31
0.0
  0
LINE
  5
476
330
1F
100
AcDbEntity
  8
0
  6
Continuous
 62
     7
370
    25
100
AcDbLine
 10
-1073.1989773184
 20
-797.6493141915
 30
0.0
 11
-1070.2040850918
 21
-797.4743269044
 31
0.0
  0
LINE
  5
477
330
1F
100
AcDbEntity
  8
0
  6
Continuous
 62
     7
370
    25
100
AcDbLine
 10
-1237.0857456243
 20
631.4023541915
 30
0.0
 11
-1240.0857456243
 21
631.4023541915
 31
0.0
  0
LINE
  5
478
330
1F
100
AcDbEntity
  8
0
  6
Continuous
 62
     7
370
    25
100
AcDbLine
 10
-1240.0857456243
 20
631.4023541915
 30
0.0
 11
-1240.0857456243
 21
727.9382525763
 31
0.0
  0
LINE
  5
479
330
1F
100
AcDbEntity
  8
0
  6
Continuous
 62
     7
370
    25
100
AcDbLine
 10
-1237.0857456243
 20
727.9382525763
 30
0.0
 11
-1240.0857456243
 21
727.9382525763
 31
0.0
  0
LINE
  5
47A
330
1F
100
AcDbEntity
  8
0
  6
Continuous
 62
     7
370
    25
100
AcDbLine
 10
-1240.0857456243
 20
626.2062017688
 30
0.0
 11
-1241.5857456243
 21
628.8042779801
 31
0.0
  0
ARC
  5
47B
330
1F
100
AcDbEntity
  8
0
  6
Continuous
 62
     7
370
    25
100
AcDbCircle
 10
-1243.0857456243
 20
631.4023541915
 30
0.0
 40
3.000000000000064
100
AcDbArc
 50
300.0
 51
0.0
  0
LINE
  5
47C
330
1F
100
AcDbEntity
  8
0
  6
Continuous
 62
     7
370
    25
100
AcDbLine
 10
-1287.0857456243
 20
599.0707391168
 30
0.0
 11
-1288.5857456243
 21
601.6688153282
 31
0.0
  0
LINE
  5
47D
330
1F
100
AcDbEntity
  8
0
  6
Continuous
 62
     7
370
    25
100
AcDbLine
 10
-1288.5857456243
 20
601.6688153282
 30
0.0
 11
-1241.5857456243
 21
628.8042779801
 31
0.0
  0
LINE
  5
47E
330
1F
100
AcDbEntity
  8
0
  6
Continuous
 62
     7
370
    25
100
AcDbLine
 10
-1240.0857456243
 20
733.134404999
 30
0.0
 11
-1241.5857456243
 21
730.5363287877
 31
0.0
  0
LINE
  5
47F
330
1F
100
AcDbEntity
  8
0
  6
Continuous
 62
     7
370
    25
100
AcDbLine
 10
-1241.5857456243
 20
730.5363287877
 30
0.0
 11
-1288.5857456243
 21
757.6717914396
 31
0.0
  0
LINE
  5
480
330
1F
100
AcDbEntity
  8
0
  6
Continuous
 62
     7
370
    25
100
AcDbLine
 10
-1287.0857456243
 20
760.2698676509
 30
0.0
 11
-1288.5857456243
 21
757.6717914396
 31
0.0
  0
ARC
  5
481
330
1F
100
AcDbEntity
  8
0
  6
Continuous
 62
     7
370
    25
100
AcDbCircle
 10
-1243.0857456243
 20
727.9382525763
 30
0.0
 40
3.000000000000227
100
AcDbArc
 50
360.0
 51
60.0
  0
LINE
  5
482
330
1F
100
AcDbEntity
  8
0
  6
Continuous
 62
     7
370
    25
100
AcDbLine
 10
-1287.0857456243
 20
599.0707391168
 30
0.0
 11
-1290.0857456243
 21
599.0707391168
 31
0.0
  0
ARC
  5
483
330
1F
100
AcDbEntity
  8
0
  6
Continuous
 62
     7
370
    25
100
AcDbCircle
 10
-1287.0857456243
 20
599.0707391168
 30
0.0
 40
3.00000000000064
100
AcDbArc
 50
120.0
 51
180.0
  0
LINE
  5
484
330
1F
100
AcDbEntity
  8
0
  6
Continuous
 62
     7
370
    25
100
AcDbLine
 10
-1287.0857456243
 20
-294.7301323491
 30
0.0
 11
-1290.0857456243
 21
-294.7301323491
 31
0.0
  0
LINE
  5
485
330
1F
100
AcDbEntity
  8
0
  6
Continuous
 62
     7
370
    25
100
AcDbLine
 10
-1290.0857456243
 20
-294.7301323491
 30
0.0
 11
-1290.0857456243
 21
599.0707391168
 31
0.0
  0
ARC
  5
486
330
1F
100
AcDbEntity
  8
0
  6
Continuous
 62
     7
370
    25
100
AcDbCircle
 10
-1287.0857456243
 20
760.2698676509
 30
0.0
 40
3.00000000000036
100
AcDbArc
 50
180.0
 51
240.0
  0
LINE
  5
487
330
1F
100
AcDbEntity
  8
0
  6
Continuous
 62
     7
370
    25
100
AcDbLine
 10
-1237.0857456243
 20
-423.5976458085
 30
0.0
 11
-1240.0857456243
 21
-423.5976458085
 31
0.0
  0
LINE
  5
488
330
1F
100
AcDbEntity
  8
0
  6
Continuous
 62
     7
370
    25
100
AcDbLine
 10
-1240.0857456243
 20
-423.5976458085
 30
0.0
 11
-1240.0857456243
 21
-327.0617474237
 31
0.0
  0
LINE
  5
489
330
1F
100
AcDbEntity
  8
0
  6
Continuous
 62
     7
370
    25
100
AcDbLine
 10
-1237.0857456243
 20
-327.0617474237
 30
0.0
 11
-1240.0857456243
 21
-327.0617474237
 31
0.0
  0
LINE
  5
48A
330
1F
100
AcDbEntity
  8
0
  6
Continuous
 62
     7
370
    25
100
AcDbLine
 10
-1240.0857456243
 20
-428.7937982312
 30
0.0
 11
-1241.5857456243
 21
-426.1957220199
 31
0.0
  0
ARC
  5
48B
330
1F
100
AcDbEntity
  8
0
  6
Continuous
 62
     7
370
    25
100
AcDbCircle
 10
-1243.0857456243
 20
-423.5976458085
 30
0.0
 40
3.000000000001098
100
AcDbArc
 50
300.0
 51
360.0
  0
LINE
  5
48C
330
1F
100
AcDbEntity
  8
0
  6
Continuous
 62
     7
370
    25
100
AcDbLine
 10
-1287.0857456243
 20
-455.9292608832
 30
0.0
 11
-1288.5857456243
 21
-453.3311846718
 31
0.0
  0
LINE
  5
48D
330
1F
100
AcDbEntity
  8
0
  6
Continuous
 62
     7
370
    25
100
AcDbLine
 10
-1288.5857456243
 20
-453.3311846718
 30
0.0
 11
-1241.5857456243
 21
-426.1957220199
 31
0.0
  0
LINE
  5
48E
330
1F
100
AcDbEntity
  8
0
  6
Continuous
 62
     7
370
    25
100
AcDbLine
 10
-1240.0857456243
 20
-321.865595001
 30
0.0
 11
-1241.5857456243
 21
-324.4636712123
 31
0.0
  0
LINE
  5
48F
330
1F
100
AcDbEntity
  8
0
  6
Continuous
 62
     7
370
    25
100
AcDbLine
 10
-1241.5857456243
 20
-324.4636712123
 30
0.0
 11
-1288.5857456243
 21
-297.3282085604
 31
0.0
  0
LINE
  5
490
330
1F
100
AcDbEntity
  8
0
  6
Continuous
 62
     7
370
    25
100
AcDbLine
 10
-1287.0857456243
 20
-294.7301323491
 30
0.0
 11
-1288.5857456243
 21
-297.3282085604
 31
0.0
  0
ARC
  5
491
330
1F
100
AcDbEntity
  8
0
  6
Continuous
 62
     7
370
    25
100
AcDbCircle
 10
-1243.0857456243
 20
-327.0617474237
 30
0.0
 40
3.0
100
AcDbArc
 50
360.0
 51
60.0
  0
LINE
  5
492
330
1F
100
AcDbEntity
  8
0
  6
Continuous
 62
     7
370
    25
100
AcDbLine
 10
-1287.0857456243
 20
-1152.2301323491
 30
0.0
 11
-1290.0857456243
 21
-1152.2301323491
 31
0.0
  0
LINE
  5
493
330
1F
100
AcDbEntity
  8
0
  6
Continuous
 62
     7
370
    25
100
AcDbLine
 10
-1290.0857456243
 20
-1152.2301323491
 30
0.0
 11
-1290.0857456243
 21
-455.9292608832
 31
0.0
  0
LINE
  5
494
330
1F
100
AcDbEntity
  8
0
  6
Continuous
 62
     7
370
    25
100
AcDbLine
 10
-1287.0857456243
 20
-455.9292608832
 30
0.0
 11
-1290.0857456243
 21
-455.9292608832
 31
0.0
  0
ARC
  5
495
330
1F
100
AcDbEntity
  8
0
  6
Continuous
 62
     7
370
    25
100
AcDbCircle
 10
-1287.0857456243
 20
-455.9292608832
 30
0.0
 40
2.999999999999545
100
AcDbArc
 50
120.0
 51
180.0
  0
ARC
  5
496
330
1F
100
AcDbEntity
  8
0
  6
Continuous
 62
     7
370
    25
100
AcDbCircle
 10
-1287.0857456243
 20
-294.7301323491
 30
0.0
 40
3.000000000000394
100
AcDbArc
 50
180.0
 51
240.0
  0
ARC
  5
497
330
1F
100
AcDbEntity
  8
0
  6
Continuous
 62
     7
370
    25
100
AcDbCircle
 10
-1090.1700332695
 20
-798.6409088185
 30
0.0
 40
20.00000000000014
100
AcDbArc
 50
351.759232118
 51
3.3439089923
  0
LINE
  5
498
330
1F
100
AcDbEntity
  8
0
  6
Continuous
 62
     7
370
    25
100
AcDbLine
 10
-1073.3455668535
 20
-801.0775724833
 30
0.0
 11
-1070.3765433683
 21
-801.5075719536
 31
0.0
  0
LINE
  5
499
330
1F
100
AcDbEntity
  8
0
  6
Continuous
 62
     7
370
    25
100
AcDbLine
 10
-1070.3765433683
 20
-801.5075719536
 30
0.0
 11
-1125.690468243
 21
-1183.4344192348
 31
0.0
  0
LINE
  5
49A
330
1F
100
AcDbEntity
  8
0
  6
Continuous
 62
     7
370
    25
100
AcDbLine
 10
-1125.690468243
 20
-1183.4344192348
 30
0.0
 11
-1129.2351373549
 21
-1186.9790883467
 31
0.0
  0
LINE
  5
49B
330
1F
100
AcDbEntity
  8
0
  6
Continuous
 62
     7
370
    25
100
AcDbLine
 10
-1237.0857456243
 20
-1279.8296966161
 30
0.0
 11
-1240.0857456243
 21
-1279.8296966161
 31
0.0
  0
LINE
  5
49C
330
1F
100
AcDbEntity
  8
0
  6
Continuous
 62
     7
370
    25
100
AcDbLine
 10
-1240.0857456243
 20
-1279.8296966161
 30
0.0
 11
-1240.0857456243
 21
-1184.5617474237
 31
0.0
  0
LINE
  5
49D
330
1F
100
AcDbEntity
  8
0
  6
Continuous
 62
     7
370
    25
100
AcDbLine
 10
-1237.0857456243
 20
-1184.5617474237
 30
0.0
 11
-1240.0857456243
 21
-1184.5617474237
 31
0.0
  0
ARC
  5
49E
330
1F
100
AcDbEntity
  8
0
  6
Continuous
 62
     7
370
    25
100
AcDbCircle
 10
-1243.0857456243
 20
-1184.5617474237
 30
0.0
 40
3.000000000000246
100
AcDbArc
 50
0.0
 51
60.0
  0
LINE
  5
49F
330
1F
100
AcDbEntity
  8
0
  6
Continuous
 62
     7
370
    25
100
AcDbLine
 10
-1240.0857456243
 20
-1179.365595001
 30
0.0
 11
-1241.5857456243
 21
-1181.9636712123
 31
0.0
  0
LINE
  5
4A0
330
1F
100
AcDbEntity
  8
0
  6
Continuous
 62
     7
370
    25
100
AcDbLine
 10
-1287.0857456243
 20
-1152.2301323491
 30
0.0
 11
-1288.5857456243
 21
-1154.8282085604
 31
0.0
  0
ARC
  5
4A1
330
1F
100
AcDbEntity
  8
0
  6
Continuous
 62
     7
370
    25
100
AcDbCircle
 10
-1287.0857456243
 20
-1152.2301323491
 30
0.0
 40
3.000000000000019
100
AcDbArc
 50
180.0
 51
240.0
  0
LINE
  5
4A2
330
1F
100
AcDbEntity
  8
0
  6
Continuous
 62
     7
370
    25
100
AcDbLine
 10
-1241.5857456243
 20
-1181.9636712123
 30
0.0
 11
-1288.5857456243
 21
-1154.8282085604
 31
0.0
  0
LINE
  5
4A3
330
1F
100
AcDbEntity
  8
0
  6
Continuous
 62
     7
370
    25
100
AcDbLine
 10
-1225.0857456243
 20
-1282.8296966161
 30
0.0
 11
-1237.0857456243
 21
-1282.8296966161
 31
0.0
  0
LINE
  5
4A4
330
1F
100
AcDbEntity
  8
0
  6
Continuous
 62
     7
370
    25
100
AcDbLine
 10
-1237.0857456243
 20
-1279.8296966161
 30
0.0
 11
-1237.0857456243
 21
-1282.8296966161
 31
0.0
  0
LINE
  5
4A5
330
1F
100
AcDbEntity
  8
0
  6
Continuous
 62
     7
370
    25
100
AcDbLine
 10
-1222.0857456243
 20
-1279.8296966161
 30
0.0
 11
-1225.0857456243
 21
-1282.8296966161
 31
0.0
  0
ARC
  5
4A6
330
1F
100
AcDbEntity
  8
0
  6
Continuous
 62
     7
370
    25
100
AcDbCircle
 10
-1237.0857456243
 20
-1279.8296966161
 30
0.0
 40
3.0
100
AcDbArc
 50
180.0
 51
270.0
  0
LINE
  5
4A7
330
1F
100
AcDbEntity
  8
0
  6
Continuous
 62
     7
370
    25
100
AcDbLine
 10
-635.0857456242
 20
1587.1703033839
 30
0.0
 11
-635.0857456242
 21
1602.1703033839
 31
0.0
  0
LINE
  5
4A8
330
1F
100
AcDbEntity
  8
0
  6
Continuous
 62
     7
370
    25
100
AcDbLine
 10
-635.0857456242
 20
1602.1703033839
 30
0.0
 11
-695.0857456242
 21
1602.1703033839
 31
0.0
  0
LINE
  5
4A9
330
1F
100
AcDbEntity
  8
0
  6
Continuous
 62
     7
370
    25
100
AcDbLine
 10
-695.0857456242
 20
1602.1703033839
 30
0.0
 11
-695.0857456242
 21
1587.1703033839
 31
0.0
  0
LINE
  5
4AA
330
1F
100
AcDbEntity
  8
0
  6
Continuous
 62
     7
370
    25
100
AcDbLine
 10
-695.0857456242
 20
1587.1703033839
 30
0.0
 11
-635.0857456242
 21
1587.1703033839
 31
0.0
  0
LINE
  5
4AB
330
1F
100
AcDbEntity
  8
0
  6
Continuous
 62
     7
370
    25
100
AcDbLine
 10
-815.0857456242
 20
1587.1703033839
 30
0.0
 11
-815.0857456242
 21
1602.1703033839
 31
0.0
  0
LINE
  5
4AC
330
1F
100
AcDbEntity
  8
0
  6
Continuous
 62
     7
370
    25
100
AcDbLine
 10
-815.0857456242
 20
1602.1703033839
 30
0.0
 11
-875.0857456242
 21
1602.1703033839
 31
0.0
  0
LINE
  5
4AD
330
1F
100
AcDbEntity
  8
0
  6
Continuous
 62
     7
370
    25
100
AcDbLine
 10
-875.0857456242
 20
1602.1703033839
 30
0.0
 11
-875.0857456242
 21
1587.1703033839
 31
0.0
  0
LINE
  5
4AE
330
1F
100
AcDbEntity
  8
0
  6
Continuous
 62
     7
370
    25
100
AcDbLine
 10
-875.0857456242
 20
1587.1703033839
 30
0.0
 11
-815.0857456242
 21
1587.1703033839
 31
0.0
  0
LINE
  5
4AF
330
1F
100
AcDbEntity
  8
0
  6
Continuous
 62
     7
370
    25
100
AcDbLine
 10
-995.0857456242
 20
1587.1703033839
 30
0.0
 11
-995.0857456242
 21
1602.1703033839
 31
0.0
  0
LINE
  5
4B0
330
1F
100
AcDbEntity
  8
0
  6
Continuous
 62
     7
370
    25
100
AcDbLine
 10
-995.0857456242
 20
1602.1703033839
 30
0.0
 11
-1055.0857456242
 21
1602.1703033839
 31
0.0
  0
LINE
  5
4B1
330
1F
100
AcDbEntity
  8
0
  6
Continuous
 62
     7
370
    25
100
AcDbLine
 10
-1055.0857456242
 20
1602.1703033839
 30
0.0
 11
-1055.0857456242
 21
1587.1703033839
 31
0.0
  0
LINE
  5
4B2
330
1F
100
AcDbEntity
  8
0
  6
Continuous
 62
     7
370
    25
100
AcDbLine
 10
-1055.0857456242
 20
1587.1703033839
 30
0.0
 11
-995.0857456242
 21
1587.1703033839
 31
0.0
  0
LINE
  5
4B3
330
1F
100
AcDbEntity
  8
0
  6
Continuous
 62
     7
370
    25
100
AcDbLine
 10
59.9142543758
 20
1587.1703033839
 30
0.0
 11
59.9142543758
 21
1602.1703033839
 31
0.0
  0
LINE
  5
4B4
330
1F
100
AcDbEntity
  8
0
  6
Continuous
 62
     7
370
    25
100
AcDbLine
 10
59.9142543758
 20
1602.1703033839
 30
0.0
 11
-0.0857456242
 21
1602.1703033839
 31
0.0
  0
LINE
  5
4B5
330
1F
100
AcDbEntity
  8
0
  6
Continuous
 62
     7
370
    25
100
AcDbLine
 10
-0.0857456242
 20
1602.1703033839
 30
0.0
 11
-0.0857456242
 21
1587.1703033839
 31
0.0
  0
LINE
  5
4B6
330
1F
100
AcDbEntity
  8
0
  6
Continuous
 62
     7
370
    25
100
AcDbLine
 10
-0.0857456242
 20
1587.1703033839
 30
0.0
 11
59.9142543758
 21
1587.1703033839
 31
0.0
  0
LINE
  5
4B7
330
1F
100
AcDbEntity
  8
0
  6
Continuous
 62
     7
370
    25
100
AcDbLine
 10
239.9142543758
 20
1587.1703033839
 30
0.0
 11
239.9142543758
 21
1602.1703033839
 31
0.0
  0
LINE
  5
4B8
330
1F
100
AcDbEntity
  8
0
  6
Continuous
 62
     7
370
    25
100
AcDbLine
 10
239.9142543758
 20
1602.1703033839
 30
0.0
 11
179.9142543758
 21
1602.1703033839
 31
0.0
  0
LINE
  5
4B9
330
1F
100
AcDbEntity
  8
0
  6
Continuous
 62
     7
370
    25
100
AcDbLine
 10
179.9142543758
 20
1602.1703033839
 30
0.0
 11
179.9142543758
 21
1587.1703033839
 31
0.0
  0
LINE
  5
4BA
330
1F
100
AcDbEntity
  8
0
  6
Continuous
 62
     7
370
    25
100
AcDbLine
 10
179.9142543758
 20
1587.1703033839
 30
0.0
 11
239.9142543758
 21
1587.1703033839
 31
0.0
  0
LINE
  5
4BB
330
1F
100
AcDbEntity
  8
0
  6
Continuous
 62
     7
370
    25
100
AcDbLine
 10
419.9142543758
 20
1587.1703033839
 30
0.0
 11
419.9142543758
 21
1602.1703033839
 31
0.0
  0
LINE
  5
4BC
330
1F
100
AcDbEntity
  8
0
  6
Continuous
 62
     7
370
    25
100
AcDbLine
 10
419.9142543758
 20
1602.1703033839
 30
0.0
 11
359.9142543758
 21
1602.1703033839
 31
0.0
  0
LINE
  5
4BD
330
1F
100
AcDbEntity
  8
0
  6
Continuous
 62
     7
370
    25
100
AcDbLine
 10
359.9142543758
 20
1602.1703033839
 30
0.0
 11
359.9142543758
 21
1587.1703033839
 31
0.0
  0
LINE
  5
4BE
330
1F
100
AcDbEntity
  8
0
  6
Continuous
 62
     7
370
    25
100
AcDbLine
 10
359.9142543758
 20
1587.1703033839
 30
0.0
 11
419.9142543758
 21
1587.1703033839
 31
0.0
  0
LINE
  5
4BF
330
1F
100
AcDbEntity
  8
0
  6
Continuous
 62
     7
370
    25
100
AcDbLine
 10
1114.9142543758
 20
1587.1703033839
 30
0.0
 11
1114.9142543758
 21
1602.1703033839
 31
0.0
  0
LINE
  5
4C0
330
1F
100
AcDbEntity
  8
0
  6
Continuous
 62
     7
370
    25
100
AcDbLine
 10
1114.9142543758
 20
1602.1703033839
 30
0.0
 11
1054.9142543758
 21
1602.1703033839
 31
0.0
  0
LINE
  5
4C1
330
1F
100
AcDbEntity
  8
0
  6
Continuous
 62
     7
370
    25
100
AcDbLine
 10
1054.9142543758
 20
1602.1703033839
 30
0.0
 11
1054.9142543758
 21
1587.1703033839
 31
0.0
  0
LINE
  5
4C2
330
1F
100
AcDbEntity
  8
0
  6
Continuous
 62
     7
370
    25
100
AcDbLine
 10
1054.9142543758
 20
1587.1703033839
 30
0.0
 11
1114.9142543758
 21
1587.1703033839
 31
0.0
  0
LINE
  5
4C3
330
1F
100
AcDbEntity
  8
0
  6
Continuous
 62
     7
370
    25
100
AcDbLine
 10
1294.9142543758
 20
1587.1703033839
 30
0.0
 11
1294.9142543758
 21
1602.1703033839
 31
0.0
  0
LINE
  5
4C4
330
1F
100
AcDbEntity
  8
0
  6
Continuous
 62
     7
370
    25
100
AcDbLine
 10
1294.9142543758
 20
1602.1703033839
 30
0.0
 11
1234.9142543758
 21
1602.1703033839
 31
0.0
  0
LINE
  5
4C5
330
1F
100
AcDbEntity
  8
0
  6
Continuous
 62
     7
370
    25
100
AcDbLine
 10
1234.9142543758
 20
1602.1703033839
 30
0.0
 11
1234.9142543758
 21
1587.1703033839
 31
0.0
  0
LINE
  5
4C6
330
1F
100
AcDbEntity
  8
0
  6
Continuous
 62
     7
370
    25
100
AcDbLine
 10
1234.9142543758
 20
1587.1703033839
 30
0.0
 11
1294.9142543758
 21
1587.1703033839
 31
0.0
  0
LINE
  5
4C7
330
1F
100
AcDbEntity
  8
0
  6
Continuous
 62
     7
370
    25
100
AcDbLine
 10
1474.9142543758
 20
1602.1703033839
 30
0.0
 11
1414.9142543758
 21
1602.1703033839
 31
0.0
  0
LINE
  5
4C8
330
1F
100
AcDbEntity
  8
0
  6
Continuous
 62
     7
370
    25
100
AcDbLine
 10
1414.9142543758
 20
1602.1703033839
 30
0.0
 11
1414.9142543758
 21
1587.1703033839
 31
0.0
  0
LINE
  5
4C9
330
1F
100
AcDbEntity
  8
0
  6
Continuous
 62
     7
370
    25
100
AcDbLine
 10
1414.9142543758
 20
1587.1703033839
 30
0.0
 11
1474.9142543758
 21
1587.1703033839
 31
0.0
  0
LINE
  5
4CA
330
1F
100
AcDbEntity
  8
0
  6
Continuous
 62
     7
370
    25
100
AcDbLine
 10
1474.9142543758
 20
1602.1703033839
 30
0.0
 11
1474.9142543758
 21
1587.1703033839
 31
0.0
  0
LINE
  5
4CB
330
1F
100
AcDbEntity
  8
0
  6
Continuous
 62
     7
370
    25
100
AcDbLine
 10
-1222.0857456242
 20
1599.1703033839
 30
0.0
 11
-1222.0857456242
 21
1584.1703033839
 31
0.0
  0
LINE
  5
4CC
330
1F
100
AcDbEntity
  8
0
  6
Continuous
 62
     7
370
    25
100
AcDbLine
 10
-1126.8177964318
 20
1599.1703033839
 30
0.0
 11
-1222.0857456242
 21
1599.1703033839
 31
0.0
  0
ARC
  5
4CD
330
1F
100
AcDbEntity
  8
0
  6
Continuous
 62
     7
370
    25
100
AcDbCircle
 10
-1126.8177964318
 20
1605.1703033839
 30
0.0
 40
5.999999999999773
100
AcDbArc
 50
270.0
 51
330.0
  0
LINE
  5
4CE
330
1F
100
AcDbEntity
  8
0
  6
Continuous
 62
     7
370
    25
100
AcDbLine
 10
-1094.4861813572
 20
1649.1703033839
 30
0.0
 11
-1121.6216440091
 21
1602.1703033839
 31
0.0
  0
LINE
  5
4CF
330
1F
100
AcDbEntity
  8
0
  6
Continuous
 62
     7
370
    25
100
AcDbLine
 10
-398.1853098913
 20
1649.1703033839
 30
0.0
 11
-1094.4861813572
 21
1649.1703033839
 31
0.0
  0
LINE
  5
4D0
330
1F
100
AcDbEntity
  8
0
  6
Continuous
 62
     7
370
    25
100
AcDbLine
 10
-371.0498472394
 20
1602.1703033839
 30
0.0
 11
-398.1853098913
 21
1649.1703033839
 31
0.0
  0
ARC
  5
4D1
330
1F
100
AcDbEntity
  8
0
  6
Continuous
 62
     7
370
    25
100
AcDbCircle
 10
-365.8536948167
 20
1605.1703033839
 30
0.0
 40
6.000000000000227
100
AcDbArc
 50
210.0
 51
270.0
  0
LINE
  5
4D2
330
1F
100
AcDbEntity
  8
0
  6
Continuous
 62
     7
370
    25
100
AcDbLine
 10
-269.3177964318
 20
1599.1703033839
 30
0.0
 11
-365.8536948167
 21
1599.1703033839
 31
0.0
  0
ARC
  5
4D3
330
1F
100
AcDbEntity
  8
0
  6
Continuous
 62
     7
370
    25
100
AcDbCircle
 10
-269.3177964318
 20
1605.1703033839
 30
0.0
 40
6.000000000000114
100
AcDbArc
 50
270.0
 51
330.0
  0
LINE
  5
4D4
330
1F
100
AcDbEntity
  8
0
  6
Continuous
 62
     7
370
    25
100
AcDbLine
 10
-236.9861813572
 20
1649.1703033839
 30
0.0
 11
-264.1216440091
 21
1602.1703033839
 31
0.0
  0
LINE
  5
4D5
330
1F
100
AcDbEntity
  8
0
  6
Continuous
 62
     7
370
    25
100
AcDbLine
 10
656.8146901087
 20
1649.1703033839
 30
0.0
 11
-236.9861813572
 21
1649.1703033839
 31
0.0
  0
LINE
  5
4D6
330
1F
100
AcDbEntity
  8
0
  6
Continuous
 62
     7
370
    25
100
AcDbLine
 10
683.9501527606
 20
1602.1703033839
 30
0.0
 11
656.8146901087
 21
1649.1703033839
 31
0.0
  0
ARC
  5
4D7
330
1F
100
AcDbEntity
  8
0
  6
Continuous
 62
     7
370
    25
100
AcDbCircle
 10
689.1463051833
 20
1605.1703033839
 30
0.0
 40
6.000000000000227
100
AcDbArc
 50
210.0
 51
270.0
  0
LINE
  5
4D8
330
1F
100
AcDbEntity
  8
0
  6
Continuous
 62
     7
370
    25
100
AcDbLine
 10
785.6822035682
 20
1599.1703033839
 30
0.0
 11
689.1463051833
 21
1599.1703033839
 31
0.0
  0
ARC
  5
4D9
330
1F
100
AcDbEntity
  8
0
  6
Continuous
 62
     7
370
    25
100
AcDbCircle
 10
785.6822035682
 20
1605.1703033839
 30
0.0
 40
6.000000000000447
100
AcDbArc
 50
270.0
 51
330.0
  0
LINE
  5
4DA
330
1F
100
AcDbEntity
  8
0
  6
Continuous
 62
     7
370
    25
100
AcDbLine
 10
818.0138186428
 20
1649.1703033839
 30
0.0
 11
790.8783559909
 21
1602.1703033839
 31
0.0
  0
LINE
  5
4DB
330
1F
100
AcDbEntity
  8
0
  6
Continuous
 62
     7
370
    25
100
AcDbLine
 10
1514.3146901087
 20
1649.1703033839
 30
0.0
 11
818.0138186428
 21
1649.1703033839
 31
0.0
  0
LINE
  5
4DC
330
1F
100
AcDbEntity
  8
0
  6
Continuous
 62
     7
370
    25
100
AcDbLine
 10
1541.4501527606
 20
1602.1703033839
 30
0.0
 11
1514.3146901087
 21
1649.1703033839
 31
0.0
  0
ARC
  5
4DD
330
1F
100
AcDbEntity
  8
0
  6
Continuous
 62
     7
370
    25
100
AcDbCircle
 10
1546.6463051833
 20
1605.1703033839
 30
0.0
 40
6.000000000000886
100
AcDbArc
 50
210.0
 51
270.0
  0
LINE
  5
4DE
330
1F
100
AcDbEntity
  8
0
  6
Continuous
 62
     7
370
    25
100
AcDbLine
 10
1641.9142543758
 20
1599.1703033839
 30
0.0
 11
1546.6463051833
 21
1599.1703033839
 31
0.0
  0
LINE
  5
4DF
330
1F
100
AcDbEntity
  8
0
  6
Continuous
 62
     7
370
    25
100
AcDbLine
 10
1641.9142543758
 20
1584.1703033839
 30
0.0
 11
1641.9142543758
 21
1599.1703033839
 31
0.0
  0
LINE
  5
4E0
330
1F
100
AcDbEntity
  8
0
  6
Continuous
 62
     7
370
    25
100
AcDbLine
 10
1163.162130243
 20
1435.4301246131
 30
0.0
 11
1549.0636461064
 21
1491.3196951145
 31
0.0
  0
ARC
  5
4E1
330
1F
100
AcDbEntity
  8
0
  6
Continuous
 62
     7
370
    25
100
AcDbCircle
 10
1160.7254665782
 20
1452.2545910291
 30
0.0
 40
17.00000000000079
100
AcDbArc
 50
266.6560910077
 51
278.240767882
  0
LINE
  5
4E2
330
1F
100
AcDbEntity
  8
0
  6
Continuous
 62
     7
370
    25
100
AcDbLine
 10
-739.5553886253
 20
1546.2563013805
 30
0.0
 11
1159.7338719511
 21
1435.283535078
 31
0.0
  0
ARC
  5
4E3
330
1F
100
AcDbEntity
  8
0
  6
Continuous
 62
     7
370
    25
100
AcDbCircle
 10
-740.8969578266
 20
1523.2954609761
 30
0.0
 40
23.00000000000067
100
AcDbArc
 50
86.6560910077
 51
98.240767882
  0
LINE
  5
4E4
330
1F
100
AcDbEntity
  8
0
  6
Continuous
 62
     7
370
    25
100
AcDbLine
 10
-1128.33828796
 20
1490.4228457196
 30
0.0
 11
-744.193620432
 21
1546.0579743625
 31
0.0
  0
LINE
  5
4E5
330
1F
100
AcDbEntity
  8
0
  6
Continuous
 62
     7
370
    25
100
AcDbLine
 10
1644.9142543758
 20
1599.1703033839
 30
0.0
 11
1641.9142543758
 21
1599.1703033839
 31
0.0
  0
LINE
  5
4E6
330
1F
100
AcDbEntity
  8
0
  6
Continuous
 62
     7
370
    25
100
AcDbLine
 10
1644.9142543758
 20
1599.1703033839
 30
0.0
 11
1644.9142543758
 21
1587.1703033839
 31
0.0
  0
LINE
  5
4E7
330
1F
100
AcDbEntity
  8
0
  6
Continuous
 62
     7
370
    25
100
AcDbLine
 10
1644.9142543758
 20
1587.1703033839
 30
0.0
 11
1641.9142543758
 21
1584.1703033839
 31
0.0
  0
LINE
  5
4E8
330
1F
100
AcDbEntity
  8
0
  6
Continuous
 62
     7
370
    25
100
AcDbLine
 10
1546.6463051833
 20
1602.1703033839
 30
0.0
 11
1546.6463051833
 21
1599.1703033839
 31
0.0
  0
LINE
  5
4E9
330
1F
100
AcDbEntity
  8
0
  6
Continuous
 62
     7
370
    25
100
AcDbLine
 10
1546.6463051833
 20
1602.1703033839
 30
0.0
 11
1641.9142543758
 21
1602.1703033839
 31
0.0
  0
LINE
  5
4EA
330
1F
100
AcDbEntity
  8
0
  6
Continuous
 62
     7
370
    25
100
AcDbLine
 10
1641.9142543758
 20
1602.1703033839
 30
0.0
 11
1641.9142543758
 21
1599.1703033839
 31
0.0
  0
ARC
  5
4EB
330
1F
100
AcDbEntity
  8
0
  6
Continuous
 62
     7
370
    25
100
AcDbCircle
 10
1641.9142543758
 20
1599.1703033839
 30
0.0
 40
3.000000000000227
100
AcDbArc
 50
360.0
 51
90.0
  0
LINE
  5
4EC
330
1F
100
AcDbEntity
  8
0
  6
Continuous
 62
     7
370
    25
100
AcDbLine
 10
1545.5189769945
 20
1487.7750260026
 30
0.0
 11
1163.5921297133
 21
1432.4611011279
 31
0.0
  0
LINE
  5
4ED
330
1F
100
AcDbEntity
  8
0
  6
Continuous
 62
     7
370
    25
100
AcDbLine
 10
1163.5921297133
 20
1432.4611011279
 30
0.0
 11
1163.162130243
 21
1435.4301246131
 31
0.0
  0
LINE
  5
4EE
330
1F
100
AcDbEntity
  8
0
  6
Continuous
 62
     7
370
    25
100
AcDbLine
 10
1549.0636461064
 20
1491.3196951145
 30
0.0
 11
1545.5189769945
 21
1487.7750260026
 31
0.0
  0
LINE
  5
4EF
330
1F
100
AcDbEntity
  8
0
  6
Continuous
 62
     7
370
    25
100
AcDbLine
 10
1516.9127663201
 20
1650.6703033839
 30
0.0
 11
1514.3146901087
 21
1649.1703033839
 31
0.0
  0
LINE
  5
4F0
330
1F
100
AcDbEntity
  8
0
  6
Continuous
 62
     7
370
    25
100
AcDbLine
 10
1514.3146901087
 20
1652.1703033839
 30
0.0
 11
1514.3146901087
 21
1649.1703033839
 31
0.0
  0
ARC
  5
4F1
330
1F
100
AcDbEntity
  8
0
  6
Continuous
 62
     7
370
    25
100
AcDbCircle
 10
1514.3146901087
 20
1649.1703033839
 30
0.0
 40
3.000000000000019
100
AcDbArc
 50
30.0
 51
90.0
  0
LINE
  5
4F2
330
1F
100
AcDbEntity
  8
0
  6
Continuous
 62
     7
370
    25
100
AcDbLine
 10
818.0138186428
 20
1652.1703033839
 30
0.0
 11
818.0138186428
 21
1649.1703033839
 31
0.0
  0
LINE
  5
4F3
330
1F
100
AcDbEntity
  8
0
  6
Continuous
 62
     7
370
    25
100
AcDbLine
 10
818.0138186428
 20
1652.1703033839
 30
0.0
 11
1514.3146901087
 21
1652.1703033839
 31
0.0
  0
LINE
  5
4F4
330
1F
100
AcDbEntity
  8
0
  6
Continuous
 62
     7
370
    25
100
AcDbLine
 10
1516.9127663201
 20
1650.6703033839
 30
0.0
 11
1544.048228972
 21
1603.6703033839
 31
0.0
  0
LINE
  5
4F5
330
1F
100
AcDbEntity
  8
0
  6
Continuous
 62
     7
370
    25
100
AcDbLine
 10
1544.048228972
 20
1603.6703033839
 30
0.0
 11
1541.4501527606
 21
1602.1703033839
 31
0.0
  0
ARC
  5
4F6
330
1F
100
AcDbEntity
  8
0
  6
Continuous
 62
     7
370
    25
100
AcDbCircle
 10
1546.6463051833
 20
1605.1703033839
 30
0.0
 40
3.000000000000246
100
AcDbArc
 50
210.0
 51
270.0
  0
LINE
  5
4F7
330
1F
100
AcDbEntity
  8
0
  6
Continuous
 62
     7
370
    25
100
AcDbLine
 10
659.4127663201
 20
1650.6703033839
 30
0.0
 11
686.548228972
 21
1603.6703033839
 31
0.0
  0
LINE
  5
4F8
330
1F
100
AcDbEntity
  8
0
  6
Continuous
 62
     7
370
    25
100
AcDbLine
 10
686.548228972
 20
1603.6703033839
 30
0.0
 11
683.9501527606
 21
1602.1703033839
 31
0.0
  0
LINE
  5
4F9
330
1F
100
AcDbEntity
  8
0
  6
Continuous
 62
     7
370
    25
100
AcDbLine
 10
659.4127663201
 20
1650.6703033839
 30
0.0
 11
656.8146901087
 21
1649.1703033839
 31
0.0
  0
LINE
  5
4FA
330
1F
100
AcDbEntity
  8
0
  6
Continuous
 62
     7
370
    25
100
AcDbLine
 10
656.8146901087
 20
1652.1703033839
 30
0.0
 11
656.8146901087
 21
1649.1703033839
 31
0.0
  0
ARC
  5
4FB
330
1F
100
AcDbEntity
  8
0
  6
Continuous
 62
     7
370
    25
100
AcDbCircle
 10
656.8146901087
 20
1649.1703033839
 30
0.0
 40
3.000000000000443
100
AcDbArc
 50
30.0
 51
90.0
  0
LINE
  5
4FC
330
1F
100
AcDbEntity
  8
0
  6
Continuous
 62
     7
370
    25
100
AcDbLine
 10
-236.9861813572
 20
1652.1703033839
 30
0.0
 11
-236.9861813572
 21
1649.1703033839
 31
0.0
  0
LINE
  5
4FD
330
1F
100
AcDbEntity
  8
0
  6
Continuous
 62
     7
370
    25
100
AcDbLine
 10
-236.9861813572
 20
1652.1703033839
 30
0.0
 11
656.8146901087
 21
1652.1703033839
 31
0.0
  0
LINE
  5
4FE
330
1F
100
AcDbEntity
  8
0
  6
Continuous
 62
     7
370
    25
100
AcDbLine
 10
1159.558884664
 20
1432.2886428513
 30
0.0
 11
-739.7303759125
 21
1543.2614091539
 31
0.0
  0
LINE
  5
4FF
330
1F
100
AcDbEntity
  8
0
  6
Continuous
 62
     7
370
    25
100
AcDbLine
 10
-739.7303759125
 20
1543.2614091539
 30
0.0
 11
-739.5553886253
 21
1546.2563013805
 31
0.0
  0
LINE
  5
500
330
1F
100
AcDbEntity
  8
0
  6
Continuous
 62
     7
370
    25
100
AcDbLine
 10
1159.558884664
 20
1432.2886428513
 30
0.0
 11
1159.7338719511
 21
1435.283535078
 31
0.0
  0
ARC
  5
501
330
1F
100
AcDbEntity
  8
0
  6
Continuous
 62
     7
370
    25
100
AcDbCircle
 10
1160.7254665782
 20
1452.2545910291
 30
0.0
 40
20.0000000000005
100
AcDbArc
 50
266.6560910077
 51
278.240767882
  0
ARC
  5
502
330
1F
100
AcDbEntity
  8
0
  6
Continuous
 62
     7
370
    25
100
AcDbCircle
 10
689.1463051833
 20
1605.1703033839
 30
0.0
 40
3.000000000000227
100
AcDbArc
 50
210.0
 51
270.0
  0
LINE
  5
503
330
1F
100
AcDbEntity
  8
0
  6
Continuous
 62
     7
370
    25
100
AcDbLine
 10
689.1463051833
 20
1602.1703033839
 30
0.0
 11
689.1463051833
 21
1599.1703033839
 31
0.0
  0
LINE
  5
504
330
1F
100
AcDbEntity
  8
0
  6
Continuous
 62
     7
370
    25
100
AcDbLine
 10
689.1463051833
 20
1602.1703033839
 30
0.0
 11
785.6822035682
 21
1602.1703033839
 31
0.0
  0
LINE
  5
505
330
1F
100
AcDbEntity
  8
0
  6
Continuous
 62
     7
370
    25
100
AcDbLine
 10
785.6822035682
 20
1602.1703033839
 30
0.0
 11
785.6822035682
 21
1599.1703033839
 31
0.0
  0
LINE
  5
506
330
1F
100
AcDbEntity
  8
0
  6
Continuous
 62
     7
370
    25
100
AcDbLine
 10
815.4157424315
 20
1650.6703033839
 30
0.0
 11
818.0138186428
 21
1649.1703033839
 31
0.0
  0
ARC
  5
507
330
1F
100
AcDbEntity
  8
0
  6
Continuous
 62
     7
370
    25
100
AcDbCircle
 10
818.0138186428
 20
1649.1703033839
 30
0.0
 40
2.999999999999545
100
AcDbArc
 50
90.0
 51
150.0
  0
LINE
  5
508
330
1F
100
AcDbEntity
  8
0
  6
Continuous
 62
     7
370
    25
100
AcDbLine
 10
788.2802797796
 20
1603.6703033839
 30
0.0
 11
790.8783559909
 21
1602.1703033839
 31
0.0
  0
LINE
  5
509
330
1F
100
AcDbEntity
  8
0
  6
Continuous
 62
     7
370
    25
100
AcDbLine
 10
788.2802797796
 20
1603.6703033839
 30
0.0
 11
815.4157424315
 21
1650.6703033839
 31
0.0
  0
ARC
  5
50A
330
1F
100
AcDbEntity
  8
0
  6
Continuous
 62
     7
370
    25
100
AcDbCircle
 10
785.6822035682
 20
1605.1703033839
 30
0.0
 40
3.000000000000936
100
AcDbArc
 50
270.0
 51
330.0
  0
LINE
  5
50B
330
1F
100
AcDbEntity
  8
0
  6
Continuous
 62
     7
370
    25
100
AcDbLine
 10
-395.5872336799
 20
1650.6703033839
 30
0.0
 11
-368.451771028
 21
1603.6703033839
 31
0.0
  0
LINE
  5
50C
330
1F
100
AcDbEntity
  8
0
  6
Continuous
 62
     7
370
    25
100
AcDbLine
 10
-368.451771028
 20
1603.6703033839
 30
0.0
 11
-371.0498472394
 21
1602.1703033839
 31
0.0
  0
LINE
  5
50D
330
1F
100
AcDbEntity
  8
0
  6
Continuous
 62
     7
370
    25
100
AcDbLine
 10
-395.5872336799
 20
1650.6703033839
 30
0.0
 11
-398.1853098913
 21
1649.1703033839
 31
0.0
  0
LINE
  5
50E
330
1F
100
AcDbEntity
  8
0
  6
Continuous
 62
     7
370
    25
100
AcDbLine
 10
-398.1853098913
 20
1652.1703033839
 30
0.0
 11
-398.1853098913
 21
1649.1703033839
 31
0.0
  0
ARC
  5
50F
330
1F
100
AcDbEntity
  8
0
  6
Continuous
 62
     7
370
    25
100
AcDbCircle
 10
-398.1853098913
 20
1649.1703033839
 30
0.0
 40
3.000000000000458
100
AcDbArc
 50
30.0
 51
90.0
  0
LINE
  5
510
330
1F
100
AcDbEntity
  8
0
  6
Continuous
 62
     7
370
    25
100
AcDbLine
 10
-1094.4861813572
 20
1652.1703033839
 30
0.0
 11
-1094.4861813572
 21
1649.1703033839
 31
0.0
  0
LINE
  5
511
330
1F
100
AcDbEntity
  8
0
  6
Continuous
 62
     7
370
    25
100
AcDbLine
 10
-1094.4861813572
 20
1652.1703033839
 30
0.0
 11
-398.1853098913
 21
1652.1703033839
 31
0.0
  0
LINE
  5
512
330
1F
100
AcDbEntity
  8
0
  6
Continuous
 62
     7
370
    25
100
AcDbLine
 10
-239.5842575685
 20
1650.6703033839
 30
0.0
 11
-236.9861813572
 21
1649.1703033839
 31
0.0
  0
ARC
  5
513
330
1F
100
AcDbEntity
  8
0
  6
Continuous
 62
     7
370
    25
100
AcDbCircle
 10
-236.9861813572
 20
1649.1703033839
 30
0.0
 40
3.000000000000566
100
AcDbArc
 50
90.0
 51
150.0
  0
ARC
  5
514
330
1F
100
AcDbEntity
  8
0
  6
Continuous
 62
     7
370
    25
100
AcDbCircle
 10
-365.8536948167
 20
1605.1703033839
 30
0.0
 40
3.0
100
AcDbArc
 50
210.0
 51
270.0
  0
LINE
  5
515
330
1F
100
AcDbEntity
  8
0
  6
Continuous
 62
     7
370
    25
100
AcDbLine
 10
-365.8536948167
 20
1602.1703033839
 30
0.0
 11
-365.8536948167
 21
1599.1703033839
 31
0.0
  0
LINE
  5
516
330
1F
100
AcDbEntity
  8
0
  6
Continuous
 62
     7
370
    25
100
AcDbLine
 10
-266.7197202204
 20
1603.6703033839
 30
0.0
 11
-264.1216440091
 21
1602.1703033839
 31
0.0
  0
LINE
  5
517
330
1F
100
AcDbEntity
  8
0
  6
Continuous
 62
     7
370
    25
100
AcDbLine
 10
-266.7197202204
 20
1603.6703033839
 30
0.0
 11
-239.5842575685
 21
1650.6703033839
 31
0.0
  0
LINE
  5
518
330
1F
100
AcDbEntity
  8
0
  6
Continuous
 62
     7
370
    25
100
AcDbLine
 10
-365.8536948167
 20
1602.1703033839
 30
0.0
 11
-269.3177964318
 21
1602.1703033839
 31
0.0
  0
LINE
  5
519
330
1F
100
AcDbEntity
  8
0
  6
Continuous
 62
     7
370
    25
100
AcDbLine
 10
-269.3177964318
 20
1602.1703033839
 30
0.0
 11
-269.3177964318
 21
1599.1703033839
 31
0.0
  0
ARC
  5
51A
330
1F
100
AcDbEntity
  8
0
  6
Continuous
 62
     7
370
    25
100
AcDbCircle
 10
-269.3177964318
 20
1605.1703033839
 30
0.0
 40
3.000000000000114
100
AcDbArc
 50
270.0
 51
330.0
  0
LINE
  5
51B
330
1F
100
AcDbEntity
  8
0
  6
Continuous
 62
     7
370
    25
100
AcDbLine
 10
-1097.0842575685
 20
1650.6703033839
 30
0.0
 11
-1094.4861813572
 21
1649.1703033839
 31
0.0
  0
ARC
  5
51C
330
1F
100
AcDbEntity
  8
0
  6
Continuous
 62
     7
370
    25
100
AcDbCircle
 10
-1094.4861813572
 20
1649.1703033839
 30
0.0
 40
3.0
100
AcDbArc
 50
90.0
 51
150.0
  0
LINE
  5
51D
330
1F
100
AcDbEntity
  8
0
  6
Continuous
 62
     7
370
    25
100
AcDbLine
 10
-1124.2197202204
 20
1603.6703033839
 30
0.0
 11
-1121.6216440091
 21
1602.1703033839
 31
0.0
  0
LINE
  5
51E
330
1F
100
AcDbEntity
  8
0
  6
Continuous
 62
     7
370
    25
100
AcDbLine
 10
-1124.2197202204
 20
1603.6703033839
 30
0.0
 11
-1097.0842575685
 21
1650.6703033839
 31
0.0
  0
LINE
  5
51F
330
1F
100
AcDbEntity
  8
0
  6
Continuous
 62
     7
370
    25
100
AcDbLine
 10
-743.7636209617
 20
1543.0889508773
 30
0.0
 11
-1125.690468243
 21
1487.7750260026
 31
0.0
  0
LINE
  5
520
330
1F
100
AcDbEntity
  8
0
  6
Continuous
 62
     7
370
    25
100
AcDbLine
 10
-743.7636209617
 20
1543.0889508773
 30
0.0
 11
-744.193620432
 21
1546.0579743625
 31
0.0
  0
LINE
  5
521
330
1F
100
AcDbEntity
  8
0
  6
Continuous
 62
     7
370
    25
100
AcDbLine
 10
-1125.690468243
 20
1487.7750260026
 30
0.0
 11
-1128.33828796
 21
1490.4228457196
 31
0.0
  0
ARC
  5
522
330
1F
100
AcDbEntity
  8
0
  6
Continuous
 62
     7
370
    25
100
AcDbCircle
 10
-740.8969578266
 20
1523.2954609761
 30
0.0
 40
20.00000000000005
100
AcDbArc
 50
86.6560910077
 51
98.240767882
  0
LINE
  5
523
330
1F
100
AcDbEntity
  8
0
  6
Continuous
 62
     7
370
    25
100
AcDbLine
 10
-1222.0857456242
 20
1602.1703033839
 30
0.0
 11
-1126.8177964318
 21
1602.1703033839
 31
0.0
  0
LINE
  5
524
330
1F
100
AcDbEntity
  8
0
  6
Continuous
 62
     7
370
    25
100
AcDbLine
 10
-1126.8177964318
 20
1602.1703033839
 30
0.0
 11
-1126.8177964318
 21
1599.1703033839
 31
0.0
  0
LINE
  5
525
330
1F
100
AcDbEntity
  8
0
  6
Continuous
 62
     7
370
    25
100
AcDbLine
 10
-1222.0857456242
 20
1602.1703033839
 30
0.0
 11
-1222.0857456242
 21
1599.1703033839
 31
0.0
  0
ARC
  5
526
330
1F
100
AcDbEntity
  8
0
  6
Continuous
 62
     7
370
    25
100
AcDbCircle
 10
-1126.8177964318
 20
1605.1703033839
 30
0.0
 40
3.000000000000049
100
AcDbArc
 50
270.0
 51
330.0
  0
LINE
  5
527
330
1F
100
AcDbEntity
  8
0
  6
Continuous
 62
     7
370
    25
100
AcDbLine
 10
-1225.0857456242
 20
1599.1703033839
 30
0.0
 11
-1222.0857456242
 21
1599.1703033839
 31
0.0
  0
ARC
  5
528
330
1F
100
AcDbEntity
  8
0
  6
Continuous
 62
     7
370
    25
100
AcDbCircle
 10
-1222.0857456242
 20
1599.1703033839
 30
0.0
 40
3.0
100
AcDbArc
 50
90.0
 51
180.0
  0
LINE
  5
529
330
1F
100
AcDbEntity
  8
0
  6
Continuous
 62
     7
370
    25
100
AcDbLine
 10
-1225.0857456242
 20
1587.1703033839
 30
0.0
 11
-1225.0857456242
 21
1599.1703033839
 31
0.0
  0
LINE
  5
52A
330
1F
100
AcDbEntity
  8
0
  6
Continuous
 62
     7
370
    25
100
AcDbLine
 10
-1222.0857456242
 20
1584.1703033839
 30
0.0
 11
-1225.0857456242
 21
1587.1703033839
 31
0.0
  0
LWPOLYLINE
  5
52B
330
1F
100
AcDbEntity
  8
0
  6
Continuous
 62
     8
370
    25
100
AcDbPolyline
 90
       11
 70
   128
 43
0.0
 10
-623.2794118712
 20
-1134.7521000493
 10
-655.0383135141
 20
-1127.2605602703
 10
-712.0811884649
 20
-1114.1798822665
 10
-769.1339829419
 20
-1101.2307538317
 10
-848.6017128758
 20
-1083.2764398962
 10
-928.1891747692
 20
-1065.7682356106
 10
-968.0935823846
 20
-1057.2953465682
 10
-1008.088328481
 20
-1049.1641005557
 10
-1048.1981943274
 20
-1041.5526362776
 10
-1088.447961193
 20
-1034.6390924385
 10
-1103.7958918712
 20
-1032.2586249804
  0
LWPOLYLINE
  5
52C
330
1F
100
AcDbEntity
  8
0
  6
Continuous
 62
     8
370
    25
100
AcDbPolyline
 90
       12
 70
   128
 43
0.0
 10
613.3598952743
 20
1203.1821306872
 10
613.4157867161
 20
1203.3620287381
 10
621.5415429707
 20
1229.2909092824
 10
629.7900918842
 20
1255.1677540245
 10
638.153224768
 20
1280.9673532572
 10
646.6227329341
 20
1306.6644972736
 10
655.1904076939
 20
1332.2339763665
 10
666.013426841
 20
1363.9581751387
 10
676.9838420923
 20
1395.5117164771
 10
688.0953284068
 20
1426.9002894147
 10
699.3415607437
 20
1458.1295829846
 10
699.7185873473
 20
1459.1564564645
  0
LWPOLYLINE
  5
52D
330
1F
100
AcDbEntity
  8
0
  6
Continuous
 62
     8
370
    25
100
AcDbPolyline
 90
       16
 70
   128
 43
0.0
 10
-63.5693851294
 20
1503.7542855311
 10
-49.2695021413
 20
1498.347852257
 10
13.8425483206
 20
1473.7254165025
 10
76.6762668675
 20
1448.3861329687
 10
139.2474676057
 20
1422.3674071226
 10
201.5719646421
 20
1395.7066444311
 10
253.4093394649
 20
1372.9768406358
 10
305.0897670935
 20
1349.8034884996
 10
356.6100513697
 20
1326.1884135492
 10
407.9669961355
 20
1302.1334413109
 10
449.0298998528
 20
1282.5020371243
 10
490.0202558814
 20
1262.6450656271
 10
531.0014792801
 20
1242.7166655556
 10
572.0369851079
 20
1222.8709756462
 10
613.1901884238
 20
1203.2621346353
 10
613.3598952743
 20
1203.1821306872
  0
LWPOLYLINE
  5
52E
330
1F
100
AcDbEntity
  8
0
  6
Continuous
 62
     8
370
    25
100
AcDbPolyline
 90
       14
 70
   128
 43
0.0
 10
723.1047718246
 20
1457.7900350149
 10
712.6970135674
 20
1432.0770190739
 10
696.7087184749
 20
1393.3280655376
 10
683.4860251352
 20
1361.8464971085
 10
670.0261769367
 20
1330.3251345801
 10
656.3259648457
 20
1298.7773644823
 10
645.8206574342
 20
1274.9471555225
 10
635.1779838903
 20
1251.1149025132
 10
627.2400083205
 20
1233.536118575
 10
619.2339413223
 20
1215.9699750616
 10
615.3173786062
 20
1207.4343856629
 10
614.0377037066
 20
1204.6535101283
 10
613.4387351289
 20
1203.3532196675
 10
613.3598952743
 20
1203.1821306872
  0
LWPOLYLINE
  5
52F
330
1F
100
AcDbEntity
  8
0
  6
Continuous
 62
     8
370
    25
100
AcDbPolyline
 90
       21
 70
   128
 43
0.0
 10
-148.5145672241
 20
-781.568700237
 10
-148.5460873484
 20
-781.7070660161
 10
-153.0082502411
 20
-800.7648358138
 10
-157.6994812039
 20
-819.7452399874
 10
-162.6186697634
 20
-838.5986636139
 10
-167.7647054463
 20
-857.2754917699
 10
-173.1241094868
 20
-875.7196132704
 10
-178.7021443815
 20
-893.9928054096
 10
-184.4896357849
 20
-912.0945345761
 10
-190.4774093518
 20
-930.0242671587
 10
-199.3979473876
 20
-955.4490122967
 10
-208.7332340677
 20
-980.6229317218
 10
-218.5010353838
 20
-1005.6004812829
 10
-227.1060819148
 20
-1026.4610435775
 10
-236.1162252883
 20
-1047.2536814464
 10
-245.4899484298
 20
-1068.0146963145
 10
-255.185734265
 20
-1088.7803896069
 10
-265.1620657195
 20
-1109.5870627487
 10
-273.9883081281
 20
-1127.8820641368
 10
-282.7818894138
 20
-1146.2989988885
 10
-286.6171052325
 20
-1154.4227991118
  0
LWPOLYLINE
  5
530
330
1F
100
AcDbEntity
  8
0
  6
Continuous
 62
     8
370
    25
100
AcDbPolyline
 90
       81
 70
   128
 43
0.0
 10
1567.6304581218
 20
-226.2657763843
 10
1547.8039289907
 20
-219.8596984473
 10
1499.4398634271
 20
-203.6473099548
 10
1451.2610151631
 20
-186.7895729068
 10
1403.3107486089
 20
-169.1809558104
 10
1381.2204019603
 20
-160.7895566758
 10
1359.1828854311
 20
-152.1886481695
 10
1337.2654874625
 20
-143.26261238
 10
1315.5354964956
 20
-133.895831396
 10
1294.0602009717
 20
-123.972687306
 10
1272.9068893319
 20
-113.3775621987
 10
1260.9365078709
 20
-106.8883280438
 10
1249.2184497862
 20
-99.942736325
 10
1237.8818636515
 20
-92.4078790751
 10
1229.7701062796
 20
-86.3130194927
 10
1222.0931404735
 20
-79.6662155373
 10
1215.0774783309
 20
-72.3643647646
 10
1211.1541473699
 20
-67.4285644713
 10
1207.6706326381
 20
-62.1625939292
 10
1204.7378719881
 20
-56.5949383001
 10
1202.5010828595
 20
-50.8900279988
 10
1200.9021247283
 20
-44.9594354553
 10
1199.9591265533
 20
-38.9147342973
 10
1199.6793002013
 20
-30.8193663601
 10
1200.3355406499
 20
-22.7251296389
 10
1201.7448983708
 20
-14.7549006779
 10
1204.1489022576
 20
-5.4811396252
 10
1207.1704071083
 20
3.6084840943
 10
1210.6861950499
 20
12.523286739
 10
1214.5730482097
 20
21.2725845676
 10
1218.7077487148
 20
29.8656938385
 10
1226.2258695148
 20
44.3822341414
 10
1234.1593998247
 20
58.6360154912
 10
1242.3667726586
 20
72.6915438681
 10
1259.6964529218
 20
101.240747226
 10
1277.1614586486
 20
129.6251970405
 10
1285.7948515947
 20
143.8843007411
 10
1294.2246688374
 20
158.2776664615
 10
1302.2708198613
 20
172.8952429206
 10
1309.7532141511
 20
187.8269788372
 10
1313.346698554
 20
195.7157005004
 10
1316.6535384389
 20
203.7768084946
 10
1319.5175732624
 20
212.0082848863
 10
1321.7826424813
 20
220.4081117416
 10
1323.2925855521
 20
228.9742711268
 10
1323.7750825299
 20
234.9984469208
 10
1323.66243053
 20
241.0684713414
 10
1322.8499566766
 20
247.0774232058
 10
1321.5233140557
 20
252.0951361762
 10
1319.6083447276
 20
256.9514621966
 10
1317.1422361978
 20
261.5409823684
 10
1315.796541462
 20
263.5971139978
 10
1312.2337362482
 20
268.1841377529
 10
1308.2295971253
 20
272.4254678814
 10
1303.8991364719
 20
276.3564273859
 10
1299.3573666664
 20
280.0123392687
 10
1290.5529849816
 20
286.2624274968
 10
1281.3651195809
 20
291.9550683951
 10
1271.9081393071
 20
297.2058438314
 10
1262.2964130032
 20
302.1303356734
 10
1242.3785543673
 20
311.4991915392
 10
1222.1658036012
 20
320.184893149
 10
1190.4841553664
 20
332.9277842889
 10
1158.5802638018
 20
345.0533033362
 10
1126.5232158212
 20
356.7409779983
 10
1094.3820983384
 20
368.1703359823
 10
1062.2259982674
 20
379.5209049958
 10
981.8217881565
 20
407.9779844687
 10
901.4882486363
 20
436.7163525256
 10
849.1481617972
 20
455.7746624238
 10
796.868380496
 20
475.1272644915
 10
744.6711883105
 20
494.8159044164
 10
692.5788688181
 20
514.8823278865
 10
640.6137055965
 20
535.3682805896
 10
588.7979822231
 20
556.3155082134
 10
540.6277188975
 20
576.3826066446
 10
492.688181102
 20
597.0497301928
 10
444.9466762446
 20
618.3363207932
 10
406.0493212207
 20
636.176344619
 10
397.4364302806
 20
640.1855605169
 10
397.2747309824
 20
640.2610321478
  0
LWPOLYLINE
  5
531
330
1F
100
AcDbEntity
  8
0
  6
Continuous
 62
     8
370
    25
100
AcDbPolyline
 90
       83
 70
   128
 43
0.0
 10
397.2747309824
 20
640.2610321478
 10
397.1040646074
 20
640.3131437448
 10
347.0828540458
 20
655.9055792772
 10
297.2482192294
 20
672.0849636264
 10
247.6252912101
 20
688.8560136271
 10
198.2392010399
 20
706.2234461144
 10
148.8832152115
 20
724.1737230975
 10
99.7047467495
 20
742.5223321388
 10
50.6946112446
 20
761.2203616431
 10
1.8436242874
 20
780.2189000151
 10
-59.5458903432
 20
804.5988236581
 10
-120.7207027391
 20
829.38301694
 10
-181.7520222674
 20
854.4351363256
 10
-242.7110582953
 20
879.6188382794
 10
-303.6690201901
 20
904.7977792659
 10
-329.4506813201
 20
915.4548825442
 10
-355.2766035726
 20
926.0597274911
 10
-381.2048687739
 20
936.4340441827
 10
-407.2935587505
 20
946.3995626953
 10
-433.6007553288
 20
955.7780131051
 10
-460.1845403352
 20
964.3911254882
 10
-474.5475570807
 20
968.5660506605
 10
-489.0752258372
 20
972.1742012518
 10
-503.7794444846
 20
974.934947871
 10
-512.0230018583
 20
975.9777064382
 10
-520.3246007349
 20
976.4904338491
 10
-528.6189209983
 20
976.2764714546
 10
-534.2296071578
 20
975.5777860709
 10
-539.7488357572
 20
974.3091110978
 10
-545.0471273699
 20
972.4023230423
 10
-550.1719422922
 20
969.7278290881
 10
-554.9203654464
 20
966.4080112745
 10
-559.2110577227
 20
962.567522462
 10
-564.027884257
 20
957.0601566462
 10
-568.2081740815
 20
951.0470823343
 10
-571.8300172176
 20
944.7142112615
 10
-576.3163812477
 20
935.2766616917
 10
-580.1351843259
 20
925.5617237265
 10
-583.4035583876
 20
915.637190202
 10
-586.2386353682
 20
905.5708539546
 10
-588.7575472029
 20
895.4305078204
 10
-591.0774258272
 20
885.2839446358
 10
-595.5235020448
 20
864.0440106046
 10
-599.5699674218
 20
842.7292142889
 10
-603.4624041811
 20
821.3752263031
 10
-606.9264529344
 20
802.3801274405
 10
-610.5405717448
 20
783.3640591205
 10
-614.5177438674
 20
764.3861269064
 10
-619.0709525569
 20
745.5054363613
 10
-624.4131810683
 20
726.7810930486
 10
-627.3851003047
 20
717.7132870293
 10
-630.7295612028
 20
708.7181527268
 10
-634.5674274422
 20
699.9182227278
 10
-639.0195627023
 20
691.4360296192
 10
-644.2068306627
 20
683.3941059877
 10
-648.2625107599
 20
678.2406015839
 10
-652.7981773853
 20
673.4747973644
 10
-657.8065144201
 20
669.22989636
 10
-662.6360790245
 20
665.9946840413
 10
-667.7977418885
 20
663.2737313629
 10
-673.1993773071
 20
661.0980497405
 10
-678.9043134689
 20
659.4308215336
 10
-684.7469506871
 20
658.2615182168
 10
-690.6547975584
 20
657.5354503578
 10
-699.5205046871
 20
657.1325857906
 10
-708.4116040585
 20
657.3985381381
 10
-717.2839186239
 20
658.2026469354
 10
-726.0932713342
 20
659.4142517176
 10
-741.0462466212
 20
662.149119923
 10
-755.8682362824
 20
665.5581280201
 10
-770.5699525054
 20
669.5026154234
 10
-785.1621074779
 20
673.8439215474
 10
-799.6554133875
 20
678.4433858065
 10
-823.9655431113
 20
686.617953148
 10
-848.1089239572
 20
695.2504731509
 10
-872.1123463349
 20
704.2301727182
 10
-914.3205015017
 20
720.7133189965
 10
-956.2404960204
 20
737.8383648759
 10
-997.9030662272
 20
755.5088909333
 10
-1039.3389484579
 20
773.6284777456
 10
-1080.5788790487
 20
792.1007058895
 10
-1128.9035219964
 20
814.2270594004
 10
-1165.3679857942
 20
831.2475714582
  0
LWPOLYLINE
  5
532
330
1F
100
AcDbEntity
  8
0
  6
Continuous
 62
     8
370
    25
100
AcDbPolyline
 90
       20
 70
   128
 43
0.0
 10
-296.2132869952
 20
-1153.8621078794
 10
-295.0066000095
 20
-1149.8785830502
 10
-288.2780913272
 20
-1127.2426884103
 10
-281.6940996336
 20
-1104.6678592892
 10
-275.1467748251
 20
-1082.2255300253
 10
-268.4620341443
 20
-1059.9889410846
 10
-261.4657948335
 20
-1038.0313329334
 10
-251.5895623565
 20
-1009.2240981707
 10
-241.1460497302
 20
-980.7357111642
 10
-230.1330557809
 20
-952.4729540264
 10
-220.6410667279
 20
-929.3419223938
 10
-210.7154266347
 20
-906.2510267094
 10
-200.3339624879
 20
-883.1949986647
 10
-189.4745012739
 20
-860.1685699513
 10
-179.8178435829
 20
-840.5500889315
 10
-169.8008702896
 20
-820.9701380514
 10
-159.3611370806
 20
-801.3085476166
 10
-154.0075517588
 20
-791.4858509814
 10
-148.5837279837
 20
-781.6926171299
 10
-148.5145672241
 20
-781.568700237
  0
LWPOLYLINE
  5
533
330
1F
100
AcDbEntity
  8
0
  6
Continuous
 62
     8
370
    25
100
AcDbPolyline
 90
       18
 70
   128
 43
0.0
 10
-1097.6185952667
 20
-989.6061568684
 10
-1083.1643993183
 20
-991.0219520897
 10
-1050.3015539689
 20
-994.8991333067
 10
-1017.5332443134
 20
-999.4692139259
 10
-984.863402363
 20
-1004.6560613595
 10
-952.2959601294
 20
-1010.3835430196
 10
-919.834849624
 20
-1016.5755263182
 10
-879.1319953266
 20
-1024.9483943333
 10
-838.5732717967
 20
-1033.9550506164
 10
-798.1666567297
 20
-1043.579651242
 10
-757.9201278213
 20
-1053.8063522846
 10
-720.2594980279
 20
-1064.0356376851
 10
-682.7755537235
 20
-1074.9472758927
 10
-645.4834727924
 20
-1086.5423796613
 10
-608.3984331187
 20
-1098.8220617448
 10
-571.5356125864
 20
-1111.7874348969
 10
-534.9101890798
 20
-1125.4396118715
 10
-491.5108154511
 20
-1142.4511514576
  0
LWPOLYLINE
  5
534
330
1F
100
AcDbEntity
  8
0
  6
Continuous
 62
     8
370
    25
100
AcDbPolyline
 90
       67
 70
   128
 43
0.0
 10
-1140.9936636204
 20
414.0831636397
 10
-1122.7320853676
 20
407.9666109983
 10
-1089.0057623448
 20
396.1533822288
 10
-1047.5886203562
 20
381.004914698
 10
-1006.435307795
 20
365.2259858556
 10
-965.5609533259
 20
348.7996290641
 10
-924.9806856134
 20
331.7088776863
 10
-892.5446819451
 20
317.4720656735
 10
-860.3134442801
 20
302.7248590767
 10
-828.3554679318
 20
287.3596982432
 10
-796.7392482137
 20
271.2690235204
 10
-765.5332804391
 20
254.3452752557
 10
-744.7548048086
 20
242.3535160059
 10
-724.3406159805
 20
229.7124024725
 10
-714.2049699879
 20
223.035128615
 10
-704.2496737483
 20
216.0608461426
 10
-694.6151998696
 20
208.6636580468
 10
-685.4420209601
 20
200.7176673189
 10
-680.9227153677
 20
196.3064748845
 10
-676.6624482464
 20
191.6188639027
 10
-672.7807949336
 20
186.63132131
 10
-669.3973307664
 20
181.3203340428
 10
-666.1064092479
 20
174.3490299928
 10
-663.8114271606
 20
166.9919804213
 10
-662.4362409874
 20
159.2997290226
 10
-661.8279650852
 20
151.5164281079
 10
-661.838748195
 20
141.3051243323
 10
-662.5295283487
 20
131.1305371985
 10
-663.7556398947
 20
121.0142524552
 10
-665.3724171812
 20
110.977855851
 10
-667.2351945563
 20
101.0429331346
 10
-670.8579497104
 20
84.0947855444
 10
-674.9758795522
 20
67.3370361033
 10
-679.4967546391
 20
50.7535510429
 10
-686.9318877077
 20
26.0426702764
 10
-695.1132458175
 20
1.5990642848
 10
-704.054089978
 20
-22.6078644133
 10
-709.8510615409
 20
-37.2298766362
 10
-715.9903119471
 20
-51.7872996966
 10
-722.577429679
 20
-66.2069132534
 10
-729.7180032188
 20
-80.4154969654
 10
-737.517621049
 20
-94.3398304914
 10
-742.2763811505
 20
-102.0455592438
 10
-747.4190555764
 20
-109.5529981001
 10
-753.0470363667
 20
-116.7050738454
 10
-759.2617155614
 20
-123.344713265
 10
-763.9037275101
 20
-127.469189394
 10
-768.921305459
 20
-131.1592312801
 10
-774.2861277663
 20
-134.2945225203
 10
-779.0933484864
 20
-136.4502468071
 10
-784.0966850851
 20
-138.1484754369
 10
-789.2220488166
 20
-139.3979892107
 10
-795.5700972031
 20
-140.3721809545
 10
-801.9873271457
 20
-140.8529078531
 10
-808.4178761388
 20
-140.9387397127
 10
-818.7603827752
 20
-140.482282134
 10
-829.0737499366
 20
-139.4602341574
 10
-839.3456084194
 20
-138.0124762576
 10
-849.5635890196
 20
-136.278888909
 10
-871.182251133
 20
-131.9800853139
 10
-892.6648568053
 20
-127.0604763517
 10
-923.6714133487
 20
-119.2356605252
 10
-954.504896774
 20
-110.8112695135
 10
-1000.0725710022
 20
-97.5097356399
 10
-1045.3518110175
 20
-83.3762065227
 10
-1090.3292328776
 20
-68.4599718958
 10
-1113.2690103838
 20
-60.4218694415
  0
LWPOLYLINE
  5
535
330
1F
100
AcDbEntity
  8
0
  6
Continuous
 62
     8
370
    25
100
AcDbPolyline
 90
       18
 70
   128
 43
0.0
 10
1505.1271544849
 20
843.4728388052
 10
1473.0434221058
 20
856.2197371227
 10
1415.2445452526
 20
878.8030957533
 10
1357.3517546351
 20
901.0673052712
 10
1299.4184920075
 20
923.1637276787
 10
1211.9508814911
 20
956.4723082138
 10
1124.5442939501
 20
989.9331709201
 10
1060.225896207
 20
1014.8122700537
 10
995.9848530562
 20
1039.9771317402
 10
931.8467132832
 20
1065.5102312683
 10
867.8370256734
 20
1091.4940439265
 10
825.1378694615
 20
1109.1978161936
 10
782.5369846562
 20
1127.2409288424
 10
740.0550434952
 20
1145.6381492874
 10
697.7127182161
 20
1164.4042449434
 10
655.5306810567
 20
1183.553983225
 10
613.5296042547
 20
1203.1021315468
 10
613.3598952743
 20
1203.1821306872
  0
LWPOLYLINE
  5
536
330
1F
100
AcDbEntity
  8
0
  6
Continuous
 62
     8
370
    25
100
AcDbPolyline
 90
       83
 70
   128
 43
0.0
 10
397.2747309824
 20
640.2610321478
 10
397.4453994513
 20
640.2089269577
 10
448.7168123374
 20
624.9641491461
 10
500.1648531379
 20
610.3267485117
 10
551.7172212344
 20
596.0886687301
 10
603.3016160084
 20
582.041853477
 10
654.8457368414
 20
567.978246428
 10
719.2929096734
 20
549.9913525049
 10
783.5192653074
 20
531.408444766
 10
847.4767242687
 20
512.1287800179
 10
911.1172070823
 20
492.0516150672
 10
919.6281227611
 20
489.2918221034
 10
974.1266734998
 20
471.1447170814
 10
1028.3036904412
 20
452.1524594495
 10
1064.2187453294
 20
438.9348541049
 10
1099.9218642801
 20
425.1626585497
 10
1135.3530303224
 20
410.7148672386
 10
1156.6776386176
 20
401.5838889961
 10
1177.8620797669
 20
392.0943316099
 10
1198.8413041938
 20
382.1524623984
 10
1219.5502623216
 20
371.6645486804
 10
1239.9239045739
 20
360.5368577744
 10
1253.6488262251
 20
352.471328771
 10
1267.1054099983
 20
343.9445697425
 10
1280.1999422697
 20
334.8695991405
 10
1289.959471958
 20
327.4605726821
 10
1299.3792905832
 20
319.5802037135
 10
1308.3168014655
 20
311.1671002607
 10
1316.6294079253
 20
302.1598703492
 10
1321.498638867
 20
296.1064891847
 10
1325.9981526361
 20
289.7483228986
 10
1330.0479920118
 20
283.1037434585
 10
1333.5681997733
 20
276.1911228315
 10
1336.8865311995
 20
268.1209198077
 10
1339.5383872463
 20
259.8066581059
 10
1341.4650900131
 20
251.3332207092
 10
1342.5854052603
 20
243.2594570968
 10
1343.0605133316
 20
235.1299997292
 10
1342.9211490747
 20
227.0218135614
 10
1341.9480086442
 20
216.9483099198
 10
1340.1952870488
 20
206.9829550111
 10
1337.7723476907
 20
197.1583484302
 10
1334.7885539719
 20
187.5070897719
 10
1331.3532692946
 20
178.0617786311
 10
1324.7491795952
 20
162.4915823621
 10
1317.3175686142
 20
147.30438554
 10
1309.2417788178
 20
132.4462810913
 10
1300.705152672
 20
117.8633619425
 10
1288.6304614403
 20
98.4450195322
 10
1276.1007670707
 20
79.2668015831
 10
1263.2999907299
 20
60.2037185279
 10
1250.5155024196
 20
41.2752139881
 10
1237.9370706823
 20
22.1193260188
 10
1232.9822025729
 20
14.2858487899
 10
1228.1622566972
 20
6.3304788402
 10
1223.6207156084
 20
-1.7923007289
 10
1219.5010618597
 20
-10.1280068157
 10
1215.9467780043
 20
-18.7221563187
 10
1214.3287805515
 20
-23.5391928431
 10
1213.0539758118
 20
-28.4851865835
 10
1212.2481214018
 20
-33.5145111565
 10
1212.0369749376
 20
-38.581540179
 10
1212.6723030403
 20
-44.2036160555
 10
1214.3157789463
 20
-49.6197089002
 10
1215.5816265468
 20
-52.2956765935
 10
1218.285831331
 20
-56.5239074954
 10
1221.5662952228
 20
-60.3656094676
 10
1225.2497115058
 20
-63.8071669128
 10
1230.5067945244
 20
-67.8159262471
 10
1236.1123883237
 20
-71.359137188
 10
1241.9602518482
 20
-74.5193709044
 10
1247.9441440427
 20
-77.3791985654
 10
1259.6498839117
 20
-82.2702390566
 10
1271.5987947396
 20
-86.5634697183
 10
1283.6829601265
 20
-90.4502738166
 10
1310.323220698
 20
-98.3040676895
 10
1337.1248057179
 20
-105.5716269177
 10
1364.0303749016
 20
-112.4388838046
 10
1390.9825879642
 20
-119.0917706533
 10
1417.924104621
 20
-125.7162197669
 10
1474.9315072338
 20
-139.935685064
 10
1531.8105763022
 20
-154.4506084185
 10
1563.9316879315
 20
-162.9616457059
  0
LWPOLYLINE
  5
537
330
1F
100
AcDbEntity
  8
0
  6
Continuous
 62
     8
370
    25
100
AcDbPolyline
 90
       18
 70
   128
 43
0.0
 10
613.3598952743
 20
1203.1821306872
 10
613.5395451318
 20
1203.1280291578
 10
666.7082495316
 20
1187.366002807
 10
719.9579139731
 20
1171.9046652735
 10
773.2042519691
 20
1156.5102750727
 10
826.3629770327
 20
1140.9490907204
 10
879.3498026767
 20
1124.9873707319
 10
945.5488945939
 20
1104.2878401396
 10
1011.4874833148
 20
1082.9335578024
 10
1077.1626196993
 20
1060.9226180505
 10
1142.5713546071
 20
1038.2531152141
 10
1199.4145410941
 20
1017.9306522823
 10
1256.0532706604
 20
997.0627751161
 10
1312.4726574483
 20
975.610024547
 10
1368.6668183029
 20
953.5231576321
 10
1424.5879988738
 20
930.7015508181
 10
1480.1740303615
 20
907.0226750032
 10
1501.9772808365
 20
897.3826528231
  0
LWPOLYLINE
  5
538
330
1F
100
AcDbEntity
  8
0
  6
Continuous
 62
     8
370
    25
100
AcDbPolyline
 90
       18
 70
   128
 43
0.0
 10
613.3598952743
 20
1203.1821306872
 10
613.1802470509
 20
1203.2362372147
 10
569.7392469821
 20
1216.5310284727
 10
526.4200062317
 20
1230.2105082232
 10
483.2367312338
 20
1244.2707927325
 10
440.2036284229
 20
1258.7079982672
 10
397.3349042333
 20
1273.5182410935
 10
343.7228479862
 20
1292.530258917
 10
290.2738204774
 20
1311.8870490338
 10
236.9685496082
 20
1331.5369410221
 10
183.7877632797
 20
1351.4282644602
 10
113.3356154301
 20
1378.1380695062
 10
43.0085817046
 20
1405.1085606541
 10
-27.2477162062
 20
1432.2413596314
 10
-97.4875320009
 20
1459.4407832536
 10
-167.7938054174
 20
1486.5345409325
 10
-238.2609560004
 20
1513.3081870599
 10
-240.3264567858
 20
1514.0819494696
  0
LWPOLYLINE
  5
539
330
1F
100
AcDbEntity
  8
0
  6
Continuous
 62
     8
370
    25
100
AcDbPolyline
 90
       88
 70
   128
 43
0.0
 10
-1169.526605901
 20
902.4219935338
 10
-1156.2342143138
 20
896.5714616704
 10
-1122.20834418
 20
880.8679457055
 10
-1088.3900795833
 20
864.6727716904
 10
-1054.7351769163
 20
848.1107541337
 10
-1004.5981194191
 20
822.7582521297
 10
-954.6831477654
 20
796.8373686009
 10
-904.9010880127
 20
770.5411375472
 10
-855.1627662191
 20
744.0625929685
 10
-822.5334577107
 20
726.7412503214
 10
-789.7450522353
 20
709.685855085
 10
-776.5356351356
 20
702.9436114374
 10
-763.2538102202
 20
696.3142778779
 10
-749.8464218748
 20
689.9524968407
 10
-736.2603144851
 20
684.0129107599
 10
-722.4423324367
 20
678.6501620698
 10
-714.9917435662
 20
676.1072023664
 10
-707.4150417166
 20
673.9069527725
 10
-699.7278093324
 20
672.219126111
 10
-691.9456288583
 20
671.2134352049
 10
-687.1213963423
 20
671.0353354947
 10
-682.2947937279
 20
671.3133635383
 10
-677.5556951691
 20
672.1485727709
 10
-673.7948503993
 20
673.3269841497
 10
-670.199593071
 20
674.9723446295
 10
-666.8683322552
 20
677.0617471119
 10
-665.5160157827
 20
678.1049631233
 10
-661.6978042179
 20
681.7888795843
 10
-658.4281014266
 20
686.002977456
 10
-655.6714074474
 20
690.5472932
 10
-651.966954698
 20
698.4086642866
 10
-649.0285234661
 20
706.5988292462
 10
-646.6835502771
 20
715.0093924234
 10
-644.7594716562
 20
723.5319581623
 10
-643.0837241284
 20
732.0581308072
 10
-639.0578510233
 20
755.627961681
 10
-635.6308148007
 20
779.2134498111
 10
-632.3955216679
 20
802.7555608717
 10
-628.9448778319
 20
826.1952605372
 10
-625.2691871374
 20
848.0126555703
 10
-620.9853100052
 20
869.6964802343
 10
-615.8411102553
 20
891.1766852082
 10
-612.7613579463
 20
902.1882947599
 10
-609.3035034308
 20
913.1388630752
 10
-605.3831095934
 20
923.9495239041
 10
-600.9157393186
 20
934.5414109964
 10
-595.816955491
 20
944.8356581021
 10
-590.0023209953
 20
954.7533989712
 10
-584.7217063054
 20
962.3961426874
 10
-578.847066014
 20
969.6435797519
 10
-572.374439125
 20
976.3765458118
 10
-566.2435176174
 20
981.742363939
 10
-559.6705317996
 20
986.616026979
 10
-552.7227823878
 20
990.9455708428
 10
-545.5610965345
 20
994.6611666296
 10
-538.1161814846
 20
997.8266440278
 10
-530.454511631
 20
1000.3949267285
 10
-520.3147699589
 20
1002.8433148738
 10
-509.9869376818
 20
1004.4439015459
 10
-499.5880139502
 20
1005.3131768903
 10
-487.0139731683
 20
1005.560707984
 10
-474.4374846409
 20
1005.0732724118
 10
-461.8971679502
 20
1003.972011655
 10
-449.4316426786
 20
1002.3780671951
 10
-428.2323710363
 20
998.7711862162
 10
-407.2076277481
 20
994.2452665361
 10
-386.3544316222
 20
988.9838935425
 10
-365.6698014668
 20
983.1706526234
 10
-337.9736600826
 20
974.6665195655
 10
-310.4873811476
 20
965.5149740897
 10
-283.1853343896
 20
955.8459048076
 10
-244.5045866054
 20
941.3681324153
 10
-206.0790098426
 20
926.2020841622
 10
-167.8750032087
 20
910.4560973887
 10
-129.8589658112
 20
894.2385094354
 10
-79.2772048533
 20
871.9467765784
 10
-28.9369056635
 20
849.0194607325
 10
21.1884409051
 20
825.5357432525
 10
68.2825491917
 20
802.9330362751
 10
115.2285734316
 20
779.9319450578
 10
162.0471350327
 20
756.5954434217
 10
208.7588554027
 20
732.9865051884
 10
255.565237642
 20
709.3052896702
 10
302.527029375
 20
685.8805262094
 10
349.693278875
 20
662.8462534261
 10
397.1130344152
 20
640.336509941
 10
397.2747309824
 20
640.2610321478
 10
397.2747309824
 20
640.2610321478
  0
LWPOLYLINE
  5
53A
330
1F
100
AcDbEntity
  8
0
  6
Continuous
 62
     8
370
    25
100
AcDbPolyline
 90
       43
 70
   128
 43
0.0
 10
-683.9557908122
 20
1540.0025795872
 10
-686.0207307672
 20
1534.4220139837
 10
-689.1984598436
 20
1524.840735831
 10
-693.9028556395
 20
1508.9359594529
 10
-698.1099334801
 20
1492.9074464916
 10
-702.0016974014
 20
1476.8144333466
 10
-708.1580070134
 20
1450.1521691531
 10
-714.4460667242
 20
1423.5198825923
 10
-718.1644454531
 20
1408.9194659768
 10
-722.2096666912
 20
1394.3914294937
 10
-726.7098132109
 20
1379.9831959385
 10
-730.5226654169
 20
1369.1290714951
 10
-734.77513423
 20
1358.4061080941
 10
-739.5630204059
 20
1347.8993489364
 10
-744.9821247004
 20
1337.6938372225
 10
-750.4768758268
 20
1328.8739353181
 10
-756.6607550188
 20
1320.4720539198
 10
-763.5699123695
 20
1312.6479931524
 10
-769.3428209194
 20
1307.1673734474
 10
-775.5551612494
 20
1302.142207219
 10
-782.1560749969
 20
1297.6372470421
 10
-789.1443076705
 20
1293.6722540598
 10
-796.4435578786
 20
1290.2566766451
 10
-803.9703974201
 20
1287.3899528873
 10
-810.1876673906
 20
1285.4578186755
 10
-816.4961211121
 20
1283.8444763423
 10
-826.6844621612
 20
1281.9302870962
 10
-837.014351508
 20
1280.7872343849
 10
-847.4161026604
 20
1280.3425861557
 10
-857.8200291262
 20
1280.5236103556
 10
-868.1564444131
 20
1281.257574932
 10
-884.8036598237
 20
1283.3282368204
 10
-901.327547964
 20
1286.2437268866
 10
-917.7275519603
 20
1289.8683108278
 10
-934.0031149389
 20
1294.0662543412
 10
-950.153680026
 20
1298.7018231239
 10
-966.1786903478
 20
1303.6392828732
 10
-995.3085008038
 20
1313.2809585191
 10
-1024.1989617335
 20
1323.6159926619
 10
-1052.8895995317
 20
1334.4957429359
 10
-1081.4199405933
 20
1345.7715669753
 10
-1119.3952500986
 20
1361.2984436631
 10
-1142.5916420398
 20
1371.0772498423
  0
LWPOLYLINE
  5
53B
330
1F
100
AcDbEntity
  8
0
  6
Continuous
 62
     8
370
    25
100
AcDbPolyline
 90
       40
 70
   128
 43
0.0
 10
-1133.9709300815
 20
1430.6008028542
 10
-1116.2990967544
 20
1422.9594555037
 10
-1060.3248231507
 20
1398.2109063834
 10
-1004.3351410423
 20
1373.4387236215
 10
-948.1209986719
 20
1349.0806672723
 10
-930.5454955584
 20
1341.6407769759
 10
-912.8814373092
 20
1334.3653506827
 10
-895.0837261158
 20
1327.4149753449
 10
-877.1072641702
 20
1320.9502379146
 10
-858.9069536639
 20
1315.1317253439
 10
-850.6280610351
 20
1312.7673521726
 10
-842.2452455119
 20
1310.6612845518
 10
-833.7780196018
 20
1308.9714858191
 10
-825.2458958123
 20
1307.8559193123
 10
-816.668386651
 20
1307.472548369
 10
-811.8141888311
 20
1307.6552619379
 10
-806.9876355842
 20
1308.1912107051
 10
-801.2451384068
 20
1309.3782236779
 10
-795.6568723652
 20
1311.1948142319
 10
-790.3522479395
 20
1313.6480051209
 10
-785.2917478409
 20
1316.8268750729
 10
-780.6382099655
 20
1320.5948248396
 10
-776.4441335031
 20
1324.8264845475
 10
-772.4022339014
 20
1329.8260115847
 10
-768.8093878868
 20
1335.1653653298
 10
-765.6145064271
 20
1340.752210308
 10
-762.76650049
 20
1346.4942110445
 10
-758.5704880209
 20
1356.3905372324
 10
-754.9668040008
 20
1366.5104091097
 10
-751.8198316892
 20
1376.7757128121
 10
-748.9939543457
 20
1387.1083344752
 10
-743.8545014722
 20
1408.1820011755
 10
-739.1721556592
 20
1429.3249708405
 10
-734.5499948481
 20
1450.5739846935
 10
-729.7444642274
 20
1471.7675168576
 10
-724.4963083301
 20
1492.8506296943
 10
-720.0838359412
 20
1508.6840009676
 10
-715.1271586487
 20
1524.3862654973
 10
-709.4615309254
 20
1539.8540700131
 10
-708.7706838561
 20
1541.4524784435
  0
LWPOLYLINE
  5
53C
330
1F
100
AcDbEntity
  8
0
  6
Continuous
 62
     8
370
    25
100
AcDbPolyline
 90
       64
 70
   128
 43
0.0
 10
-1117.1266613545
 20
5.6014919998
 10
-1112.9653137801
 20
3.8052805311
 10
-1055.6111790534
 20
-21.5592559111
 10
-998.3639572227
 20
-47.3742556531
 10
-941.1530827104
 20
-73.4482343653
 10
-912.5117424753
 20
-86.4948576951
 10
-883.7693700048
 20
-99.3529653625
 10
-864.193516396
 20
-107.8334512179
 10
-844.4355415396
 20
-115.8889325777
 10
-835.4820252068
 20
-119.3054392665
 10
-826.4343915936
 20
-122.4933660282
 10
-817.2693269101
 20
-125.2832597264
 10
-807.9635173667
 20
-127.5056672246
 10
-802.6297219251
 20
-128.4175216193
 10
-797.2382495482
 20
-128.9230748034
 10
-791.8448679026
 20
-128.8582405945
 10
-786.9957707914
 20
-128.124943945
 10
-782.3445407125
 20
-126.6024140517
 10
-780.1148087925
 20
-125.5046738453
 10
-776.5366815541
 20
-123.1350576413
 10
-773.3106196543
 20
-120.2708554708
 10
-770.4481656059
 20
-117.064383621
 10
-769.2033924959
 20
-115.450126686
 10
-764.7200277409
 20
-108.5863649824
 10
-760.9152194353
 20
-101.3123328728
 10
-757.5963140613
 20
-93.7919344449
 10
-754.5706581013
 20
-86.1890737867
 10
-747.8671989492
 20
-68.0019078381
 10
-741.6598368793
 20
-49.7387213276
 10
-735.7175612233
 20
-31.4758599836
 10
-729.8093613126
 20
-13.2896695345
 10
-717.6935157463
 20
22.9392070195
 10
-705.1929946274
 20
59.0213174587
 10
-697.1293417573
 20
81.6048063408
 10
-688.9888359208
 20
104.3007366961
 10
-685.6642244891
 20
113.476837684
 10
-682.3641886059
 20
122.7172547988
 10
-679.3038538685
 20
132.0598517918
 10
-676.6983458741
 20
141.5424924146
 10
-674.7627902201
 20
151.2030404188
 10
-674.2620885047
 20
155.2231563544
 10
-674.1047586373
 20
159.2806314924
 10
-674.4378314659
 20
163.3122949479
 10
-675.2406991043
 20
166.6752660884
 10
-676.5897039603
 20
169.8589186748
 10
-678.7895170885
 20
173.1674216367
 10
-681.6162353788
 20
176.1535521643
 10
-684.8372623442
 20
178.7504714642
 10
-688.2910375714
 20
181.0176187889
 10
-695.3250023179
 20
184.7577309824
 10
-709.4324091166
 20
190.9314401674
 10
-723.8430414702
 20
196.3433539247
 10
-738.4610985335
 20
201.22095915
 10
-753.1907794611
 20
205.7917427384
 10
-767.9362834078
 20
210.2831915854
 10
-782.6018095283
 20
214.9227925865
 10
-824.1966008097
 20
228.9163505416
 10
-865.5464800199
 20
243.4941593946
 10
-906.6658522029
 20
258.6304676931
 10
-947.5691224026
 20
274.2995239849
 10
-1001.9512877061
 20
295.9894372728
 10
-1056.0789511652
 20
318.4070489886
 10
-1110.007896561
 20
341.4314325025
 10
-1137.4497414345
 20
353.4292431128
  0
LINE
  5
53D
330
1F
100
AcDbEntity
  8
0
  6
Continuous
 62
     8
370
    25
100
AcDbLine
 10
1635.9675433738
 20
-1299.8146901104
 30
0.0
 11
1618.8609653776
 21
-1299.8146901104
 31
0.0
  0
LINE
  5
53E
330
1F
100
AcDbEntity
  8
0
  6
Continuous
 62
     8
370
    25
100
AcDbLine
 10
1618.8609653776
 20
1604.1552968782
 30
0.0
 11
1635.9675433738
 21
1604.1552968782
 31
0.0
  0
LINE
  5
53F
330
1F
100
AcDbEntity
  8
0
  6
Continuous
 62
     8
370
    25
100
AcDbLine
 10
1661.89924787
 20
1578.223592382
 30
0.0
 11
1661.89924787
 21
1561.1170143858
 31
0.0
  0
LINE
  5
540
330
1F
100
AcDbEntity
  8
0
  6
Continuous
 62
     8
370
    25
100
AcDbLine
 10
1661.89924787
 20
-1256.776407618
 30
0.0
 11
1661.89924787
 21
-1273.8829856142
 31
0.0
  0
LINE
  5
541
330
1F
100
AcDbEntity
  8
0
  6
Continuous
 62
     8
370
    25
100
AcDbLine
 10
-1242.0707391186
 20
-1273.8829856142
 30
0.0
 11
-1242.0707391186
 21
-1256.776407618
 31
0.0
  0
LINE
  5
542
330
1F
100
AcDbEntity
  8
0
  6
Continuous
 62
     8
370
    25
100
AcDbLine
 10
-1199.0324566262
 20
-1299.8146901104
 30
0.0
 11
-1216.1390346224
 21
-1299.8146901104
 31
0.0
  0
LINE
  5
543
330
1F
100
AcDbEntity
  8
0
  6
Continuous
 62
     8
370
    25
100
AcDbLine
 10
-1216.1390346224
 20
1604.1552968782
 30
0.0
 11
-1199.0324566262
 21
1604.1552968782
 31
0.0
  0
LINE
  5
544
330
1F
100
AcDbEntity
  8
0
  6
Continuous
 62
     8
370
    25
100
AcDbLine
 10
-1242.0707391186
 20
1561.1170143858
 30
0.0
 11
-1242.0707391186
 21
1578.223592382
 31
0.0
  0
ENDSEC
  0
SECTION
  2
OBJECTS
  0
DICTIONARY
  5
C
330
0
100
AcDbDictionary
281
     1
  3
ACAD_GROUP
350
D
  3
ACAD_LAYOUT
350
1A
  3
ACAD_MLINESTYLE
350
17
  3
ACAD_PLOTSETTINGS
350
19
  3
ACAD_PLOTSTYLENAME
350
E
  3
ACAD_SCALELIST
350
47
  3
DWGPROPS
350
545
  0
DICTIONARY
  5
D
102
{ACAD_REACTORS
330
C
102
}
330
C
100
AcDbDictionary
281
     1
  0
DICTIONARY
  5
1A
102
{ACAD_REACTORS
330
C
102
}
330
C
100
AcDbDictionary
281
     1
  3
Layout1
350
1E
  3
Layout2
350
26
  3
Model
350
22
  0
DICTIONARY
  5
17
102
{ACAD_REACTORS
330
C
102
}
330
C
100
AcDbDictionary
281
     1
  3
Standard
350
18
  0
DICTIONARY
  5
19
102
{ACAD_REACTORS
330
C
102
}
330
C
100
AcDbDictionary
281
     1
  0
ACDBDICTIONARYWDFLT
  5
E
102
{ACAD_REACTORS
330
C
102
}
330
C
100
AcDbDictionary
281
     1
  3
Normal
350
F
100
AcDbDictionaryWithDefault
340
F
  0
DICTIONARY
  5
47
102
{ACAD_REACTORS
330
C
102
}
330
C
100
AcDbDictionary
281
     1
  3
A0
350
48
  3
A1
350
49
  3
A2
350
4A
  3
A3
350
4B
  3
A4
350
4C
  3
A5
350
4D
  3
A6
350
4E
  3
A7
350
4F
  3
A8
350
50
  3
A9
350
51
  3
B0
350
52
  3
B1
350
53
  3
B2
350
54
  3
B3
350
55
  3
B4
350
56
  3
B5
350
57
  3
B6
350
58
  3
B7
350
59
  3
B8
350
5A
  3
B9
350
5B
  3
C0
350
5C
  3
C1
350
5D
  3
C2
350
5E
  3
C3
350
5F
  3
C4
350
60
  3
C5
350
61
  3
C6
350
62
  3
C7
350
63
  3
C8
350
64
  3
C9
350
65
  3
D0
350
66
  3
D1
350
67
  3
D2
350
68
  0
XRECORD
  5
545
102
{ACAD_REACTORS
330
C
102
}
330
C
100
AcDbXrecord
280
     1
  1
DWGPROPS COOKIE
  2

  3

  4

  6

  7

  8
Swing
  9

300
=
301
=
302
=
303
=
304
=
305
=
306
=
307
=
308
=
309
=
 40
0.0
 41
2459675.498390787
 42
2459675.498391157
  1

 90
        0
  0
LAYOUT
  5
1E
102
{ACAD_REACTORS
330
1A
102
}
330
1A
100
AcDbPlotSettings
  1

  2
none_device
  4

  6

 40
0.0
 41
0.0
 42
0.0
 43
0.0
 44
0.0
 45
0.0
 46
0.0
 47
0.0
 48
0.0
 49
0.0
140
0.0
141
0.0
142
1.0
143
1.0
 70
   688
 72
     1
 73
     0
 74
     5
  7

 75
    16
147
1.0
148
0.0
149
0.0
100
AcDbLayout
  1
Layout1
 70
     1
 71
     1
 10
0.0
 20
0.0
 11
420.0
 21
297.0
 12
0.0
 22
0.0
 32
0.0
 14
1.0000000000E+20
 24
1.0000000000E+20
 34
1.0000000000E+20
 15
-1.0000000000E+20
 25
-1.0000000000E+20
 35
-1.0000000000E+20
146
0.0
 13
0.0
 23
0.0
 33
0.0
 16
1.0
 26
0.0
 36
0.0
 17
0.0
 27
1.0
 37
0.0
 76
     0
330
1B
  0
LAYOUT
  5
26
102
{ACAD_REACTORS
330
1A
102
}
330
1A
100
AcDbPlotSettings
  1

  2
none_device
  4

  6

 40
0.0
 41
0.0
 42
0.0
 43
0.0
 44
0.0
 45
0.0
 46
0.0
 47
0.0
 48
0.0
 49
0.0
140
0.0
141
0.0
142
1.0
143
1.0
 70
   688
 72
     1
 73
     0
 74
     5
  7

 75
    16
147
1.0
148
0.0
149
0.0
100
AcDbLayout
  1
Layout2
 70
     1
 71
     2
 10
0.0
 20
0.0
 11
0.0
 21
0.0
 12
0.0
 22
0.0
 32
0.0
 14
0.0
 24
0.0
 34
0.0
 15
0.0
 25
0.0
 35
0.0
146
0.0
 13
0.0
 23
0.0
 33
0.0
 16
1.0
 26
0.0
 36
0.0
 17
0.0
 27
1.0
 37
0.0
 76
     0
330
23
  0
LAYOUT
  5
22
102
{ACAD_REACTORS
330
1A
102
}
330
1A
100
AcDbPlotSettings
  1

  2
none_device
  4
Letter_(8.50_x_11.00_Inches)
  6

 40
6.35
 41
6.35
 42
6.35000508
 43
6.35000508
 44
215.9
 45
279.4
 46
0.0
 47
0.0
 48
0.0
 49
0.0
140
0.0
141
0.0
142
1.0
143
1.0
 70
  1712
 72
     1
 73
     0
 74
     0
  7

 75
     0
147
1.0
148
0.0
149
0.0
100
AcDbLayout
  1
Model
 70
     1
 71
     0
 10
0.0
 20
0.0
 11
431.8
 21
279.4
 12
0.0
 22
0.0
 32
0.0
 14
0.0
 24
0.0
 34
0.0
 15
431.8
 25
279.4
 35
0.0
146
0.0
 13
0.0
 23
0.0
 33
0.0
 16
1.0
 26
0.0
 36
0.0
 17
0.0
 27
1.0
 37
0.0
 76
     0
330
1F
331
29
  0
MLINESTYLE
  5
18
102
{ACAD_REACTORS
330
17
102
}
330
17
100
AcDbMlineStyle
  2
Standard
 70
     0
  3

 62
   256
 51
90.0
 52
90.0
 71
     2
 49
0.5
 62
   256
  6
BYLAYER
 49
-0.5
 62
   256
  6
BYLAYER
  0
ACDBPLACEHOLDER
  5
F
102
{ACAD_REACTORS
330
E
102
}
330
E
  0
SCALE
  5
48
102
{ACAD_REACTORS
330
47
102
}
330
47
100
AcDbScale
 70
     0
300
1:1
140
1.0
141
1.0
290
     1
  0
SCALE
  5
49
102
{ACAD_REACTORS
330
47
102
}
330
47
100
AcDbScale
 70
     0
300
1:2
140
1.0
141
2.0
290
     0
  0
SCALE
  5
4A
102
{ACAD_REACTORS
330
47
102
}
330
47
100
AcDbScale
 70
     0
300
1:4
140
1.0
141
4.0
290
     0
  0
SCALE
  5
4B
102
{ACAD_REACTORS
330
47
102
}
330
47
100
AcDbScale
 70
     0
300
1:5
140
1.0
141
5.0
290
     0
  0
SCALE
  5
4C
102
{ACAD_REACTORS
330
47
102
}
330
47
100
AcDbScale
 70
     0
300
1:8
140
1.0
141
8.0
290
     0
  0
SCALE
  5
4D
102
{ACAD_REACTORS
330
47
102
}
330
47
100
AcDbScale
 70
     0
300
1:10
140
1.0
141
10.0
290
     0
  0
SCALE
  5
4E
102
{ACAD_REACTORS
330
47
102
}
330
47
100
AcDbScale
 70
     0
300
1:16
140
1.0
141
16.0
290
     0
  0
SCALE
  5
4F
102
{ACAD_REACTORS
330
47
102
}
330
47
100
AcDbScale
 70
     0
300
1:20
140
1.0
141
20.0
290
     0
  0
SCALE
  5
50
102
{ACAD_REACTORS
330
47
102
}
330
47
100
AcDbScale
 70
     0
300
1:30
140
1.0
141
30.0
290
     0
  0
SCALE
  5
51
102
{ACAD_REACTORS
330
47
102
}
330
47
100
AcDbScale
 70
     0
300
1:40
140
1.0
141
40.0
290
     0
  0
SCALE
  5
52
102
{ACAD_REACTORS
330
47
102
}
330
47
100
AcDbScale
 70
     0
300
1:50
140
1.0
141
50.0
290
     0
  0
SCALE
  5
53
102
{ACAD_REACTORS
330
47
102
}
330
47
100
AcDbScale
 70
     0
300
1:100
140
1.0
141
100.0
290
     0
  0
SCALE
  5
54
102
{ACAD_REACTORS
330
47
102
}
330
47
100
AcDbScale
 70
     0
300
2:1
140
2.0
141
1.0
290
     0
  0
SCALE
  5
55
102
{ACAD_REACTORS
330
47
102
}
330
47
100
AcDbScale
 70
     0
300
4:1
140
4.0
141
1.0
290
     0
  0
SCALE
  5
56
102
{ACAD_REACTORS
330
47
102
}
330
47
100
AcDbScale
 70
     0
300
8:1
140
8.0
141
1.0
290
     0
  0
SCALE
  5
57
102
{ACAD_REACTORS
330
47
102
}
330
47
100
AcDbScale
 70
     0
300
10:1
140
10.0
141
1.0
290
     0
  0
SCALE
  5
58
102
{ACAD_REACTORS
330
47
102
}
330
47
100
AcDbScale
 70
     0
300
100:1
140
100.0
141
1.0
290
     0
  0
SCALE
  5
59
102
{ACAD_REACTORS
330
47
102
}
330
47
100
AcDbScale
 70
     0
300
1/128" = 1'-0"
140
0.0078125
141
12.0
290
     0
  0
SCALE
  5
5A
102
{ACAD_REACTORS
330
47
102
}
330
47
100
AcDbScale
 70
     0
300
1/64" = 1'-0"
140
0.015625
141
12.0
290
     0
  0
SCALE
  5
5B
102
{ACAD_REACTORS
330
47
102
}
330
47
100
AcDbScale
 70
     0
300
1/32" = 1'-0"
140
0.03125
141
12.0
290
     0
  0
SCALE
  5
5C
102
{ACAD_REACTORS
330
47
102
}
330
47
100
AcDbScale
 70
     0
300
1/16" = 1'-0"
140
0.0625
141
12.0
290
     0
  0
SCALE
  5
5D
102
{ACAD_REACTORS
330
47
102
}
330
47
100
AcDbScale
 70
     0
300
3/32" = 1'-0"
140
0.09375
141
12.0
290
     0
  0
SCALE
  5
5E
102
{ACAD_REACTORS
330
47
102
}
330
47
100
AcDbScale
 70
     0
300
1/8" = 1'-0"
140
0.125
141
12.0
290
     0
  0
SCALE
  5
5F
102
{ACAD_REACTORS
330
47
102
}
330
47
100
AcDbScale
 70
     0
300
3/16" = 1'-0"
140
0.1875
141
12.0
290
     0
  0
SCALE
  5
60
102
{ACAD_REACTORS
330
47
102
}
330
47
100
AcDbScale
 70
     0
300
1/4" = 1'-0"
140
0.25
141
12.0
290
     0
  0
SCALE
  5
61
102
{ACAD_REACTORS
330
47
102
}
330
47
100
AcDbScale
 70
     0
300
3/8" = 1'-0"
140
0.375
141
12.0
290
     0
  0
SCALE
  5
62
102
{ACAD_REACTORS
330
47
102
}
330
47
100
AcDbScale
 70
     0
300
1/2" = 1'-0"
140
0.5
141
12.0
290
     0
  0
SCALE
  5
63
102
{ACAD_REACTORS
330
47
102
}
330
47
100
AcDbScale
 70
     0
300
3/4" = 1'-0"
140
0.75
141
12.0
290
     0
  0
SCALE
  5
64
102
{ACAD_REACTORS
330
47
102
}
330
47
100
AcDbScale
 70
     0
300
1" = 1'-0"
140
1.0
141
12.0
290
     0
  0
SCALE
  5
65
102
{ACAD_REACTORS
330
47
102
}
330
47
100
AcDbScale
 70
     0
300
1-1/2" = 1'-0"
140
1.5
141
12.0
290
     0
  0
SCALE
  5
66
102
{ACAD_REACTORS
330
47
102
}
330
47
100
AcDbScale
 70
     0
300
3" = 1'-0"
140
3.0
141
12.0
290
     0
  0
SCALE
  5
67
102
{ACAD_REACTORS
330
47
102
}
330
47
100
AcDbScale
 70
     0
300
6" = 1'-0"
140
6.0
141
12.0
290
     0
  0
SCALE
  5
68
102
{ACAD_REACTORS
330
47
102
}
330
47
100
AcDbScale
 70
     0
300
1'-0" = 1'-0"
140
12.0
141
12.0
290
     0
  0
ENDSEC
  0
EOF
