  0
SECTION
  2
HEADER
  9
$ACADVER
  1
AC1015
  9
$ACADMAINTVER
 70
     6
  9
$DWGCODEPAGE
  3
ANSI_1250
  9
$INSBASE
 10
0.0
 20
0.0
 30
0.0
  9
$EXTMIN
 10
0.0
 20
0.0
 30
0.0
  9
$EXTMAX
 10
431.8
 20
279.4
 30
0.0
  9
$LIMMIN
 10
0.0
 20
0.0
  9
$LIMMAX
 10
431.8
 20
279.4
  9
$ORTHOMODE
 70
     0
  9
$REGENMODE
 70
     1
  9
$FILLMODE
 70
     1
  9
$QTEXTMODE
 70
     0
  9
$MIRRTEXT
 70
     1
  9
$LTSCALE
 40
1.0
  9
$ATTMODE
 70
     1
  9
$TEXTSIZE
 40
3.8805555556
  9
$TRACEWID
 40
1.0
  9
$TEXTSTYLE
  7
Standard
  9
$CLAYER
  8
0
  9
$CELTYPE
  6
ByLayer
  9
$CECOLOR
 62
   256
  9
$CELTSCALE
 40
1.0
  9
$DISPSILH
 70
     0
  9
$DIMSCALE
 40
1.0
  9
$DIMASZ
 40
3.302
  9
$DIMEXO
 40
1.0
  9
$DIMDLI
 40
3.75
  9
$DIMRND
 40
0.0
  9
$DIMDLE
 40
0.0
  9
$DIMEXE
 40
1.0
  9
$DIMTP
 40
0.0
  9
$DIMTM
 40
0.0
  9
$DIMTXT
 40
3.8805555556
  9
$DIMCEN
 40
2.5
  9
$DIMTSZ
 40
0.0
  9
$DIMTOL
 70
     0
  9
$DIMLIM
 70
     0
  9
$DIMTIH
 70
     1
  9
$DIMTOH
 70
     1
  9
$DIMSE1
 70
     0
  9
$DIMSE2
 70
     0
  9
$DIMTAD
 70
     1
  9
$DIMZIN
 70
     0
  9
$DIMBLK
  1

  9
$DIMASO
 70
     1
  9
$DIMSHO
 70
     1
  9
$DIMPOST
  1

  9
$DIMAPOST
  1

  9
$DIMALT
 70
     0
  9
$DIMALTD
 70
     3
  9
$DIMALTF
 40
0.0393700787
  9
$DIMLFAC
 40
1.0
  9
$DIMTOFL
 70
     1
  9
$DIMTVP
 40
0.0
  9
$DIMTIX
 70
     0
  9
$DIMSOXD
 70
     0
  9
$DIMSAH
 70
     0
  9
$DIMBLK1
  1

  9
$DIMBLK2
  1

  9
$DIMSTYLE
  2
ISO-25
  9
$DIMCLRD
 70
     0
  9
$DIMCLRE
 70
     0
  9
$DIMCLRT
 70
     0
  9
$DIMTFAC
 40
1.0
  9
$DIMGAP
 40
1.524
  9
$DIMJUST
 70
     0
  9
$DIMSD1
 70
     0
  9
$DIMSD2
 70
     0
  9
$DIMTOLJ
 70
     0
  9
$DIMTZIN
 70
     0
  9
$DIMALTZ
 70
     0
  9
$DIMALTTZ
 70
     0
  9
$DIMUPT
 70
     0
  9
$DIMDEC
 70
     1
  9
$DIMTDEC
 70
     1
  9
$DIMALTU
 70
     2
  9
$DIMALTTD
 70
     3
  9
$DIMTXSTY
  7
Standard
  9
$DIMAUNIT
 70
     0
  9
$DIMADEC
 70
     1
  9
$DIMALTRND
 40
0.0
  9
$DIMAZIN
 70
     0
  9
$DIMDSEP
 70
    44
  9
$DIMATFIT
 70
     3
  9
$DIMFRAC
 70
     0
  9
$DIMLDRBLK
  1

  9
$DIMLUNIT
 70
     2
  9
$DIMLWD
 70
    -2
  9
$DIMLWE
 70
    -2
  9
$DIMTMOVE
 70
     0
  9
$LUNITS
 70
     2
  9
$LUPREC
 70
     1
  9
$SKETCHINC
 40
1.0
  9
$FILLETRAD
 40
10.0
  9
$AUNITS
 70
     0
  9
$AUPREC
 70
     1
  9
$MENU
  1
.
  9
$ELEVATION
 40
0.0
  9
$PELEVATION
 40
0.0
  9
$THICKNESS
 40
0.0
  9
$LIMCHECK
 70
     0
  9
$CHAMFERA
 40
0.0
  9
$CHAMFERB
 40
0.0
  9
$CHAMFERC
 40
0.0
  9
$CHAMFERD
 40
0.0
  9
$SKPOLY
 70
     0
  9
$TDCREATE
 40
2459629.373729572
  9
$TDUCREATE
 40
2459629.332062905
  9
$TDUPDATE
 40
2459629.373729803
  9
$TDUUPDATE
 40
2459629.332063137
  9
$TDINDWG
 40
0.0000000116
  9
$TDUSRTIMER
 40
0.0000000116
  9
$USRTIMER
 70
     1
  9
$ANGBASE
 50
0.0
  9
$ANGDIR
 70
     0
  9
$PDMODE
 70
     0
  9
$PDSIZE
 40
-1.0
  9
$PLINEWID
 40
0.0
  9
$SPLFRAME
 70
     0
  9
$SPLINETYPE
 70
     6
  9
$SPLINESEGS
 70
     8
  9
$HANDSEED
  5
220
  9
$SURFTAB1
 70
     6
  9
$SURFTAB2
 70
     6
  9
$SURFTYPE
 70
     6
  9
$SURFU
 70
     6
  9
$SURFV
 70
     6
  9
$UCSBASE
  2

  9
$UCSNAME
  2

  9
$UCSORG
 10
0.0
 20
0.0
 30
0.0
  9
$UCSXDIR
 10
1.0
 20
0.0
 30
0.0
  9
$UCSYDIR
 10
0.0
 20
1.0
 30
0.0
  9
$UCSORTHOREF
  2

  9
$UCSORTHOVIEW
 70
     0
  9
$UCSORGTOP
 10
0.0
 20
0.0
 30
0.0
  9
$UCSORGBOTTOM
 10
0.0
 20
0.0
 30
0.0
  9
$UCSORGLEFT
 10
0.0
 20
0.0
 30
0.0
  9
$UCSORGRIGHT
 10
0.0
 20
0.0
 30
0.0
  9
$UCSORGFRONT
 10
0.0
 20
0.0
 30
0.0
  9
$UCSORGBACK
 10
0.0
 20
0.0
 30
0.0
  9
$PUCSBASE
  2

  9
$PUCSNAME
  2

  9
$PUCSORG
 10
0.0
 20
0.0
 30
0.0
  9
$PUCSXDIR
 10
1.0
 20
0.0
 30
0.0
  9
$PUCSYDIR
 10
0.0
 20
1.0
 30
0.0
  9
$PUCSORTHOREF
  2

  9
$PUCSORTHOVIEW
 70
     0
  9
$PUCSORGTOP
 10
0.0
 20
0.0
 30
0.0
  9
$PUCSORGBOTTOM
 10
0.0
 20
0.0
 30
0.0
  9
$PUCSORGLEFT
 10
0.0
 20
0.0
 30
0.0
  9
$PUCSORGRIGHT
 10
0.0
 20
0.0
 30
0.0
  9
$PUCSORGFRONT
 10
0.0
 20
0.0
 30
0.0
  9
$PUCSORGBACK
 10
0.0
 20
0.0
 30
0.0
  9
$USERI1
 70
     0
  9
$USERI2
 70
     0
  9
$USERI3
 70
     0
  9
$USERI4
 70
     0
  9
$USERI5
 70
     0
  9
$USERR1
 40
0.0
  9
$USERR2
 40
0.0
  9
$USERR3
 40
0.0
  9
$USERR4
 40
0.0
  9
$USERR5
 40
0.0
  9
$WORLDVIEW
 70
     1
  9
$SHADEDGE
 70
     3
  9
$SHADEDIF
 70
    70
  9
$TILEMODE
 70
     1
  9
$MAXACTVP
 70
    64
  9
$PINSBASE
 10
0.0
 20
0.0
 30
0.0
  9
$PLIMCHECK
 70
     0
  9
$PEXTMIN
 10
1.0000000000E+20
 20
1.0000000000E+20
 30
1.0000000000E+20
  9
$PEXTMAX
 10
-1.0000000000E+20
 20
-1.0000000000E+20
 30
-1.0000000000E+20
  9
$PLIMMIN
 10
0.0
 20
0.0
  9
$PLIMMAX
 10
420.0
 20
297.0
  9
$UNITMODE
 70
     0
  9
$VISRETAIN
 70
     1
  9
$PLINEGEN
 70
     0
  9
$PSLTSCALE
 70
     1
  9
$TREEDEPTH
 70
  3020
  9
$CMLSTYLE
  2
Standard
  9
$CMLJUST
 70
     0
  9
$CMLSCALE
 40
20.0
  9
$PROXYGRAPHICS
 70
     1
  9
$MEASUREMENT
 70
     1
  9
$CELWEIGHT
370
    -1
  9
$ENDCAPS
280
     0
  9
$JOINSTYLE
280
     0
  9
$LWDISPLAY
290
     1
  9
$INSUNITS
 70
     4
  9
$HYPERLINKBASE
  1

  9
$STYLESHEET
  1

  9
$XEDIT
290
     1
  9
$CEPSNTYPE
380
     0
  9
$PSTYLEMODE
290
     1
  9
$FINGERPRINTGUID
  2
{34f087f4-f4a3-4197-9562-4d0d15388299}
  9
$VERSIONGUID
  2
{FAEB1C32-E019-11D5-929B-00C0DF256EC4}
  9
$EXTNAMES
290
     1
  9
$PSVPSCALE
 40
0.0
  9
$OLESTARTUP
290
     0
  0
ENDSEC
  0
SECTION
  2
CLASSES
  0
CLASS
  1
ACDBDICTIONARYWDFLT
  2
AcDbDictionaryWithDefault
  3
ObjectDBX Classes
 90
        0
280
     0
281
     0
  0
CLASS
  1
VISUALSTYLE
  2
AcDbVisualStyle
  3
ObjectDBX Classes
 90
     4095
280
     0
281
     0
  0
CLASS
  1
MATERIAL
  2
AcDbMaterial
  3
ObjectDBX Classes
 90
     1153
280
     0
281
     0
  0
CLASS
  1
SCALE
  2
AcDbScale
  3
ObjectDBX Classes
 90
     1153
280
     0
281
     0
  0
CLASS
  1
TABLESTYLE
  2
AcDbTableStyle
  3
ObjectDBX Classes
 90
     4095
280
     0
281
     0
  0
CLASS
  1
MLEADERSTYLE
  2
AcDbMLeaderStyle
  3
ACDB_MLEADERSTYLE_CLASS
 90
     4095
280
     0
281
     0
  0
CLASS
  1
SUN
  2
AcDbSun
  3
SCENEOE
 90
     1153
280
     0
281
     0
  0
CLASS
  1
ACDBPLACEHOLDER
  2
AcDbPlaceHolder
  3
ObjectDBX Classes
 90
        0
280
     0
281
     0
  0
CLASS
  1
LAYOUT
  2
AcDbLayout
  3
ObjectDBX Classes
 90
        0
280
     0
281
     0
  0
ENDSEC
  0
SECTION
  2
TABLES
  0
TABLE
  2
VPORT
  5
8
330
0
100
AcDbSymbolTable
 70
     1
  0
VPORT
  5
29
330
8
100
AcDbSymbolTableRecord
100
AcDbViewportTableRecord
  2
*Active
 70
     0
 10
0.0
 20
0.0
 11
1.0
 21
1.0
 12
215.9
 22
139.7
 13
0.0
 23
0.0
 14
10.0
 24
10.0
 15
10.0
 25
10.0
 16
0.0
 26
0.0
 36
1.0
 17
0.0
 27
0.0
 37
0.0
 40
279.4
 41
1.5454545455
 42
50.0
 43
0.0
 44
0.0
 50
0.0
 51
0.0
 71
     0
 72
  2000
 73
     1
 74
     3
 75
     0
 76
     0
 77
     0
 78
     0
281
     0
 65
     1
110
0.0
120
0.0
130
0.0
111
1.0
121
0.0
131
0.0
112
0.0
122
1.0
132
0.0
 79
     0
146
0.0
  0
ENDTAB
  0
TABLE
  2
LTYPE
  5
5
330
0
100
AcDbSymbolTable
 70
     6
  0
LTYPE
  5
14
330
5
100
AcDbSymbolTableRecord
100
AcDbLinetypeTableRecord
  2
ByBlock
 70
     0
  3

 72
    65
 73
     0
 40
0.0
  0
LTYPE
  5
15
330
5
100
AcDbSymbolTableRecord
100
AcDbLinetypeTableRecord
  2
ByLayer
 70
     0
  3

 72
    65
 73
     0
 40
0.0
  0
LTYPE
  5
16
330
5
100
AcDbSymbolTableRecord
100
AcDbLinetypeTableRecord
  2
Continuous
 70
     0
  3
Solid line
 72
    65
 73
     0
 40
0.0
  0
LTYPE
  5
6E
330
5
100
AcDbSymbolTableRecord
100
AcDbLinetypeTableRecord
  2
HIDDEN
 70
     0
  3
Hidden __ __ __ __ __ __ __ __ __ __ __ __ __ __
 72
    65
 73
     2
 40
1.905
 49
1.27
 74
     0
 49
-0.635
 74
     0
  0
LTYPE
  5
6F
330
5
100
AcDbSymbolTableRecord
100
AcDbLinetypeTableRecord
  2
PHANTOM
 70
     0
  3
Phantom ______  __  __  ______  __  __  ______
 72
    65
 73
     6
 40
12.7
 49
6.35
 74
     0
 49
-1.27
 74
     0
 49
1.27
 74
     0
 49
-1.27
 74
     0
 49
1.27
 74
     0
 49
-1.27
 74
     0
  0
LTYPE
  5
70
330
5
100
AcDbSymbolTableRecord
100
AcDbLinetypeTableRecord
  2
CENTER
 70
     0
  3
Center ____ _ ____ _ ____ _ ____ _ ____ _ ____
 72
    65
 73
     4
 40
10.16
 49
6.35
 74
     0
 49
-1.27
 74
     0
 49
1.27
 74
     0
 49
-1.27
 74
     0
  0
LTYPE
  5
71
330
5
100
AcDbSymbolTableRecord
100
AcDbLinetypeTableRecord
  2
CENTERX2
 70
     0
  3
Center (2x) ________  __  ________  __  _____
 72
    65
 73
     4
 40
20.32
 49
12.7
 74
     0
 49
-2.54
 74
     0
 49
2.54
 74
     0
 49
-2.54
 74
     0
  0
LTYPE
  5
72
330
5
100
AcDbSymbolTableRecord
100
AcDbLinetypeTableRecord
  2
DOT2
 70
     0
  3
Dot (.5x) ........................................
 72
    65
 73
     2
 40
0.635
 49
0.0
 74
     0
 49
-0.635
 74
     0
  0
ENDTAB
  0
TABLE
  2
LAYER
  5
2
330
0
100
AcDbSymbolTable
 70
     3
  0
LAYER
  5
10
330
2
100
AcDbSymbolTableRecord
100
AcDbLayerTableRecord
  2
0
 70
     0
 62
     7
  6
Continuous
370
    -3
390
F
  0
LAYER
  5
73
330
2
100
AcDbSymbolTableRecord
100
AcDbLayerTableRecord
  2
FRAME_&_TABLE
 70
     0
 62
     8
  6
Continuous
370
    50
390
F
  0
LAYER
  5
74
330
2
100
AcDbSymbolTableRecord
100
AcDbLayerTableRecord
  2
DIMENSIONS
 70
     0
 62
     7
  6
Continuous
370
    -3
390
F
  0
ENDTAB
  0
TABLE
  2
STYLE
  5
3
330
0
100
AcDbSymbolTable
 70
     1
  0
STYLE
  5
11
330
3
100
AcDbSymbolTableRecord
100
AcDbTextStyleTableRecord
  2
Standard
 70
     0
 40
0.0
 41
1.0
 50
0.0
 71
     0
 42
3.8805555556
  3
txt
  4

  0
ENDTAB
  0
TABLE
  2
VIEW
  5
6
330
0
100
AcDbSymbolTable
 70
     0
  0
ENDTAB
  0
TABLE
  2
UCS
  5
7
330
0
100
AcDbSymbolTable
 70
     0
  0
ENDTAB
  0
TABLE
  2
APPID
  5
9
330
0
100
AcDbSymbolTable
 70
     1
  0
APPID
  5
12
330
9
100
AcDbSymbolTableRecord
100
AcDbRegAppTableRecord
  2
ACAD
 70
     0
  0
ENDTAB
  0
TABLE
  2
DIMSTYLE
  5
A
330
0
100
AcDbSymbolTable
 70
     1
100
AcDbDimStyleTable
  0
DIMSTYLE
105
27
330
A
100
AcDbSymbolTableRecord
100
AcDbDimStyleTableRecord
  2
ISO-25
 70
     0
 41
2.5
 42
0.625
 43
3.75
 44
1.25
 73
     0
 74
     0
 77
     1
 78
     8
140
2.5
141
2.5
143
0.0393700787
147
0.625
171
     3
172
     1
178
     0
271
     2
272
     2
274
     3
278
    44
283
     0
284
     8
340
11
  0
ENDTAB
  0
TABLE
  2
BLOCK_RECORD
  5
1
330
0
100
AcDbSymbolTable
 70
     1
  0
BLOCK_RECORD
  5
1F
330
1
100
AcDbSymbolTableRecord
100
AcDbBlockTableRecord
  2
*Model_Space
340
22
  0
BLOCK_RECORD
  5
1B
330
1
100
AcDbSymbolTableRecord
100
AcDbBlockTableRecord
  2
*Paper_Space
340
1E
  0
BLOCK_RECORD
  5
23
330
1
100
AcDbSymbolTableRecord
100
AcDbBlockTableRecord
  2
*Paper_Space0
340
26
  0
ENDTAB
  0
ENDSEC
  0
SECTION
  2
BLOCKS
  0
BLOCK
  5
20
330
1F
100
AcDbEntity
  8
0
100
AcDbBlockBegin
  2
*Model_Space
 70
     0
 10
0.0
 20
0.0
 30
0.0
  3
*Model_Space
  1

  0
ENDBLK
  5
21
330
1F
100
AcDbEntity
  8
0
100
AcDbBlockEnd
  0
BLOCK
  5
1C
330
1B
100
AcDbEntity
 67
     1
  8
0
100
AcDbBlockBegin
  2
*Paper_Space
 70
     0
 10
0.0
 20
0.0
 30
0.0
  3
*Paper_Space
  1

  0
ENDBLK
  5
1D
330
1B
100
AcDbEntity
 67
     1
  8
0
100
AcDbBlockEnd
  0
BLOCK
  5
24
330
23
100
AcDbEntity
  8
0
100
AcDbBlockBegin
  2
*Paper_Space0
 70
     0
 10
0.0
 20
0.0
 30
0.0
  3
*Paper_Space0
  1

  0
ENDBLK
  5
25
330
23
100
AcDbEntity
  8
0
100
AcDbBlockEnd
  0
ENDSEC
  0
SECTION
  2
ENTITIES
  0
LINE
  5
75
330
1F
100
AcDbEntity
  8
0
  6
Continuous
 62
     7
370
    25
100
AcDbLine
 10
-1819.1403267046
 20
2209.8548728269
 30
0.0
 11
-2561.4608347802
 21
924.1180373395
 31
0.0
  0
ARC
  5
76
330
1F
100
AcDbEntity
  8
0
  6
Continuous
 62
     7
370
    25
100
AcDbCircle
 10
-520.1022210279
 20
1459.854872827
 30
0.0
 40
1500.0
100
AcDbArc
 50
90.0
 51
150.0
  0
ARC
  5
77
330
1F
100
AcDbEntity
  8
0
  6
Continuous
 62
     7
370
    25
100
AcDbCircle
 10
964.5387951235
 20
1459.854872827
 30
0.0
 40
1500.0
100
AcDbArc
 50
30.0
 51
90.0
  0
ARC
  5
78
330
1F
100
AcDbEntity
  8
0
  6
Continuous
 62
     7
370
    25
100
AcDbCircle
 10
1706.8593031992
 20
174.1180373396
 30
0.0
 40
1500.0
100
AcDbArc
 50
330.0
 51
30.0
  0
LINE
  5
79
330
1F
100
AcDbEntity
  8
0
  6
Continuous
 62
     7
370
    25
100
AcDbLine
 10
-2561.4608347802
 20
-575.8819626605
 30
0.0
 11
-1819.1403267045
 21
-1861.6187981479
 31
0.0
  0
ARC
  5
7A
330
1F
100
AcDbEntity
  8
0
  6
Continuous
 62
     7
370
    25
100
AcDbCircle
 10
-1262.4227291035
 20
174.1180373395
 30
0.0
 40
1500.0
100
AcDbArc
 50
150.0
 51
210.0
  0
ARC
  5
7B
330
1F
100
AcDbEntity
  8
0
  6
Continuous
 62
     7
370
    25
100
AcDbCircle
 10
-520.1022210278
 20
-1111.6187981479
 30
0.0
 40
1500.0
100
AcDbArc
 50
210.0
 51
270.0
  0
LINE
  5
7C
330
1F
100
AcDbEntity
  8
0
  6
Continuous
 62
     7
370
    25
100
AcDbLine
 10
3005.8974088759
 20
924.1180373396
 30
0.0
 11
2263.5769008002
 21
2209.854872827
 31
0.0
  0
ARC
  5
7D
330
1F
100
AcDbEntity
  8
0
  6
Continuous
 62
     7
370
    25
100
AcDbCircle
 10
964.5387951235
 20
-1111.6187981479
 30
0.0
 40
1500.0
100
AcDbArc
 50
270.0
 51
330.0
  0
LINE
  5
7E
330
1F
100
AcDbEntity
  8
0
  6
Continuous
 62
     7
370
    25
100
AcDbLine
 10
2263.5769008002
 20
-1861.6187981479
 30
0.0
 11
3005.8974088759
 21
-575.8819626605
 31
0.0
  0
LINE
  5
7F
330
1F
100
AcDbEntity
  8
0
  6
Continuous
 62
     7
370
    25
100
AcDbLine
 10
964.5387951235
 20
2959.854872827
 30
0.0
 11
-520.1022210279
 21
2959.854872827
 31
0.0
  0
LINE
  5
80
330
1F
100
AcDbEntity
  8
0
  6
Continuous
 62
     7
370
    25
100
AcDbLine
 10
-520.1022210278
 20
-2611.6187981479
 30
0.0
 11
964.5387951235
 21
-2611.6187981479
 31
0.0
  0
LINE
  5
81
330
1F
100
AcDbEntity
  8
0
  6
Continuous
 62
     7
370
    25
100
AcDbLine
 10
374.7182870478
 20
1429.854872827
 30
0.0
 11
434.7182870478
 21
1429.854872827
 31
0.0
  0
LINE
  5
82
330
1F
100
AcDbEntity
  8
0
  6
Continuous
 62
     7
370
    25
100
AcDbLine
 10
434.7182870478
 20
1444.854872827
 30
0.0
 11
374.7182870478
 21
1444.854872827
 31
0.0
  0
LINE
  5
83
330
1F
100
AcDbEntity
  8
0
  6
Continuous
 62
     7
370
    25
100
AcDbLine
 10
434.7182870478
 20
1429.854872827
 30
0.0
 11
434.7182870478
 21
1444.854872827
 31
0.0
  0
LINE
  5
84
330
1F
100
AcDbEntity
  8
0
  6
Continuous
 62
     7
370
    25
100
AcDbLine
 10
374.7182870478
 20
1444.854872827
 30
0.0
 11
374.7182870478
 21
1429.854872827
 31
0.0
  0
LINE
  5
85
330
1F
100
AcDbEntity
  8
0
  6
Continuous
 62
     7
370
    25
100
AcDbLine
 10
69.7182870478
 20
1444.854872827
 30
0.0
 11
9.7182870478
 21
1444.854872827
 31
0.0
  0
LINE
  5
86
330
1F
100
AcDbEntity
  8
0
  6
Continuous
 62
     7
370
    25
100
AcDbLine
 10
9.7182870478
 20
1429.854872827
 30
0.0
 11
69.7182870478
 21
1429.854872827
 31
0.0
  0
LINE
  5
87
330
1F
100
AcDbEntity
  8
0
  6
Continuous
 62
     7
370
    25
100
AcDbLine
 10
69.7182870478
 20
1429.854872827
 30
0.0
 11
69.7182870478
 21
1444.854872827
 31
0.0
  0
LINE
  5
88
330
1F
100
AcDbEntity
  8
0
  6
Continuous
 62
     7
370
    25
100
AcDbLine
 10
9.7182870478
 20
1444.854872827
 30
0.0
 11
9.7182870478
 21
1429.854872827
 31
0.0
  0
LINE
  5
89
330
1F
100
AcDbEntity
  8
0
  6
Continuous
 62
     7
370
    25
100
AcDbLine
 10
-290.2817129522
 20
1444.854872827
 30
0.0
 11
-350.2817129522
 21
1444.854872827
 31
0.0
  0
LINE
  5
8A
330
1F
100
AcDbEntity
  8
0
  6
Continuous
 62
     7
370
    25
100
AcDbLine
 10
-350.2817129522
 20
1429.854872827
 30
0.0
 11
-290.2817129522
 21
1429.854872827
 31
0.0
  0
LINE
  5
8B
330
1F
100
AcDbEntity
  8
0
  6
Continuous
 62
     7
370
    25
100
AcDbLine
 10
-350.2817129522
 20
1444.854872827
 30
0.0
 11
-350.2817129522
 21
1429.854872827
 31
0.0
  0
LINE
  5
8C
330
1F
100
AcDbEntity
  8
0
  6
Continuous
 62
     7
370
    25
100
AcDbLine
 10
-290.2817129522
 20
1429.854872827
 30
0.0
 11
-290.2817129522
 21
1444.854872827
 31
0.0
  0
LINE
  5
8D
330
1F
100
AcDbEntity
  8
0
  6
Continuous
 62
     7
370
    25
100
AcDbLine
 10
-170.2817129522
 20
1429.854872827
 30
0.0
 11
-110.2817129522
 21
1429.854872827
 31
0.0
  0
LINE
  5
8E
330
1F
100
AcDbEntity
  8
0
  6
Continuous
 62
     7
370
    25
100
AcDbLine
 10
-170.2817129522
 20
1444.854872827
 30
0.0
 11
-170.2817129522
 21
1429.854872827
 31
0.0
  0
LINE
  5
8F
330
1F
100
AcDbEntity
  8
0
  6
Continuous
 62
     7
370
    25
100
AcDbLine
 10
-110.2817129522
 20
1444.854872827
 30
0.0
 11
-170.2817129522
 21
1444.854872827
 31
0.0
  0
LINE
  5
90
330
1F
100
AcDbEntity
  8
0
  6
Continuous
 62
     7
370
    25
100
AcDbLine
 10
-110.2817129522
 20
1429.854872827
 30
0.0
 11
-110.2817129522
 21
1444.854872827
 31
0.0
  0
LINE
  5
91
330
1F
100
AcDbEntity
  8
0
  6
Continuous
 62
     7
370
    25
100
AcDbLine
 10
734.7182870478
 20
1429.854872827
 30
0.0
 11
794.7182870478
 21
1429.854872827
 31
0.0
  0
LINE
  5
92
330
1F
100
AcDbEntity
  8
0
  6
Continuous
 62
     7
370
    25
100
AcDbLine
 10
794.7182870478
 20
1444.854872827
 30
0.0
 11
734.7182870478
 21
1444.854872827
 31
0.0
  0
LINE
  5
93
330
1F
100
AcDbEntity
  8
0
  6
Continuous
 62
     7
370
    25
100
AcDbLine
 10
794.7182870478
 20
1429.854872827
 30
0.0
 11
794.7182870478
 21
1444.854872827
 31
0.0
  0
LINE
  5
94
330
1F
100
AcDbEntity
  8
0
  6
Continuous
 62
     7
370
    25
100
AcDbLine
 10
734.7182870478
 20
1444.854872827
 30
0.0
 11
734.7182870478
 21
1429.854872827
 31
0.0
  0
LINE
  5
95
330
1F
100
AcDbEntity
  8
0
  6
Continuous
 62
     7
370
    25
100
AcDbLine
 10
554.7182870478
 20
1429.854872827
 30
0.0
 11
614.7182870478
 21
1429.854872827
 31
0.0
  0
LINE
  5
96
330
1F
100
AcDbEntity
  8
0
  6
Continuous
 62
     7
370
    25
100
AcDbLine
 10
554.7182870478
 20
1444.854872827
 30
0.0
 11
554.7182870478
 21
1429.854872827
 31
0.0
  0
LINE
  5
97
330
1F
100
AcDbEntity
  8
0
  6
Continuous
 62
     7
370
    25
100
AcDbLine
 10
614.7182870478
 20
1444.854872827
 30
0.0
 11
554.7182870478
 21
1444.854872827
 31
0.0
  0
LINE
  5
98
330
1F
100
AcDbEntity
  8
0
  6
Continuous
 62
     7
370
    25
100
AcDbLine
 10
614.7182870478
 20
1429.854872827
 30
0.0
 11
614.7182870478
 21
1444.854872827
 31
0.0
  0
LINE
  5
99
330
1F
100
AcDbEntity
  8
0
  6
Continuous
 62
     7
370
    25
100
AcDbLine
 10
103.55803301
 20
1429.854872827
 30
0.0
 11
340.8785410857
 21
1429.854872827
 31
0.0
  0
LINE
  5
9A
330
1F
100
AcDbEntity
  8
0
  6
Continuous
 62
     7
370
    25
100
AcDbLine
 10
103.55803301
 20
1444.854872827
 30
0.0
 11
340.8785410857
 21
1444.854872827
 31
0.0
  0
LINE
  5
9B
330
1F
100
AcDbEntity
  8
0
  6
Continuous
 62
     7
370
    25
100
AcDbLine
 10
-290.2817129522
 20
-1096.6187981479
 30
0.0
 11
-290.2817129522
 21
-1081.6187981479
 31
0.0
  0
LINE
  5
9C
330
1F
100
AcDbEntity
  8
0
  6
Continuous
 62
     7
370
    25
100
AcDbLine
 10
-350.2817129522
 20
-1081.6187981479
 30
0.0
 11
-350.2817129522
 21
-1096.6187981479
 31
0.0
  0
LINE
  5
9D
330
1F
100
AcDbEntity
  8
0
  6
Continuous
 62
     7
370
    25
100
AcDbLine
 10
-290.2817129522
 20
-1081.6187981479
 30
0.0
 11
-350.2817129522
 21
-1081.6187981479
 31
0.0
  0
LINE
  5
9E
330
1F
100
AcDbEntity
  8
0
  6
Continuous
 62
     7
370
    25
100
AcDbLine
 10
-350.2817129522
 20
-1096.6187981479
 30
0.0
 11
-290.2817129522
 21
-1096.6187981479
 31
0.0
  0
LINE
  5
9F
330
1F
100
AcDbEntity
  8
0
  6
Continuous
 62
     7
370
    25
100
AcDbLine
 10
69.7182870478
 20
-1096.6187981479
 30
0.0
 11
69.7182870478
 21
-1081.6187981479
 31
0.0
  0
LINE
  5
A0
330
1F
100
AcDbEntity
  8
0
  6
Continuous
 62
     7
370
    25
100
AcDbLine
 10
9.7182870478
 20
-1081.6187981479
 30
0.0
 11
9.7182870478
 21
-1096.6187981479
 31
0.0
  0
LINE
  5
A1
330
1F
100
AcDbEntity
  8
0
  6
Continuous
 62
     7
370
    25
100
AcDbLine
 10
69.7182870478
 20
-1081.6187981479
 30
0.0
 11
9.7182870478
 21
-1081.6187981479
 31
0.0
  0
LINE
  5
A2
330
1F
100
AcDbEntity
  8
0
  6
Continuous
 62
     7
370
    25
100
AcDbLine
 10
9.7182870478
 20
-1096.6187981479
 30
0.0
 11
69.7182870478
 21
-1096.6187981479
 31
0.0
  0
LINE
  5
A3
330
1F
100
AcDbEntity
  8
0
  6
Continuous
 62
     7
370
    25
100
AcDbLine
 10
434.7182870478
 20
-1096.6187981479
 30
0.0
 11
434.7182870478
 21
-1081.6187981479
 31
0.0
  0
LINE
  5
A4
330
1F
100
AcDbEntity
  8
0
  6
Continuous
 62
     7
370
    25
100
AcDbLine
 10
374.7182870478
 20
-1081.6187981479
 30
0.0
 11
374.7182870478
 21
-1096.6187981479
 31
0.0
  0
LINE
  5
A5
330
1F
100
AcDbEntity
  8
0
  6
Continuous
 62
     7
370
    25
100
AcDbLine
 10
434.7182870478
 20
-1081.6187981479
 30
0.0
 11
374.7182870478
 21
-1081.6187981479
 31
0.0
  0
LINE
  5
A6
330
1F
100
AcDbEntity
  8
0
  6
Continuous
 62
     7
370
    25
100
AcDbLine
 10
374.7182870478
 20
-1096.6187981479
 30
0.0
 11
434.7182870478
 21
-1096.6187981479
 31
0.0
  0
LINE
  5
A7
330
1F
100
AcDbEntity
  8
0
  6
Continuous
 62
     7
370
    25
100
AcDbLine
 10
554.7182870478
 20
-1081.6187981479
 30
0.0
 11
554.7182870478
 21
-1096.6187981479
 31
0.0
  0
LINE
  5
A8
330
1F
100
AcDbEntity
  8
0
  6
Continuous
 62
     7
370
    25
100
AcDbLine
 10
614.7182870478
 20
-1096.6187981479
 30
0.0
 11
614.7182870478
 21
-1081.6187981479
 31
0.0
  0
LINE
  5
A9
330
1F
100
AcDbEntity
  8
0
  6
Continuous
 62
     7
370
    25
100
AcDbLine
 10
614.7182870478
 20
-1081.6187981479
 30
0.0
 11
554.7182870478
 21
-1081.6187981479
 31
0.0
  0
LINE
  5
AA
330
1F
100
AcDbEntity
  8
0
  6
Continuous
 62
     7
370
    25
100
AcDbLine
 10
554.7182870478
 20
-1096.6187981479
 30
0.0
 11
614.7182870478
 21
-1096.6187981479
 31
0.0
  0
LINE
  5
AB
330
1F
100
AcDbEntity
  8
0
  6
Continuous
 62
     7
370
    25
100
AcDbLine
 10
-110.2817129522
 20
-1096.6187981479
 30
0.0
 11
-110.2817129522
 21
-1081.6187981479
 31
0.0
  0
LINE
  5
AC
330
1F
100
AcDbEntity
  8
0
  6
Continuous
 62
     7
370
    25
100
AcDbLine
 10
-170.2817129522
 20
-1081.6187981479
 30
0.0
 11
-170.2817129522
 21
-1096.6187981479
 31
0.0
  0
LINE
  5
AD
330
1F
100
AcDbEntity
  8
0
  6
Continuous
 62
     7
370
    25
100
AcDbLine
 10
-110.2817129522
 20
-1081.6187981479
 30
0.0
 11
-170.2817129522
 21
-1081.6187981479
 31
0.0
  0
LINE
  5
AE
330
1F
100
AcDbEntity
  8
0
  6
Continuous
 62
     7
370
    25
100
AcDbLine
 10
-170.2817129522
 20
-1096.6187981479
 30
0.0
 11
-110.2817129522
 21
-1096.6187981479
 31
0.0
  0
LINE
  5
AF
330
1F
100
AcDbEntity
  8
0
  6
Continuous
 62
     7
370
    25
100
AcDbLine
 10
734.7182870478
 20
-1081.6187981479
 30
0.0
 11
734.7182870478
 21
-1096.6187981479
 31
0.0
  0
LINE
  5
B0
330
1F
100
AcDbEntity
  8
0
  6
Continuous
 62
     7
370
    25
100
AcDbLine
 10
794.7182870478
 20
-1096.6187981479
 30
0.0
 11
794.7182870478
 21
-1081.6187981479
 31
0.0
  0
LINE
  5
B1
330
1F
100
AcDbEntity
  8
0
  6
Continuous
 62
     7
370
    25
100
AcDbLine
 10
794.7182870478
 20
-1081.6187981479
 30
0.0
 11
734.7182870478
 21
-1081.6187981479
 31
0.0
  0
LINE
  5
B2
330
1F
100
AcDbEntity
  8
0
  6
Continuous
 62
     7
370
    25
100
AcDbLine
 10
734.7182870478
 20
-1096.6187981479
 30
0.0
 11
794.7182870478
 21
-1096.6187981479
 31
0.0
  0
LINE
  5
B3
330
1F
100
AcDbEntity
  8
0
  6
Continuous
 62
     7
370
    25
100
AcDbLine
 10
340.8785410857
 20
-1081.6187981479
 30
0.0
 11
103.55803301
 21
-1081.6187981479
 31
0.0
  0
LINE
  5
B4
330
1F
100
AcDbEntity
  8
0
  6
Continuous
 62
     7
370
    25
100
AcDbLine
 10
340.8785410857
 20
-1096.6187981479
 30
0.0
 11
103.55803301
 21
-1096.6187981479
 31
0.0
  0
LINE
  5
B5
330
1F
100
AcDbEntity
  8
0
  6
Continuous
 62
     7
370
    25
100
AcDbLine
 10
-1031.5317129522
 20
-165.7969336459
 30
0.0
 11
-1061.5317129522
 21
-113.8354094188
 31
0.0
  0
LINE
  5
B6
330
1F
100
AcDbEntity
  8
0
  6
Continuous
 62
     7
370
    25
100
AcDbLine
 10
-1044.5220940089
 20
-173.2969336459
 30
0.0
 11
-1031.5317129522
 21
-165.7969336459
 31
0.0
  0
LINE
  5
B7
330
1F
100
AcDbEntity
  8
0
  6
Continuous
 62
     7
370
    25
100
AcDbLine
 10
-1074.5220940089
 20
-121.3354094188
 30
0.0
 11
-1044.5220940089
 21
-173.2969336459
 31
0.0
  0
LINE
  5
B8
330
1F
100
AcDbEntity
  8
0
  6
Continuous
 62
     7
370
    25
100
AcDbLine
 10
-1061.5317129522
 20
-113.8354094188
 30
0.0
 11
-1074.5220940089
 21
-121.3354094188
 31
0.0
  0
LINE
  5
B9
330
1F
100
AcDbEntity
  8
0
  6
Continuous
 62
     7
370
    25
100
AcDbLine
 10
-1121.5317129522
 20
-9.9123609647
 30
0.0
 11
-1151.5317129522
 21
42.0491632624
 31
0.0
  0
LINE
  5
BA
330
1F
100
AcDbEntity
  8
0
  6
Continuous
 62
     7
370
    25
100
AcDbLine
 10
-1134.5220940089
 20
-17.4123609647
 30
0.0
 11
-1121.5317129522
 21
-9.9123609647
 31
0.0
  0
LINE
  5
BB
330
1F
100
AcDbEntity
  8
0
  6
Continuous
 62
     7
370
    25
100
AcDbLine
 10
-1164.5220940089
 20
34.5491632624
 30
0.0
 11
-1134.5220940089
 21
-17.4123609647
 31
0.0
  0
LINE
  5
BC
330
1F
100
AcDbEntity
  8
0
  6
Continuous
 62
     7
370
    25
100
AcDbLine
 10
-1151.5317129522
 20
42.0491632624
 30
0.0
 11
-1164.5220940089
 21
34.5491632624
 31
0.0
  0
LINE
  5
BD
330
1F
100
AcDbEntity
  8
0
  6
Continuous
 62
     7
370
    25
100
AcDbLine
 10
-941.5317129522
 20
-321.6815063271
 30
0.0
 11
-971.5317129522
 21
-269.7199821
 31
0.0
  0
LINE
  5
BE
330
1F
100
AcDbEntity
  8
0
  6
Continuous
 62
     7
370
    25
100
AcDbLine
 10
-954.5220940089
 20
-329.1815063271
 30
0.0
 11
-941.5317129522
 21
-321.6815063271
 31
0.0
  0
LINE
  5
BF
330
1F
100
AcDbEntity
  8
0
  6
Continuous
 62
     7
370
    25
100
AcDbLine
 10
-984.5220940089
 20
-277.2199821
 30
0.0
 11
-954.5220940089
 21
-329.1815063271
 31
0.0
  0
LINE
  5
C0
330
1F
100
AcDbEntity
  8
0
  6
Continuous
 62
     7
370
    25
100
AcDbLine
 10
-971.5317129522
 20
-269.7199821
 30
0.0
 11
-984.5220940089
 21
-277.2199821
 31
0.0
  0
LINE
  5
C1
330
1F
100
AcDbEntity
  8
0
  6
Continuous
 62
     7
370
    25
100
AcDbLine
 10
-772.0220940089
 20
-645.2807787084
 30
0.0
 11
-759.0317129522
 21
-637.7807787084
 31
0.0
  0
LINE
  5
C2
330
1F
100
AcDbEntity
  8
0
  6
Continuous
 62
     7
370
    25
100
AcDbLine
 10
-802.0220940089
 20
-593.3192544813
 30
0.0
 11
-772.0220940089
 21
-645.2807787084
 31
0.0
  0
LINE
  5
C3
330
1F
100
AcDbEntity
  8
0
  6
Continuous
 62
     7
370
    25
100
AcDbLine
 10
-759.0317129522
 20
-637.7807787084
 30
0.0
 11
-789.0317129522
 21
-585.8192544813
 31
0.0
  0
LINE
  5
C4
330
1F
100
AcDbEntity
  8
0
  6
Continuous
 62
     7
370
    25
100
AcDbLine
 10
-789.0317129522
 20
-585.8192544813
 30
0.0
 11
-802.0220940089
 21
-593.3192544813
 31
0.0
  0
LINE
  5
C5
330
1F
100
AcDbEntity
  8
0
  6
Continuous
 62
     7
370
    25
100
AcDbLine
 10
-592.0220940089
 20
-957.0499240708
 30
0.0
 11
-579.0317129521
 21
-949.5499240708
 31
0.0
  0
LINE
  5
C6
330
1F
100
AcDbEntity
  8
0
  6
Continuous
 62
     7
370
    25
100
AcDbLine
 10
-622.0220940089
 20
-905.0883998437
 30
0.0
 11
-592.0220940089
 21
-957.0499240708
 31
0.0
  0
LINE
  5
C7
330
1F
100
AcDbEntity
  8
0
  6
Continuous
 62
     7
370
    25
100
AcDbLine
 10
-609.0317129521
 20
-897.5883998437
 30
0.0
 11
-622.0220940089
 21
-905.0883998437
 31
0.0
  0
LINE
  5
C8
330
1F
100
AcDbEntity
  8
0
  6
Continuous
 62
     7
370
    25
100
AcDbLine
 10
-579.0317129521
 20
-949.5499240708
 30
0.0
 11
-609.0317129521
 21
-897.5883998437
 31
0.0
  0
LINE
  5
C9
330
1F
100
AcDbEntity
  8
0
  6
Continuous
 62
     7
370
    25
100
AcDbLine
 10
-699.0317129522
 20
-741.7038271625
 30
0.0
 11
-712.0220940089
 21
-749.2038271625
 31
0.0
  0
LINE
  5
CA
330
1F
100
AcDbEntity
  8
0
  6
Continuous
 62
     7
370
    25
100
AcDbLine
 10
-682.0220940089
 20
-801.1653513896
 30
0.0
 11
-669.0317129522
 21
-793.6653513896
 31
0.0
  0
LINE
  5
CB
330
1F
100
AcDbEntity
  8
0
  6
Continuous
 62
     7
370
    25
100
AcDbLine
 10
-712.0220940089
 20
-749.2038271625
 30
0.0
 11
-682.0220940089
 21
-801.1653513896
 31
0.0
  0
LINE
  5
CC
330
1F
100
AcDbEntity
  8
0
  6
Continuous
 62
     7
370
    25
100
AcDbLine
 10
-669.0317129522
 20
-793.6653513896
 30
0.0
 11
-699.0317129522
 21
-741.7038271625
 31
0.0
  0
LINE
  5
CD
330
1F
100
AcDbEntity
  8
0
  6
Continuous
 62
     7
370
    25
100
AcDbLine
 10
-818.94196699
 20
-564.0131748205
 30
0.0
 11
-937.6022210278
 21
-358.4875859879
 31
0.0
  0
LINE
  5
CE
330
1F
100
AcDbEntity
  8
0
  6
Continuous
 62
     7
370
    25
100
AcDbLine
 10
-805.9515859332
 20
-556.5131748205
 30
0.0
 11
-924.6118399711
 21
-350.9875859879
 31
0.0
  0
LINE
  5
CF
330
1F
100
AcDbEntity
  8
0
  6
Continuous
 62
     7
370
    25
100
AcDbLine
 10
-699.0317129522
 20
1089.9399018416
 30
0.0
 11
-669.0317129522
 21
1141.9014260687
 31
0.0
  0
LINE
  5
D0
330
1F
100
AcDbEntity
  8
0
  6
Continuous
 62
     7
370
    25
100
AcDbLine
 10
-712.0220940089
 20
1097.4399018416
 30
0.0
 11
-699.0317129522
 21
1089.9399018416
 31
0.0
  0
LINE
  5
D1
330
1F
100
AcDbEntity
  8
0
  6
Continuous
 62
     7
370
    25
100
AcDbLine
 10
-682.0220940089
 20
1149.4014260687
 30
0.0
 11
-712.0220940089
 21
1097.4399018416
 31
0.0
  0
LINE
  5
D2
330
1F
100
AcDbEntity
  8
0
  6
Continuous
 62
     7
370
    25
100
AcDbLine
 10
-669.0317129522
 20
1141.9014260687
 30
0.0
 11
-682.0220940089
 21
1149.4014260687
 31
0.0
  0
LINE
  5
D3
330
1F
100
AcDbEntity
  8
0
  6
Continuous
 62
     7
370
    25
100
AcDbLine
 10
-609.0317129522
 20
1245.8244745228
 30
0.0
 11
-579.0317129522
 21
1297.7859987499
 31
0.0
  0
LINE
  5
D4
330
1F
100
AcDbEntity
  8
0
  6
Continuous
 62
     7
370
    25
100
AcDbLine
 10
-622.0220940089
 20
1253.3244745228
 30
0.0
 11
-609.0317129522
 21
1245.8244745228
 31
0.0
  0
LINE
  5
D5
330
1F
100
AcDbEntity
  8
0
  6
Continuous
 62
     7
370
    25
100
AcDbLine
 10
-592.0220940089
 20
1305.2859987499
 30
0.0
 11
-622.0220940089
 21
1253.3244745228
 31
0.0
  0
LINE
  5
D6
330
1F
100
AcDbEntity
  8
0
  6
Continuous
 62
     7
370
    25
100
AcDbLine
 10
-579.0317129522
 20
1297.7859987499
 30
0.0
 11
-592.0220940089
 21
1305.2859987499
 31
0.0
  0
LINE
  5
D7
330
1F
100
AcDbEntity
  8
0
  6
Continuous
 62
     7
370
    25
100
AcDbLine
 10
-789.0317129522
 20
934.0553291604
 30
0.0
 11
-759.0317129522
 21
986.0168533875
 31
0.0
  0
LINE
  5
D8
330
1F
100
AcDbEntity
  8
0
  6
Continuous
 62
     7
370
    25
100
AcDbLine
 10
-802.0220940089
 20
941.5553291604
 30
0.0
 11
-789.0317129522
 21
934.0553291604
 31
0.0
  0
LINE
  5
D9
330
1F
100
AcDbEntity
  8
0
  6
Continuous
 62
     7
370
    25
100
AcDbLine
 10
-772.0220940089
 20
993.5168533875
 30
0.0
 11
-802.0220940089
 21
941.5553291604
 31
0.0
  0
LINE
  5
DA
330
1F
100
AcDbEntity
  8
0
  6
Continuous
 62
     7
370
    25
100
AcDbLine
 10
-759.0317129522
 20
986.0168533875
 30
0.0
 11
-772.0220940089
 21
993.5168533875
 31
0.0
  0
LINE
  5
DB
330
1F
100
AcDbEntity
  8
0
  6
Continuous
 62
     7
370
    25
100
AcDbLine
 10
-971.5317129522
 20
617.9560567791
 30
0.0
 11
-941.5317129522
 21
669.9175810061
 31
0.0
  0
LINE
  5
DC
330
1F
100
AcDbEntity
  8
0
  6
Continuous
 62
     7
370
    25
100
AcDbLine
 10
-984.5220940089
 20
625.4560567791
 30
0.0
 11
-971.5317129522
 21
617.9560567791
 31
0.0
  0
LINE
  5
DD
330
1F
100
AcDbEntity
  8
0
  6
Continuous
 62
     7
370
    25
100
AcDbLine
 10
-941.5317129522
 20
669.9175810061
 30
0.0
 11
-954.5220940089
 21
677.4175810061
 31
0.0
  0
LINE
  5
DE
330
1F
100
AcDbEntity
  8
0
  6
Continuous
 62
     7
370
    25
100
AcDbLine
 10
-954.5220940089
 20
677.4175810061
 30
0.0
 11
-984.5220940089
 21
625.4560567791
 31
0.0
  0
LINE
  5
DF
330
1F
100
AcDbEntity
  8
0
  6
Continuous
 62
     7
370
    25
100
AcDbLine
 10
-1151.5317129522
 20
306.1869114167
 30
0.0
 11
-1121.5317129522
 21
358.1484356437
 31
0.0
  0
LINE
  5
E0
330
1F
100
AcDbEntity
  8
0
  6
Continuous
 62
     7
370
    25
100
AcDbLine
 10
-1164.5220940089
 20
313.6869114167
 30
0.0
 11
-1151.5317129522
 21
306.1869114167
 31
0.0
  0
LINE
  5
E1
330
1F
100
AcDbEntity
  8
0
  6
Continuous
 62
     7
370
    25
100
AcDbLine
 10
-1121.5317129522
 20
358.1484356437
 30
0.0
 11
-1134.5220940089
 21
365.6484356437
 31
0.0
  0
LINE
  5
E2
330
1F
100
AcDbEntity
  8
0
  6
Continuous
 62
     7
370
    25
100
AcDbLine
 10
-1134.5220940089
 20
365.6484356437
 30
0.0
 11
-1164.5220940089
 21
313.6869114167
 31
0.0
  0
LINE
  5
E3
330
1F
100
AcDbEntity
  8
0
  6
Continuous
 62
     7
370
    25
100
AcDbLine
 10
-1061.5317129522
 20
462.0714840979
 30
0.0
 11
-1031.5317129522
 21
514.0330083249
 31
0.0
  0
LINE
  5
E4
330
1F
100
AcDbEntity
  8
0
  6
Continuous
 62
     7
370
    25
100
AcDbLine
 10
-1074.5220940089
 20
469.5714840979
 30
0.0
 11
-1061.5317129522
 21
462.0714840979
 31
0.0
  0
LINE
  5
E5
330
1F
100
AcDbEntity
  8
0
  6
Continuous
 62
     7
370
    25
100
AcDbLine
 10
-1044.5220940089
 20
521.5330083249
 30
0.0
 11
-1074.5220940089
 21
469.5714840979
 31
0.0
  0
LINE
  5
E6
330
1F
100
AcDbEntity
  8
0
  6
Continuous
 62
     7
370
    25
100
AcDbLine
 10
-1031.5317129522
 20
514.0330083249
 30
0.0
 11
-1044.5220940089
 21
521.5330083249
 31
0.0
  0
LINE
  5
E7
330
1F
100
AcDbEntity
  8
0
  6
Continuous
 62
     7
370
    25
100
AcDbLine
 10
-924.6118399711
 20
699.223660667
 30
0.0
 11
-805.9515859333
 21
904.7492494995
 31
0.0
  0
LINE
  5
E8
330
1F
100
AcDbEntity
  8
0
  6
Continuous
 62
     7
370
    25
100
AcDbLine
 10
-937.6022210279
 20
706.723660667
 30
0.0
 11
-818.94196699
 21
912.2492494995
 31
0.0
  0
LINE
  5
E9
330
1F
100
AcDbEntity
  8
0
  6
Continuous
 62
     7
370
    25
100
AcDbLine
 10
1143.4682870478
 20
-741.7038271625
 30
0.0
 11
1113.4682870478
 21
-793.6653513896
 31
0.0
  0
LINE
  5
EA
330
1F
100
AcDbEntity
  8
0
  6
Continuous
 62
     7
370
    25
100
AcDbLine
 10
1156.4586681046
 20
-749.2038271625
 30
0.0
 11
1143.4682870478
 21
-741.7038271625
 31
0.0
  0
LINE
  5
EB
330
1F
100
AcDbEntity
  8
0
  6
Continuous
 62
     7
370
    25
100
AcDbLine
 10
1126.4586681046
 20
-801.1653513896
 30
0.0
 11
1156.4586681046
 21
-749.2038271625
 31
0.0
  0
LINE
  5
EC
330
1F
100
AcDbEntity
  8
0
  6
Continuous
 62
     7
370
    25
100
AcDbLine
 10
1113.4682870478
 20
-793.6653513896
 30
0.0
 11
1126.4586681046
 21
-801.1653513896
 31
0.0
  0
LINE
  5
ED
330
1F
100
AcDbEntity
  8
0
  6
Continuous
 62
     7
370
    25
100
AcDbLine
 10
1608.9586681046
 20
34.5491632624
 30
0.0
 11
1595.9682870478
 21
42.0491632624
 31
0.0
  0
LINE
  5
EE
330
1F
100
AcDbEntity
  8
0
  6
Continuous
 62
     7
370
    25
100
AcDbLine
 10
1565.9682870478
 20
-9.9123609646
 30
0.0
 11
1578.9586681046
 21
-17.4123609646
 31
0.0
  0
LINE
  5
EF
330
1F
100
AcDbEntity
  8
0
  6
Continuous
 62
     7
370
    25
100
AcDbLine
 10
1595.9682870478
 20
42.0491632624
 30
0.0
 11
1565.9682870478
 21
-9.9123609646
 31
0.0
  0
LINE
  5
F0
330
1F
100
AcDbEntity
  8
0
  6
Continuous
 62
     7
370
    25
100
AcDbLine
 10
1578.9586681046
 20
-17.4123609646
 30
0.0
 11
1608.9586681046
 21
34.5491632624
 31
0.0
  0
LINE
  5
F1
330
1F
100
AcDbEntity
  8
0
  6
Continuous
 62
     7
370
    25
100
AcDbLine
 10
1475.9682870478
 20
-165.7969336458
 30
0.0
 11
1488.9586681046
 21
-173.2969336458
 31
0.0
  0
LINE
  5
F2
330
1F
100
AcDbEntity
  8
0
  6
Continuous
 62
     7
370
    25
100
AcDbLine
 10
1518.9586681046
 20
-121.3354094188
 30
0.0
 11
1505.9682870478
 21
-113.8354094188
 31
0.0
  0
LINE
  5
F3
330
1F
100
AcDbEntity
  8
0
  6
Continuous
 62
     7
370
    25
100
AcDbLine
 10
1505.9682870478
 20
-113.8354094188
 30
0.0
 11
1475.9682870478
 21
-165.7969336458
 31
0.0
  0
LINE
  5
F4
330
1F
100
AcDbEntity
  8
0
  6
Continuous
 62
     7
370
    25
100
AcDbLine
 10
1488.9586681046
 20
-173.2969336458
 30
0.0
 11
1518.9586681046
 21
-121.3354094188
 31
0.0
  0
LINE
  5
F5
330
1F
100
AcDbEntity
  8
0
  6
Continuous
 62
     7
370
    25
100
AcDbLine
 10
1428.9586681046
 20
-277.2199821
 30
0.0
 11
1415.9682870478
 21
-269.7199821
 31
0.0
  0
LINE
  5
F6
330
1F
100
AcDbEntity
  8
0
  6
Continuous
 62
     7
370
    25
100
AcDbLine
 10
1385.9682870478
 20
-321.681506327
 30
0.0
 11
1398.9586681046
 21
-329.181506327
 31
0.0
  0
LINE
  5
F7
330
1F
100
AcDbEntity
  8
0
  6
Continuous
 62
     7
370
    25
100
AcDbLine
 10
1415.9682870478
 20
-269.7199821
 30
0.0
 11
1385.9682870478
 21
-321.681506327
 31
0.0
  0
LINE
  5
F8
330
1F
100
AcDbEntity
  8
0
  6
Continuous
 62
     7
370
    25
100
AcDbLine
 10
1398.9586681046
 20
-329.181506327
 30
0.0
 11
1428.9586681046
 21
-277.2199821
 31
0.0
  0
LINE
  5
F9
330
1F
100
AcDbEntity
  8
0
  6
Continuous
 62
     7
370
    25
100
AcDbLine
 10
1066.4586681046
 20
-905.0883998437
 30
0.0
 11
1053.4682870478
 21
-897.5883998437
 31
0.0
  0
LINE
  5
FA
330
1F
100
AcDbEntity
  8
0
  6
Continuous
 62
     7
370
    25
100
AcDbLine
 10
1023.4682870478
 20
-949.5499240708
 30
0.0
 11
1036.4586681046
 21
-957.0499240708
 31
0.0
  0
LINE
  5
FB
330
1F
100
AcDbEntity
  8
0
  6
Continuous
 62
     7
370
    25
100
AcDbLine
 10
1053.4682870478
 20
-897.5883998437
 30
0.0
 11
1023.4682870478
 21
-949.5499240708
 31
0.0
  0
LINE
  5
FC
330
1F
100
AcDbEntity
  8
0
  6
Continuous
 62
     7
370
    25
100
AcDbLine
 10
1036.4586681046
 20
-957.0499240708
 30
0.0
 11
1066.4586681046
 21
-905.0883998437
 31
0.0
  0
LINE
  5
FD
330
1F
100
AcDbEntity
  8
0
  6
Continuous
 62
     7
370
    25
100
AcDbLine
 10
1246.4586681046
 20
-593.3192544813
 30
0.0
 11
1233.4682870478
 21
-585.8192544813
 31
0.0
  0
LINE
  5
FE
330
1F
100
AcDbEntity
  8
0
  6
Continuous
 62
     7
370
    25
100
AcDbLine
 10
1203.4682870478
 20
-637.7807787084
 30
0.0
 11
1216.4586681046
 21
-645.2807787084
 31
0.0
  0
LINE
  5
FF
330
1F
100
AcDbEntity
  8
0
  6
Continuous
 62
     7
370
    25
100
AcDbLine
 10
1233.4682870478
 20
-585.8192544813
 30
0.0
 11
1203.4682870478
 21
-637.7807787084
 31
0.0
  0
LINE
  5
100
330
1F
100
AcDbEntity
  8
0
  6
Continuous
 62
     7
370
    25
100
AcDbLine
 10
1216.4586681046
 20
-645.2807787084
 30
0.0
 11
1246.4586681046
 21
-593.3192544813
 31
0.0
  0
LINE
  5
101
330
1F
100
AcDbEntity
  8
0
  6
Continuous
 62
     7
370
    25
100
AcDbLine
 10
1369.0484140668
 20
-350.9875859879
 30
0.0
 11
1250.3881600289
 21
-556.5131748204
 31
0.0
  0
LINE
  5
102
330
1F
100
AcDbEntity
  8
0
  6
Continuous
 62
     7
370
    25
100
AcDbLine
 10
1382.0387951235
 20
-358.4875859879
 30
0.0
 11
1263.3785410857
 21
-564.0131748204
 31
0.0
  0
LINE
  5
103
330
1F
100
AcDbEntity
  8
0
  6
Continuous
 62
     7
370
    25
100
AcDbLine
 10
1036.4586681046
 20
1305.2859987499
 30
0.0
 11
1023.4682870478
 21
1297.7859987499
 31
0.0
  0
LINE
  5
104
330
1F
100
AcDbEntity
  8
0
  6
Continuous
 62
     7
370
    25
100
AcDbLine
 10
1066.4586681046
 20
1253.3244745228
 30
0.0
 11
1036.4586681046
 21
1305.2859987499
 31
0.0
  0
LINE
  5
105
330
1F
100
AcDbEntity
  8
0
  6
Continuous
 62
     7
370
    25
100
AcDbLine
 10
1053.4682870478
 20
1245.8244745228
 30
0.0
 11
1066.4586681046
 21
1253.3244745228
 31
0.0
  0
LINE
  5
106
330
1F
100
AcDbEntity
  8
0
  6
Continuous
 62
     7
370
    25
100
AcDbLine
 10
1023.4682870478
 20
1297.7859987499
 30
0.0
 11
1053.4682870478
 21
1245.8244745228
 31
0.0
  0
LINE
  5
107
330
1F
100
AcDbEntity
  8
0
  6
Continuous
 62
     7
370
    25
100
AcDbLine
 10
1216.4586681046
 20
993.5168533875
 30
0.0
 11
1203.4682870478
 21
986.0168533875
 31
0.0
  0
LINE
  5
108
330
1F
100
AcDbEntity
  8
0
  6
Continuous
 62
     7
370
    25
100
AcDbLine
 10
1233.4682870478
 20
934.0553291604
 30
0.0
 11
1246.4586681046
 21
941.5553291604
 31
0.0
  0
LINE
  5
109
330
1F
100
AcDbEntity
  8
0
  6
Continuous
 62
     7
370
    25
100
AcDbLine
 10
1246.4586681046
 20
941.5553291604
 30
0.0
 11
1216.4586681046
 21
993.5168533875
 31
0.0
  0
LINE
  5
10A
330
1F
100
AcDbEntity
  8
0
  6
Continuous
 62
     7
370
    25
100
AcDbLine
 10
1203.4682870478
 20
986.0168533875
 30
0.0
 11
1233.4682870478
 21
934.0553291604
 31
0.0
  0
LINE
  5
10B
330
1F
100
AcDbEntity
  8
0
  6
Continuous
 62
     7
370
    25
100
AcDbLine
 10
1398.9586681046
 20
677.4175810061
 30
0.0
 11
1385.9682870478
 21
669.9175810061
 31
0.0
  0
LINE
  5
10C
330
1F
100
AcDbEntity
  8
0
  6
Continuous
 62
     7
370
    25
100
AcDbLine
 10
1415.9682870478
 20
617.9560567791
 30
0.0
 11
1428.9586681046
 21
625.4560567791
 31
0.0
  0
LINE
  5
10D
330
1F
100
AcDbEntity
  8
0
  6
Continuous
 62
     7
370
    25
100
AcDbLine
 10
1428.9586681046
 20
625.4560567791
 30
0.0
 11
1398.9586681046
 21
677.4175810061
 31
0.0
  0
LINE
  5
10E
330
1F
100
AcDbEntity
  8
0
  6
Continuous
 62
     7
370
    25
100
AcDbLine
 10
1385.9682870478
 20
669.9175810061
 30
0.0
 11
1415.9682870478
 21
617.9560567791
 31
0.0
  0
LINE
  5
10F
330
1F
100
AcDbEntity
  8
0
  6
Continuous
 62
     7
370
    25
100
AcDbLine
 10
1505.9682870478
 20
462.0714840979
 30
0.0
 11
1518.9586681046
 21
469.5714840979
 31
0.0
  0
LINE
  5
110
330
1F
100
AcDbEntity
  8
0
  6
Continuous
 62
     7
370
    25
100
AcDbLine
 10
1518.9586681046
 20
469.5714840979
 30
0.0
 11
1488.9586681046
 21
521.5330083249
 31
0.0
  0
LINE
  5
111
330
1F
100
AcDbEntity
  8
0
  6
Continuous
 62
     7
370
    25
100
AcDbLine
 10
1488.9586681046
 20
521.5330083249
 30
0.0
 11
1475.9682870478
 21
514.0330083249
 31
0.0
  0
LINE
  5
112
330
1F
100
AcDbEntity
  8
0
  6
Continuous
 62
     7
370
    25
100
AcDbLine
 10
1475.9682870478
 20
514.0330083249
 30
0.0
 11
1505.9682870478
 21
462.0714840979
 31
0.0
  0
LINE
  5
113
330
1F
100
AcDbEntity
  8
0
  6
Continuous
 62
     7
370
    25
100
AcDbLine
 10
1578.9586681046
 20
365.6484356437
 30
0.0
 11
1565.9682870478
 21
358.1484356437
 31
0.0
  0
LINE
  5
114
330
1F
100
AcDbEntity
  8
0
  6
Continuous
 62
     7
370
    25
100
AcDbLine
 10
1595.9682870478
 20
306.1869114167
 30
0.0
 11
1608.9586681046
 21
313.6869114167
 31
0.0
  0
LINE
  5
115
330
1F
100
AcDbEntity
  8
0
  6
Continuous
 62
     7
370
    25
100
AcDbLine
 10
1608.9586681046
 20
313.6869114167
 30
0.0
 11
1578.9586681046
 21
365.6484356437
 31
0.0
  0
LINE
  5
116
330
1F
100
AcDbEntity
  8
0
  6
Continuous
 62
     7
370
    25
100
AcDbLine
 10
1565.9682870478
 20
358.1484356437
 30
0.0
 11
1595.9682870478
 21
306.1869114167
 31
0.0
  0
LINE
  5
117
330
1F
100
AcDbEntity
  8
0
  6
Continuous
 62
     7
370
    25
100
AcDbLine
 10
1143.4682870478
 20
1089.9399018416
 30
0.0
 11
1156.4586681046
 21
1097.4399018416
 31
0.0
  0
LINE
  5
118
330
1F
100
AcDbEntity
  8
0
  6
Continuous
 62
     7
370
    25
100
AcDbLine
 10
1126.4586681046
 20
1149.4014260687
 30
0.0
 11
1113.4682870478
 21
1141.9014260687
 31
0.0
  0
LINE
  5
119
330
1F
100
AcDbEntity
  8
0
  6
Continuous
 62
     7
370
    25
100
AcDbLine
 10
1156.4586681046
 20
1097.4399018416
 30
0.0
 11
1126.4586681046
 21
1149.4014260687
 31
0.0
  0
LINE
  5
11A
330
1F
100
AcDbEntity
  8
0
  6
Continuous
 62
     7
370
    25
100
AcDbLine
 10
1113.4682870478
 20
1141.9014260687
 30
0.0
 11
1143.4682870478
 21
1089.9399018416
 31
0.0
  0
LINE
  5
11B
330
1F
100
AcDbEntity
  8
0
  6
Continuous
 62
     7
370
    25
100
AcDbLine
 10
1263.3785410857
 20
912.2492494996
 30
0.0
 11
1382.0387951235
 21
706.723660667
 31
0.0
  0
LINE
  5
11C
330
1F
100
AcDbEntity
  8
0
  6
Continuous
 62
     7
370
    25
100
AcDbLine
 10
1250.3881600289
 20
904.7492494996
 30
0.0
 11
1369.0484140668
 21
699.223660667
 31
0.0
  0
LINE
  5
11D
330
1F
100
AcDbEntity
  8
0
  6
Continuous
 62
     7
370
    25
100
AcDbLine
 10
-955.4945258733
 20
699.7332796102
 30
0.0
 11
-1242.5041448165
 21
202.6180373395
 31
0.0
  0
LINE
  5
11E
330
1F
100
AcDbEntity
  8
0
  6
Continuous
 62
     7
370
    25
100
AcDbLine
 10
-1242.5041448165
 20
202.6180373395
 30
0.0
 11
-1245.1022210278
 21
204.1180373395
 31
0.0
  0
LINE
  5
11F
330
1F
100
AcDbEntity
  8
0
  6
Continuous
 62
     7
370
    25
100
AcDbLine
 10
-1245.1022210278
 20
204.1180373395
 30
0.0
 11
-958.0926020846
 21
701.2332796102
 31
0.0
  0
LINE
  5
120
330
1F
100
AcDbEntity
  8
0
  6
Continuous
 62
     7
370
    25
100
AcDbLine
 10
-955.4945258733
 20
699.7332796102
 30
0.0
 11
-958.0926020846
 21
701.2332796102
 31
0.0
  0
ARC
  5
121
330
1F
100
AcDbEntity
  8
0
  6
Continuous
 62
     7
370
    25
100
AcDbCircle
 10
-945.1022210279
 20
693.7332796102
 30
0.0
 40
11.99999999999999
100
AcDbArc
 50
60.0
 51
150.0
  0
ARC
  5
122
330
1F
100
AcDbEntity
  8
0
  6
Continuous
 62
     7
370
    25
100
AcDbCircle
 10
-945.1022210279
 20
693.7332796102
 30
0.0
 40
14.99999999999988
100
AcDbArc
 50
60.0
 51
150.0
  0
LINE
  5
123
330
1F
100
AcDbEntity
  8
0
  6
Continuous
 62
     7
370
    25
100
AcDbLine
 10
-937.6022210279
 20
706.723660667
 30
0.0
 11
-939.1022210279
 21
704.1255844556
 31
0.0
  0
ARC
  5
124
330
1F
100
AcDbEntity
  8
0
  6
Continuous
 62
     7
370
    25
100
AcDbCircle
 10
-919.1411135155
 20
661.4241191238
 30
0.0
 40
30.00000000000005
100
AcDbArc
 50
337.3853480535
 51
60.0
  0
LINE
  5
125
330
1F
100
AcDbEntity
  8
0
  6
Continuous
 62
     7
370
    25
100
AcDbLine
 10
-891.4477561219
 20
649.8881771911
 30
0.0
 11
-894.2170918613
 21
651.0417713844
 31
0.0
  0
ARC
  5
126
330
1F
100
AcDbEntity
  8
0
  6
Continuous
 62
     7
370
    25
100
AcDbCircle
 10
-919.1411135155
 20
661.4241191238
 30
0.0
 40
27.0000000000001
100
AcDbArc
 50
337.3853480535
 51
60.0
  0
LINE
  5
127
330
1F
100
AcDbEntity
  8
0
  6
Continuous
 62
     7
370
    25
100
AcDbLine
 10
-904.1411135155
 20
687.4048812373
 30
0.0
 11
-905.6411135155
 21
684.8068050259
 31
0.0
  0
LINE
  5
128
330
1F
100
AcDbEntity
  8
0
  6
Continuous
 62
     7
370
    25
100
AcDbLine
 10
-891.4477561219
 20
649.8881771911
 30
0.0
 11
-1052.4725183705
 21
263.3296875421
 31
0.0
  0
LINE
  5
129
330
1F
100
AcDbEntity
  8
0
  6
Continuous
 62
     7
370
    25
100
AcDbLine
 10
-1052.4725183705
 20
263.3296875421
 30
0.0
 11
-1055.2418541099
 21
264.4832817354
 31
0.0
  0
LINE
  5
12A
330
1F
100
AcDbEntity
  8
0
  6
Continuous
 62
     7
370
    25
100
AcDbLine
 10
-1055.2418541099
 20
264.4832817354
 30
0.0
 11
-894.2170918613
 21
651.0417713844
 31
0.0
  0
ARC
  5
12B
330
1F
100
AcDbEntity
  8
0
  6
Continuous
 62
     7
370
    25
100
AcDbCircle
 10
-945.1022210278
 20
-345.4972049311
 30
0.0
 40
11.99999999999996
100
AcDbArc
 50
210.0
 51
300.0
  0
LINE
  5
12C
330
1F
100
AcDbEntity
  8
0
  6
Continuous
 62
     7
370
    25
100
AcDbLine
 10
-1242.5041448165
 20
145.6180373395
 30
0.0
 11
-955.4945258733
 21
-351.4972049311
 31
0.0
  0
ARC
  5
12D
330
1F
100
AcDbEntity
  8
0
  6
Continuous
 62
     7
370
    25
100
AcDbCircle
 10
-1193.1406968008
 20
174.1180373395
 30
0.0
 40
57.00000000000004
100
AcDbArc
 50
150.0
 51
210.0
  0
LINE
  5
12E
330
1F
100
AcDbEntity
  8
0
  6
Continuous
 62
     7
370
    25
100
AcDbLine
 10
-905.6411135155
 20
684.8068050259
 30
0.0
 11
-939.1022210279
 21
704.1255844556
 31
0.0
  0
ARC
  5
12F
330
1F
100
AcDbEntity
  8
0
  6
Continuous
 62
     7
370
    25
100
AcDbCircle
 10
-978.6235653211
 20
232.5671757218
 30
0.0
 40
83.00000000000014
100
AcDbArc
 50
157.3853480535
 51
197.9946148444
  0
LINE
  5
130
330
1F
100
AcDbEntity
  8
0
  6
Continuous
 62
     7
370
    25
100
AcDbLine
 10
-891.6680445847
 20
-303.8113719331
 30
0.0
 11
-1057.5636664856
 21
206.9261845526
 31
0.0
  0
ARC
  5
131
330
1F
100
AcDbEntity
  8
0
  6
Continuous
 62
     7
370
    25
100
AcDbCircle
 10
-917.3473546021
 20
-312.1524172532
 30
0.0
 40
27.00000000000018
100
AcDbArc
 50
300.0
 51
17.9946148444
  0
LINE
  5
132
330
1F
100
AcDbEntity
  8
0
  6
Continuous
 62
     7
370
    25
100
AcDbLine
 10
-939.1022210278
 20
-355.8895097765
 30
0.0
 11
-903.8473546021
 21
-335.5351031554
 31
0.0
  0
LINE
  5
133
330
1F
100
AcDbEntity
  8
0
  6
Continuous
 62
     7
370
    25
100
AcDbLine
 10
-937.6022210279
 20
706.723660667
 30
0.0
 11
-904.1411135155
 21
687.4048812373
 31
0.0
  0
LINE
  5
134
330
1F
100
AcDbEntity
  8
0
  6
Continuous
 62
     7
370
    25
100
AcDbLine
 10
-1054.710409817
 20
207.8529673659
 30
0.0
 11
-888.8147879161
 21
-302.8845891198
 31
0.0
  0
LINE
  5
135
330
1F
100
AcDbEntity
  8
0
  6
Continuous
 62
     7
370
    25
100
AcDbLine
 10
-888.8147879161
 20
-302.8845891198
 30
0.0
 11
-891.6680445847
 21
-303.8113719331
 31
0.0
  0
LINE
  5
136
330
1F
100
AcDbEntity
  8
0
  6
Continuous
 62
     7
370
    25
100
AcDbLine
 10
-1054.710409817
 20
207.8529673659
 30
0.0
 11
-1057.5636664856
 21
206.9261845526
 31
0.0
  0
LINE
  5
137
330
1F
100
AcDbEntity
  8
0
  6
Continuous
 62
     7
370
    25
100
AcDbLine
 10
-1242.5041448165
 20
145.6180373395
 30
0.0
 11
-1245.1022210278
 21
144.1180373395
 31
0.0
  0
ARC
  5
138
330
1F
100
AcDbEntity
  8
0
  6
Continuous
 62
     7
370
    25
100
AcDbCircle
 10
-1193.1406968008
 20
174.1180373395
 30
0.0
 40
59.99999999999998
100
AcDbArc
 50
150.0
 51
210.0
  0
LINE
  5
139
330
1F
100
AcDbEntity
  8
0
  6
Continuous
 62
     7
370
    25
100
AcDbLine
 10
-955.4945258733
 20
-351.4972049311
 30
0.0
 11
-958.0926020846
 21
-352.9972049311
 31
0.0
  0
LINE
  5
13A
330
1F
100
AcDbEntity
  8
0
  6
Continuous
 62
     7
370
    25
100
AcDbLine
 10
-958.0926020846
 20
-352.9972049311
 30
0.0
 11
-1245.1022210278
 21
144.1180373395
 31
0.0
  0
ARC
  5
13B
330
1F
100
AcDbEntity
  8
0
  6
Continuous
 62
     7
370
    25
100
AcDbCircle
 10
-978.6235653211
 20
232.5671757218
 30
0.0
 40
80.00000000000018
100
AcDbArc
 50
157.3853480535
 51
197.9946148444
  0
LINE
  5
13C
330
1F
100
AcDbEntity
  8
0
  6
Continuous
 62
     7
370
    25
100
AcDbLine
 10
-903.8473546021
 20
-335.5351031554
 30
0.0
 11
-902.3473546021
 21
-338.1331793667
 31
0.0
  0
LINE
  5
13D
330
1F
100
AcDbEntity
  8
0
  6
Continuous
 62
     7
370
    25
100
AcDbLine
 10
-902.3473546021
 20
-338.1331793667
 30
0.0
 11
-937.6022210278
 21
-358.4875859879
 31
0.0
  0
LINE
  5
13E
330
1F
100
AcDbEntity
  8
0
  6
Continuous
 62
     7
370
    25
100
AcDbLine
 10
-939.1022210278
 20
-355.8895097765
 30
0.0
 11
-937.6022210278
 21
-358.4875859879
 31
0.0
  0
ARC
  5
13F
330
1F
100
AcDbEntity
  8
0
  6
Continuous
 62
     7
370
    25
100
AcDbCircle
 10
-917.3473546021
 20
-312.1524172532
 30
0.0
 40
30.00000000000012
100
AcDbArc
 50
300.0
 51
17.9946148444
  0
ARC
  5
140
330
1F
100
AcDbEntity
  8
0
  6
Continuous
 62
     7
370
    25
100
AcDbCircle
 10
-945.1022210278
 20
-345.4972049311
 30
0.0
 40
15.00000000000018
100
AcDbArc
 50
210.0
 51
300.0
  0
LINE
  5
141
330
1F
100
AcDbEntity
  8
0
  6
Continuous
 62
     7
370
    25
100
AcDbLine
 10
103.55803301
 20
1444.854872827
 30
0.0
 11
103.55803301
 21
1406.2173139677
 31
0.0
  0
LINE
  5
142
330
1F
100
AcDbEntity
  8
0
  6
Continuous
 62
     7
370
    25
100
AcDbLine
 10
103.55803301
 20
1406.2173139677
 30
0.0
 11
100.55803301
 21
1406.2173139677
 31
0.0
  0
LINE
  5
143
330
1F
100
AcDbEntity
  8
0
  6
Continuous
 62
     7
370
    25
100
AcDbLine
 10
100.55803301
 20
1406.2173139677
 30
0.0
 11
100.55803301
 21
1444.854872827
 31
0.0
  0
LINE
  5
144
330
1F
100
AcDbEntity
  8
0
  6
Continuous
 62
     7
370
    25
100
AcDbLine
 10
103.55803301
 20
1444.854872827
 30
0.0
 11
100.55803301
 21
1444.854872827
 31
0.0
  0
ARC
  5
145
330
1F
100
AcDbEntity
  8
0
  6
Continuous
 62
     7
370
    25
100
AcDbCircle
 10
73.55803301
 20
1406.2173139677
 30
0.0
 40
30.00000000000001
100
AcDbArc
 50
277.3853480535
 51
0.0
  0
LINE
  5
146
330
1F
100
AcDbEntity
  8
0
  6
Continuous
 62
     7
370
    25
100
AcDbLine
 10
77.4142929365
 20
1376.4661919824
 30
0.0
 11
77.0286669438
 21
1379.441304181
 31
0.0
  0
ARC
  5
147
330
1F
100
AcDbEntity
  8
0
  6
Continuous
 62
     7
370
    25
100
AcDbCircle
 10
73.55803301
 20
1406.2173139677
 30
0.0
 40
27.0000000000002
100
AcDbArc
 50
277.3853480535
 51
0.0
  0
LINE
  5
148
330
1F
100
AcDbEntity
  8
0
  6
Continuous
 62
     7
370
    25
100
AcDbLine
 10
77.4142929365
 20
1376.4661919824
 30
0.0
 11
-337.8675602724
 21
1322.6384819036
 31
0.0
  0
LINE
  5
149
330
1F
100
AcDbEntity
  8
0
  6
Continuous
 62
     7
370
    25
100
AcDbLine
 10
-337.8675602724
 20
1322.6384819036
 30
0.0
 11
-338.253186265
 21
1325.6135941021
 31
0.0
  0
LINE
  5
14A
330
1F
100
AcDbEntity
  8
0
  6
Continuous
 62
     7
370
    25
100
AcDbLine
 10
-338.253186265
 20
1325.6135941021
 30
0.0
 11
77.0286669438
 21
1379.441304181
 31
0.0
  0
LINE
  5
14B
330
1F
100
AcDbEntity
  8
0
  6
Continuous
 62
     7
370
    25
100
AcDbLine
 10
88.55803301
 20
1456.854872827
 30
0.0
 11
-485.4612048765
 21
1456.854872827
 31
0.0
  0
LINE
  5
14C
330
1F
100
AcDbEntity
  8
0
  6
Continuous
 62
     7
370
    25
100
AcDbLine
 10
-485.4612048765
 20
1456.854872827
 30
0.0
 11
-485.4612048765
 21
1459.854872827
 31
0.0
  0
LINE
  5
14D
330
1F
100
AcDbEntity
  8
0
  6
Continuous
 62
     7
370
    25
100
AcDbLine
 10
-485.4612048765
 20
1459.854872827
 30
0.0
 11
88.55803301
 21
1459.854872827
 31
0.0
  0
LINE
  5
14E
330
1F
100
AcDbEntity
  8
0
  6
Continuous
 62
     7
370
    25
100
AcDbLine
 10
88.55803301
 20
1456.854872827
 30
0.0
 11
88.55803301
 21
1459.854872827
 31
0.0
  0
ARC
  5
14F
330
1F
100
AcDbEntity
  8
0
  6
Continuous
 62
     7
370
    25
100
AcDbCircle
 10
88.55803301
 20
1444.854872827
 30
0.0
 40
12.00000000000001
100
AcDbArc
 50
0.0
 51
90.0
  0
ARC
  5
150
330
1F
100
AcDbEntity
  8
0
  6
Continuous
 62
     7
370
    25
100
AcDbCircle
 10
88.55803301
 20
1444.854872827
 30
0.0
 40
15.0
100
AcDbArc
 50
0.0
 51
90.0
  0
ARC
  5
151
330
1F
100
AcDbEntity
  8
0
  6
Continuous
 62
     7
370
    25
100
AcDbCircle
 10
-811.44196699
 20
925.2396305563
 30
0.0
 40
12.0000000000002
100
AcDbArc
 50
150.0
 51
240.0
  0
LINE
  5
152
330
1F
100
AcDbEntity
  8
0
  6
Continuous
 62
     7
370
    25
100
AcDbLine
 10
-534.8246528922
 20
1428.354872827
 30
0.0
 11
-821.8342718354
 21
931.2396305563
 31
0.0
  0
ARC
  5
153
330
1F
100
AcDbEntity
  8
0
  6
Continuous
 62
     7
370
    25
100
AcDbCircle
 10
-485.4612048765
 20
1399.854872827
 30
0.0
 40
57.0
100
AcDbArc
 50
90.0
 51
150.0
  0
ARC
  5
154
330
1F
100
AcDbEntity
  8
0
  6
Continuous
 62
     7
370
    25
100
AcDbCircle
 10
-327.5842004683
 20
1243.3021566097
 30
0.0
 40
82.99999999999997
100
AcDbArc
 50
97.3853480535
 51
137.9946148444
  0
LINE
  5
155
330
1F
100
AcDbEntity
  8
0
  6
Continuous
 62
     7
370
    25
100
AcDbLine
 10
-748.6238884142
 20
899.8071928252
 30
0.0
 11
-389.2600007813
 21
1298.8457940109
 31
0.0
  0
ARC
  5
156
330
1F
100
AcDbEntity
  8
0
  6
Continuous
 62
     7
370
    25
100
AcDbCircle
 10
-768.6871005642
 20
917.8756049919
 30
0.0
 40
27.0
100
AcDbArc
 50
240.0
 51
317.9946148444
  0
LINE
  5
157
330
1F
100
AcDbEntity
  8
0
  6
Continuous
 62
     7
370
    25
100
AcDbLine
 10
-817.44196699
 20
914.8473257109
 30
0.0
 11
-782.1871005642
 21
894.4929190897
 31
0.0
  0
LINE
  5
158
330
1F
100
AcDbEntity
  8
0
  6
Continuous
 62
     7
370
    25
100
AcDbLine
 10
-387.0307549868
 20
1296.838192659
 30
0.0
 11
-746.3946426198
 21
897.7995914734
 31
0.0
  0
LINE
  5
159
330
1F
100
AcDbEntity
  8
0
  6
Continuous
 62
     7
370
    25
100
AcDbLine
 10
-746.3946426198
 20
897.7995914734
 30
0.0
 11
-748.6238884142
 21
899.8071928252
 31
0.0
  0
LINE
  5
15A
330
1F
100
AcDbEntity
  8
0
  6
Continuous
 62
     7
370
    25
100
AcDbLine
 10
-387.0307549868
 20
1296.838192659
 30
0.0
 11
-389.2600007813
 21
1298.8457940109
 31
0.0
  0
LINE
  5
15B
330
1F
100
AcDbEntity
  8
0
  6
Continuous
 62
     7
370
    25
100
AcDbLine
 10
-534.8246528922
 20
1428.354872827
 30
0.0
 11
-537.4227291036
 21
1429.854872827
 31
0.0
  0
ARC
  5
15C
330
1F
100
AcDbEntity
  8
0
  6
Continuous
 62
     7
370
    25
100
AcDbCircle
 10
-485.4612048765
 20
1399.854872827
 30
0.0
 40
59.99999999999997
100
AcDbArc
 50
90.0
 51
150.0
  0
ARC
  5
15D
330
1F
100
AcDbEntity
  8
0
  6
Continuous
 62
     7
370
    25
100
AcDbCircle
 10
-327.5842004683
 20
1243.3021566097
 30
0.0
 40
79.99999999999999
100
AcDbArc
 50
97.3853480535
 51
137.9946148444
  0
LINE
  5
15E
330
1F
100
AcDbEntity
  8
0
  6
Continuous
 62
     7
370
    25
100
AcDbLine
 10
-821.8342718354
 20
931.2396305563
 30
0.0
 11
-824.4323480468
 21
932.7396305563
 31
0.0
  0
LINE
  5
15F
330
1F
100
AcDbEntity
  8
0
  6
Continuous
 62
     7
370
    25
100
AcDbLine
 10
-824.4323480468
 20
932.7396305563
 30
0.0
 11
-537.4227291036
 21
1429.854872827
 31
0.0
  0
ARC
  5
160
330
1F
100
AcDbEntity
  8
0
  6
Continuous
 62
     7
370
    25
100
AcDbCircle
 10
-768.6871005642
 20
917.8756049919
 30
0.0
 40
30.00000000000001
100
AcDbArc
 50
240.0
 51
317.9946148444
  0
LINE
  5
161
330
1F
100
AcDbEntity
  8
0
  6
Continuous
 62
     7
370
    25
100
AcDbLine
 10
-782.1871005642
 20
894.4929190897
 30
0.0
 11
-783.6871005642
 21
891.8948428784
 31
0.0
  0
LINE
  5
162
330
1F
100
AcDbEntity
  8
0
  6
Continuous
 62
     7
370
    25
100
AcDbLine
 10
-783.6871005642
 20
891.8948428784
 30
0.0
 11
-818.94196699
 21
912.2492494995
 31
0.0
  0
LINE
  5
163
330
1F
100
AcDbEntity
  8
0
  6
Continuous
 62
     7
370
    25
100
AcDbLine
 10
-817.44196699
 20
914.8473257109
 30
0.0
 11
-818.94196699
 21
912.2492494995
 31
0.0
  0
ARC
  5
164
330
1F
100
AcDbEntity
  8
0
  6
Continuous
 62
     7
370
    25
100
AcDbCircle
 10
-811.44196699
 20
925.2396305563
 30
0.0
 40
15.00000000000005
100
AcDbArc
 50
150.0
 51
240.0
  0
LINE
  5
165
330
1F
100
AcDbEntity
  8
0
  6
Continuous
 62
     7
370
    25
100
AcDbLine
 10
1399.9310999689
 20
-351.4972049311
 30
0.0
 11
1686.9407189122
 21
145.6180373396
 31
0.0
  0
LINE
  5
166
330
1F
100
AcDbEntity
  8
0
  6
Continuous
 62
     7
370
    25
100
AcDbLine
 10
1686.9407189122
 20
145.6180373396
 30
0.0
 11
1689.5387951235
 21
144.1180373396
 31
0.0
  0
LINE
  5
167
330
1F
100
AcDbEntity
  8
0
  6
Continuous
 62
     7
370
    25
100
AcDbLine
 10
1689.5387951235
 20
144.1180373396
 30
0.0
 11
1402.5291761803
 21
-352.9972049311
 31
0.0
  0
LINE
  5
168
330
1F
100
AcDbEntity
  8
0
  6
Continuous
 62
     7
370
    25
100
AcDbLine
 10
1399.9310999689
 20
-351.4972049311
 30
0.0
 11
1402.5291761803
 21
-352.9972049311
 31
0.0
  0
LINE
  5
169
330
1F
100
AcDbEntity
  8
0
  6
Continuous
 62
     7
370
    25
100
AcDbLine
 10
1382.0387951235
 20
-358.4875859879
 30
0.0
 11
1348.5776876111
 21
-339.1688065582
 31
0.0
  0
LINE
  5
16A
330
1F
100
AcDbEntity
  8
0
  6
Continuous
 62
     7
370
    25
100
AcDbLine
 10
1348.5776876111
 20
-339.1688065582
 30
0.0
 11
1350.0776876111
 21
-336.5707303469
 31
0.0
  0
LINE
  5
16B
330
1F
100
AcDbEntity
  8
0
  6
Continuous
 62
     7
370
    25
100
AcDbLine
 10
1350.0776876111
 20
-336.5707303469
 30
0.0
 11
1383.5387951235
 21
-355.8895097765
 31
0.0
  0
LINE
  5
16C
330
1F
100
AcDbEntity
  8
0
  6
Continuous
 62
     7
370
    25
100
AcDbLine
 10
1382.0387951235
 20
-358.4875859879
 30
0.0
 11
1383.5387951235
 21
-355.8895097765
 31
0.0
  0
ARC
  5
16D
330
1F
100
AcDbEntity
  8
0
  6
Continuous
 62
     7
370
    25
100
AcDbCircle
 10
1389.5387951235
 20
693.7332796102
 30
0.0
 40
12.0
100
AcDbArc
 50
30.0
 51
120.0
  0
LINE
  5
16E
330
1F
100
AcDbEntity
  8
0
  6
Continuous
 62
     7
370
    25
100
AcDbLine
 10
1686.9407189122
 20
202.6180373396
 30
0.0
 11
1399.9310999689
 21
699.7332796102
 31
0.0
  0
ARC
  5
16F
330
1F
100
AcDbEntity
  8
0
  6
Continuous
 62
     7
370
    25
100
AcDbCircle
 10
1637.5772708965
 20
174.1180373396
 30
0.0
 40
57.00000000000005
100
AcDbArc
 50
330.0
 51
30.0
  0
ARC
  5
170
330
1F
100
AcDbEntity
  8
0
  6
Continuous
 62
     7
370
    25
100
AcDbCircle
 10
1389.5387951235
 20
-345.4972049311
 30
0.0
 40
12.00000000000003
100
AcDbArc
 50
240.0
 51
330.0
  0
ARC
  5
171
330
1F
100
AcDbEntity
  8
0
  6
Continuous
 62
     7
370
    25
100
AcDbCircle
 10
1363.5776876111
 20
-313.1880444447
 30
0.0
 40
26.99999999999987
100
AcDbArc
 50
157.3853480535
 51
240.0
  0
LINE
  5
172
330
1F
100
AcDbEntity
  8
0
  6
Continuous
 62
     7
370
    25
100
AcDbLine
 10
1499.6784282055
 20
83.7527929437
 30
0.0
 11
1338.653665957
 21
-302.8056967053
 31
0.0
  0
ARC
  5
173
330
1F
100
AcDbEntity
  8
0
  6
Continuous
 62
     7
370
    25
100
AcDbCircle
 10
1423.0601394167
 20
115.6688989573
 30
0.0
 40
83.00000000000013
100
AcDbArc
 50
337.3853480535
 51
17.9946148444
  0
LINE
  5
174
330
1F
100
AcDbEntity
  8
0
  6
Continuous
 62
     7
370
    25
100
AcDbLine
 10
1336.1046186804
 20
652.0474466122
 30
0.0
 11
1502.0002405812
 21
141.3098901265
 31
0.0
  0
ARC
  5
175
330
1F
100
AcDbEntity
  8
0
  6
Continuous
 62
     7
370
    25
100
AcDbCircle
 10
1361.7839286977
 20
660.3884919323
 30
0.0
 40
26.99999999999997
100
AcDbArc
 50
120.0
 51
197.9946148444
  0
LINE
  5
176
330
1F
100
AcDbEntity
  8
0
  6
Continuous
 62
     7
370
    25
100
AcDbLine
 10
1383.5387951235
 20
704.1255844556
 30
0.0
 11
1348.2839286977
 21
683.7711778345
 31
0.0
  0
ARC
  5
177
330
1F
100
AcDbEntity
  8
0
  6
Continuous
 62
     7
370
    25
100
AcDbCircle
 10
1389.5387951235
 20
-345.4972049311
 30
0.0
 40
14.99999999999996
100
AcDbArc
 50
240.0
 51
330.0
  0
ARC
  5
178
330
1F
100
AcDbEntity
  8
0
  6
Continuous
 62
     7
370
    25
100
AcDbCircle
 10
1363.5776876111
 20
-313.1880444447
 30
0.0
 40
29.99999999999985
100
AcDbArc
 50
157.3853480535
 51
240.0
  0
LINE
  5
179
330
1F
100
AcDbEntity
  8
0
  6
Continuous
 62
     7
370
    25
100
AcDbLine
 10
1335.8843302176
 20
-301.652102512
 30
0.0
 11
1338.653665957
 21
-302.8056967053
 31
0.0
  0
LINE
  5
17A
330
1F
100
AcDbEntity
  8
0
  6
Continuous
 62
     7
370
    25
100
AcDbLine
 10
1335.8843302176
 20
-301.652102512
 30
0.0
 11
1496.9090924662
 21
84.9063871369
 31
0.0
  0
LINE
  5
17B
330
1F
100
AcDbEntity
  8
0
  6
Continuous
 62
     7
370
    25
100
AcDbLine
 10
1496.9090924662
 20
84.9063871369
 30
0.0
 11
1499.6784282055
 21
83.7527929437
 31
0.0
  0
LINE
  5
17C
330
1F
100
AcDbEntity
  8
0
  6
Continuous
 62
     7
370
    25
100
AcDbLine
 10
1686.9407189122
 20
202.6180373396
 30
0.0
 11
1689.5387951235
 21
204.1180373396
 31
0.0
  0
ARC
  5
17D
330
1F
100
AcDbEntity
  8
0
  6
Continuous
 62
     7
370
    25
100
AcDbCircle
 10
1637.5772708965
 20
174.1180373396
 30
0.0
 40
60.0000000000001
100
AcDbArc
 50
330.0
 51
30.0
  0
LINE
  5
17E
330
1F
100
AcDbEntity
  8
0
  6
Continuous
 62
     7
370
    25
100
AcDbLine
 10
1399.9310999689
 20
699.7332796102
 30
0.0
 11
1402.5291761803
 21
701.2332796102
 31
0.0
  0
LINE
  5
17F
330
1F
100
AcDbEntity
  8
0
  6
Continuous
 62
     7
370
    25
100
AcDbLine
 10
1402.5291761803
 20
701.2332796102
 30
0.0
 11
1689.5387951235
 21
204.1180373396
 31
0.0
  0
LINE
  5
180
330
1F
100
AcDbEntity
  8
0
  6
Continuous
 62
     7
370
    25
100
AcDbLine
 10
1499.1469839126
 20
140.3831073131
 30
0.0
 11
1333.2513620118
 21
651.1206637989
 31
0.0
  0
LINE
  5
181
330
1F
100
AcDbEntity
  8
0
  6
Continuous
 62
     7
370
    25
100
AcDbLine
 10
1333.2513620118
 20
651.1206637989
 30
0.0
 11
1336.1046186804
 21
652.0474466122
 31
0.0
  0
LINE
  5
182
330
1F
100
AcDbEntity
  8
0
  6
Continuous
 62
     7
370
    25
100
AcDbLine
 10
1499.1469839126
 20
140.3831073131
 30
0.0
 11
1502.0002405812
 21
141.3098901265
 31
0.0
  0
ARC
  5
183
330
1F
100
AcDbEntity
  8
0
  6
Continuous
 62
     7
370
    25
100
AcDbCircle
 10
1423.0601394167
 20
115.6688989573
 30
0.0
 40
80.00000000000017
100
AcDbArc
 50
337.3853480535
 51
17.9946148444
  0
LINE
  5
184
330
1F
100
AcDbEntity
  8
0
  6
Continuous
 62
     7
370
    25
100
AcDbLine
 10
1383.5387951235
 20
704.1255844556
 30
0.0
 11
1382.0387951235
 21
706.723660667
 31
0.0
  0
ARC
  5
185
330
1F
100
AcDbEntity
  8
0
  6
Continuous
 62
     7
370
    25
100
AcDbCircle
 10
1389.5387951235
 20
693.7332796102
 30
0.0
 40
15.00000000000005
100
AcDbArc
 50
30.0
 51
120.0
  0
ARC
  5
186
330
1F
100
AcDbEntity
  8
0
  6
Continuous
 62
     7
370
    25
100
AcDbCircle
 10
1361.7839286977
 20
660.3884919323
 30
0.0
 40
30.0000000000003
100
AcDbArc
 50
120.0
 51
197.9946148444
  0
LINE
  5
187
330
1F
100
AcDbEntity
  8
0
  6
Continuous
 62
     7
370
    25
100
AcDbLine
 10
1348.2839286977
 20
683.7711778345
 30
0.0
 11
1346.7839286977
 21
686.3692540458
 31
0.0
  0
LINE
  5
188
330
1F
100
AcDbEntity
  8
0
  6
Continuous
 62
     7
370
    25
100
AcDbLine
 10
1346.7839286977
 20
686.3692540458
 30
0.0
 11
1382.0387951235
 21
706.723660667
 31
0.0
  0
ARC
  5
189
330
1F
100
AcDbEntity
  8
0
  6
Continuous
 62
     7
370
    25
100
AcDbCircle
 10
355.8785410857
 20
-1096.6187981479
 30
0.0
 40
12.00000000000006
100
AcDbArc
 50
180.0
 51
270.0
  0
LINE
  5
18A
330
1F
100
AcDbEntity
  8
0
  6
Continuous
 62
     7
370
    25
100
AcDbLine
 10
355.8785410857
 20
-1108.6187981479
 30
0.0
 11
355.8785410857
 21
-1111.6187981479
 31
0.0
  0
ARC
  5
18B
330
1F
100
AcDbEntity
  8
0
  6
Continuous
 62
     7
370
    25
100
AcDbCircle
 10
355.8785410857
 20
-1096.6187981479
 30
0.0
 40
15.00000000000006
100
AcDbArc
 50
180.0
 51
270.0
  0
LINE
  5
18C
330
1F
100
AcDbEntity
  8
0
  6
Continuous
 62
     7
370
    25
100
AcDbLine
 10
340.8785410857
 20
-1096.6187981479
 30
0.0
 11
343.8785410857
 21
-1096.6187981479
 31
0.0
  0
LINE
  5
18D
330
1F
100
AcDbEntity
  8
0
  6
Continuous
 62
     7
370
    25
100
AcDbLine
 10
355.8785410857
 20
-1108.6187981479
 30
0.0
 11
929.8977789722
 21
-1108.6187981479
 31
0.0
  0
LINE
  5
18E
330
1F
100
AcDbEntity
  8
0
  6
Continuous
 62
     7
370
    25
100
AcDbLine
 10
929.8977789722
 20
-1108.6187981479
 30
0.0
 11
929.8977789722
 21
-1111.6187981479
 31
0.0
  0
LINE
  5
18F
330
1F
100
AcDbEntity
  8
0
  6
Continuous
 62
     7
370
    25
100
AcDbLine
 10
929.8977789722
 20
-1111.6187981479
 30
0.0
 11
355.8785410857
 21
-1111.6187981479
 31
0.0
  0
LINE
  5
190
330
1F
100
AcDbEntity
  8
0
  6
Continuous
 62
     7
370
    25
100
AcDbLine
 10
340.8785410857
 20
-1096.6187981479
 30
0.0
 11
340.8785410857
 21
-1057.9812392886
 31
0.0
  0
LINE
  5
191
330
1F
100
AcDbEntity
  8
0
  6
Continuous
 62
     7
370
    25
100
AcDbLine
 10
340.8785410857
 20
-1057.9812392886
 30
0.0
 11
343.8785410857
 21
-1057.9812392886
 31
0.0
  0
LINE
  5
192
330
1F
100
AcDbEntity
  8
0
  6
Continuous
 62
     7
370
    25
100
AcDbLine
 10
343.8785410857
 20
-1057.9812392886
 30
0.0
 11
343.8785410857
 21
-1096.6187981479
 31
0.0
  0
ARC
  5
193
330
1F
100
AcDbEntity
  8
0
  6
Continuous
 62
     7
370
    25
100
AcDbCircle
 10
370.8785410857
 20
-1057.9812392886
 30
0.0
 40
30.00000000000015
100
AcDbArc
 50
97.3853480535
 51
180.0
  0
LINE
  5
194
330
1F
100
AcDbEntity
  8
0
  6
Continuous
 62
     7
370
    25
100
AcDbLine
 10
367.0222811592
 20
-1028.2301173034
 30
0.0
 11
367.4079071518
 21
-1031.2052295019
 31
0.0
  0
ARC
  5
195
330
1F
100
AcDbEntity
  8
0
  6
Continuous
 62
     7
370
    25
100
AcDbCircle
 10
370.8785410857
 20
-1057.9812392886
 30
0.0
 40
27.00000000000017
100
AcDbArc
 50
97.3853480535
 51
180.0
  0
LINE
  5
196
330
1F
100
AcDbEntity
  8
0
  6
Continuous
 62
     7
370
    25
100
AcDbLine
 10
367.0222811592
 20
-1028.2301173034
 30
0.0
 11
782.304134368
 21
-974.4024072245
 31
0.0
  0
LINE
  5
197
330
1F
100
AcDbEntity
  8
0
  6
Continuous
 62
     7
370
    25
100
AcDbLine
 10
782.304134368
 20
-974.4024072245
 30
0.0
 11
782.6897603607
 21
-977.377519423
 31
0.0
  0
LINE
  5
198
330
1F
100
AcDbEntity
  8
0
  6
Continuous
 62
     7
370
    25
100
AcDbLine
 10
782.6897603607
 20
-977.377519423
 30
0.0
 11
367.4079071518
 21
-1031.2052295019
 31
0.0
  0
ARC
  5
199
330
1F
100
AcDbEntity
  8
0
  6
Continuous
 62
     7
370
    25
100
AcDbCircle
 10
1255.8785410857
 20
-577.0035558772
 30
0.0
 40
12.0
100
AcDbArc
 50
330.0
 51
60.0
  0
LINE
  5
19A
330
1F
100
AcDbEntity
  8
0
  6
Continuous
 62
     7
370
    25
100
AcDbLine
 10
979.2612269879
 20
-1080.1187981479
 30
0.0
 11
1266.2708459311
 21
-583.0035558772
 31
0.0
  0
ARC
  5
19B
330
1F
100
AcDbEntity
  8
0
  6
Continuous
 62
     7
370
    25
100
AcDbCircle
 10
929.8977789722
 20
-1051.6187981479
 30
0.0
 40
57.00000000000005
100
AcDbArc
 50
270.0
 51
330.0
  0
ARC
  5
19C
330
1F
100
AcDbEntity
  8
0
  6
Continuous
 62
     7
370
    25
100
AcDbCircle
 10
772.020774564
 20
-895.0660819306
 30
0.0
 40
83.00000000000001
100
AcDbArc
 50
277.3853480535
 51
317.9946148444
  0
LINE
  5
19D
330
1F
100
AcDbEntity
  8
0
  6
Continuous
 62
     7
370
    25
100
AcDbLine
 10
1193.0604625099
 20
-551.5711181462
 30
0.0
 11
833.6965748769
 21
-950.6097193318
 31
0.0
  0
ARC
  5
19E
330
1F
100
AcDbEntity
  8
0
  6
Continuous
 62
     7
370
    25
100
AcDbCircle
 10
1213.1236746599
 20
-569.6395303128
 30
0.0
 40
27.00000000000005
100
AcDbArc
 50
60.0
 51
137.9946148444
  0
LINE
  5
19F
330
1F
100
AcDbEntity
  8
0
  6
Continuous
 62
     7
370
    25
100
AcDbLine
 10
1261.8785410857
 20
-566.6112510318
 30
0.0
 11
1226.6236746599
 21
-546.2568444106
 31
0.0
  0
LINE
  5
1A0
330
1F
100
AcDbEntity
  8
0
  6
Continuous
 62
     7
370
    25
100
AcDbLine
 10
979.2612269879
 20
-1080.1187981479
 30
0.0
 11
981.8593031992
 21
-1081.6187981479
 31
0.0
  0
ARC
  5
1A1
330
1F
100
AcDbEntity
  8
0
  6
Continuous
 62
     7
370
    25
100
AcDbCircle
 10
929.8977789722
 20
-1051.6187981479
 30
0.0
 40
60.0
100
AcDbArc
 50
270.0
 51
330.0
  0
LINE
  5
1A2
330
1F
100
AcDbEntity
  8
0
  6
Continuous
 62
     7
370
    25
100
AcDbLine
 10
831.4673290825
 20
-948.6021179799
 30
0.0
 11
1190.8312167155
 21
-549.5635167943
 31
0.0
  0
LINE
  5
1A3
330
1F
100
AcDbEntity
  8
0
  6
Continuous
 62
     7
370
    25
100
AcDbLine
 10
1190.8312167155
 20
-549.5635167943
 30
0.0
 11
1193.0604625099
 21
-551.5711181462
 31
0.0
  0
LINE
  5
1A4
330
1F
100
AcDbEntity
  8
0
  6
Continuous
 62
     7
370
    25
100
AcDbLine
 10
831.4673290825
 20
-948.6021179799
 30
0.0
 11
833.6965748769
 21
-950.6097193318
 31
0.0
  0
LINE
  5
1A5
330
1F
100
AcDbEntity
  8
0
  6
Continuous
 62
     7
370
    25
100
AcDbLine
 10
1266.2708459311
 20
-583.0035558772
 30
0.0
 11
1268.8689221425
 21
-584.5035558772
 31
0.0
  0
LINE
  5
1A6
330
1F
100
AcDbEntity
  8
0
  6
Continuous
 62
     7
370
    25
100
AcDbLine
 10
1268.8689221425
 20
-584.5035558772
 30
0.0
 11
981.8593031992
 21
-1081.6187981479
 31
0.0
  0
ARC
  5
1A7
330
1F
100
AcDbEntity
  8
0
  6
Continuous
 62
     7
370
    25
100
AcDbCircle
 10
772.020774564
 20
-895.0660819306
 30
0.0
 40
80.00000000000016
100
AcDbArc
 50
277.3853480535
 51
317.9946148444
  0
ARC
  5
1A8
330
1F
100
AcDbEntity
  8
0
  6
Continuous
 62
     7
370
    25
100
AcDbCircle
 10
1213.1236746599
 20
-569.6395303128
 30
0.0
 40
30.00000000000026
100
AcDbArc
 50
60.0
 51
137.9946148444
  0
LINE
  5
1A9
330
1F
100
AcDbEntity
  8
0
  6
Continuous
 62
     7
370
    25
100
AcDbLine
 10
1226.6236746599
 20
-546.2568444106
 30
0.0
 11
1228.1236746599
 21
-543.6587681993
 31
0.0
  0
LINE
  5
1AA
330
1F
100
AcDbEntity
  8
0
  6
Continuous
 62
     7
370
    25
100
AcDbLine
 10
1261.8785410857
 20
-566.6112510318
 30
0.0
 11
1263.3785410857
 21
-564.0131748204
 31
0.0
  0
ARC
  5
1AB
330
1F
100
AcDbEntity
  8
0
  6
Continuous
 62
     7
370
    25
100
AcDbCircle
 10
1255.8785410857
 20
-577.0035558772
 30
0.0
 40
14.99999999999994
100
AcDbArc
 50
330.0
 51
60.0
  0
LINE
  5
1AC
330
1F
100
AcDbEntity
  8
0
  6
Continuous
 62
     7
370
    25
100
AcDbLine
 10
1228.1236746599
 20
-543.6587681993
 30
0.0
 11
1263.3785410857
 21
-564.0131748204
 31
0.0
  0
ARC
  5
1AD
330
1F
100
AcDbEntity
  8
0
  6
Continuous
 62
     7
370
    25
100
AcDbCircle
 10
355.8785410857
 20
1444.854872827
 30
0.0
 40
12.0
100
AcDbArc
 50
90.0
 51
180.0
  0
LINE
  5
1AE
330
1F
100
AcDbEntity
  8
0
  6
Continuous
 62
     7
370
    25
100
AcDbLine
 10
929.8977789721
 20
1456.854872827
 30
0.0
 11
355.8785410857
 21
1456.854872827
 31
0.0
  0
ARC
  5
1AF
330
1F
100
AcDbEntity
  8
0
  6
Continuous
 62
     7
370
    25
100
AcDbCircle
 10
929.8977789721
 20
1399.854872827
 30
0.0
 40
57.00000000000023
100
AcDbArc
 50
30.0
 51
90.0
  0
LINE
  5
1B0
330
1F
100
AcDbEntity
  8
0
  6
Continuous
 62
     7
370
    25
100
AcDbLine
 10
1266.2708459311
 20
931.2396305563
 30
0.0
 11
979.2612269878
 21
1428.354872827
 31
0.0
  0
ARC
  5
1B1
330
1F
100
AcDbEntity
  8
0
  6
Continuous
 62
     7
370
    25
100
AcDbCircle
 10
1255.8785410857
 20
925.2396305563
 30
0.0
 40
12.00000000000031
100
AcDbArc
 50
300.0
 51
30.0
  0
LINE
  5
1B2
330
1F
100
AcDbEntity
  8
0
  6
Continuous
 62
     7
370
    25
100
AcDbLine
 10
1228.4174335733
 20
895.5285462813
 30
0.0
 11
1261.8785410857
 21
914.8473257109
 31
0.0
  0
ARC
  5
1B3
330
1F
100
AcDbEntity
  8
0
  6
Continuous
 62
     7
370
    25
100
AcDbCircle
 10
1214.9174335733
 20
918.9112321834
 30
0.0
 40
27.00000000000014
100
AcDbArc
 50
217.3853480535
 51
300.0
  0
LINE
  5
1B4
330
1F
100
AcDbEntity
  8
0
  6
Continuous
 62
     7
370
    25
100
AcDbLine
 10
939.2069548927
 20
1235.2483497062
 30
0.0
 11
1193.464045853
 21
902.5175701361
 31
0.0
  0
ARC
  5
1B5
330
1F
100
AcDbEntity
  8
0
  6
Continuous
 62
     7
370
    25
100
AcDbCircle
 10
873.2576519006
 20
1184.8530182275
 30
0.0
 40
82.99999999999982
100
AcDbArc
 50
37.3853480535
 51
77.9946148444
  0
LINE
  5
1B6
330
1F
100
AcDbEntity
  8
0
  6
Continuous
 62
     7
370
    25
100
AcDbLine
 10
365.2624432183
 20
1377.7366020979
 30
0.0
 11
890.5219527522
 21
1266.0376467978
 31
0.0
  0
ARC
  5
1B7
330
1F
100
AcDbEntity
  8
0
  6
Continuous
 62
     7
370
    25
100
AcDbCircle
 10
370.8785410857
 20
1404.1460595846
 30
0.0
 40
27.00000000000006
100
AcDbArc
 50
180.0
 51
257.9946148444
  0
LINE
  5
1B8
330
1F
100
AcDbEntity
  8
0
  6
Continuous
 62
     7
370
    25
100
AcDbLine
 10
343.8785410857
 20
1444.854872827
 30
0.0
 11
343.8785410857
 21
1404.1460595846
 31
0.0
  0
LINE
  5
1B9
330
1F
100
AcDbEntity
  8
0
  6
Continuous
 62
     7
370
    25
100
AcDbLine
 10
1266.2708459311
 20
931.2396305563
 30
0.0
 11
1268.8689221424
 21
932.7396305563
 31
0.0
  0
ARC
  5
1BA
330
1F
100
AcDbEntity
  8
0
  6
Continuous
 62
     7
370
    25
100
AcDbCircle
 10
1255.8785410857
 20
925.2396305563
 30
0.0
 40
15.00000000000022
100
AcDbArc
 50
300.0
 51
30.0
  0
LINE
  5
1BB
330
1F
100
AcDbEntity
  8
0
  6
Continuous
 62
     7
370
    25
100
AcDbLine
 10
1263.3785410857
 20
912.2492494996
 30
0.0
 11
1261.8785410857
 21
914.8473257109
 31
0.0
  0
LINE
  5
1BC
330
1F
100
AcDbEntity
  8
0
  6
Continuous
 62
     7
370
    25
100
AcDbLine
 10
979.2612269878
 20
1428.354872827
 30
0.0
 11
981.8593031992
 21
1429.854872827
 31
0.0
  0
LINE
  5
1BD
330
1F
100
AcDbEntity
  8
0
  6
Continuous
 62
     7
370
    25
100
AcDbLine
 10
981.8593031992
 20
1429.854872827
 30
0.0
 11
1268.8689221424
 21
932.7396305563
 31
0.0
  0
LINE
  5
1BE
330
1F
100
AcDbEntity
  8
0
  6
Continuous
 62
     7
370
    25
100
AcDbLine
 10
1263.3785410857
 20
912.2492494996
 30
0.0
 11
1229.9174335733
 21
892.9304700699
 31
0.0
  0
LINE
  5
1BF
330
1F
100
AcDbEntity
  8
0
  6
Continuous
 62
     7
370
    25
100
AcDbLine
 10
1229.9174335733
 20
892.9304700699
 30
0.0
 11
1228.4174335733
 21
895.5285462813
 31
0.0
  0
LINE
  5
1C0
330
1F
100
AcDbEntity
  8
0
  6
Continuous
 62
     7
370
    25
100
AcDbLine
 10
1191.0803361063
 20
900.6960521309
 30
0.0
 11
936.823245146
 21
1233.426831701
 31
0.0
  0
LINE
  5
1C1
330
1F
100
AcDbEntity
  8
0
  6
Continuous
 62
     7
370
    25
100
AcDbLine
 10
936.823245146
 20
1233.426831701
 30
0.0
 11
939.2069548927
 21
1235.2483497062
 31
0.0
  0
LINE
  5
1C2
330
1F
100
AcDbEntity
  8
0
  6
Continuous
 62
     7
370
    25
100
AcDbLine
 10
1191.0803361063
 20
900.6960521309
 30
0.0
 11
1193.464045853
 21
902.5175701361
 31
0.0
  0
ARC
  5
1C3
330
1F
100
AcDbEntity
  8
0
  6
Continuous
 62
     7
370
    25
100
AcDbCircle
 10
1214.9174335733
 20
918.9112321834
 30
0.0
 40
30.00000000000008
100
AcDbArc
 50
217.3853480535
 51
300.0
  0
ARC
  5
1C4
330
1F
100
AcDbEntity
  8
0
  6
Continuous
 62
     7
370
    25
100
AcDbCircle
 10
873.2576519006
 20
1184.8530182275
 30
0.0
 40
79.99999999999999
100
AcDbArc
 50
37.3853480535
 51
77.9946148444
  0
LINE
  5
1C5
330
1F
100
AcDbEntity
  8
0
  6
Continuous
 62
     7
370
    25
100
AcDbLine
 10
889.897941878
 20
1263.1032626326
 30
0.0
 11
890.5219527522
 21
1266.0376467978
 31
0.0
  0
LINE
  5
1C6
330
1F
100
AcDbEntity
  8
0
  6
Continuous
 62
     7
370
    25
100
AcDbLine
 10
929.8977789721
 20
1456.854872827
 30
0.0
 11
929.8977789721
 21
1459.854872827
 31
0.0
  0
ARC
  5
1C7
330
1F
100
AcDbEntity
  8
0
  6
Continuous
 62
     7
370
    25
100
AcDbCircle
 10
929.8977789721
 20
1399.854872827
 30
0.0
 40
60.00000000000008
100
AcDbArc
 50
30.0
 51
90.0
  0
LINE
  5
1C8
330
1F
100
AcDbEntity
  8
0
  6
Continuous
 62
     7
370
    25
100
AcDbLine
 10
889.897941878
 20
1263.1032626326
 30
0.0
 11
364.6384323441
 21
1374.8022179327
 31
0.0
  0
LINE
  5
1C9
330
1F
100
AcDbEntity
  8
0
  6
Continuous
 62
     7
370
    25
100
AcDbLine
 10
364.6384323441
 20
1374.8022179327
 30
0.0
 11
365.2624432183
 21
1377.7366020979
 31
0.0
  0
LINE
  5
1CA
330
1F
100
AcDbEntity
  8
0
  6
Continuous
 62
     7
370
    25
100
AcDbLine
 10
355.8785410857
 20
1456.854872827
 30
0.0
 11
355.8785410857
 21
1459.854872827
 31
0.0
  0
LINE
  5
1CB
330
1F
100
AcDbEntity
  8
0
  6
Continuous
 62
     7
370
    25
100
AcDbLine
 10
355.8785410857
 20
1459.854872827
 30
0.0
 11
929.8977789721
 21
1459.854872827
 31
0.0
  0
ARC
  5
1CC
330
1F
100
AcDbEntity
  8
0
  6
Continuous
 62
     7
370
    25
100
AcDbCircle
 10
370.8785410857
 20
1404.1460595846
 30
0.0
 40
30.00000000000011
100
AcDbArc
 50
180.0
 51
257.9946148444
  0
LINE
  5
1CD
330
1F
100
AcDbEntity
  8
0
  6
Continuous
 62
     7
370
    25
100
AcDbLine
 10
343.8785410857
 20
1404.1460595846
 30
0.0
 11
340.8785410857
 21
1404.1460595846
 31
0.0
  0
LINE
  5
1CE
330
1F
100
AcDbEntity
  8
0
  6
Continuous
 62
     7
370
    25
100
AcDbLine
 10
340.8785410857
 20
1404.1460595846
 30
0.0
 11
340.8785410857
 21
1444.854872827
 31
0.0
  0
LINE
  5
1CF
330
1F
100
AcDbEntity
  8
0
  6
Continuous
 62
     7
370
    25
100
AcDbLine
 10
343.8785410857
 20
1444.854872827
 30
0.0
 11
340.8785410857
 21
1444.854872827
 31
0.0
  0
ARC
  5
1D0
330
1F
100
AcDbEntity
  8
0
  6
Continuous
 62
     7
370
    25
100
AcDbCircle
 10
355.8785410857
 20
1444.854872827
 30
0.0
 40
15.00000000000006
100
AcDbArc
 50
90.0
 51
180.0
  0
LINE
  5
1D1
330
1F
100
AcDbEntity
  8
0
  6
Continuous
 62
     7
370
    25
100
AcDbLine
 10
-746.6437620106
 20
-552.4599774518
 30
0.0
 11
-492.3866710503
 21
-885.1907570219
 31
0.0
  0
LINE
  5
1D2
330
1F
100
AcDbEntity
  8
0
  6
Continuous
 62
     7
370
    25
100
AcDbLine
 10
-492.3866710503
 20
-885.1907570219
 30
0.0
 11
-494.770380797
 21
-887.0122750271
 31
0.0
  0
LINE
  5
1D3
330
1F
100
AcDbEntity
  8
0
  6
Continuous
 62
     7
370
    25
100
AcDbLine
 10
-494.770380797
 20
-887.0122750271
 30
0.0
 11
-749.0274717573
 21
-554.281495457
 31
0.0
  0
LINE
  5
1D4
330
1F
100
AcDbEntity
  8
0
  6
Continuous
 62
     7
370
    25
100
AcDbLine
 10
-746.6437620106
 20
-552.4599774518
 30
0.0
 11
-749.0274717573
 21
-554.281495457
 31
0.0
  0
LINE
  5
1D5
330
1F
100
AcDbEntity
  8
0
  6
Continuous
 62
     7
370
    25
100
AcDbLine
 10
-821.8342718354
 20
-583.0035558772
 30
0.0
 11
-534.8246528922
 21
-1080.1187981479
 31
0.0
  0
LINE
  5
1D6
330
1F
100
AcDbEntity
  8
0
  6
Continuous
 62
     7
370
    25
100
AcDbLine
 10
-534.8246528922
 20
-1080.1187981479
 30
0.0
 11
-537.4227291035
 21
-1081.6187981479
 31
0.0
  0
LINE
  5
1D7
330
1F
100
AcDbEntity
  8
0
  6
Continuous
 62
     7
370
    25
100
AcDbLine
 10
-537.4227291035
 20
-1081.6187981479
 30
0.0
 11
-824.4323480468
 21
-584.5035558772
 31
0.0
  0
LINE
  5
1D8
330
1F
100
AcDbEntity
  8
0
  6
Continuous
 62
     7
370
    25
100
AcDbLine
 10
-821.8342718354
 20
-583.0035558772
 30
0.0
 11
-824.4323480468
 21
-584.5035558772
 31
0.0
  0
LINE
  5
1D9
330
1F
100
AcDbEntity
  8
0
  6
Continuous
 62
     7
370
    25
100
AcDbLine
 10
-818.94196699
 20
-564.0131748205
 30
0.0
 11
-785.4808594776
 21
-544.6943953908
 31
0.0
  0
LINE
  5
1DA
330
1F
100
AcDbEntity
  8
0
  6
Continuous
 62
     7
370
    25
100
AcDbLine
 10
-785.4808594776
 20
-544.6943953908
 30
0.0
 11
-783.9808594776
 21
-547.2924716022
 31
0.0
  0
LINE
  5
1DB
330
1F
100
AcDbEntity
  8
0
  6
Continuous
 62
     7
370
    25
100
AcDbLine
 10
-783.9808594776
 20
-547.2924716022
 30
0.0
 11
-817.44196699
 21
-566.6112510318
 31
0.0
  0
LINE
  5
1DC
330
1F
100
AcDbEntity
  8
0
  6
Continuous
 62
     7
370
    25
100
AcDbLine
 10
-818.94196699
 20
-564.0131748205
 30
0.0
 11
-817.44196699
 21
-566.6112510318
 31
0.0
  0
ARC
  5
1DD
330
1F
100
AcDbEntity
  8
0
  6
Continuous
 62
     7
370
    25
100
AcDbCircle
 10
-770.4808594776
 20
-570.6751575043
 30
0.0
 40
29.99999999999988
100
AcDbArc
 50
37.3853480535
 51
120.0
  0
ARC
  5
1DE
330
1F
100
AcDbEntity
  8
0
  6
Continuous
 62
     7
370
    25
100
AcDbCircle
 10
-770.4808594776
 20
-570.6751575043
 30
0.0
 40
26.99999999999991
100
AcDbArc
 50
37.3853480535
 51
120.0
  0
ARC
  5
1DF
330
1F
100
AcDbEntity
  8
0
  6
Continuous
 62
     7
370
    25
100
AcDbCircle
 10
88.55803301
 20
-1096.6187981479
 30
0.0
 40
12.00000000000001
100
AcDbArc
 50
270.0
 51
0.0
  0
LINE
  5
1E0
330
1F
100
AcDbEntity
  8
0
  6
Continuous
 62
     7
370
    25
100
AcDbLine
 10
-485.4612048765
 20
-1108.6187981479
 30
0.0
 11
88.55803301
 21
-1108.6187981479
 31
0.0
  0
ARC
  5
1E1
330
1F
100
AcDbEntity
  8
0
  6
Continuous
 62
     7
370
    25
100
AcDbCircle
 10
-485.4612048765
 20
-1051.6187981479
 30
0.0
 40
57.00000000000023
100
AcDbArc
 50
210.0
 51
270.0
  0
ARC
  5
1E2
330
1F
100
AcDbEntity
  8
0
  6
Continuous
 62
     7
370
    25
100
AcDbCircle
 10
-811.44196699
 20
-577.0035558772
 30
0.0
 40
12.00000000000011
100
AcDbArc
 50
120.0
 51
210.0
  0
ARC
  5
1E3
330
1F
100
AcDbEntity
  8
0
  6
Continuous
 62
     7
370
    25
100
AcDbCircle
 10
-428.8210778049
 20
-836.6169435484
 30
0.0
 40
82.99999999999982
100
AcDbArc
 50
217.3853480535
 51
257.9946148444
  0
LINE
  5
1E4
330
1F
100
AcDbEntity
  8
0
  6
Continuous
 62
     7
370
    25
100
AcDbLine
 10
79.1741308774
 20
-1029.5005274188
 30
0.0
 11
-446.0853786565
 21
-917.8015721187
 31
0.0
  0
ARC
  5
1E5
330
1F
100
AcDbEntity
  8
0
  6
Continuous
 62
     7
370
    25
100
AcDbCircle
 10
73.55803301
 20
-1055.9099849055
 30
0.0
 40
27.00000000000003
100
AcDbArc
 50
0.0
 51
77.9946148444
  0
LINE
  5
1E6
330
1F
100
AcDbEntity
  8
0
  6
Continuous
 62
     7
370
    25
100
AcDbLine
 10
100.55803301
 20
-1096.6187981479
 30
0.0
 11
100.55803301
 21
-1055.9099849055
 31
0.0
  0
ARC
  5
1E7
330
1F
100
AcDbEntity
  8
0
  6
Continuous
 62
     7
370
    25
100
AcDbCircle
 10
-811.44196699
 20
-577.0035558772
 30
0.0
 40
14.99999999999997
100
AcDbArc
 50
120.0
 51
210.0
  0
LINE
  5
1E8
330
1F
100
AcDbEntity
  8
0
  6
Continuous
 62
     7
370
    25
100
AcDbLine
 10
-485.4612048765
 20
-1108.6187981479
 30
0.0
 11
-485.4612048765
 21
-1111.6187981479
 31
0.0
  0
ARC
  5
1E9
330
1F
100
AcDbEntity
  8
0
  6
Continuous
 62
     7
370
    25
100
AcDbCircle
 10
-485.4612048765
 20
-1051.6187981479
 30
0.0
 40
60.00000000000004
100
AcDbArc
 50
210.0
 51
270.0
  0
LINE
  5
1EA
330
1F
100
AcDbEntity
  8
0
  6
Continuous
 62
     7
370
    25
100
AcDbLine
 10
-445.4613677823
 20
-914.8671879535
 30
0.0
 11
79.7981417515
 21
-1026.5661432536
 31
0.0
  0
LINE
  5
1EB
330
1F
100
AcDbEntity
  8
0
  6
Continuous
 62
     7
370
    25
100
AcDbLine
 10
79.7981417515
 20
-1026.5661432536
 30
0.0
 11
79.1741308774
 21
-1029.5005274188
 31
0.0
  0
LINE
  5
1EC
330
1F
100
AcDbEntity
  8
0
  6
Continuous
 62
     7
370
    25
100
AcDbLine
 10
-445.4613677823
 20
-914.8671879535
 30
0.0
 11
-446.0853786565
 21
-917.8015721187
 31
0.0
  0
LINE
  5
1ED
330
1F
100
AcDbEntity
  8
0
  6
Continuous
 62
     7
370
    25
100
AcDbLine
 10
88.55803301
 20
-1108.6187981479
 30
0.0
 11
88.55803301
 21
-1111.6187981479
 31
0.0
  0
LINE
  5
1EE
330
1F
100
AcDbEntity
  8
0
  6
Continuous
 62
     7
370
    25
100
AcDbLine
 10
88.55803301
 20
-1111.6187981479
 30
0.0
 11
-485.4612048765
 21
-1111.6187981479
 31
0.0
  0
ARC
  5
1EF
330
1F
100
AcDbEntity
  8
0
  6
Continuous
 62
     7
370
    25
100
AcDbCircle
 10
-428.8210778049
 20
-836.6169435484
 30
0.0
 40
79.99999999999997
100
AcDbArc
 50
217.3853480535
 51
257.9946148444
  0
ARC
  5
1F0
330
1F
100
AcDbEntity
  8
0
  6
Continuous
 62
     7
370
    25
100
AcDbCircle
 10
73.55803301
 20
-1055.9099849055
 30
0.0
 40
30.00000000000003
100
AcDbArc
 50
0.0
 51
77.9946148444
  0
LINE
  5
1F1
330
1F
100
AcDbEntity
  8
0
  6
Continuous
 62
     7
370
    25
100
AcDbLine
 10
100.55803301
 20
-1055.9099849055
 30
0.0
 11
103.55803301
 21
-1055.9099849055
 31
0.0
  0
LINE
  5
1F2
330
1F
100
AcDbEntity
  8
0
  6
Continuous
 62
     7
370
    25
100
AcDbLine
 10
100.55803301
 20
-1096.6187981479
 30
0.0
 11
103.55803301
 21
-1096.6187981479
 31
0.0
  0
ARC
  5
1F3
330
1F
100
AcDbEntity
  8
0
  6
Continuous
 62
     7
370
    25
100
AcDbCircle
 10
88.55803301
 20
-1096.6187981479
 30
0.0
 40
15.00000000000001
100
AcDbArc
 50
270.0
 51
0.0
  0
LINE
  5
1F4
330
1F
100
AcDbEntity
  8
0
  6
Continuous
 62
     7
370
    25
100
AcDbLine
 10
103.55803301
 20
-1055.9099849055
 30
0.0
 11
103.55803301
 21
-1096.6187981479
 31
0.0
  0
LWPOLYLINE
  5
1F5
330
1F
100
AcDbEntity
  8
0
  6
Continuous
 62
     7
370
    25
100
AcDbPolyline
 90
       27
 70
   128
 43
0.0
 10
464.8076944032
 20
840.6269562474
 10
464.7950270737
 20
840.542344615
 10
461.9187004035
 20
820.8640524592
 10
459.0687670849
 20
801.1947239762
 10
456.0872832398
 20
781.5848301873
 10
452.8163049904
 20
762.0848421138
 10
449.0978884587
 20
742.7452307768
 10
444.7740897666
 20
723.6164671977
 10
437.4074660061
 20
695.3774437565
 10
429.3573639485
 20
667.3900287259
 10
420.7394798952
 20
639.6140530777
 10
411.6695101476
 20
612.0093477837
 10
399.0193874176
 20
575.4313055483
 10
385.7727979107
 20
539.0160156604
 10
371.9926667557
 20
502.7220714777
 10
356.0882613071
 20
462.4410618095
 10
339.6040786949
 20
422.245000603
 10
322.575915753
 20
382.1394934587
 10
309.1773279993
 20
351.4653333995
 10
295.4971088672
 20
320.8404007657
 10
281.5645344218
 20
290.2705035769
 10
267.4088807283
 20
259.7614498524
 10
252.9954526829
 20
229.1727952289
 10
238.4245428449
 20
198.6315752381
 10
223.7215161217
 20
168.1022121121
 10
208.9365963274
 20
137.594840504
 10
208.8900348136
 20
137.4989652852
  0
LWPOLYLINE
  5
1F6
330
1F
100
AcDbEntity
  8
0
  6
Continuous
 62
     7
370
    25
100
AcDbPolyline
 90
       28
 70
   128
 43
0.0
 10
208.8900348136
 20
137.4989652852
 10
208.9159940274
 20
137.6023391279
 10
219.9189424402
 20
181.1966619651
 10
231.0826510421
 20
224.7358392367
 10
242.4893837006
 20
268.1670794715
 10
251.294004125
 20
300.790096936
 10
260.3102292605
 20
333.3157153566
 10
269.5570601399
 20
365.7203354964
 10
279.053497796
 20
397.9803581184
 10
290.7124217448
 20
436.2352607645
 10
302.7596425737
 20
474.261340201
 10
315.2348767477
 20
512.0453298407
 10
328.1778407314
 20
549.5739630967
 10
341.6282509899
 20
586.8339733818
 10
355.6258239879
 20
623.8120941089
 10
365.349672573
 20
648.426273996
 10
375.4271939382
 20
672.9090494015
 10
385.9238649313
 20
697.2414149556
 10
394.2123483867
 20
715.588668315
 10
402.84124209
 20
733.8235566849
 10
411.8655065882
 20
751.914160954
 10
421.3401024283
 20
769.8285620109
 10
429.5135297467
 20
784.1685765326
 10
438.1295997007
 20
798.320973275
 10
447.0012468359
 20
812.3759063129
 10
455.9414056977
 20
826.423529721
 10
464.7630108318
 20
840.5539975741
 10
464.8076944032
 20
840.6269562474
  0
LWPOLYLINE
  5
1F7
330
1F
100
AcDbEntity
  8
0
  6
Continuous
 62
     7
370
    25
100
AcDbPolyline
 90
       26
 70
   128
 43
0.0
 10
-46.9018695237
 20
-565.2835159609
 10
-46.8874346099
 20
-565.1963693601
 10
-43.7680028088
 20
-545.891847465
 10
-40.6946542287
 20
-526.5884043053
 10
-37.5122875855
 20
-507.3339260465
 10
-34.0658015952
 20
-488.1762988542
 10
-30.2000949737
 20
-469.1634088938
 10
-25.760066437
 20
-450.343142331
 10
-18.2975586174
 20
-422.5028985506
 10
-10.2662379907
 20
-394.8775746878
 10
-1.7743272626
 20
-367.4332758096
 10
7.0699508612
 20
-340.1361069826
 10
19.2845486357
 20
-303.9417363281
 10
31.9662131524
 20
-267.9037121891
 10
45.0798659776
 20
-231.9892876245
 10
59.9136500914
 20
-192.7749471468
 10
75.2818179693
 20
-153.662567807
 10
91.2237296097
 20
-114.6642341473
 10
104.7113535146
 20
-82.9488932817
 10
118.660473532
 20
-51.3369918251
 10
133.0464088808
 20
-19.8453649872
 10
147.8444787797
 20
11.5091520221
 10
168.0747104679
 20
53.480691222
 10
188.442885761
 20
95.4409895629
 10
208.8434729281
 20
137.4030902357
 10
208.8900348136
 20
137.4989652852
  0
LWPOLYLINE
  5
1F8
330
1F
100
AcDbEntity
  8
0
  6
Continuous
 62
     7
370
    25
100
AcDbPolyline
 90
       26
 70
   128
 43
0.0
 10
208.8900348136
 20
137.4989652852
 10
208.8640759929
 20
137.3955913333
 10
197.5865584951
 20
92.4064984662
 10
186.2862003361
 20
47.4391155471
 10
174.8752516011
 20
2.5502345532
 10
166.0087048623
 20
-31.183519033
 10
156.7378642788
 20
-64.757094917
 10
147.051972917
 20
-98.1404885697
 10
136.9402738433
 20
-131.3036954618
 10
125.0216609169
 20
-168.6300789453
 10
112.6742572809
 20
-205.7191766667
 10
99.8948673735
 20
-242.5825131292
 10
86.6802956329
 20
-279.2316128361
 10
73.0273464976
 20
-315.6780002906
 10
58.9328244058
 20
-351.9331999959
 10
47.9771117266
 20
-379.1881329858
 10
36.6539913383
 20
-406.3272891579
 10
24.8584339632
 20
-433.3084415884
 10
12.4854103235
 20
-460.0893633531
 10
3.561321067
 20
-477.9714631596
 10
-5.9521934309
 20
-495.6246485881
 10
-15.9029535061
 20
-513.111881273
 10
-26.1387794944
 20
-530.4961228484
 10
-36.5074917318
 20
-547.8403349486
 10
-46.8569105541
 20
-565.2074792079
 10
-46.9018695237
 20
-565.2835159609
  0
LWPOLYLINE
  5
1F9
330
1F
100
AcDbEntity
  8
0
  6
Continuous
 62
     7
370
    25
100
AcDbPolyline
 90
       77
 70
   128
 43
0.0
 10
300.7774263696
 20
1429.854872827
 10
299.1035981733
 20
1421.5382695908
 10
297.9459207354
 20
1414.0178219462
 10
297.214651652
 20
1406.4257421881
 10
297.0447370973
 20
1398.8317852446
 10
297.5711232454
 20
1391.3057060433
 10
298.5115869117
 20
1385.7920531432
 10
299.9807370753
 20
1380.4160622526
 10
301.9978818266
 20
1375.292769935
 10
303.7472423895
 20
1371.8892800068
 10
305.7485246234
 20
1368.6649959226
 10
309.3551103821
 20
1363.9871758594
 10
313.4233686203
 20
1359.7771296685
 10
317.8291020516
 20
1356.0109248014
 10
322.4481133897
 20
1352.6646287098
 10
329.4122866067
 20
1348.3916640385
 10
336.5908810235
 20
1344.6580171
 10
343.9088793932
 20
1341.3336370856
 10
351.291264469
 20
1338.2884731866
 10
361.3200886925
 20
1334.4257138709
 10
371.3911931806
 20
1330.6146125631
 10
381.449358456
 20
1326.5618766292
 10
388.7387793446
 20
1323.2529974742
 10
395.8984010994
 20
1319.4180848683
 10
402.7801370851
 20
1314.8652444731
 10
406.8493768092
 20
1311.601712263
 10
410.7417249889
 20
1308.0072583192
 10
416.1455554726
 20
1302.2490205737
 10
419.7410442018
 20
1298.0898847003
 10
423.3432201712
 20
1293.8776015343
 10
425.9468060847
 20
1290.577143199
 10
428.2133547454
 20
1287.0258184675
 10
430.0263719403
 20
1283.2558318363
 10
431.5915543324
 20
1278.3766204429
 10
432.5479159633
 20
1273.351418633
 10
433.1142139572
 20
1266.4221640424
 10
433.0306384234
 20
1259.4583093504
 10
432.4350315003
 20
1252.4928304728
 10
431.4652353264
 20
1245.5587033253
 10
430.2590920403
 20
1238.6889038239
 10
426.7156738503
 20
1222.1116327844
 10
422.4686698157
 20
1205.6764633665
 10
417.7335108791
 20
1189.3478216837
 10
412.7256279835
 20
1173.0901338495
 10
402.3410743659
 20
1140.7468321032
 10
391.7435650794
 20
1108.3831964481
 10
387.4326159294
 20
1095.1623896488
 10
383.1902012166
 20
1081.8928851405
 10
379.1684117924
 20
1068.5467238576
 10
375.5193385084
 20
1055.0959467341
 10
372.395072216
 20
1041.5125947043
 10
370.418822798
 20
1030.7192196198
 10
368.9469385764
 20
1019.8128668832
 10
368.047073409
 20
1008.8502387126
 10
367.7868811535
 20
997.8880373258
 10
368.2340156679
 20
986.9829649406
 10
368.9704931475
 20
979.6092602345
 10
370.0598489856
 20
972.2988845431
 10
372.1720116579
 20
962.3081336726
 10
374.9612430992
 20
952.5003754734
 10
378.3708170509
 20
942.9128943726
 10
382.3440072542
 20
933.5829747977
 10
386.8240874506
 20
924.547901176
 10
391.7543313814
 20
915.8449579346
 10
395.9015833833
 20
909.2486215518
 10
400.2833609437
 20
902.8129592862
 10
407.8276176046
 20
892.7046714132
 10
415.9227535247
 20
882.94487459
 10
424.549703811
 20
873.5560833093
 10
433.6894035706
 20
864.5608120638
 10
443.3227879105
 20
855.9815753461
 10
448.7550931889
 20
851.4823106122
 10
454.3779614827
 20
847.1743753942
 10
460.2632374054
 20
843.2194401382
 10
462.4232175224
 20
841.9364648065
 10
464.7298960811
 20
840.6680154379
 10
464.8076944032
 20
840.6269562474
  0
LWPOLYLINE
  5
1FA
330
1F
100
AcDbEntity
  8
0
  6
Continuous
 62
     7
370
    25
100
AcDbPolyline
 90
       71
 70
   128
 43
0.0
 10
464.8076944032
 20
840.6269562474
 10
464.7217488171
 20
840.6455999262
 10
456.3866630355
 20
842.9085205954
 10
448.2770734222
 20
845.9159810323
 10
440.4316084468
 20
849.4997569586
 10
432.8888965784
 20
853.491624096
 10
424.0736265627
 20
858.826041598
 10
415.6643134544
 20
864.6815663288
 10
407.6724036915
 20
871.0098120164
 10
400.109343712
 20
877.7623923886
 10
392.986579954
 20
884.8909211734
 10
384.1109519074
 20
894.9956110125
 10
375.951058631
 20
905.7598581893
 10
368.5507164665
 20
917.1254734909
 10
361.9537417557
 20
929.0342677046
 10
356.4091939803
 20
940.9860803952
 10
351.6472925144
 20
953.4288584705
 10
347.680242951
 20
966.2574820022
 10
344.5202508833
 20
979.3668310621
 10
342.1795219041
 20
992.6517857221
 10
340.6018735478
 20
1006.3332937759
 10
339.7608805988
 20
1020.1359178979
 10
339.5989180304
 20
1034.0022276698
 10
340.0583608158
 20
1047.8747926735
 10
341.0815839284
 20
1061.6961824907
 10
342.6109623415
 20
1075.4089667032
 10
345.2521474588
 20
1093.1610734038
 10
348.5159941321
 20
1110.7868866932
 10
352.321501272
 20
1128.2807896077
 10
356.5876677891
 20
1145.6371651832
 10
361.2334925939
 20
1162.8503964559
 10
367.4955842164
 20
1184.105603389
 10
374.2311243625
 20
1205.1945646033
 10
381.335262966
 20
1226.1583560202
 10
388.7031499604
 20
1247.0380535609
 10
391.3006764467
 20
1253.9778087534
 10
393.9933303695
 20
1260.9191416114
 10
396.5975085576
 20
1267.9006128362
 10
398.92960784
 20
1274.9607831293
 10
400.8060250453
 20
1282.1382131924
 10
402.0431570026
 20
1289.4714637269
 10
402.165023731
 20
1291.0091065752
 10
402.0801851861
 20
1292.5417832526
 10
401.2988916533
 20
1294.853100966
 10
400.4198093893
 20
1296.2106822747
 10
399.3566225255
 20
1297.4056668578
 10
396.4840142398
 20
1299.6888531994
 10
393.3288312081
 20
1301.4750051161
 10
386.3106808465
 20
1304.5652842811
 10
379.1655574091
 20
1307.0560566681
 10
371.9917305868
 20
1309.2361801332
 10
364.8874700707
 20
1311.3945125323
 10
355.544382909
 20
1314.4889894236
 10
346.289856405
 20
1317.8824592838
 10
337.1899971068
 20
1321.6986462921
 10
328.3109115625
 20
1326.0612746277
 10
319.7187063202
 20
1331.0940684696
 10
311.4794879279
 20
1336.920751997
 10
306.0489521826
 20
1341.4899189003
 10
300.8983953721
 20
1346.5516091737
 10
296.11933141
 20
1352.0865591704
 10
291.80327421
 20
1358.0755052433
 10
287.9977434845
 20
1364.5518021549
 10
284.7322726067
 20
1371.435263594
 10
282.0157554686
 20
1378.6215379948
 10
279.8570859624
 20
1386.0062737912
 10
278.0284558805
 20
1394.5939987433
 10
276.7761550293
 20
1403.3281538047
 10
276.0289800554
 20
1412.1533062936
 10
275.7157276051
 20
1421.0140235283
 10
275.7651943248
 20
1429.854872827
  0
LWPOLYLINE
  5
1FB
330
1F
100
AcDbEntity
  8
0
  6
Continuous
 62
     8
370
    25
100
AcDbPolyline
 90
       32
 70
   128
 43
0.0
 10
-1021.4730340079
 20
105.5261192538
 10
-1006.1421801674
 20
136.0129047996
 10
-984.1791210191
 20
179.4937678543
 10
-974.8243697024
 20
197.8886132558
 10
-965.5950342019
 20
216.355779678
 10
-956.7407556092
 20
235.0145189416
 10
-953.5722495843
 20
242.1133373655
 10
-950.8226063541
 20
249.3803192977
 10
-950.2634117336
 20
251.2764310013
 10
-950.0058911402
 20
253.2212776693
 10
-950.1452495068
 20
254.2121510069
 10
-950.4162662527
 20
254.7476727433
 10
-950.8580036614
 20
255.1732366513
 10
-951.5580304577
 20
255.4986832782
 10
-952.5134141278
 20
255.6684657334
 10
-954.2055979828
 20
255.6388365743
 10
-955.885767915
 20
255.3857161689
 10
-959.1368357746
 20
254.6125581561
 10
-969.1025963338
 20
251.5328834631
 10
-978.930273276
 20
248.0307910135
 10
-988.692293725
 20
244.3541531515
 10
-998.4610848045
 20
240.7508422214
 10
-1008.3090736384
 20
237.4687305674
 10
-1018.3086873503
 20
234.7556905339
 10
-1024.5270392601
 20
233.4472663143
 10
-1030.818258107
 20
232.4686082336
 10
-1037.147946939
 20
231.9399072079
 10
-1043.4817088037
 20
231.9813541531
 10
-1047.7499406443
 20
232.4130073918
 10
-1051.9665854046
 20
233.2644636748
 10
-1056.0395798411
 20
234.6118300751
 10
-1058.5331749976
 20
235.8658934343
  0
LWPOLYLINE
  5
1FC
330
1F
100
AcDbEntity
  8
0
  6
Continuous
 62
     8
370
    25
100
AcDbPolyline
 90
      107
 70
   128
 43
0.0
 10
-906.1058883066
 20
688.5392444919
 10
-902.0933009893
 20
694.4615794184
 10
-895.5857890187
 20
703.345846989
 10
-888.7338311612
 20
712.0128771241
 10
-881.472765709
 20
720.3316587771
 10
-873.7379309542
 20
728.1711809014
 10
-865.4646651891
 20
735.4004324508
 10
-859.4212337617
 20
739.9194807988
 10
-854.4314290308
 20
743.1363552616
 10
-849.2262746464
 20
745.9904483622
 10
-843.8279792742
 20
748.4027026025
 10
-837.0242692216
 20
750.6333057931
 10
-830.0331901739
 20
751.9864423965
 10
-823.7013762856
 20
752.3680890073
 10
-817.4146749784
 20
751.9527214534
 10
-811.2851610228
 20
750.7576132135
 10
-805.3799504591
 20
748.853858262
 10
-799.0106838562
 20
745.9404982854
 10
-793.0695868373
 20
742.2959367561
 10
-787.1228651077
 20
737.520612229
 10
-781.7201962955
 20
732.0792628039
 10
-776.8223603148
 20
726.1595232794
 10
-771.148939017
 20
718.0470137677
 10
-766.0820797288
 20
709.4340834399
 10
-761.5980196144
 20
700.4120941963
 10
-757.6729958381
 20
691.072407937
 10
-754.283245564
 20
681.5063865622
 10
-751.9726946054
 20
673.8115678871
 10
-749.9916378688
 20
665.9947608192
 10
-747.5078846957
 20
653.2138618355
 10
-745.836431956
 20
640.2177963445
 10
-744.8997524854
 20
627.0924402185
 10
-744.6203191196
 20
613.9236693294
 10
-744.9206046942
 20
600.7973595492
 10
-746.0527003486
 20
583.9265555792
 10
-747.943584099
 20
567.1275291766
 10
-750.5219727415
 20
550.4456510179
 10
-753.7165830721
 20
533.9262917796
 10
-757.6063944052
 20
517.0553412184
 10
-762.0923774278
 20
500.3626786168
 10
-767.1706064057
 20
483.8812110302
 10
-772.8371556046
 20
467.643845514
 10
-778.9029855718
 20
452.3979069683
 10
-785.5999567737
 20
437.4229642331
 10
-792.7790650887
 20
422.6484658428
 10
-800.2913063953
 20
408.0038603312
 10
-802.8911099642
 20
403.0757889485
 10
-805.3136671382
 20
398.0447548041
 10
-807.1973268093
 20
392.7947691184
 10
-807.6112914715
 20
390.5569388892
 10
-807.5733948822
 20
389.3461491272
 10
-807.0467610153
 20
387.745682512
 10
-806.5741198492
 20
386.9735570008
 10
-805.2287525415
 20
385.4226690209
 10
-803.6681604351
 20
384.1036930008
 10
-801.1522006501
 20
382.3937470577
 10
-798.5329975076
 20
380.8861518544
 10
-788.9255273869
 20
375.62375695
 10
-779.5411225806
 20
370.3064995978
 10
-770.4705341836
 20
364.7257204653
 10
-761.804513291
 20
358.6727602199
 10
-755.5996093296
 20
353.8095793528
 10
-749.5678897028
 20
348.7230089891
 10
-740.5338366027
 20
340.4718829565
 10
-731.8060834693
 20
331.7187999089
 10
-723.4380115452
 20
322.4505032243
 10
-715.4830020727
 20
312.653736281
 10
-707.9944362942
 20
302.3152424573
 10
-703.4956272761
 20
295.3781398797
 10
-699.3296206817
 20
288.1564487319
 10
-695.3942903979
 20
280.1889520387
 10
-692.0363037589
 20
271.8825149371
 10
-689.3594362412
 20
263.3069486087
 10
-687.3301077574
 20
253.956556891
 10
-686.0631589555
 20
244.4332219057
 10
-685.4556203488
 20
234.8476226851
 10
-685.4669353231
 20
221.1451314221
 10
-686.2462279141
 20
207.4507533796
 10
-687.5730140924
 20
193.8064690407
 10
-690.4811593895
 20
171.5325751705
 10
-694.1145723024
 20
149.3714516933
 10
-698.3548039883
 20
127.3310778141
 10
-703.0834056046
 20
105.4194327386
 10
-708.1819283087
 20
83.6444956719
 10
-715.1347597542
 20
56.1449000848
 10
-722.6673045692
 20
28.8663522851
 10
-730.794738595
 20
1.846031757
 10
-739.5322376731
 20
-24.8788820153
 10
-746.2308008939
 20
-43.966532232
 10
-753.3187645269
 20
-62.8776534902
 10
-760.864314651
 20
-81.5730854121
 10
-768.9356373453
 20
-100.0136676202
 10
-776.065942182
 20
-114.76746321
 10
-783.8092939182
 20
-129.2278391236
 10
-792.1161790504
 20
-143.4132036867
 10
-800.9370840753
 20
-157.3419652249
 10
-810.2224954894
 20
-171.032532064
 10
-821.5861018561
 20
-187.0568810768
 10
-833.2755989754
 20
-202.9715439016
 10
-845.3627100107
 20
-218.6602573793
 10
-857.9191581251
 20
-234.0067583508
 10
-866.4149714853
 20
-243.6476249203
 10
-875.4420663569
 20
-252.7902700365
 10
-875.9229340795
 20
-253.2406962184
 10
-885.2980932329
 20
-261.3581960411
 10
-895.1677481334
 20
-268.8886612381
 10
-898.9924022056
 20
-271.5510928316
  0
LWPOLYLINE
  5
1FD
330
1F
100
AcDbEntity
  8
0
  6
Continuous
 62
     8
370
    25
100
AcDbPolyline
 90
      130
 70
   128
 43
0.0
 10
-632.7751531251
 20
-701.4728952821
 10
-631.8095827997
 20
-697.9399056588
 10
-624.2018516119
 20
-669.1118844506
 10
-616.6496374937
 20
-640.3371741746
 10
-608.9439518444
 20
-611.6928548093
 10
-600.8758060632
 20
-583.2560063335
 10
-590.3351714782
 20
-548.1500888375
 10
-579.4202481449
 20
-513.2782496736
 10
-568.1306336033
 20
-478.6176796229
 10
-556.465925393
 20
-444.145569467
 10
-542.2801754776
 20
-403.9308094766
 10
-527.530387431
 20
-363.8282318842
 10
-521.2392130478
 20
-347.2558976231
 10
-515.0125736414
 20
-330.6036955052
 10
-509.1838132398
 20
-313.7389533217
 10
-507.035055732
 20
-306.7775333735
 10
-505.2408471537
 20
-299.6932529787
 10
-504.0640928013
 20
-292.4818527287
 10
-503.7717807081
 20
-286.9863348472
 10
-504.0666281863
 20
-281.4727852025
 10
-504.95315022
 20
-276.0542316399
 10
-506.4614717446
 20
-270.5627342874
 10
-508.4307978806
 20
-265.2292671063
 10
-510.7381721747
 20
-260.0493373509
 10
-513.2606381738
 20
-255.0184522756
 10
-519.3557743869
 20
-243.8702448272
 10
-525.6812103276
 20
-232.9529362909
 10
-532.0239010639
 20
-222.1113139228
 10
-538.1708016639
 20
-211.1901649786
 10
-545.8830472529
 20
-196.3240585848
 10
-552.9866609952
 20
-181.0804096579
 10
-559.3554912611
 20
-165.419308809
 10
-563.9331440113
 20
-152.2137177189
 10
-567.8902659766
 20
-138.6676714575
 10
-571.2105103876
 20
-124.8485740608
 10
-573.8775304749
 20
-110.8238295648
 10
-575.8749794691
 20
-96.6608420057
 10
-577.186510601
 20
-82.4270154195
 10
-577.8325488784
 20
-68.4694804574
 10
-577.9148335439
 20
-54.4750884947
 10
-577.4737047898
 20
-40.486528889
 10
-576.5495028082
 20
-26.5464909979
 10
-574.5771864441
 20
-7.5565719513
 10
-571.9027943933
 20
11.3183357496
 10
-568.6555897849
 20
30.055065009
 10
-564.7301530109
 20
49.657708882
 10
-560.3588495145
 20
69.1285506099
 10
-555.6097986908
 20
88.4772129011
 10
-550.5511199353
 20
107.7133184638
 10
-545.2382057963
 20
126.8963957872
 10
-539.8009213411
 20
146.0468376137
 10
-537.0114960822
 20
155.6287525879
 10
-534.278953676
 20
165.2505294844
 10
-531.8787636501
 20
174.9718258287
 10
-530.0863955318
 20
184.8522991462
 10
-529.7580255869
 20
187.6826958684
 10
-529.7751675443
 20
190.5208549511
 10
-530.2042557328
 20
192.6668557149
 10
-530.9581544676
 20
194.6943924525
 10
-532.5126658885
 20
197.4664857296
 10
-534.4022125232
 20
199.9450167584
 10
-538.4228027384
 20
204.0643354943
 10
-542.7955612651
 20
207.6474448151
 10
-547.3678208457
 20
210.866292376
 10
-551.9869142224
 20
213.8928258324
 10
-560.0995663415
 20
219.1104197211
 10
-568.2067044433
 20
224.3249182346
 10
-576.2474773812
 20
229.680991011
 10
-584.1610340085
 20
235.3233076886
 10
-591.8865231784
 20
241.3965379056
 10
-599.3630937442
 20
248.0453513002
 10
-604.7877276788
 20
253.5189574694
 10
-609.9643143702
 20
259.4271742475
 10
-614.7927626759
 20
265.7639002038
 10
-619.1729814533
 20
272.5230339074
 10
-623.0397786093
 20
279.7866342115
 10
-626.3121037574
 20
287.459420625
 10
-628.9610061345
 20
295.42973081
 10
-630.9575349779
 20
303.5859024283
 10
-632.5177152086
 20
313.2291148782
 10
-633.4024125949
 20
322.991019413
 10
-633.7216330621
 20
332.8188268147
 10
-633.5853825358
 20
342.6597478655
 10
-633.1036669412
 20
352.4609933475
 10
-631.4971646412
 20
371.8137336301
 10
-629.2134089895
 20
391.096643342
 10
-626.3759878694
 20
410.3086193633
 10
-623.1084891641
 20
429.4485585738
 10
-619.5345007569
 20
448.5153578534
 10
-615.777610531
 20
467.5079140822
 10
-609.7763647659
 20
496.2847932233
 10
-603.3939804656
 20
524.9294212013
 10
-596.6827163525
 20
553.4434266975
 10
-589.6948311488
 20
581.8284383929
 10
-579.9774344789
 20
619.5784066037
 10
-569.9317553106
 20
657.1760196922
 10
-559.7138418089
 20
694.7004239146
 10
-555.5116748865
 20
709.8686094478
 10
-551.3662063485
 20
725.0719520386
 10
-547.5281520366
 20
740.3821371023
 10
-544.2482277926
 20
755.8708500539
 10
-543.5442957665
 20
759.8759740194
 10
-543.0880745874
 20
763.9246303454
 10
-543.1141110398
 20
766.4493601267
 10
-543.532549298
 20
768.9198788238
 10
-544.6375993366
 20
771.9917861282
 10
-546.1167960696
 20
774.8443108794
 10
-549.8419621829
 20
780.7051601526
 10
-553.8359281975
 20
786.3071017748
 10
-557.8439016442
 20
791.8863924918
 10
-561.6110900539
 20
797.6792890497
 10
-565.7431279089
 20
805.3077605068
 10
-569.3346067899
 20
813.3639021382
 10
-572.3743963881
 20
821.7524774047
 10
-574.8513663948
 20
830.3782497667
 10
-577.2079244289
 20
841.3164873484
 10
-578.895477032
 20
852.4640165029
 10
-579.9985106672
 20
863.7468739424
 10
-580.6015117976
 20
875.0910963789
 10
-580.7889668863
 20
886.4227205248
 10
-580.4729706397
 20
902.745436937
 10
-579.5593495106
 20
919.0475408742
 10
-578.133657073
 20
935.3147031918
 10
-576.2814469005
 20
951.5325947451
 10
-574.088272567
 20
967.6868863895
 10
-571.6396876463
 20
983.7632489803
 10
-566.0598117357
 20
1016.379895472
 10
-559.8047833007
 20
1048.8241016312
 10
-553.0081005922
 20
1081.1134181399
 10
-543.392513882
 20
1123.2136864254
  0
LWPOLYLINE
  5
1FE
330
1F
100
AcDbEntity
  8
0
  6
Continuous
 62
     8
370
    25
100
AcDbPolyline
 90
       96
 70
   128
 43
0.0
 10
-416.8765751858
 20
1263.6973158116
 10
-413.6443131655
 20
1257.797767368
 10
-406.2237784567
 20
1242.6373026114
 10
-399.3522598984
 20
1227.1785869298
 10
-392.9023240148
 20
1211.5051587161
 10
-386.7465373301
 20
1195.7005563632
 10
-380.9377058618
 20
1179.8489262681
 10
-375.6181943968
 20
1163.7367748598
 10
-370.9270907536
 20
1147.3472432074
 10
-367.8556881731
 20
1134.5004884216
 10
-365.336860789
 20
1121.4603444773
 10
-363.4090835804
 20
1108.2797911435
 10
-362.1108315263
 20
1095.0118081894
 10
-361.3551659969
 20
1079.3296384909
 10
-361.3164471848
 20
1063.6025447986
 10
-361.9107039333
 20
1047.8824883668
 10
-363.053965086
 20
1032.2214304496
 10
-365.3800632737
 20
1010.8721675367
 10
-368.4725612814
 20
989.6505572071
 10
-372.2175524916
 20
968.5896501848
 10
-376.1055457622
 20
949.6094892757
 10
-380.3901278848
 20
930.7540772148
 10
-384.9920280961
 20
912.01335384
 10
-389.2254469216
 20
895.6258850396
 10
-393.3956499219
 20
879.2137460701
 10
-395.147608316
 20
871.8392890108
 10
-396.4922057031
 20
864.3536969515
 10
-396.7188143634
 20
860.8687964165
 10
-396.4235994983
 20
857.4005258448
 10
-395.5408289544
 20
853.6101657903
 10
-394.3165861457
 20
849.9432433739
 10
-392.8603814933
 20
846.4060602684
 10
-389.2054030013
 20
838.9991940997
 10
-385.0598411209
 20
831.9618281286
 10
-380.5424713425
 20
825.2223893594
 10
-375.7720691569
 20
818.7093047967
 10
-370.8674100544
 20
812.3510014447
 10
-363.2199088597
 20
802.7821548167
 10
-355.2356442598
 20
793.4276491875
 10
-346.7640885778
 20
784.4416947425
 10
-337.6547141373
 20
775.978501667
 10
-333.9831399986
 20
772.9623197566
 10
-330.091345589
 20
770.1998084271
 10
-325.9190450347
 20
767.8808051113
 10
-322.6053606772
 20
766.5724492222
 10
-319.1247835053
 20
765.7495506641
 10
-315.4822621711
 20
765.5483799038
 10
-311.8467894211
 20
766.059084327
 10
-308.8279003222
 20
767.0921746594
 10
-305.992136589
 20
768.5934056507
 10
-302.1369750273
 20
771.5368275247
 10
-298.7455279469
 20
775.0370099565
 10
-294.4751515206
 20
780.6331150284
 10
-290.7613739326
 20
786.6481252363
 10
-287.4663181847
 20
792.9321495405
 10
-284.4521072792
 20
799.3352969011
 10
-278.1381187847
 20
814.1256920472
 10
-272.3970811043
 20
829.1512007407
 10
-267.0312994075
 20
844.3180126815
 10
-261.8430788637
 20
859.5323175693
 10
-251.5987199279
 20
890.1157302291
 10
-241.4830634929
 20
920.7041368185
 10
-229.2455570166
 20
957.4174214397
 10
-216.8485869545
 20
994.0188909053
 10
-204.2438585936
 20
1030.4912965568
 10
-191.3830772206
 20
1066.8173897358
 10
-178.13084091
 20
1103.0163205163
 10
-164.590720447
 20
1139.0870986001
 10
-151.0107674114
 20
1175.1553850772
 10
-137.6390333828
 20
1211.3468410373
 10
-132.53450885
 20
1225.8576989761
 10
-129.2065427921
 20
1236.4223959849
 10
-128.0402443465
 20
1240.6824875031
 10
-127.2336104225
 20
1245.0232265464
 10
-127.1518657184
 20
1246.5622325841
 10
-127.3292750326
 20
1248.0838742759
 10
-128.1455219413
 20
1249.9855347324
 10
-129.9327723356
 20
1251.9137584967
 10
-132.9415484458
 20
1253.8363608409
 10
-136.1872776353
 20
1255.2897250338
 10
-142.2334041794
 20
1257.6416788733
 10
-148.2973108633
 20
1259.9597991396
 10
-154.2603564806
 20
1262.4645006797
 10
-160.0038998246
 20
1265.3761983404
 10
-165.4092996887
 20
1268.9153069687
 10
-170.1830751426
 20
1273.0142303381
 10
-174.483783845
 20
1277.7219258247
 10
-178.216129223
 20
1282.9389879975
 10
-181.3349690028
 20
1288.565096046
 10
-183.9083583703
 20
1294.5313359626
 10
-185.9675933564
 20
1300.7166361506
 10
-188.0745486688
 20
1309.4771616818
 10
-189.4685627624
 20
1318.4332014503
 10
-190.26442214
 20
1327.4932210256
 10
-190.5769133045
 20
1336.5656859774
 10
-190.4791805164
 20
1341.7425648612
  0
LWPOLYLINE
  5
1FF
330
1F
100
AcDbEntity
  8
0
  6
Continuous
 62
     8
370
    25
100
AcDbPolyline
 90
       43
 70
   128
 43
0.0
 10
-893.7023853707
 20
-287.8372988269
 10
-887.7045635965
 20
-279.9044093937
 10
-881.6829938316
 20
-272.6613637316
 10
-875.2319837209
 20
-265.7902409572
 10
-868.2342971488
 20
-259.513911404
 10
-863.2155379768
 20
-255.7549908154
 10
-856.2761059281
 20
-251.4203852217
 10
-848.9606295913
 20
-247.7399486014
 10
-841.3829303939
 20
-244.7420611699
 10
-834.9516049983
 20
-242.7885880158
 10
-828.4113424569
 20
-241.3357621088
 10
-821.8308924754
 20
-240.4168997776
 10
-813.7022472867
 20
-240.0622963254
 10
-805.6820422665
 20
-240.6078055376
 10
-798.6188466928
 20
-241.9003538328
 10
-791.8413008394
 20
-244.0058440689
 10
-786.6076802848
 20
-246.3744188096
 10
-781.649999731
 20
-249.3111391186
 10
-777.0169863118
 20
-252.758075529
 10
-772.7573671612
 20
-256.6572985741
 10
-768.1976993658
 20
-261.8309087895
 10
-764.1455156806
 20
-267.5416718741
 10
-760.6122246476
 20
-273.6789315379
 10
-757.6092348092
 20
-280.1320314909
 10
-754.9154470133
 20
-287.4403781212
 10
-752.7520604644
 20
-295.008782874
 10
-751.0709186137
 20
-302.7632190249
 10
-749.8238649125
 20
-310.6296598497
 10
-748.9627428121
 20
-318.5340786241
 10
-748.1927074282
 20
-332.312194886
 10
-748.1732994267
 20
-346.1422478348
 10
-748.7715658365
 20
-359.9695288306
 10
-749.8545536866
 20
-373.7393292337
 10
-751.9663268563
 20
-392.537749182
 10
-754.726189793
 20
-411.2320951517
 10
-758.0480031267
 20
-429.8004408392
 10
-762.8987064406
 20
-452.8512075232
 10
-768.5283303747
 20
-475.6882950963
 10
-774.9664663265
 20
-498.2610614472
 10
-780.5058265467
 20
-515.2652549552
 10
-786.7015606177
 20
-532.038141992
 10
-793.59812283
 20
-548.5257077389
 10
-794.1549673246
 20
-549.7023938912
  0
LWPOLYLINE
  5
200
330
1F
100
AcDbEntity
  8
0
  6
Continuous
 62
     8
370
    25
100
AcDbPolyline
 90
       72
 70
   128
 43
0.0
 10
986.5316472667
 20
1168.3764713498
 10
981.2599126076
 20
1162.0083483447
 10
975.2301712531
 20
1155.4757197415
 10
968.8663825476
 20
1149.2507695605
 10
962.1574557654
 20
1143.4385455132
 10
955.0923001811
 20
1138.1440953108
 10
948.5614019251
 20
1134.0067818421
 10
941.7343776204
 20
1130.4108042579
 10
934.6943188023
 20
1127.4246021293
 10
927.5243170058
 20
1125.1166150273
 10
920.533936381
 20
1123.5582090533
 10
913.5059095279
 20
1122.6043462144
 10
906.5112737647
 20
1122.2089830762
 10
899.6210664097
 20
1122.326076204
 10
891.7409239181
 20
1123.0302619094
 10
884.0063448419
 20
1124.2552020758
 10
876.421830827
 20
1125.9225975062
 10
868.9918835193
 20
1127.954149004
 10
858.9770423526
 20
1131.2353126003
 10
849.1068312928
 20
1134.9554593179
 10
839.2854559476
 20
1138.9631659504
 10
833.6529506876
 20
1141.3583259541
 10
827.9496934927
 20
1143.7291009067
 10
822.1072430253
 20
1145.8880396176
 10
816.0571579481
 20
1147.6476908958
 10
812.8073078838
 20
1148.2912666017
 10
809.4641576504
 20
1148.5140101271
 10
807.7535073308
 20
1148.377996335
 10
806.0617495049
 20
1147.991840421
 10
803.9112454526
 20
1146.9372502862
 10
803.2016208258
 20
1146.3647591775
 10
801.3696265739
 20
1144.130400288
 10
799.9075079998
 20
1141.6107432006
 10
796.4194233164
 20
1134.4048020399
 10
793.3853700722
 20
1127.0132584428
 10
785.4857038702
 20
1106.6663012357
 10
777.7684972095
 20
1086.2929138532
 10
770.0062067787
 20
1065.9632003389
 10
761.9712892664
 20
1045.7472647365
 10
753.4362013609
 20
1025.7152110897
 10
744.6935662309
 20
1006.6822067314
 10
735.4266250687
 20
987.8527071863
 10
725.5641179217
 20
969.2865679214
 10
717.5950271409
 20
955.3604465602
 10
709.1517166791
 20
941.6652895664
 10
700.1810161883
 20
928.2875005264
 10
690.6297553202
 20
915.3134830268
 10
682.3900122271
 20
905.119220352
 10
673.6723540062
 20
895.2606597398
 10
664.4945808176
 20
885.8235407855
 10
654.8744928213
 20
876.8936030841
 10
644.8298901774
 20
868.5565862308
 10
634.3785730459
 20
860.8982298209
 10
623.6956298399
 20
854.080147002
 10
612.6301745671
 20
847.9780723687
 10
601.2560677756
 20
842.6220660329
 10
589.6471700134
 20
838.0421881062
 10
577.8773418285
 20
834.2684987005
 10
567.8382164805
 20
831.7097144046
 10
557.6987749857
 20
829.7103932569
 10
546.6461276295
 20
828.1859132348
 10
535.4827029039
 20
827.3408358974
 10
524.2476235691
 20
827.2098388996
 10
512.9800123858
 20
827.8275998965
 10
502.0378121744
 20
829.1809494249
 10
491.1166767059
 20
831.3181631174
 10
484.4776549651
 20
833.0270651759
 10
477.8964296429
 20
835.0649629468
 10
471.3134671822
 20
837.5488539711
 10
468.072317893
 20
838.9981895125
 10
464.8855164677
 20
840.5859933759
 10
464.8076944032
 20
840.6269562474
  0
LWPOLYLINE
  5
201
330
1F
100
AcDbEntity
  8
0
  6
Continuous
 62
     8
370
    25
100
AcDbPolyline
 90
      308
 70
   128
 43
0.0
 10
208.8900348136
 20
137.4989652852
 10
209.0005466007
 20
137.4751097516
 10
220.6982085179
 20
135.1325175279
 10
232.4275599941
 20
133.044883928
 10
244.1029346408
 20
131.0793173002
 10
255.6386660696
 20
129.1029259928
 10
266.949087892
 20
126.9828183542
 10
277.9485337196
 20
124.5861027327
 10
291.5008741423
 20
120.9943526251
 10
304.6382228796
 20
116.8316937216
 10
317.4113642164
 20
112.1603368187
 10
329.8710824374
 20
107.0424927127
 10
342.0681618273
 20
101.5403722002
 10
354.4543516399
 20
95.5023946583
 10
366.7271467568
 20
89.0732690404
 10
378.9321964438
 20
82.2308025336
 10
388.227401339
 20
76.7318079373
 10
397.506100507
 20
70.8947011387
 10
406.6747230642
 20
64.6019702974
 10
415.6396981271
 20
57.7361035732
 10
420.194270479
 20
53.8629973779
 10
424.5910480571
 20
49.724952036
 10
428.7513405185
 20
45.2892595347
 10
433.2263201813
 20
39.654847708
 10
437.0841461842
 20
33.5283404476
 10
439.5729706992
 20
28.3516800493
 10
441.570476969
 20
22.9378690663
 10
443.0912380259
 20
17.3783831058
 10
444.595521487
 20
9.0476240934
 10
445.391925777
 20
0.6064397951
 10
445.6002783578
 20
-7.8998139225
 10
445.3404066911
 20
-16.4257811925
 10
444.7321382387
 20
-24.9261061482
 10
443.8953004624
 20
-33.3554329228
 10
441.6056602463
 20
-51.1295182169
 10
438.6970156748
 20
-68.7909067436
 10
435.2917392427
 20
-86.347804344
 10
431.5122034448
 20
-103.8084168595
 10
427.4807807755
 20
-121.1809501312
 10
420.2771376814
 20
-150.259552581
 10
412.5869757872
 20
-179.1890691848
 10
404.510198977
 20
-208.0013712184
 10
391.4591812402
 20
-252.2916865562
 10
377.8174904183
 20
-296.4656555443
 10
363.7336793387
 20
-340.5943962221
 10
355.0724078661
 20
-367.1354683454
 10
346.3425638876
 20
-393.7100966608
 10
337.7062429901
 20
-420.3624341955
 10
329.3255407601
 20
-447.1366339769
 10
321.3625527846
 20
-474.0768490322
 10
317.8474042237
 20
-486.6315216127
 10
314.552462878
 20
-499.2818372635
 10
311.6685654584
 20
-512.0260104347
 10
309.3865486757
 20
-524.8622555763
 10
307.8972492407
 20
-537.788787138
 10
307.5275917418
 20
-544.9641533967
 10
307.6694085031
 20
-552.1361925917
 10
308.4986634538
 20
-559.1991308573
 10
309.3473609458
 20
-563.0902406399
 10
310.5327494944
 20
-566.8690325862
 10
312.090328284
 20
-570.4505623087
 10
313.8203751489
 20
-573.4189630831
 10
316.2055704403
 20
-576.471194654
 10
318.9617035738
 20
-579.1384994691
 10
321.9702599575
 20
-581.4170970635
 10
324.3537104234
 20
-582.9007050687
 10
330.4985195628
 20
-585.9370096619
 10
336.890597027
 20
-588.254964866
 10
343.4258613366
 20
-590.0217647766
 10
350.0002310122
 20
-591.4046034891
 10
360.2785438591
 20
-593.0868410843
 10
370.6654926007
 20
-594.241188962
 10
381.1748799372
 20
-594.8609715308
 10
391.820508569
 20
-594.9395131995
 10
402.6161811963
 20
-594.4701383767
 10
410.0902935005
 20
-593.783648341
 10
417.6355332208
 20
-592.5939507775
 10
425.1524162293
 20
-590.6826706751
 10
429.5518073765
 20
-589.0873059959
 10
433.8334823491
 20
-587.0434288201
 10
437.8706055167
 20
-584.5055372866
 10
440.97060471
 20
-581.9978327758
 10
444.8988564196
 20
-577.9970363347
 10
448.4053465436
 20
-573.5863226506
 10
451.5695782697
 20
-568.8832714018
 10
454.471054786
 20
-564.0054622662
 10
457.1892792803
 20
-559.0704749219
 10
463.4796502052
 20
-546.8014285891
 10
469.4497013665
 20
-534.4035748446
 10
484.8755950304
 20
-502.0326004972
 10
500.4810435915
 20
-469.7981031813
 10
516.537949249
 20
-437.7845960406
 10
528.9904374457
 20
-413.9014838952
 10
541.7775021348
 20
-390.1580585132
 10
554.9407363515
 20
-366.5831683475
 10
568.5217331309
 20
-343.2056618512
 10
578.4921580169
 20
-326.6500533855
 10
588.7494196236
 20
-310.2290864916
 10
599.3569944891
 20
-294.0078996819
 10
610.3783591514
 20
-278.0516314692
 10
621.8769901488
 20
-262.4254203661
 10
629.3812178754
 20
-252.8063767253
 10
637.1742687815
 20
-243.3829688973
 10
645.3000038003
 20
-234.2566340147
 10
653.8022838652
 20
-225.5288092105
 10
662.7249699094
 20
-217.3009316175
 10
671.0000647337
 20
-210.5744268459
 10
679.6731000925
 20
-204.4027324507
 10
688.6644947649
 20
-198.8257255081
 10
697.8946675303
 20
-193.8832830946
 10
707.2840371678
 20
-189.6152822864
 10
714.182396777
 20
-186.9055505443
 10
726.3099355999
 20
-182.7186783354
 10
738.477327109
 20
-178.6527478913
 10
744.8400517879
 20
-176.2692918818
 10
751.0729783588
 20
-173.3652108131
 10
755.0734401819
 20
-170.9474226393
 10
758.7404688268
 20
-167.9721999855
 10
760.8165394043
 20
-165.5870637162
 10
762.5723971466
 20
-162.9302805356
 10
764.1109226564
 20
-160.1593822836
 10
768.5397312006
 20
-151.1434666679
 10
772.5419541823
 20
-141.9737336919
 10
776.2991903769
 20
-132.7242937226
 10
779.9930385597
 20
-123.4692571271
 10
791.6372965142
 20
-94.7544776617
 10
803.4566973648
 20
-66.0780422531
 10
815.5320594912
 20
-37.4515307364
 10
827.9442012729
 20
-8.8865229466
 10
840.7739410896
 20
19.6054012811
 10
853.1299930487
 20
45.9146071524
 10
865.8065147799
 20
72.1648844153
 10
878.5464318787
 20
98.4536319549
 10
891.0926699408
 20
124.8782486563
 10
903.1881545615
 20
151.5361334044
 10
908.0642631303
 20
162.8129528451
 10
912.722213582
 20
174.1925168834
 10
917.0247569299
 20
185.7069262229
 10
920.8346441876
 20
197.3882815673
 10
923.0427561501
 20
205.4420996653
 10
924.7385702459
 20
213.624081929
 10
925.6798008725
 20
221.9006204633
 10
925.7091108755
 20
227.9482593119
 10
925.0373323464
 20
233.9686235361
 10
923.5721847504
 20
239.7954079858
 10
921.2313120744
 20
245.3903479065
 10
918.1858061122
 20
250.6364931909
 10
914.6413153528
 20
255.4960989054
 10
912.6562748932
 20
257.8829709447
 10
906.0101261989
 20
265.0855123759
 10
899.0416585282
 20
271.8412482498
 10
891.8875733505
 20
278.288139408
 10
884.6845721347
 20
284.5641466919
 10
877.5693563503
 20
290.8072309432
 10
860.0817624443
 20
306.7403427572
 10
842.938915303
 20
322.9407343389
 10
834.4456229379
 20
331.117402094
 10
825.8490401314
 20
339.2941232685
 10
822.0713311078
 20
342.8829503203
 10
818.2287135851
 20
346.4682976233
 10
814.2333504096
 20
349.8936714783
 10
809.9974044277
 20
353.0025781858
 10
805.4330384855
 20
355.6385240465
 10
803.8050306447
 20
356.3512014046
 10
802.0945867023
 20
356.8494932055
 10
801.1553865968
 20
356.9827266006
 10
799.3088489475
 20
356.8237661805
 10
797.9925827563
 20
356.1833558006
 10
797.7631846816
 20
356.0016075934
 10
796.6333689042
 20
354.7228946603
 10
795.7312587521
 20
353.2558867931
 10
793.3832450812
 20
348.4942355461
 10
791.4523480845
 20
343.5402541986
 10
789.7146878177
 20
338.5208234793
 10
783.1692861345
 20
318.4151740893
 10
776.9621065771
 20
298.2357406806
 10
770.6609711753
 20
278.1063888984
 10
762.8876409032
 20
254.7042926672
 10
754.6724242315
 20
231.4207942927
 10
745.9170099564
 20
208.3179270006
 10
736.523086874
 20
185.4577240165
 10
726.3923437807
 20
162.902218566
 10
715.4264694725
 20
140.7134438747
 10
708.0964956022
 20
127.1210948362
 10
700.2561043383
 20
113.7755555142
 10
691.8219863361
 20
100.7910336903
 10
682.7108322505
 20
88.281737146
 10
676.1589415766
 20
80.2040129872
 10
669.2026440584
 20
72.4275913639
 10
661.8392752758
 20
65.0453637982
 10
654.0661708089
 20
58.1502218118
 10
645.8806662377
 20
51.8350569267
 10
637.0905953912
 20
46.08740762
 10
627.8620164972
 20
41.0858819868
 10
618.2997275791
 20
36.9029484451
 10
608.5085266602
 20
33.6110754133
 10
598.2260871389
 20
31.1674495689
 10
587.7933567148
 20
29.6358329489
 10
577.3099733479
 20
28.9883540497
 10
566.8755749981
 20
29.1971413679
 10
558.633714536
 20
29.9531463126
 10
550.4357163708
 20
31.2385149946
 10
542.3310267526
 20
33.0757833352
 10
534.3690919315
 20
35.4874872556
 10
526.7810779547
 20
38.4385492542
 10
519.4480818095
 20
42.0718872849
 10
513.0094954759
 20
46.1241405737
 10
507.060451645
 20
50.9334138028
 10
503.1112138346
 20
55.0065711277
 10
499.6337652916
 20
59.5163538442
 10
496.7671229918
 20
64.3135115167
 10
494.4491093561
 20
69.4128220153
 10
492.6506803987
 20
74.798780296
 10
491.3385821403
 20
80.3405108666
 10
490.4464626327
 20
85.9569159875
 10
489.6904768547
 20
95.0983120864
 10
489.6398939577
 20
104.2817948786
 10
490.2010143571
 20
113.4690946906
 10
491.2801384681
 20
122.6219418488
 10
492.7835667059
 20
131.7020666796
 10
494.6175994858
 20
140.6711995095
 10
499.2477000781
 20
159.5336250332
 10
504.6518755626
 20
178.1832895496
 10
510.6883596516
 20
196.6412891933
 10
517.2153860577
 20
214.9287200988
 10
524.0911884932
 20
233.0666784009
 10
536.3770856076
 20
263.4679262669
 10
549.5390720649
 20
293.5264801759
 10
563.5687015258
 20
323.218749697
 10
572.8008130497
 20
341.6344799432
 10
582.4341425365
 20
359.8876269251
 10
592.5407190412
 20
377.909804439
 10
603.1925716193
 20
395.6326262814
 10
614.4617293259
 20
412.9877062485
 10
622.3275694576
 20
424.2621366023
 10
630.5992356925
 20
435.2763413281
 10
639.3493191374
 20
445.9032353903
 10
648.6504108993
 20
456.0157337534
 10
655.3436652556
 20
462.5051523086
 10
662.4125598002
 20
468.5913774478
 10
669.8459759077
 20
474.1375478209
 10
677.6327949528
 20
479.0068020781
 10
684.5242044678
 20
482.5131864458
 10
691.6572283102
 20
485.4052131659
 10
698.9461526856
 20
487.6391398181
 10
706.3052637999
 20
489.171223982
 10
713.6279140242
 20
489.9888567455
 10
720.9665080535
 20
490.1893892709
 10
728.2879717346
 20
489.8645699243
 10
735.5592309145
 20
489.1061470715
 10
743.7618623091
 20
487.8749867539
 10
752.0288766164
 20
486.6380541028
 10
755.8362389074
 20
486.2248290689
 10
759.6897250953
 20
486.0888732328
 10
762.6094390003
 20
486.3013670664
 10
765.4793499175
 20
486.9747395948
 10
766.9714938243
 20
487.6110591234
 10
768.355746004
 20
488.472535657
 10
768.9863783103
 20
488.9899047589
 10
770.2898724418
 20
490.4850785631
 10
771.3015385745
 20
492.2007771975
 10
773.7146725338
 20
497.9058588322
 10
775.5864629809
 20
503.8132693892
 10
777.2471122846
 20
509.771299381
 10
783.6724689702
 20
533.3770102129
 10
789.9469654514
 20
556.9420427065
 10
796.4416937394
 20
580.3956153122
 10
806.5095318161
 20
614.0463204065
 10
817.2889055806
 20
647.4802349227
 10
828.7983031719
 20
680.7004290633
 10
841.0562127294
 20
713.7099730306
 10
849.7430952675
 20
735.8453779697
 10
858.8081045995
 20
757.8943312194
 10
868.2978070319
 20
779.8171297863
 10
878.2587688716
 20
801.5740706768
 10
888.7375564253
 20
823.1254508978
 10
899.7807359996
 20
844.4315674556
 10
907.2176640689
 20
857.9889339828
 10
914.9820319382
 20
871.3901797119
 10
923.1342055534
 20
884.5727815037
 10
931.7345508603
 20
897.4742162191
 10
937.7631266033
 20
905.9044527665
 10
944.0863465671
 20
914.1509956058
 10
950.7465766805
 20
922.1233230982
 10
957.7861828726
 20
929.7309136054
 10
965.2475310722
 20
936.8832454888
 10
972.1692935449
 20
942.6808563237
 10
979.4754777234
 20
947.9864770981
 10
987.1067780081
 20
952.7250039529
 10
995.0038887994
 20
956.8213330293
 10
1003.038797531
 20
960.2083327037
 10
1011.2542463036
 20
962.9821994304
 10
1019.5806539278
 20
965.1880961623
 10
1027.9484392145
 20
966.871185852
 10
1036.2880209744
 20
968.0766314526
 10
1047.6392472964
 20
969.0722149378
 10
1058.941030061
 20
969.4455459847
 10
1070.1873999664
 20
969.3111298704
 10
1081.3723877109
 20
968.7834718722
 10
1093.62894627
 20
967.8787237585
 10
1105.9182920276
 20
966.8366460546
 10
1112.5960554821
 20
966.303917635
 10
1119.3271185135
 20
965.926763993
 10
1126.1220800727
 20
965.8702997665
 10
1130.2268068064
 20
966.0815003427
 10
1134.3393940605
 20
966.6123360904
 10
1137.0192098356
 20
967.2006845058
 10
1139.6094802925
 20
968.0528283584
  0
LWPOLYLINE
  5
202
330
1F
100
AcDbEntity
  8
0
  6
Continuous
 62
     8
370
    25
100
AcDbPolyline
 90
      113
 70
   128
 43
0.0
 10
-166.4986408031
 20
1344.8508575286
 10
-168.3244436117
 20
1333.4405746201
 10
-169.1937206988
 20
1325.7819355443
 10
-169.6624487084
 20
1318.0898330178
 10
-169.585364241
 20
1310.4099485072
 10
-169.0635919464
 20
1304.7116412902
 10
-168.0008866318
 20
1299.1022021954
 10
-166.2629585515
 20
1293.7361229406
 10
-164.5970905911
 20
1290.2510185252
 10
-161.7557705921
 20
1286.0555707053
 10
-158.2697913239
 20
1282.4543489812
 10
-155.1248321452
 20
1280.0554761524
 10
-151.1121899329
 20
1277.6764263615
 10
-146.9067256722
 20
1275.6685242817
 10
-142.6149300743
 20
1273.8770125442
 10
-136.940841542
 20
1271.5477276752
 10
-131.3699569893
 20
1268.9540637554
 10
-126.0612020624
 20
1265.8202138571
 10
-123.0570482171
 20
1263.5952027273
 10
-120.1897691776
 20
1261.1401255482
 10
-115.4696608225
 20
1256.4580603485
 10
-112.3904664772
 20
1253.1121618317
 10
-109.3766325097
 20
1249.6651698902
 10
-106.4911529256
 20
1246.2220373202
 10
-103.815987531
 20
1242.6111003213
 10
-101.6416647532
 20
1238.7309507957
 10
-100.25266312
 20
1234.7554714763
 10
-99.4534570201
 20
1230.5985357348
 10
-99.0958518248
 20
1226.3920135662
 10
-99.0960306169
 20
1220.60639551
 10
-99.5100698855
 20
1214.8348054487
 10
-101.2330379782
 20
1202.0590725002
 10
-103.7418140754
 20
1189.4060633787
 10
-106.8685029503
 20
1176.8615948792
 10
-110.4452093762
 20
1164.411483797
 10
-114.3040381264
 20
1152.0415469271
 10
-118.277093974
 20
1139.7376010646
 10
-130.04599988
 20
1104.8556561055
 10
-142.5846650623
 20
1070.211243518
 10
-155.7493984212
 20
1035.7600556806
 10
-169.3965088571
 20
1001.4577849714
 10
-180.6739580596
 20
973.9399845838
 10
-192.2757006248
 20
946.5100611433
 10
-204.2603413576
 20
919.2070236197
 10
-216.6864850625
 20
892.0698809828
 10
-229.6127365444
 20
865.1376422024
 10
-238.4496085913
 20
847.4542847421
 10
-247.6477199218
 20
829.9301706963
 10
-257.3914094652
 20
812.7055247606
 10
-267.8650161506
 20
795.9205716305
 10
-272.4868152126
 20
789.1197291233
 10
-277.3644447914
 20
782.4847973814
 10
-282.5734806277
 20
776.1219415377
 10
-288.1894984619
 20
770.1373267249
 10
-291.8661873944
 20
766.7248108711
 10
-295.7706690856
 20
763.5729308537
 10
-299.9109962505
 20
760.7685752377
 10
-304.115412347
 20
758.4926250079
 10
-308.5412139672
 20
756.6876215371
 10
-313.1107755505
 20
755.4366258659
 10
-318.932105812
 20
754.7249313153
 10
-324.7427950286
 20
754.9116619839
 10
-330.9995139292
 20
756.0772654074
 10
-337.0119118697
 20
758.068263367
 10
-342.7037819355
 20
760.6788551142
 10
-350.4605961896
 20
765.1689154739
 10
-357.7587474911
 20
770.2756961637
 10
-364.6518398295
 20
775.8904797218
 10
-371.1934771943
 20
781.904548686
 10
-377.4372635752
 20
788.2091855946
 10
-383.4368029618
 20
794.6956729853
 10
-391.3864262015
 20
803.9453815655
 10
-398.9456786811
 20
813.6353484913
 10
-404.8070519272
 20
821.901307418
 10
-410.4154260513
 20
830.5025056582
 10
-415.8192915126
 20
839.4028839247
 10
-419.9541785197
 20
846.4736228659
 10
-424.4142962928
 20
853.4520885959
 10
-428.3822467417
 20
858.686497357
 10
-432.4777869532
 20
863.8658892357
 10
-436.211865226
 20
869.2459218016
 10
-437.9945693805
 20
872.4824888907
 10
-439.4511601664
 20
875.8566772993
 10
-440.9330718578
 20
881.103811536
 10
-441.6752352523
 20
886.5245467964
 10
-441.8069892144
 20
891.9829882137
 10
-441.2602293083
 20
899.4796372227
 10
-440.1094483414
 20
906.9423033969
 10
-438.5486719188
 20
914.3445371074
 10
-434.5403351982
 20
929.7473299862
 10
-429.8540876169
 20
945.0210153321
 10
-424.7654601704
 20
960.2196310398
 10
-419.5499838544
 20
975.3972150043
 10
-412.6537010958
 20
995.7781796451
 10
-406.0628923244
 20
1016.300308976
 10
-400.0878278142
 20
1037.0320397881
 10
-396.8341489614
 20
1050.0386838691
 10
-394.0599302426
 20
1063.1678294717
 10
-391.8910871338
 20
1076.4030500776
 10
-390.7028899773
 20
1086.7191201801
 10
-390.0179817356
 20
1097.0921685126
 10
-389.925845045
 20
1107.4604826347
 10
-390.5159625423
 20
1117.7623501062
 10
-391.8328611082
 20
1128.0687244897
 10
-393.7652525158
 20
1138.2533811956
 10
-396.2017834043
 20
1148.3095165766
 10
-399.0311004132
 20
1158.2303269856
 10
-402.1418501818
 20
1168.0090087754
 10
-407.6930059724
 20
1183.9117382963
 10
-413.6506085376
 20
1199.6291527836
 10
-419.8849451089
 20
1215.2258111008
 10
-430.5192263424
 20
1240.7564637484
 10
-432.8045135972
 20
1246.0108913205
  0
LWPOLYLINE
  5
203
330
1F
100
AcDbEntity
  8
0
  6
Continuous
 62
     8
370
    25
100
AcDbPolyline
 90
      146
 70
   128
 43
0.0
 10
-483.3782018483
 20
1189.8537355488
 10
-489.6162103634
 20
1156.4893835335
 10
-497.6529298289
 20
1115.9335698347
 10
-506.058508648
 20
1075.4513696065
 10
-514.7682202914
 20
1035.0064070357
 10
-523.7173382302
 20
994.5623063089
 10
-528.0828946407
 20
975.6167190508
 10
-532.5803182088
 20
956.6571211286
 10
-537.0221705037
 20
937.6586425296
 10
-541.2210130945
 20
918.5964132408
 10
-544.9894075506
 20
899.4455632495
 10
-548.1399154409
 20
880.1812225428
 10
-549.309994363
 20
871.3831955463
 10
-550.2276962106
 20
862.5049762947
 10
-550.7726876385
 20
853.6095175944
 10
-550.8246353018
 20
844.7597722519
 10
-550.2632058553
 20
836.0186930737
 10
-548.9680659542
 20
827.4492328661
 10
-547.4379665432
 20
821.3428913257
 10
-545.3733900764
 20
815.4382325964
 10
-542.8284569999
 20
809.7895109475
 10
-539.85728776
 20
804.4509806484
 10
-535.8107752414
 20
798.3074825512
 10
-531.5103037183
 20
792.3206224905
 10
-527.8819330743
 20
787.3657948529
 10
-524.1798768194
 20
782.3667945114
 10
-519.5090275293
 20
776.2803784932
 10
-514.6196889305
 20
770.2130589682
 10
-511.3853136581
 20
766.3342501777
 10
-508.2656198799
 20
762.3497380076
 10
-505.5648110458
 20
758.1176919557
 10
-504.417628123
 20
755.7142761074
 10
-503.4994293265
 20
753.2191460991
 10
-502.1680574066
 20
747.9791369256
 10
-501.4168628342
 20
742.6155759895
 10
-501.1258830532
 20
737.1826522764
 10
-501.1751555076
 20
731.734554772
 10
-501.4447176413
 20
726.325472462
 10
-502.761011793
 20
712.9518106839
 10
-505.3710113466
 20
695.9055076358
 10
-508.6819926501
 20
678.9739299746
 10
-512.5030296154
 20
662.1387826104
 10
-516.6431961542
 20
645.381770453
 10
-525.6020987709
 20
611.7798053563
 10
-535.2634369938
 20
578.3196462756
 10
-545.7533784009
 20
543.989824956
 10
-556.7379865031
 20
509.7250154464
 10
-568.160612467
 20
475.5142917834
 10
-577.0617446032
 20
449.7926963388
 10
-586.1285895731
 20
424.0720665151
 10
-595.1605937661
 20
398.2939551284
 10
-603.9572035715
 20
372.3999149949
 10
-607.0734557184
 20
362.8841116679
 10
-610.0221189061
 20
353.3042349261
 10
-612.6450899791
 20
343.6371321731
 10
-614.7842657818
 20
333.8596508128
 10
-615.8037686925
 20
327.5783516675
 10
-616.4563936155
 20
321.2322327349
 10
-616.6370658843
 20
314.8762680744
 10
-616.2407108324
 20
308.5654317451
 10
-615.2929578304
 20
302.9630696498
 10
-613.7575965956
 20
297.5042770576
 10
-611.6552525414
 20
292.3043359852
 10
-608.9206285487
 20
287.2466844072
 10
-605.3523921248
 20
282.0203532411
 10
-601.3576498174
 20
277.1953096717
 10
-597.0434051036
 20
272.7339851716
 10
-592.5166614605
 20
268.5988112135
 10
-587.884422365
 20
264.7522192703
 10
-580.2081661723
 20
258.9339307159
 10
-572.411669485
 20
253.5165792948
 10
-564.5568275679
 20
248.3499250947
 10
-556.7055356862
 20
243.2837282035
 10
-549.3745650129
 20
238.4870441345
 10
-542.1136738088
 20
233.5027739344
 10
-534.9811392977
 20
228.1777315247
 10
-530.1797417935
 20
224.2289057803
 10
-525.5019502613
 20
219.9924360381
 10
-519.5644608964
 20
213.9014542808
 10
-513.8692505975
 20
207.2881977655
 10
-509.0921189771
 20
201.298682955
 10
-504.2381016675
 20
195.2067013565
 10
-500.8683595886
 20
191.0776076162
 10
-497.6810724259
 20
186.7867491706
 10
-495.0464524976
 20
182.1913116632
 10
-493.7379388361
 20
179.0279729416
 10
-492.146783998
 20
173.5926947392
 10
-491.1788295502
 20
168.0001090614
 10
-490.7192021515
 20
162.3338568295
 10
-490.6530284608
 20
156.6775789651
 10
-491.049934452
 20
148.7119568707
 10
-491.8861971105
 20
140.7795037209
 10
-494.3140872655
 20
125.4388875151
 10
-497.5161366351
 20
110.2122258783
 10
-501.2692084728
 20
95.0795443286
 10
-505.3501660323
 20
80.020868384
 10
-514.1407257061
 20
49.7174610586
 10
-523.3469469051
 20
19.4390173801
 10
-529.0540540379
 20
0.833424162
 10
-534.5801123126
 20
-17.8607676896
 10
-539.5624180916
 20
-36.723633541
 10
-542.1559942365
 20
-48.4275739981
 10
-544.2687169258
 20
-60.2606312084
 10
-545.8338258202
 20
-72.1774173075
 10
-546.7845605808
 20
-84.1325444311
 10
-547.0541608683
 20
-96.0806247149
 10
-546.5982498158
 20
-107.5631868152
 10
-545.4424117011
 20
-118.9948864048
 10
-543.6351029106
 20
-130.325131876
 10
-541.2247798306
 20
-141.5033316211
 10
-538.2598988476
 20
-152.478894032
 10
-534.7889163479
 20
-163.2012275012
 10
-530.2532400341
 20
-175.2623380934
 10
-525.255617216
 20
-187.1061607603
 10
-519.8989680706
 20
-198.7746878849
 10
-513.427127191
 20
-211.987844941
 10
-506.75898543
 20
-225.1739843427
 10
-500.1238205206
 20
-238.4665888346
 10
-493.7509101956
 20
-251.9991411617
 10
-489.0562959828
 20
-263.121910486
 10
-484.9103221798
 20
-274.5385934969
 10
-481.4252779405
 20
-286.1893967164
 10
-479.119085184
 20
-296.2534433999
 10
-477.4663728086
 20
-306.4612915624
 10
-476.4277072187
 20
-316.7541601959
 10
-475.9636548183
 20
-327.0732682924
 10
-476.0347820119
 20
-337.3598348437
 10
-476.6016552036
 20
-347.5550788417
 10
-478.1530743008
 20
-362.770971136
 10
-480.3227895166
 20
-377.880794534
 10
-483.0089016481
 20
-392.8864791905
 10
-486.1095114926
 20
-407.7899552606
 10
-489.5227198472
 20
-422.5931528992
 10
-495.7268773256
 20
-446.9945422627
 10
-502.5263341101
 20
-471.2292548918
 10
-509.8111709873
 20
-495.3274300527
 10
-522.0749759349
 20
-533.0521390066
 10
-535.2219787956
 20
-570.585037407
 10
-545.4474414727
 20
-598.2472013936
 10
-556.1212697189
 20
-625.8419650864
 10
-567.2981128335
 20
-653.3255243123
 10
-579.0326201156
 20
-680.6540748981
 10
-591.3794408645
 20
-707.7838126709
 10
-598.2593216307
 20
-722.2317734185
 10
-605.3994075014
 20
-736.5922537483
 10
-605.6199224618
 20
-737.0092928467
  0
LWPOLYLINE
  5
204
330
1F
100
AcDbEntity
  8
0
  6
Continuous
 62
     8
370
    25
100
AcDbPolyline
 90
      308
 70
   128
 43
0.0
 10
208.8900348136
 20
137.4989652852
 10
208.7795349596
 20
137.5228401291
 10
197.1230548318
 20
140.2244403776
 10
185.5649861996
 20
143.2377765209
 10
174.1683934622
 20
146.5029707611
 10
162.9963410191
 20
149.9601453
 10
152.1118932695
 20
153.5494223396
 10
139.7861838443
 20
157.6607014065
 10
127.6317599634
 20
161.5669459532
 10
115.6197355636
 20
165.2638285484
 10
103.7212245819
 20
168.7470217607
 10
87.7906160934
 20
173.1597576484
 10
71.8981311235
 20
177.365675286
 10
55.9536489933
 20
181.4679164095
 10
44.0767081212
 20
184.5256690192
 10
32.0698224692
 20
187.5976410991
 10
19.8717389805
 20
190.5939968138
 10
7.4212045982
 20
193.4249003283
 10
1.8007163531
 20
194.5836020334
 10
-3.910493472
 20
195.5621633864
 10
-9.718653953
 20
196.2246333558
 10
-14.5235383983
 20
196.3978275204
 10
-19.3518660383
 20
195.9936238323
 10
-23.0256143321
 20
195.0919504561
 10
-26.5263378024
 20
193.5949080401
 10
-29.7373677139
 20
191.5287464417
 10
-32.6299574423
 20
189.0141792719
 10
-35.688205091
 20
185.577817259
 10
-38.3756554347
 20
181.8217585321
 10
-40.7624188651
 20
177.8759212297
 10
-45.5632909303
 20
168.6089911801
 10
-49.772832659
 20
159.070606
 10
-53.5428892296
 20
149.3394482575
 10
-57.0253058203
 20
139.4942005211
 10
-60.3719276095
 20
129.6135453592
 10
-63.7345997756
 20
119.77616534
 10
-77.5072393056
 20
81.1373685465
 10
-91.7520767363
 20
42.7632312149
 10
-106.512984893
 20
4.6439377069
 10
-121.8338366013
 20
-33.2303276154
 10
-137.7585046866
 20
-70.8693803904
 10
-154.3308619745
 20
-108.283036256
 10
-165.7422798996
 20
-133.0828695525
 10
-177.4764333627
 20
-157.7756053907
 10
-189.5719594194
 20
-182.3370585629
 10
-202.0805473128
 20
-206.759466778
 10
-215.1011946795
 20
-230.9671512704
 10
-228.7586974063
 20
-254.8643327768
 10
-236.0614903697
 20
-267.0184057687
 10
-243.6166604814
 20
-279.065151728
 10
-251.4948134457
 20
-290.9174730027
 10
-259.7665549665
 20
-302.4882719408
 10
-268.502490748
 20
-313.6904508905
 10
-277.7732264941
 20
-324.4369121998
 10
-285.1140542671
 20
-332.0777177222
 10
-292.9142118478
 20
-339.2389135513
 10
-301.2097685225
 20
-345.7220053101
 10
-307.6452491254
 20
-349.9227837149
 10
-314.3842163223
 20
-353.5302610353
 10
-321.3528194613
 20
-356.392036725
 10
-328.586923678
 20
-358.3750794426
 10
-335.9101097445
 20
-359.4167636893
 10
-343.1332337782
 20
-359.5404603233
 10
-349.6038658538
 20
-358.9132777608
 10
-355.9157277415
 20
-357.6953960796
 10
-362.0455307307
 20
-355.9782553243
 10
-367.9699861112
 20
-353.8532955395
 10
-377.0656229303
 20
-349.7994888228
 10
-385.8075684346
 20
-345.0238133061
 10
-394.223511026
 20
-339.5971879202
 10
-402.3411391061
 20
-333.590531596
 10
-410.1881410767
 20
-327.0747632646
 10
-417.7801705632
 20
-320.0712619167
 10
-425.1279413491
 20
-312.48871982
 10
-432.1404006755
 20
-304.326309305
 10
-438.7264957831
 20
-295.583202702
 10
-443.0738613038
 20
-289.0251418035
 10
-447.1110284227
 20
-282.1459273478
 10
-450.7734673543
 20
-274.9912989077
 10
-453.9966483131
 20
-267.606996056
 10
-456.6054341253
 20
-259.9070244995
 10
-458.4905204051
 20
-251.9589571578
 10
-459.7523288906
 20
-243.872739458
 10
-460.49128132
 20
-235.7583168273
 10
-460.8757050641
 20
-222.837177632
 10
-460.5147814044
 20
-209.9180362448
 10
-459.5834270341
 20
-197.0305418435
 10
-458.2565586463
 20
-184.2043436061
 10
-456.0200685208
 20
-166.8727087775
 10
-453.3615819572
 20
-149.6113244712
 10
-450.3815721907
 20
-132.4123451167
 10
-443.9022531351
 20
-98.9562167398
 10
-436.7478119686
 20
-65.6139817399
 10
-429.1391025169
 20
-32.3298102636
 10
-421.2969786058
 20
0.9521275425
 10
-413.4422940611
 20
34.287661532
 10
-405.7959027085
 20
67.732621558
 10
-402.6023841143
 20
82.2336681328
 10
-399.5731201071
 20
96.8009212416
 10
-396.8643197487
 20
111.4315972455
 10
-394.6321921003
 20
126.1229125055
 10
-393.0329462235
 20
140.8720833824
 10
-392.5725531075
 20
149.03980926
 10
-392.6086196669
 20
157.2234645018
 10
-393.2358940555
 20
165.3309895871
 10
-394.549124427
 20
173.2703249952
 10
-396.5972377909
 20
181.0087535034
 10
-399.2734915243
 20
188.5007568506
 10
-402.4601646052
 20
195.7325929196
 10
-406.0395360117
 20
202.6905195938
 10
-410.6464349944
 20
210.9219051157
 10
-415.4027786075
 20
219.1059270691
 10
-420.3029218306
 20
227.2709818103
 10
-425.3412196433
 20
235.4454656953
 10
-430.512027025
 20
243.6577750803
 10
-435.8096989552
 20
251.9363063214
 10
-438.9284428833
 20
256.3955005912
 10
-442.2173742823
 20
260.7762588544
 10
-445.3628760724
 20
265.227179255
 10
-448.0513311739
 20
269.8968599369
 10
-450.280445058
 20
275.459052386
 10
-451.7702013289
 20
281.2567436614
 10
-452.6203578058
 20
287.1438120955
 10
-453.0120680722
 20
295.7709281959
 10
-452.6431678613
 20
304.4107740073
 10
-451.6724376049
 20
313.0337658488
 10
-450.2586577342
 20
321.6103200394
 10
-448.560608681
 20
330.1108528981
 10
-444.1062074911
 20
348.9902683944
 10
-438.8666982672
 20
367.717265987
 10
-432.9985464039
 20
386.3153421289
 10
-426.6582172957
 20
404.807993273
 10
-420.0021763369
 20
423.218715872
 10
-408.1839024009
 20
454.2225825016
 10
-395.6332000613
 20
485.0779404524
 10
-382.4095197106
 20
515.7647582531
 10
-371.6079680152
 20
539.6782723564
 10
-360.3545132985
 20
563.4498888319
 10
-348.5664112326
 20
587.0032778028
 10
-336.1609174897
 20
610.2621093923
 10
-329.3057403009
 20
622.4479892097
 10
-322.1459139269
 20
634.4761040974
 10
-314.5492696342
 20
646.2252191833
 10
-306.3836386892
 20
657.5740995952
 10
-301.2954364856
 20
663.920964886
 10
-295.85516901
 20
669.9943282938
 10
-290.0234299987
 20
675.6666950526
 10
-283.7608131877
 20
680.8105703963
 10
-276.9087740791
 20
685.350971002
 10
-269.6153597108
 20
689.1806512632
 10
-262.0258723428
 20
692.3287817956
 10
-254.2856142349
 20
694.8245332147
 10
-242.8628433091
 20
697.5852385483
 10
-231.395022873
 20
699.628957353
 10
-219.9550534274
 20
701.173514736
 10
-208.615835473
 20
702.4367358045
 10
-193.2796416989
 20
703.9485880824
 10
-178.0568831504
 20
705.1957394538
 10
-162.9000483254
 20
706.1501591813
 10
-154.0757131312
 20
706.5829140985
 10
-145.2214450761
 20
706.8349183335
 10
-136.3641073109
 20
706.7296047094
 10
-127.5305629863
 20
706.0904060491
 10
-118.747675253
 20
704.7407551756
 10
-113.8989372764
 20
703.5678817096
 10
-109.1350885334
 20
701.9590592774
 10
-104.5440318702
 20
699.8384955903
 10
-100.1606636798
 20
697.0976599122
 10
-96.0468469414
 20
693.8164926178
 10
-92.2118718237
 20
690.1380132535
 10
-88.6444621807
 20
686.3572342958
 10
-85.3117220073
 20
682.3316845839
 10
-82.5652097227
 20
677.9367590114
 10
-81.0222189603
 20
674.2595623608
 10
-79.9548510491
 20
670.405754547
 10
-79.313096724
 20
666.4755314242
 10
-78.9667046971
 20
659.9234748533
 10
-79.2904509751
 20
653.3504448299
 10
-80.1113252643
 20
646.8004113492
 10
-81.2563172708
 20
640.3173444067
 10
-84.4174724389
 20
626.2858328661
 10
-88.2773855027
 20
612.4121887368
 10
-92.6258787015
 20
598.6641648823
 10
-97.2527742749
 20
585.0095141663
 10
-107.044334658
 20
557.6276272248
 10
-117.2653918818
 20
530.3654369833
 10
-124.1639646568
 20
512.4406011721
 10
-131.1396282683
 20
494.5127588894
 10
-138.0306199242
 20
476.5331733675
 10
-144.6751768325
 20
458.4531078388
 10
-150.9115362011
 20
440.2238255359
 10
-156.5779352379
 20
421.7965896911
 10
-159.2003177208
 20
411.9981186818
 10
-161.4089044189
 20
402.0807464402
 10
-163.1027202591
 20
392.0708868678
 10
-164.1807901681
 20
381.9949538664
 10
-164.5177991391
 20
373.6701770128
 10
-164.2807948352
 20
365.325251943
 10
-163.4102760969
 20
357.0488199775
 10
-161.8467417646
 20
348.9295224368
 10
-159.5082235218
 20
340.9584016386
 10
-156.4293174795
 20
333.2457994778
 10
-152.6816970796
 20
325.8780179218
 10
-148.3370357636
 20
318.941358938
 10
-142.3384313328
 20
311.0833195238
 10
-135.6676034807
 20
303.8049744437
 10
-128.4397551777
 20
297.1057886777
 10
-120.7700893942
 20
290.985227206
 10
-113.794257352
 20
286.0981811024
 10
-106.4951224207
 20
281.6376060147
 10
-98.874030847
 20
277.723664295
 10
-90.9323288772
 20
274.4765182955
 10
-86.7924439789
 20
273.1423973743
 10
-82.5355016793
 20
272.10107213
 10
-78.2005785996
 20
271.4648808503
 10
-73.8267513615
 20
271.3461618231
 10
-69.7950479605
 20
271.8189089311
 10
-65.8858024317
 20
272.9545464648
 10
-62.2251692414
 20
274.8117830427
 10
-58.9300098061
 20
277.2819327281
 10
-56.2667313408
 20
279.9662395832
 10
-53.9057303503
 20
282.9405808837
 10
-51.8120524159
 20
286.1021215104
 10
-47.8384843091
 20
293.3534462184
 10
-44.4795303075
 20
300.9119521836
 10
-41.5939338311
 20
308.6945464864
 10
-39.0404382998
 20
316.6181362066
 10
-36.6777871334
 20
324.5996284245
 10
-34.3647237519
 20
332.55593022
 10
-23.5245247835
 20
369.8550258048
 10
-12.9534845349
 20
407.1843986195
 10
-2.5761057387
 20
444.5496750158
 10
7.6831088724
 20
481.956481345
 10
17.8996565659
 20
519.4104439588
 10
24.3813840212
 20
543.4037760507
 10
30.6874427254
 20
567.4727074962
 10
36.7132814917
 20
591.6414621049
 10
40.4651980792
 20
607.599414475
 10
43.9474393547
 20
623.6328789632
 10
47.0365744281
 20
639.7518431858
 10
48.4520281719
 20
647.9345754472
 10
49.73145544
 20
656.1870568492
 10
50.7294833211
 20
664.4712795831
 10
51.3007389042
 20
672.7492358403
 10
51.2998492783
 20
680.9829178122
 10
50.5814415322
 20
689.1343176902
 10
49.4296748471
 20
695.2096071082
 10
47.6726443829
 20
701.109594899
 10
45.3049664017
 20
706.7098718673
 10
42.3289428657
 20
711.9364428203
 10
38.8256993807
 20
716.7842923251
 10
34.9080621557
 20
721.2325324301
 10
28.606445057
 20
727.1176482121
 10
21.8741192503
 20
732.5187086046
 10
14.9603397864
 20
737.743476362
 10
9.8072629213
 20
741.7827483462
 10
4.7810304653
 20
746.0930209669
 10
-0.0197452924
 20
750.7343096169
 10
-4.496452063
 20
755.7666296895
 10
-9.1873121275
 20
761.5753658793
 10
-13.7503387588
 20
767.5667018504
 10
-17.9525062426
 20
773.7853085946
 10
-20.1423153931
 20
777.9512346602
 10
-21.7553049194
 20
782.3744682439
 10
-22.8041748156
 20
786.9281339824
 10
-23.4930745459
 20
793.9142740241
 10
-23.3836287576
 20
800.9519598519
 10
-22.7140968214
 20
807.9493222751
 10
-20.8590704572
 20
819.442749671
 10
-18.3165739843
 20
830.8214101125
 10
-15.2784430246
 20
842.096004182
 10
-11.9365132004
 20
853.277232462
 10
-4.5983376225
 20
875.7634644705
 10
3.317372651
 20
898.0732047536
 10
18.0580759103
 20
937.2388678031
 10
33.4558878397
 20
976.258852982
 10
49.2502010918
 20
1015.2398959125
 10
65.1804083191
 20
1054.2887322173
 10
75.9431356556
 20
1080.832725759
 10
86.5606461119
 20
1107.4947630766
 10
96.8668361178
 20
1134.3284303958
 10
103.3942149435
 20
1152.1265217226
 10
109.5398128586
 20
1170.0820739155
 10
115.0875548785
 20
1188.2403622821
 10
117.9017631867
 20
1198.6665046794
 10
120.3254715551
 20
1209.2142089217
 10
122.1320743991
 20
1219.8587969207
 10
123.0949661338
 20
1230.5755905882
 10
123.0503083157
 20
1238.5008420641
 10
122.197454648
 20
1246.3741625669
 10
120.4843003732
 20
1254.0289575366
 10
117.8851149821
 20
1261.3722388087
 10
114.5201233195
 20
1268.3495139218
 10
110.5456680472
 20
1274.888280381
 10
104.5694635107
 20
1282.9451757548
 10
98.0007537588
 20
1290.4056570713
 10
90.9848598321
 20
1297.3653079496
 10
83.667102771
 20
1303.9197120088
 10
76.1928036161
 20
1310.164452868
 10
66.1503654514
 20
1318.0859995788
 10
55.9642391145
 20
1325.832176138
 10
45.7722062028
 20
1333.6645254147
 10
35.7120483139
 20
1341.8445902776
 10
29.5417966897
 20
1347.4035725176
 10
23.6215587969
 20
1353.4014775088
 10
17.9833011956
 20
1359.8171556458
 10
12.6589904457
 20
1366.6294573229
 10
11.6451343997
 20
1367.9413716213
  0
LWPOLYLINE
  5
205
330
1F
100
AcDbEntity
  8
0
  6
Continuous
 62
     8
370
    25
100
AcDbPolyline
 90
       46
 70
   128
 43
0.0
 10
-446.1591682995
 20
-914.6775748487
 10
-445.6640037052
 20
-912.3506616341
 10
-441.5975181431
 20
-895.2747309265
 10
-437.2379673477
 20
-878.2999454813
 10
-430.0875040984
 20
-852.4738917759
 10
-422.3197056958
 20
-826.7971951813
 10
-413.9530544846
 20
-801.2704321559
 10
-405.0060328099
 20
-775.8941791583
 10
-397.4108926123
 20
-755.652336456
 10
-389.394195274
 20
-735.517294146
 10
-380.9081081272
 20
-715.5256532532
 10
-371.9047985041
 20
-695.7140148022
 10
-364.1607334431
 20
-679.738792463
 10
-355.9811462063
 20
-663.9217572698
 10
-347.3075784495
 20
-648.3361491986
 10
-338.0815718285
 20
-633.0552082254
 10
-328.244667999
 20
-618.1521743262
 10
-320.2624201469
 20
-607.081043821
 10
-311.7878226617
 20
-596.3647730329
 10
-302.7672658794
 20
-586.1223998345
 10
-295.4448871568
 20
-578.689190947
 10
-287.7003176901
 20
-571.6551568575
 10
-279.5635418532
 20
-565.1177379986
 10
-271.0645440198
 20
-559.1743748029
 10
-262.2333085638
 20
-553.9225077031
 10
-253.3079339446
 20
-549.5280144057
 10
-244.1216457871
 20
-545.8343209581
 10
-234.7621682493
 20
-542.8158311425
 10
-225.3172254892
 20
-540.446948741
 10
-215.8745416646
 20
-538.7020775357
 10
-204.2733279331
 20
-537.3008707747
 10
-192.6889207824
 20
-536.5932855817
 10
-181.1319220851
 20
-536.4913224433
 10
-169.6129337142
 20
-536.906981846
 10
-158.1425575423
 20
-537.7522642764
 10
-143.3073325529
 20
-539.3761849061
 10
-128.4177476811
 20
-541.5662427938
 10
-113.4497525871
 20
-544.3038409878
 10
-98.3792969313
 20
-547.5703825361
 10
-89.8795911788
 20
-549.631404457
 10
-81.3466587416
 20
-551.9099786772
 10
-72.8166275337
 20
-554.4699488955
 10
-64.060028398
 20
-557.5557273743
 10
-55.4238134504
 20
-561.1619417301
 10
-46.9823444962
 20
-565.2418817016
 10
-46.9018695237
 20
-565.2835159609
  0
LWPOLYLINE
  5
206
330
1F
100
AcDbEntity
  8
0
  6
Continuous
 62
     8
370
    25
100
AcDbPolyline
 90
      304
 70
   128
 43
0.0
 10
30.7741404861
 20
1370.420821628
 10
31.5953111459
 20
1369.1668951511
 10
35.2543137171
 20
1364.8371238115
 10
39.3523454193
 20
1360.9932219458
 10
43.7108033158
 20
1357.4919560971
 10
48.15108447
 20
1354.1900928084
 10
56.8004001494
 20
1347.9994241373
 10
65.45015226
 20
1341.9224046606
 10
77.4433168451
 20
1333.1986108732
 10
89.1229593728
 20
1324.0202648698
 10
95.933363532
 20
1318.197026402
 10
102.5820204329
 20
1312.0570851585
 10
108.9942477239
 20
1305.5720054157
 10
115.0953630532
 20
1298.7133514496
 10
120.8106840692
 20
1291.4526875367
 10
126.06552842
 20
1283.7615779532
 10
131.0191313217
 20
1275.0990913978
 10
135.273693669
 20
1265.9160089378
 10
138.7638965807
 20
1256.3337489103
 10
141.4244211756
 20
1246.4737296524
 10
143.2830137818
 20
1236.2596621963
 10
144.4123643026
 20
1225.8897508501
 10
144.9154420632
 20
1215.4454567964
 10
144.8952163883
 20
1205.0082412174
 10
144.0034389341
 20
1187.7875020207
 10
142.2491323219
 20
1170.6254955295
 10
139.7833204244
 20
1153.5449763083
 10
136.7570271141
 20
1136.5686989215
 10
133.3212762635
 20
1119.7194179336
 10
128.440420666
 20
1098.2479212935
 10
123.0606347415
 20
1076.9283849258
 10
117.2444213176
 20
1055.7621445573
 10
111.0542832215
 20
1034.7505359147
 10
100.6170826657
 20
1001.8211387423
 10
89.4281047332
 20
969.2193716662
 10
77.5234188337
 20
936.9353169263
 10
64.9390943771
 20
904.9590567623
 10
51.7112007732
 20
873.280673414
 10
39.8008258282
 20
846.3870365541
 10
27.465748513
 20
819.6274376727
 10
14.9997857886
 20
792.8249204483
 10
11.8360005315
 20
786.0256246923
 10
8.8534196725
 20
779.1288588078
 10
6.3962212043
 20
772.0210914596
 10
5.8297323779
 20
769.6121219834
 10
5.720263313
 20
767.1567160307
 10
6.0524020773
 20
765.4694837197
 10
6.6727533256
 20
763.8731827455
 10
6.9403890946
 20
763.3576917433
 10
8.4936787233
 20
761.1160095532
 10
10.3711906204
 20
759.1637924351
 10
13.9489023309
 20
756.2609312104
 10
17.760921646
 20
753.7220783417
 10
21.6498065995
 20
751.3616103491
 10
28.645239452
 20
747.1300005736
 10
35.4786506527
 20
742.7209204861
 10
41.7645304779
 20
738.0923294909
 10
47.7204715179
 20
732.9737620718
 10
53.2446030509
 20
727.3453550167
 10
58.2350543549
 20
721.1872451137
 10
62.4176043863
 20
714.8298341964
 10
66.0576815782
 20
708.024511954
 10
69.1418898563
 20
700.8713975698
 10
71.6568331462
 20
693.4706102268
 10
74.0302941029
 20
684.0094485171
 10
75.6857734431
 20
674.3199495744
 10
76.7280395002
 20
664.5016692116
 10
77.2618606073
 20
654.6541632414
 10
77.3623330447
 20
641.5254505084
 10
76.8814484752
 20
628.3931054105
 10
75.9051532627
 20
615.2810346776
 10
74.5193937711
 20
602.2131450397
 10
72.8101163644
 20
589.2133432269
 10
69.1367235204
 20
566.1960020054
 10
64.7420903861
 20
543.3277944989
 10
59.7149669291
 20
520.6109505418
 10
54.1441031169
 20
498.0476999687
 10
48.1182489171
 20
475.640272614
 10
40.1912542805
 20
448.4309246084
 10
31.6031876042
 20
421.4339956808
 10
22.3108874246
 20
394.6807193711
 10
16.3406002269
 20
378.5882944518
 10
10.0432260624
 20
362.5968980576
 10
3.2967122763
 20
346.7863167539
 10
-4.0209937858
 20
331.2363371063
 10
-12.0319447788
 20
316.0267456802
 10
-16.95062403
 20
307.6614608078
 10
-22.3075461129
 20
299.5092123521
 10
-28.1526805541
 20
291.6931666066
 10
-34.5359968804
 20
284.336489865
 10
-41.5074646186
 20
277.5623484209
 10
-45.657998623
 20
274.1328383462
 10
-50.0607281023
 20
271.0213753881
 10
-54.7079333468
 20
268.320366372
 10
-59.9757557442
 20
265.9668158496
 10
-65.4675216765
 20
264.2474836676
 10
-71.1673032796
 20
263.1936230256
 10
-76.9264886726
 20
262.7890816704
 10
-83.3202453648
 20
263.0287727913
 10
-89.6293295888
 20
263.8863329441
 10
-96.6749670304
 20
265.4836348206
 10
-103.551711898
 20
267.6438538429
 10
-110.2343881117
 20
270.2866552782
 10
-116.6978195919
 20
273.3317043941
 10
-126.3611294287
 20
278.7792688938
 10
-135.5367196798
 20
285.0588144044
 10
-144.1450509493
 20
292.1146933702
 10
-152.1065838418
 20
299.8912582357
 10
-157.7654355806
 20
306.3889577781
 10
-162.986832981
 20
313.3434874576
 10
-167.7225604439
 20
320.7021915768
 10
-171.9244023702
 20
328.4124144386
 10
-175.5441431608
 20
336.4215003458
 10
-179.1896364336
 20
346.6741911775
 10
-181.9907405046
 20
357.2769908016
 10
-183.9948360648
 20
368.1032183258
 10
-185.2493038056
 20
379.0261928575
 10
-185.8859932774
 20
392.6237041893
 10
-185.6503463573
 20
406.267261295
 10
-184.6556689989
 20
419.8996721674
 10
-183.0152671554
 20
433.4637447993
 10
-180.8424467804
 20
446.9022871835
 10
-177.2740593105
 20
464.7563290203
 10
-173.076135189
 20
482.4601610422
 10
-168.3392379385
 20
500.0161407243
 10
-163.1539310814
 20
517.4266255413
 10
-157.6107781405
 20
534.6939729684
 10
-147.5384041374
 20
563.6158472294
 10
-136.6812109791
 20
592.2387429988
 10
-125.1947354993
 20
620.6151652767
 10
-112.6263955437
 20
650.5424056256
 10
-110.0087442064
 20
656.5478598638
 10
-107.3484122994
 20
662.5780179049
 10
-104.9112746757
 20
668.684129921
 10
-102.963206188
 20
674.917446084
 10
-101.7700816893
 20
681.3292165658
 10
-101.7262532095
 20
683.1399857412
 10
-102.1624492813
 20
684.5986462492
 10
-102.2101208327
 20
684.6876497196
 10
-103.4568611282
 20
686.1276143903
 10
-103.5368985246
 20
686.1904869735
 10
-105.3539874201
 20
687.2331191275
 10
-107.4746824811
 20
687.9567092649
 10
-109.6614678825
 20
688.4216803749
 10
-115.34358544
 20
688.9994443517
 10
-121.838967779
 20
689.1061221797
 10
-131.2808872408
 20
688.7993198537
 10
-144.9620049019
 20
687.9740645036
 10
-164.5110698626
 20
686.6626261545
 10
-186.4019402333
 20
685.4678016991
 10
-208.4231028248
 20
684.6511207738
 10
-217.36412316
 20
684.458828328
 10
-226.3896105827
 20
684.2732065028
 10
-235.4800991858
 20
683.9120034078
 10
-244.6161230627
 20
683.1929671525
 10
-253.7782163063
 20
681.9338458466
 10
-259.0481201261
 20
680.833113537
 10
-264.2470302929
 20
679.291712758
 10
-269.2641071785
 20
677.2100630887
 10
-273.3254553143
 20
674.9444210259
 10
-278.171286749
 20
671.3334052601
 10
-282.5238516411
 20
667.0705796786
 10
-286.3561795921
 20
662.3471376053
 10
-290.9544281232
 20
655.2609732635
 10
-294.9143736815
 20
647.7709023509
 10
-298.4028872318
 20
640.055223799
 10
-303.0297779616
 20
628.4093817328
 10
-307.1727287729
 20
616.5777923455
 10
-310.9578250613
 20
604.6231549083
 10
-314.511152222
 20
592.6081686922
 10
-322.226557543
 20
564.7875009909
 10
-329.4814771961
 20
536.8658545838
 10
-336.521746162
 20
508.9291545538
 10
-343.5931994216
 20
481.0633259842
 10
-350.9416719555
 20
453.3542939581
 10
-359.4277734315
 20
423.2814330056
 10
-368.2807503977
 20
393.4210134423
 10
-377.4312489794
 20
363.7299568531
 10
-386.809915302
 20
334.1651848233
 10
-396.3473954908
 20
304.6836189379
 10
-399.466764626
 20
295.2194949818
 10
-402.5339782387
 20
285.7189132476
 10
-405.3622864735
 20
276.1219161768
 10
-407.764939475
 20
266.3685462114
 10
-408.3674597003
 20
263.2569673089
 10
-408.7301413439
 20
260.0931070625
 10
-408.6729137201
 20
256.9315118012
 10
-407.7762403431
 20
252.2952353859
 10
-406.2658302605
 20
247.8716522589
 10
-403.3578297426
 20
241.6405356883
 10
-400.0157461881
 20
235.7248091504
 10
-393.3085344479
 20
224.7891137795
 10
-386.7095915705
 20
213.7863882024
 10
-382.1069156208
 20
205.1243186857
 10
-377.9412554449
 20
196.0942467262
 10
-374.2735689626
 20
186.7447545226
 10
-371.1648140938
 20
177.1244242737
 10
-368.6759487586
 20
167.2818381782
 10
-366.8287105519
 20
157.4261855947
 10
-365.2823041993
 20
145.3879132276
 10
-364.3793062112
 20
133.2368898579
 10
-364.0209150579
 20
121.0226277529
 10
-364.1083292093
 20
108.7946391802
 10
-364.5427471357
 20
96.6024364073
 10
-365.7786078399
 20
77.2408499936
 10
-367.5922373623
 20
57.9332059348
 10
-369.8931385656
 20
38.688601486
 10
-372.5908143129
 20
19.5161339025
 10
-375.5947674668
 20
0.4249004395
 10
-380.2060421273
 20
-26.1479139939
 10
-385.2621804997
 20
-52.6039486062
 10
-390.7130576144
 20
-78.9477985741
 10
-396.5085485017
 20
-105.1840590746
 10
-404.8031846086
 20
-140.1154712773
 10
-413.5885112391
 20
-174.9251690308
 10
-422.6008631763
 20
-209.723661214
 10
-425.853107574
 20
-222.4841392052
 10
-428.8213301903
 20
-235.3391208484
 10
-430.1441150262
 20
-241.9507750939
 10
-431.1953326251
 20
-248.6442924893
 10
-431.7639382166
 20
-255.3762059937
 10
-431.6388870301
 20
-262.1030485665
 10
-431.3776241282
 20
-264.4890366769
 10
-430.5475103946
 20
-268.6270491333
 10
-429.2678953246
 20
-272.6391845913
 10
-427.6035546406
 20
-276.4548151473
 10
-424.8426972469
 20
-281.3097461037
 10
-420.3129786588
 20
-287.6056310633
 10
-415.2977130722
 20
-293.3669790147
 10
-410.0134785882
 20
-298.697127755
 10
-402.0452229233
 20
-305.9960139481
 10
-393.8397136918
 20
-312.778725351
 10
-385.39066845
 20
-319.0592480286
 10
-376.6918047543
 20
-324.851568046
 10
-367.7368401609
 20
-330.1696714683
 10
-361.8117079857
 20
-333.336280223
 10
-355.669726726
 20
-336.1836211761
 10
-349.2831570859
 20
-338.5167139114
 10
-342.624259769
 20
-340.1405780122
 10
-337.4698778961
 20
-340.7081162737
 10
-332.2104246022
 20
-340.4585823682
 10
-328.4605112011
 20
-339.6478423737
 10
-324.8203174767
 20
-338.304252177
 10
-321.3094927429
 20
-336.4964178595
 10
-317.981749756
 20
-334.3169214939
 10
-315.2435120189
 20
-332.1755529256
 10
-310.0682963636
 20
-327.2980641745
 10
-305.3495602295
 20
-321.8951222986
 10
-301.020497582
 20
-316.1608622978
 10
-293.8523520278
 20
-305.3012616082
 10
-287.3494984005
 20
-294.001275234
 10
-281.3668949755
 20
-282.3849385242
 10
-275.7595000284
 20
-270.5762868277
 10
-270.3822718345
 20
-258.6993554935
 10
-259.1988480019
 20
-233.02127324
 10
-248.4402988247
 20
-207.2023814439
 10
-237.9550291969
 20
-181.3126287232
 10
-227.5914440125
 20
-155.4219636961
 10
-217.1979481656
 20
-129.6003349807
 10
-199.5702540589
 20
-86.6114568183
 10
-181.5736306898
 20
-43.873337138
 10
-163.0470399882
 20
-1.4274290417
 10
-150.8022668118
 20
25.6433664808
 10
-138.1919162054
 20
52.5579120282
 10
-125.1214556581
 20
79.2775337711
 10
-116.9930121033
 20
95.2938509653
 10
-108.6129730502
 20
111.215215945
 10
-99.8807635224
 20
126.9682065626
 10
-90.6958085438
 20
142.4794006705
 10
-80.9575331382
 20
157.6753761211
 10
-76.1803212694
 20
164.6705239821
 10
-71.1823783893
 20
171.5731380757
 10
-65.9010655265
 20
178.2714501848
 10
-60.2737437093
 20
184.6536920925
 10
-54.2377739664
 20
190.6080955818
 10
-47.7305173261
 20
196.0228924359
 10
-42.9919780798
 20
199.3041793907
 10
-37.9818688836
 20
202.1674269229
 10
-32.7478255343
 20
204.5331932877
 10
-25.8545163991
 20
206.7466073718
 10
-18.8047529804
 20
208.1863557573
 10
-12.7665758599
 20
208.9101089009
 10
-6.7385645363
 20
209.2538413875
 10
-0.7599750045
 20
209.2931901867
 10
10.2940195382
 20
208.8051680617
 10
21.143879852
 20
207.7662709181
 10
31.7926458646
 20
206.3205293866
 10
42.2433575037
 20
204.6119740981
 10
56.2885842262
 20
201.9741422185
 10
70.1086196193
 20
198.9601301941
 10
83.7559326032
 20
195.5583347877
 10
96.6361323781
 20
191.9330721264
 10
109.4705170572
 20
187.8446156731
 10
122.2580013307
 20
183.212665684
 10
134.9974998885
 20
177.9569224153
 10
147.6879274206
 20
171.9970861232
 10
157.4878795998
 20
166.7986374023
 10
167.2831246149
 20
161.1748989144
 10
177.144234842
 20
155.3308424377
 10
187.509719988
 20
149.2818216479
 10
198.0794315133
 20
143.3342814446
 10
208.7900438318
 20
137.5517264938
 10
208.8900348136
 20
137.4989652852
 10
208.8900348136
 20
137.4989652852
  0
LWPOLYLINE
  5
207
330
1F
100
AcDbEntity
  8
0
  6
Continuous
 62
     8
370
    25
100
AcDbPolyline
 90
       18
 70
   128
 43
0.0
 10
464.8076944032
 20
840.6269562474
 10
464.8203787715
 20
840.7115641526
 10
467.9719100657
 20
859.2617983543
 10
471.7670730397
 20
877.6919405958
 10
476.0929702864
 20
896.0041227328
 10
480.8367043987
 20
914.2004766207
 10
485.8853779692
 20
932.283134115
 10
494.7735908249
 20
962.1039903251
 10
504.2183075331
 20
991.7346021606
 10
514.1060096021
 20
1021.2063664298
 10
530.2556730581
 20
1067.0063090944
 10
547.161079596
 20
1112.5525789654
 10
564.2576458953
 20
1156.6683860618
 10
581.9758392022
 20
1200.5906414519
 10
600.3063147703
 20
1244.3074743515
 10
614.5109589649
 20
1277.0769644165
 10
629.0621400772
 20
1309.722392541
 10
632.7537136809
 20
1317.7862167338
  0
LWPOLYLINE
  5
208
330
1F
100
AcDbEntity
  8
0
  6
Continuous
 62
     8
370
    25
100
AcDbPolyline
 90
       21
 70
   128
 43
0.0
 10
643.2363733356
 20
1315.5570288544
 10
634.094237688
 20
1282.9956483753
 10
620.6537824088
 20
1237.4995871141
 10
606.5454976766
 20
1192.0465783068
 10
591.8313057443
 20
1146.8315470757
 10
576.5117623437
 20
1101.8698040898
 10
560.6779400087
 20
1057.4241071444
 10
544.1394346358
 20
1013.2516518774
 10
526.751795621
 20
969.4049014461
 10
517.6401918702
 20
947.523846427
 10
508.1961602547
 20
925.7680235555
 10
498.3456618462
 20
904.17624141
 10
490.5996938924
 20
888.0429143552
 10
482.5033425115
 20
872.0670150311
 10
473.9525869037
 20
856.2517323668
 10
467.6280450101
 20
845.2992410562
 10
465.8992134103
 20
842.4195152453
 10
465.2513275694
 20
841.3531217873
 10
464.9911357989
 20
840.926825961
 10
464.8523625265
 20
840.6999230178
 10
464.8076944032
 20
840.6269562474
  0
LWPOLYLINE
  5
209
330
1F
100
AcDbEntity
  8
0
  6
Continuous
 62
     8
370
    25
100
AcDbPolyline
 90
       15
 70
   128
 43
0.0
 10
-46.9018695237
 20
-565.2835159609
 10
-46.9163119413
 20
-565.3706608428
 10
-50.9304441566
 20
-587.9073555359
 10
-55.457040935
 20
-610.3375811457
 10
-60.4532495959
 20
-632.6396919078
 10
-65.8762174589
 20
-654.7920420582
 10
-73.663414764
 20
-684.0524096648
 10
-82.0006416989
 20
-713.1119834713
 10
-90.7943264915
 20
-741.9917456626
 10
-105.1943793333
 20
-786.5810726279
 10
-120.3598236675
 20
-830.8868521074
 10
-135.4536355554
 20
-872.9983931893
 10
-151.1085614832
 20
-914.9446437425
 10
-167.3040823788
 20
-956.7427698102
 10
-173.6953483876
 20
-972.6595361195
  0
LWPOLYLINE
  5
20A
330
1F
100
AcDbEntity
  8
0
  6
Continuous
 62
     8
370
    25
100
AcDbPolyline
 90
       42
 70
   128
 43
0.0
 10
7.6397892401
 20
-1011.221323321
 10
10.0079017749
 20
-1005.7698309414
 10
25.2574609904
 20
-971.153811329
 10
40.6655859015
 20
-936.501580303
 10
56.1775290474
 20
-901.7788896724
 10
71.7385429679
 20
-866.9514912464
 10
78.3179790478
 20
-852.0644638312
 10
84.7311463993
 20
-837.0641921053
 10
90.8515872822
 20
-821.9266363705
 10
96.5528439563
 20
-806.6277569284
 10
101.7084586814
 20
-791.1435140808
 10
106.1919737173
 20
-775.4498681294
 10
108.6190634237
 20
-765.2866929583
 10
110.5687098886
 20
-754.9990120371
 10
111.9021782827
 20
-744.6318639216
 10
112.4807337769
 20
-734.2302871672
 10
112.3238231478
 20
-726.5845204607
 10
111.6065564886
 20
-718.9643076229
 10
110.299753941
 20
-711.4607784004
 10
108.3742356466
 20
-704.1650625396
 10
106.5349711921
 20
-698.9027573729
 10
102.8579645764
 20
-690.6892390851
 10
98.4377121566
 20
-682.9132421311
 10
93.4244656473
 20
-675.5907267243
 10
87.9684767632
 20
-668.7376530782
 10
80.2260422682
 20
-660.2364854297
 10
72.0403212328
 20
-652.2684039368
 10
63.5032530925
 20
-644.7298545091
 10
54.7067772825
 20
-637.5172830558
 10
45.7428332383
 20
-630.5271354865
 10
34.1655958569
 20
-621.8185419936
 10
22.3692790019
 20
-613.1942532532
 10
10.3861851515
 20
-604.554057935
 10
-1.7513832163
 20
-595.797744709
 10
-9.7779972578
 20
-589.8801190113
 10
-17.8763994391
 20
-583.8740390387
 10
-26.136512797
 20
-577.9549894123
 10
-34.6482603679
 20
-572.2984547532
 10
-41.0414750902
 20
-568.4661031236
 10
-43.488906455
 20
-567.1002263596
 10
-46.8214066196
 20
-565.3251984976
 10
-46.9018695237
 20
-565.2835159609
  0
LWPOLYLINE
  5
20B
330
1F
100
AcDbEntity
  8
0
  6
Continuous
 62
     8
370
    25
100
AcDbPolyline
 90
       22
 70
   128
 43
0.0
 10
-213.4119943077
 20
-964.2136007736
 10
-208.0589967857
 20
-947.8491367015
 10
-193.0525537185
 20
-903.6336842776
 10
-177.4945444237
 20
-859.6724009999
 10
-161.3563455153
 20
-815.9653384463
 10
-149.123924391
 20
-784.0474386772
 10
-136.5036900629
 20
-752.2669126499
 10
-123.4250186112
 20
-720.6468691414
 10
-109.8172861161
 20
-689.2104169285
 10
-100.3484971512
 20
-668.2439520542
 10
-90.5496560468
 20
-647.3931136249
 10
-80.3763950226
 20
-626.6868782143
 10
-72.4312420994
 20
-611.19116442
 10
-64.226613221
 20
-595.8082405951
 10
-58.0930644668
 20
-584.7096100237
 10
-51.8139096752
 20
-573.6845522059
 10
-48.7375051551
 20
-568.4010652508
 10
-47.6197604
 20
-566.4997012739
 10
-47.1868253945
 20
-565.7657985888
 10
-47.0156050921
 20
-565.4759384234
 10
-46.9468216404
 20
-565.3595562204
 10
-46.9018695237
 20
-565.2835159609
  0
LWPOLYLINE
  5
20C
330
1F
100
AcDbEntity
  8
0
  6
Continuous
 62
     8
370
    25
100
AcDbPolyline
 90
      315
 70
   128
 43
0.0
 10
1150.8646667495
 20
953.3238508895
 10
1144.9047126648
 20
951.9177557093
 10
1137.7177157483
 20
950.4794066746
 10
1132.2683244597
 20
949.7011682816
 10
1126.8387424499
 20
949.1787952153
 10
1115.5081219173
 20
948.7601769599
 10
1104.307359234
 20
948.9503250571
 10
1091.8687449017
 20
949.4791902983
 10
1079.4926482683
 20
950.0618238137
 10
1068.844404518
 20
950.4372590965
 10
1058.1625323234
 20
950.5668446881
 10
1047.4413113034
 20
950.308827705
 10
1036.6750210766
 20
949.5214552643
 10
1029.3879322273
 20
948.6042969792
 10
1022.0645950647
 20
947.2669779187
 10
1014.7938469699
 20
945.4182141157
 10
1007.6645253238
 20
942.9667216026
 10
1000.7654675074
 20
939.8212164122
 10
993.8096352595
 20
935.6216435588
 10
987.325033484
 20
930.5633100979
 10
981.4574555247
 20
924.7800126292
 10
978.2372232
 20
920.9843032385
 10
972.9020525459
 20
913.6929228929
 10
968.1000600377
 20
906.0071966715
 10
963.7345742884
 20
898.0306010275
 10
959.7089239113
 20
889.8666124142
 10
955.9264375194
 20
881.6187072847
 10
948.379656782
 20
863.7754773588
 10
941.4337656172
 20
845.6998124424
 10
934.8872519507
 20
827.4988173078
 10
923.533840206
 20
794.3394159323
 10
912.6244526629
 20
761.1029667021
 10
901.950779817
 20
727.8713824815
 10
891.3045121639
 20
694.726576135
 10
880.5366713491
 20
661.5705536168
 10
869.5571665798
 20
628.5576320391
 10
858.1242952843
 20
595.7720065206
 10
845.9963548909
 20
563.2978721801
 10
839.0427095088
 20
545.9900496556
 10
831.5496129533
 20
528.9211747842
 10
827.4928928866
 20
520.4134864073
 10
823.1483302559
 20
512.0384203443
 10
818.383418852
 20
503.9149015721
 10
813.065652466
 20
496.1618550674
 10
809.5690983419
 20
491.8072321024
 10
805.7093869066
 20
487.754260638
 10
801.4284422524
 20
484.1635851379
 10
797.4892000937
 20
481.6471253745
 10
793.2319989814
 20
479.6684226952
 10
789.2022918766
 20
478.4035659592
 10
785.061191404
 20
477.438304112
 10
780.9134538025
 20
476.5068249813
 10
776.0966592791
 20
475.335324338
 10
771.285736111
 20
474.2577855378
 10
766.2816228051
 20
473.3616847946
 10
761.2793651936
 20
472.7506530992
 10
756.2960269232
 20
472.4413945443
 10
751.3430714715
 20
472.3847781441
 10
742.7202445125
 20
472.684427928
 10
734.1707435206
 20
473.1238555686
 10
727.8058694293
 20
473.2891292671
 10
721.4257364132
 20
473.1427121475
 10
715.0708701193
 20
472.5408633144
 10
708.7817961945
 20
471.3398418727
 10
703.0652958832
 20
469.5767361123
 10
697.5105006193
 20
467.1622780511
 10
692.2310139381
 20
464.1227602449
 10
687.2241544943
 20
460.4470947503
 10
681.6524982854
 20
455.3292336138
 10
676.5640483734
 20
449.6357466822
 10
671.8714156652
 20
443.5488574195
 10
667.4872110677
 20
437.2507892894
 10
660.788580702
 20
426.7995670419
 10
654.4709450064
 20
416.1003598495
 10
648.4482311958
 20
405.2276676446
 10
642.634366485
 20
394.2559903598
 10
631.4208796447
 20
372.1960025834
 10
620.6116492212
 20
349.9623092283
 10
610.0889291846
 20
327.6193177206
 10
599.7349735051
 20
305.2314354865
 10
583.7108153513
 20
270.4303222186
 10
567.7429546648
 20
235.6389661507
 10
551.8857440224
 20
200.8054461678
 10
536.1935360007
 20
165.8778411546
 10
520.7206831766
 20
130.8042299959
 10
517.3897273722
 20
123.2492932053
 10
514.0810138065
 20
115.6452237448
 10
510.9504278203
 20
107.9647723072
 10
508.1538547543
 20
100.1806895856
 10
505.8471799494
 20
92.2657262728
 10
504.1862887464
 20
84.1926330618
 10
503.6785416957
 20
79.8104212747
 10
503.6172245597
 20
75.3912105495
 10
504.147793764
 20
71.0330755553
 10
505.3102556363
 20
67.1035866876
 10
507.1439131683
 20
63.4539456214
 10
509.751008105
 20
60.0505543297
 10
512.8718871199
 20
57.1286299753
 10
516.268544609
 20
54.7033724789
 10
519.894714343
 20
52.6412578614
 10
523.6583371886
 20
50.8866256902
 10
530.4065613575
 20
48.3962213664
 10
537.3125033907
 20
46.4825835312
 10
547.2579709729
 20
44.5219029578
 10
557.3133398027
 20
43.3547362677
 10
567.4046768355
 20
42.9329599627
 10
576.8267827908
 20
43.2041136107
 10
586.2556978679
 20
44.1877787904
 10
595.5941639233
 20
45.9574247712
 10
604.7449228136
 20
48.5865208228
 10
612.0040676112
 20
51.4329681875
 10
619.052462743
 20
54.9359519464
 10
625.7992091201
 20
59.0583754913
 10
632.1534076533
 20
63.7631422139
 10
635.786930168
 20
66.8748322861
 10
642.2585650654
 20
73.2622443009
 10
648.2084959726
 20
80.2052262449
 10
653.6652380508
 20
87.5920954287
 10
658.6573064617
 20
95.3111691632
 10
663.2132163668
 20
103.2507647591
 10
669.6196085762
 20
116.0145788564
 10
675.3481575696
 20
129.1066794085
 10
680.6041106827
 20
142.4034652306
 10
685.5927152515
 20
155.7813351381
 10
695.3555711588
 20
183.0024670965
 10
704.8317772872
 20
210.2891984716
 10
714.2859710085
 20
237.5437567649
 10
723.9827896942
 20
264.6683694779
 10
734.1868707159
 20
291.5652641121
 10
738.1682913664
 20
301.6387838552
 10
742.2833889477
 20
311.6945188411
 10
746.6710342493
 20
321.6262880931
 10
751.4700980607
 20
331.3279106346
 10
756.8194511714
 20
340.693205489
 10
762.857964371
 20
349.6159916795
 10
766.9452952187
 20
354.6466117935
 10
771.5869218386
 20
359.1672417411
 10
774.9516983857
 20
361.6778837574
 10
778.6165316889
 20
363.7374940896
 10
783.3728668457
 20
365.4490505455
 10
788.3452024812
 20
366.4558330859
 10
795.3958605297
 20
367.3638361835
 10
801.0447051154
 20
367.69196961
 10
803.380876185
 20
367.6607638421
 10
806.8199388244
 20
367.3950939317
 10
810.1966755822
 20
366.858399553
 10
815.9491931867
 20
365.2707588131
 10
821.4362349115
 20
362.9960979914
 10
826.6582315649
 20
360.2031227598
 10
831.6156139552
 20
357.0605387903
 10
837.3168742547
 20
352.9653614884
 10
846.4802983762
 20
345.5664047677
 10
855.2810825022
 20
337.7663736709
 10
866.7639656821
 20
327.0054991533
 10
878.0572754395
 20
315.9384521075
 10
889.2515907653
 20
304.5854862972
 10
896.062364695
 20
297.542716568
 10
902.8394581474
 20
290.3258112175
 10
909.4677606666
 20
282.8615463681
 10
915.8321617968
 20
275.0766981422
 10
921.8175510821
 20
266.898042662
 10
926.2590978094
 20
259.8822088855
 10
930.1416973809
 20
252.4723317744
 10
933.2938648921
 20
244.7117329327
 10
935.3324879357
 20
237.7568909641
 10
936.7686008134
 20
230.6246846878
 10
937.6492382623
 20
223.406976539
 10
938.0897982904
 20
214.0381717672
 10
937.9140929301
 20
204.6459424546
 10
937.2736636323
 20
195.2785801079
 10
935.2874269584
 20
178.1073442041
 10
932.532038687
 20
161.0374923352
 10
929.2634768664
 20
144.0705091372
 10
922.9167068954
 20
115.0043063078
 10
915.8050925488
 20
86.1436947829
 10
908.0293005032
 20
57.5030726413
 10
899.6899974354
 20
29.0968379618
 10
890.8878500221
 20
0.9393888231
 10
882.6384838946
 20
-24.061303874
 10
873.9660086723
 20
-48.8396157407
 10
864.8069401639
 20
-73.3527687012
 10
859.018664184
 20
-88.0579621012
 10
852.9792860483
 20
-102.6471149746
 10
846.576739538
 20
-117.0465006433
 10
839.6989584342
 20
-131.1823924291
 10
832.233876518
 20
-144.9810636539
 10
828.4223087633
 20
-151.4345264076
 10
824.361632645
 20
-157.7619531286
 10
819.9732389867
 20
-163.8544656876
 10
815.1785186117
 20
-169.6031859551
 10
809.8988623436
 20
-174.8992358017
 10
806.1254377019
 20
-178.0425010956
 10
802.0573154649
 20
-180.8230993785
 10
797.1863904641
 20
-183.2386665079
 10
791.9647691186
 20
-185.0279951671
 10
786.5680774179
 20
-186.4680680942
 10
781.1719413514
 20
-187.8358680274
 10
778.6548239633
 20
-188.5388952096
 10
770.1338276179
 20
-191.2610415118
 10
761.7811747504
 20
-194.1791075316
 10
753.2128397177
 20
-197.1314999351
 10
744.7154867894
 20
-199.9642405968
 10
732.1776359133
 20
-204.0975100017
 10
719.8156029629
 20
-208.6403578034
 10
712.9136640716
 20
-211.6706666066
 10
706.1291721435
 20
-215.1756215029
 10
699.5539581938
 20
-219.1785887933
 10
693.2798532379
 20
-223.7029347786
 10
687.3986882908
 20
-228.7720257599
 10
682.9111903733
 20
-233.310783395
 10
678.7016895036
 20
-238.1414664056
 10
672.2257501729
 20
-246.5755270555
 10
666.2066239087
 20
-255.3850373499
 10
660.5466555755
 20
-264.4673938506
 10
655.1481900374
 20
-273.7199931194
 10
649.9135721588
 20
-283.0402317181
 10
638.9563031673
 20
-303.2712078915
 10
628.3721045936
 20
-323.6768566593
 10
618.0183861671
 20
-344.1715002713
 10
607.7525576172
 20
-364.6694609776
 10
591.5866434837
 20
-396.7789261532
 10
575.2290615142
 20
-428.7256848308
 10
558.4875389086
 20
-460.4229026162
 10
548.1716395534
 20
-479.3767287605
 10
537.5880146124
 20
-498.1997597971
 10
526.5923942861
 20
-516.7884230177
 10
515.0405087752
 20
-535.0391457139
 10
502.7880882802
 20
-552.8483551775
 10
497.1914681932
 20
-560.4441199861
 10
491.3373751696
 20
-567.9181611288
 10
485.1653668001
 20
-575.145796
 10
478.6150006755
 20
-582.0023419941
 10
471.6258343863
 20
-588.3631165054
 10
464.1374255234
 20
-594.1034369283
 10
457.2768415888
 20
-598.3885295389
 10
449.4047477696
 20
-602.3812693047
 10
441.3008589089
 20
-605.7983005406
 10
433.0850588308
 20
-608.6615145093
 10
423.4293374626
 20
-611.3553681508
 10
413.7701981759
 20
-613.4108906993
 10
404.1999367926
 20
-614.8850524431
 10
391.7999596197
 20
-616.0693704165
 10
379.5745690604
 20
-616.4392618016
 10
367.548579596
 20
-615.9612226911
 10
355.7468057076
 20
-614.6017491772
 10
344.1940618764
 20
-612.3273373527
 10
336.5182170907
 20
-610.2128219695
 10
328.9539837619
 20
-607.4919025921
 10
321.6136631305
 20
-604.0541168967
 10
314.6095564369
 20
-599.7890025593
 10
309.486175841
 20
-595.8150387287
 10
304.7295966129
 20
-591.2153767986
 10
300.4760732753
 20
-586.0252519257
 10
296.7276315192
 20
-580.1406944061
 10
293.5694169681
 20
-573.7860586509
 10
290.994190703
 20
-567.118069408
 10
288.5401870474
 20
-558.563285071
 10
286.7763839764
 20
-549.7734992277
 10
285.5971245942
 20
-540.8715607922
 10
284.7241156455
 20
-528.8554420512
 10
284.5163509427
 20
-516.7863450699
 10
284.873946091
 20
-504.6946267535
 10
285.6970166958
 20
-492.6106440073
 10
286.8856783623
 20
-480.5647537366
 10
288.3400466957
 20
-468.5873128466
 10
291.7686454704
 20
-445.1506805607
 10
295.8656614767
 20
-421.8437937699
 10
300.5294732076
 20
-398.6631412307
 10
305.6584591563
 20
-375.6052116991
 10
311.150997816
 20
-352.6664939316
 10
316.9054676797
 20
-329.8434766843
 10
326.0615042561
 20
-295.3583406976
 10
335.7286474166
 20
-261.0709676747
 10
345.8754314188
 20
-226.9700225455
 10
356.4703905206
 20
-193.04417024
 10
367.5729254754
 20
-159.496069143
 10
379.2458697609
 20
-126.1248433705
 10
391.2969839257
 20
-92.8333682275
 10
403.5340285184
 20
-59.5245190188
 10
415.7647640877
 20
-26.1011710495
 10
418.3644923006
 20
-19.0203384435
 10
420.9273764449
 20
-11.8662622884
 10
423.2708499663
 20
-4.6339407106
 10
425.2123463102
 20
2.6816281638
 10
426.5692989224
 20
10.0854462084
 10
427.1591412484
 20
17.5825152969
 10
426.9641287617
 20
22.2324804829
 10
426.0924450354
 20
26.7881551976
 10
424.9811675297
 20
29.8736801188
 10
422.7748039037
 20
33.7345582301
 10
419.9290751624
 20
37.112116738
 10
419.0965311398
 20
37.922226622
 10
415.3177101142
 20
41.0937621606
 10
411.290914367
 20
43.8899514578
 10
407.1471971723
 20
46.4255871054
 10
394.8146020358
 20
53.3573746941
 10
382.5035165036
 20
59.7457233032
 10
370.2293493415
 20
65.7307358306
 10
358.007509315
 20
71.4525151744
 10
345.8534051898
 20
77.0511642326
 10
333.7824457317
 20
82.666785903
 10
321.9766176362
 20
88.1706615291
 10
310.0436330097
 20
93.5873514581
 10
297.9302559357
 20
98.9129967254
 10
285.5832504983
 20
104.1437383668
 10
272.9493807813
 20
109.2757174177
 10
262.6674219597
 20
113.2895083171
 10
252.2098062312
 20
117.3772475153
 10
241.6708899899
 20
121.7162321913
 10
233.5136132127
 20
125.3313132014
 10
225.3713565339
 20
129.1592187668
 10
217.1693883611
 20
133.2174497818
 10
208.9900290665
 20
137.4462265397
 10
208.8900348136
 20
137.4989652852
 10
208.8900348136
 20
137.4989652852
  0
LWPOLYLINE
  5
20D
330
1F
100
AcDbEntity
  8
0
  6
Continuous
 62
     8
370
    25
100
AcDbPolyline
 90
      144
 70
   128
 43
0.0
 10
265.5539399557
 20
-1081.6187981479
 10
269.8734973404
 20
-1059.8872864516
 10
274.9385047499
 20
-1038.3400497119
 10
280.571917583
 20
-1016.9648669853
 10
286.5966912383
 20
-995.7495173284
 10
294.8893855414
 20
-968.2510486832
 10
303.6452108228
 20
-940.9692436837
 10
312.8199497558
 20
-913.9045468344
 10
322.3693850137
 20
-887.0574026396
 10
335.743543081
 20
-851.3410693315
 10
349.8478416316
 20
-816.0057554443
 10
364.8069265136
 20
-781.0937775453
 10
373.3666223122
 20
-762.225671341
 10
382.301077841
 20
-743.5051136816
 10
391.7333373895
 20
-725.0116991229
 10
401.7864452471
 20
-706.8250222207
 10
412.5834457032
 20
-689.0246775307
 10
418.7926598129
 20
-679.5798728507
 10
425.3575539802
 20
-670.310803339
 10
432.3484930333
 20
-661.3280163355
 10
439.8358418003
 20
-652.7420591805
 10
447.8899651096
 20
-644.6634792139
 10
455.6881280637
 20
-637.913348491
 10
463.9559230367
 20
-631.6627994373
 10
472.5747452599
 20
-625.8868361957
 10
481.4259899645
 20
-620.5604629094
 10
492.3791449903
 20
-614.6878558716
 10
503.5347088503
 20
-609.3368948681
 10
514.7836976065
 20
-604.3368519349
 10
526.0171273207
 20
-599.516999108
 10
541.5338785167
 20
-592.8066692673
 10
556.8709612339
 20
-585.8308409276
 10
571.9496405556
 20
-578.3269688556
 10
583.221894677
 20
-572.0891650979
 10
594.2551844244
 20
-565.2966582461
 10
604.952031348
 20
-557.892700135
 10
615.2149569981
 20
-549.8205425993
 10
621.8263363366
 20
-543.9971502786
 10
628.1842677615
 20
-537.8582427424
 10
635.3246540494
 20
-530.2220573367
 10
642.0734959252
 20
-522.1831461184
 10
648.4197343655
 20
-513.7981187037
 10
654.3523103472
 20
-505.1235847085
 10
661.9589810857
 20
-492.6383996808
 10
668.8962614209
 20
-479.7556098734
 10
675.2341991002
 20
-466.5856200681
 10
678.4029370622
 20
-459.5497623418
 10
688.1012096697
 20
-437.331076955
 10
697.5829391013
 20
-415.0655979344
 10
707.0606847419
 20
-392.8550787005
 10
716.7470059768
 20
-370.8012726735
 10
723.1381509575
 20
-356.8318493481
 10
729.7848084745
 20
-343.0037056779
 10
736.7977043686
 20
-329.3829713697
 10
742.3350772847
 20
-319.4078950041
 10
748.2897028632
 20
-309.6809612736
 10
754.8301627985
 20
-300.3583999698
 10
758.6160916011
 20
-295.6334247825
 10
762.7043719809
 20
-291.1555126394
 10
767.1528616866
 20
-287.0414555214
 10
770.7051555924
 20
-284.3229725367
 10
774.5190445576
 20
-281.9457794332
 10
778.5679394859
 20
-280.0016988362
 10
781.3536350513
 20
-278.9902750692
 10
787.3123132668
 20
-277.4626599371
 10
793.3717974597
 20
-276.3506713071
 10
799.3705960816
 20
-275.2484936682
 10
805.3357500328
 20
-274.0257589601
 10
811.2287035853
 20
-272.9348395203
 10
819.2163097115
 20
-271.8254200424
 10
827.070404335
 20
-271.2285656611
 10
836.0828912386
 20
-271.1526764624
 10
844.9320879819
 20
-271.5969932447
 10
853.6645579777
 20
-272.4096913932
 10
862.3268646394
 20
-273.438946293
 10
870.9655713798
 20
-274.5329333291
 10
881.6790234186
 20
-275.7926589264
 10
892.5517580577
 20
-276.7691163579
 10
899.4045571735
 20
-277.1449833096
 10
906.3911418314
 20
-277.2491655668
 10
913.4631435695
 20
-276.9531075028
 10
920.5721939257
 20
-276.1282534905
 10
927.669924438
 20
-274.6460479033
 10
932.9924306479
 20
-272.9770551935
 10
938.1920744882
 20
-270.7580853165
 10
943.1461194649
 20
-267.9719067406
 10
946.6860598153
 20
-265.4789025847
 10
951.1595301036
 20
-261.6170580422
 10
955.2544377648
 20
-257.2910791498
 10
958.986016103
 20
-252.6147441794
 10
962.3694984221
 20
-247.701831403
 10
968.3560361526
 20
-237.4750801493
 10
973.6078348428
 20
-226.8326782315
 10
978.3267589165
 20
-215.9082324071
 10
982.714672797
 20
-204.8353494336
 10
986.9734409078
 20
-193.7476360687
 10
999.7445868396
 20
-160.2878429234
 10
1012.4107004835
 20
-126.8564696795
 10
1025.1877166038
 20
-93.5551957084
 10
1038.2915699647
 20
-60.4857003819
 10
1051.8793760335
 20
-27.4611930935
 10
1065.896515561
 20
5.3065518364
 10
1080.4952610982
 20
37.7447015906
 10
1095.8278851964
 20
69.7804233518
 10
1105.3391768717
 20
88.4584991543
 10
1115.4281692492
 20
106.8247925262
 10
1120.807028202
 20
115.9630922567
 10
1126.4942691818
 20
124.9330165995
 10
1132.6502726501
 20
133.5688520725
 10
1139.4354190687
 20
141.7048851939
 10
1142.6889954001
 20
145.0735328398
 10
1146.1834907958
 20
148.2061275418
 10
1149.962446696
 20
150.9801900167
 10
1153.5231674934
 20
152.9104412368
 10
1157.3450300717
 20
154.3649954847
 10
1161.2979046546
 20
155.4328285058
 10
1166.362620884
 20
156.4745370152
 10
1174.824224864
 20
158.1000165842
 10
1183.1294406622
 20
159.8596078583
 10
1190.7904750429
 20
161.6476187492
 10
1198.3150462503
 20
163.4924280033
 10
1205.7321946788
 20
165.469098032
 10
1212.1740385687
 20
167.5151369526
 10
1218.5127319956
 20
170.0746651017
 10
1224.6440189057
 20
173.2133537192
 10
1230.4636432452
 20
176.996874045
 10
1235.2993637274
 20
180.8558787002
 10
1239.8749251649
 20
185.0898862403
 10
1246.4408318596
 20
192.1179002325
 10
1252.5411668138
 20
199.6417877946
 10
1258.2452303192
 20
207.5407101057
 10
1263.6223226672
 20
215.6938283448
 10
1268.7417441491
 20
223.980303691
 10
1277.6777446829
 20
239.4161502112
 10
1286.1611429864
 20
255.1030121946
 10
1294.3477493074
 20
270.9425021701
 10
1302.3933738936
 20
286.8362326668
 10
1310.4538269929
 20
302.6858162135
 10
1324.1095297528
 20
329.1131031596
 10
1337.8581218736
 20
355.4448340937
 10
1351.7065986722
 20
381.6879664846
 10
1370.7640061216
 20
417.3514300959
 10
1390.0808625897
 20
452.8717236133
 10
1394.8561378509
 20
461.460006577
  0
LWPOLYLINE
  5
20E
330
1F
100
AcDbEntity
  8
0
  6
Continuous
 62
     8
370
    25
100
AcDbPolyline
 90
       41
 70
   128
 43
0.0
 10
-46.9018695237
 20
-565.2835159609
 10
-46.8134601323
 20
-565.3033505833
 10
-43.1112802488
 20
-566.1785256237
 10
-32.9027130074
 20
-569.046483471
 10
-22.995458006
 20
-572.5177225486
 10
-13.3597549755
 20
-576.5135432943
 10
-3.9822915306
 20
-580.8718867998
 10
5.1502447141
 20
-585.4306941574
 10
18.4360547929
 20
-592.4712335268
 10
31.3247994497
 20
-599.8338843572
 10
43.8220975394
 20
-607.5483033921
 10
55.933567917
 20
-615.6441473749
 10
65.6375223727
 20
-622.6441775992
 10
75.0836707632
 20
-630.0376297874
 10
84.1962704768
 20
-637.8923992143
 10
92.8995789022
 20
-646.2763811549
 10
101.1178534277
 20
-655.2574708838
 10
107.3839343622
 20
-663.0848608507
 10
113.1896045464
 20
-671.418385579
 10
118.4365912334
 20
-680.2224988208
 10
123.0266216764
 20
-689.4616543285
 10
126.9412768154
 20
-699.2694261448
 10
130.1171983603
 20
-709.4539574196
 10
132.5707372675
 20
-719.8981172936
 10
134.3182444937
 20
-730.4847749074
 10
135.4995043015
 20
-742.2922256521
 10
136.0042434284
 20
-754.1799379584
 10
135.920397053
 20
-766.0906336749
 10
135.3359003542
 20
-777.96703465
 10
133.7483748504
 20
-795.3619720912
 10
131.4174621855
 20
-812.6718897198
 10
128.4330259409
 20
-829.8779371469
 10
124.8849296977
 20
-846.9612639834
 10
120.8630370372
 20
-863.9030198407
 10
116.4572115407
 20
-880.6843543297
 10
108.9197089816
 20
-906.6437399255
 10
100.6506298271
 20
-932.3118650866
 10
91.7362826352
 20
-957.6932318136
 10
82.2629759643
 20
-982.7923421071
 10
72.1691525957
 20
-1007.9213745089
 10
65.4907714204
 20
-1023.523612295
  0
LWPOLYLINE
  5
20F
330
1F
100
AcDbEntity
  8
0
  6
Continuous
 62
     8
370
    25
100
AcDbPolyline
 90
      110
 70
   128
 43
0.0
 10
1366.2003014452
 20
549.6818155506
 10
1350.1752620036
 20
540.6292125143
 10
1338.8211117173
 20
533.8241576595
 10
1327.6487372961
 20
526.6402952085
 10
1316.7617631374
 20
518.9490751502
 10
1308.6163134831
 20
512.5137888683
 10
1300.8089558243
 20
505.5723897449
 10
1293.4293830541
 20
498.1346091162
 10
1286.5672880658
 20
490.2101783181
 10
1278.5195826176
 20
479.4665134323
 10
1271.1476957687
 20
468.2017482098
 10
1264.3721584782
 20
456.5206634619
 10
1258.1135017051
 20
444.5280399999
 10
1252.2922564085
 20
432.3286586348
 10
1246.8289535476
 20
420.027300178
 10
1239.1331621012
 20
401.5099594168
 10
1231.7867885939
 20
382.8787170166
 10
1224.5676626355
 20
364.2371638008
 10
1220.2189754424
 20
353.0286278833
 10
1215.7778134657
 20
341.8602048159
 10
1211.1014899602
 20
330.8209334426
 10
1206.0473181809
 20
319.9998526078
 10
1200.4726113828
 20
309.4860011555
 10
1197.3657912529
 20
304.3057449054
 10
1193.961061759
 20
299.3265521822
 10
1190.1750554241
 20
294.6611054976
 10
1187.0721598163
 20
291.4997620496
 10
1183.6575904634
 20
288.6601835591
 10
1179.9381914728
 20
286.245378438
 10
1175.5722699164
 20
284.1908579776
 10
1170.9456556532
 20
282.6330167813
 10
1166.1928915575
 20
281.4362954869
 10
1158.74003632
 20
279.743946549
 10
1151.3562994636
 20
277.8609290868
 10
1144.1742015365
 20
275.6108495197
 10
1135.4560434846
 20
272.5312513045
 10
1126.8072366662
 20
269.640274418
 10
1115.7165013472
 20
266.4062494842
 10
1104.6364176369
 20
263.7117787768
 10
1092.5229077351
 20
261.328804942
 10
1080.3691416871
 20
259.5359915159
 10
1068.1685501278
 20
258.4083960344
 10
1055.9145636925
 20
258.0210760333
 10
1048.1835593673
 20
258.2005442671
 10
1040.4119268231
 20
258.8484090114
 10
1032.6903292538
 20
260.1435615818
 10
1025.1094298534
 20
262.2648932944
 10
1020.0524753343
 20
264.3357487054
 10
1015.2154660709
 20
267.0176947216
 10
1010.7600673803
 20
270.3341471673
 10
1007.4585871438
 20
273.5832861847
 10
1004.5535331741
 20
277.2551449737
 10
1002.1127291668
 20
281.257567775
 10
1000.635930544
 20
284.3541434184
 10
999.3992434038
 20
287.5622728865
 10
997.938025128
 20
292.6134783721
 10
996.9250095043
 20
297.7937131641
 10
996.2883015686
 20
303.0315900757
 10
995.8256812392
 20
312.7055353252
 10
996.0749163358
 20
322.4065124681
 10
996.8823910958
 20
332.1046455392
 10
998.0944897565
 20
341.7700585734
 10
999.5575965552
 20
351.3728756057
 10
1002.3109374445
 20
366.9853524115
 10
1005.4675658222
 20
382.5180457791
 10
1008.9237441173
 20
397.9778557671
 10
1014.9200430372
 20
422.6880757837
 10
1021.370799171
 20
447.2633369279
 10
1028.1808823835
 20
471.713873356
 10
1040.061781592
 20
511.9464705023
 10
1052.6215523308
 20
551.9048965219
 10
1065.7858735012
 20
591.5963033966
 10
1076.0400483537
 20
621.3245581843
 10
1086.6694300046
 20
650.8995459316
 10
1097.8320492818
 20
680.2516977733
 10
1109.6859370135
 20
709.3114448441
 10
1114.0157478635
 20
719.4869588638
 10
1118.4761818828
 20
729.6393725316
 10
1123.1930917401
 20
739.6709737436
 10
1128.2923301041
 20
749.4840503958
 10
1133.8997496434
 20
758.9808903846
 10
1140.1412030267
 20
768.063781606
 10
1143.3242936567
 20
772.0794362672
 10
1146.8273616312
 20
775.828725994
 10
1150.7336299106
 20
779.1278387216
 10
1153.5530999538
 20
780.9291650918
 10
1156.602261561
 20
782.3126209706
 10
1162.2200623221
 20
783.8851020276
 10
1167.9737115963
 20
784.9549642479
 10
1176.453913761
 20
786.1579483788
 10
1183.8692154546
 20
786.7528753049
 10
1189.1726255315
 20
786.6646775138
 10
1194.3751782541
 20
786.0402224651
 10
1201.3558263943
 20
784.3737178081
 10
1210.267826189
 20
781.5374657769
 10
1215.9589694802
 20
779.8947802605
 10
1221.7944582777
 20
778.8044740178
 10
1226.9250570689
 20
778.6117291012
 10
1232.0587100478
 20
779.2907176708
 10
1236.5597664282
 20
780.7172916187
 10
1241.1792380785
 20
783.0397064503
 10
1245.501375972
 20
786.0095979477
 10
1249.4916912858
 20
789.4361416959
 10
1254.4335746329
 20
794.5396030142
 10
1258.9698757742
 20
800.0526162811
 10
1263.1628823467
 20
805.8746290394
 10
1267.0748819877
 20
811.9050888316
 10
1270.7681623345
 20
818.0434432006
 10
1278.1131752942
 20
831.3558008755
 10
1284.9125924232
 20
844.9511784902
  0
LWPOLYLINE
  5
210
330
1F
100
AcDbEntity
  8
0
  6
Continuous
 62
     8
370
    25
100
AcDbPolyline
 90
       41
 70
   128
 43
0.0
 10
-46.9018695237
 20
-565.2835159609
 10
-46.9903007024
 20
-565.2637260786
 10
-57.5187900133
 20
-563.3087049512
 10
-68.1325557255
 20
-561.9830664424
 10
-78.7552853777
 20
-561.0819927917
 10
-89.3106665087
 20
-560.4006662384
 10
-99.722386657
 20
-559.7342690223
 10
-114.3906302721
 20
-558.6637820294
 10
-128.8697479378
 20
-557.5953336976
 10
-143.1954592034
 20
-556.6184353707
 10
-157.403483618
 20
-555.8225983923
 10
-168.8418229151
 20
-555.3642209393
 10
-180.2877424399
 20
-555.1694744833
 10
-191.7417563451
 20
-555.3726649371
 10
-203.2043787834
 20
-556.1080982138
 10
-214.6761239073
 20
-557.5100802261
 10
-223.5446112567
 20
-559.1790830791
 10
-232.3854315362
 20
-561.509165796
 10
-241.0680031501
 20
-564.5976841579
 10
-249.4617445031
 20
-568.5419939457
 10
-254.6942158327
 20
-571.5918741785
 10
-261.3339102912
 20
-576.2563827061
 10
-267.5814073178
 20
-581.5652255499
 10
-273.3945516437
 20
-587.4082478343
 10
-278.7311879994
 20
-593.6752946836
 10
-285.3780647693
 20
-602.8898386925
 10
-291.7170025633
 20
-613.2564652271
 10
-297.4039235742
 20
-624.0141518456
 10
-302.5560359839
 20
-635.0270849891
 10
-309.0171939009
 20
-650.4780056933
 10
-314.8800985299
 20
-666.1628544614
 10
-320.2516609313
 20
-682.0217366561
 10
-325.2387921655
 20
-697.9947576401
 10
-329.948403293
 20
-714.0220227762
 10
-337.6436651135
 20
-740.9985192974
 10
-345.2711468107
 20
-767.9302458198
 10
-352.9044940369
 20
-794.788599922
 10
-362.5371662112
 20
-827.9967019772
 10
-372.3474872419
 20
-861.0511120268
 10
-382.2539610894
 20
-894.0192958642
 10
-391.9572098205
 20
-926.2451038981
  0
LWPOLYLINE
  5
211
330
1F
100
AcDbEntity
  8
0
  6
Continuous
 62
     8
370
    25
100
AcDbPolyline
 90
      131
 70
   128
 43
0.0
 10
1414.6395713659
 20
400.5533812149
 10
1407.5469706425
 20
386.713488385
 10
1393.4924174752
 20
360.0360979591
 10
1378.8341333422
 20
332.9397755545
 10
1363.7058983521
 20
306.0546199024
 10
1347.998520316
 20
279.4516716604
 10
1338.1303935574
 20
263.4786289185
 10
1327.9005074067
 20
247.6754282055
 10
1317.2207086741
 20
232.1492845334
 10
1306.0028441698
 20
217.0074129148
 10
1294.158760704
 20
202.3570283617
 10
1286.6210065861
 20
193.7593598825
 10
1278.7435092873
 20
185.4324104818
 10
1270.5107725424
 20
177.4951092689
 10
1261.907300086
 20
170.0663853531
 10
1252.917595653
 20
163.2651678437
 10
1244.3215772525
 20
157.7429065641
 10
1235.3720208727
 20
152.9701913381
 10
1226.1835133975
 20
148.9934950969
 10
1216.8706417105
 20
145.8592907717
 10
1209.5167789903
 20
143.900807205
 10
1205.4170861923
 20
142.9182241699
 10
1201.3043619243
 20
141.8782080539
 10
1197.2390219624
 20
140.5845101858
 10
1193.2814820825
 20
138.840881895
 10
1190.9484048686
 20
137.3945234388
 10
1188.8674974604
 20
135.5539812583
 10
1186.1486193004
 20
132.1237349889
 10
1183.845736376
 20
128.3860247526
 10
1181.7856311798
 20
124.4897865137
 10
1179.7950862042
 20
120.5839562362
 10
1170.765118954
 20
102.574330247
 10
1162.1940547124
 20
84.3992921881
 10
1153.8580272541
 20
66.1443222738
 10
1145.5331703539
 20
47.8949007183
 10
1130.5320681002
 20
15.5737472954
 10
1115.2800144458
 20
-16.6826749568
 10
1099.696167008
 20
-48.8476997621
 10
1083.6996834041
 20
-80.894660844
 10
1070.4986412907
 20
-106.6103158467
 10
1056.9547321781
 20
-132.2251891506
 10
1042.9694280788
 20
-157.6557669284
 10
1028.4442010054
 20
-182.8185353524
 10
1013.2805229707
 20
-207.6299805952
 10
1006.2776139942
 20
-218.5704406225
 10
999.0392887428
 20
-229.3852083512
 10
991.4733850544
 20
-239.9702829557
 10
983.4877407665
 20
-250.2216636101
 10
974.990193717
 20
-260.0353494888
 10
968.2458473393
 20
-266.9645017156
 10
961.0609176506
 20
-273.4355309196
 10
953.4195959061
 20
-279.2920688148
 10
945.8834027815
 20
-284.0592589243
 10
937.9810360848
 20
-288.1144457727
 10
929.8440924871
 20
-291.3951856972
 10
921.8522986973
 20
-293.8179381466
 10
913.7844414398
 20
-295.5843150857
 10
905.7134908905
 20
-296.7647224976
 10
897.7124172253
 20
-297.4295663655
 10
889.8541906199
 20
-297.6492526725
 10
878.2920777406
 20
-297.3077582897
 10
866.9433109536
 20
-296.3622789832
 10
858.9286402613
 20
-295.3780766857
 10
850.9463827856
 20
-294.2422735418
 10
842.9342656978
 20
-293.1539173194
 10
834.8300161691
 20
-292.3120557862
 10
826.5713613711
 20
-291.9157367098
 10
823.1814297768
 20
-291.9572370824
 10
819.7528374989
 20
-292.2411395116
 10
816.3197380276
 20
-292.8772699462
 10
813.7329239101
 20
-293.6832266287
 10
811.2435160345
 20
-294.8723839538
 10
809.6471198426
 20
-295.9680324461
 10
808.2282221183
 20
-297.3082790726
 10
807.2493731988
 20
-298.5220256713
 10
804.5935519981
 20
-302.5508809262
 10
802.2530491284
 20
-306.7604174744
 10
798.7757843297
 20
-313.5946732018
 10
795.4949016071
 20
-320.5055661315
 10
788.7042412783
 20
-335.4182015697
 10
782.0284250075
 20
-350.3568985583
 10
772.433839461
 20
-371.4716408082
 10
762.5369914386
 20
-392.4667933141
 10
753.5737326031
 20
-410.6440268863
 10
744.223117141
 20
-428.6881415042
 10
734.4114854202
 20
-446.5325799334
 10
724.0651778084
 20
-464.1107849392
 10
713.1105346732
 20
-481.3561992868
 10
703.3806275035
 20
-495.4841823319
 10
693.0747903165
 20
-509.2385779275
 10
682.1739123343
 20
-522.5235240418
 10
673.3175203094
 20
-532.4169815585
 10
664.0687674817
 20
-541.9501790119
 10
654.4464005659
 20
-551.0661895433
 10
644.4691662769
 20
-559.7080862942
 10
632.0838409175
 20
-569.3613879132
 10
619.2334445628
 20
-578.2797624198
 10
606.0080471721
 20
-586.4528486052
 10
592.4977187047
 20
-593.8702852606
 10
578.0946637539
 20
-600.858457412
 10
563.4574795677
 20
-607.1872683148
 10
548.6301578478
 20
-613.0165708186
 10
533.6566902959
 20
-618.5062177732
 10
526.847099356
 20
-620.8900694581
 10
519.985413348
 20
-623.2935638659
 10
513.1439219916
 20
-625.8430477764
 10
506.3949150061
 20
-628.6648679693
 10
499.8106821112
 20
-631.8853712243
 10
493.4635130263
 20
-635.6309043212
 10
488.5521239509
 20
-639.2484716429
 10
484.0528408899
 20
-643.4327192159
 10
480.1035703975
 20
-648.112545066
 10
476.4190729821
 20
-653.7724754566
 10
473.2866310751
 20
-659.7451087666
 10
468.0970111362
 20
-671.4967793435
 10
463.519167351
 20
-683.4593850981
 10
459.2831891515
 20
-695.5194325759
 10
455.1191659696
 20
-707.5634283222
 10
443.7659013687
 20
-739.4902365357
 10
432.1684548258
 20
-771.2327319656
 10
420.2430089871
 20
-802.8136002395
 10
406.5900101892
 20
-837.7041903473
 10
392.5037479726
 20
-872.4921329478
 10
377.9688327797
 20
-907.2034046116
 10
366.7155531016
 20
-933.2893739829
 10
355.1880324723
 20
-959.3487574246
 10
343.4038016309
 20
-985.3783569901
 10
331.3803913163
 20
-1011.3749747333
 10
320.3731495743
 20
-1034.7371653083
 10
309.3122260647
 20
-1058.1278935087
 10
298.3816103298
 20
-1081.6187981479
  0
LWPOLYLINE
  5
212
330
1F
100
AcDbEntity
  8
0
  6
Continuous
 62
     8
370
    25
100
AcDbPolyline
 90
      107
 70
   128
 43
0.0
 10
817.791914214
 20
-960.6639409076
 10
815.3366051867
 20
-953.5344144526
 10
808.9819810001
 20
-934.7829944783
 10
802.8515339943
 20
-915.9038511342
 10
797.0962320825
 20
-896.8560615618
 10
793.9497548085
 20
-885.4224971257
 10
791.2217111611
 20
-873.8657022396
 10
789.1463976018
 20
-862.1811299679
 10
787.9645971915
 20
-851.2469488224
 10
787.4042480915
 20
-840.2498781182
 10
787.2976316149
 20
-829.2308380362
 10
787.4770290749
 20
-818.2307487571
 10
788.3288919637
 20
-795.9150110115
 10
789.6911967281
 20
-773.6990625671
 10
790.9801160951
 20
-757.3596999266
 10
792.5945152526
 20
-741.1027418831
 10
794.6232426183
 20
-724.9516379166
 10
797.1551466099
 20
-708.9298375072
 10
800.2790756451
 20
-693.0607901349
 10
804.0838781416
 20
-677.3679452799
 10
811.0291321679
 20
-653.3543619814
 10
818.8538444822
 20
-629.5595494893
 10
827.4189756526
 20
-605.959485852
 10
836.5854862471
 20
-582.5301491177
 10
847.486739697
 20
-556.3262323862
 10
859.0112793572
 20
-530.2620186594
 10
871.1693262847
 20
-504.3863551329
 10
883.9711015366
 20
-478.7480890023
 10
897.4268261699
 20
-453.3960674632
 10
911.5467212417
 20
-428.3791377113
 10
920.57368746
 20
-413.2276966177
 10
930.0095223972
 20
-398.3100552339
 10
939.9814786908
 20
-383.7435941547
 10
947.3579655043
 20
-373.8432680381
 10
955.2175067604
 20
-364.3136246832
 10
963.6887872105
 20
-355.3561197206
 10
970.664962331
 20
-349.0591208533
 10
978.1218736608
 20
-343.342124582
 10
985.9963991179
 20
-338.3146140063
 10
994.695286945
 20
-333.8053501889
 10
1003.691294775
 20
-330.0256930608
 10
1012.8568951454
 20
-326.8887568762
 10
1022.0645605937
 20
-324.3076558894
 10
1033.1774426238
 20
-321.7779493405
 10
1044.2792098535
 20
-319.802165852
 10
1055.3435925751
 20
-318.3388915989
 10
1066.344321081
 20
-317.3467127563
 10
1080.7736940788
 20
-316.7480007615
 10
1095.1549020505
 20
-317.0492928968
 10
1105.1665218085
 20
-317.8496923909
 10
1115.1800836988
 20
-319.1733041455
 10
1122.2451914375
 20
-320.4286150011
 10
1129.3362406199
 20
-321.9084081981
 10
1133.0840003711
 20
-322.7982471773
 10
1136.8763019154
 20
-323.6698876687
 10
1140.725298687
 20
-324.2997227694
 10
1144.6431441201
 20
-324.464145577
 10
1146.2267687466
 20
-324.3161515109
 10
1147.7745238127
 20
-323.9196256049
 10
1149.3150518489
 20
-323.045564745
 10
1149.8068714516
 20
-322.5702611043
 10
1151.0409046473
 20
-320.742345689
 10
1151.9229363521
 20
-318.704211921
 10
1152.2692439239
 20
-317.7528286842
 10
1153.8910936442
 20
-312.4094801349
 10
1155.197752441
 20
-306.989112042
 10
1156.3716129324
 20
-301.5508171819
 10
1160.7133647574
 20
-282.7718441864
 10
1165.6931464042
 20
-264.1766607015
 10
1171.4187045413
 20
-245.810144653
 10
1177.9977858371
 20
-227.7171739669
 10
1185.6311028326
 20
-209.3869729175
 10
1194.0493254077
 20
-191.322281202
 10
1203.2459261735
 20
-173.5830146003
 10
1213.214377741
 20
-156.2290888926
 10
1220.2194085722
 20
-145.012196101
 10
1227.6110512108
 20
-133.9826173637
 10
1235.4062740649
 20
-123.2071288213
 10
1243.6220455424
 20
-112.7525066146
 10
1252.2753340514
 20
-102.6855268844
 10
1261.3831079998
 20
-93.0729657715
 10
1269.4662504991
 20
-85.3887803351
 10
1277.9646548062
 20
-78.135773307
 10
1286.8343060932
 20
-71.3741438569
 10
1296.0311895321
 20
-65.1640911549
 10
1305.5112902948
 20
-59.5658143707
 10
1315.2305935533
 20
-54.6395126742
 10
1322.908225788
 20
-51.3084437754
 10
1330.7284004834
 20
-48.4281339119
 10
1338.6673538997
 20
-46.0635118867
 10
1345.2171744382
 20
-44.5647146101
 10
1351.8530176038
 20
-43.5251816265
 10
1358.5215236154
 20
-43.0501853631
 10
1365.1693326924
 20
-43.2449982474
 10
1371.7618034855
 20
-44.2073658542
 10
1378.228638772
 20
-45.9325513035
 10
1382.7336496031
 20
-47.6366541794
 10
1387.0961316586
 20
-49.7569507409
 10
1391.2502078563
 20
-52.2898438676
 10
1396.2822424048
 20
-56.2118427774
 10
1400.8071247273
 20
-60.7704612658
 10
1405.2877512401
 20
-66.6718098474
 10
1409.0058654246
 20
-73.1267783786
 10
1412.1891641864
 20
-80.511831618
 10
1414.6281846556
 20
-88.2194192544
 10
1416.4177630023
 20
-96.0996571675
 10
1417.7309776816
 20
-105.1697976497
  0
LWPOLYLINE
  5
213
330
1F
100
AcDbEntity
  8
0
  6
Continuous
 62
     8
370
    25
100
AcDbPolyline
 90
       46
 70
   128
 43
0.0
 10
544.8135053891
 20
-1005.1852999138
 10
545.1120002754
 20
-1004.2932406916
 10
552.3369274077
 20
-985.6715613489
 10
560.5084993961
 20
-966.9229517985
 10
569.2972369982
 20
-948.4114576688
 10
578.6686868481
 20
-930.1517828466
 10
588.5883955797
 20
-912.1586312189
 10
597.1055152697
 20
-897.6189106229
 10
606.0402631225
 20
-883.2747768036
 10
615.4566897533
 20
-869.2200491924
 10
625.4188457775
 20
-855.5485472205
 10
635.9907818102
 20
-842.3540903191
 10
642.3167221393
 20
-835.1042800159
 10
648.9460581051
 20
-828.0916547494
 10
655.8988931162
 20
-821.4306051913
 10
663.1953305814
 20
-815.2355220132
 10
670.8554739094
 20
-809.620795887
 10
677.5194890355
 20
-805.4858103766
 10
684.4656442959
 20
-801.9071971931
 10
691.6221900323
 20
-798.9923901377
 10
698.9173765868
 20
-796.8488230111
 10
706.5533465079
 20
-795.5395613805
 10
714.2453683007
 20
-795.1992746413
 10
721.8362249053
 20
-795.8915190806
 10
728.0886208097
 20
-797.3363822286
 10
734.1706284856
 20
-799.5484457412
 10
739.9992541612
 20
-802.4526639451
 10
745.1879163954
 20
-805.7344673389
 10
750.1206811112
 20
-809.5141141369
 10
754.7463781276
 20
-813.7298298312
 10
759.710634643
 20
-819.1258893857
 10
764.2213973804
 20
-824.9952517094
 10
768.2361740926
 20
-831.2439800695
 10
771.3998379392
 20
-837.125283195
 10
774.1359624205
 20
-843.2447182035
 10
776.4068189516
 20
-849.5507132942
 10
778.6397352699
 20
-858.3001176352
 10
779.9833336341
 20
-867.2689114199
 10
780.6025854725
 20
-876.3659672765
 10
780.6624622135
 20
-885.5001578336
 10
780.3279352854
 20
-894.5803557194
 10
778.9881488106
 20
-912.8774921478
 10
777.0090688524
 20
-931.1162491355
 10
774.5463409701
 20
-949.2938629984
 10
771.7556107227
 20
-967.4075700525
 10
770.2858501577
 20
-975.9601847029
  0
LWPOLYLINE
  5
214
330
1F
100
AcDbEntity
  8
0
  6
Continuous
 62
     8
370
    25
100
AcDbPolyline
 90
        3
 70
   128
 43
0.0
 10
1319.6822174438
 20
-436.4923467153
 10
1338.7074647573
 20
-373.9863771969
 10
1348.992334753
 20
-339.4082031972
  0
LWPOLYLINE
  5
215
330
1F
100
AcDbEntity
  8
0
  6
Continuous
 62
     8
370
    25
100
AcDbPolyline
 90
      111
 70
   128
 43
0.0
 10
1397.6416299265
 20
-153.3965909566
 10
1399.5494041073
 20
-141.8015658414
 10
1401.0359031465
 20
-130.6917378563
 10
1402.102956813
 20
-119.5135306025
 10
1402.5570137416
 20
-108.3113102914
 10
1402.2045225673
 20
-97.1294431344
 10
1401.4827403674
 20
-90.3578837312
 10
1400.2082732799
 20
-83.6669036499
 10
1398.2250758155
 20
-77.1939574063
 10
1396.727443307
 20
-73.7015732318
 10
1394.9030551739
 20
-70.3719655317
 10
1392.7327668359
 20
-67.2924115682
 10
1389.5596446623
 20
-63.9624685885
 10
1385.8807376091
 20
-61.2571387961
 10
1382.8045986346
 20
-59.6981647286
 10
1379.5447936734
 20
-58.5618717238
 10
1376.1893945989
 20
-57.8402047822
 10
1371.2023092021
 20
-57.4654255165
 10
1366.2036531688
 20
-57.7518829761
 10
1358.6968423503
 20
-59.0700933837
 10
1351.3213753945
 20
-61.1532420771
 10
1344.1056107732
 20
-63.7786991029
 10
1333.7992105022
 20
-68.3453355908
 10
1323.8232949367
 20
-73.7094532208
 10
1315.8855972144
 20
-78.7221419546
 10
1308.2344265593
 20
-84.3011082573
 10
1300.9414564529
 20
-90.4147547808
 10
1294.0783603764
 20
-97.031484177
 10
1287.7168118112
 20
-104.1196990977
 10
1280.8191564621
 20
-112.9763114622
 10
1272.7630700101
 20
-124.8314275167
 10
1265.4282587688
 20
-137.1825914023
 10
1258.7152526904
 20
-149.9127705913
 10
1252.524581727
 20
-162.9049325559
 10
1246.7567758309
 20
-176.0420447684
 10
1240.4365575822
 20
-191.4707754497
 10
1234.439599356
 20
-207.0124398527
 10
1228.6613624721
 20
-222.6159922216
 10
1220.1916861997
 20
-246.0370133737
 10
1211.5985752671
 20
-269.3601869483
 10
1208.0352776064
 20
-278.7256285816
 10
1204.3312093954
 20
-288.0478569902
 10
1200.3339850789
 20
-297.2217332336
 10
1195.8912191016
 20
-306.1421183714
 10
1190.8505259084
 20
-314.7038734634
 10
1188.1088980425
 20
-318.6641494266
 10
1185.0504008237
 20
-322.3869539441
 10
1181.6112882339
 20
-325.7345908208
 10
1179.1293212342
 20
-327.649875177
 10
1176.4609604763
 20
-329.3078065323
 10
1172.0256471945
 20
-331.3166895226
 10
1167.3224537432
 20
-332.7790140947
 10
1162.5106680125
 20
-333.864996383
 10
1158.190244062
 20
-334.6442691253
 10
1153.8755717613
 20
-335.3624127401
 10
1147.2001556411
 20
-336.3500921375
 10
1140.8056052114
 20
-336.8200444071
 10
1134.4545787769
 20
-336.8883248922
 10
1128.1738998573
 20
-336.7378375033
 10
1113.8107587337
 20
-336.26419669
 10
1103.9434800442
 20
-336.090118859
 10
1094.1471720337
 20
-336.1120265023
 10
1080.1026227859
 20
-336.5019376596
 10
1066.0874285792
 20
-337.2817238151
 10
1051.9762674088
 20
-338.4038759987
 10
1037.7822617642
 20
-339.9484010784
 10
1023.4937994726
 20
-342.0814765481
 10
1016.9112741281
 20
-343.3104539854
 10
1010.2936412691
 20
-344.8133352788
 10
1003.7316923533
 20
-346.7082902054
 10
997.3162188386
 20
-349.113488542
 10
991.1380121831
 20
-352.1471000659
 10
985.5045768578
 20
-355.8208649561
 10
980.3282047573
 20
-360.2170840565
 10
975.7320012987
 20
-365.2085745326
 10
974.0746216714
 20
-367.3349706531
 10
969.4972968886
 20
-374.0321893422
 10
965.4261373018
 20
-381.074237162
 10
961.7540544244
 20
-388.3505553809
 10
958.3739597699
 20
-395.7505852677
 10
952.012170138
 20
-411.1357834736
 10
946.2056067371
 20
-426.7376330327
 10
940.7373849127
 20
-442.4481526159
 10
931.1933663147
 20
-471.0149063273
 10
921.9313704199
 20
-499.6275498769
 10
912.7872994777
 20
-528.2169241014
 10
903.5970557377
 20
-556.7138698377
 10
891.1246818849
 20
-594.4963096058
 10
878.3707523231
 20
-632.0554564823
 10
865.2701738124
 20
-669.3822333001
 10
855.0371462456
 20
-697.542408696
 10
844.6080799947
 20
-725.644965196
 10
834.1320336501
 20
-753.7938766197
 10
823.7580658024
 20
-782.0931167868
 10
819.7510392363
 20
-792.8057280985
 10
815.6277719442
 20
-803.5242322419
 10
811.5991399856
 20
-814.2967569065
 10
807.8760194202
 20
-825.1714297812
 10
804.6692863075
 20
-836.1963785554
 10
802.1898167069
 20
-847.4197309182
 10
801.4475958068
 20
-853.0232647637
 10
801.3267460919
 20
-858.6712059578
 10
801.5616745223
 20
-861.6945469905
 10
802.7235701422
 20
-868.2873433134
 10
804.5717105206
 20
-874.733339232
 10
806.8990988176
 20
-881.0563708986
 10
809.4987381928
 20
-887.2802744654
 10
812.1636318064
 20
-893.4288860849
 10
822.3331709189
 20
-917.4161719557
 10
832.1938864187
 20
-941.435188439
 10
833.9368995967
 20
-945.8599004188
  0
LWPOLYLINE
  5
216
330
1F
100
AcDbEntity
  8
0
  6
Continuous
 62
     8
370
    25
100
AcDbPolyline
 90
       43
 70
   128
 43
0.0
 10
742.0543850299
 20
-979.6194708197
 10
746.5157663761
 20
-962.0133675912
 10
752.7554684678
 20
-938.8492894871
 10
759.1650947166
 20
-915.7174060757
 10
765.4189172766
 20
-892.5236311267
 10
766.9724277798
 20
-886.4339676466
 10
768.3475704698
 20
-880.2875032251
 10
769.3591924549
 20
-874.0884137566
 10
769.8221408429
 20
-867.8408751358
 10
769.5546051253
 20
-862.258424991
 10
768.5594611748
 20
-856.7350199011
 10
766.8858168116
 20
-851.4088558094
 10
764.4746398981
 20
-845.9919180519
 10
761.5812374654
 20
-840.8163487447
 10
758.3203133652
 20
-835.8971348228
 10
754.5879807123
 20
-831.0251319808
 10
750.5122331061
 20
-826.4714397131
 10
746.0978931293
 20
-822.3283423219
 10
742.4394606222
 20
-819.4668388012
 10
738.5514310906
 20
-816.9721718605
 10
734.4598494251
 20
-814.9364779004
 10
730.0533257795
 20
-813.4206163205
 10
725.4855218307
 20
-812.4989025182
 10
720.8587312563
 20
-812.1473220268
 10
714.9788049355
 20
-812.4689078978
 10
709.1337184859
 20
-813.5883047264
 10
703.4521375697
 20
-815.4543154877
 10
697.2027248691
 20
-818.4768474913
 10
691.2968533866
 20
-822.3246733076
 10
685.8303899287
 20
-826.833404188
 10
683.3179041181
 20
-829.2479345916
 10
677.8694648494
 20
-835.2215180313
 10
672.8529247081
 20
-841.6186942192
 10
668.1802875501
 20
-848.3243881675
 10
663.7635572311
 20
-855.2235248887
 10
659.5147376072
 20
-862.2010293949
 10
649.6738537704
 20
-879.2558752897
 10
640.348902515
 20
-896.5963280437
 10
631.4017456196
 20
-914.123685459
 10
622.694244863
 20
-931.7392453373
 10
611.2253258007
 20
-955.4647828479
 10
600.0028287216
 20
-979.2758428742
 10
590.8217802391
 20
-999.221831824
  0
LWPOLYLINE
  5
217
330
1F
100
AcDbEntity
  8
0
  6
Continuous
 62
     8
370
    25
100
AcDbPolyline
 90
       72
 70
   128
 43
0.0
 10
464.8076944032
 20
840.6269562474
 10
464.8936837145
 20
840.6084016146
 10
473.5362503642
 20
839.1584638659
 10
482.2699089335
 20
838.4177648113
 10
491.0419757694
 20
838.2609462805
 10
499.7997672189
 20
838.5626501034
 10
508.490599629
 20
839.1975181097
 10
517.0617893468
 20
840.0401921293
 10
530.42517197
 20
841.8060622479
 10
543.6173544575
 20
844.2607823453
 10
556.6089799582
 20
847.4347922493
 10
566.5238024198
 20
850.418742366
 10
576.3069524943
 20
853.9114409219
 10
585.9083888367
 20
857.9476260811
 10
595.2780701017
 20
862.5620360076
 10
603.8909362884
 20
867.5145077094
 10
612.2384080593
 20
873.0641563668
 10
620.2561203795
 20
879.1757069933
 10
627.879708214
 20
885.8138846023
 10
635.0448065277
 20
892.9434142072
 10
643.3133466469
 20
902.464884789
 10
650.9138191919
 20
912.5991819647
 10
657.8730739362
 20
923.2135059082
 10
664.2179606537
 20
934.1750567938
 10
671.1248483117
 20
947.6872186465
 10
677.4439738051
 20
961.4862316646
 10
683.3746894656
 20
975.4549488537
 10
689.1163476251
 20
989.4762232194
 10
700.4983698932
 20
1017.7165058252
 10
711.8465320352
 20
1045.8966547181
 10
718.5545300858
 20
1062.3383071122
 10
725.4173357655
 20
1078.711292612
 10
732.6251354704
 20
1094.904761422
 10
740.3681155964
 20
1110.8078637466
 10
748.8364625393
 20
1126.3097497901
 10
752.8214486959
 20
1132.8734370892
 10
757.1228670532
 20
1139.2374624394
 10
761.8420268061
 20
1145.2872742655
 10
765.1945393694
 20
1148.9862063215
 10
768.8418547997
 20
1152.4118952512
 10
772.8162206012
 20
1155.4410420515
 10
777.805046861
 20
1158.2465006762
 10
783.1976226814
 20
1160.2129979026
 10
789.8075964804
 20
1161.6931653368
 10
796.4852422338
 20
1162.7361858614
 10
803.0997677805
 20
1163.5522640914
 10
810.5260815181
 20
1164.0964688968
 10
817.8361260444
 20
1163.970296579
 10
824.9397368749
 20
1163.1779442233
 10
833.0281536403
 20
1161.544030086
 10
840.8865027395
 20
1159.4044448059
 10
848.5758719544
 20
1156.9238848899
 10
856.1573490666
 20
1154.267046845
 10
863.692021858
 20
1151.5986271782
 10
874.1527450004
 20
1148.0659609093
 10
884.787173392
 20
1144.9102207488
 10
895.7010242272
 20
1142.4347191291
 10
902.4941207981
 20
1141.4153122799
 10
909.4367536155
 20
1140.9283096536
 10
916.4731792592
 20
1141.1432639771
 10
921.7061901557
 20
1141.8670013228
 10
926.9157157423
 20
1143.1431816504
 10
931.995528698
 20
1145.0061904375
 10
936.8909278235
 20
1147.4932065744
 10
941.542321646
 20
1150.5415470422
 10
945.8813638719
 20
1154.0554897828
 10
950.390430268
 20
1158.4794312718
 10
954.5406701831
 20
1163.2943407866
 10
958.3632098285
 20
1168.4026760538
 10
961.8891754151
 20
1173.7068948002
 10
968.0623224165
 20
1184.3426079987
 10
970.546623674
 20
1189.2950987964
  0
LWPOLYLINE
  5
218
330
1F
100
AcDbEntity
  8
0
  6
Continuous
 62
     8
370
    25
100
AcDbPolyline
 90
       28
 70
   128
 43
0.0
 10
1104.1922571304
 20
-645.7676442283
 10
1107.5423011593
 20
-632.9760150229
 10
1112.2619728709
 20
-615.7590195263
 10
1117.1677291125
 20
-598.5837727719
 10
1122.4080078533
 20
-581.5157867155
 10
1128.1312470627
 20
-564.6205733127
 10
1134.4858847102
 20
-547.9636445191
 10
1137.5338249654
 20
-540.7630499196
 10
1140.8911445342
 20
-533.7015277877
 10
1144.7059600616
 20
-526.8923553553
 10
1147.19362033
 20
-523.120338981
 10
1150.0240872869
 20
-519.593922152
 10
1153.3094030512
 20
-516.5337070878
 10
1156.086323794
 20
-514.7929253789
 10
1159.1284276124
 20
-513.5349790997
 10
1162.5198063673
 20
-512.589040009
 10
1167.1240712093
 20
-511.7785548654
 10
1170.2197660585
 20
-511.483439014
 10
1173.2988328367
 20
-511.3989480358
 10
1176.2244995234
 20
-511.5609455299
 10
1179.8704381697
 20
-512.2082138731
 10
1184.0839529061
 20
-513.796682118
 10
1187.9019481415
 20
-516.168407889
 10
1192.1276231057
 20
-519.9494829402
 10
1195.8363169198
 20
-524.3081332167
 10
1199.1543535971
 20
-529.0358639242
 10
1202.2080571511
 20
-533.9241802687
 10
1206.0077279035
 20
-540.5313691934
  0
LWPOLYLINE
  5
219
330
1F
100
AcDbEntity
  8
0
  6
Continuous
 62
     8
370
    25
100
AcDbPolyline
 90
      106
 70
   128
 43
0.0
 10
-903.4133272666
 20
-257.9405319427
 10
-899.5570777172
 20
-255.7813206946
 10
-894.5052818961
 20
-252.6072801424
 10
-889.7439184822
 20
-249.0455721245
 10
-885.4360879092
 20
-244.9826456314
 10
-881.7143429753
 20
-240.4089925911
 10
-878.515400506
 20
-235.4401713147
 10
-875.7346184585
 20
-230.1783392593
 10
-873.2673547901
 20
-224.7256538824
 10
-871.008967458
 20
-219.1842726411
 10
-868.8548144196
 20
-213.6563529928
 10
-861.3291697172
 20
-193.8793534066
 10
-854.0465116138
 20
-174.0747116894
 10
-846.8791723621
 20
-154.2955856033
 10
-836.1728481816
 20
-124.5667514904
 10
-825.5280913325
 20
-94.9058741659
 10
-814.8177260901
 20
-65.3087986296
 10
-803.9145767293
 20
-35.771369881
 10
-792.6914675253
 20
-6.28943292
 10
-779.1449145154
 20
28.1748875382
 10
-765.3072498718
 20
62.6500327826
 10
-751.2736111161
 20
97.1597343695
 10
-743.0620441265
 20
117.1442346042
 10
-734.856733453
 20
137.1727039922
 10
-726.8292054813
 20
157.2981869334
 10
-719.1509865975
 20
177.5737278277
 10
-711.9936031877
 20
198.0523710749
 10
-709.1525376466
 20
206.888318438
 10
-706.5615369786
 20
215.812963295
 10
-704.3588844702
 20
224.8320867653
 10
-702.6828634077
 20
233.9514699685
 10
-701.9841430853
 20
239.8783330347
 10
-701.7083995672
 20
245.8602100783
 10
-701.9612856566
 20
251.815448677
 10
-702.8484541568
 20
257.6623964085
 10
-704.3443162378
 20
263.0965640863
 10
-706.3892636509
 20
268.3458400469
 10
-708.8765633364
 20
273.3765972525
 10
-711.6994822343
 20
278.155208665
 10
-716.8960853869
 20
285.7026477129
 10
-722.5033100388
 20
292.8389321429
 10
-728.4056300344
 20
299.6413863455
 10
-734.4875192184
 20
306.1873347112
 10
-740.6334514353
 20
312.5541016308
 10
-751.2649552477
 20
323.1797524594
 10
-762.139048222
 20
333.4537106266
 10
-773.3164561305
 20
343.404180482
 10
-781.4484205127
 20
350.1747711058
 10
-789.8045898506
 20
356.8193983367
 10
-798.2813879506
 20
363.5191384774
 10
-806.7752386188
 20
370.4550678308
 10
-812.6845932975
 20
375.8075274297
 10
-817.8705695134
 20
381.4144866197
 10
-823.3060168596
 20
387.7898708111
 10
-826.9005654271
 20
392.3345211067
 10
-830.0924349049
 20
397.1431827324
 10
-832.4491965496
 20
402.1005049898
 10
-833.9231808819
 20
407.3545637799
 10
-834.4325659498
 20
411.4422822094
 10
-834.52323355
 20
415.5725143594
 10
-834.286221021
 20
419.6944463605
 10
-832.8390265757
 20
430.187375792
 10
-830.5410364974
 20
440.5579805067
 10
-827.5952672698
 20
450.8253099094
 10
-824.2047353763
 20
461.0084134046
 10
-820.5724573005
 20
471.126340397
 10
-816.9014495259
 20
481.1981402911
 10
-809.669383313
 20
501.031338043
 10
-802.4202346302
 20
520.8953785924
 10
-795.3778169243
 20
540.8640830078
 10
-790.3290782889
 20
556.0333663124
 10
-785.6233200165
 20
571.3392465549
 10
-781.4039973526
 20
586.7923756299
 10
-777.8145655426
 20
602.4034054319
 10
-775.6934249039
 20
613.7842863175
 10
-774.0642864554
 20
625.2903398445
 10
-773.0615553791
 20
636.8521469278
 10
-772.8196368575
 20
648.4002884825
 10
-773.4729360726
 20
659.8653454236
 10
-775.0264730847
 20
670.6100758724
 10
-777.4468308449
 20
681.1646514184
 10
-780.6330190938
 20
691.4421751529
 10
-783.8565666839
 20
699.8769361332
 10
-787.5672640499
 20
708.0795721811
 10
-791.7753497418
 20
715.9917030976
 10
-795.1868346632
 20
721.5719042721
 10
-798.9602614941
 20
726.901911619
 10
-803.1806174449
 20
731.8478012503
 10
-806.9998377466
 20
735.4211321499
 10
-811.2738661658
 20
738.424451774
 10
-815.246734476
 20
740.3587544224
 10
-819.4960830546
 20
741.6179569007
 10
-823.9612715901
 20
742.0951429351
 10
-828.4724288386
 20
741.7832781365
 10
-833.6921890987
 20
740.4706512815
 10
-838.6756240895
 20
738.3393728896
 10
-842.8874679863
 20
735.9017729508
 10
-846.8787041233
 20
733.077988368
 10
-850.6521821026
 20
729.9682378051
 10
-857.6850052023
 20
723.1736678425
 10
-864.1475443815
 20
715.7954022429
 10
-870.1331882008
 20
707.9782248651
 10
-875.7353252211
 20
699.8669195677
 10
-881.047344003
 20
691.6062702096
 10
-889.8246297289
 20
676.9646910383
 10
-891.7724263917
 20
673.449778754
  0
LWPOLYLINE
  5
21A
330
1F
100
AcDbEntity
  8
0
  6
Continuous
 62
     8
370
    25
100
AcDbPolyline
 90
       40
 70
   128
 43
0.0
 10
-1057.7333566114
 20
244.1624026692
 10
-1056.8266514936
 20
243.5451533287
 10
-1054.6290971535
 20
242.5599272176
 10
-1053.1115677215
 20
242.1037988181
 10
-1049.7121713762
 20
241.5421551333
 10
-1046.2462726045
 20
241.4531278242
 10
-1042.792392451
 20
241.7084273738
 10
-1035.3432345018
 20
243.006113328
 10
-1028.0235684548
 20
245.0121155777
 10
-1020.8295806193
 20
247.4306335446
 10
-1006.4100218189
 20
252.9145523271
 10
-992.0748544139
 20
258.5713153581
 10
-986.2519736386
 20
260.7834377474
 10
-980.3446257092
 20
262.8575791775
 10
-974.3635394561
 20
264.5775457313
 10
-968.3194437095
 20
265.7271434919
 10
-962.2230673
 20
266.0901785419
 10
-957.731124259
 20
265.6357886264
 10
-954.6771117914
 20
264.8038426163
 10
-951.7630052236
 20
263.536028306
 10
-949.3818004415
 20
262.1098498267
 10
-947.0475852086
 20
260.3686122095
 10
-944.9316305974
 20
258.5098477527
 10
-942.8791247122
 20
256.4619775852
 10
-940.0735841308
 20
253.2248831009
 10
-937.702364396
 20
249.9403207658
 10
-935.835281304
 20
246.3734930276
 10
-935.276019036
 20
244.7256142388
 10
-934.5200053893
 20
240.5019018213
 10
-934.4415365639
 20
236.1751293525
 10
-934.8088411103
 20
231.8677845435
 10
-935.7280659488
 20
226.1344295328
 10
-938.6496025531
 20
213.8103844926
 10
-942.4067087596
 20
201.6942888404
 10
-946.7749989608
 20
189.7476451023
 10
-951.530087549
 20
177.9319558047
 10
-956.4475889166
 20
166.2087234735
 10
-972.7834318355
 20
128.7196832467
 10
-990.0147535891
 20
91.6044281971
 10
-1006.2374999988
 20
58.6209669515
  0
LWPOLYLINE
  5
21B
330
1F
100
AcDbEntity
  8
0
  6
Continuous
 62
     8
370
    25
100
AcDbPolyline
 90
       96
 70
   128
 43
0.0
 10
1300.3584029228
 20
818.1982499408
 10
1294.7780050282
 20
810.5952888381
 10
1288.9375435963
 20
803.1877267609
 10
1283.4997459984
 20
796.796357187
 10
1277.7735635395
 20
790.6228127878
 10
1271.7350169783
 20
784.7730884008
 10
1265.360127074
 20
779.3531788639
 10
1258.6249145853
 20
774.4690790145
 10
1252.721386028
 20
770.9133083841
 10
1246.5364420682
 20
767.9294509918
 10
1240.1407070419
 20
765.6504618781
 10
1233.4522723245
 20
764.1777640822
 10
1226.6711879673
 20
763.5805247502
 10
1219.9618711235
 20
763.8476731502
 10
1212.8074482122
 20
765.0493183498
 10
1205.8388758386
 20
766.9718826495
 10
1196.58001972
 20
770.2611092942
 10
1190.6949000829
 20
772.2893449969
 10
1187.6204909559
 20
773.0814419391
 10
1184.4475032237
 20
773.3996056162
 10
1183.103375517
 20
773.2863762991
 10
1181.7880337882
 20
772.9421447854
 10
1179.9009054295
 20
771.7966911185
 10
1178.7681943949
 20
770.5512010331
 10
1177.8296120331
 20
769.1447172286
 10
1175.3050323431
 20
764.4235205
 10
1173.1379566416
 20
759.5258707002
 10
1171.1317076771
 20
754.5666041097
 10
1163.5479969813
 20
734.6935332725
 10
1156.4571468972
 20
714.6705311614
 10
1149.5116528278
 20
694.6165918581
 10
1135.6750018825
 20
655.3981123871
 10
1121.5615347185
 20
616.2638661981
 10
1107.1666113737
 20
577.2032658316
 10
1092.4855918862
 20
538.2057238281
 10
1077.5138362941
 20
499.2606527283
 10
1062.2467046352
 20
460.3574650724
 10
1048.3626627672
 20
425.4611599598
 10
1034.5607641165
 20
390.4784934042
 10
1026.3122564976
 20
368.9959128784
 10
1018.5074516841
 20
347.3349781714
 10
1015.6590734014
 20
338.9317400531
 10
1012.9707308268
 20
330.4460199857
 10
1010.6286403887
 20
321.8719414373
 10
1008.8190185154
 20
313.2036278757
 10
1007.7280816353
 20
304.4352027692
 10
1007.5555665324
 20
300.1883830505
 10
1007.7606876058
 20
295.9411226122
 10
1008.4667191318
 20
291.7764038749
 10
1009.1999776874
 20
289.3184662154
 10
1010.1998400717
 20
286.9655622509
 10
1011.9085334001
 20
284.1792643971
 10
1014.0628914956
 20
281.7488253592
 10
1016.9551283357
 20
279.5202181551
 10
1021.1952747382
 20
277.4488733791
 10
1025.7228761225
 20
276.1801427742
 10
1029.1835697695
 20
275.6546988311
 10
1036.210436709
 20
275.2336211095
 10
1043.223479576
 20
275.3966670359
 10
1050.1959866735
 20
275.9660029855
 10
1057.1012463044
 20
276.7637953336
 10
1072.1381240636
 20
278.9550768395
 10
1087.005086166
 20
281.8010647978
 10
1101.7404983189
 20
285.3517245595
 10
1110.9792004857
 20
288.0406434412
 10
1120.1265453336
 20
291.342759781
 10
1125.9702411383
 20
293.964844063
 10
1131.6160124407
 20
297.1668235229
 10
1134.0252125041
 20
298.8435404611
 10
1136.2952492421
 20
300.7490867936
 10
1138.2906022835
 20
302.9300219999
 10
1141.9278807115
 20
308.2104897038
 10
1145.0494741012
 20
313.790471104
 10
1147.8364188453
 20
319.5566139278
 10
1150.4697513361
 20
325.3955659023
 10
1153.130507966
 20
331.1939747551
 10
1162.0955459527
 20
349.8092722332
 10
1171.3026166388
 20
368.3621018459
 10
1180.8401082091
 20
386.788988903
 10
1190.7964088488
 20
405.0264587142
 10
1201.2599067426
 20
423.0110365893
 10
1212.3189900757
 20
440.6792478381
 10
1220.6381829539
 20
453.102064431
 10
1229.3399781174
 20
465.3241939278
 10
1238.45016878
 20
477.2679274922
 10
1247.9945481552
 20
488.8555562879
 10
1257.9989094568
 20
500.0093714786
 10
1268.4890458984
 20
510.6516642278
 10
1279.4943427341
 20
520.6657520624
 10
1291.0035036354
 20
530.0564864506
 10
1302.9231732026
 20
538.8723949009
 10
1315.159996036
 20
547.1620049217
 10
1327.6206167359
 20
554.9738440214
 10
1340.2116799025
 20
562.3564397084
 10
1356.6852790214
 20
571.4922734748
 10
1358.7637655315
 20
572.5764413267
  0
LWPOLYLINE
  5
21C
330
1F
100
AcDbEntity
  8
0
  6
Continuous
 62
     8
370
    25
100
AcDbPolyline
 90
       38
 70
   128
 43
0.0
 10
-824.6851649284
 20
-524.0656641932
 10
-814.9999108072
 20
-490.3244509224
 10
-805.8264707099
 20
-456.4137552583
 10
-797.0775925773
 20
-422.3458491334
 10
-792.9052458427
 20
-405.683222112
 10
-788.8335182879
 20
-388.9509628412
 10
-785.0143465578
 20
-372.1441608768
 10
-781.5996672976
 20
-355.2579057746
 10
-778.741417152
 20
-338.2872870904
 10
-776.5915327663
 20
-321.2273943801
 10
-775.9225648218
 20
-313.1018719538
 10
-775.6920002491
 20
-304.9392493504
 10
-776.0940239329
 20
-296.8447307986
 10
-777.322820758
 20
-288.9235205271
 10
-778.6868925857
 20
-283.7834683636
 10
-780.50656046
 20
-278.8158412391
 10
-782.7856066927
 20
-274.1060301395
 10
-786.1422137813
 20
-268.8593567302
 10
-789.9036617212
 20
-264.3992411387
 10
-794.2179404277
 20
-260.4877273129
 10
-799.014646674
 20
-257.2566141865
 10
-803.5622880855
 20
-255.1059956196
 10
-808.4010209884
 20
-253.6158287597
 10
-814.378298295
 20
-252.6685162414
 10
-820.4910023274
 20
-252.4746250098
 10
-825.969273673
 20
-252.8325504431
 10
-831.4477051037
 20
-253.6223863024
 10
-836.8800630731
 20
-254.7938353619
 10
-843.7974829567
 20
-256.8150658782
 10
-850.5321618528
 20
-259.4966054
 10
-856.8841726219
 20
-262.9603014651
 10
-861.4825216655
 20
-266.3934440862
 10
-865.6028842929
 20
-270.4379080015
 10
-869.1789792359
 20
-274.9451656004
 10
-872.9955813653
 20
-281.0227795872
 10
-876.3720263272
 20
-287.3601234663
 10
-883.5758051958
 20
-302.2011218374
 10
-887.512193111
 20
-310.7954677918
  0
LWPOLYLINE
  5
21D
330
1F
100
AcDbEntity
  8
0
  6
Continuous
 62
     8
370
    25
100
AcDbPolyline
 90
        3
 70
   128
 43
0.0
 10
-898.710773073
 20
-335.5426697093
 10
-904.0519436825
 20
-347.2062890461
 10
-914.3074847499
 20
-368.8352527703
  0
LWPOLYLINE
  5
21E
330
1F
100
AcDbEntity
  8
0
  6
Continuous
 62
     8
370
    25
100
AcDbPolyline
 90
       19
 70
   128
 43
0.0
 10
1192.9613909027
 20
-547.618008898
 10
1189.454231023
 20
-541.4263844397
 10
1185.9779481096
 20
-535.1607167509
 10
1182.3957549477
 20
-528.949300575
 10
1178.4863690227
 20
-522.9448563358
 10
1176.8004711557
 20
-520.7045537511
 10
1174.8284668215
 20
-518.734951611
 10
1173.6791438323
 20
-518.0235195221
 10
1172.9317884196
 20
-517.8274645296
 10
1172.269304008
 20
-517.8889253333
 10
1171.6867503664
 20
-518.1709244143
 10
1170.8812792728
 20
-518.976484079
 10
1170.2696453971
 20
-519.9295736124
 10
1168.9084880234
 20
-522.9732660179
 10
1167.083612423
 20
-528.2133208021
 10
1165.4911953051
 20
-533.528761679
 10
1162.5665006642
 20
-544.238258153
 10
1159.8498195798
 20
-554.9987164719
 10
1150.4581861637
 20
-594.3938355643
  0
ENDSEC
  0
SECTION
  2
OBJECTS
  0
DICTIONARY
  5
C
330
0
100
AcDbDictionary
281
     1
  3
ACAD_GROUP
350
D
  3
ACAD_LAYOUT
350
1A
  3
ACAD_MLINESTYLE
350
17
  3
ACAD_PLOTSETTINGS
350
19
  3
ACAD_PLOTSTYLENAME
350
E
  3
ACAD_SCALELIST
350
47
  3
DWGPROPS
350
21F
  0
DICTIONARY
  5
D
102
{ACAD_REACTORS
330
C
102
}
330
C
100
AcDbDictionary
281
     1
  0
DICTIONARY
  5
1A
102
{ACAD_REACTORS
330
C
102
}
330
C
100
AcDbDictionary
281
     1
  3
Layout1
350
1E
  3
Layout2
350
26
  3
Model
350
22
  0
DICTIONARY
  5
17
102
{ACAD_REACTORS
330
C
102
}
330
C
100
AcDbDictionary
281
     1
  3
Standard
350
18
  0
DICTIONARY
  5
19
102
{ACAD_REACTORS
330
C
102
}
330
C
100
AcDbDictionary
281
     1
  0
ACDBDICTIONARYWDFLT
  5
E
102
{ACAD_REACTORS
330
C
102
}
330
C
100
AcDbDictionary
281
     1
  3
Normal
350
F
100
AcDbDictionaryWithDefault
340
F
  0
DICTIONARY
  5
47
102
{ACAD_REACTORS
330
C
102
}
330
C
100
AcDbDictionary
281
     1
  3
A0
350
48
  3
A1
350
49
  3
A2
350
4A
  3
A3
350
4B
  3
A4
350
4C
  3
A5
350
4D
  3
A6
350
4E
  3
A7
350
4F
  3
A8
350
50
  3
A9
350
51
  3
B0
350
52
  3
B1
350
53
  3
B2
350
54
  3
B3
350
55
  3
B4
350
56
  3
B5
350
57
  3
B6
350
58
  3
B7
350
59
  3
B8
350
5A
  3
B9
350
5B
  3
C0
350
5C
  3
C1
350
5D
  3
C2
350
5E
  3
C3
350
5F
  3
C4
350
60
  3
C5
350
61
  3
C6
350
62
  3
C7
350
63
  3
C8
350
64
  3
C9
350
65
  3
D0
350
66
  3
D1
350
67
  3
D2
350
68
  0
XRECORD
  5
21F
102
{ACAD_REACTORS
330
C
102
}
330
C
100
AcDbXrecord
280
     1
  1
DWGPROPS COOKIE
  2

  3

  4

  6

  7

  8
Swing
  9

300
=
301
=
302
=
303
=
304
=
305
=
306
=
307
=
308
=
309
=
 40
0.0
 41
2459629.332062905
 42
2459629.332063137
  1

 90
        0
  0
LAYOUT
  5
1E
102
{ACAD_REACTORS
330
1A
102
}
330
1A
100
AcDbPlotSettings
  1

  2
none_device
  4

  6

 40
0.0
 41
0.0
 42
0.0
 43
0.0
 44
0.0
 45
0.0
 46
0.0
 47
0.0
 48
0.0
 49
0.0
140
0.0
141
0.0
142
1.0
143
1.0
 70
   688
 72
     1
 73
     0
 74
     5
  7

 75
    16
147
1.0
148
0.0
149
0.0
100
AcDbLayout
  1
Layout1
 70
     1
 71
     1
 10
0.0
 20
0.0
 11
420.0
 21
297.0
 12
0.0
 22
0.0
 32
0.0
 14
1.0000000000E+20
 24
1.0000000000E+20
 34
1.0000000000E+20
 15
-1.0000000000E+20
 25
-1.0000000000E+20
 35
-1.0000000000E+20
146
0.0
 13
0.0
 23
0.0
 33
0.0
 16
1.0
 26
0.0
 36
0.0
 17
0.0
 27
1.0
 37
0.0
 76
     0
330
1B
  0
LAYOUT
  5
26
102
{ACAD_REACTORS
330
1A
102
}
330
1A
100
AcDbPlotSettings
  1

  2
none_device
  4

  6

 40
0.0
 41
0.0
 42
0.0
 43
0.0
 44
0.0
 45
0.0
 46
0.0
 47
0.0
 48
0.0
 49
0.0
140
0.0
141
0.0
142
1.0
143
1.0
 70
   688
 72
     1
 73
     0
 74
     5
  7

 75
    16
147
1.0
148
0.0
149
0.0
100
AcDbLayout
  1
Layout2
 70
     1
 71
     2
 10
0.0
 20
0.0
 11
0.0
 21
0.0
 12
0.0
 22
0.0
 32
0.0
 14
0.0
 24
0.0
 34
0.0
 15
0.0
 25
0.0
 35
0.0
146
0.0
 13
0.0
 23
0.0
 33
0.0
 16
1.0
 26
0.0
 36
0.0
 17
0.0
 27
1.0
 37
0.0
 76
     0
330
23
  0
LAYOUT
  5
22
102
{ACAD_REACTORS
330
1A
102
}
330
1A
100
AcDbPlotSettings
  1

  2
none_device
  4
Letter_(8.50_x_11.00_Inches)
  6

 40
6.35
 41
6.35
 42
6.35000508
 43
6.35000508
 44
215.9
 45
279.4
 46
0.0
 47
0.0
 48
0.0
 49
0.0
140
0.0
141
0.0
142
1.0
143
1.0
 70
  1712
 72
     1
 73
     0
 74
     0
  7

 75
     0
147
1.0
148
0.0
149
0.0
100
AcDbLayout
  1
Model
 70
     1
 71
     0
 10
0.0
 20
0.0
 11
431.8
 21
279.4
 12
0.0
 22
0.0
 32
0.0
 14
0.0
 24
0.0
 34
0.0
 15
431.8
 25
279.4
 35
0.0
146
0.0
 13
0.0
 23
0.0
 33
0.0
 16
1.0
 26
0.0
 36
0.0
 17
0.0
 27
1.0
 37
0.0
 76
     0
330
1F
331
29
  0
MLINESTYLE
  5
18
102
{ACAD_REACTORS
330
17
102
}
330
17
100
AcDbMlineStyle
  2
Standard
 70
     0
  3

 62
   256
 51
90.0
 52
90.0
 71
     2
 49
0.5
 62
   256
  6
BYLAYER
 49
-0.5
 62
   256
  6
BYLAYER
  0
ACDBPLACEHOLDER
  5
F
102
{ACAD_REACTORS
330
E
102
}
330
E
  0
SCALE
  5
48
102
{ACAD_REACTORS
330
47
102
}
330
47
100
AcDbScale
 70
     0
300
1:1
140
1.0
141
1.0
290
     1
  0
SCALE
  5
49
102
{ACAD_REACTORS
330
47
102
}
330
47
100
AcDbScale
 70
     0
300
1:2
140
1.0
141
2.0
290
     0
  0
SCALE
  5
4A
102
{ACAD_REACTORS
330
47
102
}
330
47
100
AcDbScale
 70
     0
300
1:4
140
1.0
141
4.0
290
     0
  0
SCALE
  5
4B
102
{ACAD_REACTORS
330
47
102
}
330
47
100
AcDbScale
 70
     0
300
1:5
140
1.0
141
5.0
290
     0
  0
SCALE
  5
4C
102
{ACAD_REACTORS
330
47
102
}
330
47
100
AcDbScale
 70
     0
300
1:8
140
1.0
141
8.0
290
     0
  0
SCALE
  5
4D
102
{ACAD_REACTORS
330
47
102
}
330
47
100
AcDbScale
 70
     0
300
1:10
140
1.0
141
10.0
290
     0
  0
SCALE
  5
4E
102
{ACAD_REACTORS
330
47
102
}
330
47
100
AcDbScale
 70
     0
300
1:16
140
1.0
141
16.0
290
     0
  0
SCALE
  5
4F
102
{ACAD_REACTORS
330
47
102
}
330
47
100
AcDbScale
 70
     0
300
1:20
140
1.0
141
20.0
290
     0
  0
SCALE
  5
50
102
{ACAD_REACTORS
330
47
102
}
330
47
100
AcDbScale
 70
     0
300
1:30
140
1.0
141
30.0
290
     0
  0
SCALE
  5
51
102
{ACAD_REACTORS
330
47
102
}
330
47
100
AcDbScale
 70
     0
300
1:40
140
1.0
141
40.0
290
     0
  0
SCALE
  5
52
102
{ACAD_REACTORS
330
47
102
}
330
47
100
AcDbScale
 70
     0
300
1:50
140
1.0
141
50.0
290
     0
  0
SCALE
  5
53
102
{ACAD_REACTORS
330
47
102
}
330
47
100
AcDbScale
 70
     0
300
1:100
140
1.0
141
100.0
290
     0
  0
SCALE
  5
54
102
{ACAD_REACTORS
330
47
102
}
330
47
100
AcDbScale
 70
     0
300
2:1
140
2.0
141
1.0
290
     0
  0
SCALE
  5
55
102
{ACAD_REACTORS
330
47
102
}
330
47
100
AcDbScale
 70
     0
300
4:1
140
4.0
141
1.0
290
     0
  0
SCALE
  5
56
102
{ACAD_REACTORS
330
47
102
}
330
47
100
AcDbScale
 70
     0
300
8:1
140
8.0
141
1.0
290
     0
  0
SCALE
  5
57
102
{ACAD_REACTORS
330
47
102
}
330
47
100
AcDbScale
 70
     0
300
10:1
140
10.0
141
1.0
290
     0
  0
SCALE
  5
58
102
{ACAD_REACTORS
330
47
102
}
330
47
100
AcDbScale
 70
     0
300
100:1
140
100.0
141
1.0
290
     0
  0
SCALE
  5
59
102
{ACAD_REACTORS
330
47
102
}
330
47
100
AcDbScale
 70
     0
300
1/128" = 1'-0"
140
0.0078125
141
12.0
290
     0
  0
SCALE
  5
5A
102
{ACAD_REACTORS
330
47
102
}
330
47
100
AcDbScale
 70
     0
300
1/64" = 1'-0"
140
0.015625
141
12.0
290
     0
  0
SCALE
  5
5B
102
{ACAD_REACTORS
330
47
102
}
330
47
100
AcDbScale
 70
     0
300
1/32" = 1'-0"
140
0.03125
141
12.0
290
     0
  0
SCALE
  5
5C
102
{ACAD_REACTORS
330
47
102
}
330
47
100
AcDbScale
 70
     0
300
1/16" = 1'-0"
140
0.0625
141
12.0
290
     0
  0
SCALE
  5
5D
102
{ACAD_REACTORS
330
47
102
}
330
47
100
AcDbScale
 70
     0
300
3/32" = 1'-0"
140
0.09375
141
12.0
290
     0
  0
SCALE
  5
5E
102
{ACAD_REACTORS
330
47
102
}
330
47
100
AcDbScale
 70
     0
300
1/8" = 1'-0"
140
0.125
141
12.0
290
     0
  0
SCALE
  5
5F
102
{ACAD_REACTORS
330
47
102
}
330
47
100
AcDbScale
 70
     0
300
3/16" = 1'-0"
140
0.1875
141
12.0
290
     0
  0
SCALE
  5
60
102
{ACAD_REACTORS
330
47
102
}
330
47
100
AcDbScale
 70
     0
300
1/4" = 1'-0"
140
0.25
141
12.0
290
     0
  0
SCALE
  5
61
102
{ACAD_REACTORS
330
47
102
}
330
47
100
AcDbScale
 70
     0
300
3/8" = 1'-0"
140
0.375
141
12.0
290
     0
  0
SCALE
  5
62
102
{ACAD_REACTORS
330
47
102
}
330
47
100
AcDbScale
 70
     0
300
1/2" = 1'-0"
140
0.5
141
12.0
290
     0
  0
SCALE
  5
63
102
{ACAD_REACTORS
330
47
102
}
330
47
100
AcDbScale
 70
     0
300
3/4" = 1'-0"
140
0.75
141
12.0
290
     0
  0
SCALE
  5
64
102
{ACAD_REACTORS
330
47
102
}
330
47
100
AcDbScale
 70
     0
300
1" = 1'-0"
140
1.0
141
12.0
290
     0
  0
SCALE
  5
65
102
{ACAD_REACTORS
330
47
102
}
330
47
100
AcDbScale
 70
     0
300
1-1/2" = 1'-0"
140
1.5
141
12.0
290
     0
  0
SCALE
  5
66
102
{ACAD_REACTORS
330
47
102
}
330
47
100
AcDbScale
 70
     0
300
3" = 1'-0"
140
3.0
141
12.0
290
     0
  0
SCALE
  5
67
102
{ACAD_REACTORS
330
47
102
}
330
47
100
AcDbScale
 70
     0
300
6" = 1'-0"
140
6.0
141
12.0
290
     0
  0
SCALE
  5
68
102
{ACAD_REACTORS
330
47
102
}
330
47
100
AcDbScale
 70
     0
300
1'-0" = 1'-0"
140
12.0
141
12.0
290
     0
  0
ENDSEC
  0
EOF
