  0
SECTION
  2
HEADER
  9
$ACADVER
  1
AC1015
  9
$ACADMAINTVER
 70
     6
  9
$DWGCODEPAGE
  3
ANSI_1250
  9
$INSBASE
 10
0.0
 20
0.0
 30
0.0
  9
$EXTMIN
 10
0.0
 20
0.0
 30
0.0
  9
$EXTMAX
 10
431.8
 20
279.4
 30
0.0
  9
$LIMMIN
 10
0.0
 20
0.0
  9
$LIMMAX
 10
431.8
 20
279.4
  9
$ORTHOMODE
 70
     0
  9
$REGENMODE
 70
     1
  9
$FILLMODE
 70
     1
  9
$QTEXTMODE
 70
     0
  9
$MIRRTEXT
 70
     1
  9
$LTSCALE
 40
1.0
  9
$ATTMODE
 70
     1
  9
$TEXTSIZE
 40
3.8805555556
  9
$TRACEWID
 40
1.0
  9
$TEXTSTYLE
  7
Standard
  9
$CLAYER
  8
0
  9
$CELTYPE
  6
ByLayer
  9
$CECOLOR
 62
   256
  9
$CELTSCALE
 40
1.0
  9
$DISPSILH
 70
     0
  9
$DIMSCALE
 40
1.0
  9
$DIMASZ
 40
3.302
  9
$DIMEXO
 40
1.0
  9
$DIMDLI
 40
3.75
  9
$DIMRND
 40
0.0
  9
$DIMDLE
 40
0.0
  9
$DIMEXE
 40
1.0
  9
$DIMTP
 40
0.0
  9
$DIMTM
 40
0.0
  9
$DIMTXT
 40
3.8805555556
  9
$DIMCEN
 40
2.5
  9
$DIMTSZ
 40
0.0
  9
$DIMTOL
 70
     0
  9
$DIMLIM
 70
     0
  9
$DIMTIH
 70
     1
  9
$DIMTOH
 70
     1
  9
$DIMSE1
 70
     0
  9
$DIMSE2
 70
     0
  9
$DIMTAD
 70
     1
  9
$DIMZIN
 70
     0
  9
$DIMBLK
  1

  9
$DIMASO
 70
     1
  9
$DIMSHO
 70
     1
  9
$DIMPOST
  1

  9
$DIMAPOST
  1

  9
$DIMALT
 70
     0
  9
$DIMALTD
 70
     3
  9
$DIMALTF
 40
0.0393700787
  9
$DIMLFAC
 40
1.0
  9
$DIMTOFL
 70
     1
  9
$DIMTVP
 40
0.0
  9
$DIMTIX
 70
     0
  9
$DIMSOXD
 70
     0
  9
$DIMSAH
 70
     0
  9
$DIMBLK1
  1

  9
$DIMBLK2
  1

  9
$DIMSTYLE
  2
ISO-25
  9
$DIMCLRD
 70
     0
  9
$DIMCLRE
 70
     0
  9
$DIMCLRT
 70
     0
  9
$DIMTFAC
 40
1.0
  9
$DIMGAP
 40
1.524
  9
$DIMJUST
 70
     0
  9
$DIMSD1
 70
     0
  9
$DIMSD2
 70
     0
  9
$DIMTOLJ
 70
     0
  9
$DIMTZIN
 70
     0
  9
$DIMALTZ
 70
     0
  9
$DIMALTTZ
 70
     0
  9
$DIMUPT
 70
     0
  9
$DIMDEC
 70
     1
  9
$DIMTDEC
 70
     1
  9
$DIMALTU
 70
     2
  9
$DIMALTTD
 70
     3
  9
$DIMTXSTY
  7
Standard
  9
$DIMAUNIT
 70
     0
  9
$DIMADEC
 70
     1
  9
$DIMALTRND
 40
0.0
  9
$DIMAZIN
 70
     0
  9
$DIMDSEP
 70
    44
  9
$DIMATFIT
 70
     3
  9
$DIMFRAC
 70
     0
  9
$DIMLDRBLK
  1

  9
$DIMLUNIT
 70
     2
  9
$DIMLWD
 70
    -2
  9
$DIMLWE
 70
    -2
  9
$DIMTMOVE
 70
     0
  9
$LUNITS
 70
     2
  9
$LUPREC
 70
     1
  9
$SKETCHINC
 40
1.0
  9
$FILLETRAD
 40
10.0
  9
$AUNITS
 70
     0
  9
$AUPREC
 70
     1
  9
$MENU
  1
.
  9
$ELEVATION
 40
0.0
  9
$PELEVATION
 40
0.0
  9
$THICKNESS
 40
0.0
  9
$LIMCHECK
 70
     0
  9
$CHAMFERA
 40
0.0
  9
$CHAMFERB
 40
0.0
  9
$CHAMFERC
 40
0.0
  9
$CHAMFERD
 40
0.0
  9
$SKPOLY
 70
     0
  9
$TDCREATE
 40
2459564.418654155
  9
$TDUCREATE
 40
2459564.376987488
  9
$TDUPDATE
 40
2459564.418654548
  9
$TDUUPDATE
 40
2459564.376987882
  9
$TDINDWG
 40
0.0000000116
  9
$TDUSRTIMER
 40
0.0000000116
  9
$USRTIMER
 70
     1
  9
$ANGBASE
 50
0.0
  9
$ANGDIR
 70
     0
  9
$PDMODE
 70
     0
  9
$PDSIZE
 40
-1.0
  9
$PLINEWID
 40
0.0
  9
$SPLFRAME
 70
     0
  9
$SPLINETYPE
 70
     6
  9
$SPLINESEGS
 70
     8
  9
$HANDSEED
  5
276
  9
$SURFTAB1
 70
     6
  9
$SURFTAB2
 70
     6
  9
$SURFTYPE
 70
     6
  9
$SURFU
 70
     6
  9
$SURFV
 70
     6
  9
$UCSBASE
  2

  9
$UCSNAME
  2

  9
$UCSORG
 10
0.0
 20
0.0
 30
0.0
  9
$UCSXDIR
 10
1.0
 20
0.0
 30
0.0
  9
$UCSYDIR
 10
0.0
 20
1.0
 30
0.0
  9
$UCSORTHOREF
  2

  9
$UCSORTHOVIEW
 70
     0
  9
$UCSORGTOP
 10
0.0
 20
0.0
 30
0.0
  9
$UCSORGBOTTOM
 10
0.0
 20
0.0
 30
0.0
  9
$UCSORGLEFT
 10
0.0
 20
0.0
 30
0.0
  9
$UCSORGRIGHT
 10
0.0
 20
0.0
 30
0.0
  9
$UCSORGFRONT
 10
0.0
 20
0.0
 30
0.0
  9
$UCSORGBACK
 10
0.0
 20
0.0
 30
0.0
  9
$PUCSBASE
  2

  9
$PUCSNAME
  2

  9
$PUCSORG
 10
0.0
 20
0.0
 30
0.0
  9
$PUCSXDIR
 10
1.0
 20
0.0
 30
0.0
  9
$PUCSYDIR
 10
0.0
 20
1.0
 30
0.0
  9
$PUCSORTHOREF
  2

  9
$PUCSORTHOVIEW
 70
     0
  9
$PUCSORGTOP
 10
0.0
 20
0.0
 30
0.0
  9
$PUCSORGBOTTOM
 10
0.0
 20
0.0
 30
0.0
  9
$PUCSORGLEFT
 10
0.0
 20
0.0
 30
0.0
  9
$PUCSORGRIGHT
 10
0.0
 20
0.0
 30
0.0
  9
$PUCSORGFRONT
 10
0.0
 20
0.0
 30
0.0
  9
$PUCSORGBACK
 10
0.0
 20
0.0
 30
0.0
  9
$USERI1
 70
     0
  9
$USERI2
 70
     0
  9
$USERI3
 70
     0
  9
$USERI4
 70
     0
  9
$USERI5
 70
     0
  9
$USERR1
 40
0.0
  9
$USERR2
 40
0.0
  9
$USERR3
 40
0.0
  9
$USERR4
 40
0.0
  9
$USERR5
 40
0.0
  9
$WORLDVIEW
 70
     1
  9
$SHADEDGE
 70
     3
  9
$SHADEDIF
 70
    70
  9
$TILEMODE
 70
     1
  9
$MAXACTVP
 70
    64
  9
$PINSBASE
 10
0.0
 20
0.0
 30
0.0
  9
$PLIMCHECK
 70
     0
  9
$PEXTMIN
 10
1.0000000000E+20
 20
1.0000000000E+20
 30
1.0000000000E+20
  9
$PEXTMAX
 10
-1.0000000000E+20
 20
-1.0000000000E+20
 30
-1.0000000000E+20
  9
$PLIMMIN
 10
0.0
 20
0.0
  9
$PLIMMAX
 10
420.0
 20
297.0
  9
$UNITMODE
 70
     0
  9
$VISRETAIN
 70
     1
  9
$PLINEGEN
 70
     0
  9
$PSLTSCALE
 70
     1
  9
$TREEDEPTH
 70
  3020
  9
$CMLSTYLE
  2
Standard
  9
$CMLJUST
 70
     0
  9
$CMLSCALE
 40
20.0
  9
$PROXYGRAPHICS
 70
     1
  9
$MEASUREMENT
 70
     1
  9
$CELWEIGHT
370
    -1
  9
$ENDCAPS
280
     0
  9
$JOINSTYLE
280
     0
  9
$LWDISPLAY
290
     1
  9
$INSUNITS
 70
     4
  9
$HYPERLINKBASE
  1

  9
$STYLESHEET
  1

  9
$XEDIT
290
     1
  9
$CEPSNTYPE
380
     0
  9
$PSTYLEMODE
290
     1
  9
$FINGERPRINTGUID
  2
{846b5dba-7264-49b2-a9de-b3855cae54fe}
  9
$VERSIONGUID
  2
{FAEB1C32-E019-11D5-929B-00C0DF256EC4}
  9
$EXTNAMES
290
     1
  9
$PSVPSCALE
 40
0.0
  9
$OLESTARTUP
290
     0
  0
ENDSEC
  0
SECTION
  2
CLASSES
  0
CLASS
  1
ACDBDICTIONARYWDFLT
  2
AcDbDictionaryWithDefault
  3
ObjectDBX Classes
 90
        0
280
     0
281
     0
  0
CLASS
  1
VISUALSTYLE
  2
AcDbVisualStyle
  3
ObjectDBX Classes
 90
     4095
280
     0
281
     0
  0
CLASS
  1
MATERIAL
  2
AcDbMaterial
  3
ObjectDBX Classes
 90
     1153
280
     0
281
     0
  0
CLASS
  1
SCALE
  2
AcDbScale
  3
ObjectDBX Classes
 90
     1153
280
     0
281
     0
  0
CLASS
  1
TABLESTYLE
  2
AcDbTableStyle
  3
ObjectDBX Classes
 90
     4095
280
     0
281
     0
  0
CLASS
  1
MLEADERSTYLE
  2
AcDbMLeaderStyle
  3
ACDB_MLEADERSTYLE_CLASS
 90
     4095
280
     0
281
     0
  0
CLASS
  1
SUN
  2
AcDbSun
  3
SCENEOE
 90
     1153
280
     0
281
     0
  0
CLASS
  1
ACDBPLACEHOLDER
  2
AcDbPlaceHolder
  3
ObjectDBX Classes
 90
        0
280
     0
281
     0
  0
CLASS
  1
LAYOUT
  2
AcDbLayout
  3
ObjectDBX Classes
 90
        0
280
     0
281
     0
  0
ENDSEC
  0
SECTION
  2
TABLES
  0
TABLE
  2
VPORT
  5
8
330
0
100
AcDbSymbolTable
 70
     1
  0
VPORT
  5
29
330
8
100
AcDbSymbolTableRecord
100
AcDbViewportTableRecord
  2
*Active
 70
     0
 10
0.0
 20
0.0
 11
1.0
 21
1.0
 12
215.9
 22
139.7
 13
0.0
 23
0.0
 14
10.0
 24
10.0
 15
10.0
 25
10.0
 16
0.0
 26
0.0
 36
1.0
 17
0.0
 27
0.0
 37
0.0
 40
279.4
 41
1.5454545455
 42
50.0
 43
0.0
 44
0.0
 50
0.0
 51
0.0
 71
     0
 72
  2000
 73
     1
 74
     3
 75
     0
 76
     0
 77
     0
 78
     0
281
     0
 65
     1
110
0.0
120
0.0
130
0.0
111
1.0
121
0.0
131
0.0
112
0.0
122
1.0
132
0.0
 79
     0
146
0.0
  0
ENDTAB
  0
TABLE
  2
LTYPE
  5
5
330
0
100
AcDbSymbolTable
 70
     6
  0
LTYPE
  5
14
330
5
100
AcDbSymbolTableRecord
100
AcDbLinetypeTableRecord
  2
ByBlock
 70
     0
  3

 72
    65
 73
     0
 40
0.0
  0
LTYPE
  5
15
330
5
100
AcDbSymbolTableRecord
100
AcDbLinetypeTableRecord
  2
ByLayer
 70
     0
  3

 72
    65
 73
     0
 40
0.0
  0
LTYPE
  5
16
330
5
100
AcDbSymbolTableRecord
100
AcDbLinetypeTableRecord
  2
Continuous
 70
     0
  3
Solid line
 72
    65
 73
     0
 40
0.0
  0
LTYPE
  5
6E
330
5
100
AcDbSymbolTableRecord
100
AcDbLinetypeTableRecord
  2
HIDDEN
 70
     0
  3
Hidden __ __ __ __ __ __ __ __ __ __ __ __ __ __
 72
    65
 73
     2
 40
1.905
 49
1.27
 74
     0
 49
-0.635
 74
     0
  0
LTYPE
  5
6F
330
5
100
AcDbSymbolTableRecord
100
AcDbLinetypeTableRecord
  2
PHANTOM
 70
     0
  3
Phantom ______  __  __  ______  __  __  ______
 72
    65
 73
     6
 40
12.7
 49
6.35
 74
     0
 49
-1.27
 74
     0
 49
1.27
 74
     0
 49
-1.27
 74
     0
 49
1.27
 74
     0
 49
-1.27
 74
     0
  0
LTYPE
  5
70
330
5
100
AcDbSymbolTableRecord
100
AcDbLinetypeTableRecord
  2
CENTER
 70
     0
  3
Center ____ _ ____ _ ____ _ ____ _ ____ _ ____
 72
    65
 73
     4
 40
10.16
 49
6.35
 74
     0
 49
-1.27
 74
     0
 49
1.27
 74
     0
 49
-1.27
 74
     0
  0
LTYPE
  5
71
330
5
100
AcDbSymbolTableRecord
100
AcDbLinetypeTableRecord
  2
CENTERX2
 70
     0
  3
Center (2x) ________  __  ________  __  _____
 72
    65
 73
     4
 40
20.32
 49
12.7
 74
     0
 49
-2.54
 74
     0
 49
2.54
 74
     0
 49
-2.54
 74
     0
  0
LTYPE
  5
72
330
5
100
AcDbSymbolTableRecord
100
AcDbLinetypeTableRecord
  2
DOT2
 70
     0
  3
Dot (.5x) ........................................
 72
    65
 73
     2
 40
0.635
 49
0.0
 74
     0
 49
-0.635
 74
     0
  0
ENDTAB
  0
TABLE
  2
LAYER
  5
2
330
0
100
AcDbSymbolTable
 70
     3
  0
LAYER
  5
10
330
2
100
AcDbSymbolTableRecord
100
AcDbLayerTableRecord
  2
0
 70
     0
 62
     7
  6
Continuous
370
    -3
390
F
  0
LAYER
  5
73
330
2
100
AcDbSymbolTableRecord
100
AcDbLayerTableRecord
  2
FRAME_&_TABLE
 70
     0
 62
     8
  6
Continuous
370
    50
390
F
  0
LAYER
  5
74
330
2
100
AcDbSymbolTableRecord
100
AcDbLayerTableRecord
  2
DIMENSIONS
 70
     0
 62
     7
  6
Continuous
370
    -3
390
F
  0
ENDTAB
  0
TABLE
  2
STYLE
  5
3
330
0
100
AcDbSymbolTable
 70
     1
  0
STYLE
  5
11
330
3
100
AcDbSymbolTableRecord
100
AcDbTextStyleTableRecord
  2
Standard
 70
     0
 40
0.0
 41
1.0
 50
0.0
 71
     0
 42
3.8805555556
  3
txt
  4

  0
ENDTAB
  0
TABLE
  2
VIEW
  5
6
330
0
100
AcDbSymbolTable
 70
     0
  0
ENDTAB
  0
TABLE
  2
UCS
  5
7
330
0
100
AcDbSymbolTable
 70
     0
  0
ENDTAB
  0
TABLE
  2
APPID
  5
9
330
0
100
AcDbSymbolTable
 70
     1
  0
APPID
  5
12
330
9
100
AcDbSymbolTableRecord
100
AcDbRegAppTableRecord
  2
ACAD
 70
     0
  0
ENDTAB
  0
TABLE
  2
DIMSTYLE
  5
A
330
0
100
AcDbSymbolTable
 70
     1
100
AcDbDimStyleTable
  0
DIMSTYLE
105
27
330
A
100
AcDbSymbolTableRecord
100
AcDbDimStyleTableRecord
  2
ISO-25
 70
     0
 41
2.5
 42
0.625
 43
3.75
 44
1.25
 73
     0
 74
     0
 77
     1
 78
     8
140
2.5
141
2.5
143
0.0393700787
147
0.625
171
     3
172
     1
178
     0
271
     2
272
     2
274
     3
278
    44
283
     0
284
     8
340
11
  0
ENDTAB
  0
TABLE
  2
BLOCK_RECORD
  5
1
330
0
100
AcDbSymbolTable
 70
     1
  0
BLOCK_RECORD
  5
1F
330
1
100
AcDbSymbolTableRecord
100
AcDbBlockTableRecord
  2
*Model_Space
340
22
  0
BLOCK_RECORD
  5
1B
330
1
100
AcDbSymbolTableRecord
100
AcDbBlockTableRecord
  2
*Paper_Space
340
1E
  0
BLOCK_RECORD
  5
23
330
1
100
AcDbSymbolTableRecord
100
AcDbBlockTableRecord
  2
*Paper_Space0
340
26
  0
ENDTAB
  0
ENDSEC
  0
SECTION
  2
BLOCKS
  0
BLOCK
  5
20
330
1F
100
AcDbEntity
  8
0
100
AcDbBlockBegin
  2
*Model_Space
 70
     0
 10
0.0
 20
0.0
 30
0.0
  3
*Model_Space
  1

  0
ENDBLK
  5
21
330
1F
100
AcDbEntity
  8
0
100
AcDbBlockEnd
  0
BLOCK
  5
1C
330
1B
100
AcDbEntity
 67
     1
  8
0
100
AcDbBlockBegin
  2
*Paper_Space
 70
     0
 10
0.0
 20
0.0
 30
0.0
  3
*Paper_Space
  1

  0
ENDBLK
  5
1D
330
1B
100
AcDbEntity
 67
     1
  8
0
100
AcDbBlockEnd
  0
BLOCK
  5
24
330
23
100
AcDbEntity
  8
0
100
AcDbBlockBegin
  2
*Paper_Space0
 70
     0
 10
0.0
 20
0.0
 30
0.0
  3
*Paper_Space0
  1

  0
ENDBLK
  5
25
330
23
100
AcDbEntity
  8
0
100
AcDbBlockEnd
  0
ENDSEC
  0
SECTION
  2
ENTITIES
  0
ARC
  5
75
330
1F
100
AcDbEntity
  8
0
  6
Continuous
 62
     7
370
    25
100
AcDbCircle
 10
1111.3620862114
 20
216.4381213523
 30
0.0
 40
0.25
100
AcDbArc
 50
180.0
 51
270.0
  0
ARC
  5
76
330
1F
100
AcDbEntity
  8
0
  6
Continuous
 62
     7
370
    25
100
AcDbCircle
 10
1087.8620862114
 20
216.4381213523
 30
0.0
 40
0.2499999999999716
100
AcDbArc
 50
270.0
 51
0.0
  0
ARC
  5
77
330
1F
100
AcDbEntity
  8
0
  6
Continuous
 62
     7
370
    25
100
AcDbCircle
 10
1099.6120862114
 20
219.6881213523
 30
0.0
 40
11.50000000000023
100
AcDbArc
 50
0.0
 51
180.0
  0
LINE
  5
78
330
1F
100
AcDbEntity
  8
0
  6
Continuous
 62
     7
370
    25
100
AcDbLine
 10
1111.1120862114
 20
216.4381213523
 30
0.0
 11
1111.1120862114
 21
219.6881213523
 31
0.0
  0
LINE
  5
79
330
1F
100
AcDbEntity
  8
0
  6
Continuous
 62
     7
370
    25
100
AcDbLine
 10
1088.1120862114
 20
219.6881213523
 30
0.0
 11
1088.1120862114
 21
216.4381213523
 31
0.0
  0
LINE
  5
7A
330
1F
100
AcDbEntity
  8
0
  6
Continuous
 62
     7
370
    25
100
AcDbLine
 10
1111.1120862114
 20
216.4381213523
 30
0.0
 11
1111.1120862114
 21
218.6881213523
 31
0.0
  0
LINE
  5
7B
330
1F
100
AcDbEntity
  8
0
  6
Continuous
 62
     7
370
    25
100
AcDbLine
 10
1088.1120862114
 20
218.6881213523
 30
0.0
 11
1088.1120862114
 21
216.4381213523
 31
0.0
  0
ARC
  5
7C
330
1F
100
AcDbEntity
  8
0
  6
Continuous
 62
     7
370
    25
100
AcDbCircle
 10
1115.3120862114
 20
86.3881213523
 30
0.0
 40
1.800000000000035
100
AcDbArc
 50
307.3072678847
 51
16.1276202132
  0
ARC
  5
7D
330
1F
100
AcDbEntity
  8
0
  6
Continuous
 62
     7
370
    25
100
AcDbCircle
 10
1083.9120862114
 20
86.3881213523
 30
0.0
 40
1.800000000000099
100
AcDbArc
 50
163.8723797868
 51
232.6927321153
  0
ARC
  5
7E
330
1F
100
AcDbEntity
  8
0
  6
Continuous
 62
     7
370
    25
100
AcDbCircle
 10
1099.6120862114
 20
106.9918949372
 30
0.0
 40
27.7037735849058
100
AcDbArc
 50
232.6927321153
 51
307.3072678847
  0
LINE
  5
7F
330
1F
100
AcDbEntity
  8
0
  6
Continuous
 62
     7
370
    25
100
AcDbLine
 10
1107.6120862114
 20
194.6881213523
 30
0.0
 11
1107.6120862114
 21
195.1881213523
 31
0.0
  0
LINE
  5
80
330
1F
100
AcDbEntity
  8
0
  6
Continuous
 62
     7
370
    25
100
AcDbLine
 10
1091.6120862114
 20
195.1881213523
 30
0.0
 11
1091.6120862114
 21
194.6881213523
 31
0.0
  0
ARC
  5
81
330
1F
100
AcDbEntity
  8
0
  6
Continuous
 62
     7
370
    25
100
AcDbCircle
 10
1115.3120862114
 20
87.3881213523
 30
0.0
 40
1.800000000000026
100
AcDbArc
 50
343.8723797868
 51
90.0
  0
ARC
  5
82
330
1F
100
AcDbEntity
  8
0
  6
Continuous
 62
     7
370
    25
100
AcDbCircle
 10
1083.9120862114
 20
87.3881213523
 30
0.0
 40
1.800000000000011
100
AcDbArc
 50
90.0
 51
196.1276202132
  0
ARC
  5
83
330
1F
100
AcDbEntity
  8
0
  6
Continuous
 62
     7
370
    25
100
AcDbCircle
 10
1108.8120862114
 20
95.1089137379
 30
0.0
 40
1.200000000000011
100
AcDbArc
 50
200.5277086275
 51
230.1144577659
  0
ARC
  5
84
330
1F
100
AcDbEntity
  8
0
  6
Continuous
 62
     7
370
    25
100
AcDbCircle
 10
1090.4120862114
 20
95.1089137379
 30
0.0
 40
1.200000000000011
100
AcDbArc
 50
309.8855422341
 51
339.4722913725
  0
LINE
  5
85
330
1F
100
AcDbEntity
  8
0
  6
Continuous
 62
     7
370
    25
100
AcDbLine
 10
1084.6120862114
 20
202.1881213523
 30
0.0
 11
1084.6120862114
 21
200.1881213523
 31
0.0
  0
LINE
  5
86
330
1F
100
AcDbEntity
  8
0
  6
Continuous
 62
     7
370
    25
100
AcDbLine
 10
1114.6120862114
 20
200.1881213523
 30
0.0
 11
1114.6120862114
 21
202.1881213523
 31
0.0
  0
LINE
  5
87
330
1F
100
AcDbEntity
  8
0
  6
Continuous
 62
     7
370
    25
100
AcDbLine
 10
1084.6120862114
 20
203.1881213523
 30
0.0
 11
1084.6120862114
 21
200.1881213523
 31
0.0
  0
LINE
  5
88
330
1F
100
AcDbEntity
  8
0
  6
Continuous
 62
     7
370
    25
100
AcDbLine
 10
1114.6120862114
 20
200.1881213523
 30
0.0
 11
1114.6120862114
 21
203.1881213523
 31
0.0
  0
ARC
  5
89
330
1F
100
AcDbEntity
  8
0
  6
Continuous
 62
     7
370
    25
100
AcDbCircle
 10
-544.2562383701
 20
144.6881213535
 30
0.0
 40
94.85891313044311
100
AcDbArc
 50
145.0235885347
 51
178.9764114653
  0
ARC
  5
8A
330
1F
100
AcDbEntity
  8
0
  6
Continuous
 62
     7
370
    25
100
AcDbCircle
 10
-544.2562383701
 20
144.6881213535
 30
0.0
 40
94.85891313044314
100
AcDbArc
 50
109.0235885347
 51
142.9764114653
  0
ARC
  5
8B
330
1F
100
AcDbEntity
  8
0
  6
Continuous
 62
     7
370
    25
100
AcDbCircle
 10
-544.2562383701
 20
144.6881213535
 30
0.0
 40
94.85891313044311
100
AcDbArc
 50
73.0235885347
 51
106.9764114653
  0
ARC
  5
8C
330
1F
100
AcDbEntity
  8
0
  6
Continuous
 62
     7
370
    25
100
AcDbCircle
 10
-544.2562383701
 20
144.6881213535
 30
0.0
 40
94.85891313044313
100
AcDbArc
 50
37.0235885347
 51
70.9764114653
  0
ARC
  5
8D
330
1F
100
AcDbEntity
  8
0
  6
Continuous
 62
     7
370
    25
100
AcDbCircle
 10
-544.2562383701
 20
144.6881213535
 30
0.0
 40
94.858913130443
100
AcDbArc
 50
1.0235885347
 51
34.9764114653
  0
ARC
  5
8E
330
1F
100
AcDbEntity
  8
0
  6
Continuous
 62
     7
370
    25
100
AcDbCircle
 10
-544.2562383701
 20
144.6881213535
 30
0.0
 40
94.85891313044328
100
AcDbArc
 50
325.0235885347
 51
358.9764114653
  0
ARC
  5
8F
330
1F
100
AcDbEntity
  8
0
  6
Continuous
 62
     7
370
    25
100
AcDbCircle
 10
-544.2562383701
 20
144.6881213535
 30
0.0
 40
94.85891313044336
100
AcDbArc
 50
289.0235885347
 51
322.9764114653
  0
ARC
  5
90
330
1F
100
AcDbEntity
  8
0
  6
Continuous
 62
     7
370
    25
100
AcDbCircle
 10
-544.2562383701
 20
144.6881213535
 30
0.0
 40
94.85891313044336
100
AcDbArc
 50
253.0235885347
 51
286.9764114653
  0
ARC
  5
91
330
1F
100
AcDbEntity
  8
0
  6
Continuous
 62
     7
370
    25
100
AcDbCircle
 10
-544.2562383701
 20
144.6881213535
 30
0.0
 40
94.85891313044323
100
AcDbArc
 50
217.0235885347
 51
250.9764114653
  0
ARC
  5
92
330
1F
100
AcDbEntity
  8
0
  6
Continuous
 62
     7
370
    25
100
AcDbCircle
 10
-544.2562383701
 20
144.6881213535
 30
0.0
 40
94.8589131304432
100
AcDbArc
 50
181.0235885347
 51
214.9764114653
  0
ARC
  5
93
330
1F
100
AcDbEntity
  8
0
  6
Continuous
 62
     7
370
    25
100
AcDbCircle
 10
-544.2562383701
 20
144.6881213535
 30
0.0
 40
104.8589131304432
100
AcDbArc
 50
182.7330778133
 51
213.2669221867
  0
ARC
  5
94
330
1F
100
AcDbEntity
  8
0
  6
Continuous
 62
     7
370
    25
100
AcDbCircle
 10
-544.2562383701
 20
144.6881213535
 30
0.0
 40
104.8589131304432
100
AcDbArc
 50
218.7330778133
 51
249.2669221867
  0
ARC
  5
95
330
1F
100
AcDbEntity
  8
0
  6
Continuous
 62
     7
370
    25
100
AcDbCircle
 10
-544.2562383701
 20
144.6881213535
 30
0.0
 40
104.8589131304432
100
AcDbArc
 50
254.7330778133
 51
285.2669221867
  0
ARC
  5
96
330
1F
100
AcDbEntity
  8
0
  6
Continuous
 62
     7
370
    25
100
AcDbCircle
 10
-544.2562383701
 20
144.6881213535
 30
0.0
 40
104.8589131304432
100
AcDbArc
 50
290.7330778133
 51
321.2669221867
  0
ARC
  5
97
330
1F
100
AcDbEntity
  8
0
  6
Continuous
 62
     7
370
    25
100
AcDbCircle
 10
-544.2562383701
 20
144.6881213535
 30
0.0
 40
104.8589131304432
100
AcDbArc
 50
326.7330778133
 51
357.2669221867
  0
ARC
  5
98
330
1F
100
AcDbEntity
  8
0
  6
Continuous
 62
     7
370
    25
100
AcDbCircle
 10
-544.2562383701
 20
144.6881213535
 30
0.0
 40
104.8589131304431
100
AcDbArc
 50
2.7330778133
 51
33.2669221867
  0
ARC
  5
99
330
1F
100
AcDbEntity
  8
0
  6
Continuous
 62
     7
370
    25
100
AcDbCircle
 10
-544.2562383701
 20
144.6881213535
 30
0.0
 40
104.8589131304431
100
AcDbArc
 50
38.7330778133
 51
69.2669221867
  0
ARC
  5
9A
330
1F
100
AcDbEntity
  8
0
  6
Continuous
 62
     7
370
    25
100
AcDbCircle
 10
-544.2562383701
 20
144.6881213535
 30
0.0
 40
104.8589131304432
100
AcDbArc
 50
74.7330778133
 51
105.2669221867
  0
ARC
  5
9B
330
1F
100
AcDbEntity
  8
0
  6
Continuous
 62
     7
370
    25
100
AcDbCircle
 10
-544.2562383701
 20
144.6881213535
 30
0.0
 40
104.8589131304432
100
AcDbArc
 50
110.7330778133
 51
141.2669221867
  0
ARC
  5
9C
330
1F
100
AcDbEntity
  8
0
  6
Continuous
 62
     7
370
    25
100
AcDbCircle
 10
-544.2562383701
 20
144.6881213535
 30
0.0
 40
104.8589131304432
100
AcDbArc
 50
146.7330778133
 51
177.2669221867
  0
ARC
  5
9D
330
1F
100
AcDbEntity
  8
0
  6
Continuous
 62
     7
370
    25
100
AcDbCircle
 10
-544.2562383701
 20
144.6881213535
 30
0.0
 40
109.3001030517523
100
AcDbArc
 50
270.0
 51
180.0
  0
ARC
  5
9E
330
1F
100
AcDbEntity
  8
0
  6
Continuous
 62
     7
370
    25
100
AcDbCircle
 10
-544.2562383701
 20
144.6881213535
 30
0.0
 40
109.3001030517523
100
AcDbArc
 50
180.0
 51
270.0
  0
ARC
  5
9F
330
1F
100
AcDbEntity
  8
0
  6
Continuous
 62
     7
370
    25
100
AcDbCircle
 10
-544.2562383701
 20
144.6881213535
 30
0.0
 40
119.3001030517525
100
AcDbArc
 50
182.4020334037
 51
213.5979665963
  0
ARC
  5
A0
330
1F
100
AcDbEntity
  8
0
  6
Continuous
 62
     7
370
    25
100
AcDbCircle
 10
-544.2562383701
 20
144.6881213535
 30
0.0
 40
119.3001030517523
100
AcDbArc
 50
218.4020334037
 51
249.5979665963
  0
ARC
  5
A1
330
1F
100
AcDbEntity
  8
0
  6
Continuous
 62
     7
370
    25
100
AcDbCircle
 10
-544.2562383701
 20
144.6881213535
 30
0.0
 40
119.3001030517523
100
AcDbArc
 50
254.4020334037
 51
285.5979665963
  0
ARC
  5
A2
330
1F
100
AcDbEntity
  8
0
  6
Continuous
 62
     7
370
    25
100
AcDbCircle
 10
-544.2562383701
 20
144.6881213535
 30
0.0
 40
119.3001030517523
100
AcDbArc
 50
290.4020334037
 51
321.5979665963
  0
ARC
  5
A3
330
1F
100
AcDbEntity
  8
0
  6
Continuous
 62
     7
370
    25
100
AcDbCircle
 10
-544.2562383701
 20
144.6881213535
 30
0.0
 40
119.3001030517523
100
AcDbArc
 50
326.4020334037
 51
357.5979665963
  0
ARC
  5
A4
330
1F
100
AcDbEntity
  8
0
  6
Continuous
 62
     7
370
    25
100
AcDbCircle
 10
-544.2562383701
 20
144.6881213535
 30
0.0
 40
119.3001030517524
100
AcDbArc
 50
2.4020334037
 51
33.5979665963
  0
ARC
  5
A5
330
1F
100
AcDbEntity
  8
0
  6
Continuous
 62
     7
370
    25
100
AcDbCircle
 10
-544.2562383701
 20
144.6881213535
 30
0.0
 40
119.3001030517523
100
AcDbArc
 50
38.4020334037
 51
69.5979665963
  0
ARC
  5
A6
330
1F
100
AcDbEntity
  8
0
  6
Continuous
 62
     7
370
    25
100
AcDbCircle
 10
-544.2562383701
 20
144.6881213535
 30
0.0
 40
119.3001030517523
100
AcDbArc
 50
74.4020334037
 51
105.5979665963
  0
ARC
  5
A7
330
1F
100
AcDbEntity
  8
0
  6
Continuous
 62
     7
370
    25
100
AcDbCircle
 10
-544.2562383701
 20
144.6881213535
 30
0.0
 40
119.3001030517523
100
AcDbArc
 50
110.4020334037
 51
141.5979665963
  0
ARC
  5
A8
330
1F
100
AcDbEntity
  8
0
  6
Continuous
 62
     7
370
    25
100
AcDbCircle
 10
-544.2562383701
 20
144.6881213535
 30
0.0
 40
119.3001030517522
100
AcDbArc
 50
146.4020334037
 51
177.5979665963
  0
LINE
  5
A9
330
1F
100
AcDbEntity
  8
0
  6
Continuous
 62
     7
370
    25
100
AcDbLine
 10
-642.6727808969
 20
79.3646576361
 30
0.0
 11
-729.1790374272
 21
16.5141833283
 31
0.0
  0
LINE
  5
AA
330
1F
100
AcDbEntity
  8
0
  6
Continuous
 62
     7
370
    25
100
AcDbLine
 10
-723.3011849043
 20
8.4240133846
 30
0.0
 11
-636.794928374
 21
71.2744876923
 31
0.0
  0
LINE
  5
AB
330
1F
100
AcDbEntity
  8
0
  6
Continuous
 62
     7
370
    25
100
AcDbLine
 10
-622.4436235447
 20
94.0620007582
 30
0.0
 11
-623.8309553404
 21
93.0540452081
 31
0.0
  0
LINE
  5
AC
330
1F
100
AcDbEntity
  8
0
  6
Continuous
 62
     7
370
    25
100
AcDbLine
 10
-628.2640695544
 20
89.8331992002
 30
0.0
 11
-635.5282345903
 21
84.5554743712
 31
0.0
  0
LINE
  5
AD
330
1F
100
AcDbEntity
  8
0
  6
Continuous
 62
     7
370
    25
100
AcDbLine
 10
-629.6503820674
 20
76.4653044274
 30
0.0
 11
-622.3862170315
 21
81.7430292564
 31
0.0
  0
LINE
  5
AE
330
1F
100
AcDbEntity
  8
0
  6
Continuous
 62
     7
370
    25
100
AcDbLine
 10
-617.9531028175
 20
84.9638752644
 30
0.0
 11
-616.5657710218
 21
85.9718308144
 31
0.0
  0
LINE
  5
AF
330
1F
100
AcDbEntity
  8
0
  6
Continuous
 62
     7
370
    25
100
AcDbLine
 10
-445.8396958433
 20
210.011585071
 30
0.0
 11
-359.3334393131
 21
272.8620593788
 31
0.0
  0
LINE
  5
B0
330
1F
100
AcDbEntity
  8
0
  6
Continuous
 62
     7
370
    25
100
AcDbLine
 10
-365.211291836
 20
280.9522293226
 30
0.0
 11
-451.7175483663
 21
218.1017550148
 31
0.0
  0
LINE
  5
B1
330
1F
100
AcDbEntity
  8
0
  6
Continuous
 62
     7
370
    25
100
AcDbLine
 10
-466.0688531956
 20
195.3142419489
 30
0.0
 11
-464.6815213999
 21
196.3221974989
 31
0.0
  0
LINE
  5
B2
330
1F
100
AcDbEntity
  8
0
  6
Continuous
 62
     7
370
    25
100
AcDbLine
 10
-460.2484071859
 20
199.5430435069
 30
0.0
 11
-452.98424215
 21
204.8207683359
 31
0.0
  0
LINE
  5
B3
330
1F
100
AcDbEntity
  8
0
  6
Continuous
 62
     7
370
    25
100
AcDbLine
 10
-458.8620946729
 20
212.9109382797
 30
0.0
 11
-466.1262597088
 21
207.6332134507
 31
0.0
  0
LINE
  5
B4
330
1F
100
AcDbEntity
  8
0
  6
Continuous
 62
     7
370
    25
100
AcDbLine
 10
-470.5593739228
 20
204.4123674427
 30
0.0
 11
-471.9467057185
 21
203.4044118926
 31
0.0
  0
LINE
  5
B5
330
1F
100
AcDbEntity
  8
0
  6
Continuous
 62
     7
370
    25
100
AcDbLine
 10
-662.2730624037
 20
149.6881213535
 30
0.0
 11
-769.2006759542
 21
149.6881213536
 31
0.0
  0
LINE
  5
B6
330
1F
100
AcDbEntity
  8
0
  6
Continuous
 62
     7
370
    25
100
AcDbLine
 10
-769.2006759542
 20
139.6881213536
 30
0.0
 11
-662.2730624037
 21
139.6881213535
 31
0.0
  0
LINE
  5
B7
330
1F
100
AcDbEntity
  8
0
  6
Continuous
 62
     7
370
    25
100
AcDbLine
 10
-637.2684487888
 20
149.6881213535
 30
0.0
 11
-638.9832851957
 21
149.6881213535
 31
0.0
  0
LINE
  5
B8
330
1F
100
AcDbEntity
  8
0
  6
Continuous
 62
     7
370
    25
100
AcDbLine
 10
-644.4629157162
 20
149.6881213535
 30
0.0
 11
-653.4419175003
 21
149.6881213535
 31
0.0
  0
LINE
  5
B9
330
1F
100
AcDbEntity
  8
0
  6
Continuous
 62
     7
370
    25
100
AcDbLine
 10
-653.4419175003
 20
139.6881213535
 30
0.0
 11
-644.4629157162
 21
139.6881213535
 31
0.0
  0
LINE
  5
BA
330
1F
100
AcDbEntity
  8
0
  6
Continuous
 62
     7
370
    25
100
AcDbLine
 10
-638.9832851957
 20
139.6881213535
 30
0.0
 11
-637.2684487888
 21
139.6881213535
 31
0.0
  0
LINE
  5
BB
330
1F
100
AcDbEntity
  8
0
  6
Continuous
 62
     7
370
    25
100
AcDbLine
 10
-575.9701600372
 20
258.473875855
 30
0.0
 11
-609.0126097922
 21
360.1680794941
 31
0.0
  0
LINE
  5
BC
330
1F
100
AcDbEntity
  8
0
  6
Continuous
 62
     7
370
    25
100
AcDbLine
 10
-618.5231749552
 20
357.0779095503
 30
0.0
 11
-585.4807252002
 21
255.3837059113
 31
0.0
  0
LINE
  5
BD
330
1F
100
AcDbEntity
  8
0
  6
Continuous
 62
     7
370
    25
100
AcDbLine
 10
-568.2433094924
 20
234.6930751391
 30
0.0
 11
-568.7732230847
 21
236.3239814783
 31
0.0
  0
LINE
  5
BE
330
1F
100
AcDbEntity
  8
0
  6
Continuous
 62
     7
370
    25
100
AcDbLine
 10
-570.4665220385
 20
241.5354197917
 30
0.0
 11
-573.2411861823
 21
250.0749579483
 31
0.0
  0
LINE
  5
BF
330
1F
100
AcDbEntity
  8
0
  6
Continuous
 62
     7
370
    25
100
AcDbLine
 10
-582.7517513452
 20
246.9847880046
 30
0.0
 11
-579.9770872014
 21
238.4452498479
 31
0.0
  0
LINE
  5
C0
330
1F
100
AcDbEntity
  8
0
  6
Continuous
 62
     7
370
    25
100
AcDbLine
 10
-578.2837882477
 20
233.2338115345
 30
0.0
 11
-577.7538746554
 21
231.6029051954
 31
0.0
  0
LINE
  5
C1
330
1F
100
AcDbEntity
  8
0
  6
Continuous
 62
     7
370
    25
100
AcDbLine
 10
-503.0317515401
 20
255.3837059113
 30
0.0
 11
-469.9893017851
 21
357.0779095503
 31
0.0
  0
LINE
  5
C2
330
1F
100
AcDbEntity
  8
0
  6
Continuous
 62
     7
370
    25
100
AcDbLine
 10
-479.499866948
 20
360.1680794941
 30
0.0
 11
-512.5423167031
 21
258.473875855
 31
0.0
  0
LINE
  5
C3
330
1F
100
AcDbEntity
  8
0
  6
Continuous
 62
     7
370
    25
100
AcDbLine
 10
-510.7586020849
 20
231.6029051954
 30
0.0
 11
-510.2286884926
 21
233.2338115345
 31
0.0
  0
LINE
  5
C4
330
1F
100
AcDbEntity
  8
0
  6
Continuous
 62
     7
370
    25
100
AcDbLine
 10
-508.5353895389
 20
238.4452498479
 30
0.0
 11
-505.7607253951
 21
246.9847880046
 31
0.0
  0
LINE
  5
C5
330
1F
100
AcDbEntity
  8
0
  6
Continuous
 62
     7
370
    25
100
AcDbLine
 10
-515.271290558
 20
250.0749579483
 30
0.0
 11
-518.0459547018
 21
241.5354197917
 31
0.0
  0
LINE
  5
C6
330
1F
100
AcDbEntity
  8
0
  6
Continuous
 62
     7
370
    25
100
AcDbLine
 10
-519.7392536556
 20
236.3239814783
 30
0.0
 11
-520.2691672479
 21
234.6930751391
 31
0.0
  0
LINE
  5
C7
330
1F
100
AcDbEntity
  8
0
  6
Continuous
 62
     7
370
    25
100
AcDbLine
 10
-512.5423167031
 20
30.9023668521
 30
0.0
 11
-479.499866948
 21
-70.791836787
 31
0.0
  0
LINE
  5
C8
330
1F
100
AcDbEntity
  8
0
  6
Continuous
 62
     7
370
    25
100
AcDbLine
 10
-469.9893017851
 20
-67.7016668432
 30
0.0
 11
-503.0317515401
 21
33.9925367958
 31
0.0
  0
LINE
  5
C9
330
1F
100
AcDbEntity
  8
0
  6
Continuous
 62
     7
370
    25
100
AcDbLine
 10
-520.2691672479
 20
54.683167568
 30
0.0
 11
-519.7392536556
 21
53.0522612288
 31
0.0
  0
LINE
  5
CA
330
1F
100
AcDbEntity
  8
0
  6
Continuous
 62
     7
370
    25
100
AcDbLine
 10
-518.0459547018
 20
47.8408229154
 30
0.0
 11
-515.271290558
 21
39.3012847588
 31
0.0
  0
LINE
  5
CB
330
1F
100
AcDbEntity
  8
0
  6
Continuous
 62
     7
370
    25
100
AcDbLine
 10
-505.7607253951
 20
42.3914547025
 30
0.0
 11
-508.5353895389
 21
50.9309928591
 31
0.0
  0
LINE
  5
CC
330
1F
100
AcDbEntity
  8
0
  6
Continuous
 62
     7
370
    25
100
AcDbLine
 10
-510.2286884926
 20
56.1424311726
 30
0.0
 11
-510.7586020849
 21
57.7733375117
 31
0.0
  0
LINE
  5
CD
330
1F
100
AcDbEntity
  8
0
  6
Continuous
 62
     7
370
    25
100
AcDbLine
 10
-636.794928374
 20
218.1017550148
 30
0.0
 11
-723.3011849043
 21
280.9522293226
 31
0.0
  0
LINE
  5
CE
330
1F
100
AcDbEntity
  8
0
  6
Continuous
 62
     7
370
    25
100
AcDbLine
 10
-729.1790374272
 20
272.8620593788
 30
0.0
 11
-642.6727808969
 21
210.011585071
 31
0.0
  0
LINE
  5
CF
330
1F
100
AcDbEntity
  8
0
  6
Continuous
 62
     7
370
    25
100
AcDbLine
 10
-616.5657710218
 20
203.4044118926
 30
0.0
 11
-617.9531028175
 21
204.4123674427
 31
0.0
  0
LINE
  5
D0
330
1F
100
AcDbEntity
  8
0
  6
Continuous
 62
     7
370
    25
100
AcDbLine
 10
-622.3862170315
 20
207.6332134507
 30
0.0
 11
-629.6503820674
 21
212.9109382797
 31
0.0
  0
LINE
  5
D1
330
1F
100
AcDbEntity
  8
0
  6
Continuous
 62
     7
370
    25
100
AcDbLine
 10
-635.5282345903
 20
204.8207683359
 30
0.0
 11
-628.2640695544
 21
199.5430435069
 31
0.0
  0
LINE
  5
D2
330
1F
100
AcDbEntity
  8
0
  6
Continuous
 62
     7
370
    25
100
AcDbLine
 10
-623.8309553404
 20
196.3221974989
 30
0.0
 11
-622.4436235447
 21
195.3142419489
 31
0.0
  0
LINE
  5
D3
330
1F
100
AcDbEntity
  8
0
  6
Continuous
 62
     7
370
    25
100
AcDbLine
 10
-451.7175483663
 20
71.2744876923
 30
0.0
 11
-365.211291836
 21
8.4240133846
 31
0.0
  0
LINE
  5
D4
330
1F
100
AcDbEntity
  8
0
  6
Continuous
 62
     7
370
    25
100
AcDbLine
 10
-359.3334393131
 20
16.5141833283
 30
0.0
 11
-445.8396958433
 21
79.3646576361
 31
0.0
  0
LINE
  5
D5
330
1F
100
AcDbEntity
  8
0
  6
Continuous
 62
     7
370
    25
100
AcDbLine
 10
-471.9467057185
 20
85.9718308144
 30
0.0
 11
-470.5593739228
 21
84.9638752644
 31
0.0
  0
LINE
  5
D6
330
1F
100
AcDbEntity
  8
0
  6
Continuous
 62
     7
370
    25
100
AcDbLine
 10
-466.1262597088
 20
81.7430292564
 30
0.0
 11
-458.8620946729
 21
76.4653044274
 31
0.0
  0
LINE
  5
D7
330
1F
100
AcDbEntity
  8
0
  6
Continuous
 62
     7
370
    25
100
AcDbLine
 10
-452.98424215
 20
84.5554743712
 30
0.0
 11
-460.2484071859
 21
89.8331992002
 31
0.0
  0
LINE
  5
D8
330
1F
100
AcDbEntity
  8
0
  6
Continuous
 62
     7
370
    25
100
AcDbLine
 10
-464.6815213999
 20
93.0540452081
 30
0.0
 11
-466.0688531956
 21
94.0620007582
 31
0.0
  0
LINE
  5
D9
330
1F
100
AcDbEntity
  8
0
  6
Continuous
 62
     7
370
    25
100
AcDbLine
 10
-585.4807252002
 20
33.9925367958
 30
0.0
 11
-618.5231749552
 21
-67.7016668432
 31
0.0
  0
LINE
  5
DA
330
1F
100
AcDbEntity
  8
0
  6
Continuous
 62
     7
370
    25
100
AcDbLine
 10
-609.0126097922
 20
-70.791836787
 30
0.0
 11
-575.9701600372
 21
30.9023668521
 31
0.0
  0
LINE
  5
DB
330
1F
100
AcDbEntity
  8
0
  6
Continuous
 62
     7
370
    25
100
AcDbLine
 10
-577.7538746554
 20
57.7733375117
 30
0.0
 11
-578.2837882477
 21
56.1424311726
 31
0.0
  0
LINE
  5
DC
330
1F
100
AcDbEntity
  8
0
  6
Continuous
 62
     7
370
    25
100
AcDbLine
 10
-579.9770872014
 20
50.9309928591
 30
0.0
 11
-582.7517513452
 21
42.3914547025
 31
0.0
  0
LINE
  5
DD
330
1F
100
AcDbEntity
  8
0
  6
Continuous
 62
     7
370
    25
100
AcDbLine
 10
-573.2411861823
 20
39.3012847588
 30
0.0
 11
-570.4665220385
 21
47.8408229154
 31
0.0
  0
LINE
  5
DE
330
1F
100
AcDbEntity
  8
0
  6
Continuous
 62
     7
370
    25
100
AcDbLine
 10
-568.7732230847
 20
53.0522612288
 30
0.0
 11
-568.2433094924
 21
54.683167568
 31
0.0
  0
LINE
  5
DF
330
1F
100
AcDbEntity
  8
0
  6
Continuous
 62
     7
370
    25
100
AcDbLine
 10
-426.2394143365
 20
139.6881213536
 30
0.0
 11
-319.3118007861
 21
139.6881213536
 31
0.0
  0
LINE
  5
E0
330
1F
100
AcDbEntity
  8
0
  6
Continuous
 62
     7
370
    25
100
AcDbLine
 10
-319.3118007861
 20
149.6881213536
 30
0.0
 11
-426.2394143365
 21
149.6881213536
 31
0.0
  0
LINE
  5
E1
330
1F
100
AcDbEntity
  8
0
  6
Continuous
 62
     7
370
    25
100
AcDbLine
 10
-451.2440279515
 20
139.6881213536
 30
0.0
 11
-449.5291915446
 21
139.6881213536
 31
0.0
  0
LINE
  5
E2
330
1F
100
AcDbEntity
  8
0
  6
Continuous
 62
     7
370
    25
100
AcDbLine
 10
-444.0495610241
 20
139.6881213536
 30
0.0
 11
-435.0705592399
 21
139.6881213536
 31
0.0
  0
LINE
  5
E3
330
1F
100
AcDbEntity
  8
0
  6
Continuous
 62
     7
370
    25
100
AcDbLine
 10
-435.0705592399
 20
149.6881213536
 30
0.0
 11
-444.0495610241
 21
149.6881213536
 31
0.0
  0
LINE
  5
E4
330
1F
100
AcDbEntity
  8
0
  6
Continuous
 62
     7
370
    25
100
AcDbLine
 10
-449.5291915446
 20
149.6881213536
 30
0.0
 11
-451.2440279515
 21
149.6881213536
 31
0.0
  0
ARC
  5
E5
330
1F
100
AcDbEntity
  8
0
  6
Continuous
 62
     7
370
    25
100
AcDbCircle
 10
-544.2562383701
 20
144.6881213536
 30
0.0
 40
225.0
100
AcDbArc
 50
270.0
 51
90.0
  0
ARC
  5
E6
330
1F
100
AcDbEntity
  8
0
  6
Continuous
 62
     7
370
    25
100
AcDbCircle
 10
-544.2562383701
 20
144.6881213536
 30
0.0
 40
225.0
100
AcDbArc
 50
90.0
 51
270.0
  0
ARC
  5
E7
330
1F
100
AcDbEntity
  8
0
  6
Continuous
 62
     7
370
    25
100
AcDbCircle
 10
-544.2562383701
 20
144.6881213536
 30
0.0
 40
245.0
100
AcDbArc
 50
90.0
 51
342.1742941315
  0
ARC
  5
E8
330
1F
100
AcDbEntity
  8
0
  6
Continuous
 62
     7
370
    25
100
AcDbCircle
 10
-544.2562383701
 20
144.6881213536
 30
0.0
 40
245.0
100
AcDbArc
 50
17.8257058685
 51
90.0
  0
LINE
  5
E9
330
1F
100
AcDbEntity
  8
0
  6
Continuous
 62
     7
370
    25
100
AcDbLine
 10
-126.9162383701
 20
421.1881213536
 30
0.0
 11
-128.9562383701
 21
421.1881213536
 31
0.0
  0
LINE
  5
EA
330
1F
100
AcDbEntity
  8
0
  6
Continuous
 62
     7
370
    25
100
AcDbLine
 10
-128.9562383701
 20
408.1881213536
 30
0.0
 11
-126.9162383701
 21
408.1881213536
 31
0.0
  0
ARC
  5
EB
330
1F
100
AcDbEntity
  8
0
  6
Continuous
 62
     7
370
    25
100
AcDbCircle
 10
-126.9162383701
 20
420.1681213536
 30
0.0
 40
1.020000000000039
100
AcDbArc
 50
0.0
 51
90.0
  0
ARC
  5
EC
330
1F
100
AcDbEntity
  8
0
  6
Continuous
 62
     7
370
    25
100
AcDbCircle
 10
-126.9162383701
 20
409.2081213536
 30
0.0
 40
1.020000000000039
100
AcDbArc
 50
270.0
 51
0.0
  0
ARC
  5
ED
330
1F
100
AcDbEntity
  8
0
  6
Continuous
 62
     7
370
    25
100
AcDbCircle
 10
-126.9162383701
 20
772.1681213535
 30
0.0
 40
1.020000000000024
100
AcDbArc
 50
0.0
 51
90.0
  0
ARC
  5
EE
330
1F
100
AcDbEntity
  8
0
  6
Continuous
 62
     7
370
    25
100
AcDbCircle
 10
-126.9162383701
 20
761.2081213535
 30
0.0
 40
1.020000000000024
100
AcDbArc
 50
270.0
 51
0.0
  0
LINE
  5
EF
330
1F
100
AcDbEntity
  8
0
  6
Continuous
 62
     7
370
    25
100
AcDbLine
 10
-126.9162383701
 20
773.1881213535
 30
0.0
 11
-128.9562383701
 21
773.1881213535
 31
0.0
  0
LINE
  5
F0
330
1F
100
AcDbEntity
  8
0
  6
Continuous
 62
     7
370
    25
100
AcDbLine
 10
-128.9562383701
 20
760.1881213535
 30
0.0
 11
-126.9162383701
 21
760.1881213535
 31
0.0
  0
ARC
  5
F1
330
1F
100
AcDbEntity
  8
0
  6
Continuous
 62
     7
370
    25
100
AcDbCircle
 10
-126.9162383702
 20
-471.8318786465
 30
0.0
 40
1.020000000000024
100
AcDbArc
 50
0.0
 51
90.0
  0
ARC
  5
F2
330
1F
100
AcDbEntity
  8
0
  6
Continuous
 62
     7
370
    25
100
AcDbCircle
 10
-126.9162383702
 20
-482.7918786465
 30
0.0
 40
1.020000000000024
100
AcDbArc
 50
270.0
 51
0.0
  0
LINE
  5
F3
330
1F
100
AcDbEntity
  8
0
  6
Continuous
 62
     7
370
    25
100
AcDbLine
 10
-126.9162383702
 20
-470.8118786465
 30
0.0
 11
-128.9562383702
 21
-470.8118786465
 31
0.0
  0
LINE
  5
F4
330
1F
100
AcDbEntity
  8
0
  6
Continuous
 62
     7
370
    25
100
AcDbLine
 10
-128.9562383702
 20
-483.8118786465
 30
0.0
 11
-126.9162383702
 21
-483.8118786465
 31
0.0
  0
LINE
  5
F5
330
1F
100
AcDbEntity
  8
0
  6
Continuous
 62
     7
370
    25
100
AcDbLine
 10
-126.9162383701
 20
823.1881213535
 30
0.0
 11
-128.9562383701
 21
823.1881213535
 31
0.0
  0
LINE
  5
F6
330
1F
100
AcDbEntity
  8
0
  6
Continuous
 62
     7
370
    25
100
AcDbLine
 10
-128.9562383701
 20
810.1881213535
 30
0.0
 11
-126.9162383701
 21
810.1881213535
 31
0.0
  0
ARC
  5
F7
330
1F
100
AcDbEntity
  8
0
  6
Continuous
 62
     7
370
    25
100
AcDbCircle
 10
-126.9162383701
 20
822.1681213535
 30
0.0
 40
1.020000000000095
100
AcDbArc
 50
0.0
 51
90.0
  0
ARC
  5
F8
330
1F
100
AcDbEntity
  8
0
  6
Continuous
 62
     7
370
    25
100
AcDbCircle
 10
-126.9162383701
 20
811.2081213535
 30
0.0
 40
1.02000000000001
100
AcDbArc
 50
270.0
 51
0.0
  0
ARC
  5
F9
330
1F
100
AcDbEntity
  8
0
  6
Continuous
 62
     7
370
    25
100
AcDbCircle
 10
-126.9162383701
 20
-521.8318786465
 30
0.0
 40
1.020000000000024
100
AcDbArc
 50
0.0
 51
90.0
  0
ARC
  5
FA
330
1F
100
AcDbEntity
  8
0
  6
Continuous
 62
     7
370
    25
100
AcDbCircle
 10
-126.9162383701
 20
-532.7918786465
 30
0.0
 40
1.020000000000024
100
AcDbArc
 50
270.0
 51
0.0
  0
LINE
  5
FB
330
1F
100
AcDbEntity
  8
0
  6
Continuous
 62
     7
370
    25
100
AcDbLine
 10
-126.9162383701
 20
-520.8118786465
 30
0.0
 11
-128.9562383701
 21
-520.8118786465
 31
0.0
  0
LINE
  5
FC
330
1F
100
AcDbEntity
  8
0
  6
Continuous
 62
     7
370
    25
100
AcDbLine
 10
-128.9562383701
 20
-533.8118786465
 30
0.0
 11
-126.9162383701
 21
-533.8118786465
 31
0.0
  0
LINE
  5
FD
330
1F
100
AcDbEntity
  8
0
  6
Continuous
 62
     7
370
    25
100
AcDbLine
 10
-126.9162383701
 20
-118.8118786464
 30
0.0
 11
-128.9562383701
 21
-118.8118786464
 31
0.0
  0
LINE
  5
FE
330
1F
100
AcDbEntity
  8
0
  6
Continuous
 62
     7
370
    25
100
AcDbLine
 10
-128.9562383701
 20
-131.8118786464
 30
0.0
 11
-126.9162383701
 21
-131.8118786464
 31
0.0
  0
ARC
  5
FF
330
1F
100
AcDbEntity
  8
0
  6
Continuous
 62
     7
370
    25
100
AcDbCircle
 10
-126.9162383701
 20
-119.8318786464
 30
0.0
 40
1.020000000000024
100
AcDbArc
 50
0.0
 51
90.0
  0
ARC
  5
100
330
1F
100
AcDbEntity
  8
0
  6
Continuous
 62
     7
370
    25
100
AcDbCircle
 10
-126.9162383701
 20
-130.7918786464
 30
0.0
 40
1.02000000000001
100
AcDbArc
 50
270.0
 51
0.0
  0
LINE
  5
101
330
1F
100
AcDbEntity
  8
0
  6
Continuous
 62
     7
370
    25
100
AcDbLine
 10
-132.6562383701
 20
422.6881213536
 30
0.0
 11
-134.2562383701
 21
422.6881213536
 31
0.0
  0
LINE
  5
102
330
1F
100
AcDbEntity
  8
0
  6
Continuous
 62
     7
370
    25
100
AcDbLine
 10
-134.2562383701
 20
406.6881213536
 30
0.0
 11
-132.6562383701
 21
406.6881213536
 31
0.0
  0
LINE
  5
103
330
1F
100
AcDbEntity
  8
0
  6
Continuous
 62
     7
370
    25
100
AcDbLine
 10
-132.6562383701
 20
774.6881213535
 30
0.0
 11
-134.2562383701
 21
774.6881213535
 31
0.0
  0
LINE
  5
104
330
1F
100
AcDbEntity
  8
0
  6
Continuous
 62
     7
370
    25
100
AcDbLine
 10
-134.2562383701
 20
758.6881213535
 30
0.0
 11
-132.6562383701
 21
758.6881213535
 31
0.0
  0
LINE
  5
105
330
1F
100
AcDbEntity
  8
0
  6
Continuous
 62
     7
370
    25
100
AcDbLine
 10
-132.6562383702
 20
-469.3118786465
 30
0.0
 11
-134.2562383702
 21
-469.3118786465
 31
0.0
  0
LINE
  5
106
330
1F
100
AcDbEntity
  8
0
  6
Continuous
 62
     7
370
    25
100
AcDbLine
 10
-134.2562383702
 20
-485.3118786465
 30
0.0
 11
-132.6562383702
 21
-485.3118786465
 31
0.0
  0
LINE
  5
107
330
1F
100
AcDbEntity
  8
0
  6
Continuous
 62
     7
370
    25
100
AcDbLine
 10
-132.6562383701
 20
-117.3118786464
 30
0.0
 11
-134.2562383701
 21
-117.3118786464
 31
0.0
  0
LINE
  5
108
330
1F
100
AcDbEntity
  8
0
  6
Continuous
 62
     7
370
    25
100
AcDbLine
 10
-134.2562383701
 20
-133.3118786464
 30
0.0
 11
-132.6562383701
 21
-133.3118786464
 31
0.0
  0
LINE
  5
109
330
1F
100
AcDbEntity
  8
0
  6
Continuous
 62
     7
370
    25
100
AcDbLine
 10
-132.6562383701
 20
824.6881213535
 30
0.0
 11
-134.2562383701
 21
824.6881213535
 31
0.0
  0
LINE
  5
10A
330
1F
100
AcDbEntity
  8
0
  6
Continuous
 62
     7
370
    25
100
AcDbLine
 10
-134.2562383701
 20
808.6881213535
 30
0.0
 11
-132.6562383701
 21
808.6881213535
 31
0.0
  0
LINE
  5
10B
330
1F
100
AcDbEntity
  8
0
  6
Continuous
 62
     7
370
    25
100
AcDbLine
 10
-132.6562383701
 20
-519.3118786465
 30
0.0
 11
-134.2562383701
 21
-519.3118786465
 31
0.0
  0
LINE
  5
10C
330
1F
100
AcDbEntity
  8
0
  6
Continuous
 62
     7
370
    25
100
AcDbLine
 10
-134.2562383701
 20
-535.3118786465
 30
0.0
 11
-132.6562383701
 21
-535.3118786465
 31
0.0
  0
ARC
  5
10D
330
1F
100
AcDbEntity
  8
0
  6
Continuous
 62
     7
370
    25
100
AcDbCircle
 10
-156.6543152932
 20
-125.3118786464
 30
0.0
 40
14.40192307692305
100
AcDbArc
 50
151.0469510812
 51
208.9530489189
  0
ARC
  5
10E
330
1F
100
AcDbEntity
  8
0
  6
Continuous
 62
     7
370
    25
100
AcDbCircle
 10
-156.6543152932
 20
414.6881213536
 30
0.0
 40
14.40192307692317
100
AcDbArc
 50
151.0469510812
 51
208.9530489188
  0
ARC
  5
10F
330
1F
100
AcDbEntity
  8
0
  6
Continuous
 62
     7
370
    25
100
AcDbCircle
 10
-156.6543152932
 20
-527.3118786464
 30
0.0
 40
14.40192307692312
100
AcDbArc
 50
151.0469510811
 51
208.9530489189
  0
ARC
  5
110
330
1F
100
AcDbEntity
  8
0
  6
Continuous
 62
     7
370
    25
100
AcDbCircle
 10
-156.6543152932
 20
766.6881213536
 30
0.0
 40
14.40192307692303
100
AcDbArc
 50
151.0469510812
 51
208.9530489188
  0
ARC
  5
111
330
1F
100
AcDbEntity
  8
0
  6
Continuous
 62
     7
370
    25
100
AcDbCircle
 10
-156.6543152932
 20
-477.3118786464
 30
0.0
 40
14.40192307692323
100
AcDbArc
 50
151.0469510808
 51
208.9530489192
  0
ARC
  5
112
330
1F
100
AcDbEntity
  8
0
  6
Continuous
 62
     7
370
    25
100
AcDbCircle
 10
-156.6543152932
 20
816.6881213536
 30
0.0
 40
14.40192307692319
100
AcDbArc
 50
151.0469510811
 51
208.9530489189
  0
LINE
  5
113
330
1F
100
AcDbEntity
  8
0
  6
Continuous
 62
     7
370
    25
100
AcDbLine
 10
-119.9829050368
 20
227.6881213524
 30
0.0
 11
-122.5562383701
 21
227.6881213524
 31
0.0
  0
LINE
  5
114
330
1F
100
AcDbEntity
  8
0
  6
Continuous
 62
     7
370
    25
100
AcDbLine
 10
-122.5562383701
 20
211.6881213524
 30
0.0
 11
-119.9829050368
 21
211.6881213524
 31
0.0
  0
ARC
  5
115
330
1F
100
AcDbEntity
  8
0
  6
Continuous
 62
     7
370
    25
100
AcDbCircle
 10
-119.9829050368
 20
226.4014546857
 30
0.0
 40
1.286666666666662
100
AcDbArc
 50
0.0
 51
90.0
  0
ARC
  5
116
330
1F
100
AcDbEntity
  8
0
  6
Continuous
 62
     7
370
    25
100
AcDbCircle
 10
-119.9829050368
 20
212.9747880191
 30
0.0
 40
1.286666666666662
100
AcDbArc
 50
270.0
 51
0.0
  0
LINE
  5
117
330
1F
100
AcDbEntity
  8
0
  6
Continuous
 62
     7
370
    25
100
AcDbLine
 10
-119.9829050368
 20
77.6881213523
 30
0.0
 11
-122.5562383702
 21
77.6881213523
 31
0.0
  0
LINE
  5
118
330
1F
100
AcDbEntity
  8
0
  6
Continuous
 62
     7
370
    25
100
AcDbLine
 10
-122.5562383702
 20
61.6881213523
 30
0.0
 11
-119.9829050368
 21
61.6881213523
 31
0.0
  0
ARC
  5
119
330
1F
100
AcDbEntity
  8
0
  6
Continuous
 62
     7
370
    25
100
AcDbCircle
 10
-119.9829050368
 20
76.4014546857
 30
0.0
 40
1.286666666666662
100
AcDbArc
 50
0.0
 51
90.0
  0
ARC
  5
11A
330
1F
100
AcDbEntity
  8
0
  6
Continuous
 62
     7
370
    25
100
AcDbCircle
 10
-119.9829050368
 20
62.974788019
 30
0.0
 40
1.286666666666662
100
AcDbArc
 50
270.0
 51
0.0
  0
LINE
  5
11B
330
1F
100
AcDbEntity
  8
0
  6
Continuous
 62
     7
370
    25
100
AcDbLine
 10
-127.2562383701
 20
79.6881213523
 30
0.0
 11
-129.2562383701
 21
79.6881213523
 31
0.0
  0
LINE
  5
11C
330
1F
100
AcDbEntity
  8
0
  6
Continuous
 62
     7
370
    25
100
AcDbLine
 10
-129.2562383701
 20
59.6881213523
 30
0.0
 11
-127.2562383701
 21
59.6881213523
 31
0.0
  0
LINE
  5
11D
330
1F
100
AcDbEntity
  8
0
  6
Continuous
 62
     7
370
    25
100
AcDbLine
 10
-127.2562383701
 20
229.6881213524
 30
0.0
 11
-129.2562383701
 21
229.6881213524
 31
0.0
  0
LINE
  5
11E
330
1F
100
AcDbEntity
  8
0
  6
Continuous
 62
     7
370
    25
100
AcDbLine
 10
-129.2562383701
 20
209.6881213524
 30
0.0
 11
-127.2562383701
 21
209.6881213524
 31
0.0
  0
LWPOLYLINE
  5
11F
330
1F
100
AcDbEntity
  8
0
  6
Continuous
 62
     7
370
    25
100
AcDbPolyline
 90
        3
 70
   128
 43
0.0
 10
1099.6120862114
 20
204.2599181221
 10
1096.6725166497
 20
203.4822979843
 10
1093.6120862114
 20
203.1881213523
  0
ARC
  5
120
330
1F
100
AcDbEntity
  8
0
  6
Continuous
 62
     7
370
    25
100
AcDbCircle
 10
1105.76553827
 20
221.3772846896
 30
0.0
 40
18.18981062148652
100
AcDbArc
 50
250.2272037995
 51
269.5166382001
  0
ARC
  5
121
330
1F
100
AcDbEntity
  8
0
  6
Continuous
 62
     7
370
    25
100
AcDbCircle
 10
1105.4586341529
 20
197.998958015
 30
0.0
 40
18.1898106214853
100
AcDbArc
 50
70.2272037995
 51
89.5166382001
  0
LINE
  5
122
330
1F
100
AcDbEntity
  8
0
  6
Continuous
 62
     7
370
    25
100
AcDbLine
 10
1111.6120862114
 20
215.1163245826
 30
0.0
 11
1111.6120862114
 21
204.2599181221
 31
0.0
  0
LWPOLYLINE
  5
123
330
1F
100
AcDbEntity
  8
0
  6
Continuous
 62
     7
370
    25
100
AcDbPolyline
 90
        3
 70
   128
 43
0.0
 10
1111.6120862114
 20
204.2599181221
 10
1108.6725166497
 20
203.4822979843
 10
1105.6120862114
 20
203.1881213523
  0
LINE
  5
124
330
1F
100
AcDbEntity
  8
0
  6
Continuous
 62
     7
370
    25
100
AcDbLine
 10
1099.6120862114
 20
215.1163245826
 30
0.0
 11
1099.6120862114
 21
204.2599181221
 31
0.0
  0
LWPOLYLINE
  5
125
330
1F
100
AcDbEntity
  8
0
  6
Continuous
 62
     7
370
    25
100
AcDbPolyline
 90
        3
 70
   128
 43
0.0
 10
1099.6120862114
 20
215.1163245826
 10
1102.5516557732
 20
215.8939447204
 10
1105.6120862114
 20
216.1881213523
  0
ARC
  5
126
330
1F
100
AcDbEntity
  8
0
  6
Continuous
 62
     7
370
    25
100
AcDbCircle
 10
1093.4586341529
 20
197.998958015
 30
0.0
 40
18.1898106214845
100
AcDbArc
 50
70.2272037995
 51
89.5166382001
  0
ARC
  5
127
330
1F
100
AcDbEntity
  8
0
  6
Continuous
 62
     7
370
    25
100
AcDbCircle
 10
1093.76553827
 20
221.3772846896
 30
0.0
 40
18.1898106214873
100
AcDbArc
 50
250.2272037995
 51
269.5166382001
  0
LINE
  5
128
330
1F
100
AcDbEntity
  8
0
  6
Continuous
 62
     7
370
    25
100
AcDbLine
 10
1087.6120862114
 20
215.1163245826
 30
0.0
 11
1087.6120862114
 21
204.2599181221
 31
0.0
  0
LWPOLYLINE
  5
129
330
1F
100
AcDbEntity
  8
0
  6
Continuous
 62
     7
370
    25
100
AcDbPolyline
 90
        3
 70
   128
 43
0.0
 10
1087.6120862114
 20
215.1163245826
 10
1090.5516557732
 20
215.8939447204
 10
1093.6120862114
 20
216.1881213523
  0
LINE
  5
12A
330
1F
100
AcDbEntity
  8
0
  6
Continuous
 62
     7
370
    25
100
AcDbLine
 10
1105.6120862114
 20
216.1881213523
 30
0.0
 11
1093.6120862114
 21
216.1881213523
 31
0.0
  0
LINE
  5
12B
330
1F
100
AcDbEntity
  8
0
  6
Continuous
 62
     7
370
    25
100
AcDbLine
 10
1087.6120862114
 20
215.1163245826
 30
0.0
 11
1087.6120862114
 21
216.1881213523
 31
0.0
  0
LINE
  5
12C
330
1F
100
AcDbEntity
  8
0
  6
Continuous
 62
     7
370
    25
100
AcDbLine
 10
1093.6120862114
 20
216.1881213523
 30
0.0
 11
1087.6120862114
 21
216.1881213523
 31
0.0
  0
LINE
  5
12D
330
1F
100
AcDbEntity
  8
0
  6
Continuous
 62
     7
370
    25
100
AcDbLine
 10
1111.6120862114
 20
215.1163245826
 30
0.0
 11
1111.6120862114
 21
216.1881213523
 31
0.0
  0
LINE
  5
12E
330
1F
100
AcDbEntity
  8
0
  6
Continuous
 62
     7
370
    25
100
AcDbLine
 10
1111.6120862114
 20
216.1881213523
 30
0.0
 11
1105.6120862114
 21
216.1881213523
 31
0.0
  0
LINE
  5
12F
330
1F
100
AcDbEntity
  8
0
  6
Continuous
 62
     7
370
    25
100
AcDbLine
 10
1099.6120862114
 20
203.2599181221
 30
0.0
 11
1099.3406791469
 21
203.1881213523
 31
0.0
  0
LINE
  5
130
330
1F
100
AcDbEntity
  8
0
  6
Continuous
 62
     7
370
    25
100
AcDbLine
 10
1099.8793924139
 20
203.1881213523
 30
0.0
 11
1099.6120862114
 21
203.2599181221
 31
0.0
  0
ARC
  5
131
330
1F
100
AcDbEntity
  8
0
  6
Continuous
 62
     7
370
    25
100
AcDbCircle
 10
1093.4586341529
 20
196.998958015
 30
0.0
 40
18.1898106214853
100
AcDbArc
 50
70.2272037995
 51
89.5166382001
  0
LWPOLYLINE
  5
132
330
1F
100
AcDbEntity
  8
0
  6
Continuous
 62
     7
370
    25
100
AcDbPolyline
 90
        3
 70
   128
 43
0.0
 10
1099.6120862114
 20
214.1163245826
 10
1102.5516557732
 20
214.8939447204
 10
1105.6120862114
 20
215.1881213523
  0
LINE
  5
133
330
1F
100
AcDbEntity
  8
0
  6
Continuous
 62
     7
370
    25
100
AcDbLine
 10
1099.6120862114
 20
214.1163245826
 30
0.0
 11
1099.6120862114
 21
203.2599181221
 31
0.0
  0
LINE
  5
134
330
1F
100
AcDbEntity
  8
0
  6
Continuous
 62
     7
370
    25
100
AcDbLine
 10
1087.8793924139
 20
203.1881213523
 30
0.0
 11
1087.6120862114
 21
203.2599181221
 31
0.0
  0
LINE
  5
135
330
1F
100
AcDbEntity
  8
0
  6
Continuous
 62
     7
370
    25
100
AcDbLine
 10
1087.6120862114
 20
214.1163245826
 30
0.0
 11
1087.6120862114
 21
203.2599181221
 31
0.0
  0
LWPOLYLINE
  5
136
330
1F
100
AcDbEntity
  8
0
  6
Continuous
 62
     7
370
    25
100
AcDbPolyline
 90
        3
 70
   128
 43
0.0
 10
1087.6120862114
 20
214.1163245826
 10
1090.5516557732
 20
214.8939447204
 10
1093.6120862114
 20
215.1881213523
  0
ARC
  5
137
330
1F
100
AcDbEntity
  8
0
  6
Continuous
 62
     7
370
    25
100
AcDbCircle
 10
1105.4586341529
 20
196.998958015
 30
0.0
 40
18.18981062148428
100
AcDbArc
 50
70.2272037995
 51
89.5166382001
  0
LINE
  5
138
330
1F
100
AcDbEntity
  8
0
  6
Continuous
 62
     7
370
    25
100
AcDbLine
 10
1111.6120862114
 20
214.1163245826
 30
0.0
 11
1111.6120862114
 21
203.2599181221
 31
0.0
  0
LINE
  5
139
330
1F
100
AcDbEntity
  8
0
  6
Continuous
 62
     7
370
    25
100
AcDbLine
 10
1111.6120862114
 20
203.2599181221
 30
0.0
 11
1111.3406791469
 21
203.1881213523
 31
0.0
  0
LINE
  5
13A
330
1F
100
AcDbEntity
  8
0
  6
Continuous
 62
     7
370
    25
100
AcDbLine
 10
1084.6120862114
 20
202.1881213523
 30
0.0
 11
1114.6120862114
 21
202.1881213523
 31
0.0
  0
LINE
  5
13B
330
1F
100
AcDbEntity
  8
0
  6
Continuous
 62
     7
370
    25
100
AcDbLine
 10
1084.6120862114
 20
203.1881213523
 30
0.0
 11
1114.6120862114
 21
203.1881213523
 31
0.0
  0
LINE
  5
13C
330
1F
100
AcDbEntity
  8
0
  6
Continuous
 62
     7
370
    25
100
AcDbLine
 10
1060.6120862114
 20
97.6881213523
 30
0.0
 11
1150.6120862114
 21
97.6881213523
 31
0.0
  0
LINE
  5
13D
330
1F
100
AcDbEntity
  8
0
  6
Continuous
 62
     7
370
    25
100
AcDbLine
 10
1150.6120862114
 20
94.6881213523
 30
0.0
 11
1150.6120862114
 21
97.6881213523
 31
0.0
  0
LINE
  5
13E
330
1F
100
AcDbEntity
  8
0
  6
Continuous
 62
     7
370
    25
100
AcDbLine
 10
1150.6120862114
 20
94.6881213523
 30
0.0
 11
1060.6120862114
 21
94.6881213523
 31
0.0
  0
LINE
  5
13F
330
1F
100
AcDbEntity
  8
0
  6
Continuous
 62
     7
370
    25
100
AcDbLine
 10
1060.6120862114
 20
97.6881213523
 30
0.0
 11
1060.6120862114
 21
94.6881213523
 31
0.0
  0
LINE
  5
140
330
1F
100
AcDbEntity
  8
0
  6
Continuous
 62
     7
370
    25
100
AcDbLine
 10
1058.6120862114
 20
189.6881213523
 30
0.0
 11
1058.6120862114
 21
99.6881213523
 31
0.0
  0
LINE
  5
141
330
1F
100
AcDbEntity
  8
0
  6
Continuous
 62
     7
370
    25
100
AcDbLine
 10
1058.6120862114
 20
99.6881213523
 30
0.0
 11
1055.6120862114
 21
99.6881213523
 31
0.0
  0
LINE
  5
142
330
1F
100
AcDbEntity
  8
0
  6
Continuous
 62
     7
370
    25
100
AcDbLine
 10
1055.6120862114
 20
99.6881213523
 30
0.0
 11
1055.6120862114
 21
189.6881213523
 31
0.0
  0
LINE
  5
143
330
1F
100
AcDbEntity
  8
0
  6
Continuous
 62
     7
370
    25
100
AcDbLine
 10
1058.6120862114
 20
189.6881213523
 30
0.0
 11
1055.6120862114
 21
189.6881213523
 31
0.0
  0
LINE
  5
144
330
1F
100
AcDbEntity
  8
0
  6
Continuous
 62
     7
370
    25
100
AcDbLine
 10
1155.6120862114
 20
189.6881213523
 30
0.0
 11
1155.6120862114
 21
99.6881213523
 31
0.0
  0
LINE
  5
145
330
1F
100
AcDbEntity
  8
0
  6
Continuous
 62
     7
370
    25
100
AcDbLine
 10
1155.6120862114
 20
99.6881213523
 30
0.0
 11
1152.6120862114
 21
99.6881213523
 31
0.0
  0
LINE
  5
146
330
1F
100
AcDbEntity
  8
0
  6
Continuous
 62
     7
370
    25
100
AcDbLine
 10
1152.6120862114
 20
99.6881213523
 30
0.0
 11
1152.6120862114
 21
189.6881213523
 31
0.0
  0
LINE
  5
147
330
1F
100
AcDbEntity
  8
0
  6
Continuous
 62
     7
370
    25
100
AcDbLine
 10
1155.6120862114
 20
189.6881213523
 30
0.0
 11
1152.6120862114
 21
189.6881213523
 31
0.0
  0
ARC
  5
148
330
1F
100
AcDbEntity
  8
0
  6
Continuous
 62
     7
370
    25
100
AcDbCircle
 10
1150.6120862114
 20
99.6881213523
 30
0.0
 40
5.000000000000227
100
AcDbArc
 50
270.0
 51
0.0
  0
ARC
  5
149
330
1F
100
AcDbEntity
  8
0
  6
Continuous
 62
     7
370
    25
100
AcDbCircle
 10
1150.6120862114
 20
99.6881213523
 30
0.0
 40
2.0
100
AcDbArc
 50
270.0
 51
0.0
  0
ARC
  5
14A
330
1F
100
AcDbEntity
  8
0
  6
Continuous
 62
     7
370
    25
100
AcDbCircle
 10
1060.6120862114
 20
189.6881213523
 30
0.0
 40
2.0
100
AcDbArc
 50
90.0
 51
180.0
  0
ARC
  5
14B
330
1F
100
AcDbEntity
  8
0
  6
Continuous
 62
     7
370
    25
100
AcDbCircle
 10
1060.6120862114
 20
189.6881213523
 30
0.0
 40
5.0
100
AcDbArc
 50
90.0
 51
180.0
  0
LINE
  5
14C
330
1F
100
AcDbEntity
  8
0
  6
Continuous
 62
     7
370
    25
100
AcDbLine
 10
1060.6120862114
 20
191.6881213523
 30
0.0
 11
1060.6120862114
 21
194.6881213523
 31
0.0
  0
ARC
  5
14D
330
1F
100
AcDbEntity
  8
0
  6
Continuous
 62
     7
370
    25
100
AcDbCircle
 10
1150.6120862114
 20
189.6881213523
 30
0.0
 40
5.000000000000227
100
AcDbArc
 50
0.0
 51
90.0
  0
ARC
  5
14E
330
1F
100
AcDbEntity
  8
0
  6
Continuous
 62
     7
370
    25
100
AcDbCircle
 10
1150.6120862114
 20
189.6881213523
 30
0.0
 40
2.0
100
AcDbArc
 50
0.0
 51
90.0
  0
LINE
  5
14F
330
1F
100
AcDbEntity
  8
0
  6
Continuous
 62
     7
370
    25
100
AcDbLine
 10
1150.6120862114
 20
194.6881213523
 30
0.0
 11
1150.6120862114
 21
191.6881213523
 31
0.0
  0
LINE
  5
150
330
1F
100
AcDbEntity
  8
0
  6
Continuous
 62
     7
370
    25
100
AcDbLine
 10
1150.6120862114
 20
191.6881213523
 30
0.0
 11
1060.6120862114
 21
191.6881213523
 31
0.0
  0
LINE
  5
151
330
1F
100
AcDbEntity
  8
0
  6
Continuous
 62
     7
370
    25
100
AcDbLine
 10
1060.6120862114
 20
194.6881213523
 30
0.0
 11
1150.6120862114
 21
194.6881213523
 31
0.0
  0
ARC
  5
152
330
1F
100
AcDbEntity
  8
0
  6
Continuous
 62
     7
370
    25
100
AcDbCircle
 10
1060.6120862114
 20
99.6881213523
 30
0.0
 40
2.0
100
AcDbArc
 50
180.0
 51
270.0
  0
ARC
  5
153
330
1F
100
AcDbEntity
  8
0
  6
Continuous
 62
     7
370
    25
100
AcDbCircle
 10
1060.6120862114
 20
99.6881213523
 30
0.0
 40
5.0
100
AcDbArc
 50
180.0
 51
270.0
  0
ARC
  5
154
330
1F
100
AcDbEntity
  8
0
  6
Continuous
 62
     7
370
    25
100
AcDbCircle
 10
-619.5316799408
 20
90.0210822761
 30
0.0
 40
4.980806935742512
100
AcDbArc
 50
35.7787818991
 51
125.7770603228
  0
ARC
  5
155
330
1F
100
AcDbEntity
  8
0
  6
Continuous
 62
     7
370
    25
100
AcDbCircle
 10
-619.5090728157
 20
89.9899662379
 30
0.0
 40
4.980806935742204
100
AcDbArc
 50
306.2229396772
 51
36.2212181009
  0
ARC
  5
156
330
1F
100
AcDbEntity
  8
0
  6
Continuous
 62
     7
370
    25
100
AcDbCircle
 10
-468.9807967995
 20
199.355160431
 30
0.0
 40
4.980806935742399
100
AcDbArc
 50
215.7787818991
 51
305.7770603228
  0
ARC
  5
157
330
1F
100
AcDbEntity
  8
0
  6
Continuous
 62
     7
370
    25
100
AcDbCircle
 10
-469.0034039246
 20
199.3862764692
 30
0.0
 40
4.980806935742403
100
AcDbArc
 50
126.2229396772
 51
216.2212181009
  0
ARC
  5
158
330
1F
100
AcDbEntity
  8
0
  6
Continuous
 62
     7
370
    25
100
AcDbCircle
 10
-637.2878292161
 20
144.7073521228
 30
0.0
 40
4.980806935742517
100
AcDbArc
 50
359.7787818991
 51
89.7770603228
  0
ARC
  5
159
330
1F
100
AcDbEntity
  8
0
  6
Continuous
 62
     7
370
    25
100
AcDbCircle
 10
-637.2878292161
 20
144.6688905843
 30
0.0
 40
4.980806935742744
100
AcDbArc
 50
270.2229396772
 51
0.2212181009
  0
ARC
  5
15A
330
1F
100
AcDbEntity
  8
0
  6
Continuous
 62
     7
370
    25
100
AcDbCircle
 10
-572.9862914069
 20
233.1723646834
 30
0.0
 40
4.980806935742584
100
AcDbArc
 50
287.7787818991
 51
17.7770603228
  0
ARC
  5
15B
330
1F
100
AcDbEntity
  8
0
  6
Continuous
 62
     7
370
    25
100
AcDbCircle
 10
-573.0228705037
 20
233.1604794144
 30
0.0
 40
4.980806935742507
100
AcDbArc
 50
198.2229396772
 51
288.2212181009
  0
ARC
  5
15C
330
1F
100
AcDbEntity
  8
0
  6
Continuous
 62
     7
370
    25
100
AcDbCircle
 10
-515.4896062366
 20
233.1604794144
 30
0.0
 40
4.980806935742423
100
AcDbArc
 50
251.7787818991
 51
341.7770603228
  0
ARC
  5
15D
330
1F
100
AcDbEntity
  8
0
  6
Continuous
 62
     7
370
    25
100
AcDbCircle
 10
-515.5261853334
 20
233.1723646834
 30
0.0
 40
4.980806935742503
100
AcDbArc
 50
162.2229396772
 51
252.2212181009
  0
ARC
  5
15E
330
1F
100
AcDbEntity
  8
0
  6
Continuous
 62
     7
370
    25
100
AcDbCircle
 10
-515.5261853334
 20
56.2038780237
 30
0.0
 40
4.980806935742414
100
AcDbArc
 50
107.7787818991
 51
197.7770603228
  0
ARC
  5
15F
330
1F
100
AcDbEntity
  8
0
  6
Continuous
 62
     7
370
    25
100
AcDbCircle
 10
-515.4896062366
 20
56.2157632927
 30
0.0
 40
4.980806935742542
100
AcDbArc
 50
18.2229396772
 51
108.2212181009
  0
ARC
  5
160
330
1F
100
AcDbEntity
  8
0
  6
Continuous
 62
     7
370
    25
100
AcDbCircle
 10
-619.5090728157
 20
199.3862764692
 30
0.0
 40
4.980806935742463
100
AcDbArc
 50
323.7787818991
 51
53.7770603228
  0
ARC
  5
161
330
1F
100
AcDbEntity
  8
0
  6
Continuous
 62
     7
370
    25
100
AcDbCircle
 10
-619.5316799408
 20
199.355160431
 30
0.0
 40
4.980806935742443
100
AcDbArc
 50
234.2229396772
 51
324.2212181009
  0
ARC
  5
162
330
1F
100
AcDbEntity
  8
0
  6
Continuous
 62
     7
370
    25
100
AcDbCircle
 10
-469.0034039246
 20
89.9899662379
 30
0.0
 40
4.98080693574255
100
AcDbArc
 50
143.7787818991
 51
233.7770603228
  0
ARC
  5
163
330
1F
100
AcDbEntity
  8
0
  6
Continuous
 62
     7
370
    25
100
AcDbCircle
 10
-468.9807967995
 20
90.0210822761
 30
0.0
 40
4.980806935742189
100
AcDbArc
 50
54.2229396772
 51
144.2212181009
  0
ARC
  5
164
330
1F
100
AcDbEntity
  8
0
  6
Continuous
 62
     7
370
    25
100
AcDbCircle
 10
-573.0228705037
 20
56.2157632927
 30
0.0
 40
4.980806935742554
100
AcDbArc
 50
71.7787818991
 51
161.7770603228
  0
ARC
  5
165
330
1F
100
AcDbEntity
  8
0
  6
Continuous
 62
     7
370
    25
100
AcDbCircle
 10
-572.9862914069
 20
56.2038780237
 30
0.0
 40
4.980806935742491
100
AcDbArc
 50
342.2229396772
 51
72.2212181009
  0
ARC
  5
166
330
1F
100
AcDbEntity
  8
0
  6
Continuous
 62
     7
370
    25
100
AcDbCircle
 10
-451.2246475242
 20
144.6688905843
 30
0.0
 40
4.980806935742142
100
AcDbArc
 50
179.7787818991
 51
269.7770603228
  0
ARC
  5
167
330
1F
100
AcDbEntity
  8
0
  6
Continuous
 62
     7
370
    25
100
AcDbCircle
 10
-451.2246475242
 20
144.7073521228
 30
0.0
 40
4.980806935742289
100
AcDbArc
 50
90.2229396772
 51
180.2212181009
  0
LINE
  5
168
330
1F
100
AcDbEntity
  8
0
  6
Continuous
 62
     7
370
    25
100
AcDbLine
 10
-311.5020456116
 20
219.6881213536
 30
0.0
 11
-181.2562383701
 21
219.6881213536
 31
0.0
  0
LINE
  5
169
330
1F
100
AcDbEntity
  8
0
  6
Continuous
 62
     7
370
    25
100
AcDbLine
 10
-181.2562383701
 20
219.6881213536
 30
0.0
 11
-181.2562383701
 21
69.6881213536
 31
0.0
  0
ARC
  5
16A
330
1F
100
AcDbEntity
  8
0
  6
Continuous
 62
     7
370
    25
100
AcDbCircle
 10
-544.2562383701
 20
144.6881213536
 30
0.0
 40
244.5393920141695
100
AcDbArc
 50
342.1395877444
 51
17.8604122556
  0
LINE
  5
16B
330
1F
100
AcDbEntity
  8
0
  6
Continuous
 62
     7
370
    25
100
AcDbLine
 10
-311.5020456116
 20
69.6881213536
 30
0.0
 11
-181.2562383701
 21
69.6881213536
 31
0.0
  0
LINE
  5
16C
330
1F
100
AcDbEntity
  8
0
  6
Continuous
 62
     7
370
    25
100
AcDbLine
 10
-181.2562383701
 20
219.6881213536
 30
0.0
 11
-169.2562383701
 21
219.6881213536
 31
0.0
  0
LINE
  5
16D
330
1F
100
AcDbEntity
  8
0
  6
Continuous
 62
     7
370
    25
100
AcDbLine
 10
-169.2562383701
 20
69.6881213536
 30
0.0
 11
-181.2562383701
 21
69.6881213536
 31
0.0
  0
LWPOLYLINE
  5
16E
330
1F
100
AcDbEntity
  8
0
  6
Continuous
 62
     7
370
    25
100
AcDbPolyline
 90
        3
 70
   128
 43
0.0
 10
-132.0756817865
 20
414.6881213536
 10
-132.4968926945
 20
416.2803881995
 10
-132.6562383701
 20
417.9381213536
  0
ARC
  5
16F
330
1F
100
AcDbEntity
  8
0
  6
Continuous
 62
     7
370
    25
100
AcDbCircle
 10
-122.8037997073
 20
411.3550059207
 30
0.0
 40
9.852789238578978
100
AcDbArc
 50
160.2271792438
 51
179.5166627558
  0
ARC
  5
170
330
1F
100
AcDbEntity
  8
0
  6
Continuous
 62
     7
370
    25
100
AcDbCircle
 10
-122.8037997073
 20
417.8550059207
 30
0.0
 40
9.852789238579565
100
AcDbArc
 50
160.2271792438
 51
179.5166627558
  0
LINE
  5
171
330
1F
100
AcDbEntity
  8
0
  6
Continuous
 62
     7
370
    25
100
AcDbLine
 10
-132.0756817865
 20
421.1881213536
 30
0.0
 11
-129.5367949537
 21
421.1881213536
 31
0.0
  0
ARC
  5
172
330
1F
100
AcDbEntity
  8
0
  6
Continuous
 62
     7
370
    25
100
AcDbCircle
 10
-138.8086770329
 20
417.8550059207
 30
0.0
 40
9.852789238579579
100
AcDbArc
 50
0.4833372442
 51
19.7728207562
  0
LWPOLYLINE
  5
173
330
1F
100
AcDbEntity
  8
0
  6
Continuous
 62
     7
370
    25
100
AcDbPolyline
 90
        3
 70
   128
 43
0.0
 10
-129.5367949537
 20
414.6881213536
 10
-129.1155840458
 20
416.2803881995
 10
-128.9562383701
 20
417.9381213536
  0
LINE
  5
174
330
1F
100
AcDbEntity
  8
0
  6
Continuous
 62
     7
370
    25
100
AcDbLine
 10
-132.0756817865
 20
414.6881213536
 30
0.0
 11
-129.5367949537
 21
414.6881213536
 31
0.0
  0
LWPOLYLINE
  5
175
330
1F
100
AcDbEntity
  8
0
  6
Continuous
 62
     7
370
    25
100
AcDbPolyline
 90
        3
 70
   128
 43
0.0
 10
-132.0756817865
 20
408.1881213536
 10
-132.4968926945
 20
409.7803881995
 10
-132.6562383701
 20
411.4381213536
  0
ARC
  5
176
330
1F
100
AcDbEntity
  8
0
  6
Continuous
 62
     7
370
    25
100
AcDbCircle
 10
-138.8086770329
 20
411.3550059207
 30
0.0
 40
9.852789238579032
100
AcDbArc
 50
0.4833372442
 51
19.7728207562
  0
LWPOLYLINE
  5
177
330
1F
100
AcDbEntity
  8
0
  6
Continuous
 62
     7
370
    25
100
AcDbPolyline
 90
        3
 70
   128
 43
0.0
 10
-129.5367949537
 20
408.1881213536
 10
-129.1155840458
 20
409.7803881995
 10
-128.9562383701
 20
411.4381213536
  0
LINE
  5
178
330
1F
100
AcDbEntity
  8
0
  6
Continuous
 62
     7
370
    25
100
AcDbLine
 10
-132.0756817865
 20
408.1881213536
 30
0.0
 11
-129.5367949537
 21
408.1881213536
 31
0.0
  0
LINE
  5
179
330
1F
100
AcDbEntity
  8
0
  6
Continuous
 62
     7
370
    25
100
AcDbLine
 10
-128.9562383701
 20
411.4381213536
 30
0.0
 11
-128.9562383701
 21
417.9381213536
 31
0.0
  0
LINE
  5
17A
330
1F
100
AcDbEntity
  8
0
  6
Continuous
 62
     7
370
    25
100
AcDbLine
 10
-128.9562383701
 20
408.1881213536
 30
0.0
 11
-128.9562383701
 21
411.4381213536
 31
0.0
  0
LINE
  5
17B
330
1F
100
AcDbEntity
  8
0
  6
Continuous
 62
     7
370
    25
100
AcDbLine
 10
-128.9562383701
 20
421.1881213536
 30
0.0
 11
-128.9562383701
 21
417.9381213536
 31
0.0
  0
LINE
  5
17C
330
1F
100
AcDbEntity
  8
0
  6
Continuous
 62
     7
370
    25
100
AcDbLine
 10
-125.8962383701
 20
420.1681213536
 30
0.0
 11
-125.8962383701
 21
409.208121359
 31
0.0
  0
LINE
  5
17D
330
1F
100
AcDbEntity
  8
0
  6
Continuous
 62
     7
370
    25
100
AcDbLine
 10
-128.9562383701
 20
408.1881213536
 30
0.0
 11
-129.5367949537
 21
408.1881213536
 31
0.0
  0
LINE
  5
17E
330
1F
100
AcDbEntity
  8
0
  6
Continuous
 62
     7
370
    25
100
AcDbLine
 10
-132.6562383701
 20
408.1881213536
 30
0.0
 11
-132.0756817865
 21
408.1881213536
 31
0.0
  0
LINE
  5
17F
330
1F
100
AcDbEntity
  8
0
  6
Continuous
 62
     7
370
    25
100
AcDbLine
 10
-128.9562383701
 20
421.1881213536
 30
0.0
 11
-129.5367949537
 21
421.1881213536
 31
0.0
  0
LINE
  5
180
330
1F
100
AcDbEntity
  8
0
  6
Continuous
 62
     7
370
    25
100
AcDbLine
 10
-132.6562383701
 20
421.1881213536
 30
0.0
 11
-132.0756817865
 21
421.1881213536
 31
0.0
  0
LWPOLYLINE
  5
181
330
1F
100
AcDbEntity
  8
0
  6
Continuous
 62
     7
370
    25
100
AcDbPolyline
 90
        3
 70
   128
 43
0.0
 10
-132.0756817865
 20
766.6881213535
 10
-132.4968926945
 20
768.2803881995
 10
-132.6562383701
 20
769.9381213535
  0
ARC
  5
182
330
1F
100
AcDbEntity
  8
0
  6
Continuous
 62
     7
370
    25
100
AcDbCircle
 10
-122.8037997073
 20
763.3550059207
 30
0.0
 40
9.852789238579351
100
AcDbArc
 50
160.2271792438
 51
179.5166627558
  0
ARC
  5
183
330
1F
100
AcDbEntity
  8
0
  6
Continuous
 62
     7
370
    25
100
AcDbCircle
 10
-122.8037997073
 20
769.8550059207
 30
0.0
 40
9.852789238578639
100
AcDbArc
 50
160.2271792438
 51
179.5166627558
  0
LINE
  5
184
330
1F
100
AcDbEntity
  8
0
  6
Continuous
 62
     7
370
    25
100
AcDbLine
 10
-132.0756817865
 20
773.1881213535
 30
0.0
 11
-129.5367949537
 21
773.1881213535
 31
0.0
  0
ARC
  5
185
330
1F
100
AcDbEntity
  8
0
  6
Continuous
 62
     7
370
    25
100
AcDbCircle
 10
-138.8086770329
 20
769.8550059207
 30
0.0
 40
9.852789238578664
100
AcDbArc
 50
0.4833372442
 51
19.7728207562
  0
LWPOLYLINE
  5
186
330
1F
100
AcDbEntity
  8
0
  6
Continuous
 62
     7
370
    25
100
AcDbPolyline
 90
        3
 70
   128
 43
0.0
 10
-129.5367949537
 20
766.6881213535
 10
-129.1155840458
 20
768.2803881995
 10
-128.9562383701
 20
769.9381213535
  0
LINE
  5
187
330
1F
100
AcDbEntity
  8
0
  6
Continuous
 62
     7
370
    25
100
AcDbLine
 10
-132.0756817865
 20
766.6881213535
 30
0.0
 11
-129.5367949537
 21
766.6881213535
 31
0.0
  0
LWPOLYLINE
  5
188
330
1F
100
AcDbEntity
  8
0
  6
Continuous
 62
     7
370
    25
100
AcDbPolyline
 90
        3
 70
   128
 43
0.0
 10
-132.0756817865
 20
760.1881213535
 10
-132.4968926945
 20
761.7803881995
 10
-132.6562383701
 20
763.4381213535
  0
ARC
  5
189
330
1F
100
AcDbEntity
  8
0
  6
Continuous
 62
     7
370
    25
100
AcDbCircle
 10
-138.8086770329
 20
763.3550059207
 30
0.0
 40
9.852789238579366
100
AcDbArc
 50
0.4833372442
 51
19.7728207562
  0
LWPOLYLINE
  5
18A
330
1F
100
AcDbEntity
  8
0
  6
Continuous
 62
     7
370
    25
100
AcDbPolyline
 90
        3
 70
   128
 43
0.0
 10
-129.5367949537
 20
760.1881213535
 10
-129.1155840458
 20
761.7803881995
 10
-128.9562383701
 20
763.4381213535
  0
LINE
  5
18B
330
1F
100
AcDbEntity
  8
0
  6
Continuous
 62
     7
370
    25
100
AcDbLine
 10
-132.0756817865
 20
760.1881213535
 30
0.0
 11
-129.5367949537
 21
760.1881213535
 31
0.0
  0
LINE
  5
18C
330
1F
100
AcDbEntity
  8
0
  6
Continuous
 62
     7
370
    25
100
AcDbLine
 10
-128.9562383701
 20
763.4381213535
 30
0.0
 11
-128.9562383701
 21
769.9381213535
 31
0.0
  0
LINE
  5
18D
330
1F
100
AcDbEntity
  8
0
  6
Continuous
 62
     7
370
    25
100
AcDbLine
 10
-125.8962383701
 20
772.1681213535
 30
0.0
 11
-125.8962383701
 21
761.208121359
 31
0.0
  0
LINE
  5
18E
330
1F
100
AcDbEntity
  8
0
  6
Continuous
 62
     7
370
    25
100
AcDbLine
 10
-128.9562383701
 20
760.1881213535
 30
0.0
 11
-128.9562383701
 21
763.4381213535
 31
0.0
  0
LINE
  5
18F
330
1F
100
AcDbEntity
  8
0
  6
Continuous
 62
     7
370
    25
100
AcDbLine
 10
-128.9562383701
 20
773.1881213535
 30
0.0
 11
-128.9562383701
 21
769.9381213535
 31
0.0
  0
LINE
  5
190
330
1F
100
AcDbEntity
  8
0
  6
Continuous
 62
     7
370
    25
100
AcDbLine
 10
-132.6562383701
 20
773.1881213535
 30
0.0
 11
-132.0756817865
 21
773.1881213535
 31
0.0
  0
LINE
  5
191
330
1F
100
AcDbEntity
  8
0
  6
Continuous
 62
     7
370
    25
100
AcDbLine
 10
-128.9562383701
 20
773.1881213535
 30
0.0
 11
-129.5367949537
 21
773.1881213535
 31
0.0
  0
LINE
  5
192
330
1F
100
AcDbEntity
  8
0
  6
Continuous
 62
     7
370
    25
100
AcDbLine
 10
-132.6562383701
 20
760.1881213535
 30
0.0
 11
-132.0756817865
 21
760.1881213535
 31
0.0
  0
LINE
  5
193
330
1F
100
AcDbEntity
  8
0
  6
Continuous
 62
     7
370
    25
100
AcDbLine
 10
-128.9562383701
 20
760.1881213535
 30
0.0
 11
-129.5367949537
 21
760.1881213535
 31
0.0
  0
LWPOLYLINE
  5
194
330
1F
100
AcDbEntity
  8
0
  6
Continuous
 62
     7
370
    25
100
AcDbPolyline
 90
        3
 70
   128
 43
0.0
 10
-132.0756817866
 20
-477.3118786465
 10
-132.4968926945
 20
-475.7196118006
 10
-132.6562383702
 20
-474.0618786465
  0
ARC
  5
195
330
1F
100
AcDbEntity
  8
0
  6
Continuous
 62
     7
370
    25
100
AcDbCircle
 10
-122.8037997073
 20
-474.1449940794
 30
0.0
 40
9.852789238578978
100
AcDbArc
 50
160.2271792438
 51
179.5166627558
  0
LINE
  5
196
330
1F
100
AcDbEntity
  8
0
  6
Continuous
 62
     7
370
    25
100
AcDbLine
 10
-132.0756817866
 20
-470.8118786465
 30
0.0
 11
-129.5367949538
 21
-470.8118786465
 31
0.0
  0
ARC
  5
197
330
1F
100
AcDbEntity
  8
0
  6
Continuous
 62
     7
370
    25
100
AcDbCircle
 10
-138.808677033
 20
-474.1449940794
 30
0.0
 40
9.852789238579005
100
AcDbArc
 50
0.4833372442
 51
19.7728207562
  0
LWPOLYLINE
  5
198
330
1F
100
AcDbEntity
  8
0
  6
Continuous
 62
     7
370
    25
100
AcDbPolyline
 90
        3
 70
   128
 43
0.0
 10
-129.5367949538
 20
-477.3118786465
 10
-129.1155840458
 20
-475.7196118006
 10
-128.9562383702
 20
-474.0618786465
  0
LINE
  5
199
330
1F
100
AcDbEntity
  8
0
  6
Continuous
 62
     7
370
    25
100
AcDbLine
 10
-132.0756817866
 20
-477.3118786465
 30
0.0
 11
-129.5367949538
 21
-477.3118786465
 31
0.0
  0
ARC
  5
19A
330
1F
100
AcDbEntity
  8
0
  6
Continuous
 62
     7
370
    25
100
AcDbCircle
 10
-122.8037997073
 20
-480.6449940794
 30
0.0
 40
9.852789238579152
100
AcDbArc
 50
160.2271792438
 51
179.5166627558
  0
LWPOLYLINE
  5
19B
330
1F
100
AcDbEntity
  8
0
  6
Continuous
 62
     7
370
    25
100
AcDbPolyline
 90
        3
 70
   128
 43
0.0
 10
-132.0756817866
 20
-483.8118786465
 10
-132.4968926945
 20
-482.2196118006
 10
-132.6562383702
 20
-480.5618786465
  0
ARC
  5
19C
330
1F
100
AcDbEntity
  8
0
  6
Continuous
 62
     7
370
    25
100
AcDbCircle
 10
-138.808677033
 20
-480.6449940794
 30
0.0
 40
9.852789238579168
100
AcDbArc
 50
0.4833372442
 51
19.7728207562
  0
LWPOLYLINE
  5
19D
330
1F
100
AcDbEntity
  8
0
  6
Continuous
 62
     7
370
    25
100
AcDbPolyline
 90
        3
 70
   128
 43
0.0
 10
-129.5367949538
 20
-483.8118786465
 10
-129.1155840458
 20
-482.2196118006
 10
-128.9562383702
 20
-480.5618786465
  0
LINE
  5
19E
330
1F
100
AcDbEntity
  8
0
  6
Continuous
 62
     7
370
    25
100
AcDbLine
 10
-132.0756817866
 20
-483.8118786465
 30
0.0
 11
-129.5367949538
 21
-483.8118786465
 31
0.0
  0
LINE
  5
19F
330
1F
100
AcDbEntity
  8
0
  6
Continuous
 62
     7
370
    25
100
AcDbLine
 10
-128.9562383702
 20
-480.5618786465
 30
0.0
 11
-128.9562383702
 21
-474.0618786465
 31
0.0
  0
LINE
  5
1A0
330
1F
100
AcDbEntity
  8
0
  6
Continuous
 62
     7
370
    25
100
AcDbLine
 10
-125.8962383702
 20
-471.8318786465
 30
0.0
 11
-125.8962383702
 21
-482.7918786411
 31
0.0
  0
LINE
  5
1A1
330
1F
100
AcDbEntity
  8
0
  6
Continuous
 62
     7
370
    25
100
AcDbLine
 10
-128.9562383702
 20
-483.8118786465
 30
0.0
 11
-128.9562383702
 21
-480.5618786465
 31
0.0
  0
LINE
  5
1A2
330
1F
100
AcDbEntity
  8
0
  6
Continuous
 62
     7
370
    25
100
AcDbLine
 10
-128.9562383702
 20
-470.8118786465
 30
0.0
 11
-128.9562383702
 21
-474.0618786465
 31
0.0
  0
LINE
  5
1A3
330
1F
100
AcDbEntity
  8
0
  6
Continuous
 62
     7
370
    25
100
AcDbLine
 10
-132.6562383702
 20
-483.8118786465
 30
0.0
 11
-132.0756817866
 21
-483.8118786465
 31
0.0
  0
LINE
  5
1A4
330
1F
100
AcDbEntity
  8
0
  6
Continuous
 62
     7
370
    25
100
AcDbLine
 10
-128.9562383702
 20
-483.8118786465
 30
0.0
 11
-129.5367949538
 21
-483.8118786465
 31
0.0
  0
LINE
  5
1A5
330
1F
100
AcDbEntity
  8
0
  6
Continuous
 62
     7
370
    25
100
AcDbLine
 10
-132.6562383702
 20
-470.8118786465
 30
0.0
 11
-132.0756817866
 21
-470.8118786465
 31
0.0
  0
LINE
  5
1A6
330
1F
100
AcDbEntity
  8
0
  6
Continuous
 62
     7
370
    25
100
AcDbLine
 10
-128.9562383702
 20
-470.8118786465
 30
0.0
 11
-129.5367949538
 21
-470.8118786465
 31
0.0
  0
LWPOLYLINE
  5
1A7
330
1F
100
AcDbEntity
  8
0
  6
Continuous
 62
     7
370
    25
100
AcDbPolyline
 90
        3
 70
   128
 43
0.0
 10
-132.0756817865
 20
810.1881213535
 10
-132.4968926945
 20
811.7803881995
 10
-132.6562383701
 20
813.4381213535
  0
ARC
  5
1A8
330
1F
100
AcDbEntity
  8
0
  6
Continuous
 62
     7
370
    25
100
AcDbCircle
 10
-122.8037997073
 20
813.3550059207
 30
0.0
 40
9.852789238583181
100
AcDbArc
 50
160.2271792438
 51
179.5166627558
  0
LINE
  5
1A9
330
1F
100
AcDbEntity
  8
0
  6
Continuous
 62
     7
370
    25
100
AcDbLine
 10
-132.0756817865
 20
816.6881213535
 30
0.0
 11
-129.5367949537
 21
816.6881213535
 31
0.0
  0
ARC
  5
1AA
330
1F
100
AcDbEntity
  8
0
  6
Continuous
 62
     7
370
    25
100
AcDbCircle
 10
-138.808677033
 20
813.3550059207
 30
0.0
 40
9.852789238579371
100
AcDbArc
 50
0.4833372442
 51
19.7728207562
  0
LWPOLYLINE
  5
1AB
330
1F
100
AcDbEntity
  8
0
  6
Continuous
 62
     7
370
    25
100
AcDbPolyline
 90
        3
 70
   128
 43
0.0
 10
-129.5367949537
 20
810.1881213535
 10
-129.1155840458
 20
811.7803881995
 10
-128.9562383701
 20
813.4381213535
  0
LINE
  5
1AC
330
1F
100
AcDbEntity
  8
0
  6
Continuous
 62
     7
370
    25
100
AcDbLine
 10
-132.0756817865
 20
810.1881213535
 30
0.0
 11
-129.5367949537
 21
810.1881213535
 31
0.0
  0
LWPOLYLINE
  5
1AD
330
1F
100
AcDbEntity
  8
0
  6
Continuous
 62
     7
370
    25
100
AcDbPolyline
 90
        3
 70
   128
 43
0.0
 10
-132.0756817865
 20
816.6881213535
 10
-132.4968926945
 20
818.2803881995
 10
-132.6562383701
 20
819.9381213535
  0
ARC
  5
1AE
330
1F
100
AcDbEntity
  8
0
  6
Continuous
 62
     7
370
    25
100
AcDbCircle
 10
-122.8037997073
 20
819.8550059207
 30
0.0
 40
9.852789238583584
100
AcDbArc
 50
160.2271792438
 51
179.5166627558
  0
LINE
  5
1AF
330
1F
100
AcDbEntity
  8
0
  6
Continuous
 62
     7
370
    25
100
AcDbLine
 10
-132.0756817865
 20
823.1881213535
 30
0.0
 11
-129.5367949537
 21
823.1881213535
 31
0.0
  0
ARC
  5
1B0
330
1F
100
AcDbEntity
  8
0
  6
Continuous
 62
     7
370
    25
100
AcDbCircle
 10
-138.808677033
 20
819.8550059207
 30
0.0
 40
9.852789238579758
100
AcDbArc
 50
0.4833372442
 51
19.7728207562
  0
LWPOLYLINE
  5
1B1
330
1F
100
AcDbEntity
  8
0
  6
Continuous
 62
     7
370
    25
100
AcDbPolyline
 90
        3
 70
   128
 43
0.0
 10
-129.5367949537
 20
816.6881213535
 10
-129.1155840458
 20
818.2803881995
 10
-128.9562383701
 20
819.9381213535
  0
LINE
  5
1B2
330
1F
100
AcDbEntity
  8
0
  6
Continuous
 62
     7
370
    25
100
AcDbLine
 10
-128.9562383701
 20
813.4381213535
 30
0.0
 11
-128.9562383701
 21
819.9381213535
 31
0.0
  0
LINE
  5
1B3
330
1F
100
AcDbEntity
  8
0
  6
Continuous
 62
     7
370
    25
100
AcDbLine
 10
-128.9562383701
 20
810.1881213535
 30
0.0
 11
-128.9562383701
 21
813.4381213535
 31
0.0
  0
LINE
  5
1B4
330
1F
100
AcDbEntity
  8
0
  6
Continuous
 62
     7
370
    25
100
AcDbLine
 10
-128.9562383701
 20
823.1881213535
 30
0.0
 11
-128.9562383701
 21
819.9381213535
 31
0.0
  0
LINE
  5
1B5
330
1F
100
AcDbEntity
  8
0
  6
Continuous
 62
     7
370
    25
100
AcDbLine
 10
-125.8962383701
 20
822.1681213535
 30
0.0
 11
-125.8962383701
 21
811.208121359
 31
0.0
  0
LINE
  5
1B6
330
1F
100
AcDbEntity
  8
0
  6
Continuous
 62
     7
370
    25
100
AcDbLine
 10
-128.9562383701
 20
823.1881213535
 30
0.0
 11
-129.5367949537
 21
823.1881213535
 31
0.0
  0
LINE
  5
1B7
330
1F
100
AcDbEntity
  8
0
  6
Continuous
 62
     7
370
    25
100
AcDbLine
 10
-132.6562383701
 20
823.1881213535
 30
0.0
 11
-132.0756817865
 21
823.1881213535
 31
0.0
  0
LINE
  5
1B8
330
1F
100
AcDbEntity
  8
0
  6
Continuous
 62
     7
370
    25
100
AcDbLine
 10
-128.9562383701
 20
810.1881213535
 30
0.0
 11
-129.5367949537
 21
810.1881213535
 31
0.0
  0
LINE
  5
1B9
330
1F
100
AcDbEntity
  8
0
  6
Continuous
 62
     7
370
    25
100
AcDbLine
 10
-132.6562383701
 20
810.1881213535
 30
0.0
 11
-132.0756817865
 21
810.1881213535
 31
0.0
  0
LWPOLYLINE
  5
1BA
330
1F
100
AcDbEntity
  8
0
  6
Continuous
 62
     7
370
    25
100
AcDbPolyline
 90
        3
 70
   128
 43
0.0
 10
-132.0756817865
 20
-527.3118786465
 10
-132.4968926945
 20
-525.7196118005
 10
-132.6562383701
 20
-524.0618786465
  0
ARC
  5
1BB
330
1F
100
AcDbEntity
  8
0
  6
Continuous
 62
     7
370
    25
100
AcDbCircle
 10
-122.8037997073
 20
-530.6449940793
 30
0.0
 40
9.852789238579359
100
AcDbArc
 50
160.2271792438
 51
179.5166627558
  0
ARC
  5
1BC
330
1F
100
AcDbEntity
  8
0
  6
Continuous
 62
     7
370
    25
100
AcDbCircle
 10
-122.8037997073
 20
-524.1449940793
 30
0.0
 40
9.852789238578639
100
AcDbArc
 50
160.2271792438
 51
179.5166627558
  0
LINE
  5
1BD
330
1F
100
AcDbEntity
  8
0
  6
Continuous
 62
     7
370
    25
100
AcDbLine
 10
-132.0756817865
 20
-520.8118786465
 30
0.0
 11
-129.5367949537
 21
-520.8118786465
 31
0.0
  0
ARC
  5
1BE
330
1F
100
AcDbEntity
  8
0
  6
Continuous
 62
     7
370
    25
100
AcDbCircle
 10
-138.808677033
 20
-524.1449940793
 30
0.0
 40
9.852789238578692
100
AcDbArc
 50
0.4833372442
 51
19.7728207562
  0
LWPOLYLINE
  5
1BF
330
1F
100
AcDbEntity
  8
0
  6
Continuous
 62
     7
370
    25
100
AcDbPolyline
 90
        3
 70
   128
 43
0.0
 10
-129.5367949537
 20
-527.3118786465
 10
-129.1155840458
 20
-525.7196118005
 10
-128.9562383701
 20
-524.0618786465
  0
LINE
  5
1C0
330
1F
100
AcDbEntity
  8
0
  6
Continuous
 62
     7
370
    25
100
AcDbLine
 10
-132.0756817865
 20
-527.3118786465
 30
0.0
 11
-129.5367949537
 21
-527.3118786465
 31
0.0
  0
LWPOLYLINE
  5
1C1
330
1F
100
AcDbEntity
  8
0
  6
Continuous
 62
     7
370
    25
100
AcDbPolyline
 90
        3
 70
   128
 43
0.0
 10
-132.0756817865
 20
-533.8118786465
 10
-132.4968926945
 20
-532.2196118005
 10
-132.6562383701
 20
-530.5618786465
  0
ARC
  5
1C2
330
1F
100
AcDbEntity
  8
0
  6
Continuous
 62
     7
370
    25
100
AcDbCircle
 10
-138.808677033
 20
-530.6449940793
 30
0.0
 40
9.852789238579398
100
AcDbArc
 50
0.4833372442
 51
19.7728207562
  0
LWPOLYLINE
  5
1C3
330
1F
100
AcDbEntity
  8
0
  6
Continuous
 62
     7
370
    25
100
AcDbPolyline
 90
        3
 70
   128
 43
0.0
 10
-129.5367949537
 20
-533.8118786465
 10
-129.1155840458
 20
-532.2196118005
 10
-128.9562383701
 20
-530.5618786465
  0
LINE
  5
1C4
330
1F
100
AcDbEntity
  8
0
  6
Continuous
 62
     7
370
    25
100
AcDbLine
 10
-132.0756817865
 20
-533.8118786465
 30
0.0
 11
-129.5367949537
 21
-533.8118786465
 31
0.0
  0
LINE
  5
1C5
330
1F
100
AcDbEntity
  8
0
  6
Continuous
 62
     7
370
    25
100
AcDbLine
 10
-128.9562383701
 20
-530.5618786465
 30
0.0
 11
-128.9562383701
 21
-524.0618786465
 31
0.0
  0
LINE
  5
1C6
330
1F
100
AcDbEntity
  8
0
  6
Continuous
 62
     7
370
    25
100
AcDbLine
 10
-125.8962383701
 20
-521.8318786465
 30
0.0
 11
-125.8962383701
 21
-532.791878641
 31
0.0
  0
LINE
  5
1C7
330
1F
100
AcDbEntity
  8
0
  6
Continuous
 62
     7
370
    25
100
AcDbLine
 10
-128.9562383701
 20
-533.8118786465
 30
0.0
 11
-128.9562383701
 21
-530.5618786465
 31
0.0
  0
LINE
  5
1C8
330
1F
100
AcDbEntity
  8
0
  6
Continuous
 62
     7
370
    25
100
AcDbLine
 10
-128.9562383701
 20
-520.8118786465
 30
0.0
 11
-128.9562383701
 21
-524.0618786465
 31
0.0
  0
LINE
  5
1C9
330
1F
100
AcDbEntity
  8
0
  6
Continuous
 62
     7
370
    25
100
AcDbLine
 10
-132.6562383701
 20
-520.8118786465
 30
0.0
 11
-132.0756817865
 21
-520.8118786465
 31
0.0
  0
LINE
  5
1CA
330
1F
100
AcDbEntity
  8
0
  6
Continuous
 62
     7
370
    25
100
AcDbLine
 10
-128.9562383701
 20
-520.8118786465
 30
0.0
 11
-129.5367949537
 21
-520.8118786465
 31
0.0
  0
LINE
  5
1CB
330
1F
100
AcDbEntity
  8
0
  6
Continuous
 62
     7
370
    25
100
AcDbLine
 10
-132.6562383701
 20
-533.8118786465
 30
0.0
 11
-132.0756817865
 21
-533.8118786465
 31
0.0
  0
LINE
  5
1CC
330
1F
100
AcDbEntity
  8
0
  6
Continuous
 62
     7
370
    25
100
AcDbLine
 10
-128.9562383701
 20
-533.8118786465
 30
0.0
 11
-129.5367949537
 21
-533.8118786465
 31
0.0
  0
LWPOLYLINE
  5
1CD
330
1F
100
AcDbEntity
  8
0
  6
Continuous
 62
     7
370
    25
100
AcDbPolyline
 90
        3
 70
   128
 43
0.0
 10
-132.0756817865
 20
-131.8118786464
 10
-132.4968926945
 20
-130.2196118005
 10
-132.6562383701
 20
-128.5618786464
  0
ARC
  5
1CE
330
1F
100
AcDbEntity
  8
0
  6
Continuous
 62
     7
370
    25
100
AcDbCircle
 10
-122.8037997073
 20
-128.6449940793
 30
0.0
 40
9.85278923858283
100
AcDbArc
 50
160.2271792438
 51
179.5166627558
  0
LINE
  5
1CF
330
1F
100
AcDbEntity
  8
0
  6
Continuous
 62
     7
370
    25
100
AcDbLine
 10
-132.0756817865
 20
-125.3118786464
 30
0.0
 11
-129.5367949537
 21
-125.3118786464
 31
0.0
  0
ARC
  5
1D0
330
1F
100
AcDbEntity
  8
0
  6
Continuous
 62
     7
370
    25
100
AcDbCircle
 10
-138.8086770329
 20
-128.6449940793
 30
0.0
 40
9.852789238579
100
AcDbArc
 50
0.4833372442
 51
19.7728207562
  0
LWPOLYLINE
  5
1D1
330
1F
100
AcDbEntity
  8
0
  6
Continuous
 62
     7
370
    25
100
AcDbPolyline
 90
        3
 70
   128
 43
0.0
 10
-129.5367949537
 20
-131.8118786464
 10
-129.1155840458
 20
-130.2196118005
 10
-128.9562383701
 20
-128.5618786464
  0
LINE
  5
1D2
330
1F
100
AcDbEntity
  8
0
  6
Continuous
 62
     7
370
    25
100
AcDbLine
 10
-132.0756817865
 20
-131.8118786464
 30
0.0
 11
-129.5367949537
 21
-131.8118786464
 31
0.0
  0
LWPOLYLINE
  5
1D3
330
1F
100
AcDbEntity
  8
0
  6
Continuous
 62
     7
370
    25
100
AcDbPolyline
 90
        3
 70
   128
 43
0.0
 10
-132.0756817865
 20
-125.3118786464
 10
-132.4968926945
 20
-123.7196118005
 10
-132.6562383701
 20
-122.0618786464
  0
ARC
  5
1D4
330
1F
100
AcDbEntity
  8
0
  6
Continuous
 62
     7
370
    25
100
AcDbCircle
 10
-122.8037997073
 20
-122.1449940793
 30
0.0
 40
9.852789238583014
100
AcDbArc
 50
160.2271792438
 51
179.5166627558
  0
LINE
  5
1D5
330
1F
100
AcDbEntity
  8
0
  6
Continuous
 62
     7
370
    25
100
AcDbLine
 10
-132.0756817865
 20
-118.8118786464
 30
0.0
 11
-129.5367949537
 21
-118.8118786464
 31
0.0
  0
ARC
  5
1D6
330
1F
100
AcDbEntity
  8
0
  6
Continuous
 62
     7
370
    25
100
AcDbCircle
 10
-138.8086770329
 20
-122.1449940793
 30
0.0
 40
9.852789238579254
100
AcDbArc
 50
0.4833372442
 51
19.7728207562
  0
LWPOLYLINE
  5
1D7
330
1F
100
AcDbEntity
  8
0
  6
Continuous
 62
     7
370
    25
100
AcDbPolyline
 90
        3
 70
   128
 43
0.0
 10
-129.5367949537
 20
-125.3118786464
 10
-129.1155840458
 20
-123.7196118005
 10
-128.9562383701
 20
-122.0618786464
  0
LINE
  5
1D8
330
1F
100
AcDbEntity
  8
0
  6
Continuous
 62
     7
370
    25
100
AcDbLine
 10
-128.9562383701
 20
-128.5618786464
 30
0.0
 11
-128.9562383701
 21
-122.0618786464
 31
0.0
  0
LINE
  5
1D9
330
1F
100
AcDbEntity
  8
0
  6
Continuous
 62
     7
370
    25
100
AcDbLine
 10
-128.9562383701
 20
-131.8118786464
 30
0.0
 11
-128.9562383701
 21
-128.5618786464
 31
0.0
  0
LINE
  5
1DA
330
1F
100
AcDbEntity
  8
0
  6
Continuous
 62
     7
370
    25
100
AcDbLine
 10
-128.9562383701
 20
-118.8118786464
 30
0.0
 11
-128.9562383701
 21
-122.0618786464
 31
0.0
  0
LINE
  5
1DB
330
1F
100
AcDbEntity
  8
0
  6
Continuous
 62
     7
370
    25
100
AcDbLine
 10
-125.8962383701
 20
-119.8318786464
 30
0.0
 11
-125.8962383701
 21
-130.791878641
 31
0.0
  0
LINE
  5
1DC
330
1F
100
AcDbEntity
  8
0
  6
Continuous
 62
     7
370
    25
100
AcDbLine
 10
-132.6562383701
 20
-118.8118786464
 30
0.0
 11
-132.0756817865
 21
-118.8118786464
 31
0.0
  0
LINE
  5
1DD
330
1F
100
AcDbEntity
  8
0
  6
Continuous
 62
     7
370
    25
100
AcDbLine
 10
-128.9562383701
 20
-118.8118786464
 30
0.0
 11
-129.5367949537
 21
-118.8118786464
 31
0.0
  0
LINE
  5
1DE
330
1F
100
AcDbEntity
  8
0
  6
Continuous
 62
     7
370
    25
100
AcDbLine
 10
-132.6562383701
 20
-131.8118786464
 30
0.0
 11
-132.0756817865
 21
-131.8118786464
 31
0.0
  0
LINE
  5
1DF
330
1F
100
AcDbEntity
  8
0
  6
Continuous
 62
     7
370
    25
100
AcDbLine
 10
-128.9562383701
 20
-131.8118786464
 30
0.0
 11
-129.5367949537
 21
-131.8118786464
 31
0.0
  0
LINE
  5
1E0
330
1F
100
AcDbEntity
  8
0
  6
Continuous
 62
     7
370
    25
100
AcDbLine
 10
-132.6562383701
 20
411.6333268041
 30
0.0
 11
-132.6562383701
 21
406.6881213536
 31
0.0
  0
LINE
  5
1E1
330
1F
100
AcDbEntity
  8
0
  6
Continuous
 62
     7
370
    25
100
AcDbLine
 10
-132.6562383701
 20
422.6881213536
 30
0.0
 11
-132.6562383701
 21
411.6333268041
 31
0.0
  0
LINE
  5
1E2
330
1F
100
AcDbEntity
  8
0
  6
Continuous
 62
     7
370
    25
100
AcDbLine
 10
-132.6562383701
 20
763.6333268041
 30
0.0
 11
-132.6562383701
 21
758.6881213535
 31
0.0
  0
LINE
  5
1E3
330
1F
100
AcDbEntity
  8
0
  6
Continuous
 62
     7
370
    25
100
AcDbLine
 10
-132.6562383701
 20
774.6881213535
 30
0.0
 11
-132.6562383701
 21
763.6333268041
 31
0.0
  0
LINE
  5
1E4
330
1F
100
AcDbEntity
  8
0
  6
Continuous
 62
     7
370
    25
100
AcDbLine
 10
-132.6562383702
 20
-480.366673196
 30
0.0
 11
-132.6562383702
 21
-485.3118786465
 31
0.0
  0
LINE
  5
1E5
330
1F
100
AcDbEntity
  8
0
  6
Continuous
 62
     7
370
    25
100
AcDbLine
 10
-132.6562383702
 20
-469.3118786465
 30
0.0
 11
-132.6562383702
 21
-480.366673196
 31
0.0
  0
LINE
  5
1E6
330
1F
100
AcDbEntity
  8
0
  6
Continuous
 62
     7
370
    25
100
AcDbLine
 10
-132.6562383701
 20
-128.3666731959
 30
0.0
 11
-132.6562383701
 21
-133.3118786464
 31
0.0
  0
LINE
  5
1E7
330
1F
100
AcDbEntity
  8
0
  6
Continuous
 62
     7
370
    25
100
AcDbLine
 10
-132.6562383701
 20
-117.3118786464
 30
0.0
 11
-132.6562383701
 21
-128.3666731959
 31
0.0
  0
LINE
  5
1E8
330
1F
100
AcDbEntity
  8
0
  6
Continuous
 62
     7
370
    25
100
AcDbLine
 10
-132.6562383701
 20
813.633326804
 30
0.0
 11
-132.6562383701
 21
808.6881213535
 31
0.0
  0
LINE
  5
1E9
330
1F
100
AcDbEntity
  8
0
  6
Continuous
 62
     7
370
    25
100
AcDbLine
 10
-132.6562383701
 20
824.6881213535
 30
0.0
 11
-132.6562383701
 21
813.633326804
 31
0.0
  0
LINE
  5
1EA
330
1F
100
AcDbEntity
  8
0
  6
Continuous
 62
     7
370
    25
100
AcDbLine
 10
-132.6562383701
 20
-530.3666731959
 30
0.0
 11
-132.6562383701
 21
-535.3118786465
 31
0.0
  0
LINE
  5
1EB
330
1F
100
AcDbEntity
  8
0
  6
Continuous
 62
     7
370
    25
100
AcDbLine
 10
-132.6562383701
 20
-519.3118786465
 30
0.0
 11
-132.6562383701
 21
-530.3666731959
 31
0.0
  0
LINE
  5
1EC
330
1F
100
AcDbEntity
  8
0
  6
Continuous
 62
     7
370
    25
100
AcDbLine
 10
-166.2562383701
 20
830.6881213536
 30
0.0
 11
-166.2562383701
 21
-541.3118786464
 31
0.0
  0
LINE
  5
1ED
330
1F
100
AcDbEntity
  8
0
  6
Continuous
 62
     7
370
    25
100
AcDbLine
 10
-166.2562383701
 20
-541.3118786464
 30
0.0
 11
-169.2562383701
 21
-541.3118786464
 31
0.0
  0
LINE
  5
1EE
330
1F
100
AcDbEntity
  8
0
  6
Continuous
 62
     7
370
    25
100
AcDbLine
 10
-169.2562383701
 20
-541.3118786464
 30
0.0
 11
-169.2562383701
 21
830.6881213536
 31
0.0
  0
LINE
  5
1EF
330
1F
100
AcDbEntity
  8
0
  6
Continuous
 62
     7
370
    25
100
AcDbLine
 10
-166.2562383701
 20
830.6881213536
 30
0.0
 11
-169.2562383701
 21
830.6881213536
 31
0.0
  0
LINE
  5
1F0
330
1F
100
AcDbEntity
  8
0
  6
Continuous
 62
     7
370
    25
100
AcDbLine
 10
-169.2562383701
 20
-558.3118786464
 30
0.0
 11
-169.2562383701
 21
-541.3118786464
 31
0.0
  0
LINE
  5
1F1
330
1F
100
AcDbEntity
  8
0
  6
Continuous
 62
     7
370
    25
100
AcDbLine
 10
-166.2562383701
 20
-541.3118786464
 30
0.0
 11
-166.2562383701
 21
-561.3118786464
 31
0.0
  0
ARC
  5
1F2
330
1F
100
AcDbEntity
  8
0
  6
Continuous
 62
     7
370
    25
100
AcDbCircle
 10
-166.2562383701
 20
-558.3118786464
 30
0.0
 40
3.000000000000114
100
AcDbArc
 50
180.0
 51
270.0
  0
LINE
  5
1F3
330
1F
100
AcDbEntity
  8
0
  6
Continuous
 62
     7
370
    25
100
AcDbLine
 10
-154.2562383701
 20
-541.3118786464
 30
0.0
 11
-154.2562383701
 21
-558.3118786464
 31
0.0
  0
ARC
  5
1F4
330
1F
100
AcDbEntity
  8
0
  6
Continuous
 62
     7
370
    25
100
AcDbCircle
 10
-157.2562383701
 20
-558.3118786464
 30
0.0
 40
3.000000000000114
100
AcDbArc
 50
270.0
 51
0.0
  0
LINE
  5
1F5
330
1F
100
AcDbEntity
  8
0
  6
Continuous
 62
     7
370
    25
100
AcDbLine
 10
-157.2562383701
 20
-561.3118786464
 30
0.0
 11
-157.2562383701
 21
-541.3118786464
 31
0.0
  0
LINE
  5
1F6
330
1F
100
AcDbEntity
  8
0
  6
Continuous
 62
     7
370
    25
100
AcDbLine
 10
-154.2562383701
 20
-541.3118786464
 30
0.0
 11
-157.2562383701
 21
-541.3118786464
 31
0.0
  0
LINE
  5
1F7
330
1F
100
AcDbEntity
  8
0
  6
Continuous
 62
     7
370
    25
100
AcDbLine
 10
-154.2562383701
 20
830.6881213536
 30
0.0
 11
-154.2562383701
 21
-541.3118786464
 31
0.0
  0
LINE
  5
1F8
330
1F
100
AcDbEntity
  8
0
  6
Continuous
 62
     7
370
    25
100
AcDbLine
 10
-157.2562383701
 20
-541.3118786464
 30
0.0
 11
-157.2562383701
 21
830.6881213536
 31
0.0
  0
LINE
  5
1F9
330
1F
100
AcDbEntity
  8
0
  6
Continuous
 62
     7
370
    25
100
AcDbLine
 10
-154.2562383701
 20
830.6881213536
 30
0.0
 11
-157.2562383701
 21
830.6881213536
 31
0.0
  0
LINE
  5
1FA
330
1F
100
AcDbEntity
  8
0
  6
Continuous
 62
     7
370
    25
100
AcDbLine
 10
-166.2562383701
 20
-541.3118786464
 30
0.0
 11
-157.2562383701
 21
-541.3118786464
 31
0.0
  0
LINE
  5
1FB
330
1F
100
AcDbEntity
  8
0
  6
Continuous
 62
     7
370
    25
100
AcDbLine
 10
-157.2562383701
 20
-561.3118786464
 30
0.0
 11
-166.2562383701
 21
-561.3118786464
 31
0.0
  0
LINE
  5
1FC
330
1F
100
AcDbEntity
  8
0
  6
Continuous
 62
     7
370
    25
100
AcDbLine
 10
-157.2562383701
 20
830.6881213536
 30
0.0
 11
-166.2562383701
 21
830.6881213536
 31
0.0
  0
LINE
  5
1FD
330
1F
100
AcDbEntity
  8
0
  6
Continuous
 62
     7
370
    25
100
AcDbLine
 10
-166.2562383701
 20
850.6881213536
 30
0.0
 11
-166.2562383701
 21
830.6881213536
 31
0.0
  0
LINE
  5
1FE
330
1F
100
AcDbEntity
  8
0
  6
Continuous
 62
     7
370
    25
100
AcDbLine
 10
-166.2562383701
 20
850.6881213536
 30
0.0
 11
-157.2562383701
 21
850.6881213536
 31
0.0
  0
LINE
  5
1FF
330
1F
100
AcDbEntity
  8
0
  6
Continuous
 62
     7
370
    25
100
AcDbLine
 10
-157.2562383701
 20
830.6881213536
 30
0.0
 11
-157.2562383701
 21
850.6881213536
 31
0.0
  0
LINE
  5
200
330
1F
100
AcDbEntity
  8
0
  6
Continuous
 62
     7
370
    25
100
AcDbLine
 10
-154.2562383701
 20
847.6881213536
 30
0.0
 11
-154.2562383701
 21
830.6881213536
 31
0.0
  0
ARC
  5
201
330
1F
100
AcDbEntity
  8
0
  6
Continuous
 62
     7
370
    25
100
AcDbCircle
 10
-157.2562383701
 20
847.6881213536
 30
0.0
 40
3.000000000000114
100
AcDbArc
 50
0.0
 51
90.0
  0
LINE
  5
202
330
1F
100
AcDbEntity
  8
0
  6
Continuous
 62
     7
370
    25
100
AcDbLine
 10
-169.2562383701
 20
830.6881213536
 30
0.0
 11
-169.2562383701
 21
847.6881213536
 31
0.0
  0
ARC
  5
203
330
1F
100
AcDbEntity
  8
0
  6
Continuous
 62
     7
370
    25
100
AcDbCircle
 10
-166.2562383701
 20
847.6881213536
 30
0.0
 40
3.000000000000114
100
AcDbArc
 50
90.0
 51
180.0
  0
LWPOLYLINE
  5
204
330
1F
100
AcDbEntity
  8
0
  6
Continuous
 62
     7
370
    25
100
AcDbPolyline
 90
        3
 70
   128
 43
0.0
 10
-126.5417071903
 20
219.6881213524
 10
-127.0601206155
 20
221.6478343936
 10
-127.2562383701
 20
223.6881213524
  0
ARC
  5
205
330
1F
100
AcDbEntity
  8
0
  6
Continuous
 62
     7
370
    25
100
AcDbCircle
 10
-115.1301475235
 20
215.5858232035
 30
0.0
 40
12.12652234287866
100
AcDbArc
 50
160.2271892892
 51
179.5166527104
  0
ARC
  5
206
330
1F
100
AcDbEntity
  8
0
  6
Continuous
 62
     7
370
    25
100
AcDbCircle
 10
-134.6823292168
 20
215.5858232035
 30
0.0
 40
12.12652234287811
100
AcDbArc
 50
0.4833472896
 51
19.7728107108
  0
LWPOLYLINE
  5
207
330
1F
100
AcDbEntity
  8
0
  6
Continuous
 62
     7
370
    25
100
AcDbPolyline
 90
        3
 70
   128
 43
0.0
 10
-123.2707695499
 20
219.6881213524
 10
-122.7523561248
 20
221.6478343936
 10
-122.5562383701
 20
223.6881213524
  0
LINE
  5
208
330
1F
100
AcDbEntity
  8
0
  6
Continuous
 62
     7
370
    25
100
AcDbLine
 10
-122.5562383701
 20
215.6881213524
 30
0.0
 11
-122.5562383701
 21
223.6881213524
 31
0.0
  0
ARC
  5
209
330
1F
100
AcDbEntity
  8
0
  6
Continuous
 62
     7
370
    25
100
AcDbCircle
 10
-115.1301475235
 20
223.5858232035
 30
0.0
 40
12.1265223428786
100
AcDbArc
 50
160.2271892892
 51
179.5166527104
  0
LINE
  5
20A
330
1F
100
AcDbEntity
  8
0
  6
Continuous
 62
     7
370
    25
100
AcDbLine
 10
-126.5417071903
 20
227.6881213524
 30
0.0
 11
-123.2707695499
 21
227.6881213524
 31
0.0
  0
ARC
  5
20B
330
1F
100
AcDbEntity
  8
0
  6
Continuous
 62
     7
370
    25
100
AcDbCircle
 10
-134.6823292168
 20
223.5858232035
 30
0.0
 40
12.12652234287798
100
AcDbArc
 50
0.4833472896
 51
19.7728107108
  0
LINE
  5
20C
330
1F
100
AcDbEntity
  8
0
  6
Continuous
 62
     7
370
    25
100
AcDbLine
 10
-126.5417071903
 20
219.6881213524
 30
0.0
 11
-123.2707695499
 21
219.6881213524
 31
0.0
  0
LWPOLYLINE
  5
20D
330
1F
100
AcDbEntity
  8
0
  6
Continuous
 62
     7
370
    25
100
AcDbPolyline
 90
        3
 70
   128
 43
0.0
 10
-126.5417071903
 20
211.6881213524
 10
-127.0601206155
 20
213.6478343936
 10
-127.2562383701
 20
215.6881213524
  0
LWPOLYLINE
  5
20E
330
1F
100
AcDbEntity
  8
0
  6
Continuous
 62
     7
370
    25
100
AcDbPolyline
 90
        3
 70
   128
 43
0.0
 10
-123.2707695499
 20
211.6881213524
 10
-122.7523561248
 20
213.6478343936
 10
-122.5562383701
 20
215.6881213524
  0
LINE
  5
20F
330
1F
100
AcDbEntity
  8
0
  6
Continuous
 62
     7
370
    25
100
AcDbLine
 10
-126.5417071903
 20
211.6881213524
 30
0.0
 11
-123.2707695499
 21
211.6881213524
 31
0.0
  0
LINE
  5
210
330
1F
100
AcDbEntity
  8
0
  6
Continuous
 62
     7
370
    25
100
AcDbLine
 10
-122.5562383701
 20
211.6881213524
 30
0.0
 11
-122.5562383701
 21
215.6881213524
 31
0.0
  0
LINE
  5
211
330
1F
100
AcDbEntity
  8
0
  6
Continuous
 62
     7
370
    25
100
AcDbLine
 10
-122.5562383701
 20
227.6881213524
 30
0.0
 11
-122.5562383701
 21
223.6881213524
 31
0.0
  0
LINE
  5
212
330
1F
100
AcDbEntity
  8
0
  6
Continuous
 62
     7
370
    25
100
AcDbLine
 10
-118.6962383701
 20
226.4014546857
 30
0.0
 11
-118.6962383701
 21
212.9747881135
 31
0.0
  0
LINE
  5
213
330
1F
100
AcDbEntity
  8
0
  6
Continuous
 62
     7
370
    25
100
AcDbLine
 10
-127.2562383701
 20
227.6881213524
 30
0.0
 11
-126.5417071903
 21
227.6881213524
 31
0.0
  0
LINE
  5
214
330
1F
100
AcDbEntity
  8
0
  6
Continuous
 62
     7
370
    25
100
AcDbLine
 10
-122.5562383701
 20
227.6881213524
 30
0.0
 11
-123.2707695499
 21
227.6881213524
 31
0.0
  0
LINE
  5
215
330
1F
100
AcDbEntity
  8
0
  6
Continuous
 62
     7
370
    25
100
AcDbLine
 10
-122.5562383701
 20
211.6881213524
 30
0.0
 11
-123.2707695499
 21
211.6881213524
 31
0.0
  0
LINE
  5
216
330
1F
100
AcDbEntity
  8
0
  6
Continuous
 62
     7
370
    25
100
AcDbLine
 10
-127.2562383701
 20
211.6881213524
 30
0.0
 11
-126.5417071903
 21
211.6881213524
 31
0.0
  0
LWPOLYLINE
  5
217
330
1F
100
AcDbEntity
  8
0
  6
Continuous
 62
     7
370
    25
100
AcDbPolyline
 90
        3
 70
   128
 43
0.0
 10
-126.5417071903
 20
69.6881213523
 10
-127.0601206155
 20
71.6478343935
 10
-127.2562383702
 20
73.6881213523
  0
ARC
  5
218
330
1F
100
AcDbEntity
  8
0
  6
Continuous
 62
     7
370
    25
100
AcDbCircle
 10
-115.1301475235
 20
73.5858232034
 30
0.0
 40
12.12652234287858
100
AcDbArc
 50
160.2271892892
 51
179.5166527104
  0
LINE
  5
219
330
1F
100
AcDbEntity
  8
0
  6
Continuous
 62
     7
370
    25
100
AcDbLine
 10
-126.5417071903
 20
77.6881213523
 30
0.0
 11
-123.27076955
 21
77.6881213523
 31
0.0
  0
ARC
  5
21A
330
1F
100
AcDbEntity
  8
0
  6
Continuous
 62
     7
370
    25
100
AcDbCircle
 10
-134.6823292168
 20
73.5858232034
 30
0.0
 40
12.12652234287998
100
AcDbArc
 50
0.4833472896
 51
19.7728107108
  0
LWPOLYLINE
  5
21B
330
1F
100
AcDbEntity
  8
0
  6
Continuous
 62
     7
370
    25
100
AcDbPolyline
 90
        3
 70
   128
 43
0.0
 10
-123.27076955
 20
69.6881213523
 10
-122.7523561248
 20
71.6478343935
 10
-122.5562383702
 20
73.6881213523
  0
LINE
  5
21C
330
1F
100
AcDbEntity
  8
0
  6
Continuous
 62
     7
370
    25
100
AcDbLine
 10
-126.5417071903
 20
69.6881213523
 30
0.0
 11
-123.27076955
 21
69.6881213523
 31
0.0
  0
ARC
  5
21D
330
1F
100
AcDbEntity
  8
0
  6
Continuous
 62
     7
370
    25
100
AcDbCircle
 10
-115.1301475235
 20
65.5858232034
 30
0.0
 40
12.12652234287859
100
AcDbArc
 50
160.2271892892
 51
179.5166527104
  0
LWPOLYLINE
  5
21E
330
1F
100
AcDbEntity
  8
0
  6
Continuous
 62
     7
370
    25
100
AcDbPolyline
 90
        3
 70
   128
 43
0.0
 10
-126.5417071903
 20
61.6881213523
 10
-127.0601206155
 20
63.6478343935
 10
-127.2562383702
 20
65.6881213523
  0
ARC
  5
21F
330
1F
100
AcDbEntity
  8
0
  6
Continuous
 62
     7
370
    25
100
AcDbCircle
 10
-134.6823292168
 20
65.5858232034
 30
0.0
 40
12.12652234287995
100
AcDbArc
 50
0.4833472896
 51
19.7728107108
  0
LWPOLYLINE
  5
220
330
1F
100
AcDbEntity
  8
0
  6
Continuous
 62
     7
370
    25
100
AcDbPolyline
 90
        3
 70
   128
 43
0.0
 10
-123.27076955
 20
61.6881213523
 10
-122.7523561248
 20
63.6478343935
 10
-122.5562383702
 20
65.6881213523
  0
LINE
  5
221
330
1F
100
AcDbEntity
  8
0
  6
Continuous
 62
     7
370
    25
100
AcDbLine
 10
-126.5417071903
 20
61.6881213523
 30
0.0
 11
-123.27076955
 21
61.6881213523
 31
0.0
  0
LINE
  5
222
330
1F
100
AcDbEntity
  8
0
  6
Continuous
 62
     7
370
    25
100
AcDbLine
 10
-122.5562383702
 20
65.6881213523
 30
0.0
 11
-122.5562383702
 21
73.6881213523
 31
0.0
  0
LINE
  5
223
330
1F
100
AcDbEntity
  8
0
  6
Continuous
 62
     7
370
    25
100
AcDbLine
 10
-122.5562383702
 20
61.6881213523
 30
0.0
 11
-122.5562383702
 21
65.6881213523
 31
0.0
  0
LINE
  5
224
330
1F
100
AcDbEntity
  8
0
  6
Continuous
 62
     7
370
    25
100
AcDbLine
 10
-122.5562383702
 20
77.6881213523
 30
0.0
 11
-122.5562383702
 21
73.6881213523
 31
0.0
  0
LINE
  5
225
330
1F
100
AcDbEntity
  8
0
  6
Continuous
 62
     7
370
    25
100
AcDbLine
 10
-118.6962383702
 20
76.4014546857
 30
0.0
 11
-118.6962383702
 21
62.9747881134
 31
0.0
  0
LINE
  5
226
330
1F
100
AcDbEntity
  8
0
  6
Continuous
 62
     7
370
    25
100
AcDbLine
 10
-122.5562383702
 20
61.6881213523
 30
0.0
 11
-123.27076955
 21
61.6881213523
 31
0.0
  0
LINE
  5
227
330
1F
100
AcDbEntity
  8
0
  6
Continuous
 62
     7
370
    25
100
AcDbLine
 10
-127.2562383702
 20
61.6881213523
 30
0.0
 11
-126.5417071903
 21
61.6881213523
 31
0.0
  0
LINE
  5
228
330
1F
100
AcDbEntity
  8
0
  6
Continuous
 62
     7
370
    25
100
AcDbLine
 10
-127.2562383702
 20
77.6881213523
 30
0.0
 11
-126.5417071903
 21
77.6881213523
 31
0.0
  0
LINE
  5
229
330
1F
100
AcDbEntity
  8
0
  6
Continuous
 62
     7
370
    25
100
AcDbLine
 10
-122.5562383702
 20
77.6881213523
 30
0.0
 11
-123.27076955
 21
77.6881213523
 31
0.0
  0
LINE
  5
22A
330
1F
100
AcDbEntity
  8
0
  6
Continuous
 62
     7
370
    25
100
AcDbLine
 10
-127.2562383701
 20
65.8696281655
 30
0.0
 11
-127.2562383701
 21
59.6881213523
 31
0.0
  0
LINE
  5
22B
330
1F
100
AcDbEntity
  8
0
  6
Continuous
 62
     7
370
    25
100
AcDbLine
 10
-127.2562383701
 20
79.6881213523
 30
0.0
 11
-127.2562383701
 21
65.8696281655
 31
0.0
  0
LINE
  5
22C
330
1F
100
AcDbEntity
  8
0
  6
Continuous
 62
     7
370
    25
100
AcDbLine
 10
-127.2562383701
 20
215.8696281655
 30
0.0
 11
-127.2562383701
 21
209.6881213524
 31
0.0
  0
LINE
  5
22D
330
1F
100
AcDbEntity
  8
0
  6
Continuous
 62
     7
370
    25
100
AcDbLine
 10
-127.2562383701
 20
229.6881213524
 30
0.0
 11
-127.2562383701
 21
215.8696281655
 31
0.0
  0
LINE
  5
22E
330
1F
100
AcDbEntity
  8
0
  6
Continuous
 62
     7
370
    25
100
AcDbLine
 10
-151.2562383701
 20
836.6881213531
 30
0.0
 11
-151.2562383701
 21
-547.3118786469
 31
0.0
  0
LINE
  5
22F
330
1F
100
AcDbEntity
  8
0
  6
Continuous
 62
     7
370
    25
100
AcDbLine
 10
-137.2562383701
 20
836.6881213531
 30
0.0
 11
-151.2562383701
 21
836.6881213531
 31
0.0
  0
LINE
  5
230
330
1F
100
AcDbEntity
  8
0
  6
Continuous
 62
     7
370
    25
100
AcDbLine
 10
-137.2562383701
 20
836.6881213531
 30
0.0
 11
-137.2562383701
 21
-547.3118786469
 31
0.0
  0
LINE
  5
231
330
1F
100
AcDbEntity
  8
0
  6
Continuous
 62
     7
370
    25
100
AcDbLine
 10
-137.2562383701
 20
-547.3118786469
 30
0.0
 11
-151.2562383701
 21
-547.3118786469
 31
0.0
  0
ARC
  5
232
330
1F
100
AcDbEntity
  8
0
  6
Continuous
 62
     7
370
    25
100
AcDbCircle
 10
-151.2562383701
 20
833.6881213531
 30
0.0
 40
3.000000000000114
100
AcDbArc
 50
90.0
 51
180.0
  0
ARC
  5
233
330
1F
100
AcDbEntity
  8
0
  6
Continuous
 62
     7
370
    25
100
AcDbCircle
 10
-151.2562383701
 20
-544.3118786469
 30
0.0
 40
3.000000000000114
100
AcDbArc
 50
180.0
 51
270.0
  0
ARC
  5
234
330
1F
100
AcDbEntity
  8
0
  6
Continuous
 62
     7
370
    25
100
AcDbCircle
 10
-137.2562383701
 20
833.6881213531
 30
0.0
 40
3.000000000000114
100
AcDbArc
 50
0.0
 51
90.0
  0
LINE
  5
235
330
1F
100
AcDbEntity
  8
0
  6
Continuous
 62
     7
370
    25
100
AcDbLine
 10
-134.2562383701
 20
833.6881213531
 30
0.0
 11
-134.2562383701
 21
-544.3118786469
 31
0.0
  0
ARC
  5
236
330
1F
100
AcDbEntity
  8
0
  6
Continuous
 62
     7
370
    25
100
AcDbCircle
 10
-137.2562383701
 20
-544.3118786469
 30
0.0
 40
3.000000000000114
100
AcDbArc
 50
270.0
 51
0.0
  0
LINE
  5
237
330
1F
100
AcDbEntity
  8
0
  6
Continuous
 62
     7
370
    25
100
AcDbLine
 10
915.6120862114
 20
142.1881213523
 30
0.0
 11
915.6120862114
 21
147.1881213523
 31
0.0
  0
LINE
  5
238
330
1F
100
AcDbEntity
  8
0
  6
Continuous
 62
     7
370
    25
100
AcDbLine
 10
1051.6120862114
 20
142.1881213523
 30
0.0
 11
915.6120862114
 21
142.1881213523
 31
0.0
  0
LINE
  5
239
330
1F
100
AcDbEntity
  8
0
  6
Continuous
 62
     7
370
    25
100
AcDbLine
 10
1051.6120862114
 20
147.1881213523
 30
0.0
 11
915.6120862114
 21
147.1881213523
 31
0.0
  0
LINE
  5
23A
330
1F
100
AcDbEntity
  8
0
  6
Continuous
 62
     7
370
    25
100
AcDbLine
 10
-61.2562383701
 20
142.1881213523
 30
0.0
 11
-61.2562383701
 21
147.1881213523
 31
0.0
  0
LINE
  5
23B
330
1F
100
AcDbEntity
  8
0
  6
Continuous
 62
     7
370
    25
100
AcDbLine
 10
-61.2562383701
 20
147.1881213523
 30
0.0
 11
-129.2562383701
 21
147.1881213523
 31
0.0
  0
LINE
  5
23C
330
1F
100
AcDbEntity
  8
0
  6
Continuous
 62
     7
370
    25
100
AcDbLine
 10
-61.2562383701
 20
142.1881213523
 30
0.0
 11
-129.2562383701
 21
142.1881213523
 31
0.0
  0
LINE
  5
23D
330
1F
100
AcDbEntity
  8
0
  6
Continuous
 62
     7
370
    25
100
AcDbLine
 10
-129.2562383701
 20
239.6881213523
 30
0.0
 11
-69.2562383701
 21
184.6881213523
 31
0.0
  0
LINE
  5
23E
330
1F
100
AcDbEntity
  8
0
  6
Continuous
 62
     7
370
    25
100
AcDbLine
 10
-129.2562383701
 20
49.6881213523
 30
0.0
 11
-69.2562383701
 21
104.6881213523
 31
0.0
  0
LINE
  5
23F
330
1F
100
AcDbEntity
  8
0
  6
Continuous
 62
     7
370
    25
100
AcDbLine
 10
1116.6120862114
 20
200.1881213523
 30
0.0
 11
1136.6120862114
 21
200.1881213523
 31
0.0
  0
LINE
  5
240
330
1F
100
AcDbEntity
  8
0
  6
Continuous
 62
     7
370
    25
100
AcDbLine
 10
1136.6120862114
 20
195.1881213523
 30
0.0
 11
1136.6120862114
 21
200.1881213523
 31
0.0
  0
LINE
  5
241
330
1F
100
AcDbEntity
  8
0
  6
Continuous
 62
     7
370
    25
100
AcDbLine
 10
1116.6120862114
 20
195.1881213523
 30
0.0
 11
1136.6120862114
 21
195.1881213523
 31
0.0
  0
LINE
  5
242
330
1F
100
AcDbEntity
  8
0
  6
Continuous
 62
     7
370
    25
100
AcDbLine
 10
1116.6120862114
 20
195.1881213523
 30
0.0
 11
1116.6120862114
 21
200.1881213523
 31
0.0
  0
LINE
  5
243
330
1F
100
AcDbEntity
  8
0
  6
Continuous
 62
     7
370
    25
100
AcDbLine
 10
1116.6120862114
 20
94.1881213523
 30
0.0
 11
1116.6120862114
 21
89.1881213523
 31
0.0
  0
LINE
  5
244
330
1F
100
AcDbEntity
  8
0
  6
Continuous
 62
     7
370
    25
100
AcDbLine
 10
1136.6120862114
 20
94.1881213523
 30
0.0
 11
1136.6120862114
 21
89.1881213523
 31
0.0
  0
LINE
  5
245
330
1F
100
AcDbEntity
  8
0
  6
Continuous
 62
     7
370
    25
100
AcDbLine
 10
1136.6120862114
 20
94.1881213523
 30
0.0
 11
1116.6120862114
 21
94.1881213523
 31
0.0
  0
LINE
  5
246
330
1F
100
AcDbEntity
  8
0
  6
Continuous
 62
     7
370
    25
100
AcDbLine
 10
1136.6120862114
 20
89.1881213523
 30
0.0
 11
1116.6120862114
 21
89.1881213523
 31
0.0
  0
LINE
  5
247
330
1F
100
AcDbEntity
  8
0
  6
Continuous
 62
     7
370
    25
100
AcDbLine
 10
1051.6120862114
 20
100.1881213523
 30
0.0
 11
1051.6120862114
 21
189.1881213523
 31
0.0
  0
ARC
  5
248
330
1F
100
AcDbEntity
  8
0
  6
Continuous
 62
     7
370
    25
100
AcDbCircle
 10
1062.6120862114
 20
100.1881213523
 30
0.0
 40
11.0
100
AcDbArc
 50
180.0
 51
270.0
  0
ARC
  5
249
330
1F
100
AcDbEntity
  8
0
  6
Continuous
 62
     7
370
    25
100
AcDbCircle
 10
1062.6120862114
 20
100.1881213523
 30
0.0
 40
5.999999999999972
100
AcDbArc
 50
245.9792725514
 51
270.0
  0
LINE
  5
24A
330
1F
100
AcDbEntity
  8
0
  6
Continuous
 62
     7
370
    25
100
AcDbLine
 10
1062.6120862114
 20
94.1881213523
 30
0.0
 11
1062.6120862114
 21
89.1881213523
 31
0.0
  0
LINE
  5
24B
330
1F
100
AcDbEntity
  8
0
  6
Continuous
 62
     7
370
    25
100
AcDbLine
 10
1062.6120862114
 20
94.1881213523
 30
0.0
 11
1116.6120862114
 21
94.1881213523
 31
0.0
  0
LINE
  5
24C
330
1F
100
AcDbEntity
  8
0
  6
Continuous
 62
     7
370
    25
100
AcDbLine
 10
1062.6120862114
 20
89.1881213523
 30
0.0
 11
1116.6120862114
 21
89.1881213523
 31
0.0
  0
ARC
  5
24D
330
1F
100
AcDbEntity
  8
0
  6
Continuous
 62
     7
370
    25
100
AcDbCircle
 10
1062.6120862114
 20
189.1881213523
 30
0.0
 40
11.0
100
AcDbArc
 50
90.0
 51
180.0
  0
LINE
  5
24E
330
1F
100
AcDbEntity
  8
0
  6
Continuous
 62
     7
370
    25
100
AcDbLine
 10
1062.6120862114
 20
195.1881213523
 30
0.0
 11
1062.6120862114
 21
200.1881213523
 31
0.0
  0
ARC
  5
24F
330
1F
100
AcDbEntity
  8
0
  6
Continuous
 62
     7
370
    25
100
AcDbCircle
 10
1062.6120862114
 20
189.1881213523
 30
0.0
 40
6.0
100
AcDbArc
 50
90.0
 51
114.0207274484
  0
LINE
  5
250
330
1F
100
AcDbEntity
  8
0
  6
Continuous
 62
     7
370
    25
100
AcDbLine
 10
1062.6120862114
 20
195.1881213523
 30
0.0
 11
1116.6120862114
 21
195.1881213523
 31
0.0
  0
LINE
  5
251
330
1F
100
AcDbEntity
  8
0
  6
Continuous
 62
     7
370
    25
100
AcDbLine
 10
1062.6120862114
 20
200.1881213523
 30
0.0
 11
1116.6120862114
 21
200.1881213523
 31
0.0
  0
LINE
  5
252
330
1F
100
AcDbEntity
  8
0
  6
Continuous
 62
     7
370
    25
100
AcDbLine
 10
-129.2562383701
 20
229.6881213523
 30
0.0
 11
-134.2562383701
 21
229.6881213523
 31
0.0
  0
LINE
  5
253
330
1F
100
AcDbEntity
  8
0
  6
Continuous
 62
     7
370
    25
100
AcDbLine
 10
-134.2562383701
 20
239.6881213523
 30
0.0
 11
-129.2562383701
 21
239.6881213523
 31
0.0
  0
LINE
  5
254
330
1F
100
AcDbEntity
  8
0
  6
Continuous
 62
     7
370
    25
100
AcDbLine
 10
-129.2562383701
 20
239.6881213523
 30
0.0
 11
-129.2562383701
 21
229.6881213523
 31
0.0
  0
LINE
  5
255
330
1F
100
AcDbEntity
  8
0
  6
Continuous
 62
     7
370
    25
100
AcDbLine
 10
-129.2562383701
 20
49.6881213523
 30
0.0
 11
-134.2562383701
 21
49.6881213523
 31
0.0
  0
LINE
  5
256
330
1F
100
AcDbEntity
  8
0
  6
Continuous
 62
     7
370
    25
100
AcDbLine
 10
-134.2562383701
 20
59.6881213523
 30
0.0
 11
-129.2562383701
 21
59.6881213523
 31
0.0
  0
LINE
  5
257
330
1F
100
AcDbEntity
  8
0
  6
Continuous
 62
     7
370
    25
100
AcDbLine
 10
-129.2562383701
 20
59.6881213523
 30
0.0
 11
-129.2562383701
 21
49.6881213523
 31
0.0
  0
LINE
  5
258
330
1F
100
AcDbEntity
  8
0
  6
Continuous
 62
     7
370
    25
100
AcDbLine
 10
-129.2562383701
 20
229.6881213523
 30
0.0
 11
-129.2562383701
 21
59.6881213523
 31
0.0
  0
LINE
  5
259
330
1F
100
AcDbEntity
  8
0
  6
Continuous
 62
     7
370
    25
100
AcDbLine
 10
-129.2562383701
 20
178.6881213523
 30
0.0
 11
1051.6120862114
 21
178.6881213523
 31
0.0
  0
LINE
  5
25A
330
1F
100
AcDbEntity
  8
0
  6
Continuous
 62
     7
370
    25
100
AcDbLine
 10
-129.2562383701
 20
110.6881213523
 30
0.0
 11
1051.6120862114
 21
110.6881213523
 31
0.0
  0
LINE
  5
25B
330
1F
100
AcDbEntity
  8
0
  6
Continuous
 62
     7
370
    25
100
AcDbLine
 10
-129.2562383701
 20
104.6881213523
 30
0.0
 11
1051.6120862114
 21
104.6881213523
 31
0.0
  0
LINE
  5
25C
330
1F
100
AcDbEntity
  8
0
  6
Continuous
 62
     7
370
    25
100
AcDbLine
 10
-129.2562383701
 20
184.6881213523
 30
0.0
 11
1051.6120862114
 21
184.6881213523
 31
0.0
  0
LINE
  5
25D
330
1F
100
AcDbEntity
  8
0
  6
Continuous
 62
     8
370
    25
100
AcDbLine
 10
1088.1120862114
 20
216.4381213523
 30
0.0
 11
1111.1120862114
 21
216.4381213523
 31
0.0
  0
LINE
  5
25E
330
1F
100
AcDbEntity
  8
0
  6
Continuous
 62
     8
370
    25
100
AcDbLine
 10
1111.1120862114
 20
219.6881213523
 30
0.0
 11
1088.1120862114
 21
219.6881213523
 31
0.0
  0
LINE
  5
25F
330
1F
100
AcDbEntity
  8
0
  6
Continuous
 62
     8
370
    25
100
AcDbLine
 10
1111.1120862114
 20
218.6881213523
 30
0.0
 11
1088.1120862114
 21
218.6881213523
 31
0.0
  0
LINE
  5
260
330
1F
100
AcDbEntity
  8
0
  6
Continuous
 62
     8
370
    25
100
AcDbLine
 10
1116.4030469515
 20
84.956407462
 30
0.0
 11
1082.8211254714
 21
84.956407462
 31
0.0
  0
ARC
  5
261
330
1F
100
AcDbEntity
  8
0
  6
Continuous
 62
     8
370
    25
100
AcDbCircle
 10
1094.9165924717
 20
94.900230584
 30
0.0
 40
2.056985784604568
100
AcDbArc
 50
339.7455060012
 51
354.081337516
  0
ARC
  5
262
330
1F
100
AcDbEntity
  8
0
  6
Continuous
 62
     8
370
    25
100
AcDbCircle
 10
1104.3075799515
 20
94.900230584
 30
0.0
 40
2.056985784861301
100
AcDbArc
 50
185.9186624848
 51
200.2544939978
  0
LWPOLYLINE
  5
263
330
1F
100
AcDbEntity
  8
0
  6
Continuous
 62
     8
370
    25
100
AcDbPolyline
 90
        3
 70
   128
 43
0.0
 10
1093.955231962
 20
94.1881213523
 10
1093.9669305048
 20
94.1949795274
 10
1095.091903905
 20
94.6881213523
  0
LWPOLYLINE
  5
264
330
1F
100
AcDbEntity
  8
0
  6
Continuous
 62
     8
370
    25
100
AcDbPolyline
 90
        3
 70
   128
 43
0.0
 10
1104.1322685179
 20
94.6881213523
 10
1105.2572419181
 20
94.1949795274
 10
1105.2689404609
 20
94.1881213523
  0
LWPOLYLINE
  5
265
330
1F
100
AcDbEntity
  8
0
  6
Continuous
 62
     8
370
    25
100
AcDbPolyline
 90
        3
 70
   128
 43
0.0
 10
1105.2689404609
 20
94.1881213523
 10
1105.2806148608
 20
94.1949795274
 10
1106.1505338304
 20
94.6881213523
  0
LWPOLYLINE
  5
266
330
1F
100
AcDbEntity
  8
0
  6
Continuous
 62
     8
370
    25
100
AcDbPolyline
 90
        3
 70
   128
 43
0.0
 10
1093.0736385925
 20
94.6881213523
 10
1093.9435575621
 20
94.1949795274
 10
1093.955231962
 20
94.1881213523
  0
ARC
  5
267
330
1F
100
AcDbEntity
  8
0
  6
Continuous
 62
     8
370
    25
100
AcDbCircle
 10
1108.3731830446
 20
95.0837459923
 30
0.0
 40
1.199010942685121
100
AcDbArc
 50
199.2662965128
 51
228.3285466833
  0
ARC
  5
268
330
1F
100
AcDbEntity
  8
0
  6
Continuous
 62
     8
370
    25
100
AcDbCircle
 10
1090.8509893783
 20
95.0837459923
 30
0.0
 40
1.199010942699967
100
AcDbArc
 50
311.6714533168
 51
340.733703487
  0
LINE
  5
269
330
1F
100
AcDbEntity
  8
0
  6
Continuous
 62
     8
370
    25
100
AcDbLine
 10
-653.5563414219
 20
144.6881213535
 30
0.0
 11
-657.3369720379
 21
144.6881213535
 31
0.0
  0
LINE
  5
26A
330
1F
100
AcDbEntity
  8
0
  6
Continuous
 62
     8
370
    25
100
AcDbLine
 10
-544.2562383701
 20
369.6881213536
 30
0.0
 11
-544.2562383701
 21
389.6881213536
 31
0.0
  0
LINE
  5
26B
330
1F
100
AcDbEntity
  8
0
  6
Continuous
 62
     8
370
    25
100
AcDbLine
 10
-126.9162383701
 20
421.1881213536
 30
0.0
 11
-126.9162383701
 21
408.1881213536
 31
0.0
  0
LINE
  5
26C
330
1F
100
AcDbEntity
  8
0
  6
Continuous
 62
     8
370
    25
100
AcDbLine
 10
-126.9162383701
 20
773.1881213535
 30
0.0
 11
-126.9162383701
 21
760.1881213535
 31
0.0
  0
LINE
  5
26D
330
1F
100
AcDbEntity
  8
0
  6
Continuous
 62
     8
370
    25
100
AcDbLine
 10
-126.9162383702
 20
-470.8118786465
 30
0.0
 11
-126.9162383702
 21
-483.8118786465
 31
0.0
  0
LINE
  5
26E
330
1F
100
AcDbEntity
  8
0
  6
Continuous
 62
     8
370
    25
100
AcDbLine
 10
-126.9162383701
 20
823.1881213535
 30
0.0
 11
-126.9162383701
 21
810.1881213535
 31
0.0
  0
LINE
  5
26F
330
1F
100
AcDbEntity
  8
0
  6
Continuous
 62
     8
370
    25
100
AcDbLine
 10
-126.9162383701
 20
-520.8118786465
 30
0.0
 11
-126.9162383701
 21
-533.8118786465
 31
0.0
  0
LINE
  5
270
330
1F
100
AcDbEntity
  8
0
  6
Continuous
 62
     8
370
    25
100
AcDbLine
 10
-126.9162383701
 20
-118.8118786464
 30
0.0
 11
-126.9162383701
 21
-131.8118786464
 31
0.0
  0
LINE
  5
271
330
1F
100
AcDbEntity
  8
0
  6
Continuous
 62
     8
370
    25
100
AcDbLine
 10
-119.9829050368
 20
227.6881213524
 30
0.0
 11
-119.9829050368
 21
211.6881213524
 31
0.0
  0
LINE
  5
272
330
1F
100
AcDbEntity
  8
0
  6
Continuous
 62
     8
370
    25
100
AcDbLine
 10
-119.9829050368
 20
77.6881213523
 30
0.0
 11
-119.9829050368
 21
61.6881213523
 31
0.0
  0
LINE
  5
273
330
1F
100
AcDbEntity
  8
0
  6
Continuous
 62
     8
370
    25
100
AcDbLine
 10
1055.6120862114
 20
189.1881213523
 30
0.0
 11
1051.6120862114
 21
189.1881213523
 31
0.0
  0
LINE
  5
274
330
1F
100
AcDbEntity
  8
0
  6
Continuous
 62
     8
370
    25
100
AcDbLine
 10
1055.6120862114
 20
100.1881213523
 30
0.0
 11
1051.6120862114
 21
100.1881213523
 31
0.0
  0
ENDSEC
  0
SECTION
  2
OBJECTS
  0
DICTIONARY
  5
C
330
0
100
AcDbDictionary
281
     1
  3
ACAD_GROUP
350
D
  3
ACAD_LAYOUT
350
1A
  3
ACAD_MLINESTYLE
350
17
  3
ACAD_PLOTSETTINGS
350
19
  3
ACAD_PLOTSTYLENAME
350
E
  3
ACAD_SCALELIST
350
47
  3
DWGPROPS
350
275
  0
DICTIONARY
  5
D
102
{ACAD_REACTORS
330
C
102
}
330
C
100
AcDbDictionary
281
     1
  0
DICTIONARY
  5
1A
102
{ACAD_REACTORS
330
C
102
}
330
C
100
AcDbDictionary
281
     1
  3
Layout1
350
1E
  3
Layout2
350
26
  3
Model
350
22
  0
DICTIONARY
  5
17
102
{ACAD_REACTORS
330
C
102
}
330
C
100
AcDbDictionary
281
     1
  3
Standard
350
18
  0
DICTIONARY
  5
19
102
{ACAD_REACTORS
330
C
102
}
330
C
100
AcDbDictionary
281
     1
  0
ACDBDICTIONARYWDFLT
  5
E
102
{ACAD_REACTORS
330
C
102
}
330
C
100
AcDbDictionary
281
     1
  3
Normal
350
F
100
AcDbDictionaryWithDefault
340
F
  0
DICTIONARY
  5
47
102
{ACAD_REACTORS
330
C
102
}
330
C
100
AcDbDictionary
281
     1
  3
A0
350
48
  3
A1
350
49
  3
A2
350
4A
  3
A3
350
4B
  3
A4
350
4C
  3
A5
350
4D
  3
A6
350
4E
  3
A7
350
4F
  3
A8
350
50
  3
A9
350
51
  3
B0
350
52
  3
B1
350
53
  3
B2
350
54
  3
B3
350
55
  3
B4
350
56
  3
B5
350
57
  3
B6
350
58
  3
B7
350
59
  3
B8
350
5A
  3
B9
350
5B
  3
C0
350
5C
  3
C1
350
5D
  3
C2
350
5E
  3
C3
350
5F
  3
C4
350
60
  3
C5
350
61
  3
C6
350
62
  3
C7
350
63
  3
C8
350
64
  3
C9
350
65
  3
D0
350
66
  3
D1
350
67
  3
D2
350
68
  0
XRECORD
  5
275
102
{ACAD_REACTORS
330
C
102
}
330
C
100
AcDbXrecord
280
     1
  1
DWGPROPS COOKIE
  2

  3

  4

  6

  7

  8
Swing
  9

300
=
301
=
302
=
303
=
304
=
305
=
306
=
307
=
308
=
309
=
 40
0.0
 41
2459564.376987488
 42
2459564.376987882
  1

 90
        0
  0
LAYOUT
  5
1E
102
{ACAD_REACTORS
330
1A
102
}
330
1A
100
AcDbPlotSettings
  1

  2
none_device
  4

  6

 40
0.0
 41
0.0
 42
0.0
 43
0.0
 44
0.0
 45
0.0
 46
0.0
 47
0.0
 48
0.0
 49
0.0
140
0.0
141
0.0
142
1.0
143
1.0
 70
   688
 72
     1
 73
     0
 74
     5
  7

 75
    16
147
1.0
148
0.0
149
0.0
100
AcDbLayout
  1
Layout1
 70
     1
 71
     1
 10
0.0
 20
0.0
 11
420.0
 21
297.0
 12
0.0
 22
0.0
 32
0.0
 14
1.0000000000E+20
 24
1.0000000000E+20
 34
1.0000000000E+20
 15
-1.0000000000E+20
 25
-1.0000000000E+20
 35
-1.0000000000E+20
146
0.0
 13
0.0
 23
0.0
 33
0.0
 16
1.0
 26
0.0
 36
0.0
 17
0.0
 27
1.0
 37
0.0
 76
     0
330
1B
  0
LAYOUT
  5
26
102
{ACAD_REACTORS
330
1A
102
}
330
1A
100
AcDbPlotSettings
  1

  2
none_device
  4

  6

 40
0.0
 41
0.0
 42
0.0
 43
0.0
 44
0.0
 45
0.0
 46
0.0
 47
0.0
 48
0.0
 49
0.0
140
0.0
141
0.0
142
1.0
143
1.0
 70
   688
 72
     1
 73
     0
 74
     5
  7

 75
    16
147
1.0
148
0.0
149
0.0
100
AcDbLayout
  1
Layout2
 70
     1
 71
     2
 10
0.0
 20
0.0
 11
0.0
 21
0.0
 12
0.0
 22
0.0
 32
0.0
 14
0.0
 24
0.0
 34
0.0
 15
0.0
 25
0.0
 35
0.0
146
0.0
 13
0.0
 23
0.0
 33
0.0
 16
1.0
 26
0.0
 36
0.0
 17
0.0
 27
1.0
 37
0.0
 76
     0
330
23
  0
LAYOUT
  5
22
102
{ACAD_REACTORS
330
1A
102
}
330
1A
100
AcDbPlotSettings
  1

  2
none_device
  4
Letter_(8.50_x_11.00_Inches)
  6

 40
6.35
 41
6.35
 42
6.35000508
 43
6.35000508
 44
215.9
 45
279.4
 46
0.0
 47
0.0
 48
0.0
 49
0.0
140
0.0
141
0.0
142
1.0
143
1.0
 70
  1712
 72
     1
 73
     0
 74
     0
  7

 75
     0
147
1.0
148
0.0
149
0.0
100
AcDbLayout
  1
Model
 70
     1
 71
     0
 10
0.0
 20
0.0
 11
431.8
 21
279.4
 12
0.0
 22
0.0
 32
0.0
 14
0.0
 24
0.0
 34
0.0
 15
431.8
 25
279.4
 35
0.0
146
0.0
 13
0.0
 23
0.0
 33
0.0
 16
1.0
 26
0.0
 36
0.0
 17
0.0
 27
1.0
 37
0.0
 76
     0
330
1F
331
29
  0
MLINESTYLE
  5
18
102
{ACAD_REACTORS
330
17
102
}
330
17
100
AcDbMlineStyle
  2
Standard
 70
     0
  3

 62
   256
 51
90.0
 52
90.0
 71
     2
 49
0.5
 62
   256
  6
BYLAYER
 49
-0.5
 62
   256
  6
BYLAYER
  0
ACDBPLACEHOLDER
  5
F
102
{ACAD_REACTORS
330
E
102
}
330
E
  0
SCALE
  5
48
102
{ACAD_REACTORS
330
47
102
}
330
47
100
AcDbScale
 70
     0
300
1:1
140
1.0
141
1.0
290
     1
  0
SCALE
  5
49
102
{ACAD_REACTORS
330
47
102
}
330
47
100
AcDbScale
 70
     0
300
1:2
140
1.0
141
2.0
290
     0
  0
SCALE
  5
4A
102
{ACAD_REACTORS
330
47
102
}
330
47
100
AcDbScale
 70
     0
300
1:4
140
1.0
141
4.0
290
     0
  0
SCALE
  5
4B
102
{ACAD_REACTORS
330
47
102
}
330
47
100
AcDbScale
 70
     0
300
1:5
140
1.0
141
5.0
290
     0
  0
SCALE
  5
4C
102
{ACAD_REACTORS
330
47
102
}
330
47
100
AcDbScale
 70
     0
300
1:8
140
1.0
141
8.0
290
     0
  0
SCALE
  5
4D
102
{ACAD_REACTORS
330
47
102
}
330
47
100
AcDbScale
 70
     0
300
1:10
140
1.0
141
10.0
290
     0
  0
SCALE
  5
4E
102
{ACAD_REACTORS
330
47
102
}
330
47
100
AcDbScale
 70
     0
300
1:16
140
1.0
141
16.0
290
     0
  0
SCALE
  5
4F
102
{ACAD_REACTORS
330
47
102
}
330
47
100
AcDbScale
 70
     0
300
1:20
140
1.0
141
20.0
290
     0
  0
SCALE
  5
50
102
{ACAD_REACTORS
330
47
102
}
330
47
100
AcDbScale
 70
     0
300
1:30
140
1.0
141
30.0
290
     0
  0
SCALE
  5
51
102
{ACAD_REACTORS
330
47
102
}
330
47
100
AcDbScale
 70
     0
300
1:40
140
1.0
141
40.0
290
     0
  0
SCALE
  5
52
102
{ACAD_REACTORS
330
47
102
}
330
47
100
AcDbScale
 70
     0
300
1:50
140
1.0
141
50.0
290
     0
  0
SCALE
  5
53
102
{ACAD_REACTORS
330
47
102
}
330
47
100
AcDbScale
 70
     0
300
1:100
140
1.0
141
100.0
290
     0
  0
SCALE
  5
54
102
{ACAD_REACTORS
330
47
102
}
330
47
100
AcDbScale
 70
     0
300
2:1
140
2.0
141
1.0
290
     0
  0
SCALE
  5
55
102
{ACAD_REACTORS
330
47
102
}
330
47
100
AcDbScale
 70
     0
300
4:1
140
4.0
141
1.0
290
     0
  0
SCALE
  5
56
102
{ACAD_REACTORS
330
47
102
}
330
47
100
AcDbScale
 70
     0
300
8:1
140
8.0
141
1.0
290
     0
  0
SCALE
  5
57
102
{ACAD_REACTORS
330
47
102
}
330
47
100
AcDbScale
 70
     0
300
10:1
140
10.0
141
1.0
290
     0
  0
SCALE
  5
58
102
{ACAD_REACTORS
330
47
102
}
330
47
100
AcDbScale
 70
     0
300
100:1
140
100.0
141
1.0
290
     0
  0
SCALE
  5
59
102
{ACAD_REACTORS
330
47
102
}
330
47
100
AcDbScale
 70
     0
300
1/128" = 1'-0"
140
0.0078125
141
12.0
290
     0
  0
SCALE
  5
5A
102
{ACAD_REACTORS
330
47
102
}
330
47
100
AcDbScale
 70
     0
300
1/64" = 1'-0"
140
0.015625
141
12.0
290
     0
  0
SCALE
  5
5B
102
{ACAD_REACTORS
330
47
102
}
330
47
100
AcDbScale
 70
     0
300
1/32" = 1'-0"
140
0.03125
141
12.0
290
     0
  0
SCALE
  5
5C
102
{ACAD_REACTORS
330
47
102
}
330
47
100
AcDbScale
 70
     0
300
1/16" = 1'-0"
140
0.0625
141
12.0
290
     0
  0
SCALE
  5
5D
102
{ACAD_REACTORS
330
47
102
}
330
47
100
AcDbScale
 70
     0
300
3/32" = 1'-0"
140
0.09375
141
12.0
290
     0
  0
SCALE
  5
5E
102
{ACAD_REACTORS
330
47
102
}
330
47
100
AcDbScale
 70
     0
300
1/8" = 1'-0"
140
0.125
141
12.0
290
     0
  0
SCALE
  5
5F
102
{ACAD_REACTORS
330
47
102
}
330
47
100
AcDbScale
 70
     0
300
3/16" = 1'-0"
140
0.1875
141
12.0
290
     0
  0
SCALE
  5
60
102
{ACAD_REACTORS
330
47
102
}
330
47
100
AcDbScale
 70
     0
300
1/4" = 1'-0"
140
0.25
141
12.0
290
     0
  0
SCALE
  5
61
102
{ACAD_REACTORS
330
47
102
}
330
47
100
AcDbScale
 70
     0
300
3/8" = 1'-0"
140
0.375
141
12.0
290
     0
  0
SCALE
  5
62
102
{ACAD_REACTORS
330
47
102
}
330
47
100
AcDbScale
 70
     0
300
1/2" = 1'-0"
140
0.5
141
12.0
290
     0
  0
SCALE
  5
63
102
{ACAD_REACTORS
330
47
102
}
330
47
100
AcDbScale
 70
     0
300
3/4" = 1'-0"
140
0.75
141
12.0
290
     0
  0
SCALE
  5
64
102
{ACAD_REACTORS
330
47
102
}
330
47
100
AcDbScale
 70
     0
300
1" = 1'-0"
140
1.0
141
12.0
290
     0
  0
SCALE
  5
65
102
{ACAD_REACTORS
330
47
102
}
330
47
100
AcDbScale
 70
     0
300
1-1/2" = 1'-0"
140
1.5
141
12.0
290
     0
  0
SCALE
  5
66
102
{ACAD_REACTORS
330
47
102
}
330
47
100
AcDbScale
 70
     0
300
3" = 1'-0"
140
3.0
141
12.0
290
     0
  0
SCALE
  5
67
102
{ACAD_REACTORS
330
47
102
}
330
47
100
AcDbScale
 70
     0
300
6" = 1'-0"
140
6.0
141
12.0
290
     0
  0
SCALE
  5
68
102
{ACAD_REACTORS
330
47
102
}
330
47
100
AcDbScale
 70
     0
300
1'-0" = 1'-0"
140
12.0
141
12.0
290
     0
  0
ENDSEC
  0
EOF
