  0
SECTION
  2
HEADER
  9
$ACADVER
  1
AC1015
  9
$ACADMAINTVER
 70
     6
  9
$DWGCODEPAGE
  3
ANSI_1250
  9
$INSBASE
 10
0.0
 20
0.0
 30
0.0
  9
$EXTMIN
 10
0.0
 20
0.0
 30
0.0
  9
$EXTMAX
 10
431.8
 20
279.4
 30
0.0
  9
$LIMMIN
 10
0.0
 20
0.0
  9
$LIMMAX
 10
431.8
 20
279.4
  9
$ORTHOMODE
 70
     0
  9
$REGENMODE
 70
     1
  9
$FILLMODE
 70
     1
  9
$QTEXTMODE
 70
     0
  9
$MIRRTEXT
 70
     1
  9
$LTSCALE
 40
1.0
  9
$ATTMODE
 70
     1
  9
$TEXTSIZE
 40
3.8805555556
  9
$TRACEWID
 40
1.0
  9
$TEXTSTYLE
  7
Standard
  9
$CLAYER
  8
0
  9
$CELTYPE
  6
ByLayer
  9
$CECOLOR
 62
   256
  9
$CELTSCALE
 40
1.0
  9
$DISPSILH
 70
     0
  9
$DIMSCALE
 40
1.0
  9
$DIMASZ
 40
3.302
  9
$DIMEXO
 40
1.0
  9
$DIMDLI
 40
3.75
  9
$DIMRND
 40
0.0
  9
$DIMDLE
 40
0.0
  9
$DIMEXE
 40
1.0
  9
$DIMTP
 40
0.0
  9
$DIMTM
 40
0.0
  9
$DIMTXT
 40
3.8805555556
  9
$DIMCEN
 40
2.5
  9
$DIMTSZ
 40
0.0
  9
$DIMTOL
 70
     0
  9
$DIMLIM
 70
     0
  9
$DIMTIH
 70
     1
  9
$DIMTOH
 70
     1
  9
$DIMSE1
 70
     0
  9
$DIMSE2
 70
     0
  9
$DIMTAD
 70
     1
  9
$DIMZIN
 70
     0
  9
$DIMBLK
  1

  9
$DIMASO
 70
     1
  9
$DIMSHO
 70
     1
  9
$DIMPOST
  1

  9
$DIMAPOST
  1

  9
$DIMALT
 70
     0
  9
$DIMALTD
 70
     3
  9
$DIMALTF
 40
0.0393700787
  9
$DIMLFAC
 40
1.0
  9
$DIMTOFL
 70
     1
  9
$DIMTVP
 40
0.0
  9
$DIMTIX
 70
     0
  9
$DIMSOXD
 70
     0
  9
$DIMSAH
 70
     0
  9
$DIMBLK1
  1

  9
$DIMBLK2
  1

  9
$DIMSTYLE
  2
ISO-25
  9
$DIMCLRD
 70
     0
  9
$DIMCLRE
 70
     0
  9
$DIMCLRT
 70
     0
  9
$DIMTFAC
 40
1.0
  9
$DIMGAP
 40
1.524
  9
$DIMJUST
 70
     0
  9
$DIMSD1
 70
     0
  9
$DIMSD2
 70
     0
  9
$DIMTOLJ
 70
     0
  9
$DIMTZIN
 70
     0
  9
$DIMALTZ
 70
     0
  9
$DIMALTTZ
 70
     0
  9
$DIMUPT
 70
     0
  9
$DIMDEC
 70
     1
  9
$DIMTDEC
 70
     1
  9
$DIMALTU
 70
     2
  9
$DIMALTTD
 70
     3
  9
$DIMTXSTY
  7
Standard
  9
$DIMAUNIT
 70
     0
  9
$DIMADEC
 70
     1
  9
$DIMALTRND
 40
0.0
  9
$DIMAZIN
 70
     0
  9
$DIMDSEP
 70
    44
  9
$DIMATFIT
 70
     3
  9
$DIMFRAC
 70
     0
  9
$DIMLDRBLK
  1

  9
$DIMLUNIT
 70
     2
  9
$DIMLWD
 70
    -2
  9
$DIMLWE
 70
    -2
  9
$DIMTMOVE
 70
     0
  9
$LUNITS
 70
     2
  9
$LUPREC
 70
     1
  9
$SKETCHINC
 40
1.0
  9
$FILLETRAD
 40
10.0
  9
$AUNITS
 70
     0
  9
$AUPREC
 70
     1
  9
$MENU
  1
.
  9
$ELEVATION
 40
0.0
  9
$PELEVATION
 40
0.0
  9
$THICKNESS
 40
0.0
  9
$LIMCHECK
 70
     0
  9
$CHAMFERA
 40
0.0
  9
$CHAMFERB
 40
0.0
  9
$CHAMFERC
 40
0.0
  9
$CHAMFERD
 40
0.0
  9
$SKPOLY
 70
     0
  9
$TDCREATE
 40
2459662.585440255
  9
$TDUCREATE
 40
2459662.543773588
  9
$TDUPDATE
 40
2459662.585440602
  9
$TDUUPDATE
 40
2459662.543773935
  9
$TDINDWG
 40
0.0000000116
  9
$TDUSRTIMER
 40
0.0000000116
  9
$USRTIMER
 70
     1
  9
$ANGBASE
 50
0.0
  9
$ANGDIR
 70
     0
  9
$PDMODE
 70
     0
  9
$PDSIZE
 40
-1.0
  9
$PLINEWID
 40
0.0
  9
$SPLFRAME
 70
     0
  9
$SPLINETYPE
 70
     6
  9
$SPLINESEGS
 70
     8
  9
$HANDSEED
  5
DE
  9
$SURFTAB1
 70
     6
  9
$SURFTAB2
 70
     6
  9
$SURFTYPE
 70
     6
  9
$SURFU
 70
     6
  9
$SURFV
 70
     6
  9
$UCSBASE
  2

  9
$UCSNAME
  2

  9
$UCSORG
 10
0.0
 20
0.0
 30
0.0
  9
$UCSXDIR
 10
1.0
 20
0.0
 30
0.0
  9
$UCSYDIR
 10
0.0
 20
1.0
 30
0.0
  9
$UCSORTHOREF
  2

  9
$UCSORTHOVIEW
 70
     0
  9
$UCSORGTOP
 10
0.0
 20
0.0
 30
0.0
  9
$UCSORGBOTTOM
 10
0.0
 20
0.0
 30
0.0
  9
$UCSORGLEFT
 10
0.0
 20
0.0
 30
0.0
  9
$UCSORGRIGHT
 10
0.0
 20
0.0
 30
0.0
  9
$UCSORGFRONT
 10
0.0
 20
0.0
 30
0.0
  9
$UCSORGBACK
 10
0.0
 20
0.0
 30
0.0
  9
$PUCSBASE
  2

  9
$PUCSNAME
  2

  9
$PUCSORG
 10
0.0
 20
0.0
 30
0.0
  9
$PUCSXDIR
 10
1.0
 20
0.0
 30
0.0
  9
$PUCSYDIR
 10
0.0
 20
1.0
 30
0.0
  9
$PUCSORTHOREF
  2

  9
$PUCSORTHOVIEW
 70
     0
  9
$PUCSORGTOP
 10
0.0
 20
0.0
 30
0.0
  9
$PUCSORGBOTTOM
 10
0.0
 20
0.0
 30
0.0
  9
$PUCSORGLEFT
 10
0.0
 20
0.0
 30
0.0
  9
$PUCSORGRIGHT
 10
0.0
 20
0.0
 30
0.0
  9
$PUCSORGFRONT
 10
0.0
 20
0.0
 30
0.0
  9
$PUCSORGBACK
 10
0.0
 20
0.0
 30
0.0
  9
$USERI1
 70
     0
  9
$USERI2
 70
     0
  9
$USERI3
 70
     0
  9
$USERI4
 70
     0
  9
$USERI5
 70
     0
  9
$USERR1
 40
0.0
  9
$USERR2
 40
0.0
  9
$USERR3
 40
0.0
  9
$USERR4
 40
0.0
  9
$USERR5
 40
0.0
  9
$WORLDVIEW
 70
     1
  9
$SHADEDGE
 70
     3
  9
$SHADEDIF
 70
    70
  9
$TILEMODE
 70
     1
  9
$MAXACTVP
 70
    64
  9
$PINSBASE
 10
0.0
 20
0.0
 30
0.0
  9
$PLIMCHECK
 70
     0
  9
$PEXTMIN
 10
1.0000000000E+20
 20
1.0000000000E+20
 30
1.0000000000E+20
  9
$PEXTMAX
 10
-1.0000000000E+20
 20
-1.0000000000E+20
 30
-1.0000000000E+20
  9
$PLIMMIN
 10
0.0
 20
0.0
  9
$PLIMMAX
 10
420.0
 20
297.0
  9
$UNITMODE
 70
     0
  9
$VISRETAIN
 70
     1
  9
$PLINEGEN
 70
     0
  9
$PSLTSCALE
 70
     1
  9
$TREEDEPTH
 70
  3020
  9
$CMLSTYLE
  2
Standard
  9
$CMLJUST
 70
     0
  9
$CMLSCALE
 40
20.0
  9
$PROXYGRAPHICS
 70
     1
  9
$MEASUREMENT
 70
     1
  9
$CELWEIGHT
370
    -1
  9
$ENDCAPS
280
     0
  9
$JOINSTYLE
280
     0
  9
$LWDISPLAY
290
     1
  9
$INSUNITS
 70
     4
  9
$HYPERLINKBASE
  1

  9
$STYLESHEET
  1

  9
$XEDIT
290
     1
  9
$CEPSNTYPE
380
     0
  9
$PSTYLEMODE
290
     1
  9
$FINGERPRINTGUID
  2
{c11fc214-54d1-48f4-9d10-dc9648066bc2}
  9
$VERSIONGUID
  2
{FAEB1C32-E019-11D5-929B-00C0DF256EC4}
  9
$EXTNAMES
290
     1
  9
$PSVPSCALE
 40
0.0
  9
$OLESTARTUP
290
     0
  0
ENDSEC
  0
SECTION
  2
CLASSES
  0
CLASS
  1
ACDBDICTIONARYWDFLT
  2
AcDbDictionaryWithDefault
  3
ObjectDBX Classes
 90
        0
280
     0
281
     0
  0
CLASS
  1
VISUALSTYLE
  2
AcDbVisualStyle
  3
ObjectDBX Classes
 90
     4095
280
     0
281
     0
  0
CLASS
  1
MATERIAL
  2
AcDbMaterial
  3
ObjectDBX Classes
 90
     1153
280
     0
281
     0
  0
CLASS
  1
SCALE
  2
AcDbScale
  3
ObjectDBX Classes
 90
     1153
280
     0
281
     0
  0
CLASS
  1
TABLESTYLE
  2
AcDbTableStyle
  3
ObjectDBX Classes
 90
     4095
280
     0
281
     0
  0
CLASS
  1
MLEADERSTYLE
  2
AcDbMLeaderStyle
  3
ACDB_MLEADERSTYLE_CLASS
 90
     4095
280
     0
281
     0
  0
CLASS
  1
SUN
  2
AcDbSun
  3
SCENEOE
 90
     1153
280
     0
281
     0
  0
CLASS
  1
ACDBPLACEHOLDER
  2
AcDbPlaceHolder
  3
ObjectDBX Classes
 90
        0
280
     0
281
     0
  0
CLASS
  1
LAYOUT
  2
AcDbLayout
  3
ObjectDBX Classes
 90
        0
280
     0
281
     0
  0
ENDSEC
  0
SECTION
  2
TABLES
  0
TABLE
  2
VPORT
  5
8
330
0
100
AcDbSymbolTable
 70
     1
  0
VPORT
  5
29
330
8
100
AcDbSymbolTableRecord
100
AcDbViewportTableRecord
  2
*Active
 70
     0
 10
0.0
 20
0.0
 11
1.0
 21
1.0
 12
215.9
 22
139.7
 13
0.0
 23
0.0
 14
10.0
 24
10.0
 15
10.0
 25
10.0
 16
0.0
 26
0.0
 36
1.0
 17
0.0
 27
0.0
 37
0.0
 40
279.4
 41
1.5454545455
 42
50.0
 43
0.0
 44
0.0
 50
0.0
 51
0.0
 71
     0
 72
  2000
 73
     1
 74
     3
 75
     0
 76
     0
 77
     0
 78
     0
281
     0
 65
     1
110
0.0
120
0.0
130
0.0
111
1.0
121
0.0
131
0.0
112
0.0
122
1.0
132
0.0
 79
     0
146
0.0
  0
ENDTAB
  0
TABLE
  2
LTYPE
  5
5
330
0
100
AcDbSymbolTable
 70
     6
  0
LTYPE
  5
14
330
5
100
AcDbSymbolTableRecord
100
AcDbLinetypeTableRecord
  2
ByBlock
 70
     0
  3

 72
    65
 73
     0
 40
0.0
  0
LTYPE
  5
15
330
5
100
AcDbSymbolTableRecord
100
AcDbLinetypeTableRecord
  2
ByLayer
 70
     0
  3

 72
    65
 73
     0
 40
0.0
  0
LTYPE
  5
16
330
5
100
AcDbSymbolTableRecord
100
AcDbLinetypeTableRecord
  2
Continuous
 70
     0
  3
Solid line
 72
    65
 73
     0
 40
0.0
  0
LTYPE
  5
6E
330
5
100
AcDbSymbolTableRecord
100
AcDbLinetypeTableRecord
  2
HIDDEN
 70
     0
  3
Hidden __ __ __ __ __ __ __ __ __ __ __ __ __ __
 72
    65
 73
     2
 40
1.905
 49
1.27
 74
     0
 49
-0.635
 74
     0
  0
LTYPE
  5
6F
330
5
100
AcDbSymbolTableRecord
100
AcDbLinetypeTableRecord
  2
PHANTOM
 70
     0
  3
Phantom ______  __  __  ______  __  __  ______
 72
    65
 73
     6
 40
12.7
 49
6.35
 74
     0
 49
-1.27
 74
     0
 49
1.27
 74
     0
 49
-1.27
 74
     0
 49
1.27
 74
     0
 49
-1.27
 74
     0
  0
LTYPE
  5
70
330
5
100
AcDbSymbolTableRecord
100
AcDbLinetypeTableRecord
  2
CENTER
 70
     0
  3
Center ____ _ ____ _ ____ _ ____ _ ____ _ ____
 72
    65
 73
     4
 40
10.16
 49
6.35
 74
     0
 49
-1.27
 74
     0
 49
1.27
 74
     0
 49
-1.27
 74
     0
  0
LTYPE
  5
71
330
5
100
AcDbSymbolTableRecord
100
AcDbLinetypeTableRecord
  2
CENTERX2
 70
     0
  3
Center (2x) ________  __  ________  __  _____
 72
    65
 73
     4
 40
20.32
 49
12.7
 74
     0
 49
-2.54
 74
     0
 49
2.54
 74
     0
 49
-2.54
 74
     0
  0
LTYPE
  5
72
330
5
100
AcDbSymbolTableRecord
100
AcDbLinetypeTableRecord
  2
DOT2
 70
     0
  3
Dot (.5x) ........................................
 72
    65
 73
     2
 40
0.635
 49
0.0
 74
     0
 49
-0.635
 74
     0
  0
ENDTAB
  0
TABLE
  2
LAYER
  5
2
330
0
100
AcDbSymbolTable
 70
     3
  0
LAYER
  5
10
330
2
100
AcDbSymbolTableRecord
100
AcDbLayerTableRecord
  2
0
 70
     0
 62
     7
  6
Continuous
370
    -3
390
F
  0
LAYER
  5
73
330
2
100
AcDbSymbolTableRecord
100
AcDbLayerTableRecord
  2
FRAME_&_TABLE
 70
     0
 62
     8
  6
Continuous
370
    50
390
F
  0
LAYER
  5
74
330
2
100
AcDbSymbolTableRecord
100
AcDbLayerTableRecord
  2
DIMENSIONS
 70
     0
 62
     7
  6
Continuous
370
    -3
390
F
  0
ENDTAB
  0
TABLE
  2
STYLE
  5
3
330
0
100
AcDbSymbolTable
 70
     1
  0
STYLE
  5
11
330
3
100
AcDbSymbolTableRecord
100
AcDbTextStyleTableRecord
  2
Standard
 70
     0
 40
0.0
 41
1.0
 50
0.0
 71
     0
 42
3.8805555556
  3
txt
  4

  0
ENDTAB
  0
TABLE
  2
VIEW
  5
6
330
0
100
AcDbSymbolTable
 70
     0
  0
ENDTAB
  0
TABLE
  2
UCS
  5
7
330
0
100
AcDbSymbolTable
 70
     0
  0
ENDTAB
  0
TABLE
  2
APPID
  5
9
330
0
100
AcDbSymbolTable
 70
     1
  0
APPID
  5
12
330
9
100
AcDbSymbolTableRecord
100
AcDbRegAppTableRecord
  2
ACAD
 70
     0
  0
ENDTAB
  0
TABLE
  2
DIMSTYLE
  5
A
330
0
100
AcDbSymbolTable
 70
     1
100
AcDbDimStyleTable
  0
DIMSTYLE
105
27
330
A
100
AcDbSymbolTableRecord
100
AcDbDimStyleTableRecord
  2
ISO-25
 70
     0
 41
2.5
 42
0.625
 43
3.75
 44
1.25
 73
     0
 74
     0
 77
     1
 78
     8
140
2.5
141
2.5
143
0.0393700787
147
0.625
171
     3
172
     1
178
     0
271
     2
272
     2
274
     3
278
    44
283
     0
284
     8
340
11
  0
ENDTAB
  0
TABLE
  2
BLOCK_RECORD
  5
1
330
0
100
AcDbSymbolTable
 70
     2
  0
BLOCK_RECORD
  5
1F
330
1
100
AcDbSymbolTableRecord
100
AcDbBlockTableRecord
  2
*Model_Space
340
22
  0
BLOCK_RECORD
  5
1B
330
1
100
AcDbSymbolTableRecord
100
AcDbBlockTableRecord
  2
*Paper_Space
340
1E
  0
BLOCK_RECORD
  5
23
330
1
100
AcDbSymbolTableRecord
100
AcDbBlockTableRecord
  2
*Paper_Space0
340
26
  0
BLOCK_RECORD
  5
D1
330
1
100
AcDbSymbolTableRecord
100
AcDbBlockTableRecord
  2
SW_CENTERMARKSYMBOL_0
340
0
102
{BLKREFS
331
DC
102
}
  0
ENDTAB
  0
ENDSEC
  0
SECTION
  2
BLOCKS
  0
BLOCK
  5
20
330
1F
100
AcDbEntity
  8
0
100
AcDbBlockBegin
  2
*Model_Space
 70
     0
 10
0.0
 20
0.0
 30
0.0
  3
*Model_Space
  1

  0
ENDBLK
  5
21
330
1F
100
AcDbEntity
  8
0
100
AcDbBlockEnd
  0
BLOCK
  5
1C
330
1B
100
AcDbEntity
 67
     1
  8
0
100
AcDbBlockBegin
  2
*Paper_Space
 70
     0
 10
0.0
 20
0.0
 30
0.0
  3
*Paper_Space
  1

  0
ENDBLK
  5
1D
330
1B
100
AcDbEntity
 67
     1
  8
0
100
AcDbBlockEnd
  0
BLOCK
  5
24
330
23
100
AcDbEntity
  8
0
100
AcDbBlockBegin
  2
*Paper_Space0
 70
     0
 10
0.0
 20
0.0
 30
0.0
  3
*Paper_Space0
  1

  0
ENDBLK
  5
25
330
23
100
AcDbEntity
  8
0
100
AcDbBlockEnd
  0
BLOCK
  5
D2
330
D1
100
AcDbEntity
  8
0
100
AcDbBlockBegin
  2
SW_CENTERMARKSYMBOL_0
 70
     0
 10
0.0
 20
0.0
 30
0.0
  3
SW_CENTERMARKSYMBOL_0
  1

  0
LINE
  5
D4
330
D1
100
AcDbEntity
  8
0
  6
Continuous
 62
     0
370
    18
100
AcDbLine
 10
0.0
 20
0.0
 30
0.0
 11
0.0
 21
2.5
 31
0.0
  0
LINE
  5
D5
330
D1
100
AcDbEntity
  8
0
  6
Continuous
 62
     0
370
    18
100
AcDbLine
 10
0.0
 20
0.0
 30
0.0
 11
-2.5
 21
0.0
 31
0.0
  0
LINE
  5
D6
330
D1
100
AcDbEntity
  8
0
  6
Continuous
 62
     0
370
    18
100
AcDbLine
 10
0.0
 20
0.0
 30
0.0
 11
0.0
 21
-2.5
 31
0.0
  0
LINE
  5
D7
330
D1
100
AcDbEntity
  8
0
  6
Continuous
 62
     0
370
    18
100
AcDbLine
 10
0.0
 20
0.0
 30
0.0
 11
2.5
 21
0.0
 31
0.0
  0
LINE
  5
D8
330
D1
100
AcDbEntity
  8
0
  6
Continuous
 62
     0
370
    18
100
AcDbLine
 10
0.0
 20
5.0
 30
0.0
 11
0.0
 21
227.5
 31
0.0
  0
LINE
  5
D9
330
D1
100
AcDbEntity
  8
0
  6
Continuous
 62
     0
370
    18
100
AcDbLine
 10
-5.0
 20
0.0
 30
0.0
 11
-227.5
 21
0.0
 31
0.0
  0
LINE
  5
DA
330
D1
100
AcDbEntity
  8
0
  6
Continuous
 62
     0
370
    18
100
AcDbLine
 10
0.0
 20
-5.0
 30
0.0
 11
0.0
 21
-227.5
 31
0.0
  0
LINE
  5
DB
330
D1
100
AcDbEntity
  8
0
  6
Continuous
 62
     0
370
    18
100
AcDbLine
 10
5.0
 20
0.0
 30
0.0
 11
227.5
 21
0.0
 31
0.0
  0
ENDBLK
  5
D3
330
D1
100
AcDbEntity
  8
0
100
AcDbBlockEnd
  0
ENDSEC
  0
SECTION
  2
ENTITIES
  0
LINE
  5
75
330
1F
100
AcDbEntity
  8
0
  6
Continuous
 62
     7
370
    25
100
AcDbLine
 10
428.1675050435
 20
253.4921368786
 30
0.0
 11
428.1675050435
 21
40.8722271821
 31
0.0
  0
LINE
  5
76
330
1F
100
AcDbEntity
  8
0
  6
Continuous
 62
     7
370
    25
100
AcDbLine
 10
31.5659745364
 20
40.8722271821
 30
0.0
 11
31.5659745364
 21
253.4921368786
 31
0.0
  0
LINE
  5
77
330
1F
100
AcDbEntity
  8
0
  6
Continuous
 62
     7
370
    25
100
AcDbLine
 10
336.1766946383
 20
-51.1185832232
 30
0.0
 11
123.5567849417
 21
-51.1185832232
 31
0.0
  0
LINE
  5
78
330
1F
100
AcDbEntity
  8
0
  6
Continuous
 62
     7
370
    25
100
AcDbLine
 10
123.5567849417
 20
345.4829472839
 30
0.0
 11
336.1766946383
 21
345.4829472839
 31
0.0
  0
ARC
  5
79
330
1F
100
AcDbEntity
  8
0
  6
Continuous
 62
     7
370
    25
100
AcDbCircle
 10
-40.6647687066
 20
322.2551538005
 30
0.0
 40
13.00000000000001
100
AcDbArc
 50
135.0
 51
180.0
  0
LINE
  5
7A
330
1F
100
AcDbEntity
  8
0
  6
Continuous
 62
     7
370
    25
100
AcDbLine
 10
-49.8571568621
 20
331.447541956
 30
0.0
 11
-47.7358365185
 21
329.3262216124
 31
0.0
  0
ARC
  5
7B
330
1F
100
AcDbEntity
  8
0
  6
Continuous
 62
     7
370
    25
100
AcDbCircle
 10
-40.6647687066
 20
322.2551538005
 30
0.0
 40
10.00000000000001
100
AcDbArc
 50
135.0
 51
180.0
  0
LINE
  5
7C
330
1F
100
AcDbEntity
  8
0
  6
Continuous
 62
     7
370
    25
100
AcDbLine
 10
-53.6647687066
 20
322.2551538005
 30
0.0
 11
-50.6647687066
 21
322.2551538005
 31
0.0
  0
LINE
  5
7D
330
1F
100
AcDbEntity
  8
0
  6
Continuous
 62
     7
370
    25
100
AcDbLine
 10
510.3982482866
 20
-27.8907897399
 30
0.0
 11
510.3982482866
 21
322.2551538005
 31
0.0
  0
LINE
  5
7E
330
1F
100
AcDbEntity
  8
0
  6
Continuous
 62
     7
370
    25
100
AcDbLine
 10
510.3982482866
 20
322.2551538005
 30
0.0
 11
513.3982482866
 21
322.2551538005
 31
0.0
  0
LINE
  5
7F
330
1F
100
AcDbEntity
  8
0
  6
Continuous
 62
     7
370
    25
100
AcDbLine
 10
513.3982482866
 20
322.2551538005
 30
0.0
 11
513.3982482866
 21
-27.8907897399
 31
0.0
  0
LINE
  5
80
330
1F
100
AcDbEntity
  8
0
  6
Continuous
 62
     7
370
    25
100
AcDbLine
 10
510.3982482866
 20
-27.8907897399
 30
0.0
 11
513.3982482866
 21
-27.8907897399
 31
0.0
  0
ARC
  5
81
330
1F
100
AcDbEntity
  8
0
  6
Continuous
 62
     7
370
    25
100
AcDbCircle
 10
54.7937680198
 20
-123.3493264663
 30
0.0
 40
10.00000000000004
100
AcDbArc
 50
225.0
 51
270.0
  0
LINE
  5
82
330
1F
100
AcDbEntity
  8
0
  6
Continuous
 62
     7
370
    25
100
AcDbLine
 10
54.7937680198
 20
-133.3493264663
 30
0.0
 11
54.7937680198
 21
-136.3493264663
 31
0.0
  0
ARC
  5
83
330
1F
100
AcDbEntity
  8
0
  6
Continuous
 62
     7
370
    25
100
AcDbCircle
 10
54.7937680198
 20
-123.3493264663
 30
0.0
 40
13.0
100
AcDbArc
 50
225.0
 51
270.0
  0
LINE
  5
84
330
1F
100
AcDbEntity
  8
0
  6
Continuous
 62
     7
370
    25
100
AcDbLine
 10
45.6013798643
 20
-132.5417146217
 30
0.0
 11
47.7227002079
 21
-130.4203942781
 31
0.0
  0
ARC
  5
85
330
1F
100
AcDbEntity
  8
0
  6
Continuous
 62
     7
370
    25
100
AcDbCircle
 10
500.3982482866
 20
322.2551538005
 30
0.0
 40
10.0
100
AcDbArc
 50
0.0
 51
45.0
  0
ARC
  5
86
330
1F
100
AcDbEntity
  8
0
  6
Continuous
 62
     7
370
    25
100
AcDbCircle
 10
500.3982482866
 20
-27.8907897399
 30
0.0
 40
10.0
100
AcDbArc
 50
315.0
 51
0.0
  0
LINE
  5
87
330
1F
100
AcDbEntity
  8
0
  6
Continuous
 62
     7
370
    25
100
AcDbLine
 10
412.010779372
 20
-130.4203942781
 30
0.0
 11
507.4693160984
 21
-34.9618575517
 31
0.0
  0
ARC
  5
88
330
1F
100
AcDbEntity
  8
0
  6
Continuous
 62
     7
370
    25
100
AcDbCircle
 10
404.9397115602
 20
-123.3493264663
 30
0.0
 40
10.0
100
AcDbArc
 50
270.0
 51
315.0
  0
LINE
  5
89
330
1F
100
AcDbEntity
  8
0
  6
Continuous
 62
     7
370
    25
100
AcDbLine
 10
54.7937680198
 20
-133.3493264663
 30
0.0
 11
404.9397115602
 21
-133.3493264663
 31
0.0
  0
LINE
  5
8A
330
1F
100
AcDbEntity
  8
0
  6
Continuous
 62
     7
370
    25
100
AcDbLine
 10
-47.7358365185
 20
-34.9618575517
 30
0.0
 11
47.7227002079
 21
-130.4203942781
 31
0.0
  0
ARC
  5
8B
330
1F
100
AcDbEntity
  8
0
  6
Continuous
 62
     7
370
    25
100
AcDbCircle
 10
-40.6647687066
 20
-27.8907897399
 30
0.0
 40
10.00000000000007
100
AcDbArc
 50
180.0
 51
225.0
  0
LINE
  5
8C
330
1F
100
AcDbEntity
  8
0
  6
Continuous
 62
     7
370
    25
100
AcDbLine
 10
-50.6647687066
 20
322.2551538005
 30
0.0
 11
-50.6647687066
 21
-27.8907897399
 31
0.0
  0
LINE
  5
8D
330
1F
100
AcDbEntity
  8
0
  6
Continuous
 62
     7
370
    25
100
AcDbLine
 10
47.7227002079
 20
424.7847583388
 30
0.0
 11
-47.7358365185
 21
329.3262216124
 31
0.0
  0
ARC
  5
8E
330
1F
100
AcDbEntity
  8
0
  6
Continuous
 62
     7
370
    25
100
AcDbCircle
 10
54.7937680198
 20
417.7136905269
 30
0.0
 40
10.00000000000006
100
AcDbArc
 50
90.0
 51
135.0
  0
LINE
  5
8F
330
1F
100
AcDbEntity
  8
0
  6
Continuous
 62
     7
370
    25
100
AcDbLine
 10
404.9397115602
 20
427.7136905269
 30
0.0
 11
54.7937680198
 21
427.7136905269
 31
0.0
  0
ARC
  5
90
330
1F
100
AcDbEntity
  8
0
  6
Continuous
 62
     7
370
    25
100
AcDbCircle
 10
404.9397115602
 20
417.7136905269
 30
0.0
 40
10.00000000000006
100
AcDbArc
 50
45.0
 51
90.0
  0
LINE
  5
91
330
1F
100
AcDbEntity
  8
0
  6
Continuous
 62
     7
370
    25
100
AcDbLine
 10
507.4693160984
 20
329.3262216124
 30
0.0
 11
412.010779372
 21
424.7847583388
 31
0.0
  0
CIRCLE
  5
92
330
1F
100
AcDbEntity
  8
0
  6
Continuous
 62
     7
370
    25
100
AcDbCircle
 10
229.86673979
 20
147.1821820303
 30
0.0
 40
228.0
  0
LINE
  5
93
330
1F
100
AcDbEntity
  8
0
  6
Continuous
 62
     7
370
    25
100
AcDbLine
 10
45.6013798643
 20
-132.5417146217
 30
0.0
 11
-49.8571568621
 21
-37.0831778953
 31
0.0
  0
LINE
  5
94
330
1F
100
AcDbEntity
  8
0
  6
Continuous
 62
     7
370
    25
100
AcDbLine
 10
-49.8571568621
 20
-37.0831778953
 30
0.0
 11
-47.7358365185
 21
-34.9618575517
 31
0.0
  0
LINE
  5
95
330
1F
100
AcDbEntity
  8
0
  6
Continuous
 62
     7
370
    25
100
AcDbLine
 10
412.010779372
 20
-130.4203942781
 30
0.0
 11
414.1320997156
 21
-132.5417146217
 31
0.0
  0
ARC
  5
96
330
1F
100
AcDbEntity
  8
0
  6
Continuous
 62
     7
370
    25
100
AcDbCircle
 10
404.9397115602
 20
-123.3493264663
 30
0.0
 40
13.0
100
AcDbArc
 50
270.0
 51
315.0
  0
LINE
  5
97
330
1F
100
AcDbEntity
  8
0
  6
Continuous
 62
     7
370
    25
100
AcDbLine
 10
404.9397115602
 20
-133.3493264663
 30
0.0
 11
404.9397115602
 21
-136.3493264663
 31
0.0
  0
ARC
  5
98
330
1F
100
AcDbEntity
  8
0
  6
Continuous
 62
     7
370
    25
100
AcDbCircle
 10
-40.6647687066
 20
-27.8907897399
 30
0.0
 40
13.00000000000001
100
AcDbArc
 50
180.0
 51
225.0
  0
LINE
  5
99
330
1F
100
AcDbEntity
  8
0
  6
Continuous
 62
     7
370
    25
100
AcDbLine
 10
-53.6647687066
 20
-27.8907897399
 30
0.0
 11
-50.6647687066
 21
-27.8907897399
 31
0.0
  0
LINE
  5
9A
330
1F
100
AcDbEntity
  8
0
  6
Continuous
 62
     7
370
    25
100
AcDbLine
 10
507.4693160984
 20
-34.9618575517
 30
0.0
 11
509.590636442
 21
-37.0831778953
 31
0.0
  0
LINE
  5
9B
330
1F
100
AcDbEntity
  8
0
  6
Continuous
 62
     7
370
    25
100
AcDbLine
 10
509.590636442
 20
-37.0831778953
 30
0.0
 11
414.1320997156
 21
-132.5417146217
 31
0.0
  0
LINE
  5
9C
330
1F
100
AcDbEntity
  8
0
  6
Continuous
 62
     7
370
    25
100
AcDbLine
 10
-53.6647687066
 20
-27.8907897399
 30
0.0
 11
-53.6647687066
 21
322.2551538005
 31
0.0
  0
ARC
  5
9D
330
1F
100
AcDbEntity
  8
0
  6
Continuous
 62
     7
370
    25
100
AcDbCircle
 10
500.3982482866
 20
-27.8907897399
 30
0.0
 40
13.0
100
AcDbArc
 50
315.0
 51
0.0
  0
LINE
  5
9E
330
1F
100
AcDbEntity
  8
0
  6
Continuous
 62
     7
370
    25
100
AcDbLine
 10
412.010779372
 20
424.7847583388
 30
0.0
 11
414.1320997156
 21
426.9060786824
 31
0.0
  0
LINE
  5
9F
330
1F
100
AcDbEntity
  8
0
  6
Continuous
 62
     7
370
    25
100
AcDbLine
 10
414.1320997156
 20
426.9060786824
 30
0.0
 11
509.590636442
 21
331.447541956
 31
0.0
  0
LINE
  5
A0
330
1F
100
AcDbEntity
  8
0
  6
Continuous
 62
     7
370
    25
100
AcDbLine
 10
507.4693160984
 20
329.3262216124
 30
0.0
 11
509.590636442
 21
331.447541956
 31
0.0
  0
LINE
  5
A1
330
1F
100
AcDbEntity
  8
0
  6
Continuous
 62
     7
370
    25
100
AcDbLine
 10
54.7937680198
 20
430.7136905269
 30
0.0
 11
404.9397115602
 21
430.7136905269
 31
0.0
  0
LINE
  5
A2
330
1F
100
AcDbEntity
  8
0
  6
Continuous
 62
     7
370
    25
100
AcDbLine
 10
404.9397115602
 20
430.7136905269
 30
0.0
 11
404.9397115602
 21
427.7136905269
 31
0.0
  0
LINE
  5
A3
330
1F
100
AcDbEntity
  8
0
  6
Continuous
 62
     7
370
    25
100
AcDbLine
 10
54.7937680198
 20
430.7136905269
 30
0.0
 11
54.7937680198
 21
427.7136905269
 31
0.0
  0
LINE
  5
A4
330
1F
100
AcDbEntity
  8
0
  6
Continuous
 62
     7
370
    25
100
AcDbLine
 10
-49.8571568621
 20
331.447541956
 30
0.0
 11
45.6013798643
 21
426.9060786824
 31
0.0
  0
LINE
  5
A5
330
1F
100
AcDbEntity
  8
0
  6
Continuous
 62
     7
370
    25
100
AcDbLine
 10
45.6013798643
 20
426.9060786824
 30
0.0
 11
47.7227002079
 21
424.7847583388
 31
0.0
  0
ARC
  5
A6
330
1F
100
AcDbEntity
  8
0
  6
Continuous
 62
     7
370
    25
100
AcDbCircle
 10
500.3982482866
 20
322.2551538005
 30
0.0
 40
13.0
100
AcDbArc
 50
0.0
 51
45.0
  0
CIRCLE
  5
A7
330
1F
100
AcDbEntity
  8
0
  6
Continuous
 62
     7
370
    25
100
AcDbCircle
 10
229.86673979
 20
147.1821820303
 30
0.0
 40
225.0
  0
ARC
  5
A8
330
1F
100
AcDbEntity
  8
0
  6
Continuous
 62
     7
370
    25
100
AcDbCircle
 10
404.9397115602
 20
417.7136905269
 30
0.0
 40
13.0
100
AcDbArc
 50
45.0
 51
90.0
  0
LINE
  5
A9
330
1F
100
AcDbEntity
  8
0
  6
Continuous
 62
     7
370
    25
100
AcDbLine
 10
404.9397115602
 20
-136.3493264663
 30
0.0
 11
54.7937680198
 21
-136.3493264663
 31
0.0
  0
ARC
  5
AA
330
1F
100
AcDbEntity
  8
0
  6
Continuous
 62
     7
370
    25
100
AcDbCircle
 10
54.7937680198
 20
417.7136905269
 30
0.0
 40
13.0
100
AcDbArc
 50
90.0
 51
135.0
  0
LINE
  5
AB
330
1F
100
AcDbEntity
  8
0
  6
Continuous
 62
     7
370
    25
100
AcDbLine
 10
122.830864639
 20
345.0920641248
 30
0.0
 11
336.902614941
 21
345.0920641248
 31
0.0
  0
LINE
  5
AC
330
1F
100
AcDbEntity
  8
0
  6
Continuous
 62
     7
370
    25
100
AcDbLine
 10
336.902614941
 20
-50.7277000642
 30
0.0
 11
122.830864639
 21
-50.7277000642
 31
0.0
  0
LINE
  5
AD
330
1F
100
AcDbEntity
  8
0
  6
Continuous
 62
     7
370
    25
100
AcDbLine
 10
31.9568576955
 20
40.1463068793
 30
0.0
 11
31.9568576955
 21
254.2180571814
 31
0.0
  0
LINE
  5
AE
330
1F
100
AcDbEntity
  8
0
  6
Continuous
 62
     7
370
    25
100
AcDbLine
 10
427.7766218845
 20
254.2180571814
 30
0.0
 11
427.7766218845
 21
40.1463068793
 31
0.0
  0
LWPOLYLINE
  5
AF
330
1F
100
AcDbEntity
  8
0
  6
Continuous
 62
     7
370
    25
100
AcDbPolyline
 90
       57
 70
   128
 43
0.0
 10
139.7588984517
 20
353.350988908
 10
139.9146868229
 20
353.3327621876
 10
142.6066812756
 20
353.0271196747
 10
145.368569793
 20
352.7308836209
 10
148.1981401415
 20
352.4442913073
 10
151.0931258757
 20
352.16757229
 10
154.0512081531
 20
351.9009482172
 10
157.0700175921
 20
351.6446326509
 10
160.1471361691
 20
351.3988308962
 10
163.2800991561
 20
351.1637398368
 10
166.4663970942
 20
350.9395477774
 10
169.7034778042
 20
350.7264342925
 10
172.9887484306
 20
350.5245700831
 10
176.3195775182
 20
350.3341168394
 10
179.6932971206
 20
350.1552271119
 10
183.1072049362
 20
349.9880441886
 10
186.5585664735
 20
349.8327019808
 10
190.0446172411
 20
349.6893249152
 10
193.5625649619
 20
349.5580278349
 10
197.1095918099
 20
349.438915907
 10
200.6828566671
 20
349.3320845384
 10
204.2794973992
 20
349.2376192996
 10
207.8966331481
 20
349.1555958558
 10
211.5313666397
 20
349.0860799066
 10
215.1807865042
 20
349.0291271335
 10
218.8419696081
 20
348.9847831546
 10
222.5119833961
 20
348.9530834889
 10
226.1878882392
 20
348.9340535274
 10
229.86673979
 20
348.9277085128
 10
233.5455913408
 20
348.9340535274
 10
237.2214961839
 20
348.9530834889
 10
240.8915099718
 20
348.9847831546
 10
244.5526930757
 20
349.0291271335
 10
248.2021129402
 20
349.0860799066
 10
251.8368464318
 20
349.1555958558
 10
255.4539821808
 20
349.2376192996
 10
259.0506229129
 20
349.3320845384
 10
262.62388777
 20
349.438915907
 10
266.170914618
 20
349.5580278349
 10
269.6888623388
 20
349.6893249152
 10
273.1749131064
 20
349.8327019808
 10
276.6262746438
 20
349.9880441886
 10
280.0401824594
 20
350.1552271119
 10
283.4139020617
 20
350.3341168394
 10
286.7447311494
 20
350.5245700831
 10
290.0300017757
 20
350.7264342925
 10
293.2670824857
 20
350.9395477774
 10
296.4533804239
 20
351.1637398368
 10
299.5863434108
 20
351.3988308962
 10
302.6634619879
 20
351.6446326509
 10
305.6822714268
 20
351.9009482172
 10
308.6403537042
 20
352.16757229
 10
311.5353394384
 20
352.4442913073
 10
314.3649097869
 20
352.7308836209
 10
317.1267983043
 20
353.0271196747
 10
319.818792757
 20
353.3327621876
 10
319.9745811282
 20
353.350988908
  0
LWPOLYLINE
  5
B0
330
1F
100
AcDbEntity
  8
0
  6
Continuous
 62
     7
370
    25
100
AcDbPolyline
 90
       29
 70
   128
 43
0.0
 10
28.1212133075
 20
147.1821820303
 10
28.1148682929
 20
150.8610335811
 10
28.0958383314
 20
154.5369384242
 10
28.0641386657
 20
158.2069522122
 10
28.0197946869
 20
161.8681353161
 10
27.9628419137
 20
165.5175551806
 10
27.8933259645
 20
169.1522886722
 10
27.8113025207
 20
172.7694244211
 10
27.7168372819
 20
176.3660651532
 10
27.6100059133
 20
179.9393300104
 10
27.4908939854
 20
183.4863568584
 10
27.3595969051
 20
187.0043045792
 10
27.2162198395
 20
190.4903553468
 10
27.0608776317
 20
193.9417168841
 10
26.8936947084
 20
197.3556246997
 10
26.7148049809
 20
200.7293443021
 10
26.5243517372
 20
204.0601733897
 10
26.3224875278
 20
207.3454440161
 10
26.1093740429
 20
210.5825247261
 10
25.8851819835
 20
213.7688226642
 10
25.6500909241
 20
216.9017856512
 10
25.4042891694
 20
219.9789042282
 10
25.1479736031
 20
222.9977136672
 10
24.8813495303
 20
225.9557959446
 10
24.604630513
 20
228.8507816788
 10
24.3180381994
 20
231.6803520273
 10
24.0218021456
 20
234.4422405447
 10
23.7161596327
 20
237.1342349974
 10
23.6979329123
 20
237.2900233686
  0
LWPOLYLINE
  5
B1
330
1F
100
AcDbEntity
  8
0
  6
Continuous
 62
     7
370
    25
100
AcDbPolyline
 90
       29
 70
   128
 43
0.0
 10
23.6979329123
 20
57.0743406921
 10
23.7161596327
 20
57.2301290633
 10
24.0218021456
 20
59.922123516
 10
24.3180381994
 20
62.6840120334
 10
24.604630513
 20
65.5135823819
 10
24.8813495303
 20
68.4085681161
 10
25.1479736031
 20
71.3666503935
 10
25.4042891694
 20
74.3854598325
 10
25.6500909241
 20
77.4625784095
 10
25.8851819835
 20
80.5955413964
 10
26.1093740429
 20
83.7818393346
 10
26.3224875278
 20
87.0189200446
 10
26.5243517372
 20
90.3041906709
 10
26.7148049809
 20
93.6350197586
 10
26.8936947084
 20
97.0087393609
 10
27.0608776317
 20
100.4226471766
 10
27.2162198395
 20
103.8740087139
 10
27.3595969051
 20
107.3600594815
 10
27.4908939854
 20
110.8780072023
 10
27.6100059133
 20
114.4250340503
 10
27.7168372819
 20
117.9982989075
 10
27.8113025207
 20
121.5949396395
 10
27.8933259645
 20
125.2120753885
 10
27.9628419137
 20
128.8468088801
 10
28.0197946869
 20
132.4962287446
 10
28.0641386657
 20
136.1574118485
 10
28.0958383314
 20
139.8274256364
 10
28.1148682929
 20
143.5033304795
 10
28.1212133075
 20
147.1821820303
  0
LWPOLYLINE
  5
B2
330
1F
100
AcDbEntity
  8
0
  6
Continuous
 62
     7
370
    25
100
AcDbPolyline
 90
       29
 70
   128
 43
0.0
 10
229.86673979
 20
-54.5633444521
 10
226.1878882392
 20
-54.5696894667
 10
222.5119833961
 20
-54.5887194282
 10
218.8419696081
 20
-54.6204190939
 10
215.1807865042
 20
-54.6647630728
 10
211.5313666397
 20
-54.721715846
 10
207.8966331481
 20
-54.7912317951
 10
204.2794973992
 20
-54.8732552389
 10
200.6828566671
 20
-54.9677204777
 10
197.1095918099
 20
-55.0745518463
 10
193.5625649619
 20
-55.1936637742
 10
190.0446172411
 20
-55.3249608545
 10
186.5585664735
 20
-55.4683379201
 10
183.1072049362
 20
-55.623680128
 10
179.6932971206
 20
-55.7908630512
 10
176.3195775182
 20
-55.9697527788
 10
172.9887484306
 20
-56.1602060224
 10
169.7034778042
 20
-56.3620702318
 10
166.4663970942
 20
-56.5751837167
 10
163.2800991561
 20
-56.7993757762
 10
160.1471361691
 20
-57.0344668355
 10
157.0700175921
 20
-57.2802685902
 10
154.0512081531
 20
-57.5365841565
 10
151.0931258757
 20
-57.8032082294
 10
148.1981401415
 20
-58.0799272466
 10
145.368569793
 20
-58.3665195603
 10
142.6066812756
 20
-58.662755614
 10
139.9146868229
 20
-58.9683981269
 10
139.7588984517
 20
-58.9866248473
  0
LWPOLYLINE
  5
B3
330
1F
100
AcDbEntity
  8
0
  6
Continuous
 62
     7
370
    25
100
AcDbPolyline
 90
       29
 70
   128
 43
0.0
 10
319.9745811282
 20
-58.9866248473
 10
319.818792757
 20
-58.9683981269
 10
317.1267983043
 20
-58.662755614
 10
314.3649097869
 20
-58.3665195603
 10
311.5353394384
 20
-58.0799272466
 10
308.6403537042
 20
-57.8032082294
 10
305.6822714268
 20
-57.5365841565
 10
302.6634619879
 20
-57.2802685902
 10
299.5863434108
 20
-57.0344668355
 10
296.4533804239
 20
-56.7993757762
 10
293.2670824857
 20
-56.5751837167
 10
290.0300017757
 20
-56.3620702318
 10
286.7447311494
 20
-56.1602060224
 10
283.4139020617
 20
-55.9697527788
 10
280.0401824594
 20
-55.7908630512
 10
276.6262746438
 20
-55.623680128
 10
273.1749131064
 20
-55.4683379201
 10
269.6888623388
 20
-55.3249608545
 10
266.170914618
 20
-55.1936637742
 10
262.62388777
 20
-55.0745518463
 10
259.0506229128
 20
-54.9677204777
 10
255.4539821808
 20
-54.8732552389
 10
251.8368464318
 20
-54.7912317951
 10
248.2021129402
 20
-54.721715846
 10
244.5526930757
 20
-54.6647630728
 10
240.8915099718
 20
-54.6204190939
 10
237.2214961839
 20
-54.5887194282
 10
233.5455913408
 20
-54.5696894667
 10
229.86673979
 20
-54.5633444521
  0
LWPOLYLINE
  5
B4
330
1F
100
AcDbEntity
  8
0
  6
Continuous
 62
     7
370
    25
100
AcDbPolyline
 90
       57
 70
   128
 43
0.0
 10
436.0355466676
 20
237.2900233686
 10
436.0173199472
 20
237.1342349974
 10
435.7116774343
 20
234.4422405447
 10
435.4154413806
 20
231.6803520273
 10
435.1288490669
 20
228.8507816788
 10
434.8521300497
 20
225.9557959446
 10
434.5855059768
 20
222.9977136672
 10
434.3291904105
 20
219.9789042282
 10
434.0833886558
 20
216.9017856512
 10
433.8482975965
 20
213.7688226642
 10
433.624105537
 20
210.5825247261
 10
433.4109920521
 20
207.3454440161
 10
433.2091278427
 20
204.0601733897
 10
433.0186745991
 20
200.7293443021
 10
432.8397848715
 20
197.3556246997
 10
432.6726019483
 20
193.9417168841
 10
432.5172597404
 20
190.4903553468
 10
432.3738826748
 20
187.0043045792
 10
432.2425855945
 20
183.4863568584
 10
432.1234736666
 20
179.9393300104
 10
432.016642298
 20
176.3660651532
 10
431.9221770592
 20
172.7694244211
 10
431.8401536154
 20
169.1522886722
 10
431.7706376663
 20
165.5175551806
 10
431.7136848931
 20
161.8681353161
 10
431.6693409142
 20
158.2069522122
 10
431.6376412485
 20
154.5369384242
 10
431.618611287
 20
150.8610335811
 10
431.6122662724
 20
147.1821820303
 10
431.618611287
 20
143.5033304795
 10
431.6376412485
 20
139.8274256364
 10
431.6693409142
 20
136.1574118485
 10
431.7136848931
 20
132.4962287446
 10
431.7706376663
 20
128.8468088801
 10
431.8401536154
 20
125.2120753885
 10
431.9221770592
 20
121.5949396395
 10
432.016642298
 20
117.9982989075
 10
432.1234736666
 20
114.4250340503
 10
432.2425855945
 20
110.8780072023
 10
432.3738826748
 20
107.3600594815
 10
432.5172597404
 20
103.8740087139
 10
432.6726019483
 20
100.4226471765
 10
432.8397848715
 20
97.0087393609
 10
433.0186745991
 20
93.6350197586
 10
433.2091278427
 20
90.3041906709
 10
433.4109920521
 20
87.0189200446
 10
433.624105537
 20
83.7818393346
 10
433.8482975965
 20
80.5955413964
 10
434.0833886558
 20
77.4625784095
 10
434.3291904105
 20
74.3854598324
 10
434.5855059768
 20
71.3666503935
 10
434.8521300497
 20
68.4085681161
 10
435.1288490669
 20
65.5135823819
 10
435.4154413806
 20
62.6840120334
 10
435.7116774343
 20
59.922123516
 10
436.0173199472
 20
57.2301290633
 10
436.0355466676
 20
57.0743406921
  0
LWPOLYLINE
  5
B5
330
1F
100
AcDbEntity
  8
0
  6
Continuous
 62
     7
370
    25
100
AcDbPolyline
 90
       20
 70
   128
 43
0.0
 10
443.5228200921
 20
147.1821820303
 10
443.5291651067
 20
150.8610335811
 10
443.5481950682
 20
154.5369384242
 10
443.5798947339
 20
158.2069522122
 10
443.6242387128
 20
161.8681353161
 10
443.681191486
 20
165.5175551806
 10
443.7507074351
 20
169.1522886722
 10
443.8327308789
 20
172.7694244211
 10
443.9271961177
 20
176.3660651532
 10
444.0340274863
 20
179.9393300104
 10
444.1531394142
 20
183.4863568584
 10
444.2844364945
 20
187.0043045792
 10
444.4278135601
 20
190.4903553468
 10
444.583155768
 20
193.9417168841
 10
444.7503386912
 20
197.3556246997
 10
444.9292284188
 20
200.7293443021
 10
445.1196816624
 20
204.0601733897
 10
445.3215458718
 20
207.3454440161
 10
445.5346593567
 20
210.5825247261
 10
445.5751387283
 20
211.1734832161
  0
LWPOLYLINE
  5
B6
330
1F
100
AcDbEntity
  8
0
  6
Continuous
 62
     7
370
    25
100
AcDbPolyline
 90
       20
 70
   128
 43
0.0
 10
445.5751387283
 20
83.1908808446
 10
445.5346593567
 20
83.7818393346
 10
445.3215458718
 20
87.0189200446
 10
445.1196816624
 20
90.3041906709
 10
444.9292284188
 20
93.6350197586
 10
444.7503386912
 20
97.0087393609
 10
444.583155768
 20
100.4226471765
 10
444.4278135601
 20
103.8740087139
 10
444.2844364945
 20
107.3600594815
 10
444.1531394142
 20
110.8780072023
 10
444.0340274863
 20
114.4250340503
 10
443.9271961177
 20
117.9982989075
 10
443.8327308789
 20
121.5949396395
 10
443.7507074351
 20
125.2120753885
 10
443.681191486
 20
128.8468088801
 10
443.6242387128
 20
132.4962287446
 10
443.5798947339
 20
136.1574118485
 10
443.5481950682
 20
139.8274256364
 10
443.5291651067
 20
143.5033304795
 10
443.5228200921
 20
147.1821820303
  0
LWPOLYLINE
  5
B7
330
1F
100
AcDbEntity
  8
0
  6
Continuous
 62
     7
370
    25
100
AcDbPolyline
 90
       20
 70
   128
 43
0.0
 10
229.86673979
 20
360.8382623325
 10
226.1878882392
 20
360.8446073471
 10
222.5119833961
 20
360.8636373086
 10
218.8419696081
 20
360.8953369743
 10
215.1807865042
 20
360.9396809531
 10
211.5313666397
 20
360.9966337263
 10
207.8966331481
 20
361.0661496755
 10
204.2794973992
 20
361.1481731193
 10
200.6828566671
 20
361.2426383581
 10
197.1095918099
 20
361.3494697267
 10
193.5625649619
 20
361.4685816546
 10
190.0446172411
 20
361.5998787349
 10
186.5585664735
 20
361.7432558005
 10
183.1072049362
 20
361.8985980083
 10
179.6932971206
 20
362.0657809316
 10
176.3195775182
 20
362.2446706591
 10
172.9887484306
 20
362.4351239028
 10
169.7034778042
 20
362.6369881122
 10
166.4663970942
 20
362.8501015971
 10
165.8754386042
 20
362.8905809687
  0
LWPOLYLINE
  5
B8
330
1F
100
AcDbEntity
  8
0
  6
Continuous
 62
     7
370
    25
100
AcDbPolyline
 90
       20
 70
   128
 43
0.0
 10
293.8580409757
 20
362.8905809687
 10
293.2670824857
 20
362.8501015971
 10
290.0300017757
 20
362.6369881122
 10
286.7447311494
 20
362.4351239028
 10
283.4139020617
 20
362.2446706591
 10
280.0401824594
 20
362.0657809316
 10
276.6262746438
 20
361.8985980083
 10
273.1749131064
 20
361.7432558005
 10
269.6888623388
 20
361.5998787349
 10
266.170914618
 20
361.4685816546
 10
262.62388777
 20
361.3494697267
 10
259.0506229128
 20
361.2426383581
 10
255.4539821808
 20
361.1481731193
 10
251.8368464318
 20
361.0661496755
 10
248.2021129402
 20
360.9966337263
 10
244.5526930757
 20
360.9396809531
 10
240.8915099718
 20
360.8953369743
 10
237.2214961839
 20
360.8636373086
 10
233.5455913408
 20
360.8446073471
 10
229.86673979
 20
360.8382623325
  0
LWPOLYLINE
  5
B9
330
1F
100
AcDbEntity
  8
0
  6
Continuous
 62
     7
370
    25
100
AcDbPolyline
 90
       20
 70
   128
 43
0.0
 10
229.86673979
 20
-66.4738982718
 10
233.5455913408
 20
-66.4802432864
 10
237.2214961839
 20
-66.4992732479
 10
240.8915099718
 20
-66.5309729136
 10
244.5526930757
 20
-66.5753168925
 10
248.2021129402
 20
-66.6322696657
 10
251.8368464318
 20
-66.7017856148
 10
255.4539821808
 20
-66.7838090586
 10
259.0506229128
 20
-66.8782742974
 10
262.62388777
 20
-66.985105666
 10
266.170914618
 20
-67.1042175939
 10
269.6888623388
 20
-67.2355146742
 10
273.1749131064
 20
-67.3788917398
 10
276.6262746438
 20
-67.5342339477
 10
280.0401824594
 20
-67.7014168709
 10
283.4139020617
 20
-67.8803065984
 10
286.7447311494
 20
-68.0707598421
 10
290.0300017757
 20
-68.2726240515
 10
293.2670824857
 20
-68.4857375364
 10
293.8580409757
 20
-68.526216908
  0
LWPOLYLINE
  5
BA
330
1F
100
AcDbEntity
  8
0
  6
Continuous
 62
     7
370
    25
100
AcDbPolyline
 90
       20
 70
   128
 43
0.0
 10
165.8754386042
 20
-68.526216908
 10
166.4663970942
 20
-68.4857375364
 10
169.7034778042
 20
-68.2726240515
 10
172.9887484306
 20
-68.0707598421
 10
176.3195775182
 20
-67.8803065984
 10
179.6932971206
 20
-67.7014168709
 10
183.1072049362
 20
-67.5342339477
 10
186.5585664735
 20
-67.3788917398
 10
190.0446172411
 20
-67.2355146742
 10
193.5625649619
 20
-67.1042175939
 10
197.1095918099
 20
-66.985105666
 10
200.6828566671
 20
-66.8782742974
 10
204.2794973992
 20
-66.7838090586
 10
207.8966331481
 20
-66.7017856148
 10
211.5313666397
 20
-66.6322696657
 10
215.1807865042
 20
-66.5753168925
 10
218.8419696082
 20
-66.5309729136
 10
222.5119833961
 20
-66.4992732479
 10
226.1878882392
 20
-66.4802432864
 10
229.86673979
 20
-66.4738982718
  0
LWPOLYLINE
  5
BB
330
1F
100
AcDbEntity
  8
0
  6
Continuous
 62
     7
370
    25
100
AcDbPolyline
 90
       20
 70
   128
 43
0.0
 10
16.2106594878
 20
147.1821820303
 10
16.2043144732
 20
143.5033304795
 10
16.1852845117
 20
139.8274256364
 10
16.153584846
 20
136.1574118485
 10
16.1092408672
 20
132.4962287446
 10
16.052288094
 20
128.8468088801
 10
15.9827721448
 20
125.2120753885
 10
15.900748701
 20
121.5949396395
 10
15.8062834622
 20
117.9982989075
 10
15.6994520936
 20
114.4250340503
 10
15.5803401657
 20
110.8780072023
 10
15.4490430854
 20
107.3600594815
 10
15.3056660198
 20
103.8740087139
 10
15.150323812
 20
100.4226471765
 10
14.9831408887
 20
97.0087393609
 10
14.8042511612
 20
93.6350197586
 10
14.6137979175
 20
90.3041906709
 10
14.4119337081
 20
87.0189200446
 10
14.1988202232
 20
83.7818393346
 10
14.1583408516
 20
83.1908808446
  0
LWPOLYLINE
  5
BC
330
1F
100
AcDbEntity
  8
0
  6
Continuous
 62
     7
370
    25
100
AcDbPolyline
 90
       20
 70
   128
 43
0.0
 10
14.1583408516
 20
211.1734832161
 10
14.1988202232
 20
210.5825247261
 10
14.4119337081
 20
207.3454440161
 10
14.6137979175
 20
204.0601733897
 10
14.8042511612
 20
200.7293443021
 10
14.9831408887
 20
197.3556246997
 10
15.150323812
 20
193.9417168841
 10
15.3056660198
 20
190.4903553468
 10
15.4490430854
 20
187.0043045792
 10
15.5803401657
 20
183.4863568584
 10
15.6994520936
 20
179.9393300104
 10
15.8062834622
 20
176.3660651532
 10
15.900748701
 20
172.7694244211
 10
15.9827721448
 20
169.1522886722
 10
16.052288094
 20
165.5175551806
 10
16.1092408672
 20
161.8681353161
 10
16.153584846
 20
158.2069522122
 10
16.1852845117
 20
154.5369384242
 10
16.2043144732
 20
150.8610335811
 10
16.2106594878
 20
147.1821820303
  0
LWPOLYLINE
  5
BD
330
1F
100
AcDbEntity
  8
0
  6
Continuous
 62
     8
370
    25
100
AcDbPolyline
 90
       17
 70
   128
 43
0.0
 10
446.500458547
 20
147.1821820303
 10
446.5068035616
 20
143.5033304795
 10
446.5258335231
 20
139.8274256364
 10
446.5575331888
 20
136.1574118485
 10
446.6018771677
 20
132.4962287446
 10
446.6588299409
 20
128.8468088801
 10
446.72834589
 20
125.2120753885
 10
446.8103693338
 20
121.5949396395
 10
446.9048345727
 20
117.9982989075
 10
447.0116659413
 20
114.4250340503
 10
447.1307778692
 20
110.8780072023
 10
447.2620749495
 20
107.3600594815
 10
447.405452015
 20
103.8740087139
 10
447.5607942229
 20
100.4226471765
 10
447.7279771462
 20
97.0087393609
 10
447.9068668737
 20
93.6350197586
 10
447.997935427
 20
92.0117054151
  0
LWPOLYLINE
  5
BE
330
1F
100
AcDbEntity
  8
0
  6
Continuous
 62
     8
370
    25
100
AcDbPolyline
 90
       17
 70
   128
 43
0.0
 10
447.997935427
 20
202.3526586456
 10
447.9068668737
 20
200.7293443021
 10
447.7279771462
 20
197.3556246997
 10
447.5607942229
 20
193.9417168841
 10
447.405452015
 20
190.4903553468
 10
447.2620749495
 20
187.0043045792
 10
447.1307778692
 20
183.4863568584
 10
447.0116659413
 20
179.9393300104
 10
446.9048345727
 20
176.3660651532
 10
446.8103693338
 20
172.7694244211
 10
446.72834589
 20
169.1522886722
 10
446.6588299409
 20
165.5175551806
 10
446.6018771677
 20
161.8681353161
 10
446.5575331888
 20
158.2069522122
 10
446.5258335231
 20
154.5369384242
 10
446.5068035616
 20
150.8610335811
 10
446.500458547
 20
147.1821820303
  0
LWPOLYLINE
  5
BF
330
1F
100
AcDbEntity
  8
0
  6
Continuous
 62
     8
370
    25
100
AcDbPolyline
 90
       10
 70
   128
 43
0.0
 10
452.4557354569
 20
147.1821820303
 10
452.4620804715
 20
150.8610335811
 10
452.481110433
 20
154.5369384242
 10
452.5128100987
 20
158.2069522122
 10
452.5571540775
 20
161.8681353161
 10
452.6141068507
 20
165.5175551806
 10
452.6836227999
 20
169.1522886722
 10
452.7656462437
 20
172.7694244211
 10
452.8601114825
 20
176.3660651532
 10
452.878836651
 20
177.0251821083
  0
LWPOLYLINE
  5
C0
330
1F
100
AcDbEntity
  8
0
  6
Continuous
 62
     8
370
    25
100
AcDbPolyline
 90
       10
 70
   128
 43
0.0
 10
452.878836651
 20
117.3391819523
 10
452.8601114825
 20
117.9982989075
 10
452.7656462437
 20
121.5949396395
 10
452.6836227999
 20
125.2120753885
 10
452.6141068507
 20
128.8468088801
 10
452.5571540775
 20
132.4962287446
 10
452.5128100987
 20
136.1574118485
 10
452.481110433
 20
139.8274256364
 10
452.4620804715
 20
143.5033304795
 10
452.4557354569
 20
147.1821820303
  0
LWPOLYLINE
  5
C1
330
1F
100
AcDbEntity
  8
0
  6
Continuous
 62
     8
370
    25
100
AcDbPolyline
 90
       17
 70
   128
 43
0.0
 10
229.86673979
 20
363.8159007874
 10
233.5455913408
 20
363.822245802
 10
237.2214961839
 20
363.8412757635
 10
240.8915099718
 20
363.8729754292
 10
244.5526930757
 20
363.9173194081
 10
248.2021129402
 20
363.9742721813
 10
251.8368464318
 20
364.0437881304
 10
255.4539821808
 20
364.1258115742
 10
259.0506229128
 20
364.220276813
 10
262.62388777
 20
364.3271081816
 10
266.170914618
 20
364.4462201095
 10
269.6888623388
 20
364.5775171898
 10
273.1749131064
 20
364.7208942554
 10
276.6262746438
 20
364.8762364633
 10
280.0401824594
 20
365.0434193865
 10
283.4139020617
 20
365.222309114
 10
285.0372164052
 20
365.3133776674
  0
LWPOLYLINE
  5
C2
330
1F
100
AcDbEntity
  8
0
  6
Continuous
 62
     8
370
    25
100
AcDbPolyline
 90
       17
 70
   128
 43
0.0
 10
174.6962631747
 20
365.3133776674
 10
176.3195775182
 20
365.222309114
 10
179.6932971206
 20
365.0434193865
 10
183.1072049362
 20
364.8762364633
 10
186.5585664735
 20
364.7208942554
 10
190.0446172411
 20
364.5775171898
 10
193.5625649619
 20
364.4462201095
 10
197.1095918099
 20
364.3271081816
 10
200.6828566671
 20
364.220276813
 10
204.2794973992
 20
364.1258115742
 10
207.8966331481
 20
364.0437881304
 10
211.5313666397
 20
363.9742721813
 10
215.1807865042
 20
363.9173194081
 10
218.8419696082
 20
363.8729754292
 10
222.5119833961
 20
363.8412757635
 10
226.1878882392
 20
363.822245802
 10
229.86673979
 20
363.8159007874
  0
LWPOLYLINE
  5
C3
330
1F
100
AcDbEntity
  8
0
  6
Continuous
 62
     8
370
    25
100
AcDbPolyline
 90
       10
 70
   128
 43
0.0
 10
229.86673979
 20
369.7711776973
 10
226.1878882392
 20
369.7775227119
 10
222.5119833961
 20
369.7965526734
 10
218.8419696081
 20
369.828252339
 10
215.1807865042
 20
369.8725963179
 10
211.5313666397
 20
369.9295490911
 10
207.8966331481
 20
369.9990650402
 10
204.2794973992
 20
370.081088484
 10
200.6828566671
 20
370.1755537229
 10
200.023739712
 20
370.1942788914
  0
LWPOLYLINE
  5
C4
330
1F
100
AcDbEntity
  8
0
  6
Continuous
 62
     8
370
    25
100
AcDbPolyline
 90
       10
 70
   128
 43
0.0
 10
259.709739868
 20
370.1942788914
 10
259.0506229128
 20
370.1755537229
 10
255.4539821808
 20
370.081088484
 10
251.8368464318
 20
369.9990650402
 10
248.2021129402
 20
369.9295490911
 10
244.5526930757
 20
369.8725963179
 10
240.8915099718
 20
369.828252339
 10
237.2214961839
 20
369.7965526734
 10
233.5455913408
 20
369.7775227119
 10
229.86673979
 20
369.7711776973
  0
LWPOLYLINE
  5
C5
330
1F
100
AcDbEntity
  8
0
  6
Continuous
 62
     8
370
    25
100
AcDbPolyline
 90
       17
 70
   128
 43
0.0
 10
13.2330210329
 20
147.1821820303
 10
13.2266760183
 20
150.8610335811
 10
13.2076460568
 20
154.5369384242
 10
13.1759463911
 20
158.2069522122
 10
13.1316024122
 20
161.8681353161
 10
13.074649639
 20
165.5175551806
 10
13.0051336899
 20
169.1522886722
 10
12.9231102461
 20
172.7694244211
 10
12.8286450073
 20
176.3660651532
 10
12.7218136387
 20
179.9393300104
 10
12.6027017108
 20
183.4863568584
 10
12.4714046305
 20
187.0043045792
 10
12.3280275649
 20
190.4903553468
 10
12.172685357
 20
193.9417168841
 10
12.0055024338
 20
197.3556246997
 10
11.8266127063
 20
200.7293443021
 10
11.7355441529
 20
202.3526586456
  0
LWPOLYLINE
  5
C6
330
1F
100
AcDbEntity
  8
0
  6
Continuous
 62
     8
370
    25
100
AcDbPolyline
 90
       17
 70
   128
 43
0.0
 10
11.7355441529
 20
92.0117054151
 10
11.8266127063
 20
93.6350197586
 10
12.0055024338
 20
97.0087393609
 10
12.172685357
 20
100.4226471766
 10
12.3280275649
 20
103.8740087139
 10
12.4714046305
 20
107.3600594815
 10
12.6027017108
 20
110.8780072023
 10
12.7218136387
 20
114.4250340503
 10
12.8286450073
 20
117.9982989075
 10
12.9231102461
 20
121.5949396395
 10
13.0051336899
 20
125.2120753885
 10
13.074649639
 20
128.8468088801
 10
13.1316024122
 20
132.4962287446
 10
13.1759463911
 20
136.1574118485
 10
13.2076460568
 20
139.8274256364
 10
13.2266760183
 20
143.5033304795
 10
13.2330210329
 20
147.1821820303
  0
LWPOLYLINE
  5
C7
330
1F
100
AcDbEntity
  8
0
  6
Continuous
 62
     8
370
    25
100
AcDbPolyline
 90
       10
 70
   128
 43
0.0
 10
7.277744123
 20
147.1821820303
 10
7.2713991084
 20
143.5033304795
 10
7.252369147
 20
139.8274256364
 10
7.2206694813
 20
136.1574118485
 10
7.1763255024
 20
132.4962287446
 10
7.1193727292
 20
128.8468088801
 10
7.0498567801
 20
125.2120753885
 10
6.9678333363
 20
121.5949396395
 10
6.8733680974
 20
117.9982989075
 10
6.854642929
 20
117.3391819523
  0
LWPOLYLINE
  5
C8
330
1F
100
AcDbEntity
  8
0
  6
Continuous
 62
     8
370
    25
100
AcDbPolyline
 90
       10
 70
   128
 43
0.0
 10
6.854642929
 20
177.0251821083
 10
6.8733680974
 20
176.3660651532
 10
6.9678333363
 20
172.7694244211
 10
7.0498567801
 20
169.1522886722
 10
7.1193727292
 20
165.5175551806
 10
7.1763255024
 20
161.8681353161
 10
7.2206694813
 20
158.2069522122
 10
7.252369147
 20
154.5369384242
 10
7.2713991085
 20
150.8610335811
 10
7.277744123
 20
147.1821820303
  0
LWPOLYLINE
  5
C9
330
1F
100
AcDbEntity
  8
0
  6
Continuous
 62
     8
370
    25
100
AcDbPolyline
 90
       17
 70
   128
 43
0.0
 10
229.86673979
 20
-69.4515367267
 10
226.1878882392
 20
-69.4578817413
 10
222.5119833961
 20
-69.4769117028
 10
218.8419696081
 20
-69.5086113685
 10
215.1807865042
 20
-69.5529553474
 10
211.5313666397
 20
-69.6099081206
 10
207.8966331481
 20
-69.6794240697
 10
204.2794973992
 20
-69.7614475135
 10
200.6828566671
 20
-69.8559127524
 10
197.1095918099
 20
-69.9627441209
 10
193.5625649619
 20
-70.0818560489
 10
190.0446172411
 20
-70.2131531292
 10
186.5585664735
 20
-70.3565301947
 10
183.1072049362
 20
-70.5118724026
 10
179.6932971206
 20
-70.6790553259
 10
176.3195775182
 20
-70.8579450534
 10
174.6962631747
 20
-70.9490136067
  0
LWPOLYLINE
  5
CA
330
1F
100
AcDbEntity
  8
0
  6
Continuous
 62
     8
370
    25
100
AcDbPolyline
 90
       17
 70
   128
 43
0.0
 10
285.0372164052
 20
-70.9490136067
 10
283.4139020617
 20
-70.8579450534
 10
280.0401824594
 20
-70.6790553259
 10
276.6262746438
 20
-70.5118724026
 10
273.1749131064
 20
-70.3565301947
 10
269.6888623388
 20
-70.2131531292
 10
266.170914618
 20
-70.0818560489
 10
262.62388777
 20
-69.9627441209
 10
259.0506229128
 20
-69.8559127524
 10
255.4539821808
 20
-69.7614475135
 10
251.8368464318
 20
-69.6794240697
 10
248.2021129402
 20
-69.6099081206
 10
244.5526930757
 20
-69.5529553474
 10
240.8915099718
 20
-69.5086113685
 10
237.2214961839
 20
-69.4769117028
 10
233.5455913408
 20
-69.4578817413
 10
229.86673979
 20
-69.4515367267
  0
LWPOLYLINE
  5
CB
330
1F
100
AcDbEntity
  8
0
  6
Continuous
 62
     8
370
    25
100
AcDbPolyline
 90
       10
 70
   128
 43
0.0
 10
229.86673979
 20
-75.4068136366
 10
233.5455913408
 20
-75.4131586512
 10
237.2214961839
 20
-75.4321886127
 10
240.8915099718
 20
-75.4638882784
 10
244.5526930757
 20
-75.5082322572
 10
248.2021129402
 20
-75.5651850304
 10
251.8368464318
 20
-75.6347009796
 10
255.4539821808
 20
-75.7167244234
 10
259.0506229128
 20
-75.8111896622
 10
259.709739868
 20
-75.8299148307
  0
LWPOLYLINE
  5
CC
330
1F
100
AcDbEntity
  8
0
  6
Continuous
 62
     8
370
    25
100
AcDbPolyline
 90
       10
 70
   128
 43
0.0
 10
200.023739712
 20
-75.8299148307
 10
200.6828566671
 20
-75.8111896622
 10
204.2794973992
 20
-75.7167244234
 10
207.8966331481
 20
-75.6347009796
 10
211.5313666397
 20
-75.5651850304
 10
215.1807865042
 20
-75.5082322572
 10
218.8419696082
 20
-75.4638882784
 10
222.5119833961
 20
-75.4321886127
 10
226.1878882392
 20
-75.4131586512
 10
229.86673979
 20
-75.4068136366
  0
LINE
  5
CD
330
1F
100
AcDbEntity
  8
0
  6
Continuous
 62
     8
370
    25
100
AcDbLine
 10
123.5985066401
 20
345.505308829
 30
0.0
 11
336.1349729399
 21
345.505308829
 31
0.0
  0
LINE
  5
CE
330
1F
100
AcDbEntity
  8
0
  6
Continuous
 62
     8
370
    25
100
AcDbLine
 10
31.5436129913
 20
40.9139488804
 30
0.0
 11
31.5436129913
 21
253.4504151803
 31
0.0
  0
LINE
  5
CF
330
1F
100
AcDbEntity
  8
0
  6
Continuous
 62
     8
370
    25
100
AcDbLine
 10
336.1349729399
 20
-51.1409447683
 30
0.0
 11
123.5985066401
 21
-51.1409447683
 31
0.0
  0
LINE
  5
D0
330
1F
100
AcDbEntity
  8
0
  6
Continuous
 62
     8
370
    25
100
AcDbLine
 10
428.1898665886
 20
253.4504151803
 30
0.0
 11
428.1898665886
 21
40.9139488804
 31
0.0
  0
INSERT
  5
DC
330
1F
100
AcDbEntity
  8
0
  6
Continuous
 62
     7
370
     0
100
AcDbBlockReference
  2
SW_CENTERMARKSYMBOL_0
 10
229.86673979
 20
147.1821820303
 30
0.0
  0
ENDSEC
  0
SECTION
  2
OBJECTS
  0
DICTIONARY
  5
C
330
0
100
AcDbDictionary
281
     1
  3
ACAD_GROUP
350
D
  3
ACAD_LAYOUT
350
1A
  3
ACAD_MLINESTYLE
350
17
  3
ACAD_PLOTSETTINGS
350
19
  3
ACAD_PLOTSTYLENAME
350
E
  3
ACAD_SCALELIST
350
47
  3
DWGPROPS
350
DD
  0
DICTIONARY
  5
D
102
{ACAD_REACTORS
330
C
102
}
330
C
100
AcDbDictionary
281
     1
  0
DICTIONARY
  5
1A
102
{ACAD_REACTORS
330
C
102
}
330
C
100
AcDbDictionary
281
     1
  3
Layout1
350
1E
  3
Layout2
350
26
  3
Model
350
22
  0
DICTIONARY
  5
17
102
{ACAD_REACTORS
330
C
102
}
330
C
100
AcDbDictionary
281
     1
  3
Standard
350
18
  0
DICTIONARY
  5
19
102
{ACAD_REACTORS
330
C
102
}
330
C
100
AcDbDictionary
281
     1
  0
ACDBDICTIONARYWDFLT
  5
E
102
{ACAD_REACTORS
330
C
102
}
330
C
100
AcDbDictionary
281
     1
  3
Normal
350
F
100
AcDbDictionaryWithDefault
340
F
  0
DICTIONARY
  5
47
102
{ACAD_REACTORS
330
C
102
}
330
C
100
AcDbDictionary
281
     1
  3
A0
350
48
  3
A1
350
49
  3
A2
350
4A
  3
A3
350
4B
  3
A4
350
4C
  3
A5
350
4D
  3
A6
350
4E
  3
A7
350
4F
  3
A8
350
50
  3
A9
350
51
  3
B0
350
52
  3
B1
350
53
  3
B2
350
54
  3
B3
350
55
  3
B4
350
56
  3
B5
350
57
  3
B6
350
58
  3
B7
350
59
  3
B8
350
5A
  3
B9
350
5B
  3
C0
350
5C
  3
C1
350
5D
  3
C2
350
5E
  3
C3
350
5F
  3
C4
350
60
  3
C5
350
61
  3
C6
350
62
  3
C7
350
63
  3
C8
350
64
  3
C9
350
65
  3
D0
350
66
  3
D1
350
67
  3
D2
350
68
  0
XRECORD
  5
DD
102
{ACAD_REACTORS
330
C
102
}
330
C
100
AcDbXrecord
280
     1
  1
DWGPROPS COOKIE
  2

  3

  4

  6

  7

  8
Swing
  9

300
=
301
=
302
=
303
=
304
=
305
=
306
=
307
=
308
=
309
=
 40
0.0
 41
2459662.543773588
 42
2459662.543773935
  1

 90
        0
  0
LAYOUT
  5
1E
102
{ACAD_REACTORS
330
1A
102
}
330
1A
100
AcDbPlotSettings
  1

  2
none_device
  4

  6

 40
0.0
 41
0.0
 42
0.0
 43
0.0
 44
0.0
 45
0.0
 46
0.0
 47
0.0
 48
0.0
 49
0.0
140
0.0
141
0.0
142
1.0
143
1.0
 70
   688
 72
     1
 73
     0
 74
     5
  7

 75
    16
147
1.0
148
0.0
149
0.0
100
AcDbLayout
  1
Layout1
 70
     1
 71
     1
 10
0.0
 20
0.0
 11
420.0
 21
297.0
 12
0.0
 22
0.0
 32
0.0
 14
1.0000000000E+20
 24
1.0000000000E+20
 34
1.0000000000E+20
 15
-1.0000000000E+20
 25
-1.0000000000E+20
 35
-1.0000000000E+20
146
0.0
 13
0.0
 23
0.0
 33
0.0
 16
1.0
 26
0.0
 36
0.0
 17
0.0
 27
1.0
 37
0.0
 76
     0
330
1B
  0
LAYOUT
  5
26
102
{ACAD_REACTORS
330
1A
102
}
330
1A
100
AcDbPlotSettings
  1

  2
none_device
  4

  6

 40
0.0
 41
0.0
 42
0.0
 43
0.0
 44
0.0
 45
0.0
 46
0.0
 47
0.0
 48
0.0
 49
0.0
140
0.0
141
0.0
142
1.0
143
1.0
 70
   688
 72
     1
 73
     0
 74
     5
  7

 75
    16
147
1.0
148
0.0
149
0.0
100
AcDbLayout
  1
Layout2
 70
     1
 71
     2
 10
0.0
 20
0.0
 11
0.0
 21
0.0
 12
0.0
 22
0.0
 32
0.0
 14
0.0
 24
0.0
 34
0.0
 15
0.0
 25
0.0
 35
0.0
146
0.0
 13
0.0
 23
0.0
 33
0.0
 16
1.0
 26
0.0
 36
0.0
 17
0.0
 27
1.0
 37
0.0
 76
     0
330
23
  0
LAYOUT
  5
22
102
{ACAD_REACTORS
330
1A
102
}
330
1A
100
AcDbPlotSettings
  1

  2
none_device
  4
Letter_(8.50_x_11.00_Inches)
  6

 40
6.35
 41
6.35
 42
6.35000508
 43
6.35000508
 44
215.9
 45
279.4
 46
0.0
 47
0.0
 48
0.0
 49
0.0
140
0.0
141
0.0
142
1.0
143
1.0
 70
  1712
 72
     1
 73
     0
 74
     0
  7

 75
     0
147
1.0
148
0.0
149
0.0
100
AcDbLayout
  1
Model
 70
     1
 71
     0
 10
0.0
 20
0.0
 11
431.8
 21
279.4
 12
0.0
 22
0.0
 32
0.0
 14
0.0
 24
0.0
 34
0.0
 15
431.8
 25
279.4
 35
0.0
146
0.0
 13
0.0
 23
0.0
 33
0.0
 16
1.0
 26
0.0
 36
0.0
 17
0.0
 27
1.0
 37
0.0
 76
     0
330
1F
331
29
  0
MLINESTYLE
  5
18
102
{ACAD_REACTORS
330
17
102
}
330
17
100
AcDbMlineStyle
  2
Standard
 70
     0
  3

 62
   256
 51
90.0
 52
90.0
 71
     2
 49
0.5
 62
   256
  6
BYLAYER
 49
-0.5
 62
   256
  6
BYLAYER
  0
ACDBPLACEHOLDER
  5
F
102
{ACAD_REACTORS
330
E
102
}
330
E
  0
SCALE
  5
48
102
{ACAD_REACTORS
330
47
102
}
330
47
100
AcDbScale
 70
     0
300
1:1
140
1.0
141
1.0
290
     1
  0
SCALE
  5
49
102
{ACAD_REACTORS
330
47
102
}
330
47
100
AcDbScale
 70
     0
300
1:2
140
1.0
141
2.0
290
     0
  0
SCALE
  5
4A
102
{ACAD_REACTORS
330
47
102
}
330
47
100
AcDbScale
 70
     0
300
1:4
140
1.0
141
4.0
290
     0
  0
SCALE
  5
4B
102
{ACAD_REACTORS
330
47
102
}
330
47
100
AcDbScale
 70
     0
300
1:5
140
1.0
141
5.0
290
     0
  0
SCALE
  5
4C
102
{ACAD_REACTORS
330
47
102
}
330
47
100
AcDbScale
 70
     0
300
1:8
140
1.0
141
8.0
290
     0
  0
SCALE
  5
4D
102
{ACAD_REACTORS
330
47
102
}
330
47
100
AcDbScale
 70
     0
300
1:10
140
1.0
141
10.0
290
     0
  0
SCALE
  5
4E
102
{ACAD_REACTORS
330
47
102
}
330
47
100
AcDbScale
 70
     0
300
1:16
140
1.0
141
16.0
290
     0
  0
SCALE
  5
4F
102
{ACAD_REACTORS
330
47
102
}
330
47
100
AcDbScale
 70
     0
300
1:20
140
1.0
141
20.0
290
     0
  0
SCALE
  5
50
102
{ACAD_REACTORS
330
47
102
}
330
47
100
AcDbScale
 70
     0
300
1:30
140
1.0
141
30.0
290
     0
  0
SCALE
  5
51
102
{ACAD_REACTORS
330
47
102
}
330
47
100
AcDbScale
 70
     0
300
1:40
140
1.0
141
40.0
290
     0
  0
SCALE
  5
52
102
{ACAD_REACTORS
330
47
102
}
330
47
100
AcDbScale
 70
     0
300
1:50
140
1.0
141
50.0
290
     0
  0
SCALE
  5
53
102
{ACAD_REACTORS
330
47
102
}
330
47
100
AcDbScale
 70
     0
300
1:100
140
1.0
141
100.0
290
     0
  0
SCALE
  5
54
102
{ACAD_REACTORS
330
47
102
}
330
47
100
AcDbScale
 70
     0
300
2:1
140
2.0
141
1.0
290
     0
  0
SCALE
  5
55
102
{ACAD_REACTORS
330
47
102
}
330
47
100
AcDbScale
 70
     0
300
4:1
140
4.0
141
1.0
290
     0
  0
SCALE
  5
56
102
{ACAD_REACTORS
330
47
102
}
330
47
100
AcDbScale
 70
     0
300
8:1
140
8.0
141
1.0
290
     0
  0
SCALE
  5
57
102
{ACAD_REACTORS
330
47
102
}
330
47
100
AcDbScale
 70
     0
300
10:1
140
10.0
141
1.0
290
     0
  0
SCALE
  5
58
102
{ACAD_REACTORS
330
47
102
}
330
47
100
AcDbScale
 70
     0
300
100:1
140
100.0
141
1.0
290
     0
  0
SCALE
  5
59
102
{ACAD_REACTORS
330
47
102
}
330
47
100
AcDbScale
 70
     0
300
1/128" = 1'-0"
140
0.0078125
141
12.0
290
     0
  0
SCALE
  5
5A
102
{ACAD_REACTORS
330
47
102
}
330
47
100
AcDbScale
 70
     0
300
1/64" = 1'-0"
140
0.015625
141
12.0
290
     0
  0
SCALE
  5
5B
102
{ACAD_REACTORS
330
47
102
}
330
47
100
AcDbScale
 70
     0
300
1/32" = 1'-0"
140
0.03125
141
12.0
290
     0
  0
SCALE
  5
5C
102
{ACAD_REACTORS
330
47
102
}
330
47
100
AcDbScale
 70
     0
300
1/16" = 1'-0"
140
0.0625
141
12.0
290
     0
  0
SCALE
  5
5D
102
{ACAD_REACTORS
330
47
102
}
330
47
100
AcDbScale
 70
     0
300
3/32" = 1'-0"
140
0.09375
141
12.0
290
     0
  0
SCALE
  5
5E
102
{ACAD_REACTORS
330
47
102
}
330
47
100
AcDbScale
 70
     0
300
1/8" = 1'-0"
140
0.125
141
12.0
290
     0
  0
SCALE
  5
5F
102
{ACAD_REACTORS
330
47
102
}
330
47
100
AcDbScale
 70
     0
300
3/16" = 1'-0"
140
0.1875
141
12.0
290
     0
  0
SCALE
  5
60
102
{ACAD_REACTORS
330
47
102
}
330
47
100
AcDbScale
 70
     0
300
1/4" = 1'-0"
140
0.25
141
12.0
290
     0
  0
SCALE
  5
61
102
{ACAD_REACTORS
330
47
102
}
330
47
100
AcDbScale
 70
     0
300
3/8" = 1'-0"
140
0.375
141
12.0
290
     0
  0
SCALE
  5
62
102
{ACAD_REACTORS
330
47
102
}
330
47
100
AcDbScale
 70
     0
300
1/2" = 1'-0"
140
0.5
141
12.0
290
     0
  0
SCALE
  5
63
102
{ACAD_REACTORS
330
47
102
}
330
47
100
AcDbScale
 70
     0
300
3/4" = 1'-0"
140
0.75
141
12.0
290
     0
  0
SCALE
  5
64
102
{ACAD_REACTORS
330
47
102
}
330
47
100
AcDbScale
 70
     0
300
1" = 1'-0"
140
1.0
141
12.0
290
     0
  0
SCALE
  5
65
102
{ACAD_REACTORS
330
47
102
}
330
47
100
AcDbScale
 70
     0
300
1-1/2" = 1'-0"
140
1.5
141
12.0
290
     0
  0
SCALE
  5
66
102
{ACAD_REACTORS
330
47
102
}
330
47
100
AcDbScale
 70
     0
300
3" = 1'-0"
140
3.0
141
12.0
290
     0
  0
SCALE
  5
67
102
{ACAD_REACTORS
330
47
102
}
330
47
100
AcDbScale
 70
     0
300
6" = 1'-0"
140
6.0
141
12.0
290
     0
  0
SCALE
  5
68
102
{ACAD_REACTORS
330
47
102
}
330
47
100
AcDbScale
 70
     0
300
1'-0" = 1'-0"
140
12.0
141
12.0
290
     0
  0
ENDSEC
  0
EOF
