  0
SECTION
  2
HEADER
  9
$ACADVER
  1
AC1015
  9
$ACADMAINTVER
 70
     6
  9
$DWGCODEPAGE
  3
ANSI_1250
  9
$INSBASE
 10
0.0
 20
0.0
 30
0.0
  9
$EXTMIN
 10
0.0
 20
0.0
 30
0.0
  9
$EXTMAX
 10
431.8
 20
279.4
 30
0.0
  9
$LIMMIN
 10
0.0
 20
0.0
  9
$LIMMAX
 10
431.8
 20
279.4
  9
$ORTHOMODE
 70
     0
  9
$REGENMODE
 70
     1
  9
$FILLMODE
 70
     1
  9
$QTEXTMODE
 70
     0
  9
$MIRRTEXT
 70
     1
  9
$LTSCALE
 40
1.0
  9
$ATTMODE
 70
     1
  9
$TEXTSIZE
 40
3.8805555556
  9
$TRACEWID
 40
1.0
  9
$TEXTSTYLE
  7
Standard
  9
$CLAYER
  8
0
  9
$CELTYPE
  6
ByLayer
  9
$CECOLOR
 62
   256
  9
$CELTSCALE
 40
1.0
  9
$DISPSILH
 70
     0
  9
$DIMSCALE
 40
1.0
  9
$DIMASZ
 40
3.302
  9
$DIMEXO
 40
1.0
  9
$DIMDLI
 40
3.75
  9
$DIMRND
 40
0.0
  9
$DIMDLE
 40
0.0
  9
$DIMEXE
 40
1.0
  9
$DIMTP
 40
0.0
  9
$DIMTM
 40
0.0
  9
$DIMTXT
 40
3.8805555556
  9
$DIMCEN
 40
2.5
  9
$DIMTSZ
 40
0.0
  9
$DIMTOL
 70
     0
  9
$DIMLIM
 70
     0
  9
$DIMTIH
 70
     1
  9
$DIMTOH
 70
     1
  9
$DIMSE1
 70
     0
  9
$DIMSE2
 70
     0
  9
$DIMTAD
 70
     1
  9
$DIMZIN
 70
     0
  9
$DIMBLK
  1

  9
$DIMASO
 70
     1
  9
$DIMSHO
 70
     1
  9
$DIMPOST
  1

  9
$DIMAPOST
  1

  9
$DIMALT
 70
     0
  9
$DIMALTD
 70
     3
  9
$DIMALTF
 40
0.0393700787
  9
$DIMLFAC
 40
1.0
  9
$DIMTOFL
 70
     1
  9
$DIMTVP
 40
0.0
  9
$DIMTIX
 70
     0
  9
$DIMSOXD
 70
     0
  9
$DIMSAH
 70
     0
  9
$DIMBLK1
  1

  9
$DIMBLK2
  1

  9
$DIMSTYLE
  2
ISO-25
  9
$DIMCLRD
 70
     0
  9
$DIMCLRE
 70
     0
  9
$DIMCLRT
 70
     0
  9
$DIMTFAC
 40
1.0
  9
$DIMGAP
 40
1.524
  9
$DIMJUST
 70
     0
  9
$DIMSD1
 70
     0
  9
$DIMSD2
 70
     0
  9
$DIMTOLJ
 70
     0
  9
$DIMTZIN
 70
     0
  9
$DIMALTZ
 70
     0
  9
$DIMALTTZ
 70
     0
  9
$DIMUPT
 70
     0
  9
$DIMDEC
 70
     1
  9
$DIMTDEC
 70
     1
  9
$DIMALTU
 70
     2
  9
$DIMALTTD
 70
     3
  9
$DIMTXSTY
  7
Standard
  9
$DIMAUNIT
 70
     0
  9
$DIMADEC
 70
     1
  9
$DIMALTRND
 40
0.0
  9
$DIMAZIN
 70
     0
  9
$DIMDSEP
 70
    44
  9
$DIMATFIT
 70
     3
  9
$DIMFRAC
 70
     0
  9
$DIMLDRBLK
  1

  9
$DIMLUNIT
 70
     2
  9
$DIMLWD
 70
    -2
  9
$DIMLWE
 70
    -2
  9
$DIMTMOVE
 70
     0
  9
$LUNITS
 70
     2
  9
$LUPREC
 70
     1
  9
$SKETCHINC
 40
1.0
  9
$FILLETRAD
 40
10.0
  9
$AUNITS
 70
     0
  9
$AUPREC
 70
     1
  9
$MENU
  1
.
  9
$ELEVATION
 40
0.0
  9
$PELEVATION
 40
0.0
  9
$THICKNESS
 40
0.0
  9
$LIMCHECK
 70
     0
  9
$CHAMFERA
 40
0.0
  9
$CHAMFERB
 40
0.0
  9
$CHAMFERC
 40
0.0
  9
$CHAMFERD
 40
0.0
  9
$SKPOLY
 70
     0
  9
$TDCREATE
 40
2459564.629116956
  9
$TDUCREATE
 40
2459564.587450289
  9
$TDUPDATE
 40
2459564.629117303
  9
$TDUUPDATE
 40
2459564.587450637
  9
$TDINDWG
 40
0.0000000116
  9
$TDUSRTIMER
 40
0.0000000116
  9
$USRTIMER
 70
     1
  9
$ANGBASE
 50
0.0
  9
$ANGDIR
 70
     0
  9
$PDMODE
 70
     0
  9
$PDSIZE
 40
-1.0
  9
$PLINEWID
 40
0.0
  9
$SPLFRAME
 70
     0
  9
$SPLINETYPE
 70
     6
  9
$SPLINESEGS
 70
     8
  9
$HANDSEED
  5
51C
  9
$SURFTAB1
 70
     6
  9
$SURFTAB2
 70
     6
  9
$SURFTYPE
 70
     6
  9
$SURFU
 70
     6
  9
$SURFV
 70
     6
  9
$UCSBASE
  2

  9
$UCSNAME
  2

  9
$UCSORG
 10
0.0
 20
0.0
 30
0.0
  9
$UCSXDIR
 10
1.0
 20
0.0
 30
0.0
  9
$UCSYDIR
 10
0.0
 20
1.0
 30
0.0
  9
$UCSORTHOREF
  2

  9
$UCSORTHOVIEW
 70
     0
  9
$UCSORGTOP
 10
0.0
 20
0.0
 30
0.0
  9
$UCSORGBOTTOM
 10
0.0
 20
0.0
 30
0.0
  9
$UCSORGLEFT
 10
0.0
 20
0.0
 30
0.0
  9
$UCSORGRIGHT
 10
0.0
 20
0.0
 30
0.0
  9
$UCSORGFRONT
 10
0.0
 20
0.0
 30
0.0
  9
$UCSORGBACK
 10
0.0
 20
0.0
 30
0.0
  9
$PUCSBASE
  2

  9
$PUCSNAME
  2

  9
$PUCSORG
 10
0.0
 20
0.0
 30
0.0
  9
$PUCSXDIR
 10
1.0
 20
0.0
 30
0.0
  9
$PUCSYDIR
 10
0.0
 20
1.0
 30
0.0
  9
$PUCSORTHOREF
  2

  9
$PUCSORTHOVIEW
 70
     0
  9
$PUCSORGTOP
 10
0.0
 20
0.0
 30
0.0
  9
$PUCSORGBOTTOM
 10
0.0
 20
0.0
 30
0.0
  9
$PUCSORGLEFT
 10
0.0
 20
0.0
 30
0.0
  9
$PUCSORGRIGHT
 10
0.0
 20
0.0
 30
0.0
  9
$PUCSORGFRONT
 10
0.0
 20
0.0
 30
0.0
  9
$PUCSORGBACK
 10
0.0
 20
0.0
 30
0.0
  9
$USERI1
 70
     0
  9
$USERI2
 70
     0
  9
$USERI3
 70
     0
  9
$USERI4
 70
     0
  9
$USERI5
 70
     0
  9
$USERR1
 40
0.0
  9
$USERR2
 40
0.0
  9
$USERR3
 40
0.0
  9
$USERR4
 40
0.0
  9
$USERR5
 40
0.0
  9
$WORLDVIEW
 70
     1
  9
$SHADEDGE
 70
     3
  9
$SHADEDIF
 70
    70
  9
$TILEMODE
 70
     1
  9
$MAXACTVP
 70
    64
  9
$PINSBASE
 10
0.0
 20
0.0
 30
0.0
  9
$PLIMCHECK
 70
     0
  9
$PEXTMIN
 10
1.0000000000E+20
 20
1.0000000000E+20
 30
1.0000000000E+20
  9
$PEXTMAX
 10
-1.0000000000E+20
 20
-1.0000000000E+20
 30
-1.0000000000E+20
  9
$PLIMMIN
 10
0.0
 20
0.0
  9
$PLIMMAX
 10
420.0
 20
297.0
  9
$UNITMODE
 70
     0
  9
$VISRETAIN
 70
     1
  9
$PLINEGEN
 70
     0
  9
$PSLTSCALE
 70
     1
  9
$TREEDEPTH
 70
  3020
  9
$CMLSTYLE
  2
Standard
  9
$CMLJUST
 70
     0
  9
$CMLSCALE
 40
20.0
  9
$PROXYGRAPHICS
 70
     1
  9
$MEASUREMENT
 70
     1
  9
$CELWEIGHT
370
    -1
  9
$ENDCAPS
280
     0
  9
$JOINSTYLE
280
     0
  9
$LWDISPLAY
290
     1
  9
$INSUNITS
 70
     4
  9
$HYPERLINKBASE
  1

  9
$STYLESHEET
  1

  9
$XEDIT
290
     1
  9
$CEPSNTYPE
380
     0
  9
$PSTYLEMODE
290
     1
  9
$FINGERPRINTGUID
  2
{4b7b0f01-2162-4e95-a184-55dc77c722c5}
  9
$VERSIONGUID
  2
{FAEB1C32-E019-11D5-929B-00C0DF256EC4}
  9
$EXTNAMES
290
     1
  9
$PSVPSCALE
 40
0.0
  9
$OLESTARTUP
290
     0
  0
ENDSEC
  0
SECTION
  2
CLASSES
  0
CLASS
  1
ACDBDICTIONARYWDFLT
  2
AcDbDictionaryWithDefault
  3
ObjectDBX Classes
 90
        0
280
     0
281
     0
  0
CLASS
  1
VISUALSTYLE
  2
AcDbVisualStyle
  3
ObjectDBX Classes
 90
     4095
280
     0
281
     0
  0
CLASS
  1
MATERIAL
  2
AcDbMaterial
  3
ObjectDBX Classes
 90
     1153
280
     0
281
     0
  0
CLASS
  1
SCALE
  2
AcDbScale
  3
ObjectDBX Classes
 90
     1153
280
     0
281
     0
  0
CLASS
  1
TABLESTYLE
  2
AcDbTableStyle
  3
ObjectDBX Classes
 90
     4095
280
     0
281
     0
  0
CLASS
  1
MLEADERSTYLE
  2
AcDbMLeaderStyle
  3
ACDB_MLEADERSTYLE_CLASS
 90
     4095
280
     0
281
     0
  0
CLASS
  1
SUN
  2
AcDbSun
  3
SCENEOE
 90
     1153
280
     0
281
     0
  0
CLASS
  1
ACDBPLACEHOLDER
  2
AcDbPlaceHolder
  3
ObjectDBX Classes
 90
        0
280
     0
281
     0
  0
CLASS
  1
LAYOUT
  2
AcDbLayout
  3
ObjectDBX Classes
 90
        0
280
     0
281
     0
  0
ENDSEC
  0
SECTION
  2
TABLES
  0
TABLE
  2
VPORT
  5
8
330
0
100
AcDbSymbolTable
 70
     1
  0
VPORT
  5
29
330
8
100
AcDbSymbolTableRecord
100
AcDbViewportTableRecord
  2
*Active
 70
     0
 10
0.0
 20
0.0
 11
1.0
 21
1.0
 12
215.9
 22
139.7
 13
0.0
 23
0.0
 14
10.0
 24
10.0
 15
10.0
 25
10.0
 16
0.0
 26
0.0
 36
1.0
 17
0.0
 27
0.0
 37
0.0
 40
279.4
 41
1.5454545455
 42
50.0
 43
0.0
 44
0.0
 50
0.0
 51
0.0
 71
     0
 72
  2000
 73
     1
 74
     3
 75
     0
 76
     0
 77
     0
 78
     0
281
     0
 65
     1
110
0.0
120
0.0
130
0.0
111
1.0
121
0.0
131
0.0
112
0.0
122
1.0
132
0.0
 79
     0
146
0.0
  0
ENDTAB
  0
TABLE
  2
LTYPE
  5
5
330
0
100
AcDbSymbolTable
 70
     6
  0
LTYPE
  5
14
330
5
100
AcDbSymbolTableRecord
100
AcDbLinetypeTableRecord
  2
ByBlock
 70
     0
  3

 72
    65
 73
     0
 40
0.0
  0
LTYPE
  5
15
330
5
100
AcDbSymbolTableRecord
100
AcDbLinetypeTableRecord
  2
ByLayer
 70
     0
  3

 72
    65
 73
     0
 40
0.0
  0
LTYPE
  5
16
330
5
100
AcDbSymbolTableRecord
100
AcDbLinetypeTableRecord
  2
Continuous
 70
     0
  3
Solid line
 72
    65
 73
     0
 40
0.0
  0
LTYPE
  5
6E
330
5
100
AcDbSymbolTableRecord
100
AcDbLinetypeTableRecord
  2
HIDDEN
 70
     0
  3
Hidden __ __ __ __ __ __ __ __ __ __ __ __ __ __
 72
    65
 73
     2
 40
1.905
 49
1.27
 74
     0
 49
-0.635
 74
     0
  0
LTYPE
  5
6F
330
5
100
AcDbSymbolTableRecord
100
AcDbLinetypeTableRecord
  2
PHANTOM
 70
     0
  3
Phantom ______  __  __  ______  __  __  ______
 72
    65
 73
     6
 40
12.7
 49
6.35
 74
     0
 49
-1.27
 74
     0
 49
1.27
 74
     0
 49
-1.27
 74
     0
 49
1.27
 74
     0
 49
-1.27
 74
     0
  0
LTYPE
  5
70
330
5
100
AcDbSymbolTableRecord
100
AcDbLinetypeTableRecord
  2
CENTER
 70
     0
  3
Center ____ _ ____ _ ____ _ ____ _ ____ _ ____
 72
    65
 73
     4
 40
10.16
 49
6.35
 74
     0
 49
-1.27
 74
     0
 49
1.27
 74
     0
 49
-1.27
 74
     0
  0
LTYPE
  5
71
330
5
100
AcDbSymbolTableRecord
100
AcDbLinetypeTableRecord
  2
CENTERX2
 70
     0
  3
Center (2x) ________  __  ________  __  _____
 72
    65
 73
     4
 40
20.32
 49
12.7
 74
     0
 49
-2.54
 74
     0
 49
2.54
 74
     0
 49
-2.54
 74
     0
  0
LTYPE
  5
72
330
5
100
AcDbSymbolTableRecord
100
AcDbLinetypeTableRecord
  2
DOT2
 70
     0
  3
Dot (.5x) ........................................
 72
    65
 73
     2
 40
0.635
 49
0.0
 74
     0
 49
-0.635
 74
     0
  0
ENDTAB
  0
TABLE
  2
LAYER
  5
2
330
0
100
AcDbSymbolTable
 70
     3
  0
LAYER
  5
10
330
2
100
AcDbSymbolTableRecord
100
AcDbLayerTableRecord
  2
0
 70
     0
 62
     7
  6
Continuous
370
    -3
390
F
  0
LAYER
  5
73
330
2
100
AcDbSymbolTableRecord
100
AcDbLayerTableRecord
  2
FRAME_&_TABLE
 70
     0
 62
     8
  6
Continuous
370
    50
390
F
  0
LAYER
  5
74
330
2
100
AcDbSymbolTableRecord
100
AcDbLayerTableRecord
  2
DIMENSIONS
 70
     0
 62
     7
  6
Continuous
370
    -3
390
F
  0
ENDTAB
  0
TABLE
  2
STYLE
  5
3
330
0
100
AcDbSymbolTable
 70
     1
  0
STYLE
  5
11
330
3
100
AcDbSymbolTableRecord
100
AcDbTextStyleTableRecord
  2
Standard
 70
     0
 40
0.0
 41
1.0
 50
0.0
 71
     0
 42
3.8805555556
  3
txt
  4

  0
ENDTAB
  0
TABLE
  2
VIEW
  5
6
330
0
100
AcDbSymbolTable
 70
     0
  0
ENDTAB
  0
TABLE
  2
UCS
  5
7
330
0
100
AcDbSymbolTable
 70
     0
  0
ENDTAB
  0
TABLE
  2
APPID
  5
9
330
0
100
AcDbSymbolTable
 70
     1
  0
APPID
  5
12
330
9
100
AcDbSymbolTableRecord
100
AcDbRegAppTableRecord
  2
ACAD
 70
     0
  0
ENDTAB
  0
TABLE
  2
DIMSTYLE
  5
A
330
0
100
AcDbSymbolTable
 70
     1
100
AcDbDimStyleTable
  0
DIMSTYLE
105
27
330
A
100
AcDbSymbolTableRecord
100
AcDbDimStyleTableRecord
  2
ISO-25
 70
     0
 41
2.5
 42
0.625
 43
3.75
 44
1.25
 73
     0
 74
     0
 77
     1
 78
     8
140
2.5
141
2.5
143
0.0393700787
147
0.625
171
     3
172
     1
178
     0
271
     2
272
     2
274
     3
278
    44
283
     0
284
     8
340
11
  0
ENDTAB
  0
TABLE
  2
BLOCK_RECORD
  5
1
330
0
100
AcDbSymbolTable
 70
     1
  0
BLOCK_RECORD
  5
1F
330
1
100
AcDbSymbolTableRecord
100
AcDbBlockTableRecord
  2
*Model_Space
340
22
  0
BLOCK_RECORD
  5
1B
330
1
100
AcDbSymbolTableRecord
100
AcDbBlockTableRecord
  2
*Paper_Space
340
1E
  0
BLOCK_RECORD
  5
23
330
1
100
AcDbSymbolTableRecord
100
AcDbBlockTableRecord
  2
*Paper_Space0
340
26
  0
ENDTAB
  0
ENDSEC
  0
SECTION
  2
BLOCKS
  0
BLOCK
  5
20
330
1F
100
AcDbEntity
  8
0
100
AcDbBlockBegin
  2
*Model_Space
 70
     0
 10
0.0
 20
0.0
 30
0.0
  3
*Model_Space
  1

  0
ENDBLK
  5
21
330
1F
100
AcDbEntity
  8
0
100
AcDbBlockEnd
  0
BLOCK
  5
1C
330
1B
100
AcDbEntity
 67
     1
  8
0
100
AcDbBlockBegin
  2
*Paper_Space
 70
     0
 10
0.0
 20
0.0
 30
0.0
  3
*Paper_Space
  1

  0
ENDBLK
  5
1D
330
1B
100
AcDbEntity
 67
     1
  8
0
100
AcDbBlockEnd
  0
BLOCK
  5
24
330
23
100
AcDbEntity
  8
0
100
AcDbBlockBegin
  2
*Paper_Space0
 70
     0
 10
0.0
 20
0.0
 30
0.0
  3
*Paper_Space0
  1

  0
ENDBLK
  5
25
330
23
100
AcDbEntity
  8
0
100
AcDbBlockEnd
  0
ENDSEC
  0
SECTION
  2
ENTITIES
  0
ARC
  5
75
330
1F
100
AcDbEntity
  8
0
  6
Continuous
 62
     7
370
    25
100
AcDbCircle
 10
-1270.7038932305
 20
410.0681652275
 30
0.0
 40
3.0
100
AcDbArc
 50
90.0
 51
180.0
  0
ARC
  5
76
330
1F
100
AcDbEntity
  8
0
  6
Continuous
 62
     7
370
    25
100
AcDbCircle
 10
-1270.7038932305
 20
401.0681652275
 30
0.0
 40
3.0
100
AcDbArc
 50
180.0
 51
270.0
  0
LINE
  5
77
330
1F
100
AcDbEntity
  8
0
  6
Continuous
 62
     7
370
    25
100
AcDbLine
 10
-1273.7038932305
 20
410.0681652275
 30
0.0
 11
-1273.7038932305
 21
401.0681652275
 31
0.0
  0
LINE
  5
78
330
1F
100
AcDbEntity
  8
0
  6
Continuous
 62
     7
370
    25
100
AcDbLine
 10
-1237.6876775149
 20
398.0681652275
 30
0.0
 11
-1237.6876775149
 21
-91.9318347725
 31
0.0
  0
ARC
  5
79
330
1F
100
AcDbEntity
  8
0
  6
Continuous
 62
     7
370
    25
100
AcDbCircle
 10
998.333301371
 20
-118.9318347725
 30
0.0
 40
3.000000000000114
100
AcDbArc
 50
270.0
 51
0.0
  0
ARC
  5
7A
330
1F
100
AcDbEntity
  8
0
  6
Continuous
 62
     7
370
    25
100
AcDbCircle
 10
998.333301371
 20
-109.9318347725
 30
0.0
 40
3.000000000000114
100
AcDbArc
 50
0.0
 51
90.0
  0
LINE
  5
7B
330
1F
100
AcDbEntity
  8
0
  6
Continuous
 62
     7
370
    25
100
AcDbLine
 10
1001.333301371
 20
-118.9318347725
 30
0.0
 11
1001.333301371
 21
-109.9318347725
 31
0.0
  0
ARC
  5
7C
330
1F
100
AcDbEntity
  8
0
  6
Continuous
 62
     7
370
    25
100
AcDbCircle
 10
567.4341578756
 20
-118.9318347725
 30
0.0
 40
3.000000000000114
100
AcDbArc
 50
180.0
 51
270.0
  0
LINE
  5
7D
330
1F
100
AcDbEntity
  8
0
  6
Continuous
 62
     7
370
    25
100
AcDbLine
 10
564.4341578756
 20
-109.9318347725
 30
0.0
 11
564.4341578756
 21
-118.9318347725
 31
0.0
  0
ARC
  5
7E
330
1F
100
AcDbEntity
  8
0
  6
Continuous
 62
     7
370
    25
100
AcDbCircle
 10
567.4341578756
 20
-109.9318347725
 30
0.0
 40
3.000000000000114
100
AcDbArc
 50
90.0
 51
180.0
  0
ARC
  5
7F
330
1F
100
AcDbEntity
  8
0
  6
Continuous
 62
     7
370
    25
100
AcDbCircle
 10
-1160.0729170117
 20
-108.1818347725
 30
0.0
 40
1.250000000000028
100
AcDbArc
 50
306.8698976458
 51
90.0
  0
ARC
  5
80
330
1F
100
AcDbEntity
  8
0
  6
Continuous
 62
     7
370
    25
100
AcDbCircle
 10
-1179.8729170117
 20
-108.1818347725
 30
0.0
 40
1.250000000000136
100
AcDbArc
 50
90.0
 51
233.1301023541
  0
ARC
  5
81
330
1F
100
AcDbEntity
  8
0
  6
Continuous
 62
     7
370
    25
100
AcDbCircle
 10
-1169.9729170117
 20
-94.9818347725
 30
0.0
 40
17.75000000000009
100
AcDbArc
 50
233.1301023542
 51
306.8698976458
  0
LINE
  5
82
330
1F
100
AcDbEntity
  8
0
  6
Continuous
 62
     7
370
    25
100
AcDbLine
 10
-1147.917544575
 20
413.0681652275
 30
0.0
 11
-1147.8175340069
 21
413.0721724963
 31
0.0
  0
ARC
  5
83
330
1F
100
AcDbEntity
  8
0
  6
Continuous
 62
     7
370
    25
100
AcDbCircle
 10
-1157.817544575
 20
401.1181652275
 30
0.0
 40
17.74999999999996
100
AcDbArc
 50
55.6609813691
 51
110.0234588773
  0
ARC
  5
84
330
1F
100
AcDbEntity
  8
0
  6
Continuous
 62
     7
370
    25
100
AcDbCircle
 10
-1179.8729170117
 20
414.3181652275
 30
0.0
 40
1.250000000000136
100
AcDbArc
 50
126.8698976459
 51
270.0
  0
ARC
  5
85
330
1F
100
AcDbEntity
  8
0
  6
Continuous
 62
     7
370
    25
100
AcDbCircle
 10
-1160.0729170117
 20
414.3181652275
 30
0.0
 40
1.25
100
AcDbArc
 50
270.0
 51
53.1301023542
  0
ARC
  5
86
330
1F
100
AcDbEntity
  8
0
  6
Continuous
 62
     7
370
    25
100
AcDbCircle
 10
-1169.9729170117
 20
401.1181652275
 30
0.0
 40
17.75000000000005
100
AcDbArc
 50
53.1301023542
 51
126.8698976458
  0
LINE
  5
87
330
1F
100
AcDbEntity
  8
0
  6
Continuous
 62
     7
370
    25
100
AcDbLine
 10
-1147.8175340069
 20
-106.9358420412
 30
0.0
 11
-1147.917544575
 21
-106.9318347725
 31
0.0
  0
ARC
  5
88
330
1F
100
AcDbEntity
  8
0
  6
Continuous
 62
     7
370
    25
100
AcDbCircle
 10
-1157.817544575
 20
-94.9818347725
 30
0.0
 40
17.75000000000009
100
AcDbArc
 50
249.976541123
 51
304.3390186329
  0
ARC
  5
89
330
1F
100
AcDbEntity
  8
0
  6
Continuous
 62
     7
370
    25
100
AcDbCircle
 10
660.8161298259
 20
-90.6818347725
 30
0.0
 40
1.25
100
AcDbArc
 50
126.8698976458
 51
270.0
  0
ARC
  5
8A
330
1F
100
AcDbEntity
  8
0
  6
Continuous
 62
     7
370
    25
100
AcDbCircle
 10
680.6161298259
 20
-90.6818347725
 30
0.0
 40
1.25
100
AcDbArc
 50
270.0
 51
53.1301023542
  0
ARC
  5
8B
330
1F
100
AcDbEntity
  8
0
  6
Continuous
 62
     7
370
    25
100
AcDbCircle
 10
670.7161298259
 20
-103.8818347725
 30
0.0
 40
17.75000000000005
100
AcDbArc
 50
53.1301023542
 51
126.8698976458
  0
ARC
  5
8C
330
1F
100
AcDbEntity
  8
0
  6
Continuous
 62
     7
370
    25
100
AcDbCircle
 10
830.9934454445
 20
-90.6818347725
 30
0.0
 40
1.25
100
AcDbArc
 50
270.0
 51
53.1301023542
  0
ARC
  5
8D
330
1F
100
AcDbEntity
  8
0
  6
Continuous
 62
     7
370
    25
100
AcDbCircle
 10
821.0934454445
 20
-103.8818347725
 30
0.0
 40
17.75000000000005
100
AcDbArc
 50
53.1301023542
 51
126.8698976458
  0
ARC
  5
8E
330
1F
100
AcDbEntity
  8
0
  6
Continuous
 62
     7
370
    25
100
AcDbCircle
 10
838.9824067057
 20
-90.6818347725
 30
0.0
 40
1.25
100
AcDbArc
 50
270.0
 51
53.1301023542
  0
ARC
  5
8F
330
1F
100
AcDbEntity
  8
0
  6
Continuous
 62
     7
370
    25
100
AcDbCircle
 10
829.0824067057
 20
-103.8818347725
 30
0.0
 40
17.75000000000005
100
AcDbArc
 50
53.1301023542
 51
103.0058162862
  0
ARC
  5
90
330
1F
100
AcDbEntity
  8
0
  6
Continuous
 62
     7
370
    25
100
AcDbCircle
 10
838.9824067057
 20
396.8181652275
 30
0.0
 40
1.250000000000114
100
AcDbArc
 50
306.8698976458
 51
90.0
  0
ARC
  5
91
330
1F
100
AcDbEntity
  8
0
  6
Continuous
 62
     7
370
    25
100
AcDbCircle
 10
829.0824067057
 20
410.0181652275
 30
0.0
 40
17.75000000000005
100
AcDbArc
 50
256.9941837138
 51
306.8698976458
  0
LINE
  5
92
330
1F
100
AcDbEntity
  8
0
  6
Continuous
 62
     7
370
    25
100
AcDbLine
 10
834.0824067057
 20
413.0681652275
 30
0.0
 11
834.0824067057
 21
428.0681652275
 31
0.0
  0
ARC
  5
93
330
1F
100
AcDbEntity
  8
0
  6
Continuous
 62
     7
370
    25
100
AcDbCircle
 10
811.1931329571
 20
-90.6818347725
 30
0.0
 40
1.25
100
AcDbArc
 50
126.8698976458
 51
270.0
  0
LINE
  5
94
330
1F
100
AcDbEntity
  8
0
  6
Continuous
 62
     7
370
    25
100
AcDbLine
 10
830.9931329571
 20
-91.9318347725
 30
0.0
 11
831.0428332564
 21
-91.9308463338
 31
0.0
  0
ARC
  5
95
330
1F
100
AcDbEntity
  8
0
  6
Continuous
 62
     7
370
    25
100
AcDbCircle
 10
821.0931329571
 20
-103.8818347725
 30
0.0
 40
17.75000000000005
100
AcDbArc
 50
53.1301023542
 51
126.8698976458
  0
ARC
  5
96
330
1F
100
AcDbEntity
  8
0
  6
Continuous
 62
     7
370
    25
100
AcDbCircle
 10
599.3341578755
 20
396.8181652275
 30
0.0
 40
1.250000000000114
100
AcDbArc
 50
306.8698976459
 51
90.0
  0
ARC
  5
97
330
1F
100
AcDbEntity
  8
0
  6
Continuous
 62
     7
370
    25
100
AcDbCircle
 10
579.5341578755
 20
396.8181652275
 30
0.0
 40
1.250000000000114
100
AcDbArc
 50
90.0
 51
233.1301023541
  0
ARC
  5
98
330
1F
100
AcDbEntity
  8
0
  6
Continuous
 62
     7
370
    25
100
AcDbCircle
 10
589.4341578755
 20
410.0181652275
 30
0.0
 40
17.75000000000005
100
AcDbArc
 50
233.1301023542
 51
306.8698976458
  0
LINE
  5
99
330
1F
100
AcDbEntity
  8
0
  6
Continuous
 62
     7
370
    25
100
AcDbLine
 10
594.4341578755
 20
413.0681652275
 30
0.0
 11
594.4341578755
 21
428.0681652275
 31
0.0
  0
LINE
  5
9A
330
1F
100
AcDbEntity
  8
0
  6
Continuous
 62
     7
370
    25
100
AcDbLine
 10
584.4341578755
 20
428.0681652275
 30
0.0
 11
584.4341578755
 21
413.0681652275
 31
0.0
  0
ARC
  5
9B
330
1F
100
AcDbEntity
  8
0
  6
Continuous
 62
     7
370
    25
100
AcDbCircle
 10
680.6161298259
 20
396.8181652275
 30
0.0
 40
1.250000000000114
100
AcDbArc
 50
306.8698976458
 51
90.0
  0
ARC
  5
9C
330
1F
100
AcDbEntity
  8
0
  6
Continuous
 62
     7
370
    25
100
AcDbCircle
 10
660.8161298259
 20
396.8181652275
 30
0.0
 40
1.250000000000114
100
AcDbArc
 50
90.0
 51
233.1301023542
  0
ARC
  5
9D
330
1F
100
AcDbEntity
  8
0
  6
Continuous
 62
     7
370
    25
100
AcDbCircle
 10
670.7161298259
 20
410.0181652275
 30
0.0
 40
17.75000000000005
100
AcDbArc
 50
233.1301023542
 51
306.8698976458
  0
LINE
  5
9E
330
1F
100
AcDbEntity
  8
0
  6
Continuous
 62
     7
370
    25
100
AcDbLine
 10
675.7161298259
 20
413.0681652275
 30
0.0
 11
675.7161298259
 21
428.0681652275
 31
0.0
  0
LINE
  5
9F
330
1F
100
AcDbEntity
  8
0
  6
Continuous
 62
     7
370
    25
100
AcDbLine
 10
665.7161298259
 20
428.0681652275
 30
0.0
 11
665.7161298259
 21
413.0681652275
 31
0.0
  0
ARC
  5
A0
330
1F
100
AcDbEntity
  8
0
  6
Continuous
 62
     7
370
    25
100
AcDbCircle
 10
830.9931329571
 20
396.8181652275
 30
0.0
 40
1.250000000000114
100
AcDbArc
 50
306.8698976458
 51
90.0
  0
ARC
  5
A1
330
1F
100
AcDbEntity
  8
0
  6
Continuous
 62
     7
370
    25
100
AcDbCircle
 10
811.1931329571
 20
396.8181652275
 30
0.0
 40
1.250000000000114
100
AcDbArc
 50
90.0
 51
233.1301023542
  0
ARC
  5
A2
330
1F
100
AcDbEntity
  8
0
  6
Continuous
 62
     7
370
    25
100
AcDbCircle
 10
821.0931329571
 20
410.0181652275
 30
0.0
 40
17.75000000000005
100
AcDbArc
 50
233.1301023542
 51
306.8698976458
  0
LINE
  5
A3
330
1F
100
AcDbEntity
  8
0
  6
Continuous
 62
     7
370
    25
100
AcDbLine
 10
826.0931329571
 20
413.0681652275
 30
0.0
 11
826.0931329571
 21
428.0681652275
 31
0.0
  0
LINE
  5
A4
330
1F
100
AcDbEntity
  8
0
  6
Continuous
 62
     7
370
    25
100
AcDbLine
 10
816.0931329571
 20
428.0681652275
 30
0.0
 11
816.0931329571
 21
413.0681652275
 31
0.0
  0
ARC
  5
A5
330
1F
100
AcDbEntity
  8
0
  6
Continuous
 62
     7
370
    25
100
AcDbCircle
 10
579.5341578755
 20
-90.6818347725
 30
0.0
 40
1.250000000000068
100
AcDbArc
 50
126.8698976458
 51
270.0
  0
ARC
  5
A6
330
1F
100
AcDbEntity
  8
0
  6
Continuous
 62
     7
370
    25
100
AcDbCircle
 10
599.3341578755
 20
-90.6818347725
 30
0.0
 40
1.250000000000068
100
AcDbArc
 50
270.0
 51
53.1301023542
  0
ARC
  5
A7
330
1F
100
AcDbEntity
  8
0
  6
Continuous
 62
     7
370
    25
100
AcDbCircle
 10
589.4341578755
 20
-103.8818347725
 30
0.0
 40
17.75000000000005
100
AcDbArc
 50
53.1301023542
 51
126.8698976458
  0
LINE
  5
A8
330
1F
100
AcDbEntity
  8
0
  6
Continuous
 62
     7
370
    25
100
AcDbLine
 10
971.333301371
 20
428.0681652275
 30
0.0
 11
971.333301371
 21
413.0681652275
 31
0.0
  0
LINE
  5
A9
330
1F
100
AcDbEntity
  8
0
  6
Continuous
 62
     7
370
    25
100
AcDbLine
 10
981.333301371
 20
413.0681652275
 30
0.0
 11
981.333301371
 21
428.0681652275
 31
0.0
  0
LINE
  5
AA
330
1F
100
AcDbEntity
  8
0
  6
Continuous
 62
     7
370
    25
100
AcDbLine
 10
607.7361297935
 20
428.0681652275
 30
0.0
 11
607.7361297935
 21
413.0681652275
 31
0.0
  0
LINE
  5
AB
330
1F
100
AcDbEntity
  8
0
  6
Continuous
 62
     7
370
    25
100
AcDbLine
 10
617.7361297935
 20
413.0681652275
 30
0.0
 11
617.7361297935
 21
428.0681652275
 31
0.0
  0
ARC
  5
AC
330
1F
100
AcDbEntity
  8
0
  6
Continuous
 62
     7
370
    25
100
AcDbCircle
 10
-1270.7038932305
 20
-103.9318347725
 30
0.0
 40
3.0
100
AcDbArc
 50
180.0
 51
270.0
  0
LINE
  5
AD
330
1F
100
AcDbEntity
  8
0
  6
Continuous
 62
     7
370
    25
100
AcDbLine
 10
-1273.7038932305
 20
-94.9318347725
 30
0.0
 11
-1273.7038932305
 21
-103.9318347725
 31
0.0
  0
ARC
  5
AE
330
1F
100
AcDbEntity
  8
0
  6
Continuous
 62
     7
370
    25
100
AcDbCircle
 10
-1270.7038932305
 20
-94.9318347725
 30
0.0
 40
3.000000000000014
100
AcDbArc
 50
90.0
 51
180.0
  0
ARC
  5
AF
330
1F
100
AcDbEntity
  8
0
  6
Continuous
 62
     7
370
    25
100
AcDbCircle
 10
249.0112659083
 20
-108.9318347725
 30
0.0
 40
19.87230769230774
100
AcDbArc
 50
180.0
 51
226.9233678463
  0
ARC
  5
B0
330
1F
100
AcDbEntity
  8
0
  6
Continuous
 62
     7
370
    25
100
AcDbCircle
 10
249.2666505236
 20
-108.9318347725
 30
0.0
 40
19.87230769230774
100
AcDbArc
 50
313.0766321537
 51
0.0
  0
LINE
  5
B1
330
1F
100
AcDbEntity
  8
0
  6
Continuous
 62
     7
370
    25
100
AcDbLine
 10
229.1389582159
 20
-106.9318347725
 30
0.0
 11
229.1389582159
 21
-108.9318347725
 31
0.0
  0
LINE
  5
B2
330
1F
100
AcDbEntity
  8
0
  6
Continuous
 62
     7
370
    25
100
AcDbLine
 10
269.1389582159
 20
-108.9318347725
 30
0.0
 11
269.1389582159
 21
-106.9318347725
 31
0.0
  0
LINE
  5
B3
330
1F
100
AcDbEntity
  8
0
  6
Continuous
 62
     7
370
    25
100
AcDbLine
 10
632.7361297935
 20
428.0681652275
 30
0.0
 11
632.7361297935
 21
430.0681652275
 31
0.0
  0
ARC
  5
B4
330
1F
100
AcDbEntity
  8
0
  6
Continuous
 62
     7
370
    25
100
AcDbCircle
 10
612.8638221011
 20
430.0681652275
 30
0.0
 40
19.87230769230769
100
AcDbArc
 50
0.0
 51
46.9233678463
  0
LINE
  5
B5
330
1F
100
AcDbEntity
  8
0
  6
Continuous
 62
     7
370
    25
100
AcDbLine
 10
801.0931329571
 20
-121.9318347725
 30
0.0
 11
801.0931329571
 21
-123.9318347725
 31
0.0
  0
ARC
  5
B6
330
1F
100
AcDbEntity
  8
0
  6
Continuous
 62
     7
370
    25
100
AcDbCircle
 10
820.9654406494
 20
-123.9318347725
 30
0.0
 40
19.8723076923078
100
AcDbArc
 50
180.0
 51
226.9246012844
  0
ARC
  5
B7
330
1F
100
AcDbEntity
  8
0
  6
Continuous
 62
     7
370
    25
100
AcDbCircle
 10
821.2208252648
 20
-123.9318347725
 30
0.0
 40
19.87230769230771
100
AcDbArc
 50
313.0778656165
 51
0.0
  0
ARC
  5
B8
330
1F
100
AcDbEntity
  8
0
  6
Continuous
 62
     7
370
    25
100
AcDbCircle
 10
-477.9276926314
 20
415.0681652275
 30
0.0
 40
19.8723076923077
100
AcDbArc
 50
0.0
 51
46.9233678463
  0
ARC
  5
B9
330
1F
100
AcDbEntity
  8
0
  6
Continuous
 62
     7
370
    25
100
AcDbCircle
 10
-478.1830772468
 20
415.0681652275
 30
0.0
 40
19.8723076923077
100
AcDbArc
 50
133.0766321537
 51
180.0
  0
LINE
  5
BA
330
1F
100
AcDbEntity
  8
0
  6
Continuous
 62
     7
370
    25
100
AcDbLine
 10
-458.0553849391
 20
413.0681652275
 30
0.0
 11
-458.0553849391
 21
415.0681652275
 31
0.0
  0
LINE
  5
BB
330
1F
100
AcDbEntity
  8
0
  6
Continuous
 62
     7
370
    25
100
AcDbLine
 10
-498.0553849391
 20
415.0681652275
 30
0.0
 11
-498.0553849391
 21
413.0681652275
 31
0.0
  0
ARC
  5
BC
330
1F
100
AcDbEntity
  8
0
  6
Continuous
 62
     7
370
    25
100
AcDbCircle
 10
976.2056090633
 20
-123.9318347725
 30
0.0
 40
19.87230769230769
100
AcDbArc
 50
180.0
 51
226.9233678463
  0
ARC
  5
BD
330
1F
100
AcDbEntity
  8
0
  6
Continuous
 62
     7
370
    25
100
AcDbCircle
 10
976.4609936787
 20
-123.9318347725
 30
0.0
 40
19.87230769230769
100
AcDbArc
 50
313.0766321537
 51
0.0
  0
LINE
  5
BE
330
1F
100
AcDbEntity
  8
0
  6
Continuous
 62
     7
370
    25
100
AcDbLine
 10
956.333301371
 20
-121.9318347725
 30
0.0
 11
956.333301371
 21
-123.9318347725
 31
0.0
  0
LINE
  5
BF
330
1F
100
AcDbEntity
  8
0
  6
Continuous
 62
     7
370
    25
100
AcDbLine
 10
996.333301371
 20
-123.9318347725
 30
0.0
 11
996.333301371
 21
-121.9318347725
 31
0.0
  0
LINE
  5
C0
330
1F
100
AcDbEntity
  8
0
  6
Continuous
 62
     7
370
    25
100
AcDbLine
 10
996.333301371
 20
428.0681652275
 30
0.0
 11
996.333301371
 21
430.0681652275
 31
0.0
  0
LINE
  5
C1
330
1F
100
AcDbEntity
  8
0
  6
Continuous
 62
     7
370
    25
100
AcDbLine
 10
956.333301371
 20
430.0681652275
 30
0.0
 11
956.333301371
 21
428.0681652275
 31
0.0
  0
ARC
  5
C2
330
1F
100
AcDbEntity
  8
0
  6
Continuous
 62
     7
370
    25
100
AcDbCircle
 10
976.4609936787
 20
430.0681652275
 30
0.0
 40
19.87230769230769
100
AcDbArc
 50
0.0
 51
46.9233678463
  0
ARC
  5
C3
330
1F
100
AcDbEntity
  8
0
  6
Continuous
 62
     7
370
    25
100
AcDbCircle
 10
976.2056090633
 20
430.0681652275
 30
0.0
 40
19.87230769230769
100
AcDbArc
 50
133.0766321537
 51
180.0
  0
ARC
  5
C4
330
1F
100
AcDbEntity
  8
0
  6
Continuous
 62
     7
370
    25
100
AcDbCircle
 10
-1127.9452263146
 20
-108.9318347725
 30
0.0
 40
19.87230769230767
100
AcDbArc
 50
180.0
 51
226.9233678463
  0
ARC
  5
C5
330
1F
100
AcDbEntity
  8
0
  6
Continuous
 62
     7
370
    25
100
AcDbCircle
 10
-1127.6898416992
 20
-108.9318347725
 30
0.0
 40
19.87230769230767
100
AcDbArc
 50
313.0766321537
 51
0.0
  0
LINE
  5
C6
330
1F
100
AcDbEntity
  8
0
  6
Continuous
 62
     7
370
    25
100
AcDbLine
 10
-1147.8175340069
 20
-106.9318347725
 30
0.0
 11
-1147.8175340069
 21
-108.9318347725
 31
0.0
  0
LINE
  5
C7
330
1F
100
AcDbEntity
  8
0
  6
Continuous
 62
     7
370
    25
100
AcDbLine
 10
-1107.8175340069
 20
-108.9318347725
 30
0.0
 11
-1107.8175340069
 21
-106.9318347725
 31
0.0
  0
ARC
  5
C8
330
1F
100
AcDbEntity
  8
0
  6
Continuous
 62
     7
370
    25
100
AcDbCircle
 10
-1224.4489740964
 20
415.0681652275
 30
0.0
 40
19.87230769230766
100
AcDbArc
 50
0.0
 51
46.9233678463
  0
ARC
  5
C9
330
1F
100
AcDbEntity
  8
0
  6
Continuous
 62
     7
370
    25
100
AcDbCircle
 10
-1224.7043587118
 20
415.0681652275
 30
0.0
 40
19.87230769230781
100
AcDbArc
 50
133.0766321537
 51
180.0
  0
LINE
  5
CA
330
1F
100
AcDbEntity
  8
0
  6
Continuous
 62
     7
370
    25
100
AcDbLine
 10
-1204.5766664041
 20
413.0681652275
 30
0.0
 11
-1204.5766664041
 21
415.0681652275
 31
0.0
  0
LINE
  5
CB
330
1F
100
AcDbEntity
  8
0
  6
Continuous
 62
     7
370
    25
100
AcDbLine
 10
-1244.5766664041
 20
415.0681652275
 30
0.0
 11
-1244.5766664041
 21
413.0681652275
 31
0.0
  0
ARC
  5
CC
330
1F
100
AcDbEntity
  8
0
  6
Continuous
 62
     7
370
    25
100
AcDbCircle
 10
-478.1830772468
 20
-108.9318347725
 30
0.0
 40
19.87230769230771
100
AcDbArc
 50
180.0
 51
226.9233678463
  0
ARC
  5
CD
330
1F
100
AcDbEntity
  8
0
  6
Continuous
 62
     7
370
    25
100
AcDbCircle
 10
-477.9276926314
 20
-108.9318347725
 30
0.0
 40
19.87230769230771
100
AcDbArc
 50
313.0766321537
 51
0.0
  0
LINE
  5
CE
330
1F
100
AcDbEntity
  8
0
  6
Continuous
 62
     7
370
    25
100
AcDbLine
 10
-498.0553849391
 20
-106.9318347725
 30
0.0
 11
-498.0553849391
 21
-108.9318347725
 31
0.0
  0
LINE
  5
CF
330
1F
100
AcDbEntity
  8
0
  6
Continuous
 62
     7
370
    25
100
AcDbLine
 10
-458.0553849391
 20
-108.9318347725
 30
0.0
 11
-458.0553849391
 21
-106.9318347725
 31
0.0
  0
LINE
  5
D0
330
1F
100
AcDbEntity
  8
0
  6
Continuous
 62
     7
370
    25
100
AcDbLine
 10
841.0934454445
 20
-123.9318347725
 30
0.0
 11
841.0934454445
 21
-121.9318347725
 31
0.0
  0
ARC
  5
D1
330
1F
100
AcDbEntity
  8
0
  6
Continuous
 62
     7
370
    25
100
AcDbCircle
 10
820.9657531368
 20
-123.9318347725
 30
0.0
 40
19.87230769230769
100
AcDbArc
 50
180.0
 51
226.9233678463
  0
ARC
  5
D2
330
1F
100
AcDbEntity
  8
0
  6
Continuous
 62
     7
370
    25
100
AcDbCircle
 10
821.2211377522
 20
-123.9318347725
 30
0.0
 40
19.8723076923078
100
AcDbArc
 50
313.0766321537
 51
0.0
  0
ARC
  5
D3
330
1F
100
AcDbEntity
  8
0
  6
Continuous
 62
     7
370
    25
100
AcDbCircle
 10
249.2666505236
 20
415.0681652275
 30
0.0
 40
19.87230769230774
100
AcDbArc
 50
0.0
 51
46.9233678463
  0
ARC
  5
D4
330
1F
100
AcDbEntity
  8
0
  6
Continuous
 62
     7
370
    25
100
AcDbCircle
 10
249.0112659083
 20
415.0681652275
 30
0.0
 40
19.87230769230774
100
AcDbArc
 50
133.0766321537
 51
180.0
  0
LINE
  5
D5
330
1F
100
AcDbEntity
  8
0
  6
Continuous
 62
     7
370
    25
100
AcDbLine
 10
269.1389582159
 20
413.0681652275
 30
0.0
 11
269.1389582159
 21
415.0681652275
 31
0.0
  0
LINE
  5
D6
330
1F
100
AcDbEntity
  8
0
  6
Continuous
 62
     7
370
    25
100
AcDbLine
 10
229.1389582159
 20
415.0681652275
 30
0.0
 11
229.1389582159
 21
413.0681652275
 31
0.0
  0
ARC
  5
D7
330
1F
100
AcDbEntity
  8
0
  6
Continuous
 62
     7
370
    25
100
AcDbCircle
 10
-1224.7043587118
 20
-108.9318347725
 30
0.0
 40
19.87230769230781
100
AcDbArc
 50
180.0
 51
226.9233678463
  0
ARC
  5
D8
330
1F
100
AcDbEntity
  8
0
  6
Continuous
 62
     7
370
    25
100
AcDbCircle
 10
-1224.4489740964
 20
-108.9318347725
 30
0.0
 40
19.87230769230766
100
AcDbArc
 50
313.0766321537
 51
0.0
  0
LINE
  5
D9
330
1F
100
AcDbEntity
  8
0
  6
Continuous
 62
     7
370
    25
100
AcDbLine
 10
-1244.5766664041
 20
-106.9318347725
 30
0.0
 11
-1244.5766664041
 21
-108.9318347725
 31
0.0
  0
LINE
  5
DA
330
1F
100
AcDbEntity
  8
0
  6
Continuous
 62
     7
370
    25
100
AcDbLine
 10
-1204.5766664041
 20
-108.9318347725
 30
0.0
 11
-1204.5766664041
 21
-106.9318347725
 31
0.0
  0
LINE
  5
DB
330
1F
100
AcDbEntity
  8
0
  6
Continuous
 62
     7
370
    25
100
AcDbLine
 10
-1107.8175340069
 20
413.0681652275
 30
0.0
 11
-1107.8175340069
 21
415.0681652275
 31
0.0
  0
LINE
  5
DC
330
1F
100
AcDbEntity
  8
0
  6
Continuous
 62
     7
370
    25
100
AcDbLine
 10
-1147.8175340069
 20
415.0681652275
 30
0.0
 11
-1147.8175340069
 21
413.0681652275
 31
0.0
  0
ARC
  5
DD
330
1F
100
AcDbEntity
  8
0
  6
Continuous
 62
     7
370
    25
100
AcDbCircle
 10
-1127.6898416992
 20
415.0681652275
 30
0.0
 40
19.87230769230766
100
AcDbArc
 50
0.0
 51
46.9233678463
  0
ARC
  5
DE
330
1F
100
AcDbEntity
  8
0
  6
Continuous
 62
     7
370
    25
100
AcDbCircle
 10
-1127.9452263146
 20
415.0681652275
 30
0.0
 40
19.87230769230766
100
AcDbArc
 50
133.0766321537
 51
180.0
  0
LINE
  5
DF
330
1F
100
AcDbEntity
  8
0
  6
Continuous
 62
     7
370
    25
100
AcDbLine
 10
-94.4582133616
 20
413.0681652275
 30
0.0
 11
-94.4582133616
 21
415.0681652275
 31
0.0
  0
LINE
  5
E0
330
1F
100
AcDbEntity
  8
0
  6
Continuous
 62
     7
370
    25
100
AcDbLine
 10
-134.4582133616
 20
415.0681652275
 30
0.0
 11
-134.4582133616
 21
413.0681652275
 31
0.0
  0
ARC
  5
E1
330
1F
100
AcDbEntity
  8
0
  6
Continuous
 62
     7
370
    25
100
AcDbCircle
 10
-114.3305210539
 20
415.0681652275
 30
0.0
 40
19.87230769230769
100
AcDbArc
 50
0.0
 51
46.9233678463
  0
ARC
  5
E2
330
1F
100
AcDbEntity
  8
0
  6
Continuous
 62
     7
370
    25
100
AcDbCircle
 10
-114.5859056693
 20
415.0681652275
 30
0.0
 40
19.87230769230769
100
AcDbArc
 50
133.0766321537
 51
180.0
  0
LINE
  5
E3
330
1F
100
AcDbEntity
  8
0
  6
Continuous
 62
     7
370
    25
100
AcDbLine
 10
569.4341578755
 20
-121.9318347725
 30
0.0
 11
569.4341578755
 21
-123.9318347725
 31
0.0
  0
LINE
  5
E4
330
1F
100
AcDbEntity
  8
0
  6
Continuous
 62
     7
370
    25
100
AcDbLine
 10
609.4341578755
 20
-123.9318347725
 30
0.0
 11
609.4341578755
 21
-121.9318347725
 31
0.0
  0
ARC
  5
E5
330
1F
100
AcDbEntity
  8
0
  6
Continuous
 62
     7
370
    25
100
AcDbCircle
 10
589.3064655678
 20
-123.9318347725
 30
0.0
 40
19.87230769230769
100
AcDbArc
 50
180.0
 51
226.9233678463
  0
ARC
  5
E6
330
1F
100
AcDbEntity
  8
0
  6
Continuous
 62
     7
370
    25
100
AcDbCircle
 10
589.5618501832
 20
-123.9318347725
 30
0.0
 40
19.87230769230771
100
AcDbArc
 50
313.1422199629
 51
0.0
  0
LINE
  5
E7
330
1F
100
AcDbEntity
  8
0
  6
Continuous
 62
     7
370
    25
100
AcDbLine
 10
609.4341578755
 20
428.0681652275
 30
0.0
 11
609.4341578755
 21
430.0681652275
 31
0.0
  0
LINE
  5
E8
330
1F
100
AcDbEntity
  8
0
  6
Continuous
 62
     7
370
    25
100
AcDbLine
 10
569.4341578755
 20
430.0681652275
 30
0.0
 11
569.4341578755
 21
428.0681652275
 31
0.0
  0
ARC
  5
E9
330
1F
100
AcDbEntity
  8
0
  6
Continuous
 62
     7
370
    25
100
AcDbCircle
 10
589.5618501832
 20
430.0681652275
 30
0.0
 40
19.87230769230773
100
AcDbArc
 50
0.0
 51
46.8577800371
  0
ARC
  5
EA
330
1F
100
AcDbEntity
  8
0
  6
Continuous
 62
     7
370
    25
100
AcDbCircle
 10
589.3064655678
 20
430.0681652275
 30
0.0
 40
19.87230769230769
100
AcDbArc
 50
133.0766321537
 51
180.0
  0
LINE
  5
EB
330
1F
100
AcDbEntity
  8
0
  6
Continuous
 62
     7
370
    25
100
AcDbLine
 10
-134.4582133616
 20
-106.9318347725
 30
0.0
 11
-134.4582133616
 21
-108.9318347725
 31
0.0
  0
LINE
  5
EC
330
1F
100
AcDbEntity
  8
0
  6
Continuous
 62
     7
370
    25
100
AcDbLine
 10
-94.4582133616
 20
-108.9318347725
 30
0.0
 11
-94.4582133616
 21
-106.9318347725
 31
0.0
  0
ARC
  5
ED
330
1F
100
AcDbEntity
  8
0
  6
Continuous
 62
     7
370
    25
100
AcDbCircle
 10
-114.5859056693
 20
-108.9318347725
 30
0.0
 40
19.8723076923077
100
AcDbArc
 50
180.0
 51
226.9233678463
  0
ARC
  5
EE
330
1F
100
AcDbEntity
  8
0
  6
Continuous
 62
     7
370
    25
100
AcDbCircle
 10
-114.3305210539
 20
-108.9318347725
 30
0.0
 40
19.8723076923077
100
AcDbArc
 50
313.0766321537
 51
0.0
  0
LINE
  5
EF
330
1F
100
AcDbEntity
  8
0
  6
Continuous
 62
     7
370
    25
100
AcDbLine
 10
841.0931329571
 20
428.0681652275
 30
0.0
 11
841.0931329571
 21
430.0681652275
 31
0.0
  0
LINE
  5
F0
330
1F
100
AcDbEntity
  8
0
  6
Continuous
 62
     7
370
    25
100
AcDbLine
 10
801.0931329571
 20
430.0681652275
 30
0.0
 11
801.0931329571
 21
428.0681652275
 31
0.0
  0
ARC
  5
F1
330
1F
100
AcDbEntity
  8
0
  6
Continuous
 62
     7
370
    25
100
AcDbCircle
 10
821.2208252648
 20
430.0681652275
 30
0.0
 40
19.87230769230776
100
AcDbArc
 50
0.0
 51
46.8577800371
  0
ARC
  5
F2
330
1F
100
AcDbEntity
  8
0
  6
Continuous
 62
     7
370
    25
100
AcDbCircle
 10
820.9654406494
 20
430.0681652275
 30
0.0
 40
19.8723076923078
100
AcDbArc
 50
133.0766321537
 51
180.0
  0
LINE
  5
F3
330
1F
100
AcDbEntity
  8
0
  6
Continuous
 62
     7
370
    25
100
AcDbLine
 10
650.7161298259
 20
-121.9318347725
 30
0.0
 11
650.7161298259
 21
-123.9318347725
 31
0.0
  0
LINE
  5
F4
330
1F
100
AcDbEntity
  8
0
  6
Continuous
 62
     7
370
    25
100
AcDbLine
 10
690.7161298259
 20
-123.9318347725
 30
0.0
 11
690.7161298259
 21
-121.9318347725
 31
0.0
  0
ARC
  5
F5
330
1F
100
AcDbEntity
  8
0
  6
Continuous
 62
     7
370
    25
100
AcDbCircle
 10
670.5884375183
 20
-123.9318347725
 30
0.0
 40
19.8723076923078
100
AcDbArc
 50
180.0
 51
226.9233678463
  0
ARC
  5
F6
330
1F
100
AcDbEntity
  8
0
  6
Continuous
 62
     7
370
    25
100
AcDbCircle
 10
670.8438221336
 20
-123.9318347725
 30
0.0
 40
19.8723076923078
100
AcDbArc
 50
313.0766321537
 51
0.0
  0
ARC
  5
F7
330
1F
100
AcDbEntity
  8
0
  6
Continuous
 62
     7
370
    25
100
AcDbCircle
 10
612.8638221011
 20
-123.9318347725
 30
0.0
 40
19.87230769230769
100
AcDbArc
 50
313.0766321537
 51
0.0
  0
LINE
  5
F8
330
1F
100
AcDbEntity
  8
0
  6
Continuous
 62
     7
370
    25
100
AcDbLine
 10
632.7361297935
 20
-123.9318347725
 30
0.0
 11
632.7361297935
 21
-121.9318347725
 31
0.0
  0
LINE
  5
F9
330
1F
100
AcDbEntity
  8
0
  6
Continuous
 62
     7
370
    25
100
AcDbLine
 10
-797.6848309994
 20
-106.9318347725
 30
0.0
 11
-797.6848309994
 21
-108.9318347725
 31
0.0
  0
LINE
  5
FA
330
1F
100
AcDbEntity
  8
0
  6
Continuous
 62
     7
370
    25
100
AcDbLine
 10
-757.6848309994
 20
-108.9318347725
 30
0.0
 11
-757.6848309994
 21
-106.9318347725
 31
0.0
  0
ARC
  5
FB
330
1F
100
AcDbEntity
  8
0
  6
Continuous
 62
     7
370
    25
100
AcDbCircle
 10
-777.8125233071
 20
-108.9318347725
 30
0.0
 40
19.87230769230775
100
AcDbArc
 50
180.0
 51
226.9233678463
  0
ARC
  5
FC
330
1F
100
AcDbEntity
  8
0
  6
Continuous
 62
     7
370
    25
100
AcDbCircle
 10
-777.5571386918
 20
-108.9318347725
 30
0.0
 40
19.87230769230767
100
AcDbArc
 50
313.0766321537
 51
0.0
  0
LINE
  5
FD
330
1F
100
AcDbEntity
  8
0
  6
Continuous
 62
     7
370
    25
100
AcDbLine
 10
-757.6848309994
 20
413.0681652275
 30
0.0
 11
-757.6848309994
 21
415.0681652275
 31
0.0
  0
LINE
  5
FE
330
1F
100
AcDbEntity
  8
0
  6
Continuous
 62
     7
370
    25
100
AcDbLine
 10
-797.6848309994
 20
415.0681652275
 30
0.0
 11
-797.6848309994
 21
413.0681652275
 31
0.0
  0
ARC
  5
FF
330
1F
100
AcDbEntity
  8
0
  6
Continuous
 62
     7
370
    25
100
AcDbCircle
 10
-777.5571386918
 20
415.0681652275
 30
0.0
 40
19.87230769230766
100
AcDbArc
 50
0.0
 51
46.9233678463
  0
ARC
  5
100
330
1F
100
AcDbEntity
  8
0
  6
Continuous
 62
     7
370
    25
100
AcDbCircle
 10
-777.8125233071
 20
415.0681652275
 30
0.0
 40
19.87230769230774
100
AcDbArc
 50
133.0766321537
 51
180.0
  0
ARC
  5
101
330
1F
100
AcDbEntity
  8
0
  6
Continuous
 62
     7
370
    25
100
AcDbCircle
 10
829.2100990134
 20
-123.9318347725
 30
0.0
 40
19.8723076923078
100
AcDbArc
 50
313.0766321537
 51
0.0
  0
LINE
  5
102
330
1F
100
AcDbEntity
  8
0
  6
Continuous
 62
     7
370
    25
100
AcDbLine
 10
849.0824067057
 20
-123.9318347725
 30
0.0
 11
849.0824067057
 21
-121.9318347725
 31
0.0
  0
LINE
  5
103
330
1F
100
AcDbEntity
  8
0
  6
Continuous
 62
     7
370
    25
100
AcDbLine
 10
690.7161298259
 20
428.0681652275
 30
0.0
 11
690.7161298259
 21
430.0681652275
 31
0.0
  0
LINE
  5
104
330
1F
100
AcDbEntity
  8
0
  6
Continuous
 62
     7
370
    25
100
AcDbLine
 10
650.7161298259
 20
430.0681652275
 30
0.0
 11
650.7161298259
 21
428.0681652275
 31
0.0
  0
ARC
  5
105
330
1F
100
AcDbEntity
  8
0
  6
Continuous
 62
     7
370
    25
100
AcDbCircle
 10
670.8438221336
 20
430.0681652275
 30
0.0
 40
19.8723076923078
100
AcDbArc
 50
0.0
 51
46.9233678463
  0
ARC
  5
106
330
1F
100
AcDbEntity
  8
0
  6
Continuous
 62
     7
370
    25
100
AcDbCircle
 10
670.5884375183
 20
430.0681652275
 30
0.0
 40
19.8723076923078
100
AcDbArc
 50
133.0766321537
 51
180.0
  0
ARC
  5
107
330
1F
100
AcDbEntity
  8
0
  6
Continuous
 62
     7
370
    25
100
AcDbCircle
 10
829.2100990134
 20
430.0681652275
 30
0.0
 40
19.8723076923078
100
AcDbArc
 50
0.0
 51
46.9233678463
  0
LINE
  5
108
330
1F
100
AcDbEntity
  8
0
  6
Continuous
 62
     7
370
    25
100
AcDbLine
 10
849.0824067057
 20
428.0681652275
 30
0.0
 11
849.0824067057
 21
430.0681652275
 31
0.0
  0
ARC
  5
109
330
1F
100
AcDbEntity
  8
0
  6
Continuous
 62
     7
370
    25
100
AcDbCircle
 10
-127.5582133616
 20
-124.0622260909
 30
0.0
 40
0.5999999999999871
100
AcDbArc
 50
180.0
 51
243.6246146768
  0
ARC
  5
10A
330
1F
100
AcDbEntity
  8
0
  6
Continuous
 62
     7
370
    25
100
AcDbCircle
 10
-101.3582133616
 20
-124.0622260909
 30
0.0
 40
0.5999999999999871
100
AcDbArc
 50
296.3753853232
 51
0.0
  0
LINE
  5
10B
330
1F
100
AcDbEntity
  8
0
  6
Continuous
 62
     7
370
    25
100
AcDbLine
 10
-128.1582133616
 20
-123.4473808153
 30
0.0
 11
-128.1582133616
 21
-124.0622260909
 31
0.0
  0
LINE
  5
10C
330
1F
100
AcDbEntity
  8
0
  6
Continuous
 62
     7
370
    25
100
AcDbLine
 10
-100.7582133616
 20
-124.0622260909
 30
0.0
 11
-100.7582133616
 21
-123.4473808153
 31
0.0
  0
ARC
  5
10D
330
1F
100
AcDbEntity
  8
0
  6
Continuous
 62
     7
370
    25
100
AcDbCircle
 10
-114.4582133616
 20
-97.6439559846
 30
0.0
 40
30.08787878787882
100
AcDbArc
 50
243.6246146768
 51
296.3753853232
  0
LINE
  5
10E
330
1F
100
AcDbEntity
  8
0
  6
Continuous
 62
     7
370
    25
100
AcDbLine
 10
842.7824067057
 20
-139.0622260909
 30
0.0
 11
842.7824067057
 21
-138.4473808153
 31
0.0
  0
ARC
  5
10F
330
1F
100
AcDbEntity
  8
0
  6
Continuous
 62
     7
370
    25
100
AcDbCircle
 10
842.1824067057
 20
-139.0622260909
 30
0.0
 40
0.6000000000001364
100
AcDbArc
 50
296.3753853232
 51
0.0
  0
ARC
  5
110
330
1F
100
AcDbEntity
  8
0
  6
Continuous
 62
     7
370
    25
100
AcDbCircle
 10
829.0824067057
 20
-112.6439559846
 30
0.0
 40
30.08787878787883
100
AcDbArc
 50
262.3708619838
 51
296.3753853232
  0
LINE
  5
111
330
1F
100
AcDbEntity
  8
0
  6
Continuous
 62
     7
370
    25
100
AcDbLine
 10
684.4161298259
 20
444.5837112704
 30
0.0
 11
684.4161298259
 21
445.1985565459
 31
0.0
  0
LINE
  5
112
330
1F
100
AcDbEntity
  8
0
  6
Continuous
 62
     7
370
    25
100
AcDbLine
 10
657.0161298259
 20
445.1985565459
 30
0.0
 11
657.0161298259
 21
444.5837112704
 31
0.0
  0
ARC
  5
113
330
1F
100
AcDbEntity
  8
0
  6
Continuous
 62
     7
370
    25
100
AcDbCircle
 10
683.8161298259
 20
445.1985565459
 30
0.0
 40
0.600000000000158
100
AcDbArc
 50
0.0
 51
63.6246146768
  0
ARC
  5
114
330
1F
100
AcDbEntity
  8
0
  6
Continuous
 62
     7
370
    25
100
AcDbCircle
 10
657.6161298259
 20
445.1985565459
 30
0.0
 40
0.6000000000002501
100
AcDbArc
 50
116.3753853232
 51
180.0
  0
ARC
  5
115
330
1F
100
AcDbEntity
  8
0
  6
Continuous
 62
     7
370
    25
100
AcDbCircle
 10
670.7161298259
 20
418.7802864397
 30
0.0
 40
30.08787878787883
100
AcDbArc
 50
63.6246146768
 51
116.3753853232
  0
LINE
  5
116
330
1F
100
AcDbEntity
  8
0
  6
Continuous
 62
     7
370
    25
100
AcDbLine
 10
-763.9848309994
 20
429.5837112704
 30
0.0
 11
-763.9848309994
 21
430.1985565459
 31
0.0
  0
LINE
  5
117
330
1F
100
AcDbEntity
  8
0
  6
Continuous
 62
     7
370
    25
100
AcDbLine
 10
-791.3848309994
 20
430.1985565459
 30
0.0
 11
-791.3848309994
 21
429.5837112704
 31
0.0
  0
ARC
  5
118
330
1F
100
AcDbEntity
  8
0
  6
Continuous
 62
     7
370
    25
100
AcDbCircle
 10
-764.5848309994
 20
430.1985565459
 30
0.0
 40
0.5999999999999551
100
AcDbArc
 50
0.0
 51
63.6246146768
  0
ARC
  5
119
330
1F
100
AcDbEntity
  8
0
  6
Continuous
 62
     7
370
    25
100
AcDbCircle
 10
-790.7848309994
 20
430.1985565459
 30
0.0
 40
0.6000000000000227
100
AcDbArc
 50
116.3753853232
 51
180.0
  0
ARC
  5
11A
330
1F
100
AcDbEntity
  8
0
  6
Continuous
 62
     7
370
    25
100
AcDbCircle
 10
-777.6848309994
 20
403.7802864397
 30
0.0
 40
30.08787878787878
100
AcDbArc
 50
63.6246146768
 51
116.3753853232
  0
LINE
  5
11B
330
1F
100
AcDbEntity
  8
0
  6
Continuous
 62
     7
370
    25
100
AcDbLine
 10
-791.3848309994
 20
-123.4473808153
 30
0.0
 11
-791.3848309994
 21
-124.0622260909
 31
0.0
  0
LINE
  5
11C
330
1F
100
AcDbEntity
  8
0
  6
Continuous
 62
     7
370
    25
100
AcDbLine
 10
-763.9848309994
 20
-124.0622260909
 30
0.0
 11
-763.9848309994
 21
-123.4473808153
 31
0.0
  0
ARC
  5
11D
330
1F
100
AcDbEntity
  8
0
  6
Continuous
 62
     7
370
    25
100
AcDbCircle
 10
-790.7848309994
 20
-124.0622260909
 30
0.0
 40
0.6000000000000227
100
AcDbArc
 50
180.0
 51
243.6246146768
  0
ARC
  5
11E
330
1F
100
AcDbEntity
  8
0
  6
Continuous
 62
     7
370
    25
100
AcDbCircle
 10
-764.5848309994
 20
-124.0622260909
 30
0.0
 40
0.600000000000006
100
AcDbArc
 50
296.3753853232
 51
0.0
  0
ARC
  5
11F
330
1F
100
AcDbEntity
  8
0
  6
Continuous
 62
     7
370
    25
100
AcDbCircle
 10
-777.6848309994
 20
-97.6439559846
 30
0.0
 40
30.08787878787885
100
AcDbArc
 50
243.6246146768
 51
296.3753853232
  0
ARC
  5
120
330
1F
100
AcDbEntity
  8
0
  6
Continuous
 62
     7
370
    25
100
AcDbCircle
 10
657.6161298259
 20
-139.0622260909
 30
0.0
 40
0.6000000000002501
100
AcDbArc
 50
180.0
 51
243.6246146768
  0
ARC
  5
121
330
1F
100
AcDbEntity
  8
0
  6
Continuous
 62
     7
370
    25
100
AcDbCircle
 10
683.8161298259
 20
-139.0622260909
 30
0.0
 40
0.6000000000001364
100
AcDbArc
 50
296.3753853232
 51
0.0
  0
LINE
  5
122
330
1F
100
AcDbEntity
  8
0
  6
Continuous
 62
     7
370
    25
100
AcDbLine
 10
657.0161298259
 20
-138.4473808153
 30
0.0
 11
657.0161298259
 21
-139.0622260909
 31
0.0
  0
LINE
  5
123
330
1F
100
AcDbEntity
  8
0
  6
Continuous
 62
     7
370
    25
100
AcDbLine
 10
684.4161298259
 20
-139.0622260909
 30
0.0
 11
684.4161298259
 21
-138.4473808153
 31
0.0
  0
ARC
  5
124
330
1F
100
AcDbEntity
  8
0
  6
Continuous
 62
     7
370
    25
100
AcDbCircle
 10
670.7161298259
 20
-112.6439559846
 30
0.0
 40
30.08787878787883
100
AcDbArc
 50
243.6246146768
 51
296.3753853232
  0
ARC
  5
125
330
1F
100
AcDbEntity
  8
0
  6
Continuous
 62
     7
370
    25
100
AcDbCircle
 10
834.1931329571
 20
445.1985565459
 30
0.0
 40
0.6000000000001364
100
AcDbArc
 50
0.0
 51
63.6246146768
  0
ARC
  5
126
330
1F
100
AcDbEntity
  8
0
  6
Continuous
 62
     7
370
    25
100
AcDbCircle
 10
807.9931329571
 20
445.1985565459
 30
0.0
 40
0.6000000000001364
100
AcDbArc
 50
116.3753853232
 51
180.0
  0
LINE
  5
127
330
1F
100
AcDbEntity
  8
0
  6
Continuous
 62
     7
370
    25
100
AcDbLine
 10
834.7931329571
 20
444.5837112704
 30
0.0
 11
834.7931329571
 21
445.1985565459
 31
0.0
  0
LINE
  5
128
330
1F
100
AcDbEntity
  8
0
  6
Continuous
 62
     7
370
    25
100
AcDbLine
 10
807.3931329571
 20
445.1985565459
 30
0.0
 11
807.3931329571
 21
444.5837112704
 31
0.0
  0
ARC
  5
129
330
1F
100
AcDbEntity
  8
0
  6
Continuous
 62
     7
370
    25
100
AcDbCircle
 10
821.0931329571
 20
418.7802864397
 30
0.0
 40
30.08787878787873
100
AcDbArc
 50
63.6246146768
 51
116.3753853232
  0
ARC
  5
12A
330
1F
100
AcDbEntity
  8
0
  6
Continuous
 62
     7
370
    25
100
AcDbCircle
 10
602.5341578755
 20
445.1985565459
 30
0.0
 40
0.6000000000000064
100
AcDbArc
 50
0.0
 51
63.6246146769
  0
ARC
  5
12B
330
1F
100
AcDbEntity
  8
0
  6
Continuous
 62
     7
370
    25
100
AcDbCircle
 10
576.3341578755
 20
445.1985565459
 30
0.0
 40
0.6000000000000569
100
AcDbArc
 50
116.3753853232
 51
180.0
  0
LINE
  5
12C
330
1F
100
AcDbEntity
  8
0
  6
Continuous
 62
     7
370
    25
100
AcDbLine
 10
603.1341578755
 20
444.5837112704
 30
0.0
 11
603.1341578755
 21
445.1985565459
 31
0.0
  0
LINE
  5
12D
330
1F
100
AcDbEntity
  8
0
  6
Continuous
 62
     7
370
    25
100
AcDbLine
 10
575.7341578755
 20
445.1985565459
 30
0.0
 11
575.7341578755
 21
444.5837112704
 31
0.0
  0
ARC
  5
12E
330
1F
100
AcDbEntity
  8
0
  6
Continuous
 62
     7
370
    25
100
AcDbCircle
 10
589.4341578755
 20
418.7802864397
 30
0.0
 40
30.08787878787883
100
AcDbArc
 50
63.6246146768
 51
116.3753853232
  0
LINE
  5
12F
330
1F
100
AcDbEntity
  8
0
  6
Continuous
 62
     7
370
    25
100
AcDbLine
 10
807.3931329571
 20
-138.4473808153
 30
0.0
 11
807.3931329571
 21
-139.0622260909
 31
0.0
  0
ARC
  5
130
330
1F
100
AcDbEntity
  8
0
  6
Continuous
 62
     7
370
    25
100
AcDbCircle
 10
807.9931329571
 20
-139.0622260909
 30
0.0
 40
0.6000000000001364
100
AcDbArc
 50
180.0
 51
243.6246146768
  0
ARC
  5
131
330
1F
100
AcDbEntity
  8
0
  6
Continuous
 62
     7
370
    25
100
AcDbCircle
 10
821.0931329571
 20
-112.6439559846
 30
0.0
 40
30.08787878787883
100
AcDbArc
 50
243.6246146768
 51
296.3753853232
  0
ARC
  5
132
330
1F
100
AcDbEntity
  8
0
  6
Continuous
 62
     7
370
    25
100
AcDbCircle
 10
576.3341578755
 20
-139.0622260909
 30
0.0
 40
0.5999999999999805
100
AcDbArc
 50
180.0
 51
243.6246146768
  0
ARC
  5
133
330
1F
100
AcDbEntity
  8
0
  6
Continuous
 62
     7
370
    25
100
AcDbCircle
 10
602.5341578755
 20
-139.0622260909
 30
0.0
 40
0.5999999999999301
100
AcDbArc
 50
296.3753853232
 51
0.0
  0
LINE
  5
134
330
1F
100
AcDbEntity
  8
0
  6
Continuous
 62
     7
370
    25
100
AcDbLine
 10
575.7341578755
 20
-138.4473808153
 30
0.0
 11
575.7341578755
 21
-139.0622260909
 31
0.0
  0
LINE
  5
135
330
1F
100
AcDbEntity
  8
0
  6
Continuous
 62
     7
370
    25
100
AcDbLine
 10
603.1341578755
 20
-139.0622260909
 30
0.0
 11
603.1341578755
 21
-138.4473808153
 31
0.0
  0
ARC
  5
136
330
1F
100
AcDbEntity
  8
0
  6
Continuous
 62
     7
370
    25
100
AcDbCircle
 10
589.4341578755
 20
-112.6439559846
 30
0.0
 40
30.08787878787883
100
AcDbArc
 50
243.6246146768
 51
296.3753853232
  0
LINE
  5
137
330
1F
100
AcDbEntity
  8
0
  6
Continuous
 62
     7
370
    25
100
AcDbLine
 10
626.4361297935
 20
-139.0622260909
 30
0.0
 11
626.4361297935
 21
-138.4473808153
 31
0.0
  0
ARC
  5
138
330
1F
100
AcDbEntity
  8
0
  6
Continuous
 62
     7
370
    25
100
AcDbCircle
 10
625.8361297935
 20
-139.0622260909
 30
0.0
 40
0.5999999999999301
100
AcDbArc
 50
296.3753853232
 51
0.0
  0
ARC
  5
139
330
1F
100
AcDbEntity
  8
0
  6
Continuous
 62
     7
370
    25
100
AcDbCircle
 10
612.7361297935
 20
-112.6439559846
 30
0.0
 40
30.08787878787879
100
AcDbArc
 50
247.2176316393
 51
296.3753853232
  0
ARC
  5
13A
330
1F
100
AcDbEntity
  8
0
  6
Continuous
 62
     7
370
    25
100
AcDbCircle
 10
-491.1553849391
 20
-124.0622260909
 30
0.0
 40
0.5999999999999808
100
AcDbArc
 50
180.0
 51
243.6246146768
  0
ARC
  5
13B
330
1F
100
AcDbEntity
  8
0
  6
Continuous
 62
     7
370
    25
100
AcDbCircle
 10
-464.9553849391
 20
-124.0622260909
 30
0.0
 40
0.5999999999999808
100
AcDbArc
 50
296.3753853232
 51
0.0
  0
LINE
  5
13C
330
1F
100
AcDbEntity
  8
0
  6
Continuous
 62
     7
370
    25
100
AcDbLine
 10
-491.7553849391
 20
-123.4473808153
 30
0.0
 11
-491.7553849391
 21
-124.0622260909
 31
0.0
  0
LINE
  5
13D
330
1F
100
AcDbEntity
  8
0
  6
Continuous
 62
     7
370
    25
100
AcDbLine
 10
-464.3553849391
 20
-124.0622260909
 30
0.0
 11
-464.3553849391
 21
-123.4473808153
 31
0.0
  0
ARC
  5
13E
330
1F
100
AcDbEntity
  8
0
  6
Continuous
 62
     7
370
    25
100
AcDbCircle
 10
-478.0553849391
 20
-97.6439559846
 30
0.0
 40
30.08787878787882
100
AcDbArc
 50
243.6246146768
 51
296.3753853232
  0
ARC
  5
13F
330
1F
100
AcDbEntity
  8
0
  6
Continuous
 62
     7
370
    25
100
AcDbCircle
 10
-101.3582133616
 20
430.1985565459
 30
0.0
 40
0.5999999999999361
100
AcDbArc
 50
0.0
 51
63.6246146768
  0
ARC
  5
140
330
1F
100
AcDbEntity
  8
0
  6
Continuous
 62
     7
370
    25
100
AcDbCircle
 10
-127.5582133616
 20
430.1985565459
 30
0.0
 40
0.5999999999999361
100
AcDbArc
 50
116.3753853232
 51
180.0
  0
LINE
  5
141
330
1F
100
AcDbEntity
  8
0
  6
Continuous
 62
     7
370
    25
100
AcDbLine
 10
-100.7582133616
 20
429.5837112704
 30
0.0
 11
-100.7582133616
 21
430.1985565459
 31
0.0
  0
LINE
  5
142
330
1F
100
AcDbEntity
  8
0
  6
Continuous
 62
     7
370
    25
100
AcDbLine
 10
-128.1582133616
 20
430.1985565459
 30
0.0
 11
-128.1582133616
 21
429.5837112704
 31
0.0
  0
ARC
  5
143
330
1F
100
AcDbEntity
  8
0
  6
Continuous
 62
     7
370
    25
100
AcDbCircle
 10
-114.4582133616
 20
403.7802864397
 30
0.0
 40
30.08787878787876
100
AcDbArc
 50
63.6246146768
 51
116.3753853232
  0
ARC
  5
144
330
1F
100
AcDbEntity
  8
0
  6
Continuous
 62
     7
370
    25
100
AcDbCircle
 10
236.0389582159
 20
-124.0622260909
 30
0.0
 40
0.5999999999999934
100
AcDbArc
 50
180.0
 51
243.6246146768
  0
ARC
  5
145
330
1F
100
AcDbEntity
  8
0
  6
Continuous
 62
     7
370
    25
100
AcDbCircle
 10
262.2389582159
 20
-124.0622260909
 30
0.0
 40
0.5999999999999808
100
AcDbArc
 50
296.3753853232
 51
0.0
  0
LINE
  5
146
330
1F
100
AcDbEntity
  8
0
  6
Continuous
 62
     7
370
    25
100
AcDbLine
 10
235.4389582159
 20
-123.4473808153
 30
0.0
 11
235.4389582159
 21
-124.0622260909
 31
0.0
  0
LINE
  5
147
330
1F
100
AcDbEntity
  8
0
  6
Continuous
 62
     7
370
    25
100
AcDbLine
 10
262.8389582159
 20
-124.0622260909
 30
0.0
 11
262.8389582159
 21
-123.4473808153
 31
0.0
  0
ARC
  5
148
330
1F
100
AcDbEntity
  8
0
  6
Continuous
 62
     7
370
    25
100
AcDbCircle
 10
249.1389582159
 20
-97.6439559846
 30
0.0
 40
30.08787878787882
100
AcDbArc
 50
243.6246146768
 51
296.3753853232
  0
LINE
  5
149
330
1F
100
AcDbEntity
  8
0
  6
Continuous
 62
     7
370
    25
100
AcDbLine
 10
-1114.1175340069
 20
429.5837112704
 30
0.0
 11
-1114.1175340069
 21
430.1985565459
 31
0.0
  0
LINE
  5
14A
330
1F
100
AcDbEntity
  8
0
  6
Continuous
 62
     7
370
    25
100
AcDbLine
 10
-1141.5175340069
 20
430.1985565459
 30
0.0
 11
-1141.5175340069
 21
429.5837112704
 31
0.0
  0
ARC
  5
14B
330
1F
100
AcDbEntity
  8
0
  6
Continuous
 62
     7
370
    25
100
AcDbCircle
 10
-1114.7175340069
 20
430.1985565459
 30
0.0
 40
0.599999999999909
100
AcDbArc
 50
0.0
 51
63.6246146768
  0
ARC
  5
14C
330
1F
100
AcDbEntity
  8
0
  6
Continuous
 62
     7
370
    25
100
AcDbCircle
 10
-1140.9175340069
 20
430.1985565459
 30
0.0
 40
0.599999999999909
100
AcDbArc
 50
116.3753853232
 51
180.0
  0
ARC
  5
14D
330
1F
100
AcDbEntity
  8
0
  6
Continuous
 62
     7
370
    25
100
AcDbCircle
 10
-1127.8175340069
 20
403.7802864397
 30
0.0
 40
30.08787878787873
100
AcDbArc
 50
63.6246146768
 51
116.3753853232
  0
ARC
  5
14E
330
1F
100
AcDbEntity
  8
0
  6
Continuous
 62
     7
370
    25
100
AcDbCircle
 10
-1211.4766664041
 20
430.1985565459
 30
0.0
 40
0.6000000000001074
100
AcDbArc
 50
0.0
 51
63.6246146768
  0
ARC
  5
14F
330
1F
100
AcDbEntity
  8
0
  6
Continuous
 62
     7
370
    25
100
AcDbCircle
 10
-1237.6766664041
 20
430.1985565459
 30
0.0
 40
0.6000000000000064
100
AcDbArc
 50
116.3753853231
 51
180.0
  0
LINE
  5
150
330
1F
100
AcDbEntity
  8
0
  6
Continuous
 62
     7
370
    25
100
AcDbLine
 10
-1210.8766664041
 20
429.5837112704
 30
0.0
 11
-1210.8766664041
 21
430.1985565459
 31
0.0
  0
LINE
  5
151
330
1F
100
AcDbEntity
  8
0
  6
Continuous
 62
     7
370
    25
100
AcDbLine
 10
-1238.2766664041
 20
430.1985565459
 30
0.0
 11
-1238.2766664041
 21
429.5837112704
 31
0.0
  0
ARC
  5
152
330
1F
100
AcDbEntity
  8
0
  6
Continuous
 62
     7
370
    25
100
AcDbCircle
 10
-1224.5766664041
 20
403.7802864397
 30
0.0
 40
30.08787878787883
100
AcDbArc
 50
63.6246146768
 51
116.3753853232
  0
ARC
  5
153
330
1F
100
AcDbEntity
  8
0
  6
Continuous
 62
     7
370
    25
100
AcDbCircle
 10
834.1934454445
 20
-139.0622260909
 30
0.0
 40
0.6000000000000227
100
AcDbArc
 50
296.3753853232
 51
0.0
  0
LINE
  5
154
330
1F
100
AcDbEntity
  8
0
  6
Continuous
 62
     7
370
    25
100
AcDbLine
 10
834.7934454445
 20
-139.0622260909
 30
0.0
 11
834.7934454445
 21
-138.4473808153
 31
0.0
  0
ARC
  5
155
330
1F
100
AcDbEntity
  8
0
  6
Continuous
 62
     7
370
    25
100
AcDbCircle
 10
821.0934454445
 20
-112.6439559846
 30
0.0
 40
30.08787878787883
100
AcDbArc
 50
243.6246146768
 51
296.3753853232
  0
ARC
  5
156
330
1F
100
AcDbEntity
  8
0
  6
Continuous
 62
     7
370
    25
100
AcDbCircle
 10
-1140.9175340069
 20
-124.0622260909
 30
0.0
 40
0.5999999999999556
100
AcDbArc
 50
180.0
 51
243.6246146768
  0
ARC
  5
157
330
1F
100
AcDbEntity
  8
0
  6
Continuous
 62
     7
370
    25
100
AcDbCircle
 10
-1114.7175340069
 20
-124.0622260909
 30
0.0
 40
0.5999999999999556
100
AcDbArc
 50
296.3753853232
 51
0.0
  0
LINE
  5
158
330
1F
100
AcDbEntity
  8
0
  6
Continuous
 62
     7
370
    25
100
AcDbLine
 10
-1141.5175340069
 20
-123.4473808153
 30
0.0
 11
-1141.5175340069
 21
-124.0622260909
 31
0.0
  0
LINE
  5
159
330
1F
100
AcDbEntity
  8
0
  6
Continuous
 62
     7
370
    25
100
AcDbLine
 10
-1114.1175340069
 20
-124.0622260909
 30
0.0
 11
-1114.1175340069
 21
-123.4473808153
 31
0.0
  0
ARC
  5
15A
330
1F
100
AcDbEntity
  8
0
  6
Continuous
 62
     7
370
    25
100
AcDbCircle
 10
-1127.8175340069
 20
-97.6439559846
 30
0.0
 40
30.0878787878788
100
AcDbArc
 50
243.6246146768
 51
296.3753853232
  0
ARC
  5
15B
330
1F
100
AcDbEntity
  8
0
  6
Continuous
 62
     7
370
    25
100
AcDbCircle
 10
-1237.6766664041
 20
-124.0622260909
 30
0.0
 40
0.5999999999999556
100
AcDbArc
 50
180.0
 51
243.6246146768
  0
ARC
  5
15C
330
1F
100
AcDbEntity
  8
0
  6
Continuous
 62
     7
370
    25
100
AcDbCircle
 10
-1211.4766664041
 20
-124.0622260909
 30
0.0
 40
0.6000000000000565
100
AcDbArc
 50
296.3753853232
 51
0.0
  0
LINE
  5
15D
330
1F
100
AcDbEntity
  8
0
  6
Continuous
 62
     7
370
    25
100
AcDbLine
 10
-1238.2766664041
 20
-123.4473808153
 30
0.0
 11
-1238.2766664041
 21
-124.0622260909
 31
0.0
  0
LINE
  5
15E
330
1F
100
AcDbEntity
  8
0
  6
Continuous
 62
     7
370
    25
100
AcDbLine
 10
-1210.8766664041
 20
-124.0622260909
 30
0.0
 11
-1210.8766664041
 21
-123.4473808153
 31
0.0
  0
ARC
  5
15F
330
1F
100
AcDbEntity
  8
0
  6
Continuous
 62
     7
370
    25
100
AcDbCircle
 10
-1224.5766664041
 20
-97.6439559846
 30
0.0
 40
30.0878787878789
100
AcDbArc
 50
243.6246146768
 51
296.3753853232
  0
LINE
  5
160
330
1F
100
AcDbEntity
  8
0
  6
Continuous
 62
     7
370
    25
100
AcDbLine
 10
990.033301371
 20
444.5837112704
 30
0.0
 11
990.033301371
 21
445.1985565459
 31
0.0
  0
LINE
  5
161
330
1F
100
AcDbEntity
  8
0
  6
Continuous
 62
     7
370
    25
100
AcDbLine
 10
962.633301371
 20
445.1985565459
 30
0.0
 11
962.633301371
 21
444.5837112704
 31
0.0
  0
ARC
  5
162
330
1F
100
AcDbEntity
  8
0
  6
Continuous
 62
     7
370
    25
100
AcDbCircle
 10
989.433301371
 20
445.1985565459
 30
0.0
 40
0.6000000000001364
100
AcDbArc
 50
0.0
 51
63.6246146768
  0
ARC
  5
163
330
1F
100
AcDbEntity
  8
0
  6
Continuous
 62
     7
370
    25
100
AcDbCircle
 10
963.233301371
 20
445.1985565459
 30
0.0
 40
0.599999999999909
100
AcDbArc
 50
116.3753853232
 51
180.0
  0
ARC
  5
164
330
1F
100
AcDbEntity
  8
0
  6
Continuous
 62
     7
370
    25
100
AcDbCircle
 10
976.333301371
 20
418.7802864397
 30
0.0
 40
30.08787878787873
100
AcDbArc
 50
63.6246146768
 51
116.3753853232
  0
LINE
  5
165
330
1F
100
AcDbEntity
  8
0
  6
Continuous
 62
     7
370
    25
100
AcDbLine
 10
262.8389582159
 20
429.5837112704
 30
0.0
 11
262.8389582159
 21
430.1985565459
 31
0.0
  0
LINE
  5
166
330
1F
100
AcDbEntity
  8
0
  6
Continuous
 62
     7
370
    25
100
AcDbLine
 10
235.4389582159
 20
430.1985565459
 30
0.0
 11
235.4389582159
 21
429.5837112704
 31
0.0
  0
ARC
  5
167
330
1F
100
AcDbEntity
  8
0
  6
Continuous
 62
     7
370
    25
100
AcDbCircle
 10
262.2389582159
 20
430.1985565459
 30
0.0
 40
0.5999999999999659
100
AcDbArc
 50
0.0
 51
63.6246146768
  0
ARC
  5
168
330
1F
100
AcDbEntity
  8
0
  6
Continuous
 62
     7
370
    25
100
AcDbCircle
 10
236.0389582159
 20
430.1985565459
 30
0.0
 40
0.5999999999999425
100
AcDbArc
 50
116.3753853232
 51
180.0
  0
ARC
  5
169
330
1F
100
AcDbEntity
  8
0
  6
Continuous
 62
     7
370
    25
100
AcDbCircle
 10
249.1389582159
 20
403.7802864397
 30
0.0
 40
30.08787878787876
100
AcDbArc
 50
63.6246146768
 51
116.3753853232
  0
ARC
  5
16A
330
1F
100
AcDbEntity
  8
0
  6
Continuous
 62
     7
370
    25
100
AcDbCircle
 10
625.8361297935
 20
445.1985565459
 30
0.0
 40
0.599999999999909
100
AcDbArc
 50
0.0
 51
63.6246146768
  0
LINE
  5
16B
330
1F
100
AcDbEntity
  8
0
  6
Continuous
 62
     7
370
    25
100
AcDbLine
 10
626.4361297935
 20
444.5837112704
 30
0.0
 11
626.4361297935
 21
445.1985565459
 31
0.0
  0
ARC
  5
16C
330
1F
100
AcDbEntity
  8
0
  6
Continuous
 62
     7
370
    25
100
AcDbCircle
 10
612.7361297935
 20
418.7802864397
 30
0.0
 40
30.08787878787873
100
AcDbArc
 50
63.6246146768
 51
112.7823683608
  0
ARC
  5
16D
330
1F
100
AcDbEntity
  8
0
  6
Continuous
 62
     7
370
    25
100
AcDbCircle
 10
963.233301371
 20
-139.0622260909
 30
0.0
 40
0.5999999999999301
100
AcDbArc
 50
180.0
 51
243.6246146768
  0
ARC
  5
16E
330
1F
100
AcDbEntity
  8
0
  6
Continuous
 62
     7
370
    25
100
AcDbCircle
 10
989.433301371
 20
-139.0622260909
 30
0.0
 40
0.6000000000001364
100
AcDbArc
 50
296.3753853232
 51
0.0
  0
LINE
  5
16F
330
1F
100
AcDbEntity
  8
0
  6
Continuous
 62
     7
370
    25
100
AcDbLine
 10
962.633301371
 20
-138.4473808153
 30
0.0
 11
962.633301371
 21
-139.0622260909
 31
0.0
  0
LINE
  5
170
330
1F
100
AcDbEntity
  8
0
  6
Continuous
 62
     7
370
    25
100
AcDbLine
 10
990.033301371
 20
-139.0622260909
 30
0.0
 11
990.033301371
 21
-138.4473808153
 31
0.0
  0
ARC
  5
171
330
1F
100
AcDbEntity
  8
0
  6
Continuous
 62
     7
370
    25
100
AcDbCircle
 10
976.333301371
 20
-112.6439559846
 30
0.0
 40
30.08787878787878
100
AcDbArc
 50
243.6246146768
 51
296.3753853232
  0
LINE
  5
172
330
1F
100
AcDbEntity
  8
0
  6
Continuous
 62
     7
370
    25
100
AcDbLine
 10
-464.3553849391
 20
429.5837112704
 30
0.0
 11
-464.3553849391
 21
430.1985565459
 31
0.0
  0
LINE
  5
173
330
1F
100
AcDbEntity
  8
0
  6
Continuous
 62
     7
370
    25
100
AcDbLine
 10
-491.7553849391
 20
430.1985565459
 30
0.0
 11
-491.7553849391
 21
429.5837112704
 31
0.0
  0
ARC
  5
174
330
1F
100
AcDbEntity
  8
0
  6
Continuous
 62
     7
370
    25
100
AcDbCircle
 10
-464.9553849391
 20
430.1985565459
 30
0.0
 40
0.5999999999999298
100
AcDbArc
 50
0.0
 51
63.6246146768
  0
ARC
  5
175
330
1F
100
AcDbEntity
  8
0
  6
Continuous
 62
     7
370
    25
100
AcDbCircle
 10
-491.1553849391
 20
430.1985565459
 30
0.0
 40
0.5999999999999298
100
AcDbArc
 50
116.3753853232
 51
180.0
  0
ARC
  5
176
330
1F
100
AcDbEntity
  8
0
  6
Continuous
 62
     7
370
    25
100
AcDbCircle
 10
-478.0553849391
 20
403.7802864397
 30
0.0
 40
30.08787878787876
100
AcDbArc
 50
63.6246146768
 51
116.3753853232
  0
LINE
  5
177
330
1F
100
AcDbEntity
  8
0
  6
Continuous
 62
     7
370
    25
100
AcDbLine
 10
842.7824067057
 20
444.5837112704
 30
0.0
 11
842.7824067057
 21
445.1985565459
 31
0.0
  0
ARC
  5
178
330
1F
100
AcDbEntity
  8
0
  6
Continuous
 62
     7
370
    25
100
AcDbCircle
 10
842.1824067057
 20
445.1985565459
 30
0.0
 40
0.600000000000158
100
AcDbArc
 50
0.0
 51
63.6246146768
  0
ARC
  5
179
330
1F
100
AcDbEntity
  8
0
  6
Continuous
 62
     7
370
    25
100
AcDbCircle
 10
829.0824067057
 20
418.7802864397
 30
0.0
 40
30.08787878787883
100
AcDbArc
 50
63.6246146768
 51
97.629438205
  0
ARC
  5
17A
330
1F
100
AcDbEntity
  8
0
  6
Continuous
 62
     7
370
    25
100
AcDbCircle
 10
1535.5600367792
 20
-105.9318347725
 30
0.0
 40
16.29605263157919
100
AcDbArc
 50
135.1144932694
 51
180.0
  0
ARC
  5
17B
330
1F
100
AcDbEntity
  8
0
  6
Continuous
 62
     7
370
    25
100
AcDbCircle
 10
1533.967931516
 20
-105.9318347725
 30
0.0
 40
16.29605263157896
100
AcDbArc
 50
0.0
 51
44.8855067306
  0
LINE
  5
17C
330
1F
100
AcDbEntity
  8
0
  6
Continuous
 62
     7
370
    25
100
AcDbLine
 10
1550.2639841476
 20
-106.9318347725
 30
0.0
 11
1550.2639841476
 21
-105.9318347725
 31
0.0
  0
LINE
  5
17D
330
1F
100
AcDbEntity
  8
0
  6
Continuous
 62
     7
370
    25
100
AcDbLine
 10
1519.2639841476
 20
-105.9318347725
 30
0.0
 11
1519.2639841476
 21
-106.9318347725
 31
0.0
  0
ARC
  5
17E
330
1F
100
AcDbEntity
  8
0
  6
Continuous
 62
     7
370
    25
100
AcDbCircle
 10
1551.045440059
 20
-105.9318347725
 30
0.0
 40
16.29605263157896
100
AcDbArc
 50
0.0
 51
44.8855067306
  0
LINE
  5
17F
330
1F
100
AcDbEntity
  8
0
  6
Continuous
 62
     7
370
    25
100
AcDbLine
 10
1567.3414926906
 20
-106.9318347725
 30
0.0
 11
1567.3414926906
 21
-105.9318347725
 31
0.0
  0
ARC
  5
180
330
1F
100
AcDbEntity
  8
0
  6
Continuous
 62
     7
370
    25
100
AcDbCircle
 10
1551.045440059
 20
412.0681652275
 30
0.0
 40
16.29605263157896
100
AcDbArc
 50
315.1144932694
 51
0.0
  0
LINE
  5
181
330
1F
100
AcDbEntity
  8
0
  6
Continuous
 62
     7
370
    25
100
AcDbLine
 10
1567.3414926906
 20
412.0681652275
 30
0.0
 11
1567.3414926906
 21
413.0681652275
 31
0.0
  0
ARC
  5
182
330
1F
100
AcDbEntity
  8
0
  6
Continuous
 62
     7
370
    25
100
AcDbCircle
 10
1533.967931516
 20
412.0681652275
 30
0.0
 40
16.29605263157919
100
AcDbArc
 50
315.1144932694
 51
0.0
  0
ARC
  5
183
330
1F
100
AcDbEntity
  8
0
  6
Continuous
 62
     7
370
    25
100
AcDbCircle
 10
1535.5600367792
 20
412.0681652275
 30
0.0
 40
16.29605263157896
100
AcDbArc
 50
180.0
 51
224.8855067306
  0
LINE
  5
184
330
1F
100
AcDbEntity
  8
0
  6
Continuous
 62
     7
370
    25
100
AcDbLine
 10
1519.2639841476
 20
413.0681652275
 30
0.0
 11
1519.2639841476
 21
412.0681652275
 31
0.0
  0
LINE
  5
185
330
1F
100
AcDbEntity
  8
0
  6
Continuous
 62
     7
370
    25
100
AcDbLine
 10
1550.2639841476
 20
412.0681652275
 30
0.0
 11
1550.2639841476
 21
413.0681652275
 31
0.0
  0
LINE
  5
186
330
1F
100
AcDbEntity
  8
0
  6
Continuous
 62
     7
370
    25
100
AcDbLine
 10
1524.0139841476
 20
400.5681652275
 30
0.0
 11
1524.0139841476
 21
399.9830152086
 31
0.0
  0
LINE
  5
187
330
1F
100
AcDbEntity
  8
0
  6
Continuous
 62
     7
370
    25
100
AcDbLine
 10
1545.5139841476
 20
399.9830152086
 30
0.0
 11
1545.5139841476
 21
400.5681652275
 31
0.0
  0
ARC
  5
188
330
1F
100
AcDbEntity
  8
0
  6
Continuous
 62
     7
370
    25
100
AcDbCircle
 10
1524.6139841476
 20
399.9830152086
 30
0.0
 40
0.5999999999999972
100
AcDbArc
 50
180.0
 51
249.724946748
  0
ARC
  5
189
330
1F
100
AcDbEntity
  8
0
  6
Continuous
 62
     7
370
    25
100
AcDbCircle
 10
1544.9139841476
 20
399.9830152086
 30
0.0
 40
0.6000000000001364
100
AcDbArc
 50
290.275053252
 51
0.0
  0
ARC
  5
18A
330
1F
100
AcDbEntity
  8
0
  6
Continuous
 62
     7
370
    25
100
AcDbCircle
 10
1534.7639841476
 20
427.4587902275
 30
0.0
 40
29.8906250000001
100
AcDbArc
 50
249.724946748
 51
290.275053252
  0
LINE
  5
18B
330
1F
100
AcDbEntity
  8
0
  6
Continuous
 62
     7
370
    25
100
AcDbLine
 10
1562.5914926906
 20
399.9830152086
 30
0.0
 11
1562.5914926906
 21
400.5681652275
 31
0.0
  0
ARC
  5
18C
330
1F
100
AcDbEntity
  8
0
  6
Continuous
 62
     7
370
    25
100
AcDbCircle
 10
1561.9914926906
 20
399.9830152086
 30
0.0
 40
0.6000000000001364
100
AcDbArc
 50
290.275053252
 51
0.0
  0
ARC
  5
18D
330
1F
100
AcDbEntity
  8
0
  6
Continuous
 62
     7
370
    25
100
AcDbCircle
 10
1551.8414926906
 20
427.4587902275
 30
0.0
 40
29.89062500000001
100
AcDbArc
 50
253.4012993085
 51
290.275053252
  0
ARC
  5
18E
330
1F
100
AcDbEntity
  8
0
  6
Continuous
 62
     7
370
    25
100
AcDbCircle
 10
1544.9139841476
 20
-93.8466847535
 30
0.0
 40
0.5999999999999851
100
AcDbArc
 50
0.0
 51
69.724946748
  0
ARC
  5
18F
330
1F
100
AcDbEntity
  8
0
  6
Continuous
 62
     7
370
    25
100
AcDbCircle
 10
1524.6139841476
 20
-93.8466847535
 30
0.0
 40
0.6000000000001364
100
AcDbArc
 50
110.275053252
 51
180.0
  0
LINE
  5
190
330
1F
100
AcDbEntity
  8
0
  6
Continuous
 62
     7
370
    25
100
AcDbLine
 10
1545.5139841476
 20
-94.4318347725
 30
0.0
 11
1545.5139841476
 21
-93.8466847535
 31
0.0
  0
LINE
  5
191
330
1F
100
AcDbEntity
  8
0
  6
Continuous
 62
     7
370
    25
100
AcDbLine
 10
1524.0139841476
 20
-93.8466847535
 30
0.0
 11
1524.0139841476
 21
-94.4318347725
 31
0.0
  0
ARC
  5
192
330
1F
100
AcDbEntity
  8
0
  6
Continuous
 62
     7
370
    25
100
AcDbCircle
 10
1534.7639841476
 20
-121.3224597725
 30
0.0
 40
29.89062499999993
100
AcDbArc
 50
69.724946748
 51
110.275053252
  0
ARC
  5
193
330
1F
100
AcDbEntity
  8
0
  6
Continuous
 62
     7
370
    25
100
AcDbCircle
 10
1561.9914926906
 20
-93.8466847535
 30
0.0
 40
0.5999999999999585
100
AcDbArc
 50
0.0
 51
69.724946748
  0
LINE
  5
194
330
1F
100
AcDbEntity
  8
0
  6
Continuous
 62
     7
370
    25
100
AcDbLine
 10
1562.5914926906
 20
-94.4318347725
 30
0.0
 11
1562.5914926906
 21
-93.8466847535
 31
0.0
  0
ARC
  5
195
330
1F
100
AcDbEntity
  8
0
  6
Continuous
 62
     7
370
    25
100
AcDbCircle
 10
1551.8414926906
 20
-121.3224597725
 30
0.0
 40
29.89062499999998
100
AcDbArc
 50
69.724946748
 51
106.5987006961
  0
ARC
  5
196
330
1F
100
AcDbEntity
  8
0
  6
Continuous
 62
     7
370
    25
100
AcDbCircle
 10
1362.4543630574
 20
409.392429941
 30
0.0
 40
12.92426470588241
100
AcDbArc
 50
241.1875354802
 51
298.8124645198
  0
ARC
  5
197
330
1F
100
AcDbEntity
  8
0
  6
Continuous
 62
     7
370
    25
100
AcDbCircle
 10
1213.7824016037
 20
-103.256099485
 30
0.0
 40
12.92426470588245
100
AcDbArc
 50
61.1875354716
 51
118.8124645284
  0
ARC
  5
198
330
1F
100
AcDbEntity
  8
0
  6
Continuous
 62
     7
370
    25
100
AcDbCircle
 10
1213.7824016037
 20
409.3924299401
 30
0.0
 40
12.92426470588253
100
AcDbArc
 50
241.1875354716
 51
298.8124645284
  0
ARC
  5
199
330
1F
100
AcDbEntity
  8
0
  6
Continuous
 62
     7
370
    25
100
AcDbCircle
 10
1362.4543630574
 20
-103.256099486
 30
0.0
 40
12.9242647058824
100
AcDbArc
 50
61.1875354802
 51
118.8124645198
  0
LINE
  5
19A
330
1F
100
AcDbEntity
  8
0
  6
Continuous
 62
     7
370
    25
100
AcDbLine
 10
1331.5260195786
 20
-136.9318347725
 30
0.0
 11
1331.5260195786
 21
-138.3109299454
 31
0.0
  0
LINE
  5
19B
330
1F
100
AcDbEntity
  8
0
  6
Continuous
 62
     7
370
    25
100
AcDbLine
 10
1344.5260195786
 20
-138.3109299454
 30
0.0
 11
1344.5260195786
 21
-136.9318347725
 31
0.0
  0
LINE
  5
19C
330
1F
100
AcDbEntity
  8
0
  6
Continuous
 62
     7
370
    25
100
AcDbLine
 10
1331.5260195786
 20
-138.3109299454
 30
0.0
 11
1332.5260195786
 21
-139.3109299454
 31
0.0
  0
LINE
  5
19D
330
1F
100
AcDbEntity
  8
0
  6
Continuous
 62
     7
370
    25
100
AcDbLine
 10
1343.5260195786
 20
-139.3109299454
 30
0.0
 11
1344.5260195786
 21
-138.3109299454
 31
0.0
  0
LINE
  5
19E
330
1F
100
AcDbEntity
  8
0
  6
Continuous
 62
     7
370
    25
100
AcDbLine
 10
1344.5260195786
 20
443.0681652275
 30
0.0
 11
1344.5260195786
 21
444.4472604004
 31
0.0
  0
LINE
  5
19F
330
1F
100
AcDbEntity
  8
0
  6
Continuous
 62
     7
370
    25
100
AcDbLine
 10
1331.5260195786
 20
444.4472604004
 30
0.0
 11
1331.5260195786
 21
443.0681652275
 31
0.0
  0
LINE
  5
1A0
330
1F
100
AcDbEntity
  8
0
  6
Continuous
 62
     7
370
    25
100
AcDbLine
 10
1344.5260195786
 20
444.4472604004
 30
0.0
 11
1343.5260195786
 21
445.4472604004
 31
0.0
  0
LINE
  5
1A1
330
1F
100
AcDbEntity
  8
0
  6
Continuous
 62
     7
370
    25
100
AcDbLine
 10
1332.5260195786
 20
445.4472604004
 30
0.0
 11
1331.5260195786
 21
444.4472604004
 31
0.0
  0
LINE
  5
1A2
330
1F
100
AcDbEntity
  8
0
  6
Continuous
 62
     7
370
    25
100
AcDbLine
 10
1259.998312483
 20
444.4472604004
 30
0.0
 11
1258.998312483
 21
445.4472604004
 31
0.0
  0
LINE
  5
1A3
330
1F
100
AcDbEntity
  8
0
  6
Continuous
 62
     7
370
    25
100
AcDbLine
 10
1247.998312483
 20
445.4472604004
 30
0.0
 11
1246.998312483
 21
444.4472604004
 31
0.0
  0
LINE
  5
1A4
330
1F
100
AcDbEntity
  8
0
  6
Continuous
 62
     7
370
    25
100
AcDbLine
 10
1259.998312483
 20
443.0681652275
 30
0.0
 11
1259.998312483
 21
444.4472604004
 31
0.0
  0
LINE
  5
1A5
330
1F
100
AcDbEntity
  8
0
  6
Continuous
 62
     7
370
    25
100
AcDbLine
 10
1246.998312483
 20
444.4472604004
 30
0.0
 11
1246.998312483
 21
443.0681652275
 31
0.0
  0
LINE
  5
1A6
330
1F
100
AcDbEntity
  8
0
  6
Continuous
 62
     7
370
    25
100
AcDbLine
 10
1246.998312483
 20
-136.9318347725
 30
0.0
 11
1246.998312483
 21
-138.3109299454
 31
0.0
  0
LINE
  5
1A7
330
1F
100
AcDbEntity
  8
0
  6
Continuous
 62
     7
370
    25
100
AcDbLine
 10
1259.998312483
 20
-138.3109299454
 30
0.0
 11
1259.998312483
 21
-136.9318347725
 31
0.0
  0
LINE
  5
1A8
330
1F
100
AcDbEntity
  8
0
  6
Continuous
 62
     7
370
    25
100
AcDbLine
 10
1246.998312483
 20
-138.3109299454
 30
0.0
 11
1247.998312483
 21
-139.3109299454
 31
0.0
  0
LINE
  5
1A9
330
1F
100
AcDbEntity
  8
0
  6
Continuous
 62
     7
370
    25
100
AcDbLine
 10
1258.998312483
 20
-139.3109299454
 30
0.0
 11
1259.998312483
 21
-138.3109299454
 31
0.0
  0
ARC
  5
1AA
330
1F
100
AcDbEntity
  8
0
  6
Continuous
 62
     7
370
    25
100
AcDbCircle
 10
1344.1760195786
 20
412.1181652275
 30
0.0
 40
0.9500000000000882
100
AcDbArc
 50
300.9040212823
 51
89.9999999999
  0
ARC
  5
1AB
330
1F
100
AcDbEntity
  8
0
  6
Continuous
 62
     7
370
    25
100
AcDbCircle
 10
1331.8760195786
 20
412.1181652275
 30
0.0
 40
0.950000000000205
100
AcDbArc
 50
90.0000000001
 51
239.0959787177
  0
ARC
  5
1AC
330
1F
100
AcDbEntity
  8
0
  6
Continuous
 62
     7
370
    25
100
AcDbCircle
 10
1338.0260195786
 20
422.3924299334
 30
0.0
 40
12.92426470588245
100
AcDbArc
 50
239.0959787177
 51
300.9040212823
  0
ARC
  5
1AD
330
1F
100
AcDbEntity
  8
0
  6
Continuous
 62
     7
370
    25
100
AcDbCircle
 10
1331.8760195786
 20
-105.9818347725
 30
0.0
 40
0.9500000000001806
100
AcDbArc
 50
120.9040212823
 51
269.9999999999
  0
ARC
  5
1AE
330
1F
100
AcDbEntity
  8
0
  6
Continuous
 62
     7
370
    25
100
AcDbCircle
 10
1344.1760195786
 20
-105.9818347725
 30
0.0
 40
0.9500000000000639
100
AcDbArc
 50
270.0000000001
 51
59.0959787177
  0
ARC
  5
1AF
330
1F
100
AcDbEntity
  8
0
  6
Continuous
 62
     7
370
    25
100
AcDbCircle
 10
1338.0260195786
 20
-116.2560994784
 30
0.0
 40
12.92426470588254
100
AcDbArc
 50
59.0959787177
 51
120.9040212823
  0
ARC
  5
1B0
330
1F
100
AcDbEntity
  8
0
  6
Continuous
 62
     7
370
    25
100
AcDbCircle
 10
1218.6524016037
 20
-128.6518347725
 30
0.0
 40
0.1200000000001182
100
AcDbArc
 50
90.0
 51
180.0
  0
ARC
  5
1B1
330
1F
100
AcDbEntity
  8
0
  6
Continuous
 62
     7
370
    25
100
AcDbCircle
 10
1208.9124016037
 20
-128.6518347725
 30
0.0
 40
0.1200000000000045
100
AcDbArc
 50
0.0
 51
90.0
  0
ARC
  5
1B2
330
1F
100
AcDbEntity
  8
0
  6
Continuous
 62
     7
370
    25
100
AcDbCircle
 10
1213.7824016037
 20
-130.7818347725
 30
0.0
 40
4.750000000000227
100
AcDbArc
 50
180.0
 51
0.0
  0
LINE
  5
1B3
330
1F
100
AcDbEntity
  8
0
  6
Continuous
 62
     7
370
    25
100
AcDbLine
 10
1209.0324016037
 20
-128.6518347725
 30
0.0
 11
1209.0324016037
 21
-130.7818347725
 31
0.0
  0
LINE
  5
1B4
330
1F
100
AcDbEntity
  8
0
  6
Continuous
 62
     7
370
    25
100
AcDbLine
 10
1218.5324016037
 20
-130.7818347725
 30
0.0
 11
1218.5324016037
 21
-128.6518347725
 31
0.0
  0
ARC
  5
1B5
330
1F
100
AcDbEntity
  8
0
  6
Continuous
 62
     7
370
    25
100
AcDbCircle
 10
1208.9124016037
 20
434.7881652276
 30
0.0
 40
0.1200000000000045
100
AcDbArc
 50
270.0
 51
0.0
  0
ARC
  5
1B6
330
1F
100
AcDbEntity
  8
0
  6
Continuous
 62
     7
370
    25
100
AcDbCircle
 10
1218.6524016037
 20
434.7881652276
 30
0.0
 40
0.1200000000001182
100
AcDbArc
 50
180.0
 51
270.0
  0
LINE
  5
1B7
330
1F
100
AcDbEntity
  8
0
  6
Continuous
 62
     7
370
    25
100
AcDbLine
 10
1218.5324016037
 20
434.7881652276
 30
0.0
 11
1218.5324016037
 21
436.9181652276
 31
0.0
  0
LINE
  5
1B8
330
1F
100
AcDbEntity
  8
0
  6
Continuous
 62
     7
370
    25
100
AcDbLine
 10
1209.0324016037
 20
436.9181652276
 30
0.0
 11
1209.0324016037
 21
434.7881652276
 31
0.0
  0
ARC
  5
1B9
330
1F
100
AcDbEntity
  8
0
  6
Continuous
 62
     7
370
    25
100
AcDbCircle
 10
1213.7824016037
 20
436.9181652276
 30
0.0
 40
4.750000000000227
100
AcDbArc
 50
0.0
 51
180.0
  0
LINE
  5
1BA
330
1F
100
AcDbEntity
  8
0
  6
Continuous
 62
     7
370
    25
100
AcDbLine
 10
1219.7824016037
 20
-123.5318347725
 30
0.0
 11
1219.7824016037
 21
-121.9318347725
 31
0.0
  0
LINE
  5
1BB
330
1F
100
AcDbEntity
  8
0
  6
Continuous
 62
     7
370
    25
100
AcDbLine
 10
1207.7824016037
 20
-121.9318347725
 30
0.0
 11
1207.7824016037
 21
-123.5318347725
 31
0.0
  0
LINE
  5
1BC
330
1F
100
AcDbEntity
  8
0
  6
Continuous
 62
     7
370
    25
100
AcDbLine
 10
1207.7824016037
 20
429.6681652276
 30
0.0
 11
1207.7824016037
 21
428.0681652276
 31
0.0
  0
LINE
  5
1BD
330
1F
100
AcDbEntity
  8
0
  6
Continuous
 62
     7
370
    25
100
AcDbLine
 10
1219.7824016037
 20
428.0681652276
 30
0.0
 11
1219.7824016037
 21
429.6681652276
 31
0.0
  0
CIRCLE
  5
1BE
330
1F
100
AcDbEntity
  8
0
  6
Continuous
 62
     7
370
    25
100
AcDbCircle
 10
1413.4543632615
 20
398.0681652276
 30
0.0
 40
7.099999999999909
  0
ARC
  5
1BF
330
1F
100
AcDbEntity
  8
0
  6
Continuous
 62
     7
370
    25
100
AcDbCircle
 10
1643.1157272811
 20
343.0681652275
 30
0.0
 40
7.09999999999989
100
AcDbArc
 50
249.2604779977
 51
136.2495147864
  0
CIRCLE
  5
1C0
330
1F
100
AcDbEntity
  8
0
  6
Continuous
 62
     7
370
    25
100
AcDbCircle
 10
1413.4543632615
 20
-91.9318347724
 30
0.0
 40
7.099999999999909
  0
ARC
  5
1C1
330
1F
100
AcDbEntity
  8
0
  6
Continuous
 62
     7
370
    25
100
AcDbCircle
 10
1563.4543632615
 20
398.0681652276
 30
0.0
 40
7.100000000000039
100
AcDbArc
 50
181.2678349731
 51
72.0527719667
  0
ARC
  5
1C2
330
1F
100
AcDbEntity
  8
0
  6
Continuous
 62
     7
370
    25
100
AcDbCircle
 10
1563.4543632615
 20
-91.9318347724
 30
0.0
 40
7.099999999999996
100
AcDbArc
 50
287.9472280372
 51
178.7321650274
  0
ARC
  5
1C3
330
1F
100
AcDbEntity
  8
0
  6
Continuous
 62
     7
370
    25
100
AcDbCircle
 10
1643.1157272811
 20
-36.9318347725
 30
0.0
 40
7.100000000000019
100
AcDbArc
 50
223.7504852134
 51
110.7395220025
  0
ARC
  5
1C4
330
1F
100
AcDbEntity
  8
0
  6
Continuous
 62
     7
370
    25
100
AcDbCircle
 10
1652.8423943056
 20
-109.9318347725
 30
0.0
 40
3.0
100
AcDbArc
 50
0.0
 51
90.0
  0
ARC
  5
1C5
330
1F
100
AcDbEntity
  8
0
  6
Continuous
 62
     7
370
    25
100
AcDbCircle
 10
1652.8423943056
 20
-118.9318347725
 30
0.0
 40
3.000000000000014
100
AcDbArc
 50
270.0
 51
0.0
  0
LINE
  5
1C6
330
1F
100
AcDbEntity
  8
0
  6
Continuous
 62
     7
370
    25
100
AcDbLine
 10
1655.8423943056
 20
-118.9318347725
 30
0.0
 11
1655.8423943056
 21
-109.9318347725
 31
0.0
  0
ARC
  5
1C7
330
1F
100
AcDbEntity
  8
0
  6
Continuous
 62
     7
370
    25
100
AcDbCircle
 10
1676.9979598857
 20
-109.9318347725
 30
0.0
 40
3.000000000000227
100
AcDbArc
 50
0.0
 51
90.0
  0
ARC
  5
1C8
330
1F
100
AcDbEntity
  8
0
  6
Continuous
 62
     7
370
    25
100
AcDbCircle
 10
1676.9979598857
 20
-118.9318347725
 30
0.0
 40
3.000000000000227
100
AcDbArc
 50
270.0
 51
0.0
  0
LINE
  5
1C9
330
1F
100
AcDbEntity
  8
0
  6
Continuous
 62
     7
370
    25
100
AcDbLine
 10
1679.9979598857
 20
-118.9318347725
 30
0.0
 11
1679.9979598857
 21
-109.9318347725
 31
0.0
  0
ARC
  5
1CA
330
1F
100
AcDbEntity
  8
0
  6
Continuous
 62
     7
370
    25
100
AcDbCircle
 10
1616.6458160521
 20
-109.9318347725
 30
0.0
 40
3.000000000000227
100
AcDbArc
 50
0.0
 51
90.0
  0
ARC
  5
1CB
330
1F
100
AcDbEntity
  8
0
  6
Continuous
 62
     7
370
    25
100
AcDbCircle
 10
1175.0784621807
 20
-109.9318347725
 30
0.0
 40
3.000000000000227
100
AcDbArc
 50
90.0
 51
180.0
  0
ARC
  5
1CC
330
1F
100
AcDbEntity
  8
0
  6
Continuous
 62
     7
370
    25
100
AcDbCircle
 10
1175.0784621807
 20
-118.9318347725
 30
0.0
 40
3.000000000000227
100
AcDbArc
 50
180.0
 51
270.0
  0
LINE
  5
1CD
330
1F
100
AcDbEntity
  8
0
  6
Continuous
 62
     7
370
    25
100
AcDbLine
 10
1172.0784621807
 20
-109.9318347725
 30
0.0
 11
1172.0784621807
 21
-118.9318347725
 31
0.0
  0
ARC
  5
1CE
330
1F
100
AcDbEntity
  8
0
  6
Continuous
 62
     7
370
    25
100
AcDbCircle
 10
1172.5007786339
 20
-118.9318347725
 30
0.0
 40
3.000000000000227
100
AcDbArc
 50
180.0
 51
270.0
  0
ARC
  5
1CF
330
1F
100
AcDbEntity
  8
0
  6
Continuous
 62
     7
370
    25
100
AcDbCircle
 10
1172.5007786339
 20
-109.9318347725
 30
0.0
 40
3.000000000000227
100
AcDbArc
 50
90.0
 51
180.0
  0
LINE
  5
1D0
330
1F
100
AcDbEntity
  8
0
  6
Continuous
 62
     7
370
    25
100
AcDbLine
 10
1169.5007786339
 20
-109.9318347725
 30
0.0
 11
1169.5007786339
 21
-118.9318347725
 31
0.0
  0
ARC
  5
1D1
330
1F
100
AcDbEntity
  8
0
  6
Continuous
 62
     7
370
    25
100
AcDbCircle
 10
1652.8423943056
 20
416.0681652275
 30
0.0
 40
3.0
100
AcDbArc
 50
270.0
 51
0.0
  0
ARC
  5
1D2
330
1F
100
AcDbEntity
  8
0
  6
Continuous
 62
     7
370
    25
100
AcDbCircle
 10
1652.8423943056
 20
425.0681652275
 30
0.0
 40
3.0
100
AcDbArc
 50
0.0
 51
90.0
  0
LINE
  5
1D3
330
1F
100
AcDbEntity
  8
0
  6
Continuous
 62
     7
370
    25
100
AcDbLine
 10
1655.8423943056
 20
416.0681652275
 30
0.0
 11
1655.8423943056
 21
425.0681652275
 31
0.0
  0
ARC
  5
1D4
330
1F
100
AcDbEntity
  8
0
  6
Continuous
 62
     7
370
    25
100
AcDbCircle
 10
1676.9979598857
 20
425.0681652275
 30
0.0
 40
3.000000000000227
100
AcDbArc
 50
0.0
 51
90.0
  0
ARC
  5
1D5
330
1F
100
AcDbEntity
  8
0
  6
Continuous
 62
     7
370
    25
100
AcDbCircle
 10
1676.9979598857
 20
416.0681652275
 30
0.0
 40
3.000000000000227
100
AcDbArc
 50
270.0
 51
0.0
  0
LINE
  5
1D6
330
1F
100
AcDbEntity
  8
0
  6
Continuous
 62
     7
370
    25
100
AcDbLine
 10
1679.9979598857
 20
416.0681652275
 30
0.0
 11
1679.9979598857
 21
425.0681652275
 31
0.0
  0
ARC
  5
1D7
330
1F
100
AcDbEntity
  8
0
  6
Continuous
 62
     7
370
    25
100
AcDbCircle
 10
1616.6458160521
 20
416.0681652275
 30
0.0
 40
3.000000000000227
100
AcDbArc
 50
270.0
 51
0.0
  0
ARC
  5
1D8
330
1F
100
AcDbEntity
  8
0
  6
Continuous
 62
     7
370
    25
100
AcDbCircle
 10
1175.0784621807
 20
416.0681652275
 30
0.0
 40
3.000000000000227
100
AcDbArc
 50
180.0
 51
270.0
  0
ARC
  5
1D9
330
1F
100
AcDbEntity
  8
0
  6
Continuous
 62
     7
370
    25
100
AcDbCircle
 10
1175.0784621807
 20
425.0681652275
 30
0.0
 40
3.000000000000227
100
AcDbArc
 50
90.0
 51
180.0
  0
LINE
  5
1DA
330
1F
100
AcDbEntity
  8
0
  6
Continuous
 62
     7
370
    25
100
AcDbLine
 10
1172.0784621807
 20
425.0681652275
 30
0.0
 11
1172.0784621807
 21
416.0681652275
 31
0.0
  0
ARC
  5
1DB
330
1F
100
AcDbEntity
  8
0
  6
Continuous
 62
     7
370
    25
100
AcDbCircle
 10
1172.5007786339
 20
425.0681652275
 30
0.0
 40
3.000000000000227
100
AcDbArc
 50
90.0
 51
180.0
  0
ARC
  5
1DC
330
1F
100
AcDbEntity
  8
0
  6
Continuous
 62
     7
370
    25
100
AcDbCircle
 10
1172.5007786339
 20
416.0681652275
 30
0.0
 40
3.000000000000227
100
AcDbArc
 50
180.0
 51
270.0
  0
LINE
  5
1DD
330
1F
100
AcDbEntity
  8
0
  6
Continuous
 62
     7
370
    25
100
AcDbLine
 10
1169.5007786339
 20
425.0681652275
 30
0.0
 11
1169.5007786339
 21
416.0681652275
 31
0.0
  0
ARC
  5
1DE
330
1F
100
AcDbEntity
  8
0
  6
Continuous
 62
     7
370
    25
100
AcDbCircle
 10
1404.6075202185
 20
431.0681639844
 30
0.0
 40
2.999998759388185
100
AcDbArc
 50
270.1159371848
 51
0.1075303068
  0
ARC
  5
1DF
330
1F
100
AcDbEntity
  8
0
  6
Continuous
 62
     7
370
    25
100
AcDbCircle
 10
1404.6075202258
 20
440.0681664834
 30
0.0
 40
2.999998746669657
100
AcDbArc
 50
0.1408983324
 51
89.8840629541
  0
LINE
  5
1E0
330
1F
100
AcDbEntity
  8
0
  6
Continuous
 62
     7
370
    25
100
AcDbLine
 10
1407.6075609074
 20
431.0681652275
 30
0.0
 11
1407.6075609074
 21
440.0681652275
 31
0.0
  0
ARC
  5
1E1
330
1F
100
AcDbEntity
  8
0
  6
Continuous
 62
     7
370
    25
100
AcDbCircle
 10
1237.0380723324
 20
431.0681652275
 30
0.0
 40
3.0
100
AcDbArc
 50
180.0
 51
270.0
  0
ARC
  5
1E2
330
1F
100
AcDbEntity
  8
0
  6
Continuous
 62
     7
370
    25
100
AcDbCircle
 10
1237.0380723324
 20
440.0681652275
 30
0.0
 40
3.0
100
AcDbArc
 50
90.0
 51
180.0
  0
LINE
  5
1E3
330
1F
100
AcDbEntity
  8
0
  6
Continuous
 62
     7
370
    25
100
AcDbLine
 10
1234.0380723324
 20
440.0681652275
 30
0.0
 11
1234.0380723324
 21
431.0681652275
 31
0.0
  0
ARC
  5
1E4
330
1F
100
AcDbEntity
  8
0
  6
Continuous
 62
     7
370
    25
100
AcDbCircle
 10
1404.6075202258
 20
-124.9318335166
 30
0.0
 40
2.999998746670112
100
AcDbArc
 50
0.1408983324
 51
89.8840629541
  0
ARC
  5
1E5
330
1F
100
AcDbEntity
  8
0
  6
Continuous
 62
     7
370
    25
100
AcDbCircle
 10
1404.6075202185
 20
-133.9318360156
 30
0.0
 40
2.9999987593881
100
AcDbArc
 50
270.1159371848
 51
0.1075303068
  0
LINE
  5
1E6
330
1F
100
AcDbEntity
  8
0
  6
Continuous
 62
     7
370
    25
100
AcDbLine
 10
1407.6075609074
 20
-133.9318347725
 30
0.0
 11
1407.6075609074
 21
-124.9318347725
 31
0.0
  0
ARC
  5
1E7
330
1F
100
AcDbEntity
  8
0
  6
Continuous
 62
     7
370
    25
100
AcDbCircle
 10
1237.0380723324
 20
-124.9318347725
 30
0.0
 40
3.000000000000014
100
AcDbArc
 50
90.0
 51
180.0
  0
ARC
  5
1E8
330
1F
100
AcDbEntity
  8
0
  6
Continuous
 62
     7
370
    25
100
AcDbCircle
 10
1237.0380723324
 20
-133.9318347725
 30
0.0
 40
3.0
100
AcDbArc
 50
180.0
 51
270.0
  0
LINE
  5
1E9
330
1F
100
AcDbEntity
  8
0
  6
Continuous
 62
     7
370
    25
100
AcDbLine
 10
1234.0380723324
 20
-124.9318347725
 30
0.0
 11
1234.0380723324
 21
-133.9318347725
 31
0.0
  0
ARC
  5
1EA
330
1F
100
AcDbEntity
  8
0
  6
Continuous
 62
     7
370
    25
100
AcDbCircle
 10
1419.3457784637
 20
-123.7107184423
 30
0.0
 40
1.979046891300559
100
AcDbArc
 50
89.2641297222
 51
181.7260508109
  0
LINE
  5
1EB
330
1F
100
AcDbEntity
  8
0
  6
Continuous
 62
     7
370
    25
100
AcDbLine
 10
1417.3560031281
 20
-123.7470270195
 30
0.0
 11
1417.3560031281
 21
-199.7166425255
 31
0.0
  0
ARC
  5
1EC
330
1F
100
AcDbEntity
  8
0
  6
Continuous
 62
     7
370
    25
100
AcDbCircle
 10
1419.3420587938
 20
-199.7691649762
 30
0.0
 40
1.962886056174032
100
AcDbArc
 50
177.827787582
 51
270.8505152092
  0
LINE
  5
1ED
330
1F
100
AcDbEntity
  8
0
  6
Continuous
 62
     7
370
    25
100
AcDbLine
 10
1417.3560031281
 20
505.8529729806
 30
0.0
 11
1417.3560031281
 21
429.8833574746
 31
0.0
  0
ARC
  5
1EE
330
1F
100
AcDbEntity
  8
0
  6
Continuous
 62
     7
370
    25
100
AcDbCircle
 10
1419.3457784637
 20
505.8892815578
 30
0.0
 40
1.979046891300589
100
AcDbArc
 50
89.2641297222
 51
181.7260508109
  0
ARC
  5
1EF
330
1F
100
AcDbEntity
  8
0
  6
Continuous
 62
     7
370
    25
100
AcDbCircle
 10
1419.3420587938
 20
429.8308350238
 30
0.0
 40
1.96288605617389
100
AcDbArc
 50
177.827787582
 51
270.8505152092
  0
LINE
  5
1F0
330
1F
100
AcDbEntity
  8
0
  6
Continuous
 62
     7
370
    25
100
AcDbLine
 10
1476.4719110126
 20
-121.7318347725
 30
0.0
 11
1476.4719110126
 21
427.8681652276
 31
0.0
  0
LINE
  5
1F1
330
1F
100
AcDbEntity
  8
0
  6
Continuous
 62
     7
370
    25
100
AcDbLine
 10
1449.5719110126
 20
427.8681652276
 30
0.0
 11
1449.5719110126
 21
-121.7318347725
 31
0.0
  0
ELLIPSE
  5
1F2
330
1F
100
AcDbEntity
  8
0
  6
Continuous
 62
     7
370
    25
100
AcDbEllipse
 10
1936.7322496924
 20
431.2681652275
 30
0.0
 11
3.249365158034152
 21
0.0
 31
0.0
210
0.0
220
0.0
230
1.0
 40
0.984807753
 41
4.712388980384704
 42
6.283185307179586
  0
LINE
  5
1F3
330
1F
100
AcDbEntity
  8
0
  6
Continuous
 62
     7
370
    25
100
AcDbLine
 10
1495.4224164541
 20
428.0681652275
 30
0.0
 11
1508.7663443141
 21
428.0681652275
 31
0.0
  0
LINE
  5
1F4
330
1F
100
AcDbEntity
  8
0
  6
Continuous
 62
     7
370
    25
100
AcDbLine
 10
1676.9979598857
 20
428.0681652275
 30
0.0
 11
1936.7322496924
 21
428.0681652275
 31
0.0
  0
LWPOLYLINE
  5
1F5
330
1F
100
AcDbEntity
  8
0
  6
Continuous
 62
     7
370
    25
100
AcDbPolyline
 90
        3
 70
   128
 43
0.0
 10
1494.2817856073
 20
507.8681652276
 10
1493.7999547824
 20
508.0066781248
 10
1493.1851501051
 20
508.0681652275
  0
LINE
  5
1F6
330
1F
100
AcDbEntity
  8
0
  6
Continuous
 62
     7
370
    25
100
AcDbLine
 10
1493.1851501051
 20
508.0681652275
 30
0.0
 11
1936.7322496924
 21
508.0681652275
 31
0.0
  0
ELLIPSE
  5
1F7
330
1F
100
AcDbEntity
  8
0
  6
Continuous
 62
     7
370
    25
100
AcDbEllipse
 10
1936.7322496924
 20
504.8681652275
 30
0.0
 11
3.249365158034152
 21
0.0
 31
0.0
210
0.0
220
0.0
230
1.0
 40
0.984807753
 41
0.0
 42
1.570796326794827
  0
LWPOLYLINE
  5
1F8
330
1F
100
AcDbEntity
  8
0
  6
Continuous
 62
     7
370
    25
100
AcDbPolyline
 90
        3
 70
   128
 43
0.0
 10
1420.7032994834
 20
508.0681652275
 10
1420.0884948061
 20
508.0066781248
 10
1419.6066639812
 20
507.8681652276
  0
LINE
  5
1F9
330
1F
100
AcDbEntity
  8
0
  6
Continuous
 62
     7
370
    25
100
AcDbLine
 10
1493.1851501051
 20
508.0681652275
 30
0.0
 11
1420.7032994834
 21
508.0681652275
 31
0.0
  0
LINE
  5
1FA
330
1F
100
AcDbEntity
  8
0
  6
Continuous
 62
     7
370
    25
100
AcDbLine
 10
1939.9816148504
 20
431.2681652275
 30
0.0
 11
1939.9816148504
 21
504.8681652275
 31
0.0
  0
LWPOLYLINE
  5
1FB
330
1F
100
AcDbEntity
  8
0
  6
Continuous
 62
     7
370
    25
100
AcDbPolyline
 90
        3
 70
   128
 43
0.0
 10
1493.1851501051
 20
-201.9318347725
 10
1493.7999547824
 20
-201.8703476698
 10
1494.2817856073
 20
-201.7318347725
  0
LINE
  5
1FC
330
1F
100
AcDbEntity
  8
0
  6
Continuous
 62
     7
370
    25
100
AcDbLine
 10
1420.7032994834
 20
-201.9318347725
 30
0.0
 11
1493.1851501051
 21
-201.9318347725
 31
0.0
  0
LWPOLYLINE
  5
1FD
330
1F
100
AcDbEntity
  8
0
  6
Continuous
 62
     7
370
    25
100
AcDbPolyline
 90
        3
 70
   128
 43
0.0
 10
1419.6066639812
 20
-201.7318347725
 10
1420.0884948061
 20
-201.8703476698
 10
1420.7032994834
 20
-201.9318347725
  0
ELLIPSE
  5
1FE
330
1F
100
AcDbEntity
  8
0
  6
Continuous
 62
     7
370
    25
100
AcDbEllipse
 10
1936.7322496924
 20
-198.7318347725
 30
0.0
 11
3.249365158034379
 21
0.0
 31
0.0
210
0.0
220
0.0
230
1.0
 40
0.984807753
 41
4.712388980384704
 42
6.283185307179586
  0
LINE
  5
1FF
330
1F
100
AcDbEntity
  8
0
  6
Continuous
 62
     7
370
    25
100
AcDbLine
 10
1493.1851501051
 20
-201.9318347725
 30
0.0
 11
1936.7322496924
 21
-201.9318347725
 31
0.0
  0
LINE
  5
200
330
1F
100
AcDbEntity
  8
0
  6
Continuous
 62
     7
370
    25
100
AcDbLine
 10
1495.4224164541
 20
-121.9318347725
 30
0.0
 11
1508.7663443141
 21
-121.9318347725
 31
0.0
  0
LINE
  5
201
330
1F
100
AcDbEntity
  8
0
  6
Continuous
 62
     7
370
    25
100
AcDbLine
 10
1676.9979598857
 20
-121.9318347725
 30
0.0
 11
1936.7322496924
 21
-121.9318347725
 31
0.0
  0
ELLIPSE
  5
202
330
1F
100
AcDbEntity
  8
0
  6
Continuous
 62
     7
370
    25
100
AcDbEllipse
 10
1936.7322496924
 20
-125.1318347725
 30
0.0
 11
3.249365158034379
 21
0.0
 31
0.0
210
0.0
220
0.0
230
1.0
 40
0.984807753
 41
0.0
 42
1.570796326794827
  0
LINE
  5
203
330
1F
100
AcDbEntity
  8
0
  6
Continuous
 62
     7
370
    25
100
AcDbLine
 10
1939.9816148504
 20
-198.7318347725
 30
0.0
 11
1939.9816148504
 21
-125.1318347725
 31
0.0
  0
ARC
  5
204
330
1F
100
AcDbEntity
  8
0
  6
Continuous
 62
     7
370
    25
100
AcDbCircle
 10
1939.4251637254
 20
738.0681652275
 30
0.0
 40
1500.0
100
AcDbArc
 50
0.0
 51
90.0
  0
LINE
  5
205
330
1F
100
AcDbEntity
  8
0
  6
Continuous
 62
     7
370
    25
100
AcDbLine
 10
198.0515533129
 20
1913.0681652275
 30
0.0
 11
-242.4726876504
 21
1913.0681652275
 31
0.0
  0
ARC
  5
206
330
1F
100
AcDbEntity
  8
0
  6
Continuous
 62
     7
370
    25
100
AcDbCircle
 10
1130.4543632615
 20
738.0681652275
 30
0.0
 40
1500.000000000001
100
AcDbArc
 50
90.0
 51
128.4332063409
  0
LINE
  5
207
330
1F
100
AcDbEntity
  8
0
  6
Continuous
 62
     7
370
    25
100
AcDbLine
 10
-1360.5066764003
 20
1413.0681652275
 30
0.0
 11
-2273.7039045646
 21
1413.0681652275
 31
0.0
  0
ARC
  5
208
330
1F
100
AcDbEntity
  8
0
  6
Continuous
 62
     7
370
    25
100
AcDbCircle
 10
-2273.7039045646
 20
413.0681652275
 30
0.0
 40
1000.0
100
AcDbArc
 50
90.0
 51
180.0
  0
LINE
  5
209
330
1F
100
AcDbEntity
  8
0
  6
Continuous
 62
     7
370
    25
100
AcDbLine
 10
-3273.7039045646
 20
413.0681652275
 30
0.0
 11
-3273.7039045646
 21
-106.9318347725
 31
0.0
  0
ARC
  5
20A
330
1F
100
AcDbEntity
  8
0
  6
Continuous
 62
     7
370
    25
100
AcDbCircle
 10
-2273.7039045646
 20
-106.9318347725
 30
0.0
 40
1000.0
100
AcDbArc
 50
180.0
 51
270.0
  0
LINE
  5
20B
330
1F
100
AcDbEntity
  8
0
  6
Continuous
 62
     7
370
    25
100
AcDbLine
 10
-2273.7039045646
 20
-1106.9318347725
 30
0.0
 11
-1360.5066764003
 21
-1106.9318347725
 31
0.0
  0
ARC
  5
20C
330
1F
100
AcDbEntity
  8
0
  6
Continuous
 62
     7
370
    25
100
AcDbCircle
 10
-242.4726876504
 20
-106.9318347725
 30
0.0
 40
1500.0
100
AcDbArc
 50
221.8103148958
 51
270.0
  0
LINE
  5
20D
330
1F
100
AcDbEntity
  8
0
  6
Continuous
 62
     7
370
    25
100
AcDbLine
 10
-242.4726876504
 20
-1606.9318347725
 30
0.0
 11
198.0515533129
 21
-1606.9318347725
 31
0.0
  0
ARC
  5
20E
330
1F
100
AcDbEntity
  8
0
  6
Continuous
 62
     7
370
    25
100
AcDbCircle
 10
1130.4543632615
 20
-431.9318347725
 30
0.0
 40
1500.0
100
AcDbArc
 50
231.5667936591
 51
270.0
  0
ARC
  5
20F
330
1F
100
AcDbEntity
  8
0
  6
Continuous
 62
     7
370
    25
100
AcDbCircle
 10
-242.4726876504
 20
413.0681652275
 30
0.0
 40
1500.0
100
AcDbArc
 50
90.0
 51
138.1896851042
  0
ARC
  5
210
330
1F
100
AcDbEntity
  8
0
  6
Continuous
 62
     7
370
    25
100
AcDbCircle
 10
1939.4251637254
 20
-431.9318347725
 30
0.0
 40
1500.0
100
AcDbArc
 50
270.0
 51
0.0
  0
LINE
  5
211
330
1F
100
AcDbEntity
  8
0
  6
Continuous
 62
     7
370
    25
100
AcDbLine
 10
3439.4251637254
 20
738.0681652275
 30
0.0
 11
3439.4251637254
 21
-431.9318347725
 31
0.0
  0
LINE
  5
212
330
1F
100
AcDbEntity
  8
0
  6
Continuous
 62
     7
370
    25
100
AcDbLine
 10
1130.4543632615
 20
-1931.9318347725
 30
0.0
 11
1939.4251637254
 21
-1931.9318347725
 31
0.0
  0
LINE
  5
213
330
1F
100
AcDbEntity
  8
0
  6
Continuous
 62
     7
370
    25
100
AcDbLine
 10
1130.4543632615
 20
2238.0681652275
 30
0.0
 11
1939.4251637254
 21
2238.0681652275
 31
0.0
  0
LWPOLYLINE
  5
214
330
1F
100
AcDbEntity
  8
0
  6
Continuous
 62
     7
370
    25
100
AcDbPolyline
 90
        9
 70
   128
 43
0.0
 10
602.8818972662
 20
413.0681652275
 10
602.5215684798
 20
413.0105210687
 10
602.1750869266
 20
412.8398038251
 10
601.8557676983
 20
412.5625740644
 10
601.5758820539
 20
412.1894855711
 10
601.3461858416
 20
411.7348759266
 10
601.1755061582
 20
411.2162155246
 10
601.0704021281
 20
410.6534361936
 10
601.0349128402
 20
410.0681652275
  0
LINE
  5
215
330
1F
100
AcDbEntity
  8
0
  6
Continuous
 62
     7
370
    25
100
AcDbLine
 10
-583.1269540174
 20
410.0681652275
 30
0.0
 11
601.0349128402
 21
410.0681652275
 31
0.0
  0
LWPOLYLINE
  5
216
330
1F
100
AcDbEntity
  8
0
  6
Continuous
 62
     7
370
    25
100
AcDbPolyline
 90
        9
 70
   128
 43
0.0
 10
-581.2799695915
 20
413.0681652275
 10
-581.6402983779
 20
413.0105210687
 10
-581.9867799311
 20
412.8398038251
 10
-582.3060991594
 20
412.5625740644
 10
-582.5859848038
 20
412.1894855711
 10
-582.8156810161
 20
411.7348759266
 10
-582.9863606995
 20
411.2162155246
 10
-583.0914647296
 20
410.6534361936
 10
-583.1269540174
 20
410.0681652275
  0
LINE
  5
217
330
1F
100
AcDbEntity
  8
0
  6
Continuous
 62
     7
370
    25
100
AcDbLine
 10
602.8818972662
 20
413.0681652275
 30
0.0
 11
-581.2799695915
 21
413.0681652275
 31
0.0
  0
LWPOLYLINE
  5
218
330
1F
100
AcDbEntity
  8
0
  6
Continuous
 62
     7
370
    25
100
AcDbPolyline
 90
        9
 70
   128
 43
0.0
 10
601.0349128402
 20
401.0681652275
 10
601.0704021281
 20
400.4828942615
 10
601.1755061582
 20
399.9201149304
 10
601.3461858416
 20
399.4014545285
 10
601.5758820539
 20
398.946844884
 10
601.8557676983
 20
398.5737563906
 10
602.1750869266
 20
398.29652663
 10
602.5215684798
 20
398.1258093863
 10
602.8818972662
 20
398.0681652275
  0
LINE
  5
219
330
1F
100
AcDbEntity
  8
0
  6
Continuous
 62
     7
370
    25
100
AcDbLine
 10
601.0349128402
 20
410.0681652275
 30
0.0
 11
601.0349128402
 21
401.0681652275
 31
0.0
  0
LWPOLYLINE
  5
21A
330
1F
100
AcDbEntity
  8
0
  6
Continuous
 62
     7
370
    25
100
AcDbPolyline
 90
        9
 70
   128
 43
0.0
 10
-583.1269540174
 20
401.0681652275
 10
-583.0914647296
 20
400.4828942615
 10
-582.9863606995
 20
399.9201149304
 10
-582.8156810161
 20
399.4014545285
 10
-582.5859848038
 20
398.946844884
 10
-582.3060991594
 20
398.5737563906
 10
-581.9867799311
 20
398.29652663
 10
-581.6402983779
 20
398.1258093863
 10
-581.2799695915
 20
398.0681652275
  0
LINE
  5
21B
330
1F
100
AcDbEntity
  8
0
  6
Continuous
 62
     7
370
    25
100
AcDbLine
 10
601.0349128402
 20
401.0681652275
 30
0.0
 11
-583.1269540174
 21
401.0681652275
 31
0.0
  0
LINE
  5
21C
330
1F
100
AcDbEntity
  8
0
  6
Continuous
 62
     7
370
    25
100
AcDbLine
 10
-581.2799695915
 20
398.0681652275
 30
0.0
 11
602.8818972662
 21
398.0681652275
 31
0.0
  0
LINE
  5
21D
330
1F
100
AcDbEntity
  8
0
  6
Continuous
 62
     7
370
    25
100
AcDbLine
 10
-583.1269540174
 20
401.0681652275
 30
0.0
 11
-583.1269540174
 21
410.0681652275
 31
0.0
  0
LINE
  5
21E
330
1F
100
AcDbEntity
  8
0
  6
Continuous
 62
     7
370
    25
100
AcDbLine
 10
-1126.3086836313
 20
410.0681652275
 30
0.0
 11
-583.1269540174
 21
410.0681652275
 31
0.0
  0
LINE
  5
21F
330
1F
100
AcDbEntity
  8
0
  6
Continuous
 62
     7
370
    25
100
AcDbLine
 10
-583.1269540174
 20
401.0681652275
 30
0.0
 11
-1126.3086836313
 21
401.0681652275
 31
0.0
  0
LINE
  5
220
330
1F
100
AcDbEntity
  8
0
  6
Continuous
 62
     7
370
    25
100
AcDbLine
 10
-1126.3086836313
 20
401.0681652275
 30
0.0
 11
-1126.3086836313
 21
410.0681652275
 31
0.0
  0
ARC
  5
221
330
1F
100
AcDbEntity
  8
0
  6
Continuous
 62
     7
370
    25
100
AcDbCircle
 10
-1119.8798903045
 20
400.3293026045
 30
0.0
 40
6.471112857450794
100
AcDbArc
 50
173.4437496188
 51
200.4518544399
  0
LINE
  5
222
330
1F
100
AcDbEntity
  8
0
  6
Continuous
 62
     7
370
    25
100
AcDbLine
 10
-1125.9431039224
 20
398.0681652275
 30
0.0
 11
-581.2799695915
 21
398.0681652275
 31
0.0
  0
ARC
  5
223
330
1F
100
AcDbEntity
  8
0
  6
Continuous
 62
     7
370
    25
100
AcDbCircle
 10
-1119.8798903045
 20
410.8070278506
 30
0.0
 40
6.47111285743699
100
AcDbArc
 50
159.5481455601
 51
186.5562503812
  0
LINE
  5
224
330
1F
100
AcDbEntity
  8
0
  6
Continuous
 62
     7
370
    25
100
AcDbLine
 10
-581.2799695915
 20
413.0681652275
 30
0.0
 11
-1125.9431039224
 21
413.0681652275
 31
0.0
  0
LINE
  5
225
330
1F
100
AcDbEntity
  8
0
  6
Continuous
 62
     7
370
    25
100
AcDbLine
 10
-1135.1280256155
 20
410.0681652275
 30
0.0
 11
-1126.3086836313
 21
410.0681652275
 31
0.0
  0
ARC
  5
226
330
1F
100
AcDbEntity
  8
0
  6
Continuous
 62
     7
370
    25
100
AcDbCircle
 10
-1128.6992322888
 20
410.8070278506
 30
0.0
 40
6.471112857449677
100
AcDbArc
 50
159.5481455601
 51
186.5562503812
  0
LINE
  5
227
330
1F
100
AcDbEntity
  8
0
  6
Continuous
 62
     7
370
    25
100
AcDbLine
 10
-1125.9431039224
 20
413.0681652275
 30
0.0
 11
-1134.7624459067
 21
413.0681652275
 31
0.0
  0
LINE
  5
228
330
1F
100
AcDbEntity
  8
0
  6
Continuous
 62
     7
370
    25
100
AcDbLine
 10
-1126.3086836313
 20
401.0681652275
 30
0.0
 11
-1135.1280256155
 21
401.0681652275
 31
0.0
  0
LINE
  5
229
330
1F
100
AcDbEntity
  8
0
  6
Continuous
 62
     7
370
    25
100
AcDbLine
 10
-1135.1280256155
 20
401.0681652275
 30
0.0
 11
-1135.1280256155
 21
410.0681652275
 31
0.0
  0
ARC
  5
22A
330
1F
100
AcDbEntity
  8
0
  6
Continuous
 62
     7
370
    25
100
AcDbCircle
 10
-1128.6992322888
 20
400.3293026045
 30
0.0
 40
6.47111285744991
100
AcDbArc
 50
173.4437496188
 51
200.4518544399
  0
LINE
  5
22B
330
1F
100
AcDbEntity
  8
0
  6
Continuous
 62
     7
370
    25
100
AcDbLine
 10
-1134.7624459067
 20
398.0681652275
 30
0.0
 11
-1125.9431039224
 21
398.0681652275
 31
0.0
  0
LINE
  5
22C
330
1F
100
AcDbEntity
  8
0
  6
Continuous
 62
     7
370
    25
100
AcDbLine
 10
-1134.7624459067
 20
413.0681652275
 30
0.0
 11
-1270.7038932305
 21
413.0681652275
 31
0.0
  0
LINE
  5
22D
330
1F
100
AcDbEntity
  8
0
  6
Continuous
 62
     7
370
    25
100
AcDbLine
 10
-1270.7038932305
 20
398.0681652275
 30
0.0
 11
-1134.7624459067
 21
398.0681652275
 31
0.0
  0
LINE
  5
22E
330
1F
100
AcDbEntity
  8
0
  6
Continuous
 62
     7
370
    25
100
AcDbLine
 10
1347.4543632615
 20
410.0681652275
 30
0.0
 11
1387.4543632615
 21
410.0681652275
 31
0.0
  0
LINE
  5
22F
330
1F
100
AcDbEntity
  8
0
  6
Continuous
 62
     7
370
    25
100
AcDbLine
 10
1347.4543632615
 20
413.0681652275
 30
0.0
 11
1347.4543632615
 21
410.0681652275
 31
0.0
  0
ARC
  5
230
330
1F
100
AcDbEntity
  8
0
  6
Continuous
 62
     7
370
    25
100
AcDbCircle
 10
1384.4543632615
 20
410.0681652275
 30
0.0
 40
3.0
100
AcDbArc
 50
0.0
 51
90.0
  0
LINE
  5
231
330
1F
100
AcDbEntity
  8
0
  6
Continuous
 62
     7
370
    25
100
AcDbLine
 10
1296.9971255944
 20
398.0681652275
 30
0.0
 11
1319.7766001815
 21
398.0681652275
 31
0.0
  0
LWPOLYLINE
  5
232
330
1F
100
AcDbEntity
  8
0
  6
Continuous
 62
     7
370
    25
100
AcDbPolyline
 90
        9
 70
   128
 43
0.0
 10
1295.1501411684
 20
401.0681652275
 10
1295.1856304563
 20
400.4828942615
 10
1295.2907344864
 20
399.9201149304
 10
1295.4614141698
 20
399.4014545285
 10
1295.6911103821
 20
398.946844884
 10
1295.9709960265
 20
398.5737563906
 10
1296.2903152548
 20
398.29652663
 10
1296.636796808
 20
398.1258093863
 10
1296.9971255944
 20
398.0681652275
  0
LINE
  5
233
330
1F
100
AcDbEntity
  8
0
  6
Continuous
 62
     7
370
    25
100
AcDbLine
 10
1319.7766001815
 20
401.0681652275
 30
0.0
 11
1295.1501411684
 21
401.0681652275
 31
0.0
  0
LINE
  5
234
330
1F
100
AcDbEntity
  8
0
  6
Continuous
 62
     7
370
    25
100
AcDbLine
 10
1319.7766001815
 20
401.0681652275
 30
0.0
 11
1319.7766001815
 21
398.0681652275
 31
0.0
  0
LINE
  5
235
330
1F
100
AcDbEntity
  8
0
  6
Continuous
 62
     7
370
    25
100
AcDbLine
 10
1347.4543632615
 20
401.0681652275
 30
0.0
 11
1347.4543632615
 21
410.0681652275
 31
0.0
  0
LINE
  5
236
330
1F
100
AcDbEntity
  8
0
  6
Continuous
 62
     7
370
    25
100
AcDbLine
 10
1347.4543632615
 20
401.0681652275
 30
0.0
 11
1319.7766001815
 21
401.0681652275
 31
0.0
  0
LINE
  5
237
330
1F
100
AcDbEntity
  8
0
  6
Continuous
 62
     7
370
    25
100
AcDbLine
 10
1319.7766001815
 20
401.0681652275
 30
0.0
 11
1319.7766001815
 21
410.0681652275
 31
0.0
  0
LINE
  5
238
330
1F
100
AcDbEntity
  8
0
  6
Continuous
 62
     7
370
    25
100
AcDbLine
 10
1295.1501411684
 20
410.0681652275
 30
0.0
 11
1319.7766001815
 21
410.0681652275
 31
0.0
  0
LINE
  5
239
330
1F
100
AcDbEntity
  8
0
  6
Continuous
 62
     7
370
    25
100
AcDbLine
 10
1295.1501411684
 20
401.0681652275
 30
0.0
 11
1295.1501411684
 21
410.0681652275
 31
0.0
  0
LINE
  5
23A
330
1F
100
AcDbEntity
  8
0
  6
Continuous
 62
     7
370
    25
100
AcDbLine
 10
1387.4543632615
 20
401.0681652275
 30
0.0
 11
1387.4543632615
 21
410.0681652275
 31
0.0
  0
LINE
  5
23B
330
1F
100
AcDbEntity
  8
0
  6
Continuous
 62
     7
370
    25
100
AcDbLine
 10
1387.4543632615
 20
401.0681652275
 30
0.0
 11
1347.4543632615
 21
401.0681652275
 31
0.0
  0
LINE
  5
23C
330
1F
100
AcDbEntity
  8
0
  6
Continuous
 62
     7
370
    25
100
AcDbLine
 10
1319.7766001815
 20
398.0681652275
 30
0.0
 11
1347.4543632615
 21
398.0681652275
 31
0.0
  0
LINE
  5
23D
330
1F
100
AcDbEntity
  8
0
  6
Continuous
 62
     7
370
    25
100
AcDbLine
 10
1347.4543632615
 20
401.0681652275
 30
0.0
 11
1347.4543632615
 21
398.0681652275
 31
0.0
  0
LWPOLYLINE
  5
23E
330
1F
100
AcDbEntity
  8
0
  6
Continuous
 62
     7
370
    25
100
AcDbPolyline
 90
        9
 70
   128
 43
0.0
 10
1296.9971255944
 20
413.0681652275
 10
1296.636796808
 20
413.0105210687
 10
1296.2903152548
 20
412.8398038251
 10
1295.9709960265
 20
412.5625740644
 10
1295.6911103821
 20
412.1894855711
 10
1295.4614141698
 20
411.7348759266
 10
1295.2907344864
 20
411.2162155246
 10
1295.1856304563
 20
410.6534361936
 10
1295.1501411684
 20
410.0681652275
  0
LINE
  5
23F
330
1F
100
AcDbEntity
  8
0
  6
Continuous
 62
     7
370
    25
100
AcDbLine
 10
1319.7766001815
 20
413.0681652275
 30
0.0
 11
1319.7766001815
 21
410.0681652275
 31
0.0
  0
LINE
  5
240
330
1F
100
AcDbEntity
  8
0
  6
Continuous
 62
     7
370
    25
100
AcDbLine
 10
1347.4543632615
 20
398.0681652275
 30
0.0
 11
1384.4543632615
 21
398.0681652275
 31
0.0
  0
ARC
  5
241
330
1F
100
AcDbEntity
  8
0
  6
Continuous
 62
     7
370
    25
100
AcDbCircle
 10
1384.4543632615
 20
401.0681652275
 30
0.0
 40
3.0
100
AcDbArc
 50
270.0
 51
0.0
  0
LINE
  5
242
330
1F
100
AcDbEntity
  8
0
  6
Continuous
 62
     7
370
    25
100
AcDbLine
 10
1295.1501411684
 20
401.0681652275
 30
0.0
 11
601.0349128403
 21
401.0681652275
 31
0.0
  0
LWPOLYLINE
  5
243
330
1F
100
AcDbEntity
  8
0
  6
Continuous
 62
     7
370
    25
100
AcDbPolyline
 90
        9
 70
   128
 43
0.0
 10
601.0349128403
 20
401.0681652275
 10
601.0704021281
 20
400.4828942615
 10
601.1755061582
 20
399.9201149304
 10
601.3461858416
 20
399.4014545285
 10
601.5758820539
 20
398.946844884
 10
601.8557676983
 20
398.5737563906
 10
602.1750869266
 20
398.29652663
 10
602.5215684798
 20
398.1258093863
 10
602.8818972662
 20
398.0681652275
  0
LINE
  5
244
330
1F
100
AcDbEntity
  8
0
  6
Continuous
 62
     7
370
    25
100
AcDbLine
 10
602.8818972662
 20
398.0681652275
 30
0.0
 11
1296.9971255944
 21
398.0681652275
 31
0.0
  0
LINE
  5
245
330
1F
100
AcDbEntity
  8
0
  6
Continuous
 62
     7
370
    25
100
AcDbLine
 10
601.0349128403
 20
410.0681652275
 30
0.0
 11
1295.1501411684
 21
410.0681652275
 31
0.0
  0
LWPOLYLINE
  5
246
330
1F
100
AcDbEntity
  8
0
  6
Continuous
 62
     7
370
    25
100
AcDbPolyline
 90
        9
 70
   128
 43
0.0
 10
602.8818972662
 20
413.0681652275
 10
602.5215684798
 20
413.0105210687
 10
602.1750869266
 20
412.8398038251
 10
601.8557676983
 20
412.5625740644
 10
601.5758820539
 20
412.1894855711
 10
601.3461858416
 20
411.7348759266
 10
601.1755061582
 20
411.2162155246
 10
601.0704021281
 20
410.6534361936
 10
601.0349128403
 20
410.0681652275
  0
LINE
  5
247
330
1F
100
AcDbEntity
  8
0
  6
Continuous
 62
     7
370
    25
100
AcDbLine
 10
1241.4986429569
 20
413.0681652275
 30
0.0
 11
602.8818972662
 21
413.0681652275
 31
0.0
  0
LINE
  5
248
330
1F
100
AcDbEntity
  8
0
  6
Continuous
 62
     7
370
    25
100
AcDbLine
 10
1387.4543632614
 20
401.0681652275
 30
0.0
 11
1387.4543632614
 21
-94.9318347725
 31
0.0
  0
LINE
  5
249
330
1F
100
AcDbEntity
  8
0
  6
Continuous
 62
     7
370
    25
100
AcDbLine
 10
830.4586102799
 20
-109.9318347725
 30
0.0
 11
805.7019085614
 21
-109.9318347725
 31
0.0
  0
LWPOLYLINE
  5
24A
330
1F
100
AcDbEntity
  8
0
  6
Continuous
 62
     7
370
    25
100
AcDbPolyline
 90
        9
 70
   128
 43
0.0
 10
807.5488929874
 20
-106.9318347725
 10
807.1885642009
 20
-106.9894789313
 10
806.8420826477
 20
-107.1601961749
 10
806.5227634194
 20
-107.4374259356
 10
806.242877775
 20
-107.8105144289
 10
806.0131815628
 20
-108.2651240734
 10
805.8425018793
 20
-108.7837844754
 10
805.7373978492
 20
-109.3465638064
 10
805.7019085614
 20
-109.9318347725
  0
LWPOLYLINE
  5
24B
330
1F
100
AcDbEntity
  8
0
  6
Continuous
 62
     7
370
    25
100
AcDbPolyline
 90
        9
 70
   128
 43
0.0
 10
830.4586102799
 20
-109.9318347725
 10
830.437016398
 20
-109.3465638064
 10
830.3730645929
 20
-108.7837844754
 10
830.2692124967
 20
-108.2651240734
 10
830.1294510871
 20
-107.8105144289
 10
829.9591513169
 20
-107.4374259356
 10
829.7648577105
 20
-107.1601961749
 10
829.5540368625
 20
-106.9894789313
 10
829.3347904997
 20
-106.9318347725
  0
LINE
  5
24C
330
1F
100
AcDbEntity
  8
0
  6
Continuous
 62
     7
370
    25
100
AcDbLine
 10
829.3347904997
 20
-121.9318347725
 30
0.0
 11
807.5488929874
 21
-121.9318347725
 31
0.0
  0
LWPOLYLINE
  5
24D
330
1F
100
AcDbEntity
  8
0
  6
Continuous
 62
     7
370
    25
100
AcDbPolyline
 90
        9
 70
   128
 43
0.0
 10
805.7019085614
 20
-118.9318347725
 10
805.7373978492
 20
-119.5171057385
 10
805.8425018793
 20
-120.0798850696
 10
806.0131815628
 20
-120.5985454715
 10
806.242877775
 20
-121.053155116
 10
806.5227634194
 20
-121.4262436094
 10
806.8420826477
 20
-121.70347337
 10
807.1885642009
 20
-121.8741906137
 10
807.5488929874
 20
-121.9318347725
  0
LINE
  5
24E
330
1F
100
AcDbEntity
  8
0
  6
Continuous
 62
     7
370
    25
100
AcDbLine
 10
805.7019085614
 20
-118.9318347725
 30
0.0
 11
830.4586102799
 21
-118.9318347725
 31
0.0
  0
LWPOLYLINE
  5
24F
330
1F
100
AcDbEntity
  8
0
  6
Continuous
 62
     7
370
    25
100
AcDbPolyline
 90
        9
 70
   128
 43
0.0
 10
829.3347904997
 20
-121.9318347725
 10
829.5540368625
 20
-121.8741906137
 10
829.7648577105
 20
-121.70347337
 10
829.9591513169
 20
-121.4262436094
 10
830.1294510871
 20
-121.053155116
 10
830.2692124967
 20
-120.5985454715
 10
830.3730645929
 20
-120.0798850696
 10
830.437016398
 20
-119.5171057385
 10
830.4586102799
 20
-118.9318347725
  0
LINE
  5
250
330
1F
100
AcDbEntity
  8
0
  6
Continuous
 62
     7
370
    25
100
AcDbLine
 10
830.4586102799
 20
-118.9318347725
 30
0.0
 11
830.4586102799
 21
-109.9318347725
 31
0.0
  0
LINE
  5
251
330
1F
100
AcDbEntity
  8
0
  6
Continuous
 62
     7
370
    25
100
AcDbLine
 10
805.7019085614
 20
-118.9318347725
 30
0.0
 11
805.7019085614
 21
-109.9318347725
 31
0.0
  0
LINE
  5
252
330
1F
100
AcDbEntity
  8
0
  6
Continuous
 62
     7
370
    25
100
AcDbLine
 10
985.6984662064
 20
-109.9318347725
 30
0.0
 11
830.4586102799
 21
-109.9318347725
 31
0.0
  0
LINE
  5
253
330
1F
100
AcDbEntity
  8
0
  6
Continuous
 62
     7
370
    25
100
AcDbLine
 10
985.6984662064
 20
-118.9318347725
 30
0.0
 11
985.6984662064
 21
-109.9318347725
 31
0.0
  0
LINE
  5
254
330
1F
100
AcDbEntity
  8
0
  6
Continuous
 62
     7
370
    25
100
AcDbLine
 10
830.4586102799
 20
-118.9318347725
 30
0.0
 11
985.6984662064
 21
-118.9318347725
 31
0.0
  0
LINE
  5
255
330
1F
100
AcDbEntity
  8
0
  6
Continuous
 62
     7
370
    25
100
AcDbLine
 10
984.5746464262
 20
-121.9318347725
 30
0.0
 11
829.3347904997
 21
-121.9318347725
 31
0.0
  0
LWPOLYLINE
  5
256
330
1F
100
AcDbEntity
  8
0
  6
Continuous
 62
     7
370
    25
100
AcDbPolyline
 90
        9
 70
   128
 43
0.0
 10
984.5746464262
 20
-121.9318347725
 10
984.793892789
 20
-121.8741906137
 10
985.004713637
 20
-121.70347337
 10
985.1990072434
 20
-121.4262436094
 10
985.3693070136
 20
-121.053155116
 10
985.5090684232
 20
-120.5985454715
 10
985.6129205194
 20
-120.0798850696
 10
985.6768723245
 20
-119.5171057385
 10
985.6984662064
 20
-118.9318347725
  0
LWPOLYLINE
  5
257
330
1F
100
AcDbEntity
  8
0
  6
Continuous
 62
     7
370
    25
100
AcDbPolyline
 90
        9
 70
   128
 43
0.0
 10
985.6984662064
 20
-109.9318347725
 10
985.6768723245
 20
-109.3465638064
 10
985.6129205194
 20
-108.7837844754
 10
985.5090684232
 20
-108.2651240734
 10
985.3693070136
 20
-107.8105144289
 10
985.1990072434
 20
-107.4374259356
 10
985.004713637
 20
-107.1601961749
 10
984.793892789
 20
-106.9894789313
 10
984.5746464262
 20
-106.9318347725
  0
LINE
  5
258
330
1F
100
AcDbEntity
  8
0
  6
Continuous
 62
     7
370
    25
100
AcDbLine
 10
805.7019085614
 20
-109.9318347725
 30
0.0
 11
574.0426209924
 21
-109.9318347725
 31
0.0
  0
LINE
  5
259
330
1F
100
AcDbEntity
  8
0
  6
Continuous
 62
     7
370
    25
100
AcDbLine
 10
574.0426209924
 20
-118.9318347725
 30
0.0
 11
805.7019085614
 21
-118.9318347725
 31
0.0
  0
LINE
  5
25A
330
1F
100
AcDbEntity
  8
0
  6
Continuous
 62
     7
370
    25
100
AcDbLine
 10
574.0426209924
 20
-118.9318347725
 30
0.0
 11
574.0426209924
 21
-109.9318347725
 31
0.0
  0
LWPOLYLINE
  5
25B
330
1F
100
AcDbEntity
  8
0
  6
Continuous
 62
     7
370
    25
100
AcDbPolyline
 90
        9
 70
   128
 43
0.0
 10
575.8896054184
 20
-106.9318347725
 10
575.529276632
 20
-106.9894789313
 10
575.1827950788
 20
-107.1601961749
 10
574.8634758505
 20
-107.4374259356
 10
574.5835902061
 20
-107.8105144289
 10
574.3538939938
 20
-108.2651240734
 10
574.1832143104
 20
-108.7837844754
 10
574.0781102803
 20
-109.3465638064
 10
574.0426209924
 20
-109.9318347725
  0
LINE
  5
25C
330
1F
100
AcDbEntity
  8
0
  6
Continuous
 62
     7
370
    25
100
AcDbLine
 10
575.8896054184
 20
-106.9318347725
 30
0.0
 11
807.5488929874
 21
-106.9318347725
 31
0.0
  0
LWPOLYLINE
  5
25D
330
1F
100
AcDbEntity
  8
0
  6
Continuous
 62
     7
370
    25
100
AcDbPolyline
 90
        9
 70
   128
 43
0.0
 10
574.0426209924
 20
-118.9318347725
 10
574.0781102803
 20
-119.5171057385
 10
574.1832143104
 20
-120.0798850696
 10
574.3538939938
 20
-120.5985454715
 10
574.5835902061
 20
-121.053155116
 10
574.8634758505
 20
-121.4262436094
 10
575.1827950788
 20
-121.70347337
 10
575.529276632
 20
-121.8741906137
 10
575.8896054184
 20
-121.9318347725
  0
LINE
  5
25E
330
1F
100
AcDbEntity
  8
0
  6
Continuous
 62
     7
370
    25
100
AcDbLine
 10
807.5488929874
 20
-121.9318347725
 30
0.0
 11
575.8896054184
 21
-121.9318347725
 31
0.0
  0
LINE
  5
25F
330
1F
100
AcDbEntity
  8
0
  6
Continuous
 62
     7
370
    25
100
AcDbLine
 10
998.333301371
 20
-121.9318347725
 30
0.0
 11
984.5746464262
 21
-121.9318347725
 31
0.0
  0
LINE
  5
260
330
1F
100
AcDbEntity
  8
0
  6
Continuous
 62
     7
370
    25
100
AcDbLine
 10
575.8896054184
 20
-121.9318347725
 30
0.0
 11
567.4341578756
 21
-121.9318347725
 31
0.0
  0
LWPOLYLINE
  5
261
330
1F
100
AcDbEntity
  8
0
  6
Continuous
 62
     7
370
    25
100
AcDbPolyline
 90
        9
 70
   128
 43
0.0
 10
805.7019085614
 20
401.0681652275
 10
805.7373978492
 20
400.4828942615
 10
805.8425018793
 20
399.9201149304
 10
806.0131815628
 20
399.4014545285
 10
806.242877775
 20
398.946844884
 10
806.5227634194
 20
398.5737563906
 10
806.8420826477
 20
398.29652663
 10
807.1885642009
 20
398.1258093863
 10
807.5488929874
 20
398.0681652275
  0
LINE
  5
262
330
1F
100
AcDbEntity
  8
0
  6
Continuous
 62
     7
370
    25
100
AcDbLine
 10
805.7019085614
 20
401.0681652275
 30
0.0
 11
805.7019085614
 21
410.0681652275
 31
0.0
  0
LWPOLYLINE
  5
263
330
1F
100
AcDbEntity
  8
0
  6
Continuous
 62
     7
370
    25
100
AcDbPolyline
 90
        9
 70
   128
 43
0.0
 10
807.5488929874
 20
413.0681652275
 10
807.1885642009
 20
413.0105210687
 10
806.8420826477
 20
412.8398038251
 10
806.5227634194
 20
412.5625740644
 10
806.242877775
 20
412.1894855711
 10
806.0131815628
 20
411.7348759266
 10
805.8425018793
 20
411.2162155246
 10
805.7373978492
 20
410.6534361936
 10
805.7019085614
 20
410.0681652275
  0
LINE
  5
264
330
1F
100
AcDbEntity
  8
0
  6
Continuous
 62
     7
370
    25
100
AcDbLine
 10
805.7019085614
 20
410.0681652275
 30
0.0
 11
574.0426209924
 21
410.0681652275
 31
0.0
  0
LINE
  5
265
330
1F
100
AcDbEntity
  8
0
  6
Continuous
 62
     7
370
    25
100
AcDbLine
 10
574.0426209924
 20
401.0681652275
 30
0.0
 11
805.7019085614
 21
401.0681652275
 31
0.0
  0
LINE
  5
266
330
1F
100
AcDbEntity
  8
0
  6
Continuous
 62
     7
370
    25
100
AcDbLine
 10
574.0426209924
 20
401.0681652275
 30
0.0
 11
574.0426209924
 21
410.0681652275
 31
0.0
  0
LWPOLYLINE
  5
267
330
1F
100
AcDbEntity
  8
0
  6
Continuous
 62
     7
370
    25
100
AcDbPolyline
 90
        9
 70
   128
 43
0.0
 10
575.8896054184
 20
413.0681652275
 10
575.529276632
 20
413.0105210687
 10
575.1827950788
 20
412.8398038251
 10
574.8634758505
 20
412.5625740644
 10
574.5835902061
 20
412.1894855711
 10
574.3538939938
 20
411.7348759266
 10
574.1832143104
 20
411.2162155246
 10
574.0781102803
 20
410.6534361936
 10
574.0426209924
 20
410.0681652275
  0
LINE
  5
268
330
1F
100
AcDbEntity
  8
0
  6
Continuous
 62
     7
370
    25
100
AcDbLine
 10
575.8896054184
 20
413.0681652275
 30
0.0
 11
807.5488929874
 21
413.0681652275
 31
0.0
  0
LWPOLYLINE
  5
269
330
1F
100
AcDbEntity
  8
0
  6
Continuous
 62
     7
370
    25
100
AcDbPolyline
 90
        9
 70
   128
 43
0.0
 10
574.0426209924
 20
401.0681652275
 10
574.0781102803
 20
400.4828942615
 10
574.1832143104
 20
399.9201149304
 10
574.3538939938
 20
399.4014545285
 10
574.5835902061
 20
398.946844884
 10
574.8634758505
 20
398.5737563906
 10
575.1827950788
 20
398.29652663
 10
575.529276632
 20
398.1258093863
 10
575.8896054184
 20
398.0681652275
  0
LINE
  5
26A
330
1F
100
AcDbEntity
  8
0
  6
Continuous
 62
     7
370
    25
100
AcDbLine
 10
807.5488929874
 20
398.0681652275
 30
0.0
 11
575.8896054184
 21
398.0681652275
 31
0.0
  0
LINE
  5
26B
330
1F
100
AcDbEntity
  8
0
  6
Continuous
 62
     7
370
    25
100
AcDbLine
 10
1347.4543632615
 20
-106.9318347725
 30
0.0
 11
1347.4543632615
 21
-103.9318347725
 31
0.0
  0
LINE
  5
26C
330
1F
100
AcDbEntity
  8
0
  6
Continuous
 62
     7
370
    25
100
AcDbLine
 10
1347.4543632615
 20
-103.9318347725
 30
0.0
 11
1387.4543632615
 21
-103.9318347725
 31
0.0
  0
ARC
  5
26D
330
1F
100
AcDbEntity
  8
0
  6
Continuous
 62
     7
370
    25
100
AcDbCircle
 10
1384.4543632615
 20
-103.9318347725
 30
0.0
 40
3.0
100
AcDbArc
 50
270.0
 51
0.0
  0
LINE
  5
26E
330
1F
100
AcDbEntity
  8
0
  6
Continuous
 62
     7
370
    25
100
AcDbLine
 10
1319.7766001815
 20
-94.9318347725
 30
0.0
 11
1295.1501411684
 21
-94.9318347725
 31
0.0
  0
LWPOLYLINE
  5
26F
330
1F
100
AcDbEntity
  8
0
  6
Continuous
 62
     7
370
    25
100
AcDbPolyline
 90
        9
 70
   128
 43
0.0
 10
1295.1501411684
 20
-94.9318347725
 10
1295.1856304563
 20
-94.3465638064
 10
1295.2907344864
 20
-93.7837844754
 10
1295.4614141698
 20
-93.2651240734
 10
1295.6911103821
 20
-92.8105144289
 10
1295.9709960265
 20
-92.4374259356
 10
1296.2903152548
 20
-92.1601961749
 10
1296.636796808
 20
-91.9894789313
 10
1296.9971255944
 20
-91.9318347725
  0
LINE
  5
270
330
1F
100
AcDbEntity
  8
0
  6
Continuous
 62
     7
370
    25
100
AcDbLine
 10
1296.9971255944
 20
-91.9318347725
 30
0.0
 11
1319.7766001815
 21
-91.9318347725
 31
0.0
  0
LINE
  5
271
330
1F
100
AcDbEntity
  8
0
  6
Continuous
 62
     7
370
    25
100
AcDbLine
 10
1319.7766001815
 20
-94.9318347725
 30
0.0
 11
1319.7766001815
 21
-91.9318347725
 31
0.0
  0
LINE
  5
272
330
1F
100
AcDbEntity
  8
0
  6
Continuous
 62
     7
370
    25
100
AcDbLine
 10
1387.4543632615
 20
-94.9318347725
 30
0.0
 11
1347.4543632615
 21
-94.9318347725
 31
0.0
  0
LINE
  5
273
330
1F
100
AcDbEntity
  8
0
  6
Continuous
 62
     7
370
    25
100
AcDbLine
 10
1387.4543632615
 20
-94.9318347725
 30
0.0
 11
1387.4543632615
 21
-103.9318347725
 31
0.0
  0
LINE
  5
274
330
1F
100
AcDbEntity
  8
0
  6
Continuous
 62
     7
370
    25
100
AcDbLine
 10
1347.4543632615
 20
-94.9318347725
 30
0.0
 11
1347.4543632615
 21
-103.9318347725
 31
0.0
  0
LINE
  5
275
330
1F
100
AcDbEntity
  8
0
  6
Continuous
 62
     7
370
    25
100
AcDbLine
 10
1347.4543632615
 20
-94.9318347725
 30
0.0
 11
1319.7766001815
 21
-94.9318347725
 31
0.0
  0
LINE
  5
276
330
1F
100
AcDbEntity
  8
0
  6
Continuous
 62
     7
370
    25
100
AcDbLine
 10
1319.7766001815
 20
-91.9318347725
 30
0.0
 11
1347.4543632615
 21
-91.9318347725
 31
0.0
  0
LINE
  5
277
330
1F
100
AcDbEntity
  8
0
  6
Continuous
 62
     7
370
    25
100
AcDbLine
 10
1347.4543632615
 20
-94.9318347725
 30
0.0
 11
1347.4543632615
 21
-91.9318347725
 31
0.0
  0
LINE
  5
278
330
1F
100
AcDbEntity
  8
0
  6
Continuous
 62
     7
370
    25
100
AcDbLine
 10
1319.7766001815
 20
-106.9318347725
 30
0.0
 11
1319.7766001815
 21
-103.9318347725
 31
0.0
  0
LINE
  5
279
330
1F
100
AcDbEntity
  8
0
  6
Continuous
 62
     7
370
    25
100
AcDbLine
 10
1347.4543632615
 20
-91.9318347725
 30
0.0
 11
1384.4543632615
 21
-91.9318347725
 31
0.0
  0
ARC
  5
27A
330
1F
100
AcDbEntity
  8
0
  6
Continuous
 62
     7
370
    25
100
AcDbCircle
 10
1384.4543632615
 20
-94.9318347725
 30
0.0
 40
2.999999999999986
100
AcDbArc
 50
0.0
 51
90.0
  0
LWPOLYLINE
  5
27B
330
1F
100
AcDbEntity
  8
0
  6
Continuous
 62
     7
370
    25
100
AcDbPolyline
 90
        9
 70
   128
 43
0.0
 10
1296.9971255944
 20
-106.9318347725
 10
1296.636796808
 20
-106.8741906137
 10
1296.2903152548
 20
-106.70347337
 10
1295.9709960265
 20
-106.4262436094
 10
1295.6911103821
 20
-106.053155116
 10
1295.4614141698
 20
-105.5985454715
 10
1295.2907344864
 20
-105.0798850696
 10
1295.1856304563
 20
-104.5171057385
 10
1295.1501411684
 20
-103.9318347725
  0
LINE
  5
27C
330
1F
100
AcDbEntity
  8
0
  6
Continuous
 62
     7
370
    25
100
AcDbLine
 10
1295.1501411684
 20
-103.9318347725
 30
0.0
 11
1319.7766001815
 21
-103.9318347725
 31
0.0
  0
LINE
  5
27D
330
1F
100
AcDbEntity
  8
0
  6
Continuous
 62
     7
370
    25
100
AcDbLine
 10
1319.7766001815
 20
-94.9318347725
 30
0.0
 11
1319.7766001815
 21
-103.9318347725
 31
0.0
  0
LINE
  5
27E
330
1F
100
AcDbEntity
  8
0
  6
Continuous
 62
     7
370
    25
100
AcDbLine
 10
1295.1501411684
 20
-94.9318347725
 30
0.0
 11
1295.1501411684
 21
-103.9318347725
 31
0.0
  0
LINE
  5
27F
330
1F
100
AcDbEntity
  8
0
  6
Continuous
 62
     7
370
    25
100
AcDbLine
 10
1295.1501411684
 20
-94.9318347725
 30
0.0
 11
601.0349128403
 21
-94.9318347725
 31
0.0
  0
LWPOLYLINE
  5
280
330
1F
100
AcDbEntity
  8
0
  6
Continuous
 62
     7
370
    25
100
AcDbPolyline
 90
        9
 70
   128
 43
0.0
 10
601.0349128403
 20
-94.9318347725
 10
601.0704021281
 20
-94.3465638064
 10
601.1755061582
 20
-93.7837844754
 10
601.3461858416
 20
-93.2651240734
 10
601.5758820539
 20
-92.8105144289
 10
601.8557676983
 20
-92.4374259356
 10
602.1750869266
 20
-92.1601961749
 10
602.5215684798
 20
-91.9894789313
 10
602.8818972662
 20
-91.9318347725
  0
LINE
  5
281
330
1F
100
AcDbEntity
  8
0
  6
Continuous
 62
     7
370
    25
100
AcDbLine
 10
602.8818972662
 20
-91.9318347725
 30
0.0
 11
1296.9971255944
 21
-91.9318347725
 31
0.0
  0
LINE
  5
282
330
1F
100
AcDbEntity
  8
0
  6
Continuous
 62
     7
370
    25
100
AcDbLine
 10
601.0349128403
 20
-103.9318347725
 30
0.0
 11
1295.1501411684
 21
-103.9318347725
 31
0.0
  0
LINE
  5
283
330
1F
100
AcDbEntity
  8
0
  6
Continuous
 62
     7
370
    25
100
AcDbLine
 10
601.0349128403
 20
-103.9318347725
 30
0.0
 11
601.0349128403
 21
-94.9318347725
 31
0.0
  0
LWPOLYLINE
  5
284
330
1F
100
AcDbEntity
  8
0
  6
Continuous
 62
     7
370
    25
100
AcDbPolyline
 90
        9
 70
   128
 43
0.0
 10
602.8818972662
 20
-106.9318347725
 10
602.5215684798
 20
-106.8741906137
 10
602.1750869266
 20
-106.70347337
 10
601.8557676983
 20
-106.4262436094
 10
601.5758820539
 20
-106.053155116
 10
601.3461858416
 20
-105.5985454715
 10
601.1755061582
 20
-105.0798850696
 10
601.0704021281
 20
-104.5171057385
 10
601.0349128403
 20
-103.9318347725
  0
LINE
  5
285
330
1F
100
AcDbEntity
  8
0
  6
Continuous
 62
     7
370
    25
100
AcDbLine
 10
1241.4986429569
 20
-106.9318347725
 30
0.0
 11
602.8818972662
 21
-106.9318347725
 31
0.0
  0
LWPOLYLINE
  5
286
330
1F
100
AcDbEntity
  8
0
  6
Continuous
 62
     7
370
    25
100
AcDbPolyline
 90
        9
 70
   128
 43
0.0
 10
602.8818972662
 20
-106.9318347725
 10
602.5215684798
 20
-106.8741906137
 10
602.1750869266
 20
-106.70347337
 10
601.8557676983
 20
-106.4262436094
 10
601.5758820539
 20
-106.053155116
 10
601.3461858416
 20
-105.5985454715
 10
601.1755061582
 20
-105.0798850696
 10
601.0704021281
 20
-104.5171057385
 10
601.0349128402
 20
-103.9318347725
  0
LWPOLYLINE
  5
287
330
1F
100
AcDbEntity
  8
0
  6
Continuous
 62
     7
370
    25
100
AcDbPolyline
 90
        9
 70
   128
 43
0.0
 10
601.0349128402
 20
-94.9318347725
 10
601.0704021281
 20
-94.3465638064
 10
601.1755061582
 20
-93.7837844754
 10
601.3461858416
 20
-93.2651240734
 10
601.5758820539
 20
-92.8105144289
 10
601.8557676983
 20
-92.4374259356
 10
602.1750869266
 20
-92.1601961749
 10
602.5215684798
 20
-91.9894789313
 10
602.8818972662
 20
-91.9318347725
  0
LWPOLYLINE
  5
288
330
1F
100
AcDbEntity
  8
0
  6
Continuous
 62
     7
370
    25
100
AcDbPolyline
 90
        9
 70
   128
 43
0.0
 10
-581.2799695915
 20
-106.9318347725
 10
-581.6402983779
 20
-106.8741906137
 10
-581.9867799311
 20
-106.70347337
 10
-582.3060991594
 20
-106.4262436094
 10
-582.5859848038
 20
-106.053155116
 10
-582.8156810161
 20
-105.5985454715
 10
-582.9863606995
 20
-105.0798850696
 10
-583.0914647296
 20
-104.5171057385
 10
-583.1269540174
 20
-103.9318347725
  0
LINE
  5
289
330
1F
100
AcDbEntity
  8
0
  6
Continuous
 62
     7
370
    25
100
AcDbLine
 10
-583.1269540174
 20
-103.9318347725
 30
0.0
 11
601.0349128402
 21
-103.9318347725
 31
0.0
  0
LINE
  5
28A
330
1F
100
AcDbEntity
  8
0
  6
Continuous
 62
     7
370
    25
100
AcDbLine
 10
602.8818972662
 20
-106.9318347725
 30
0.0
 11
-581.2799695915
 21
-106.9318347725
 31
0.0
  0
LINE
  5
28B
330
1F
100
AcDbEntity
  8
0
  6
Continuous
 62
     7
370
    25
100
AcDbLine
 10
-583.1269540174
 20
-94.9318347725
 30
0.0
 11
-583.1269540174
 21
-103.9318347725
 31
0.0
  0
LINE
  5
28C
330
1F
100
AcDbEntity
  8
0
  6
Continuous
 62
     7
370
    25
100
AcDbLine
 10
601.0349128402
 20
-94.9318347725
 30
0.0
 11
-583.1269540174
 21
-94.9318347725
 31
0.0
  0
LWPOLYLINE
  5
28D
330
1F
100
AcDbEntity
  8
0
  6
Continuous
 62
     7
370
    25
100
AcDbPolyline
 90
        9
 70
   128
 43
0.0
 10
-583.1269540174
 20
-94.9318347725
 10
-583.0914647296
 20
-94.3465638064
 10
-582.9863606995
 20
-93.7837844754
 10
-582.8156810161
 20
-93.2651240734
 10
-582.5859848038
 20
-92.8105144289
 10
-582.3060991594
 20
-92.4374259356
 10
-581.9867799311
 20
-92.1601961749
 10
-581.6402983779
 20
-91.9894789313
 10
-581.2799695915
 20
-91.9318347725
  0
LINE
  5
28E
330
1F
100
AcDbEntity
  8
0
  6
Continuous
 62
     7
370
    25
100
AcDbLine
 10
-581.2799695915
 20
-91.9318347725
 30
0.0
 11
602.8818972662
 21
-91.9318347725
 31
0.0
  0
ARC
  5
28F
330
1F
100
AcDbEntity
  8
0
  6
Continuous
 62
     7
370
    25
100
AcDbCircle
 10
-1119.8798903045
 20
-104.6706973955
 30
0.0
 40
6.471112857436552
100
AcDbArc
 50
173.4437496188
 51
200.4518544399
  0
LINE
  5
290
330
1F
100
AcDbEntity
  8
0
  6
Continuous
 62
     7
370
    25
100
AcDbLine
 10
-1126.3086836313
 20
-103.9318347725
 30
0.0
 11
-583.1269540174
 21
-103.9318347725
 31
0.0
  0
LINE
  5
291
330
1F
100
AcDbEntity
  8
0
  6
Continuous
 62
     7
370
    25
100
AcDbLine
 10
-581.2799695915
 20
-106.9318347725
 30
0.0
 11
-1125.9431039224
 21
-106.9318347725
 31
0.0
  0
LINE
  5
292
330
1F
100
AcDbEntity
  8
0
  6
Continuous
 62
     7
370
    25
100
AcDbLine
 10
-583.1269540174
 20
-94.9318347725
 30
0.0
 11
-1126.3086836313
 21
-94.9318347725
 31
0.0
  0
LINE
  5
293
330
1F
100
AcDbEntity
  8
0
  6
Continuous
 62
     7
370
    25
100
AcDbLine
 10
-1126.3086836313
 20
-94.9318347725
 30
0.0
 11
-1126.3086836313
 21
-103.9318347725
 31
0.0
  0
ARC
  5
294
330
1F
100
AcDbEntity
  8
0
  6
Continuous
 62
     7
370
    25
100
AcDbCircle
 10
-1119.8798903045
 20
-94.1929721494
 30
0.0
 40
6.471112857450795
100
AcDbArc
 50
159.5481455601
 51
186.5562503812
  0
LINE
  5
295
330
1F
100
AcDbEntity
  8
0
  6
Continuous
 62
     7
370
    25
100
AcDbLine
 10
-1125.9431039224
 20
-91.9318347725
 30
0.0
 11
-581.2799695915
 21
-91.9318347725
 31
0.0
  0
ARC
  5
296
330
1F
100
AcDbEntity
  8
0
  6
Continuous
 62
     7
370
    25
100
AcDbCircle
 10
-1128.6992322888
 20
-104.6706973955
 30
0.0
 40
6.471112857449464
100
AcDbArc
 50
173.4437496188
 51
200.4518544399
  0
LINE
  5
297
330
1F
100
AcDbEntity
  8
0
  6
Continuous
 62
     7
370
    25
100
AcDbLine
 10
-1135.1280256155
 20
-103.9318347725
 30
0.0
 11
-1126.3086836313
 21
-103.9318347725
 31
0.0
  0
LINE
  5
298
330
1F
100
AcDbEntity
  8
0
  6
Continuous
 62
     7
370
    25
100
AcDbLine
 10
-1125.9431039224
 20
-106.9318347725
 30
0.0
 11
-1134.7624459067
 21
-106.9318347725
 31
0.0
  0
LINE
  5
299
330
1F
100
AcDbEntity
  8
0
  6
Continuous
 62
     7
370
    25
100
AcDbLine
 10
-1126.3086836313
 20
-94.9318347725
 30
0.0
 11
-1135.1280256155
 21
-94.9318347725
 31
0.0
  0
LINE
  5
29A
330
1F
100
AcDbEntity
  8
0
  6
Continuous
 62
     7
370
    25
100
AcDbLine
 10
-1135.1280256155
 20
-94.9318347725
 30
0.0
 11
-1135.1280256155
 21
-103.9318347725
 31
0.0
  0
ARC
  5
29B
330
1F
100
AcDbEntity
  8
0
  6
Continuous
 62
     7
370
    25
100
AcDbCircle
 10
-1128.6992322888
 20
-94.1929721494
 30
0.0
 40
6.471112857450128
100
AcDbArc
 50
159.5481455601
 51
186.5562503812
  0
LINE
  5
29C
330
1F
100
AcDbEntity
  8
0
  6
Continuous
 62
     7
370
    25
100
AcDbLine
 10
-1134.7624459067
 20
-91.9318347725
 30
0.0
 11
-1125.9431039224
 21
-91.9318347725
 31
0.0
  0
LINE
  5
29D
330
1F
100
AcDbEntity
  8
0
  6
Continuous
 62
     7
370
    25
100
AcDbLine
 10
-1134.7624459067
 20
-106.9318347725
 30
0.0
 11
-1270.7038932305
 21
-106.9318347725
 31
0.0
  0
LINE
  5
29E
330
1F
100
AcDbEntity
  8
0
  6
Continuous
 62
     7
370
    25
100
AcDbLine
 10
-1270.7038932305
 20
-91.9318347725
 30
0.0
 11
-1134.7624459067
 21
-91.9318347725
 31
0.0
  0
LINE
  5
29F
330
1F
100
AcDbEntity
  8
0
  6
Continuous
 62
     7
370
    25
100
AcDbLine
 10
235.6389582159
 20
-123.6318347725
 30
0.0
 11
262.6389582159
 21
-123.6318347725
 31
0.0
  0
LINE
  5
2A0
330
1F
100
AcDbEntity
  8
0
  6
Continuous
 62
     7
370
    25
100
AcDbLine
 10
632.7361297935
 20
428.0681652275
 30
0.0
 11
609.4341578755
 21
428.0681652275
 31
0.0
  0
LINE
  5
2A1
330
1F
100
AcDbEntity
  8
0
  6
Continuous
 62
     7
370
    25
100
AcDbLine
 10
607.5649681846
 20
444.7681652275
 30
0.0
 11
603.1341578755
 21
444.7681652275
 31
0.0
  0
LINE
  5
2A2
330
1F
100
AcDbEntity
  8
0
  6
Continuous
 62
     7
370
    25
100
AcDbLine
 10
626.2361297935
 20
444.7681652275
 30
0.0
 11
607.5649681846
 21
444.7681652275
 31
0.0
  0
LINE
  5
2A3
330
1F
100
AcDbEntity
  8
0
  6
Continuous
 62
     7
370
    25
100
AcDbLine
 10
821.0931329571
 20
-138.6318347725
 30
0.0
 11
822.5894555567
 21
-138.6318347725
 31
0.0
  0
LINE
  5
2A4
330
1F
100
AcDbEntity
  8
0
  6
Continuous
 62
     7
370
    25
100
AcDbLine
 10
-464.5553849391
 20
429.7681652275
 30
0.0
 11
-483.2265465479
 21
429.7681652275
 31
0.0
  0
LINE
  5
2A5
330
1F
100
AcDbEntity
  8
0
  6
Continuous
 62
     7
370
    25
100
AcDbLine
 10
962.833301371
 20
-138.6318347725
 30
0.0
 11
989.833301371
 21
-138.6318347725
 31
0.0
  0
LINE
  5
2A6
330
1F
100
AcDbEntity
  8
0
  6
Continuous
 62
     7
370
    25
100
AcDbLine
 10
968.6723212097
 20
428.0681652275
 30
0.0
 11
956.333301371
 21
428.0681652275
 31
0.0
  0
LINE
  5
2A7
330
1F
100
AcDbEntity
  8
0
  6
Continuous
 62
     7
370
    25
100
AcDbLine
 10
996.333301371
 20
428.0681652275
 30
0.0
 11
968.6723212097
 21
428.0681652275
 31
0.0
  0
LINE
  5
2A8
330
1F
100
AcDbEntity
  8
0
  6
Continuous
 62
     7
370
    25
100
AcDbLine
 10
989.833301371
 20
444.7681652275
 30
0.0
 11
971.1621397621
 21
444.7681652275
 31
0.0
  0
LINE
  5
2A9
330
1F
100
AcDbEntity
  8
0
  6
Continuous
 62
     7
370
    25
100
AcDbLine
 10
-1141.3175340069
 20
-123.6318347725
 30
0.0
 11
-1114.3175340069
 21
-123.6318347725
 31
0.0
  0
LINE
  5
2AA
330
1F
100
AcDbEntity
  8
0
  6
Continuous
 62
     7
370
    25
100
AcDbLine
 10
-1211.0766664041
 20
429.7681652275
 30
0.0
 11
-1238.0766664041
 21
429.7681652275
 31
0.0
  0
LINE
  5
2AB
330
1F
100
AcDbEntity
  8
0
  6
Continuous
 62
     7
370
    25
100
AcDbLine
 10
-491.5553849391
 20
-123.6318347725
 30
0.0
 11
-464.5553849391
 21
-123.6318347725
 31
0.0
  0
LINE
  5
2AC
330
1F
100
AcDbEntity
  8
0
  6
Continuous
 62
     7
370
    25
100
AcDbLine
 10
821.0934454445
 20
-138.6318347725
 30
0.0
 11
822.5894555567
 21
-138.6318347725
 31
0.0
  0
LINE
  5
2AD
330
1F
100
AcDbEntity
  8
0
  6
Continuous
 62
     7
370
    25
100
AcDbLine
 10
262.6389582159
 20
429.7681652275
 30
0.0
 11
243.9677966071
 21
429.7681652275
 31
0.0
  0
LINE
  5
2AE
330
1F
100
AcDbEntity
  8
0
  6
Continuous
 62
     7
370
    25
100
AcDbLine
 10
-1238.0766664041
 20
-123.6318347725
 30
0.0
 11
-1211.1796628308
 21
-123.6318347725
 31
0.0
  0
LINE
  5
2AF
330
1F
100
AcDbEntity
  8
0
  6
Continuous
 62
     7
370
    25
100
AcDbLine
 10
-1114.3175340069
 20
429.7681652275
 30
0.0
 11
-1132.9886956157
 21
429.7681652275
 31
0.0
  0
LINE
  5
2B0
330
1F
100
AcDbEntity
  8
0
  6
Continuous
 62
     7
370
    25
100
AcDbLine
 10
-100.9582133616
 20
429.7681652275
 30
0.0
 11
-119.6293749704
 21
429.7681652275
 31
0.0
  0
LINE
  5
2B1
330
1F
100
AcDbEntity
  8
0
  6
Continuous
 62
     7
370
    25
100
AcDbLine
 10
609.4341578755
 20
428.0681652275
 30
0.0
 11
569.4341578755
 21
428.0681652275
 31
0.0
  0
LINE
  5
2B2
330
1F
100
AcDbEntity
  8
0
  6
Continuous
 62
     7
370
    25
100
AcDbLine
 10
602.9341578755
 20
444.7681652275
 30
0.0
 11
575.9341578755
 21
444.7681652275
 31
0.0
  0
LINE
  5
2B3
330
1F
100
AcDbEntity
  8
0
  6
Continuous
 62
     7
370
    25
100
AcDbLine
 10
-127.9582133616
 20
-123.6318347725
 30
0.0
 11
-100.9582133616
 21
-123.6318347725
 31
0.0
  0
LINE
  5
2B4
330
1F
100
AcDbEntity
  8
0
  6
Continuous
 62
     7
370
    25
100
AcDbLine
 10
841.0931329571
 20
428.0681652275
 30
0.0
 11
801.0931329571
 21
428.0681652275
 31
0.0
  0
LINE
  5
2B5
330
1F
100
AcDbEntity
  8
0
  6
Continuous
 62
     7
370
    25
100
AcDbLine
 10
834.5931329571
 20
444.7681652275
 30
0.0
 11
807.5931329571
 21
444.7681652275
 31
0.0
  0
LINE
  5
2B6
330
1F
100
AcDbEntity
  8
0
  6
Continuous
 62
     7
370
    25
100
AcDbLine
 10
603.1341578755
 20
-138.6318347725
 30
0.0
 11
626.2361297935
 21
-138.6318347725
 31
0.0
  0
LINE
  5
2B7
330
1F
100
AcDbEntity
  8
0
  6
Continuous
 62
     7
370
    25
100
AcDbLine
 10
-791.1848309994
 20
-123.6318347725
 30
0.0
 11
-764.1848309994
 21
-123.6318347725
 31
0.0
  0
LINE
  5
2B8
330
1F
100
AcDbEntity
  8
0
  6
Continuous
 62
     7
370
    25
100
AcDbLine
 10
-764.1848309994
 20
429.7681652275
 30
0.0
 11
-782.8559926083
 21
429.7681652275
 31
0.0
  0
LINE
  5
2B9
330
1F
100
AcDbEntity
  8
0
  6
Continuous
 62
     7
370
    25
100
AcDbLine
 10
690.7161298259
 20
428.0681652275
 30
0.0
 11
650.7161298259
 21
428.0681652275
 31
0.0
  0
LINE
  5
2BA
330
1F
100
AcDbEntity
  8
0
  6
Continuous
 62
     7
370
    25
100
AcDbLine
 10
684.2161298259
 20
444.7681652275
 30
0.0
 11
657.2161298259
 21
444.7681652275
 31
0.0
  0
LINE
  5
2BB
330
1F
100
AcDbEntity
  8
0
  6
Continuous
 62
     7
370
    25
100
AcDbLine
 10
849.0824067057
 20
428.0681652275
 30
0.0
 11
841.0931329571
 21
428.0681652275
 31
0.0
  0
LINE
  5
2BC
330
1F
100
AcDbEntity
  8
0
  6
Continuous
 62
     7
370
    25
100
AcDbLine
 10
1545.5139841476
 20
-94.4318347725
 30
0.0
 11
1524.0139841476
 21
-94.4318347725
 31
0.0
  0
LINE
  5
2BD
330
1F
100
AcDbEntity
  8
0
  6
Continuous
 62
     7
370
    25
100
AcDbLine
 10
1562.5914926906
 20
-94.4318347725
 30
0.0
 11
1545.5139841476
 21
-94.4318347725
 31
0.0
  0
LINE
  5
2BE
330
1F
100
AcDbEntity
  8
0
  6
Continuous
 62
     7
370
    25
100
AcDbLine
 10
1545.5139841476
 20
400.5681652275
 30
0.0
 11
1562.5914926906
 21
400.5681652275
 31
0.0
  0
LINE
  5
2BF
330
1F
100
AcDbEntity
  8
0
  6
Continuous
 62
     7
370
    25
100
AcDbLine
 10
1524.0139841476
 20
400.5681652275
 30
0.0
 11
1545.5139841476
 21
400.5681652275
 31
0.0
  0
LINE
  5
2C0
330
1F
100
AcDbEntity
  8
0
  6
Continuous
 62
     7
370
    25
100
AcDbLine
 10
1338.0260195786
 20
-138.3109299454
 30
0.0
 11
1344.5260195786
 21
-138.3109299454
 31
0.0
  0
LINE
  5
2C1
330
1F
100
AcDbEntity
  8
0
  6
Continuous
 62
     7
370
    25
100
AcDbLine
 10
1331.5260195786
 20
-138.3109299454
 30
0.0
 11
1338.0260195786
 21
-138.3109299454
 31
0.0
  0
LINE
  5
2C2
330
1F
100
AcDbEntity
  8
0
  6
Continuous
 62
     7
370
    25
100
AcDbLine
 10
1338.0260195786
 20
-139.3109299454
 30
0.0
 11
1332.5260195786
 21
-139.3109299454
 31
0.0
  0
LINE
  5
2C3
330
1F
100
AcDbEntity
  8
0
  6
Continuous
 62
     7
370
    25
100
AcDbLine
 10
1343.5260195786
 20
-139.3109299454
 30
0.0
 11
1338.0260195786
 21
-139.3109299454
 31
0.0
  0
LINE
  5
2C4
330
1F
100
AcDbEntity
  8
0
  6
Continuous
 62
     7
370
    25
100
AcDbLine
 10
1344.5260195786
 20
444.4472604004
 30
0.0
 11
1331.5260195786
 21
444.4472604004
 31
0.0
  0
LINE
  5
2C5
330
1F
100
AcDbEntity
  8
0
  6
Continuous
 62
     7
370
    25
100
AcDbLine
 10
1332.5260195786
 20
445.4472604004
 30
0.0
 11
1343.5260195786
 21
445.4472604004
 31
0.0
  0
LINE
  5
2C6
330
1F
100
AcDbEntity
  8
0
  6
Continuous
 62
     7
370
    25
100
AcDbLine
 10
1259.998312483
 20
444.4472604004
 30
0.0
 11
1246.998312483
 21
444.4472604004
 31
0.0
  0
LINE
  5
2C7
330
1F
100
AcDbEntity
  8
0
  6
Continuous
 62
     7
370
    25
100
AcDbLine
 10
1247.998312483
 20
445.4472604004
 30
0.0
 11
1258.998312483
 21
445.4472604004
 31
0.0
  0
LINE
  5
2C8
330
1F
100
AcDbEntity
  8
0
  6
Continuous
 62
     7
370
    25
100
AcDbLine
 10
1253.498312483
 20
-138.3109299454
 30
0.0
 11
1259.998312483
 21
-138.3109299454
 31
0.0
  0
LINE
  5
2C9
330
1F
100
AcDbEntity
  8
0
  6
Continuous
 62
     7
370
    25
100
AcDbLine
 10
1246.998312483
 20
-138.3109299454
 30
0.0
 11
1253.498312483
 21
-138.3109299454
 31
0.0
  0
LINE
  5
2CA
330
1F
100
AcDbEntity
  8
0
  6
Continuous
 62
     7
370
    25
100
AcDbLine
 10
1253.498312483
 20
-139.3109299454
 30
0.0
 11
1247.998312483
 21
-139.3109299454
 31
0.0
  0
LINE
  5
2CB
330
1F
100
AcDbEntity
  8
0
  6
Continuous
 62
     7
370
    25
100
AcDbLine
 10
1258.998312483
 20
-139.3109299454
 30
0.0
 11
1253.498312483
 21
-139.3109299454
 31
0.0
  0
LWPOLYLINE
  5
2CC
330
1F
100
AcDbEntity
  8
0
  6
Continuous
 62
     7
370
    25
100
AcDbPolyline
 90
        3
 70
   128
 43
0.0
 10
1211.2824016037
 20
-128.5318347725
 10
1211.1046906371
 20
-128.5294046744
 10
1208.7824016037
 20
-128.0852527851
  0
LINE
  5
2CD
330
1F
100
AcDbEntity
  8
0
  6
Continuous
 62
     7
370
    25
100
AcDbLine
 10
1208.7824016037
 20
-128.0852527851
 30
0.0
 11
1208.7824016037
 21
-123.9784167599
 31
0.0
  0
LINE
  5
2CE
330
1F
100
AcDbEntity
  8
0
  6
Continuous
 62
     7
370
    25
100
AcDbLine
 10
1208.7824016037
 20
-123.9784167599
 30
0.0
 11
1211.2824016037
 21
-123.5318347725
 31
0.0
  0
LWPOLYLINE
  5
2CF
330
1F
100
AcDbEntity
  8
0
  6
Continuous
 62
     7
370
    25
100
AcDbPolyline
 90
        3
 70
   128
 43
0.0
 10
1211.2824016037
 20
-123.5318347725
 10
1211.4601125703
 20
-123.5342648706
 10
1213.7824016037
 20
-123.9784167599
  0
LINE
  5
2D0
330
1F
100
AcDbEntity
  8
0
  6
Continuous
 62
     7
370
    25
100
AcDbLine
 10
1213.7824016037
 20
-128.0852527851
 30
0.0
 11
1213.7824016037
 21
-123.9784167599
 31
0.0
  0
LINE
  5
2D1
330
1F
100
AcDbEntity
  8
0
  6
Continuous
 62
     7
370
    25
100
AcDbLine
 10
1213.7824016037
 20
-128.0852527851
 30
0.0
 11
1211.2824016037
 21
-128.5318347725
 31
0.0
  0
LWPOLYLINE
  5
2D2
330
1F
100
AcDbEntity
  8
0
  6
Continuous
 62
     7
370
    25
100
AcDbPolyline
 90
        3
 70
   128
 43
0.0
 10
1216.2824016037
 20
-128.5318347725
 10
1216.1046906371
 20
-128.5294046744
 10
1213.7824016037
 20
-128.0852527851
  0
LINE
  5
2D3
330
1F
100
AcDbEntity
  8
0
  6
Continuous
 62
     7
370
    25
100
AcDbLine
 10
1216.2824016037
 20
-128.5318347725
 30
0.0
 11
1211.2824016037
 21
-128.5318347725
 31
0.0
  0
LINE
  5
2D4
330
1F
100
AcDbEntity
  8
0
  6
Continuous
 62
     7
370
    25
100
AcDbLine
 10
1213.7824016037
 20
-123.9784167599
 30
0.0
 11
1216.2824016037
 21
-123.5318347725
 31
0.0
  0
LWPOLYLINE
  5
2D5
330
1F
100
AcDbEntity
  8
0
  6
Continuous
 62
     7
370
    25
100
AcDbPolyline
 90
        3
 70
   128
 43
0.0
 10
1216.2824016037
 20
-123.5318347725
 10
1216.4601125703
 20
-123.5342648706
 10
1218.7824016037
 20
-123.9784167599
  0
LINE
  5
2D6
330
1F
100
AcDbEntity
  8
0
  6
Continuous
 62
     7
370
    25
100
AcDbLine
 10
1218.7824016037
 20
-128.0852527851
 30
0.0
 11
1218.7824016037
 21
-123.9784167599
 31
0.0
  0
LINE
  5
2D7
330
1F
100
AcDbEntity
  8
0
  6
Continuous
 62
     7
370
    25
100
AcDbLine
 10
1218.7824016037
 20
-128.0852527851
 30
0.0
 11
1216.2824016037
 21
-128.5318347725
 31
0.0
  0
LINE
  5
2D8
330
1F
100
AcDbEntity
  8
0
  6
Continuous
 62
     7
370
    25
100
AcDbLine
 10
1208.7824016037
 20
-128.0852527851
 30
0.0
 11
1208.7824016037
 21
-128.5318347725
 31
0.0
  0
LINE
  5
2D9
330
1F
100
AcDbEntity
  8
0
  6
Continuous
 62
     7
370
    25
100
AcDbLine
 10
1208.7824016037
 20
-128.5318347725
 30
0.0
 11
1211.2824016037
 21
-128.5318347725
 31
0.0
  0
LINE
  5
2DA
330
1F
100
AcDbEntity
  8
0
  6
Continuous
 62
     7
370
    25
100
AcDbLine
 10
1208.7824016037
 20
-123.5318347725
 30
0.0
 11
1208.7824016037
 21
-123.9784167599
 31
0.0
  0
LINE
  5
2DB
330
1F
100
AcDbEntity
  8
0
  6
Continuous
 62
     7
370
    25
100
AcDbLine
 10
1218.7824016037
 20
-123.5318347725
 30
0.0
 11
1218.7824016037
 21
-123.9784167599
 31
0.0
  0
LINE
  5
2DC
330
1F
100
AcDbEntity
  8
0
  6
Continuous
 62
     7
370
    25
100
AcDbLine
 10
1218.7824016037
 20
-128.0852527851
 30
0.0
 11
1218.7824016037
 21
-128.5318347725
 31
0.0
  0
LINE
  5
2DD
330
1F
100
AcDbEntity
  8
0
  6
Continuous
 62
     7
370
    25
100
AcDbLine
 10
1218.7824016037
 20
-128.5318347725
 30
0.0
 11
1216.2824016037
 21
-128.5318347725
 31
0.0
  0
LWPOLYLINE
  5
2DE
330
1F
100
AcDbEntity
  8
0
  6
Continuous
 62
     7
370
    25
100
AcDbPolyline
 90
        3
 70
   128
 43
0.0
 10
1211.2824016037
 20
434.6681652276
 10
1211.4601125703
 20
434.6657351295
 10
1213.7824016037
 20
434.2215832402
  0
LINE
  5
2DF
330
1F
100
AcDbEntity
  8
0
  6
Continuous
 62
     7
370
    25
100
AcDbLine
 10
1211.2824016037
 20
434.6681652276
 30
0.0
 11
1216.2824016037
 21
434.6681652276
 31
0.0
  0
LINE
  5
2E0
330
1F
100
AcDbEntity
  8
0
  6
Continuous
 62
     7
370
    25
100
AcDbLine
 10
1213.7824016037
 20
434.2215832402
 30
0.0
 11
1216.2824016037
 21
434.6681652276
 31
0.0
  0
LINE
  5
2E1
330
1F
100
AcDbEntity
  8
0
  6
Continuous
 62
     7
370
    25
100
AcDbLine
 10
1213.7824016037
 20
430.114747215
 30
0.0
 11
1211.2824016037
 21
429.6681652276
 31
0.0
  0
LWPOLYLINE
  5
2E2
330
1F
100
AcDbEntity
  8
0
  6
Continuous
 62
     7
370
    25
100
AcDbPolyline
 90
        3
 70
   128
 43
0.0
 10
1216.2824016037
 20
429.6681652276
 10
1216.1046906371
 20
429.6705953257
 10
1213.7824016037
 20
430.114747215
  0
LINE
  5
2E3
330
1F
100
AcDbEntity
  8
0
  6
Continuous
 62
     7
370
    25
100
AcDbLine
 10
1213.7824016037
 20
434.2215832402
 30
0.0
 11
1213.7824016037
 21
430.114747215
 31
0.0
  0
LWPOLYLINE
  5
2E4
330
1F
100
AcDbEntity
  8
0
  6
Continuous
 62
     7
370
    25
100
AcDbPolyline
 90
        3
 70
   128
 43
0.0
 10
1211.2824016037
 20
429.6681652276
 10
1211.1046906371
 20
429.6705953257
 10
1208.7824016037
 20
430.114747215
  0
LINE
  5
2E5
330
1F
100
AcDbEntity
  8
0
  6
Continuous
 62
     7
370
    25
100
AcDbLine
 10
1208.7824016037
 20
434.2215832402
 30
0.0
 11
1208.7824016037
 21
430.114747215
 31
0.0
  0
LINE
  5
2E6
330
1F
100
AcDbEntity
  8
0
  6
Continuous
 62
     7
370
    25
100
AcDbLine
 10
1208.7824016037
 20
434.2215832402
 30
0.0
 11
1211.2824016037
 21
434.6681652276
 31
0.0
  0
LWPOLYLINE
  5
2E7
330
1F
100
AcDbEntity
  8
0
  6
Continuous
 62
     7
370
    25
100
AcDbPolyline
 90
        3
 70
   128
 43
0.0
 10
1216.2824016037
 20
434.6681652276
 10
1216.4601125703
 20
434.6657351295
 10
1218.7824016037
 20
434.2215832402
  0
LINE
  5
2E8
330
1F
100
AcDbEntity
  8
0
  6
Continuous
 62
     7
370
    25
100
AcDbLine
 10
1218.7824016037
 20
434.2215832402
 30
0.0
 11
1218.7824016037
 21
430.114747215
 31
0.0
  0
LINE
  5
2E9
330
1F
100
AcDbEntity
  8
0
  6
Continuous
 62
     7
370
    25
100
AcDbLine
 10
1218.7824016037
 20
430.114747215
 30
0.0
 11
1216.2824016037
 21
429.6681652276
 31
0.0
  0
LINE
  5
2EA
330
1F
100
AcDbEntity
  8
0
  6
Continuous
 62
     7
370
    25
100
AcDbLine
 10
1218.7824016037
 20
429.6681652276
 30
0.0
 11
1218.7824016037
 21
430.114747215
 31
0.0
  0
LINE
  5
2EB
330
1F
100
AcDbEntity
  8
0
  6
Continuous
 62
     7
370
    25
100
AcDbLine
 10
1208.7824016037
 20
429.6681652276
 30
0.0
 11
1208.7824016037
 21
430.114747215
 31
0.0
  0
LINE
  5
2EC
330
1F
100
AcDbEntity
  8
0
  6
Continuous
 62
     7
370
    25
100
AcDbLine
 10
1208.7824016037
 20
434.2215832402
 30
0.0
 11
1208.7824016037
 21
434.6681652276
 31
0.0
  0
LINE
  5
2ED
330
1F
100
AcDbEntity
  8
0
  6
Continuous
 62
     7
370
    25
100
AcDbLine
 10
1208.7824016037
 20
434.6681652276
 30
0.0
 11
1211.2824016037
 21
434.6681652276
 31
0.0
  0
LINE
  5
2EE
330
1F
100
AcDbEntity
  8
0
  6
Continuous
 62
     7
370
    25
100
AcDbLine
 10
1218.7824016037
 20
434.2215832402
 30
0.0
 11
1218.7824016037
 21
434.6681652276
 31
0.0
  0
LINE
  5
2EF
330
1F
100
AcDbEntity
  8
0
  6
Continuous
 62
     7
370
    25
100
AcDbLine
 10
1218.7824016037
 20
434.6681652276
 30
0.0
 11
1216.2824016037
 21
434.6681652276
 31
0.0
  0
LINE
  5
2F0
330
1F
100
AcDbEntity
  8
0
  6
Continuous
 62
     7
370
    25
100
AcDbLine
 10
1219.7824016037
 20
-123.5318347725
 30
0.0
 11
1207.7824016037
 21
-123.5318347725
 31
0.0
  0
LINE
  5
2F1
330
1F
100
AcDbEntity
  8
0
  6
Continuous
 62
     7
370
    25
100
AcDbLine
 10
1207.7824016037
 20
429.6681652276
 30
0.0
 11
1219.7824016037
 21
429.6681652276
 31
0.0
  0
CIRCLE
  5
2F2
330
1F
100
AcDbEntity
  8
0
  6
Continuous
 62
     7
370
    25
100
AcDbCircle
 10
1413.4543632615
 20
398.0681652276
 30
0.0
 40
6.637921400061316
  0
CIRCLE
  5
2F3
330
1F
100
AcDbEntity
  8
0
  6
Continuous
 62
     7
370
    25
100
AcDbCircle
 10
1413.4543632615
 20
-91.9318347724
 30
0.0
 40
6.637921400061416
  0
LINE
  5
2F4
330
1F
100
AcDbEntity
  8
0
  6
Continuous
 62
     7
370
    25
100
AcDbLine
 10
1362.1785470901
 20
-106.9318347725
 30
0.0
 11
1449.5719110126
 21
-106.9318347725
 31
0.0
  0
LINE
  5
2F5
330
1F
100
AcDbEntity
  8
0
  6
Continuous
 62
     7
370
    25
100
AcDbLine
 10
1476.4719110126
 20
-106.9318347725
 30
0.0
 11
1583.6029165499
 21
-106.9318347725
 31
0.0
  0
ARC
  5
2F6
330
1F
100
AcDbEntity
  8
0
  6
Continuous
 62
     7
370
    25
100
AcDbCircle
 10
1583.3693077444
 20
-109.7317919341
 30
0.0
 40
2.809685601776621
100
AcDbArc
 50
355.9172243879
 51
85.2306876718
  0
ARC
  5
2F7
330
1F
100
AcDbEntity
  8
0
  6
Continuous
 62
     7
370
    25
100
AcDbCircle
 10
1362.2384104366
 20
-109.8743128523
 30
0.0
 40
2.943086962799332
100
AcDbArc
 50
91.1654951755
 51
181.119903408
  0
LINE
  5
2F8
330
1F
100
AcDbEntity
  8
0
  6
Continuous
 62
     7
370
    25
100
AcDbLine
 10
1586.1718630148
 20
-118.9318347725
 30
0.0
 11
1586.1718630148
 21
-109.9318347725
 31
0.0
  0
LINE
  5
2F9
330
1F
100
AcDbEntity
  8
0
  6
Continuous
 62
     7
370
    25
100
AcDbLine
 10
1359.2958856535
 20
-118.9318347725
 30
0.0
 11
1359.2958856535
 21
-109.9318347725
 31
0.0
  0
ARC
  5
2FA
330
1F
100
AcDbEntity
  8
0
  6
Continuous
 62
     7
370
    25
100
AcDbCircle
 10
1583.3693077444
 20
-119.1318776109
 30
0.0
 40
2.80968560177491
100
AcDbArc
 50
274.7693123281
 51
4.0827756121
  0
LINE
  5
2FB
330
1F
100
AcDbEntity
  8
0
  6
Continuous
 62
     7
370
    25
100
AcDbLine
 10
1583.6029165499
 20
-121.9318347725
 30
0.0
 11
1508.7663443141
 21
-121.9318347725
 31
0.0
  0
LINE
  5
2FC
330
1F
100
AcDbEntity
  8
0
  6
Continuous
 62
     7
370
    25
100
AcDbLine
 10
1418.480567815
 20
-121.9318347725
 30
0.0
 11
1362.1785470901
 21
-121.9318347725
 31
0.0
  0
ARC
  5
2FD
330
1F
100
AcDbEntity
  8
0
  6
Continuous
 62
     7
370
    25
100
AcDbCircle
 10
1362.2384104366
 20
-118.9893566926
 30
0.0
 40
2.943086962800842
100
AcDbArc
 50
178.8800965921
 51
268.8345048244
  0
ARC
  5
2FE
330
1F
100
AcDbEntity
  8
0
  6
Continuous
 62
     7
370
    25
100
AcDbCircle
 10
1652.3089584013
 20
-109.8411679697
 30
0.0
 40
2.910939803915206
100
AcDbArc
 50
358.2151243928
 51
88.0963119745
  0
LINE
  5
2FF
330
1F
100
AcDbEntity
  8
0
  6
Continuous
 62
     7
370
    25
100
AcDbLine
 10
1655.2184858669
 20
-109.9318347725
 30
0.0
 11
1586.1718630148
 21
-109.9318347725
 31
0.0
  0
LINE
  5
300
330
1F
100
AcDbEntity
  8
0
  6
Continuous
 62
     7
370
    25
100
AcDbLine
 10
1583.6029165499
 20
-106.9318347725
 30
0.0
 11
1652.4056583985
 21
-106.9318347725
 31
0.0
  0
LINE
  5
301
330
1F
100
AcDbEntity
  8
0
  6
Continuous
 62
     7
370
    25
100
AcDbLine
 10
1586.1718630148
 20
-118.9318347725
 30
0.0
 11
1655.2184858669
 21
-118.9318347725
 31
0.0
  0
ARC
  5
302
330
1F
100
AcDbEntity
  8
0
  6
Continuous
 62
     7
370
    25
100
AcDbCircle
 10
1652.3089584013
 20
-119.0225015752
 30
0.0
 40
2.910939803920716
100
AcDbArc
 50
271.9036880257
 51
1.7848756071
  0
LINE
  5
303
330
1F
100
AcDbEntity
  8
0
  6
Continuous
 62
     7
370
    25
100
AcDbLine
 10
1652.4056583985
 20
-121.9318347725
 30
0.0
 11
1583.6029165499
 21
-121.9318347725
 31
0.0
  0
LINE
  5
304
330
1F
100
AcDbEntity
  8
0
  6
Continuous
 62
     7
370
    25
100
AcDbLine
 10
1655.2184858669
 20
-118.9318347725
 30
0.0
 11
1655.2184858669
 21
-109.9318347725
 31
0.0
  0
LINE
  5
305
330
1F
100
AcDbEntity
  8
0
  6
Continuous
 62
     7
370
    25
100
AcDbLine
 10
1359.2958856535
 20
-109.9318347725
 30
0.0
 11
1304.5714757684
 21
-109.9318347725
 31
0.0
  0
ARC
  5
306
330
1F
100
AcDbEntity
  8
0
  6
Continuous
 62
     7
370
    25
100
AcDbCircle
 10
1307.5140005515
 20
-109.8743128523
 30
0.0
 40
2.943086962798272
100
AcDbArc
 50
91.1654951755
 51
181.119903408
  0
LINE
  5
307
330
1F
100
AcDbEntity
  8
0
  6
Continuous
 62
     7
370
    25
100
AcDbLine
 10
1307.454137205
 20
-106.9318347725
 30
0.0
 11
1362.1785470901
 21
-106.9318347725
 31
0.0
  0
LINE
  5
308
330
1F
100
AcDbEntity
  8
0
  6
Continuous
 62
     7
370
    25
100
AcDbLine
 10
1304.5714757684
 20
-118.9318347725
 30
0.0
 11
1359.2958856535
 21
-118.9318347725
 31
0.0
  0
ARC
  5
309
330
1F
100
AcDbEntity
  8
0
  6
Continuous
 62
     7
370
    25
100
AcDbCircle
 10
1307.5140005515
 20
-118.9893566926
 30
0.0
 40
2.943086962801165
100
AcDbArc
 50
178.8800965921
 51
268.8345048244
  0
LINE
  5
30A
330
1F
100
AcDbEntity
  8
0
  6
Continuous
 62
     7
370
    25
100
AcDbLine
 10
1362.1785470901
 20
-121.9318347725
 30
0.0
 11
1307.454137205
 21
-121.9318347725
 31
0.0
  0
LINE
  5
30B
330
1F
100
AcDbEntity
  8
0
  6
Continuous
 62
     7
370
    25
100
AcDbLine
 10
1304.5714757684
 20
-118.9318347725
 30
0.0
 11
1304.5714757684
 21
-109.9318347725
 31
0.0
  0
LINE
  5
30C
330
1F
100
AcDbEntity
  8
0
  6
Continuous
 62
     7
370
    25
100
AcDbLine
 10
1652.4056583985
 20
-106.9318347725
 30
0.0
 11
1652.8423943056
 21
-106.9318347725
 31
0.0
  0
LINE
  5
30D
330
1F
100
AcDbEntity
  8
0
  6
Continuous
 62
     7
370
    25
100
AcDbLine
 10
1652.8423943056
 20
-121.9318347725
 30
0.0
 11
1652.4056583985
 21
-121.9318347725
 31
0.0
  0
LINE
  5
30E
330
1F
100
AcDbEntity
  8
0
  6
Continuous
 62
     7
370
    25
100
AcDbLine
 10
1652.8423943056
 20
-106.9318347725
 30
0.0
 11
1676.9979598857
 21
-106.9318347725
 31
0.0
  0
LINE
  5
30F
330
1F
100
AcDbEntity
  8
0
  6
Continuous
 62
     7
370
    25
100
AcDbLine
 10
1676.9979598857
 20
-121.9318347725
 30
0.0
 11
1652.8423943056
 21
-121.9318347725
 31
0.0
  0
LINE
  5
310
330
1F
100
AcDbEntity
  8
0
  6
Continuous
 62
     7
370
    25
100
AcDbLine
 10
1304.5714757684
 20
-109.9318347725
 30
0.0
 11
1294.6274371965
 21
-109.9318347725
 31
0.0
  0
ARC
  5
311
330
1F
100
AcDbEntity
  8
0
  6
Continuous
 62
     7
370
    25
100
AcDbCircle
 10
1272.175127728
 20
-109.1826772999
 30
0.0
 40
22.46480441457938
100
AcDbArc
 50
358.0889430245
 51
5.7503519982
  0
LINE
  5
312
330
1F
100
AcDbEntity
  8
0
  6
Continuous
 62
     7
370
    25
100
AcDbLine
 10
1294.5268870615
 20
-106.9318347725
 30
0.0
 11
1307.454137205
 21
-106.9318347725
 31
0.0
  0
LINE
  5
313
330
1F
100
AcDbEntity
  8
0
  6
Continuous
 62
     7
370
    25
100
AcDbLine
 10
1294.6274371965
 20
-118.9318347725
 30
0.0
 11
1304.5714757684
 21
-118.9318347725
 31
0.0
  0
ARC
  5
314
330
1F
100
AcDbEntity
  8
0
  6
Continuous
 62
     7
370
    25
100
AcDbCircle
 10
1272.1751277282
 20
-119.680992245
 30
0.0
 40
22.46480441441004
100
AcDbArc
 50
354.2496480018
 51
1.9110569755
  0
LINE
  5
315
330
1F
100
AcDbEntity
  8
0
  6
Continuous
 62
     7
370
    25
100
AcDbLine
 10
1307.454137205
 20
-121.9318347725
 30
0.0
 11
1294.5268870615
 21
-121.9318347725
 31
0.0
  0
LINE
  5
316
330
1F
100
AcDbEntity
  8
0
  6
Continuous
 62
     7
370
    25
100
AcDbLine
 10
1294.6274371965
 20
-118.9318347725
 30
0.0
 11
1294.6274371965
 21
-109.9318347725
 31
0.0
  0
LINE
  5
317
330
1F
100
AcDbEntity
  8
0
  6
Continuous
 62
     7
370
    25
100
AcDbLine
 10
1294.6274371965
 20
-109.9318347725
 30
0.0
 11
1279.9551590644
 21
-109.9318347725
 31
0.0
  0
LINE
  5
318
330
1F
100
AcDbEntity
  8
0
  6
Continuous
 62
     7
370
    25
100
AcDbLine
 10
1279.9551590644
 20
-118.9318347725
 30
0.0
 11
1294.6274371965
 21
-118.9318347725
 31
0.0
  0
LINE
  5
319
330
1F
100
AcDbEntity
  8
0
  6
Continuous
 62
     7
370
    25
100
AcDbLine
 10
1279.9551590644
 20
-118.9318347725
 30
0.0
 11
1279.9551590644
 21
-109.9318347725
 31
0.0
  0
ARC
  5
31A
330
1F
100
AcDbEntity
  8
0
  6
Continuous
 62
     7
370
    25
100
AcDbCircle
 10
1257.5028495964
 20
-119.680992245
 30
0.0
 40
22.46480441415281
100
AcDbArc
 50
354.2496480017
 51
1.9110569755
  0
LINE
  5
31B
330
1F
100
AcDbEntity
  8
0
  6
Continuous
 62
     7
370
    25
100
AcDbLine
 10
1294.5268870615
 20
-121.9318347725
 30
0.0
 11
1279.8546089294
 21
-121.9318347725
 31
0.0
  0
ARC
  5
31C
330
1F
100
AcDbEntity
  8
0
  6
Continuous
 62
     7
370
    25
100
AcDbCircle
 10
1257.5028495964
 20
-109.1826772999
 30
0.0
 40
22.46480441415258
100
AcDbArc
 50
358.0889430245
 51
5.7503519983
  0
LINE
  5
31D
330
1F
100
AcDbEntity
  8
0
  6
Continuous
 62
     7
370
    25
100
AcDbLine
 10
1279.8546089294
 20
-106.9318347725
 30
0.0
 11
1294.5268870615
 21
-106.9318347725
 31
0.0
  0
LINE
  5
31E
330
1F
100
AcDbEntity
  8
0
  6
Continuous
 62
     7
370
    25
100
AcDbLine
 10
1279.9551590644
 20
-109.9318347725
 30
0.0
 11
1248.9665129992
 21
-109.9318347725
 31
0.0
  0
ARC
  5
31F
330
1F
100
AcDbEntity
  8
0
  6
Continuous
 62
     7
370
    25
100
AcDbCircle
 10
1251.9656704719
 20
-109.930992245
 30
0.0
 40
2.999157591003447
100
AcDbArc
 50
90.0161046575
 51
180.0160956093
  0
LINE
  5
320
330
1F
100
AcDbEntity
  8
0
  6
Continuous
 62
     7
370
    25
100
AcDbLine
 10
1251.9648274708
 20
-106.9318347725
 30
0.0
 11
1279.8546089294
 21
-106.9318347725
 31
0.0
  0
LINE
  5
321
330
1F
100
AcDbEntity
  8
0
  6
Continuous
 62
     7
370
    25
100
AcDbLine
 10
1248.9665129992
 20
-118.9318347725
 30
0.0
 11
1279.9551590644
 21
-118.9318347725
 31
0.0
  0
LINE
  5
322
330
1F
100
AcDbEntity
  8
0
  6
Continuous
 62
     7
370
    25
100
AcDbLine
 10
1248.9665129992
 20
-118.9318347725
 30
0.0
 11
1248.9665129992
 21
-109.9318347725
 31
0.0
  0
ARC
  5
323
330
1F
100
AcDbEntity
  8
0
  6
Continuous
 62
     7
370
    25
100
AcDbCircle
 10
1251.9656704719
 20
-118.9326772999
 30
0.0
 40
2.9991575910084
100
AcDbArc
 50
179.9839043908
 51
269.9838953424
  0
LINE
  5
324
330
1F
100
AcDbEntity
  8
0
  6
Continuous
 62
     7
370
    25
100
AcDbLine
 10
1279.8546089294
 20
-121.9318347725
 30
0.0
 11
1251.9648274708
 21
-121.9318347725
 31
0.0
  0
ARC
  5
325
330
1F
100
AcDbEntity
  8
0
  6
Continuous
 62
     7
370
    25
100
AcDbCircle
 10
1248.6158388491
 20
-118.9326772999
 30
0.0
 40
2.999157591006035
100
AcDbArc
 50
179.9839043907
 51
269.9838953424
  0
LINE
  5
326
330
1F
100
AcDbEntity
  8
0
  6
Continuous
 62
     7
370
    25
100
AcDbLine
 10
1245.6166813764
 20
-118.9318347725
 30
0.0
 11
1248.9665129992
 21
-118.9318347725
 31
0.0
  0
LINE
  5
327
330
1F
100
AcDbEntity
  8
0
  6
Continuous
 62
     7
370
    25
100
AcDbLine
 10
1251.9648274708
 20
-121.9318347725
 30
0.0
 11
1248.614995848
 21
-121.9318347725
 31
0.0
  0
LINE
  5
328
330
1F
100
AcDbEntity
  8
0
  6
Continuous
 62
     7
370
    25
100
AcDbLine
 10
1248.9665129992
 20
-109.9318347725
 30
0.0
 11
1245.6166813764
 21
-109.9318347725
 31
0.0
  0
ARC
  5
329
330
1F
100
AcDbEntity
  8
0
  6
Continuous
 62
     7
370
    25
100
AcDbCircle
 10
1248.6158388491
 20
-109.930992245
 30
0.0
 40
2.999157591004535
100
AcDbArc
 50
90.0161046576
 51
180.0160956093
  0
LINE
  5
32A
330
1F
100
AcDbEntity
  8
0
  6
Continuous
 62
     7
370
    25
100
AcDbLine
 10
1248.614995848
 20
-106.9318347725
 30
0.0
 11
1251.9648274708
 21
-106.9318347725
 31
0.0
  0
LINE
  5
32B
330
1F
100
AcDbEntity
  8
0
  6
Continuous
 62
     7
370
    25
100
AcDbLine
 10
1245.6166813764
 20
-118.9318347725
 30
0.0
 11
1245.6166813764
 21
-109.9318347725
 31
0.0
  0
LINE
  5
32C
330
1F
100
AcDbEntity
  8
0
  6
Continuous
 62
     7
370
    25
100
AcDbLine
 10
1245.6166813764
 20
-109.9318347725
 30
0.0
 11
1184.586684915
 21
-109.9318347725
 31
0.0
  0
ARC
  5
32D
330
1F
100
AcDbEntity
  8
0
  6
Continuous
 62
     7
370
    25
100
AcDbCircle
 10
1187.3946852812
 20
-109.7374815456
 30
0.0
 40
2.814718322138555
100
AcDbArc
 50
94.6012686921
 51
183.9593614853
  0
LINE
  5
32E
330
1F
100
AcDbEntity
  8
0
  6
Continuous
 62
     7
370
    25
100
AcDbLine
 10
1241.4986429569
 20
-106.9318347725
 30
0.0
 11
1248.614995848
 21
-106.9318347725
 31
0.0
  0
ARC
  5
32F
330
1F
100
AcDbEntity
  8
0
  6
Continuous
 62
     7
370
    25
100
AcDbCircle
 10
1187.3946852812
 20
-119.1261879993
 30
0.0
 40
2.814718322144731
100
AcDbArc
 50
176.0406385148
 51
265.3987313077
  0
LINE
  5
330
330
1F
100
AcDbEntity
  8
0
  6
Continuous
 62
     7
370
    25
100
AcDbLine
 10
1184.586684915
 20
-118.9318347725
 30
0.0
 11
1245.6166813764
 21
-118.9318347725
 31
0.0
  0
LINE
  5
331
330
1F
100
AcDbEntity
  8
0
  6
Continuous
 62
     7
370
    25
100
AcDbLine
 10
1248.614995848
 20
-121.9318347725
 30
0.0
 11
1187.1688857744
 21
-121.9318347725
 31
0.0
  0
LINE
  5
332
330
1F
100
AcDbEntity
  8
0
  6
Continuous
 62
     7
370
    25
100
AcDbLine
 10
1184.586684915
 20
-118.9318347725
 30
0.0
 11
1184.586684915
 21
-109.9318347725
 31
0.0
  0
ARC
  5
333
330
1F
100
AcDbEntity
  8
0
  6
Continuous
 62
     7
370
    25
100
AcDbCircle
 10
1175.7220608282
 20
-119.1261879993
 30
0.0
 40
2.814718322140466
100
AcDbArc
 50
176.0406385147
 51
265.3987313078
  0
LINE
  5
334
330
1F
100
AcDbEntity
  8
0
  6
Continuous
 62
     7
370
    25
100
AcDbLine
 10
1172.914060462
 20
-118.9318347725
 30
0.0
 11
1184.586684915
 21
-118.9318347725
 31
0.0
  0
LINE
  5
335
330
1F
100
AcDbEntity
  8
0
  6
Continuous
 62
     7
370
    25
100
AcDbLine
 10
1187.1688857744
 20
-121.9318347725
 30
0.0
 11
1175.4962613214
 21
-121.9318347725
 31
0.0
  0
LINE
  5
336
330
1F
100
AcDbEntity
  8
0
  6
Continuous
 62
     7
370
    25
100
AcDbLine
 10
1184.586684915
 20
-109.9318347725
 30
0.0
 11
1172.914060462
 21
-109.9318347725
 31
0.0
  0
ARC
  5
337
330
1F
100
AcDbEntity
  8
0
  6
Continuous
 62
     7
370
    25
100
AcDbCircle
 10
1175.7220608282
 20
-109.7374815456
 30
0.0
 40
2.814718322144246
100
AcDbArc
 50
94.6012686923
 51
183.9593614852
  0
LINE
  5
338
330
1F
100
AcDbEntity
  8
0
  6
Continuous
 62
     7
370
    25
100
AcDbLine
 10
1172.914060462
 20
-109.9318347725
 30
0.0
 11
1172.914060462
 21
-118.9318347725
 31
0.0
  0
LINE
  5
339
330
1F
100
AcDbEntity
  8
0
  6
Continuous
 62
     7
370
    25
100
AcDbLine
 10
1175.4962613214
 20
-121.9318347725
 30
0.0
 11
1175.0784621807
 21
-121.9318347725
 31
0.0
  0
ARC
  5
33A
330
1F
100
AcDbEntity
  8
0
  6
Continuous
 62
     7
370
    25
100
AcDbCircle
 10
1172.9154607187
 20
-119.061640743
 30
0.0
 40
2.873741456479846
100
AcDbArc
 50
177.4110873339
 51
267.1528181777
  0
LINE
  5
33B
330
1F
100
AcDbEntity
  8
0
  6
Continuous
 62
     7
370
    25
100
AcDbLine
 10
1175.0784621807
 20
-121.9318347725
 30
0.0
 11
1172.7727155199
 21
-121.9318347725
 31
0.0
  0
ARC
  5
33C
330
1F
100
AcDbEntity
  8
0
  6
Continuous
 62
     7
370
    25
100
AcDbCircle
 10
1172.9154607187
 20
-109.802028802
 30
0.0
 40
2.873741456483112
100
AcDbArc
 50
92.8471818224
 51
182.588912666
  0
LINE
  5
33D
330
1F
100
AcDbEntity
  8
0
  6
Continuous
 62
     7
370
    25
100
AcDbLine
 10
1170.044652406
 20
-109.9318347725
 30
0.0
 11
1170.044652406
 21
-118.9318347725
 31
0.0
  0
LINE
  5
33E
330
1F
100
AcDbEntity
  8
0
  6
Continuous
 62
     7
370
    25
100
AcDbLine
 10
1172.7727155199
 20
-121.9318347725
 30
0.0
 11
1172.5007786339
 21
-121.9318347725
 31
0.0
  0
LINE
  5
33F
330
1F
100
AcDbEntity
  8
0
  6
Continuous
 62
     7
370
    25
100
AcDbLine
 10
1362.1785470901
 20
428.0681652275
 30
0.0
 11
1418.5066541383
 21
428.0681652275
 31
0.0
  0
LINE
  5
340
330
1F
100
AcDbEntity
  8
0
  6
Continuous
 62
     7
370
    25
100
AcDbLine
 10
1508.7663443141
 20
428.0681652275
 30
0.0
 11
1583.6029165499
 21
428.0681652275
 31
0.0
  0
ARC
  5
341
330
1F
100
AcDbEntity
  8
0
  6
Continuous
 62
     7
370
    25
100
AcDbCircle
 10
1583.3693077444
 20
425.2682080659
 30
0.0
 40
2.809685601776678
100
AcDbArc
 50
355.9172243879
 51
85.2306876718
  0
ARC
  5
342
330
1F
100
AcDbEntity
  8
0
  6
Continuous
 62
     7
370
    25
100
AcDbCircle
 10
1362.2384104366
 20
425.1256871477
 30
0.0
 40
2.943086962799361
100
AcDbArc
 50
91.1654951755
 51
181.119903408
  0
ARC
  5
343
330
1F
100
AcDbEntity
  8
0
  6
Continuous
 62
     7
370
    25
100
AcDbCircle
 10
1583.3693077444
 20
415.8681223891
 30
0.0
 40
2.809685601775054
100
AcDbArc
 50
274.7693123281
 51
4.0827756121
  0
LINE
  5
344
330
1F
100
AcDbEntity
  8
0
  6
Continuous
 62
     7
370
    25
100
AcDbLine
 10
1583.6029165499
 20
413.0681652275
 30
0.0
 11
1476.4719110126
 21
413.0681652275
 31
0.0
  0
LINE
  5
345
330
1F
100
AcDbEntity
  8
0
  6
Continuous
 62
     7
370
    25
100
AcDbLine
 10
1449.5719110126
 20
413.0681652275
 30
0.0
 11
1362.1785470901
 21
413.0681652275
 31
0.0
  0
ARC
  5
346
330
1F
100
AcDbEntity
  8
0
  6
Continuous
 62
     7
370
    25
100
AcDbCircle
 10
1362.2384104366
 20
416.0106433074
 30
0.0
 40
2.943086962800582
100
AcDbArc
 50
178.880096592
 51
268.8345048244
  0
LINE
  5
347
330
1F
100
AcDbEntity
  8
0
  6
Continuous
 62
     7
370
    25
100
AcDbLine
 10
1586.1718630148
 20
416.0681652275
 30
0.0
 11
1586.1718630148
 21
425.0681652275
 31
0.0
  0
LINE
  5
348
330
1F
100
AcDbEntity
  8
0
  6
Continuous
 62
     7
370
    25
100
AcDbLine
 10
1359.2958856535
 20
416.0681652275
 30
0.0
 11
1359.2958856535
 21
425.0681652275
 31
0.0
  0
LINE
  5
349
330
1F
100
AcDbEntity
  8
0
  6
Continuous
 62
     7
370
    25
100
AcDbLine
 10
1586.1718630148
 20
416.0681652275
 30
0.0
 11
1655.2184858669
 21
416.0681652275
 31
0.0
  0
ARC
  5
34A
330
1F
100
AcDbEntity
  8
0
  6
Continuous
 62
     7
370
    25
100
AcDbCircle
 10
1652.3089584013
 20
415.9774984248
 30
0.0
 40
2.910939803920716
100
AcDbArc
 50
271.9036880257
 51
1.7848756071
  0
LINE
  5
34B
330
1F
100
AcDbEntity
  8
0
  6
Continuous
 62
     7
370
    25
100
AcDbLine
 10
1652.4056583985
 20
413.0681652275
 30
0.0
 11
1583.6029165499
 21
413.0681652275
 31
0.0
  0
ARC
  5
34C
330
1F
100
AcDbEntity
  8
0
  6
Continuous
 62
     7
370
    25
100
AcDbCircle
 10
1652.3089584013
 20
425.1588320303
 30
0.0
 40
2.910939803914754
100
AcDbArc
 50
358.2151243928
 51
88.0963119745
  0
LINE
  5
34D
330
1F
100
AcDbEntity
  8
0
  6
Continuous
 62
     7
370
    25
100
AcDbLine
 10
1655.2184858669
 20
425.0681652275
 30
0.0
 11
1586.1718630148
 21
425.0681652275
 31
0.0
  0
LINE
  5
34E
330
1F
100
AcDbEntity
  8
0
  6
Continuous
 62
     7
370
    25
100
AcDbLine
 10
1583.6029165499
 20
428.0681652275
 30
0.0
 11
1652.4056583985
 21
428.0681652275
 31
0.0
  0
LINE
  5
34F
330
1F
100
AcDbEntity
  8
0
  6
Continuous
 62
     7
370
    25
100
AcDbLine
 10
1655.2184858669
 20
416.0681652275
 30
0.0
 11
1655.2184858669
 21
425.0681652275
 31
0.0
  0
LINE
  5
350
330
1F
100
AcDbEntity
  8
0
  6
Continuous
 62
     7
370
    25
100
AcDbLine
 10
1304.5714757684
 20
416.0681652275
 30
0.0
 11
1359.2958856535
 21
416.0681652275
 31
0.0
  0
ARC
  5
351
330
1F
100
AcDbEntity
  8
0
  6
Continuous
 62
     7
370
    25
100
AcDbCircle
 10
1307.5140005515
 20
416.0106433074
 30
0.0
 40
2.943086962800941
100
AcDbArc
 50
178.8800965921
 51
268.8345048244
  0
LINE
  5
352
330
1F
100
AcDbEntity
  8
0
  6
Continuous
 62
     7
370
    25
100
AcDbLine
 10
1362.1785470901
 20
413.0681652275
 30
0.0
 11
1307.454137205
 21
413.0681652275
 31
0.0
  0
LINE
  5
353
330
1F
100
AcDbEntity
  8
0
  6
Continuous
 62
     7
370
    25
100
AcDbLine
 10
1359.2958856535
 20
425.0681652275
 30
0.0
 11
1304.5714757684
 21
425.0681652275
 31
0.0
  0
ARC
  5
354
330
1F
100
AcDbEntity
  8
0
  6
Continuous
 62
     7
370
    25
100
AcDbCircle
 10
1307.5140005515
 20
425.1256871477
 30
0.0
 40
2.943086962798271
100
AcDbArc
 50
91.1654951755
 51
181.119903408
  0
LINE
  5
355
330
1F
100
AcDbEntity
  8
0
  6
Continuous
 62
     7
370
    25
100
AcDbLine
 10
1307.454137205
 20
428.0681652275
 30
0.0
 11
1362.1785470901
 21
428.0681652275
 31
0.0
  0
LINE
  5
356
330
1F
100
AcDbEntity
  8
0
  6
Continuous
 62
     7
370
    25
100
AcDbLine
 10
1304.5714757684
 20
416.0681652275
 30
0.0
 11
1304.5714757684
 21
425.0681652275
 31
0.0
  0
LINE
  5
357
330
1F
100
AcDbEntity
  8
0
  6
Continuous
 62
     7
370
    25
100
AcDbLine
 10
1652.8423943056
 20
413.0681652275
 30
0.0
 11
1652.4056583985
 21
413.0681652275
 31
0.0
  0
LINE
  5
358
330
1F
100
AcDbEntity
  8
0
  6
Continuous
 62
     7
370
    25
100
AcDbLine
 10
1652.4056583985
 20
428.0681652275
 30
0.0
 11
1652.8423943056
 21
428.0681652275
 31
0.0
  0
LINE
  5
359
330
1F
100
AcDbEntity
  8
0
  6
Continuous
 62
     7
370
    25
100
AcDbLine
 10
1652.8423943056
 20
428.0681652275
 30
0.0
 11
1676.9979598857
 21
428.0681652275
 31
0.0
  0
LINE
  5
35A
330
1F
100
AcDbEntity
  8
0
  6
Continuous
 62
     7
370
    25
100
AcDbLine
 10
1676.9979598857
 20
413.0681652275
 30
0.0
 11
1652.8423943056
 21
413.0681652275
 31
0.0
  0
LINE
  5
35B
330
1F
100
AcDbEntity
  8
0
  6
Continuous
 62
     7
370
    25
100
AcDbLine
 10
1304.5714757684
 20
425.0681652275
 30
0.0
 11
1294.6274371965
 21
425.0681652275
 31
0.0
  0
ARC
  5
35C
330
1F
100
AcDbEntity
  8
0
  6
Continuous
 62
     7
370
    25
100
AcDbCircle
 10
1272.175127728
 20
425.8173227001
 30
0.0
 40
22.46480441458097
100
AcDbArc
 50
358.0889430245
 51
5.7503519982
  0
LINE
  5
35D
330
1F
100
AcDbEntity
  8
0
  6
Continuous
 62
     7
370
    25
100
AcDbLine
 10
1294.5268870615
 20
428.0681652275
 30
0.0
 11
1307.454137205
 21
428.0681652275
 31
0.0
  0
LINE
  5
35E
330
1F
100
AcDbEntity
  8
0
  6
Continuous
 62
     7
370
    25
100
AcDbLine
 10
1294.6274371965
 20
416.0681652275
 30
0.0
 11
1304.5714757684
 21
416.0681652275
 31
0.0
  0
ARC
  5
35F
330
1F
100
AcDbEntity
  8
0
  6
Continuous
 62
     7
370
    25
100
AcDbCircle
 10
1272.1751277282
 20
415.319007755
 30
0.0
 40
22.46480441441141
100
AcDbArc
 50
354.2496480018
 51
1.9110569755
  0
LINE
  5
360
330
1F
100
AcDbEntity
  8
0
  6
Continuous
 62
     7
370
    25
100
AcDbLine
 10
1307.454137205
 20
413.0681652275
 30
0.0
 11
1294.5268870615
 21
413.0681652275
 31
0.0
  0
LINE
  5
361
330
1F
100
AcDbEntity
  8
0
  6
Continuous
 62
     7
370
    25
100
AcDbLine
 10
1294.6274371965
 20
416.0681652275
 30
0.0
 11
1294.6274371965
 21
425.0681652275
 31
0.0
  0
LINE
  5
362
330
1F
100
AcDbEntity
  8
0
  6
Continuous
 62
     7
370
    25
100
AcDbLine
 10
1279.9551590644
 20
416.0681652275
 30
0.0
 11
1294.6274371965
 21
416.0681652275
 31
0.0
  0
ARC
  5
363
330
1F
100
AcDbEntity
  8
0
  6
Continuous
 62
     7
370
    25
100
AcDbCircle
 10
1257.5028495964
 20
415.319007755
 30
0.0
 40
22.46480441415281
100
AcDbArc
 50
354.2496480017
 51
1.9110569755
  0
LINE
  5
364
330
1F
100
AcDbEntity
  8
0
  6
Continuous
 62
     7
370
    25
100
AcDbLine
 10
1294.5268870615
 20
413.0681652275
 30
0.0
 11
1279.8546089294
 21
413.0681652275
 31
0.0
  0
LINE
  5
365
330
1F
100
AcDbEntity
  8
0
  6
Continuous
 62
     7
370
    25
100
AcDbLine
 10
1294.6274371965
 20
425.0681652275
 30
0.0
 11
1279.9551590644
 21
425.0681652275
 31
0.0
  0
LINE
  5
366
330
1F
100
AcDbEntity
  8
0
  6
Continuous
 62
     7
370
    25
100
AcDbLine
 10
1279.9551590644
 20
416.0681652275
 30
0.0
 11
1279.9551590644
 21
425.0681652275
 31
0.0
  0
ARC
  5
367
330
1F
100
AcDbEntity
  8
0
  6
Continuous
 62
     7
370
    25
100
AcDbCircle
 10
1257.5028495964
 20
425.8173227001
 30
0.0
 40
22.46480441415303
100
AcDbArc
 50
358.0889430245
 51
5.7503519983
  0
LINE
  5
368
330
1F
100
AcDbEntity
  8
0
  6
Continuous
 62
     7
370
    25
100
AcDbLine
 10
1279.8546089294
 20
428.0681652275
 30
0.0
 11
1294.5268870615
 21
428.0681652275
 31
0.0
  0
LINE
  5
369
330
1F
100
AcDbEntity
  8
0
  6
Continuous
 62
     7
370
    25
100
AcDbLine
 10
1279.9551590644
 20
425.0681652275
 30
0.0
 11
1248.9665129992
 21
425.0681652275
 31
0.0
  0
ARC
  5
36A
330
1F
100
AcDbEntity
  8
0
  6
Continuous
 62
     7
370
    25
100
AcDbCircle
 10
1251.9656704719
 20
425.069007755
 30
0.0
 40
2.999157591003418
100
AcDbArc
 50
90.0161046575
 51
180.0160956093
  0
LINE
  5
36B
330
1F
100
AcDbEntity
  8
0
  6
Continuous
 62
     7
370
    25
100
AcDbLine
 10
1251.9648274708
 20
428.0681652275
 30
0.0
 11
1279.8546089294
 21
428.0681652275
 31
0.0
  0
LINE
  5
36C
330
1F
100
AcDbEntity
  8
0
  6
Continuous
 62
     7
370
    25
100
AcDbLine
 10
1248.9665129992
 20
416.0681652275
 30
0.0
 11
1279.9551590644
 21
416.0681652275
 31
0.0
  0
LINE
  5
36D
330
1F
100
AcDbEntity
  8
0
  6
Continuous
 62
     7
370
    25
100
AcDbLine
 10
1248.9665129992
 20
416.0681652275
 30
0.0
 11
1248.9665129992
 21
425.0681652275
 31
0.0
  0
ARC
  5
36E
330
1F
100
AcDbEntity
  8
0
  6
Continuous
 62
     7
370
    25
100
AcDbCircle
 10
1251.9656704719
 20
416.0673227001
 30
0.0
 40
2.9991575910084
100
AcDbArc
 50
179.9839043908
 51
269.9838953424
  0
LINE
  5
36F
330
1F
100
AcDbEntity
  8
0
  6
Continuous
 62
     7
370
    25
100
AcDbLine
 10
1279.8546089294
 20
413.0681652275
 30
0.0
 11
1251.9648274708
 21
413.0681652275
 31
0.0
  0
LINE
  5
370
330
1F
100
AcDbEntity
  8
0
  6
Continuous
 62
     7
370
    25
100
AcDbLine
 10
1248.9665129992
 20
425.0681652275
 30
0.0
 11
1245.6166813764
 21
425.0681652275
 31
0.0
  0
ARC
  5
371
330
1F
100
AcDbEntity
  8
0
  6
Continuous
 62
     7
370
    25
100
AcDbCircle
 10
1248.6158388491
 20
425.069007755
 30
0.0
 40
2.999157591004535
100
AcDbArc
 50
90.0161046576
 51
180.0160956093
  0
LINE
  5
372
330
1F
100
AcDbEntity
  8
0
  6
Continuous
 62
     7
370
    25
100
AcDbLine
 10
1248.614995848
 20
428.0681652275
 30
0.0
 11
1251.9648274708
 21
428.0681652275
 31
0.0
  0
ARC
  5
373
330
1F
100
AcDbEntity
  8
0
  6
Continuous
 62
     7
370
    25
100
AcDbCircle
 10
1248.6158388491
 20
416.0673227001
 30
0.0
 40
2.999157591005978
100
AcDbArc
 50
179.9839043907
 51
269.9838953424
  0
LINE
  5
374
330
1F
100
AcDbEntity
  8
0
  6
Continuous
 62
     7
370
    25
100
AcDbLine
 10
1245.6166813764
 20
416.0681652275
 30
0.0
 11
1248.9665129992
 21
416.0681652275
 31
0.0
  0
LINE
  5
375
330
1F
100
AcDbEntity
  8
0
  6
Continuous
 62
     7
370
    25
100
AcDbLine
 10
1251.9648274708
 20
413.0681652275
 30
0.0
 11
1248.614995848
 21
413.0681652275
 31
0.0
  0
LINE
  5
376
330
1F
100
AcDbEntity
  8
0
  6
Continuous
 62
     7
370
    25
100
AcDbLine
 10
1245.6166813764
 20
416.0681652275
 30
0.0
 11
1245.6166813764
 21
425.0681652275
 31
0.0
  0
LINE
  5
377
330
1F
100
AcDbEntity
  8
0
  6
Continuous
 62
     7
370
    25
100
AcDbLine
 10
1245.6166813764
 20
425.0681652275
 30
0.0
 11
1184.586684915
 21
425.0681652275
 31
0.0
  0
ARC
  5
378
330
1F
100
AcDbEntity
  8
0
  6
Continuous
 62
     7
370
    25
100
AcDbCircle
 10
1187.3946852812
 20
425.2625184544
 30
0.0
 40
2.814718322138746
100
AcDbArc
 50
94.6012686921
 51
183.9593614853
  0
LINE
  5
379
330
1F
100
AcDbEntity
  8
0
  6
Continuous
 62
     7
370
    25
100
AcDbLine
 10
1187.1688857744
 20
428.0681652275
 30
0.0
 11
1248.614995848
 21
428.0681652275
 31
0.0
  0
ARC
  5
37A
330
1F
100
AcDbEntity
  8
0
  6
Continuous
 62
     7
370
    25
100
AcDbCircle
 10
1187.3946852812
 20
415.8738120007
 30
0.0
 40
2.814718322144725
100
AcDbArc
 50
176.0406385148
 51
265.3987313077
  0
LINE
  5
37B
330
1F
100
AcDbEntity
  8
0
  6
Continuous
 62
     7
370
    25
100
AcDbLine
 10
1184.586684915
 20
416.0681652275
 30
0.0
 11
1245.6166813764
 21
416.0681652275
 31
0.0
  0
LINE
  5
37C
330
1F
100
AcDbEntity
  8
0
  6
Continuous
 62
     7
370
    25
100
AcDbLine
 10
1248.614995848
 20
413.0681652275
 30
0.0
 11
1241.4986429569
 21
413.0681652275
 31
0.0
  0
LINE
  5
37D
330
1F
100
AcDbEntity
  8
0
  6
Continuous
 62
     7
370
    25
100
AcDbLine
 10
1184.586684915
 20
416.0681652275
 30
0.0
 11
1184.586684915
 21
425.0681652275
 31
0.0
  0
ARC
  5
37E
330
1F
100
AcDbEntity
  8
0
  6
Continuous
 62
     7
370
    25
100
AcDbCircle
 10
1175.7220608282
 20
415.8738120007
 30
0.0
 40
2.814718322140447
100
AcDbArc
 50
176.0406385147
 51
265.3987313078
  0
LINE
  5
37F
330
1F
100
AcDbEntity
  8
0
  6
Continuous
 62
     7
370
    25
100
AcDbLine
 10
1172.914060462
 20
416.0681652275
 30
0.0
 11
1184.586684915
 21
416.0681652275
 31
0.0
  0
LINE
  5
380
330
1F
100
AcDbEntity
  8
0
  6
Continuous
 62
     7
370
    25
100
AcDbLine
 10
1184.586684915
 20
425.0681652275
 30
0.0
 11
1172.914060462
 21
425.0681652275
 31
0.0
  0
ARC
  5
381
330
1F
100
AcDbEntity
  8
0
  6
Continuous
 62
     7
370
    25
100
AcDbCircle
 10
1175.7220608282
 20
425.2625184544
 30
0.0
 40
2.814718322144393
100
AcDbArc
 50
94.6012686923
 51
183.9593614852
  0
LINE
  5
382
330
1F
100
AcDbEntity
  8
0
  6
Continuous
 62
     7
370
    25
100
AcDbLine
 10
1175.4962613214
 20
428.0681652275
 30
0.0
 11
1187.1688857744
 21
428.0681652275
 31
0.0
  0
LINE
  5
383
330
1F
100
AcDbEntity
  8
0
  6
Continuous
 62
     7
370
    25
100
AcDbLine
 10
1172.914060462
 20
425.0681652275
 30
0.0
 11
1172.914060462
 21
416.0681652275
 31
0.0
  0
LINE
  5
384
330
1F
100
AcDbEntity
  8
0
  6
Continuous
 62
     7
370
    25
100
AcDbLine
 10
1175.0784621807
 20
428.0681652275
 30
0.0
 11
1175.4962613214
 21
428.0681652275
 31
0.0
  0
ARC
  5
385
330
1F
100
AcDbEntity
  8
0
  6
Continuous
 62
     7
370
    25
100
AcDbCircle
 10
1172.9154607187
 20
425.1979711981
 30
0.0
 40
2.873741456483109
100
AcDbArc
 50
92.8471818224
 51
182.588912666
  0
LINE
  5
386
330
1F
100
AcDbEntity
  8
0
  6
Continuous
 62
     7
370
    25
100
AcDbLine
 10
1172.7727155199
 20
428.0681652275
 30
0.0
 11
1175.0784621807
 21
428.0681652275
 31
0.0
  0
ARC
  5
387
330
1F
100
AcDbEntity
  8
0
  6
Continuous
 62
     7
370
    25
100
AcDbCircle
 10
1172.9154607187
 20
415.938359257
 30
0.0
 40
2.873741456479964
100
AcDbArc
 50
177.4110873339
 51
267.1528181777
  0
LINE
  5
388
330
1F
100
AcDbEntity
  8
0
  6
Continuous
 62
     7
370
    25
100
AcDbLine
 10
1170.044652406
 20
425.0681652275
 30
0.0
 11
1170.044652406
 21
416.0681652275
 31
0.0
  0
LINE
  5
389
330
1F
100
AcDbEntity
  8
0
  6
Continuous
 62
     7
370
    25
100
AcDbLine
 10
1172.5007786339
 20
428.0681652275
 30
0.0
 11
1172.7727155199
 21
428.0681652275
 31
0.0
  0
ARC
  5
38A
330
1F
100
AcDbEntity
  8
0
  6
Continuous
 62
     7
370
    25
100
AcDbCircle
 10
1283.203084065
 20
430.1490114409
 30
0.0
 40
11.36104563789659
100
AcDbArc
 50
349.4463448469
 51
4.6405283007
  0
ARC
  5
38B
330
1F
100
AcDbEntity
  8
0
  6
Continuous
 62
     7
370
    25
100
AcDbCircle
 10
1283.2030840638
 20
440.9873190141
 30
0.0
 40
11.36104563916538
100
AcDbArc
 50
355.3594717002
 51
10.5536551523
  0
LINE
  5
38C
330
1F
100
AcDbEntity
  8
0
  6
Continuous
 62
     7
370
    25
100
AcDbLine
 10
1294.3719442138
 20
443.0681652275
 30
0.0
 11
1404.5728080073
 21
443.0681652275
 31
0.0
  0
LINE
  5
38D
330
1F
100
AcDbEntity
  8
0
  6
Continuous
 62
     7
370
    25
100
AcDbLine
 10
1294.5268870615
 20
431.0681652275
 30
0.0
 11
1294.5268870615
 21
440.0681652275
 31
0.0
  0
LINE
  5
38E
330
1F
100
AcDbEntity
  8
0
  6
Continuous
 62
     7
370
    25
100
AcDbLine
 10
1279.8546089294
 20
431.0681652275
 30
0.0
 11
1294.5268870615
 21
431.0681652275
 31
0.0
  0
ARC
  5
38F
330
1F
100
AcDbEntity
  8
0
  6
Continuous
 62
     7
370
    25
100
AcDbCircle
 10
1257.4022994609
 20
430.319007755
 30
0.0
 40
22.46480441462325
100
AcDbArc
 50
354.2496480019
 51
1.9110569755
  0
LINE
  5
390
330
1F
100
AcDbEntity
  8
0
  6
Continuous
 62
     7
370
    25
100
AcDbLine
 10
1294.5268870615
 20
440.0681652275
 30
0.0
 11
1279.8546089294
 21
440.0681652275
 31
0.0
  0
ARC
  5
391
330
1F
100
AcDbEntity
  8
0
  6
Continuous
 62
     7
370
    25
100
AcDbCircle
 10
1257.4022994593
 20
440.8173227001
 30
0.0
 40
22.46480441626479
100
AcDbArc
 50
358.0889430247
 51
5.7503519977
  0
LINE
  5
392
330
1F
100
AcDbEntity
  8
0
  6
Continuous
 62
     7
370
    25
100
AcDbLine
 10
1279.7540587945
 20
443.0681652275
 30
0.0
 11
1294.3719442138
 21
443.0681652275
 31
0.0
  0
LINE
  5
393
330
1F
100
AcDbEntity
  8
0
  6
Continuous
 62
     7
370
    25
100
AcDbLine
 10
1279.8546089294
 20
431.0681652275
 30
0.0
 11
1279.8546089294
 21
440.0681652275
 31
0.0
  0
LINE
  5
394
330
1F
100
AcDbEntity
  8
0
  6
Continuous
 62
     7
370
    25
100
AcDbLine
 10
1279.8546089294
 20
440.0681652275
 30
0.0
 11
1251.9648274708
 21
440.0681652275
 31
0.0
  0
ARC
  5
395
330
1F
100
AcDbEntity
  8
0
  6
Continuous
 62
     7
370
    25
100
AcDbCircle
 10
1254.9639849434
 20
440.069007755
 30
0.0
 40
2.999157591005218
100
AcDbArc
 50
90.0161046576
 51
180.0160956093
  0
LINE
  5
396
330
1F
100
AcDbEntity
  8
0
  6
Continuous
 62
     7
370
    25
100
AcDbLine
 10
1254.9631419423
 20
443.0681652275
 30
0.0
 11
1279.7540587945
 21
443.0681652275
 31
0.0
  0
ARC
  5
397
330
1F
100
AcDbEntity
  8
0
  6
Continuous
 62
     7
370
    25
100
AcDbCircle
 10
1254.9639849434
 20
431.0673227001
 30
0.0
 40
2.999157590984999
100
AcDbArc
 50
179.9839043903
 51
269.9838953426
  0
LINE
  5
398
330
1F
100
AcDbEntity
  8
0
  6
Continuous
 62
     7
370
    25
100
AcDbLine
 10
1251.9648274708
 20
431.0681652275
 30
0.0
 11
1279.8546089294
 21
431.0681652275
 31
0.0
  0
LINE
  5
399
330
1F
100
AcDbEntity
  8
0
  6
Continuous
 62
     7
370
    25
100
AcDbLine
 10
1251.9648274708
 20
431.0681652275
 30
0.0
 11
1251.9648274708
 21
440.0681652275
 31
0.0
  0
ARC
  5
39A
330
1F
100
AcDbEntity
  8
0
  6
Continuous
 62
     7
370
    25
100
AcDbCircle
 10
1251.6141533206
 20
431.0673227001
 30
0.0
 40
2.999157591004215
100
AcDbArc
 50
179.9839043907
 51
269.9838953424
  0
LINE
  5
39B
330
1F
100
AcDbEntity
  8
0
  6
Continuous
 62
     7
370
    25
100
AcDbLine
 10
1248.6149958479
 20
431.0681652275
 30
0.0
 11
1251.9648274708
 21
431.0681652275
 31
0.0
  0
LINE
  5
39C
330
1F
100
AcDbEntity
  8
0
  6
Continuous
 62
     7
370
    25
100
AcDbLine
 10
1251.9648274708
 20
440.0681652275
 30
0.0
 11
1248.6149958479
 21
440.0681652275
 31
0.0
  0
ARC
  5
39D
330
1F
100
AcDbEntity
  8
0
  6
Continuous
 62
     7
370
    25
100
AcDbCircle
 10
1251.6141533206
 20
440.069007755
 30
0.0
 40
2.999157590995443
100
AcDbArc
 50
90.0161046575
 51
180.0160956095
  0
LINE
  5
39E
330
1F
100
AcDbEntity
  8
0
  6
Continuous
 62
     7
370
    25
100
AcDbLine
 10
1251.6133103195
 20
443.0681652275
 30
0.0
 11
1254.9631419423
 21
443.0681652275
 31
0.0
  0
LINE
  5
39F
330
1F
100
AcDbEntity
  8
0
  6
Continuous
 62
     7
370
    25
100
AcDbLine
 10
1248.6149958479
 20
431.0681652275
 30
0.0
 11
1248.6149958479
 21
440.0681652275
 31
0.0
  0
ARC
  5
3A0
330
1F
100
AcDbEntity
  8
0
  6
Continuous
 62
     7
370
    25
100
AcDbCircle
 10
1237.1875063732
 20
431.0194534851
 30
0.0
 40
2.951718148956797
100
AcDbArc
 50
179.0544137975
 51
269.0221216205
  0
LINE
  5
3A1
330
1F
100
AcDbEntity
  8
0
  6
Continuous
 62
     7
370
    25
100
AcDbLine
 10
1234.2361901928
 20
431.0681652275
 30
0.0
 11
1248.6149958479
 21
431.0681652275
 31
0.0
  0
LINE
  5
3A2
330
1F
100
AcDbEntity
  8
0
  6
Continuous
 62
     7
370
    25
100
AcDbLine
 10
1248.6149958479
 20
440.0681652275
 30
0.0
 11
1234.2361901928
 21
440.0681652275
 31
0.0
  0
ARC
  5
3A3
330
1F
100
AcDbEntity
  8
0
  6
Continuous
 62
     7
370
    25
100
AcDbCircle
 10
1237.1875063732
 20
440.11687697
 30
0.0
 40
2.951718148971787
100
AcDbArc
 50
90.9778783797
 51
180.9455862022
  0
LINE
  5
3A4
330
1F
100
AcDbEntity
  8
0
  6
Continuous
 62
     7
370
    25
100
AcDbLine
 10
1237.1371312626
 20
443.0681652275
 30
0.0
 11
1251.6133103195
 21
443.0681652275
 31
0.0
  0
LINE
  5
3A5
330
1F
100
AcDbEntity
  8
0
  6
Continuous
 62
     7
370
    25
100
AcDbLine
 10
1234.2361901928
 20
431.0681652275
 30
0.0
 11
1234.2361901928
 21
440.0681652275
 31
0.0
  0
LINE
  5
3A6
330
1F
100
AcDbEntity
  8
0
  6
Continuous
 62
     7
370
    25
100
AcDbLine
 10
1237.0380723324
 20
443.0681652275
 30
0.0
 11
1237.1371312626
 21
443.0681652275
 31
0.0
  0
ARC
  5
3A7
330
1F
100
AcDbEntity
  8
0
  6
Continuous
 62
     7
370
    25
100
AcDbCircle
 10
1283.2030840638
 20
-124.0126809859
 30
0.0
 40
11.36104563917011
100
AcDbArc
 50
355.3594717002
 51
10.5536551523
  0
LINE
  5
3A8
330
1F
100
AcDbEntity
  8
0
  6
Continuous
 62
     7
370
    25
100
AcDbLine
 10
1294.3719442138
 20
-136.9318347725
 30
0.0
 11
1404.5728080073
 21
-136.9318347725
 31
0.0
  0
ARC
  5
3A9
330
1F
100
AcDbEntity
  8
0
  6
Continuous
 62
     7
370
    25
100
AcDbCircle
 10
1283.203084065
 20
-134.8509885591
 30
0.0
 40
11.36104563789659
100
AcDbArc
 50
349.4463448469
 51
4.6405283007
  0
LINE
  5
3AA
330
1F
100
AcDbEntity
  8
0
  6
Continuous
 62
     7
370
    25
100
AcDbLine
 10
1294.5268870615
 20
-133.9318347725
 30
0.0
 11
1294.5268870615
 21
-124.9318347725
 31
0.0
  0
LINE
  5
3AB
330
1F
100
AcDbEntity
  8
0
  6
Continuous
 62
     7
370
    25
100
AcDbLine
 10
1279.8546089294
 20
-133.9318347725
 30
0.0
 11
1294.5268870615
 21
-133.9318347725
 31
0.0
  0
ARC
  5
3AC
330
1F
100
AcDbEntity
  8
0
  6
Continuous
 62
     7
370
    25
100
AcDbCircle
 10
1257.4022994609
 20
-134.680992245
 30
0.0
 40
22.46480441462097
100
AcDbArc
 50
354.2496480019
 51
1.9110569755
  0
LINE
  5
3AD
330
1F
100
AcDbEntity
  8
0
  6
Continuous
 62
     7
370
    25
100
AcDbLine
 10
1294.3719442138
 20
-136.9318347725
 30
0.0
 11
1279.7540587945
 21
-136.9318347725
 31
0.0
  0
LINE
  5
3AE
330
1F
100
AcDbEntity
  8
0
  6
Continuous
 62
     7
370
    25
100
AcDbLine
 10
1294.5268870615
 20
-124.9318347725
 30
0.0
 11
1279.8546089294
 21
-124.9318347725
 31
0.0
  0
ARC
  5
3AF
330
1F
100
AcDbEntity
  8
0
  6
Continuous
 62
     7
370
    25
100
AcDbCircle
 10
1257.4022994593
 20
-124.1826772999
 30
0.0
 40
22.46480441626343
100
AcDbArc
 50
358.0889430247
 51
5.7503519977
  0
LINE
  5
3B0
330
1F
100
AcDbEntity
  8
0
  6
Continuous
 62
     7
370
    25
100
AcDbLine
 10
1279.8546089294
 20
-133.9318347725
 30
0.0
 11
1279.8546089294
 21
-124.9318347725
 31
0.0
  0
ARC
  5
3B1
330
1F
100
AcDbEntity
  8
0
  6
Continuous
 62
     7
370
    25
100
AcDbCircle
 10
1254.9639849434
 20
-133.9326773
 30
0.0
 40
2.999157590984987
100
AcDbArc
 50
179.9839043903
 51
269.9838953426
  0
LINE
  5
3B2
330
1F
100
AcDbEntity
  8
0
  6
Continuous
 62
     7
370
    25
100
AcDbLine
 10
1251.9648274708
 20
-133.9318347725
 30
0.0
 11
1279.8546089294
 21
-133.9318347725
 31
0.0
  0
LINE
  5
3B3
330
1F
100
AcDbEntity
  8
0
  6
Continuous
 62
     7
370
    25
100
AcDbLine
 10
1279.7540587945
 20
-136.9318347725
 30
0.0
 11
1254.9631419423
 21
-136.9318347725
 31
0.0
  0
LINE
  5
3B4
330
1F
100
AcDbEntity
  8
0
  6
Continuous
 62
     7
370
    25
100
AcDbLine
 10
1279.8546089294
 20
-124.9318347725
 30
0.0
 11
1251.9648274708
 21
-124.9318347725
 31
0.0
  0
ARC
  5
3B5
330
1F
100
AcDbEntity
  8
0
  6
Continuous
 62
     7
370
    25
100
AcDbCircle
 10
1254.9639849434
 20
-124.930992245
 30
0.0
 40
2.99915759100499
100
AcDbArc
 50
90.0161046576
 51
180.0160956093
  0
LINE
  5
3B6
330
1F
100
AcDbEntity
  8
0
  6
Continuous
 62
     7
370
    25
100
AcDbLine
 10
1251.9648274708
 20
-133.9318347725
 30
0.0
 11
1251.9648274708
 21
-124.9318347725
 31
0.0
  0
ARC
  5
3B7
330
1F
100
AcDbEntity
  8
0
  6
Continuous
 62
     7
370
    25
100
AcDbCircle
 10
1251.6141533206
 20
-133.9326772999
 30
0.0
 40
2.999157591004187
100
AcDbArc
 50
179.9839043907
 51
269.9838953424
  0
LINE
  5
3B8
330
1F
100
AcDbEntity
  8
0
  6
Continuous
 62
     7
370
    25
100
AcDbLine
 10
1248.6149958479
 20
-133.9318347725
 30
0.0
 11
1251.9648274708
 21
-133.9318347725
 31
0.0
  0
LINE
  5
3B9
330
1F
100
AcDbEntity
  8
0
  6
Continuous
 62
     7
370
    25
100
AcDbLine
 10
1254.9631419423
 20
-136.9318347725
 30
0.0
 11
1251.6133103195
 21
-136.9318347725
 31
0.0
  0
LINE
  5
3BA
330
1F
100
AcDbEntity
  8
0
  6
Continuous
 62
     7
370
    25
100
AcDbLine
 10
1251.9648274708
 20
-124.9318347725
 30
0.0
 11
1248.6149958479
 21
-124.9318347725
 31
0.0
  0
ARC
  5
3BB
330
1F
100
AcDbEntity
  8
0
  6
Continuous
 62
     7
370
    25
100
AcDbCircle
 10
1251.6141533206
 20
-124.930992245
 30
0.0
 40
2.999157590995247
100
AcDbArc
 50
90.0161046575
 51
180.0160956095
  0
LINE
  5
3BC
330
1F
100
AcDbEntity
  8
0
  6
Continuous
 62
     7
370
    25
100
AcDbLine
 10
1248.6149958479
 20
-133.9318347725
 30
0.0
 11
1248.6149958479
 21
-124.9318347725
 31
0.0
  0
ARC
  5
3BD
330
1F
100
AcDbEntity
  8
0
  6
Continuous
 62
     7
370
    25
100
AcDbCircle
 10
1237.1875063732
 20
-133.9805465149
 30
0.0
 40
2.951718148956796
100
AcDbArc
 50
179.0544137975
 51
269.0221216205
  0
LINE
  5
3BE
330
1F
100
AcDbEntity
  8
0
  6
Continuous
 62
     7
370
    25
100
AcDbLine
 10
1234.2361901928
 20
-133.9318347725
 30
0.0
 11
1248.6149958479
 21
-133.9318347725
 31
0.0
  0
LINE
  5
3BF
330
1F
100
AcDbEntity
  8
0
  6
Continuous
 62
     7
370
    25
100
AcDbLine
 10
1251.6133103195
 20
-136.9318347725
 30
0.0
 11
1237.1371312626
 21
-136.9318347725
 31
0.0
  0
LINE
  5
3C0
330
1F
100
AcDbEntity
  8
0
  6
Continuous
 62
     7
370
    25
100
AcDbLine
 10
1248.6149958479
 20
-124.9318347725
 30
0.0
 11
1234.2361901928
 21
-124.9318347725
 31
0.0
  0
ARC
  5
3C1
330
1F
100
AcDbEntity
  8
0
  6
Continuous
 62
     7
370
    25
100
AcDbCircle
 10
1237.1875063732
 20
-124.88312303
 30
0.0
 40
2.951718148971786
100
AcDbArc
 50
90.9778783797
 51
180.9455862022
  0
LINE
  5
3C2
330
1F
100
AcDbEntity
  8
0
  6
Continuous
 62
     7
370
    25
100
AcDbLine
 10
1234.2361901928
 20
-133.9318347725
 30
0.0
 11
1234.2361901928
 21
-124.9318347725
 31
0.0
  0
LINE
  5
3C3
330
1F
100
AcDbEntity
  8
0
  6
Continuous
 62
     7
370
    25
100
AcDbLine
 10
1237.1371312626
 20
-136.9318347725
 30
0.0
 11
1237.0380723324
 21
-136.9318347725
 31
0.0
  0
ELLIPSE
  5
3C4
330
1F
100
AcDbEntity
  8
0
  6
Continuous
 62
     7
370
    25
100
AcDbEllipse
 10
1493.231776851
 20
-124.7318347725
 30
0.0
 11
2.999556355203367
 21
0.9876483685978741
 31
0.0
210
0.0
220
0.0
230
1.0
 40
0.0522366015
 41
0.1573349460256572
 42
1.728131272819144
  0
ELLIPSE
  5
3C5
330
1F
100
AcDbEntity
  8
0
  6
Continuous
 62
     7
370
    25
100
AcDbEllipse
 10
1493.231776851
 20
-124.7318347725
 30
0.0
 11
1.010882551693157
 21
2.995834705233293
 31
0.0
210
0.0
220
0.0
230
1.0
 40
0.1563316802
 41
0.0527020492642425
 42
1.623498376058547
  0
ARC
  5
3C6
330
1F
100
AcDbEntity
  8
0
  6
Continuous
 62
     7
370
    25
100
AcDbCircle
 10
1494.2012751746
 20
-123.7167579277
 30
0.0
 40
1.984982194040594
100
AcDbArc
 50
359.5648082464
 51
89.5580945801
  0
LINE
  5
3C7
330
1F
100
AcDbEntity
  8
0
  6
Continuous
 62
     7
370
    25
100
AcDbLine
 10
1496.18620011
 20
-123.7318347725
 30
0.0
 11
1496.18620011
 21
-199.7318347725
 31
0.0
  0
ELLIPSE
  5
3C8
330
1F
100
AcDbEntity
  8
0
  6
Continuous
 62
     7
370
    25
100
AcDbEllipse
 10
1493.231776851
 20
-198.7318347725
 30
0.0
 11
2.999556355203367
 21
-0.9876483685978882
 31
0.0
210
0.0
220
0.0
230
1.0
 40
0.0522366015
 41
4.555054034360439
 42
6.125850361155153
  0
LINE
  5
3C9
330
1F
100
AcDbEntity
  8
0
  6
Continuous
 62
     7
370
    25
100
AcDbLine
 10
1492.710832318
 20
-198.7318347725
 30
0.0
 11
1492.710832318
 21
-124.7318347725
 31
0.0
  0
ELLIPSE
  5
3CA
330
1F
100
AcDbEntity
  8
0
  6
Continuous
 62
     7
370
    25
100
AcDbEllipse
 10
1493.231776851
 20
-198.7318347725
 30
0.0
 11
-1.010882551693385
 21
2.995834705233278
 31
0.0
210
0.0
220
0.0
230
1.0
 40
0.1563316802
 41
1.518094277531258
 42
3.088890604325082
  0
ARC
  5
3CB
330
1F
100
AcDbEntity
  8
0
  6
Continuous
 62
     7
370
    25
100
AcDbCircle
 10
1494.2012751746
 20
-199.7469116173
 30
0.0
 40
1.984982194041965
100
AcDbArc
 50
270.4419054199
 51
0.4351917536
  0
LINE
  5
3CC
330
1F
100
AcDbEntity
  8
0
  6
Continuous
 62
     7
370
    25
100
AcDbLine
 10
1492.710832318
 20
-124.7318347725
 30
0.0
 11
1419.8350585951
 21
-124.7318347725
 31
0.0
  0
ELLIPSE
  5
3CD
330
1F
100
AcDbEntity
  8
0
  6
Continuous
 62
     7
370
    25
100
AcDbEllipse
 10
1420.3560031281
 20
-124.7318347725
 30
0.0
 11
-1.010882551693157
 21
2.995834705233293
 31
0.0
210
0.0
220
0.0
230
1.0
 40
0.1563316802
 41
6.230483257916235
 42
7.801279584710833
  0
LINE
  5
3CE
330
1F
100
AcDbEntity
  8
0
  6
Continuous
 62
     7
370
    25
100
AcDbLine
 10
1419.3711953751
 20
-121.7318347725
 30
0.0
 11
1494.216584604
 21
-121.7318347725
 31
0.0
  0
LINE
  5
3CF
330
1F
100
AcDbEntity
  8
0
  6
Continuous
 62
     7
370
    25
100
AcDbLine
 10
1419.8350585951
 20
-198.7318347725
 30
0.0
 11
1492.710832318
 21
-198.7318347725
 31
0.0
  0
LINE
  5
3D0
330
1F
100
AcDbEntity
  8
0
  6
Continuous
 62
     7
370
    25
100
AcDbLine
 10
1494.216584604
 20
-201.7318347725
 30
0.0
 11
1419.3711953751
 21
-201.7318347725
 31
0.0
  0
ELLIPSE
  5
3D1
330
1F
100
AcDbEntity
  8
0
  6
Continuous
 62
     7
370
    25
100
AcDbEllipse
 10
1420.3560031281
 20
-198.7318347725
 30
0.0
 11
1.010882551693385
 21
2.995834705233307
 31
0.0
210
0.0
220
0.0
230
1.0
 40
0.1563316802
 41
1.623498376058535
 42
3.194294702853264
  0
LINE
  5
3D2
330
1F
100
AcDbEntity
  8
0
  6
Continuous
 62
     7
370
    25
100
AcDbLine
 10
1419.8350585951
 20
-124.7318347725
 30
0.0
 11
1419.8350585951
 21
-198.7318347725
 31
0.0
  0
CIRCLE
  5
3D3
330
1F
100
AcDbEntity
  8
0
  6
Continuous
 62
     7
370
    25
100
AcDbCircle
 10
1456.2768512332
 20
-161.7415034502
 30
0.0
 40
0.9903390242730592
  0
ARC
  5
3D4
330
1F
100
AcDbEntity
  8
0
  6
Continuous
 62
     7
370
    25
100
AcDbCircle
 10
1494.5485715299
 20
-199.7469116173
 30
0.0
 40
1.984982194043524
100
AcDbArc
 50
270.44190542
 51
0.4351917535
  0
LINE
  5
3D5
330
1F
100
AcDbEntity
  8
0
  6
Continuous
 62
     7
370
    25
100
AcDbLine
 10
1494.216584604
 20
-201.7318347725
 30
0.0
 11
1494.5638809593
 21
-201.7318347725
 31
0.0
  0
LINE
  5
3D6
330
1F
100
AcDbEntity
  8
0
  6
Continuous
 62
     7
370
    25
100
AcDbLine
 10
1496.18620011
 20
-199.7318347725
 30
0.0
 11
1496.5334964653
 21
-199.7318347725
 31
0.0
  0
LINE
  5
3D7
330
1F
100
AcDbEntity
  8
0
  6
Continuous
 62
     7
370
    25
100
AcDbLine
 10
1496.5334964653
 20
-199.7318347725
 30
0.0
 11
1496.5334964653
 21
-123.7318347725
 31
0.0
  0
LINE
  5
3D8
330
1F
100
AcDbEntity
  8
0
  6
Continuous
 62
     7
370
    25
100
AcDbLine
 10
1496.18620011
 20
-123.7318347725
 30
0.0
 11
1496.5334964653
 21
-123.7318347725
 31
0.0
  0
ARC
  5
3D9
330
1F
100
AcDbEntity
  8
0
  6
Continuous
 62
     7
370
    25
100
AcDbCircle
 10
1494.5485715299
 20
-123.7167579277
 30
0.0
 40
1.984982194042074
100
AcDbArc
 50
359.5648082464
 51
89.5580945801
  0
LINE
  5
3DA
330
1F
100
AcDbEntity
  8
0
  6
Continuous
 62
     7
370
    25
100
AcDbLine
 10
1494.216584604
 20
-121.7318347725
 30
0.0
 11
1494.5638809593
 21
-121.7318347725
 31
0.0
  0
ARC
  5
3DB
330
1F
100
AcDbEntity
  8
0
  6
Continuous
 62
     7
370
    25
100
AcDbCircle
 10
1457.1602550859
 20
-161.7318347725
 30
0.0
 40
1.00551499831049
100
AcDbArc
 50
116.7888323331
 51
243.211167667
  0
LINE
  5
3DC
330
1F
100
AcDbEntity
  8
0
  6
Continuous
 62
     7
370
    25
100
AcDbLine
 10
1496.18620011
 20
505.8681652276
 30
0.0
 11
1496.18620011
 21
429.8681652276
 31
0.0
  0
ELLIPSE
  5
3DD
330
1F
100
AcDbEntity
  8
0
  6
Continuous
 62
     7
370
    25
100
AcDbEllipse
 10
1493.231776851
 20
430.8681652276
 30
0.0
 11
2.999556355203367
 21
-0.9876483685978882
 31
0.0
210
0.0
220
0.0
230
1.0
 40
0.0522366015
 41
4.555054034360439
 42
6.125850361154722
  0
LINE
  5
3DE
330
1F
100
AcDbEntity
  8
0
  6
Continuous
 62
     7
370
    25
100
AcDbLine
 10
1492.710832318
 20
430.8681652276
 30
0.0
 11
1492.710832318
 21
504.8681652276
 31
0.0
  0
ELLIPSE
  5
3DF
330
1F
100
AcDbEntity
  8
0
  6
Continuous
 62
     7
370
    25
100
AcDbEllipse
 10
1493.231776851
 20
504.8681652276
 30
0.0
 11
2.999556355203367
 21
0.9876483685978882
 31
0.0
210
0.0
220
0.0
230
1.0
 40
0.0522366015
 41
0.1573349460256163
 42
1.728131272819104
  0
ELLIPSE
  5
3E0
330
1F
100
AcDbEntity
  8
0
  6
Continuous
 62
     7
370
    25
100
AcDbEllipse
 10
1493.231776851
 20
504.8681652276
 30
0.0
 11
1.010882551693157
 21
2.995834705233221
 31
0.0
210
0.0
220
0.0
230
1.0
 40
0.1563316802
 41
0.0527020492642871
 42
1.62349837605855
  0
ARC
  5
3E1
330
1F
100
AcDbEntity
  8
0
  6
Continuous
 62
     7
370
    25
100
AcDbCircle
 10
1494.2012751746
 20
505.8832420724
 30
0.0
 40
1.984982194041041
100
AcDbArc
 50
359.5648082464
 51
89.5580945801
  0
ELLIPSE
  5
3E2
330
1F
100
AcDbEntity
  8
0
  6
Continuous
 62
     7
370
    25
100
AcDbEllipse
 10
1493.231776851
 20
430.8681652276
 30
0.0
 11
-1.010882551693385
 21
2.995834705233278
 31
0.0
210
0.0
220
0.0
230
1.0
 40
0.1563316802
 41
1.518094277531259
 42
3.088890604325081
  0
ARC
  5
3E3
330
1F
100
AcDbEntity
  8
0
  6
Continuous
 62
     7
370
    25
100
AcDbCircle
 10
1494.2012751746
 20
429.8530883828
 30
0.0
 40
1.984982194041946
100
AcDbArc
 50
270.4419054199
 51
0.4351917536
  0
LINE
  5
3E4
330
1F
100
AcDbEntity
  8
0
  6
Continuous
 62
     7
370
    25
100
AcDbLine
 10
1492.710832318
 20
504.8681652276
 30
0.0
 11
1419.8350585951
 21
504.8681652276
 31
0.0
  0
ELLIPSE
  5
3E5
330
1F
100
AcDbEntity
  8
0
  6
Continuous
 62
     7
370
    25
100
AcDbEllipse
 10
1420.3560031281
 20
504.8681652276
 30
0.0
 11
-1.010882551693157
 21
2.995834705233335
 31
0.0
210
0.0
220
0.0
230
1.0
 40
0.1563316802
 41
6.230483257916262
 42
7.801279584710835
  0
LINE
  5
3E6
330
1F
100
AcDbEntity
  8
0
  6
Continuous
 62
     7
370
    25
100
AcDbLine
 10
1419.3711953751
 20
507.8681652276
 30
0.0
 11
1494.216584604
 21
507.8681652276
 31
0.0
  0
LINE
  5
3E7
330
1F
100
AcDbEntity
  8
0
  6
Continuous
 62
     7
370
    25
100
AcDbLine
 10
1419.8350585951
 20
430.8681652276
 30
0.0
 11
1492.710832318
 21
430.8681652276
 31
0.0
  0
LINE
  5
3E8
330
1F
100
AcDbEntity
  8
0
  6
Continuous
 62
     7
370
    25
100
AcDbLine
 10
1494.216584604
 20
427.8681652276
 30
0.0
 11
1419.3711953751
 21
427.8681652276
 31
0.0
  0
ELLIPSE
  5
3E9
330
1F
100
AcDbEntity
  8
0
  6
Continuous
 62
     7
370
    25
100
AcDbEllipse
 10
1420.3560031281
 20
430.8681652276
 30
0.0
 11
1.010882551693385
 21
2.995834705233278
 31
0.0
210
0.0
220
0.0
230
1.0
 40
0.1563316802
 41
1.623498376058536
 42
3.194294702852847
  0
LINE
  5
3EA
330
1F
100
AcDbEntity
  8
0
  6
Continuous
 62
     7
370
    25
100
AcDbLine
 10
1419.8350585951
 20
504.8681652276
 30
0.0
 11
1419.8350585951
 21
430.8681652276
 31
0.0
  0
CIRCLE
  5
3EB
330
1F
100
AcDbEntity
  8
0
  6
Continuous
 62
     7
370
    25
100
AcDbCircle
 10
1456.2768512332
 20
467.8584965499
 30
0.0
 40
0.9903390242731747
  0
ARC
  5
3EC
330
1F
100
AcDbEntity
  8
0
  6
Continuous
 62
     7
370
    25
100
AcDbCircle
 10
1494.5485715299
 20
429.8530883828
 30
0.0
 40
1.984982194043752
100
AcDbArc
 50
270.44190542
 51
0.4351917535
  0
LINE
  5
3ED
330
1F
100
AcDbEntity
  8
0
  6
Continuous
 62
     7
370
    25
100
AcDbLine
 10
1494.216584604
 20
427.8681652276
 30
0.0
 11
1494.5638809593
 21
427.8681652276
 31
0.0
  0
LINE
  5
3EE
330
1F
100
AcDbEntity
  8
0
  6
Continuous
 62
     7
370
    25
100
AcDbLine
 10
1496.18620011
 20
429.8681652276
 30
0.0
 11
1496.5334964653
 21
429.8681652276
 31
0.0
  0
LINE
  5
3EF
330
1F
100
AcDbEntity
  8
0
  6
Continuous
 62
     7
370
    25
100
AcDbLine
 10
1496.5334964653
 20
429.8681652276
 30
0.0
 11
1496.5334964653
 21
505.8681652276
 31
0.0
  0
LINE
  5
3F0
330
1F
100
AcDbEntity
  8
0
  6
Continuous
 62
     7
370
    25
100
AcDbLine
 10
1496.18620011
 20
505.8681652276
 30
0.0
 11
1496.5334964653
 21
505.8681652276
 31
0.0
  0
ARC
  5
3F1
330
1F
100
AcDbEntity
  8
0
  6
Continuous
 62
     7
370
    25
100
AcDbCircle
 10
1494.5485715299
 20
505.8832420724
 30
0.0
 40
1.984982194042169
100
AcDbArc
 50
359.5648082465
 51
89.5580945801
  0
LINE
  5
3F2
330
1F
100
AcDbEntity
  8
0
  6
Continuous
 62
     7
370
    25
100
AcDbLine
 10
1494.216584604
 20
507.8681652276
 30
0.0
 11
1494.5638809593
 21
507.8681652276
 31
0.0
  0
ARC
  5
3F3
330
1F
100
AcDbEntity
  8
0
  6
Continuous
 62
     7
370
    25
100
AcDbCircle
 10
1457.1602550859
 20
467.8681652276
 30
0.0
 40
1.00551499831167
100
AcDbArc
 50
116.788832338
 51
243.211167662
  0
LINE
  5
3F4
330
1F
100
AcDbEntity
  8
0
  6
Continuous
 62
     7
370
    25
100
AcDbLine
 10
1743.4962039489
 20
-120.9318347725
 30
0.0
 11
1688.7970279839
 21
-120.9318347725
 31
0.0
  0
LINE
  5
3F5
330
1F
100
AcDbEntity
  8
0
  6
Continuous
 62
     7
370
    25
100
AcDbLine
 10
1743.4962039489
 20
-120.9318347725
 30
0.0
 11
1743.4962039489
 21
-117.9318347725
 31
0.0
  0
LINE
  5
3F6
330
1F
100
AcDbEntity
  8
0
  6
Continuous
 62
     7
370
    25
100
AcDbLine
 10
1688.7970279839
 20
427.0681652275
 30
0.0
 11
1743.4962039489
 21
427.0681652275
 31
0.0
  0
LINE
  5
3F7
330
1F
100
AcDbEntity
  8
0
  6
Continuous
 62
     7
370
    25
100
AcDbLine
 10
1743.4962039489
 20
424.0681652275
 30
0.0
 11
1743.4962039489
 21
427.0681652275
 31
0.0
  0
ARC
  5
3F8
330
1F
100
AcDbEntity
  8
0
  6
Continuous
 62
     7
370
    25
100
AcDbCircle
 10
1743.4962039489
 20
421.0681652275
 30
0.0
 40
3.0
100
AcDbArc
 50
18.3634040667
 51
90.0
  0
ARC
  5
3F9
330
1F
100
AcDbEntity
  8
0
  6
Continuous
 62
     7
370
    25
100
AcDbCircle
 10
1743.4962039489
 20
421.0681652275
 30
0.0
 40
6.0
100
AcDbArc
 50
18.3634040667
 51
90.0
  0
LINE
  5
3FA
330
1F
100
AcDbEntity
  8
0
  6
Continuous
 62
     7
370
    25
100
AcDbLine
 10
1746.3434362368
 20
422.0132939484
 30
0.0
 11
1749.1906685246
 21
422.9584226693
 31
0.0
  0
ARC
  5
3FB
330
1F
100
AcDbEntity
  8
0
  6
Continuous
 62
     7
370
    25
100
AcDbCircle
 10
936.1371254684
 20
153.0681652275
 30
0.0
 40
853.6777777777778
100
AcDbArc
 50
341.6365959333
 51
18.3634040667
  0
ARC
  5
3FC
330
1F
100
AcDbEntity
  8
0
  6
Continuous
 62
     7
370
    25
100
AcDbCircle
 10
936.1371254684
 20
153.0681652275
 30
0.0
 40
856.6777777777779
100
AcDbArc
 50
341.6365959333
 51
18.3634040667
  0
LINE
  5
3FD
330
1F
100
AcDbEntity
  8
0
  6
Continuous
 62
     7
370
    25
100
AcDbLine
 10
1746.3434362368
 20
-115.8769634934
 30
0.0
 11
1749.1906685246
 21
-116.8220922142
 31
0.0
  0
ARC
  5
3FE
330
1F
100
AcDbEntity
  8
0
  6
Continuous
 62
     7
370
    25
100
AcDbCircle
 10
1743.4962039489
 20
-114.9318347725
 30
0.0
 40
3.0
100
AcDbArc
 50
270.0
 51
341.6365959333
  0
ARC
  5
3FF
330
1F
100
AcDbEntity
  8
0
  6
Continuous
 62
     7
370
    25
100
AcDbCircle
 10
1743.4962039489
 20
-114.9318347725
 30
0.0
 40
6.0
100
AcDbArc
 50
270.0
 51
341.6365959333
  0
ARC
  5
400
330
1F
100
AcDbEntity
  8
0
  6
Continuous
 62
     7
370
    25
100
AcDbCircle
 10
1852.8945558791
 20
-114.9318347725
 30
0.0
 40
3.00000000000002
100
AcDbArc
 50
270.0
 51
341.6365959333
  0
LINE
  5
401
330
1F
100
AcDbEntity
  8
0
  6
Continuous
 62
     7
370
    25
100
AcDbLine
 10
1855.7417881669
 20
-115.8769634934
 30
0.0
 11
1858.5890204548
 21
-116.8220922142
 31
0.0
  0
ARC
  5
402
330
1F
100
AcDbEntity
  8
0
  6
Continuous
 62
     7
370
    25
100
AcDbCircle
 10
1852.8945558791
 20
-114.9318347725
 30
0.0
 40
6.000000000000062
100
AcDbArc
 50
270.0
 51
341.6365959333
  0
LINE
  5
403
330
1F
100
AcDbEntity
  8
0
  6
Continuous
 62
     7
370
    25
100
AcDbLine
 10
1852.8945558791
 20
-120.9318347725
 30
0.0
 11
1852.8945558791
 21
-117.9318347725
 31
0.0
  0
ARC
  5
404
330
1F
100
AcDbEntity
  8
0
  6
Continuous
 62
     7
370
    25
100
AcDbCircle
 10
1852.8945558791
 20
421.0681652275
 30
0.0
 40
3.0
100
AcDbArc
 50
18.3634040667
 51
90.0
  0
LINE
  5
405
330
1F
100
AcDbEntity
  8
0
  6
Continuous
 62
     7
370
    25
100
AcDbLine
 10
1852.8945558791
 20
424.0681652275
 30
0.0
 11
1852.8945558791
 21
427.0681652275
 31
0.0
  0
ARC
  5
406
330
1F
100
AcDbEntity
  8
0
  6
Continuous
 62
     7
370
    25
100
AcDbCircle
 10
1852.8945558791
 20
421.0681652275
 30
0.0
 40
6.0
100
AcDbArc
 50
18.3634040667
 51
90.0
  0
LINE
  5
407
330
1F
100
AcDbEntity
  8
0
  6
Continuous
 62
     7
370
    25
100
AcDbLine
 10
1855.7417881669
 20
422.0132939484
 30
0.0
 11
1858.5890204548
 21
422.9584226693
 31
0.0
  0
LINE
  5
408
330
1F
100
AcDbEntity
  8
0
  6
Continuous
 62
     7
370
    25
100
AcDbLine
 10
1798.195379914
 20
427.0681652275
 30
0.0
 11
1852.8945558791
 21
427.0681652275
 31
0.0
  0
ARC
  5
409
330
1F
100
AcDbEntity
  8
0
  6
Continuous
 62
     7
370
    25
100
AcDbCircle
 10
1045.5354773986
 20
153.0681652275
 30
0.0
 40
853.6777777777779
100
AcDbArc
 50
341.6365959333
 51
18.3634040667
  0
LINE
  5
40A
330
1F
100
AcDbEntity
  8
0
  6
Continuous
 62
     7
370
    25
100
AcDbLine
 10
1852.8945558791
 20
-120.9318347725
 30
0.0
 11
1798.195379914
 21
-120.9318347725
 31
0.0
  0
ARC
  5
40B
330
1F
100
AcDbEntity
  8
0
  6
Continuous
 62
     7
370
    25
100
AcDbCircle
 10
1045.5354773986
 20
153.0681652275
 30
0.0
 40
856.677777777778
100
AcDbArc
 50
341.6365959333
 51
18.3634040667
  0
ARC
  5
40C
330
1F
100
AcDbEntity
  8
0
  6
Continuous
 62
     7
370
    25
100
AcDbCircle
 10
1798.195379914
 20
421.0681652275
 30
0.0
 40
3.0
100
AcDbArc
 50
18.3634040667
 51
90.0
  0
ARC
  5
40D
330
1F
100
AcDbEntity
  8
0
  6
Continuous
 62
     7
370
    25
100
AcDbCircle
 10
990.8363014335
 20
153.0681652275
 30
0.0
 40
853.677777777778
100
AcDbArc
 50
341.6365959333
 51
18.3634040667
  0
ARC
  5
40E
330
1F
100
AcDbEntity
  8
0
  6
Continuous
 62
     7
370
    25
100
AcDbCircle
 10
1798.195379914
 20
-114.9318347725
 30
0.0
 40
3.00000000000002
100
AcDbArc
 50
270.0
 51
341.6365959333
  0
LINE
  5
40F
330
1F
100
AcDbEntity
  8
0
  6
Continuous
 62
     7
370
    25
100
AcDbLine
 10
1801.0426122019
 20
422.0132939484
 30
0.0
 11
1803.8898444897
 21
422.9584226693
 31
0.0
  0
ARC
  5
410
330
1F
100
AcDbEntity
  8
0
  6
Continuous
 62
     7
370
    25
100
AcDbCircle
 10
990.8363014335
 20
153.0681652275
 30
0.0
 40
856.677777777778
100
AcDbArc
 50
341.6365959333
 51
18.3634040667
  0
LINE
  5
411
330
1F
100
AcDbEntity
  8
0
  6
Continuous
 62
     7
370
    25
100
AcDbLine
 10
1801.0426122019
 20
-115.8769634934
 30
0.0
 11
1803.8898444897
 21
-116.8220922142
 31
0.0
  0
ARC
  5
412
330
1F
100
AcDbEntity
  8
0
  6
Continuous
 62
     7
370
    25
100
AcDbCircle
 10
1798.195379914
 20
-114.9318347725
 30
0.0
 40
6.000000000000062
100
AcDbArc
 50
270.0
 51
341.6365959333
  0
LINE
  5
413
330
1F
100
AcDbEntity
  8
0
  6
Continuous
 62
     7
370
    25
100
AcDbLine
 10
1798.195379914
 20
-120.9318347725
 30
0.0
 11
1798.195379914
 21
-117.9318347725
 31
0.0
  0
LINE
  5
414
330
1F
100
AcDbEntity
  8
0
  6
Continuous
 62
     7
370
    25
100
AcDbLine
 10
1798.195379914
 20
424.0681652275
 30
0.0
 11
1798.195379914
 21
427.0681652275
 31
0.0
  0
ARC
  5
415
330
1F
100
AcDbEntity
  8
0
  6
Continuous
 62
     7
370
    25
100
AcDbCircle
 10
1798.195379914
 20
421.0681652275
 30
0.0
 40
6.0
100
AcDbArc
 50
18.3634040667
 51
90.0
  0
LINE
  5
416
330
1F
100
AcDbEntity
  8
0
  6
Continuous
 62
     7
370
    25
100
AcDbLine
 10
1798.195379914
 20
-120.9318347725
 30
0.0
 11
1743.4962039489
 21
-120.9318347725
 31
0.0
  0
LINE
  5
417
330
1F
100
AcDbEntity
  8
0
  6
Continuous
 62
     7
370
    25
100
AcDbLine
 10
1743.4962039489
 20
427.0681652275
 30
0.0
 11
1798.195379914
 21
427.0681652275
 31
0.0
  0
ARC
  5
418
330
1F
100
AcDbEntity
  8
0
  6
Continuous
 62
     7
370
    25
100
AcDbCircle
 10
1688.7970279839
 20
421.0681652275
 30
0.0
 40
3.000000000000011
100
AcDbArc
 50
18.3634040667
 51
90.0
  0
ARC
  5
419
330
1F
100
AcDbEntity
  8
0
  6
Continuous
 62
     7
370
    25
100
AcDbCircle
 10
881.4379495033
 20
153.0681652275
 30
0.0
 40
853.677777777778
100
AcDbArc
 50
341.6365959333
 51
18.3634040667
  0
ARC
  5
41A
330
1F
100
AcDbEntity
  8
0
  6
Continuous
 62
     7
370
    25
100
AcDbCircle
 10
1688.7970279839
 20
-114.9318347725
 30
0.0
 40
3.00000000000002
100
AcDbArc
 50
270.0
 51
341.6365959333
  0
LINE
  5
41B
330
1F
100
AcDbEntity
  8
0
  6
Continuous
 62
     7
370
    25
100
AcDbLine
 10
1691.6442602717
 20
422.0132939484
 30
0.0
 11
1694.4914925595
 21
422.9584226693
 31
0.0
  0
ARC
  5
41C
330
1F
100
AcDbEntity
  8
0
  6
Continuous
 62
     7
370
    25
100
AcDbCircle
 10
881.4379495033
 20
153.0681652275
 30
0.0
 40
856.677777777778
100
AcDbArc
 50
341.6365959333
 51
18.3634040667
  0
LINE
  5
41D
330
1F
100
AcDbEntity
  8
0
  6
Continuous
 62
     7
370
    25
100
AcDbLine
 10
1691.6442602717
 20
-115.8769634934
 30
0.0
 11
1694.4914925595
 21
-116.8220922142
 31
0.0
  0
LINE
  5
41E
330
1F
100
AcDbEntity
  8
0
  6
Continuous
 62
     7
370
    25
100
AcDbLine
 10
1688.7970279839
 20
-120.9318347725
 30
0.0
 11
1679.2340278632
 21
-120.9318347725
 31
0.0
  0
LINE
  5
41F
330
1F
100
AcDbEntity
  8
0
  6
Continuous
 62
     7
370
    25
100
AcDbLine
 10
1688.7970279839
 20
-120.9318347725
 30
0.0
 11
1688.7970279839
 21
-117.9318347725
 31
0.0
  0
LINE
  5
420
330
1F
100
AcDbEntity
  8
0
  6
Continuous
 62
     7
370
    25
100
AcDbLine
 10
1679.2340278632
 20
427.0681652275
 30
0.0
 11
1688.7970279839
 21
427.0681652275
 31
0.0
  0
LINE
  5
421
330
1F
100
AcDbEntity
  8
0
  6
Continuous
 62
     7
370
    25
100
AcDbLine
 10
1688.7970279839
 20
424.0681652275
 30
0.0
 11
1688.7970279839
 21
427.0681652275
 31
0.0
  0
ARC
  5
422
330
1F
100
AcDbEntity
  8
0
  6
Continuous
 62
     7
370
    25
100
AcDbCircle
 10
1688.7970279839
 20
-114.9318347725
 30
0.0
 40
6.000000000000062
100
AcDbArc
 50
270.0
 51
341.6365959333
  0
ARC
  5
423
330
1F
100
AcDbEntity
  8
0
  6
Continuous
 62
     7
370
    25
100
AcDbCircle
 10
1688.7970279839
 20
421.0681652275
 30
0.0
 40
6.000000000000058
100
AcDbArc
 50
18.3634040667
 51
90.0
  0
ARC
  5
424
330
1F
100
AcDbEntity
  8
0
  6
Continuous
 62
     7
370
    25
100
AcDbCircle
 10
1907.5937318442
 20
421.0681652275
 30
0.0
 40
3.0
100
AcDbArc
 50
18.3634040667
 51
90.0
  0
ARC
  5
425
330
1F
100
AcDbEntity
  8
0
  6
Continuous
 62
     7
370
    25
100
AcDbCircle
 10
1100.2346533637
 20
153.0681652275
 30
0.0
 40
853.6777777777779
100
AcDbArc
 50
341.6365959333
 51
18.3634040667
  0
ARC
  5
426
330
1F
100
AcDbEntity
  8
0
  6
Continuous
 62
     7
370
    25
100
AcDbCircle
 10
1907.5937318442
 20
-114.9318347725
 30
0.0
 40
3.00000000000002
100
AcDbArc
 50
270.0
 51
341.6365959333
  0
LINE
  5
427
330
1F
100
AcDbEntity
  8
0
  6
Continuous
 62
     7
370
    25
100
AcDbLine
 10
1910.440964132
 20
422.0132939484
 30
0.0
 11
1913.2881964199
 21
422.9584226693
 31
0.0
  0
ARC
  5
428
330
1F
100
AcDbEntity
  8
0
  6
Continuous
 62
     7
370
    25
100
AcDbCircle
 10
1100.2346533637
 20
153.0681652275
 30
0.0
 40
856.677777777778
100
AcDbArc
 50
341.6365959333
 51
18.3634040667
  0
LINE
  5
429
330
1F
100
AcDbEntity
  8
0
  6
Continuous
 62
     7
370
    25
100
AcDbLine
 10
1910.440964132
 20
-115.8769634934
 30
0.0
 11
1913.2881964199
 21
-116.8220922142
 31
0.0
  0
LINE
  5
42A
330
1F
100
AcDbEntity
  8
0
  6
Continuous
 62
     7
370
    25
100
AcDbLine
 10
1907.5937318442
 20
424.0681652275
 30
0.0
 11
1907.5937318442
 21
427.0681652275
 31
0.0
  0
ARC
  5
42B
330
1F
100
AcDbEntity
  8
0
  6
Continuous
 62
     7
370
    25
100
AcDbCircle
 10
1907.5937318442
 20
421.0681652275
 30
0.0
 40
6.0
100
AcDbArc
 50
18.3634040667
 51
90.0
  0
LINE
  5
42C
330
1F
100
AcDbEntity
  8
0
  6
Continuous
 62
     7
370
    25
100
AcDbLine
 10
1852.8945558791
 20
427.0681652275
 30
0.0
 11
1907.5937318442
 21
427.0681652275
 31
0.0
  0
ARC
  5
42D
330
1F
100
AcDbEntity
  8
0
  6
Continuous
 62
     7
370
    25
100
AcDbCircle
 10
1907.5937318442
 20
-114.9318347725
 30
0.0
 40
6.000000000000062
100
AcDbArc
 50
270.0
 51
341.6365959333
  0
LINE
  5
42E
330
1F
100
AcDbEntity
  8
0
  6
Continuous
 62
     7
370
    25
100
AcDbLine
 10
1907.5937318442
 20
-120.9318347725
 30
0.0
 11
1907.5937318442
 21
-117.9318347725
 31
0.0
  0
LINE
  5
42F
330
1F
100
AcDbEntity
  8
0
  6
Continuous
 62
     7
370
    25
100
AcDbLine
 10
1907.5937318442
 20
-120.9318347725
 30
0.0
 11
1852.8945558791
 21
-120.9318347725
 31
0.0
  0
ARC
  5
430
330
1F
100
AcDbEntity
  8
0
  6
Continuous
 62
     7
370
    25
100
AcDbCircle
 10
803.7765854837
 20
153.0681652276
 30
0.0
 40
856.6777777777777
100
AcDbArc
 50
342.3321766613
 51
17.6678233387
  0
LINE
  5
431
330
1F
100
AcDbEntity
  8
0
  6
Continuous
 62
     7
370
    25
100
AcDbLine
 10
1777.5140792113
 20
-121.9318347725
 30
0.0
 11
1777.5140792113
 21
-120.9318347725
 31
0.0
  0
LINE
  5
432
330
1F
100
AcDbEntity
  8
0
  6
Continuous
 62
     7
370
    25
100
AcDbLine
 10
1777.5140792113
 20
427.0681652275
 30
0.0
 11
1777.5140792113
 21
428.0681652275
 31
0.0
  0
LINE
  5
433
330
1F
100
AcDbEntity
  8
0
  6
Continuous
 62
     7
370
    25
100
AcDbLine
 10
1727.5140792113
 20
-121.9318347725
 30
0.0
 11
1727.5140792113
 21
-120.9318347725
 31
0.0
  0
LINE
  5
434
330
1F
100
AcDbEntity
  8
0
  6
Continuous
 62
     7
370
    25
100
AcDbLine
 10
1727.5140792113
 20
427.0681652275
 30
0.0
 11
1727.5140792113
 21
428.0681652275
 31
0.0
  0
LINE
  5
435
330
1F
100
AcDbEntity
  8
0
  6
Continuous
 62
     7
370
    25
100
AcDbLine
 10
1722.8149032462
 20
-121.9318347725
 30
0.0
 11
1722.8149032462
 21
-120.9318347725
 31
0.0
  0
LINE
  5
436
330
1F
100
AcDbEntity
  8
0
  6
Continuous
 62
     7
370
    25
100
AcDbLine
 10
1722.8149032462
 20
427.0681652275
 30
0.0
 11
1722.8149032462
 21
428.0681652275
 31
0.0
  0
LINE
  5
437
330
1F
100
AcDbEntity
  8
0
  6
Continuous
 62
     7
370
    25
100
AcDbLine
 10
1782.2132551763
 20
-121.9318347725
 30
0.0
 11
1782.2132551763
 21
-120.9318347725
 31
0.0
  0
LINE
  5
438
330
1F
100
AcDbEntity
  8
0
  6
Continuous
 62
     7
370
    25
100
AcDbLine
 10
1782.2132551763
 20
427.0681652275
 30
0.0
 11
1782.2132551763
 21
428.0681652275
 31
0.0
  0
LINE
  5
439
330
1F
100
AcDbEntity
  8
0
  6
Continuous
 62
     7
370
    25
100
AcDbLine
 10
1832.2132551763
 20
-121.9318347725
 30
0.0
 11
1832.2132551763
 21
-120.9318347725
 31
0.0
  0
LINE
  5
43A
330
1F
100
AcDbEntity
  8
0
  6
Continuous
 62
     7
370
    25
100
AcDbLine
 10
1832.2132551763
 20
427.0681652275
 30
0.0
 11
1832.2132551763
 21
428.0681652275
 31
0.0
  0
LINE
  5
43B
330
1F
100
AcDbEntity
  8
0
  6
Continuous
 62
     7
370
    25
100
AcDbLine
 10
1886.9124311414
 20
-121.9318347725
 30
0.0
 11
1886.9124311414
 21
-120.9318347725
 31
0.0
  0
LINE
  5
43C
330
1F
100
AcDbEntity
  8
0
  6
Continuous
 62
     7
370
    25
100
AcDbLine
 10
1886.9124311414
 20
427.0681652275
 30
0.0
 11
1886.9124311414
 21
428.0681652275
 31
0.0
  0
LINE
  5
43D
330
1F
100
AcDbEntity
  8
0
  6
Continuous
 62
     7
370
    25
100
AcDbLine
 10
1836.9124311414
 20
-121.9318347725
 30
0.0
 11
1836.9124311414
 21
-120.9318347725
 31
0.0
  0
LINE
  5
43E
330
1F
100
AcDbEntity
  8
0
  6
Continuous
 62
     7
370
    25
100
AcDbLine
 10
1836.9124311414
 20
427.0681652275
 30
0.0
 11
1836.9124311414
 21
428.0681652275
 31
0.0
  0
LINE
  5
43F
330
1F
100
AcDbEntity
  8
0
  6
Continuous
 62
     8
370
    25
100
AcDbLine
 10
1496.5334964653
 20
431.2681652275
 30
0.0
 11
1939.9816148504
 21
431.2681652275
 31
0.0
  0
LINE
  5
440
330
1F
100
AcDbEntity
  8
0
  6
Continuous
 62
     8
370
    25
100
AcDbLine
 10
1496.5334964653
 20
504.8681652275
 30
0.0
 11
1939.9816148504
 21
504.8681652275
 31
0.0
  0
LINE
  5
441
330
1F
100
AcDbEntity
  8
0
  6
Continuous
 62
     8
370
    25
100
AcDbLine
 10
1496.5334964653
 20
-198.7318347725
 30
0.0
 11
1939.9816148504
 21
-198.7318347725
 31
0.0
  0
LINE
  5
442
330
1F
100
AcDbEntity
  8
0
  6
Continuous
 62
     8
370
    25
100
AcDbLine
 10
1496.5334964653
 20
-125.1318347725
 30
0.0
 11
1939.9816148504
 21
-125.1318347725
 31
0.0
  0
LINE
  5
443
330
1F
100
AcDbEntity
  8
0
  6
Continuous
 62
     8
370
    25
100
AcDbLine
 10
-1273.7038932305
 20
410.0681652275
 30
0.0
 11
-1135.1280256155
 21
410.0681652275
 31
0.0
  0
LINE
  5
444
330
1F
100
AcDbEntity
  8
0
  6
Continuous
 62
     8
370
    25
100
AcDbLine
 10
-1135.1280256155
 20
401.0681652275
 30
0.0
 11
-1273.7038932305
 21
401.0681652275
 31
0.0
  0
LINE
  5
445
330
1F
100
AcDbEntity
  8
0
  6
Continuous
 62
     8
370
    25
100
AcDbLine
 10
1319.7766001815
 20
410.0681652275
 30
0.0
 11
1334.133832835
 21
410.0681652275
 31
0.0
  0
LINE
  5
446
330
1F
100
AcDbEntity
  8
0
  6
Continuous
 62
     8
370
    25
100
AcDbLine
 10
1341.9182063221
 20
410.0681652275
 30
0.0
 11
1347.4543632615
 21
410.0681652275
 31
0.0
  0
LINE
  5
447
330
1F
100
AcDbEntity
  8
0
  6
Continuous
 62
     8
370
    25
100
AcDbLine
 10
1358.8316106393
 20
396.9862910129
 30
0.0
 11
1358.8316106393
 21
-90.8499605578
 31
0.0
  0
LINE
  5
448
330
1F
100
AcDbEntity
  8
0
  6
Continuous
 62
     8
370
    25
100
AcDbLine
 10
1360.0629343038
 20
396.6913399601
 30
0.0
 11
1360.0629343038
 21
-90.555009505
 31
0.0
  0
LINE
  5
449
330
1F
100
AcDbEntity
  8
0
  6
Continuous
 62
     8
370
    25
100
AcDbLine
 10
-487.290307069
 20
398.0681652275
 30
0.0
 11
-487.290307069
 21
-91.9318347725
 31
0.0
  0
LINE
  5
44A
330
1F
100
AcDbEntity
  8
0
  6
Continuous
 62
     8
370
    25
100
AcDbLine
 10
-779.5127295437
 20
398.0681652275
 30
0.0
 11
-779.5127295437
 21
-91.9318347725
 31
0.0
  0
LINE
  5
44B
330
1F
100
AcDbEntity
  8
0
  6
Continuous
 62
     8
370
    25
100
AcDbLine
 10
-1129.2373755292
 20
398.0681652275
 30
0.0
 11
-1129.2373755292
 21
-91.9318347725
 31
0.0
  0
LINE
  5
44C
330
1F
100
AcDbEntity
  8
0
  6
Continuous
 62
     8
370
    25
100
AcDbLine
 10
985.6984662064
 20
-118.9318347725
 30
0.0
 11
1001.333301371
 21
-118.9318347725
 31
0.0
  0
LINE
  5
44D
330
1F
100
AcDbEntity
  8
0
  6
Continuous
 62
     8
370
    25
100
AcDbLine
 10
1001.333301371
 20
-109.9318347725
 30
0.0
 11
985.6984662064
 21
-109.9318347725
 31
0.0
  0
LINE
  5
44E
330
1F
100
AcDbEntity
  8
0
  6
Continuous
 62
     8
370
    25
100
AcDbLine
 10
564.4341578756
 20
-118.9318347725
 30
0.0
 11
574.0426209924
 21
-118.9318347725
 31
0.0
  0
LINE
  5
44F
330
1F
100
AcDbEntity
  8
0
  6
Continuous
 62
     8
370
    25
100
AcDbLine
 10
574.0426209924
 20
-109.9318347725
 30
0.0
 11
564.4341578756
 21
-109.9318347725
 31
0.0
  0
LINE
  5
450
330
1F
100
AcDbEntity
  8
0
  6
Continuous
 62
     8
370
    25
100
AcDbLine
 10
1319.7766001815
 20
-103.9318347725
 30
0.0
 11
1334.133832835
 21
-103.9318347725
 31
0.0
  0
LINE
  5
451
330
1F
100
AcDbEntity
  8
0
  6
Continuous
 62
     8
370
    25
100
AcDbLine
 10
1341.9182063221
 20
-103.9318347725
 30
0.0
 11
1347.4543632615
 21
-103.9318347725
 31
0.0
  0
LINE
  5
452
330
1F
100
AcDbEntity
  8
0
  6
Continuous
 62
     8
370
    25
100
AcDbLine
 10
-1159.3229170117
 20
-109.1818347725
 30
0.0
 11
-1180.6229170117
 21
-109.1818347725
 31
0.0
  0
LINE
  5
453
330
1F
100
AcDbEntity
  8
0
  6
Continuous
 62
     8
370
    25
100
AcDbLine
 10
-1159.3229170117
 20
415.3181652275
 30
0.0
 11
-1147.8159614046
 21
415.3181652275
 31
0.0
  0
LINE
  5
454
330
1F
100
AcDbEntity
  8
0
  6
Continuous
 62
     8
370
    25
100
AcDbLine
 10
-1180.6229170117
 20
415.3181652275
 30
0.0
 11
-1159.3229170117
 21
415.3181652275
 31
0.0
  0
LINE
  5
455
330
1F
100
AcDbEntity
  8
0
  6
Continuous
 62
     8
370
    25
100
AcDbLine
 10
-1147.8159614046
 20
-109.1818347725
 30
0.0
 11
-1159.3229170117
 21
-109.1818347725
 31
0.0
  0
LINE
  5
456
330
1F
100
AcDbEntity
  8
0
  6
Continuous
 62
     8
370
    25
100
AcDbLine
 10
660.0661298259
 20
-89.6818347725
 30
0.0
 11
681.3661298259
 21
-89.6818347725
 31
0.0
  0
LINE
  5
457
330
1F
100
AcDbEntity
  8
0
  6
Continuous
 62
     8
370
    25
100
AcDbLine
 10
810.4434454445
 20
-89.6818347725
 30
0.0
 11
831.7434454445
 21
-89.6818347725
 31
0.0
  0
LINE
  5
458
330
1F
100
AcDbEntity
  8
0
  6
Continuous
 62
     8
370
    25
100
AcDbLine
 10
831.7431329571
 20
-89.6818347725
 30
0.0
 11
839.7324067057
 21
-89.6818347725
 31
0.0
  0
LINE
  5
459
330
1F
100
AcDbEntity
  8
0
  6
Continuous
 62
     8
370
    25
100
AcDbLine
 10
839.7324067057
 20
395.8181652275
 30
0.0
 11
831.7431329571
 21
395.8181652275
 31
0.0
  0
LINE
  5
45A
330
1F
100
AcDbEntity
  8
0
  6
Continuous
 62
     8
370
    25
100
AcDbLine
 10
810.4431329571
 20
-89.6818347725
 30
0.0
 11
831.7431329571
 21
-89.6818347725
 31
0.0
  0
LINE
  5
45B
330
1F
100
AcDbEntity
  8
0
  6
Continuous
 62
     8
370
    25
100
AcDbLine
 10
600.0841578755
 20
395.8181652275
 30
0.0
 11
578.7841578755
 21
395.8181652275
 31
0.0
  0
LINE
  5
45C
330
1F
100
AcDbEntity
  8
0
  6
Continuous
 62
     8
370
    25
100
AcDbLine
 10
681.3661298259
 20
395.8181652275
 30
0.0
 11
660.0661298259
 21
395.8181652275
 31
0.0
  0
LINE
  5
45D
330
1F
100
AcDbEntity
  8
0
  6
Continuous
 62
     8
370
    25
100
AcDbLine
 10
831.7431329571
 20
395.8181652275
 30
0.0
 11
810.4431329571
 21
395.8181652275
 31
0.0
  0
LINE
  5
45E
330
1F
100
AcDbEntity
  8
0
  6
Continuous
 62
     8
370
    25
100
AcDbLine
 10
578.7841578755
 20
-89.6818347725
 30
0.0
 11
600.0841578755
 21
-89.6818347725
 31
0.0
  0
LINE
  5
45F
330
1F
100
AcDbEntity
  8
0
  6
Continuous
 62
     8
370
    25
100
AcDbLine
 10
-1273.7038932305
 20
-103.9318347725
 30
0.0
 11
-1135.1280256155
 21
-103.9318347725
 31
0.0
  0
LINE
  5
460
330
1F
100
AcDbEntity
  8
0
  6
Continuous
 62
     8
370
    25
100
AcDbLine
 10
-1135.1280256155
 20
-94.9318347725
 30
0.0
 11
-1273.7038932305
 21
-94.9318347725
 31
0.0
  0
LINE
  5
461
330
1F
100
AcDbEntity
  8
0
  6
Continuous
 62
     8
370
    25
100
AcDbLine
 10
229.1389582159
 20
-108.9318347725
 30
0.0
 11
269.1389582159
 21
-108.9318347725
 31
0.0
  0
LINE
  5
462
330
1F
100
AcDbEntity
  8
0
  6
Continuous
 62
     8
370
    25
100
AcDbLine
 10
632.7361297935
 20
430.0681652275
 30
0.0
 11
609.4341578755
 21
430.0681652275
 31
0.0
  0
LINE
  5
463
330
1F
100
AcDbEntity
  8
0
  6
Continuous
 62
     8
370
    25
100
AcDbLine
 10
821.0931329571
 20
-123.9318347725
 30
0.0
 11
841.0931329571
 21
-123.9318347725
 31
0.0
  0
LINE
  5
464
330
1F
100
AcDbEntity
  8
0
  6
Continuous
 62
     8
370
    25
100
AcDbLine
 10
801.0931329571
 20
-123.9318347725
 30
0.0
 11
821.0931329571
 21
-123.9318347725
 31
0.0
  0
LINE
  5
465
330
1F
100
AcDbEntity
  8
0
  6
Continuous
 62
     8
370
    25
100
AcDbLine
 10
-485.7163651003
 20
415.0681652275
 30
0.0
 11
-498.0553849391
 21
415.0681652275
 31
0.0
  0
LINE
  5
466
330
1F
100
AcDbEntity
  8
0
  6
Continuous
 62
     8
370
    25
100
AcDbLine
 10
-458.0553849391
 20
415.0681652275
 30
0.0
 11
-485.7163651003
 21
415.0681652275
 31
0.0
  0
LINE
  5
467
330
1F
100
AcDbEntity
  8
0
  6
Continuous
 62
     8
370
    25
100
AcDbLine
 10
956.333301371
 20
-123.9318347725
 30
0.0
 11
996.333301371
 21
-123.9318347725
 31
0.0
  0
LINE
  5
468
330
1F
100
AcDbEntity
  8
0
  6
Continuous
 62
     8
370
    25
100
AcDbLine
 10
968.6723212097
 20
430.0681652275
 30
0.0
 11
956.333301371
 21
430.0681652275
 31
0.0
  0
LINE
  5
469
330
1F
100
AcDbEntity
  8
0
  6
Continuous
 62
     8
370
    25
100
AcDbLine
 10
996.333301371
 20
430.0681652275
 30
0.0
 11
968.6723212097
 21
430.0681652275
 31
0.0
  0
LINE
  5
46A
330
1F
100
AcDbEntity
  8
0
  6
Continuous
 62
     8
370
    25
100
AcDbLine
 10
-1147.8175340069
 20
-108.9318347725
 30
0.0
 11
-1107.8175340069
 21
-108.9318347725
 31
0.0
  0
LINE
  5
46B
330
1F
100
AcDbEntity
  8
0
  6
Continuous
 62
     8
370
    25
100
AcDbLine
 10
-1204.5766664041
 20
415.0681652275
 30
0.0
 11
-1244.5766664041
 21
415.0681652275
 31
0.0
  0
LINE
  5
46C
330
1F
100
AcDbEntity
  8
0
  6
Continuous
 62
     8
370
    25
100
AcDbLine
 10
-498.0553849391
 20
-108.9318347725
 30
0.0
 11
-458.0553849391
 21
-108.9318347725
 31
0.0
  0
LINE
  5
46D
330
1F
100
AcDbEntity
  8
0
  6
Continuous
 62
     8
370
    25
100
AcDbLine
 10
821.0934454445
 20
-123.9318347725
 30
0.0
 11
841.0934454445
 21
-123.9318347725
 31
0.0
  0
LINE
  5
46E
330
1F
100
AcDbEntity
  8
0
  6
Continuous
 62
     8
370
    25
100
AcDbLine
 10
801.0934454445
 20
-123.9318347725
 30
0.0
 11
821.0934454445
 21
-123.9318347725
 31
0.0
  0
LINE
  5
46F
330
1F
100
AcDbEntity
  8
0
  6
Continuous
 62
     8
370
    25
100
AcDbLine
 10
241.4779780547
 20
415.0681652275
 30
0.0
 11
229.1389582159
 21
415.0681652275
 31
0.0
  0
LINE
  5
470
330
1F
100
AcDbEntity
  8
0
  6
Continuous
 62
     8
370
    25
100
AcDbLine
 10
269.1389582159
 20
415.0681652275
 30
0.0
 11
241.4779780547
 21
415.0681652275
 31
0.0
  0
LINE
  5
471
330
1F
100
AcDbEntity
  8
0
  6
Continuous
 62
     8
370
    25
100
AcDbLine
 10
-1204.7292537029
 20
-108.9318347725
 30
0.0
 11
-1204.5766664041
 21
-108.9318347725
 31
0.0
  0
LINE
  5
472
330
1F
100
AcDbEntity
  8
0
  6
Continuous
 62
     8
370
    25
100
AcDbLine
 10
-1244.5766664041
 20
-108.9318347725
 30
0.0
 11
-1204.7292537029
 21
-108.9318347725
 31
0.0
  0
LINE
  5
473
330
1F
100
AcDbEntity
  8
0
  6
Continuous
 62
     8
370
    25
100
AcDbLine
 10
-1135.4785141682
 20
415.0681652275
 30
0.0
 11
-1147.8175340069
 21
415.0681652275
 31
0.0
  0
LINE
  5
474
330
1F
100
AcDbEntity
  8
0
  6
Continuous
 62
     8
370
    25
100
AcDbLine
 10
-1107.8175340069
 20
415.0681652275
 30
0.0
 11
-1135.4785141682
 21
415.0681652275
 31
0.0
  0
LINE
  5
475
330
1F
100
AcDbEntity
  8
0
  6
Continuous
 62
     8
370
    25
100
AcDbLine
 10
-122.1191935228
 20
415.0681652275
 30
0.0
 11
-134.4582133616
 21
415.0681652275
 31
0.0
  0
LINE
  5
476
330
1F
100
AcDbEntity
  8
0
  6
Continuous
 62
     8
370
    25
100
AcDbLine
 10
-94.4582133616
 20
415.0681652275
 30
0.0
 11
-122.1191935228
 21
415.0681652275
 31
0.0
  0
LINE
  5
477
330
1F
100
AcDbEntity
  8
0
  6
Continuous
 62
     8
370
    25
100
AcDbLine
 10
589.4341578755
 20
-123.9318347725
 30
0.0
 11
609.4341578755
 21
-123.9318347725
 31
0.0
  0
LINE
  5
478
330
1F
100
AcDbEntity
  8
0
  6
Continuous
 62
     8
370
    25
100
AcDbLine
 10
569.4341578755
 20
-123.9318347725
 30
0.0
 11
589.4341578755
 21
-123.9318347725
 31
0.0
  0
LINE
  5
479
330
1F
100
AcDbEntity
  8
0
  6
Continuous
 62
     8
370
    25
100
AcDbLine
 10
609.4341578755
 20
430.0681652275
 30
0.0
 11
569.4341578755
 21
430.0681652275
 31
0.0
  0
LINE
  5
47A
330
1F
100
AcDbEntity
  8
0
  6
Continuous
 62
     8
370
    25
100
AcDbLine
 10
-134.4582133616
 20
-108.9318347725
 30
0.0
 11
-94.4582133616
 21
-108.9318347725
 31
0.0
  0
LINE
  5
47B
330
1F
100
AcDbEntity
  8
0
  6
Continuous
 62
     8
370
    25
100
AcDbLine
 10
841.0931329571
 20
430.0681652275
 30
0.0
 11
801.0931329571
 21
430.0681652275
 31
0.0
  0
LINE
  5
47C
330
1F
100
AcDbEntity
  8
0
  6
Continuous
 62
     8
370
    25
100
AcDbLine
 10
670.7161298259
 20
-123.9318347725
 30
0.0
 11
690.7161298259
 21
-123.9318347725
 31
0.0
  0
LINE
  5
47D
330
1F
100
AcDbEntity
  8
0
  6
Continuous
 62
     8
370
    25
100
AcDbLine
 10
650.7161298259
 20
-123.9318347725
 30
0.0
 11
670.7161298259
 21
-123.9318347725
 31
0.0
  0
LINE
  5
47E
330
1F
100
AcDbEntity
  8
0
  6
Continuous
 62
     8
370
    25
100
AcDbLine
 10
609.4341578755
 20
-123.9318347725
 30
0.0
 11
632.7361297935
 21
-123.9318347725
 31
0.0
  0
LINE
  5
47F
330
1F
100
AcDbEntity
  8
0
  6
Continuous
 62
     8
370
    25
100
AcDbLine
 10
-797.6848309994
 20
-108.9318347725
 30
0.0
 11
-757.6848309994
 21
-108.9318347725
 31
0.0
  0
LINE
  5
480
330
1F
100
AcDbEntity
  8
0
  6
Continuous
 62
     8
370
    25
100
AcDbLine
 10
-785.3458111607
 20
415.0681652275
 30
0.0
 11
-797.6848309994
 21
415.0681652275
 31
0.0
  0
LINE
  5
481
330
1F
100
AcDbEntity
  8
0
  6
Continuous
 62
     8
370
    25
100
AcDbLine
 10
-757.6848309994
 20
415.0681652275
 30
0.0
 11
-785.3458111607
 21
415.0681652275
 31
0.0
  0
LINE
  5
482
330
1F
100
AcDbEntity
  8
0
  6
Continuous
 62
     8
370
    25
100
AcDbLine
 10
841.0934454445
 20
-123.9318347725
 30
0.0
 11
849.0824067057
 21
-123.9318347725
 31
0.0
  0
LINE
  5
483
330
1F
100
AcDbEntity
  8
0
  6
Continuous
 62
     8
370
    25
100
AcDbLine
 10
690.7161298259
 20
430.0681652275
 30
0.0
 11
650.7161298259
 21
430.0681652275
 31
0.0
  0
LINE
  5
484
330
1F
100
AcDbEntity
  8
0
  6
Continuous
 62
     8
370
    25
100
AcDbLine
 10
849.0824067057
 20
430.0681652275
 30
0.0
 11
841.0931329571
 21
430.0681652275
 31
0.0
  0
LINE
  5
485
330
1F
100
AcDbEntity
  8
0
  6
Continuous
 62
     8
370
    25
100
AcDbLine
 10
-128.1582133616
 20
-124.0622260909
 30
0.0
 11
-100.7582133616
 21
-124.0622260909
 31
0.0
  0
LINE
  5
486
330
1F
100
AcDbEntity
  8
0
  6
Continuous
 62
     8
370
    25
100
AcDbLine
 10
-127.824763562
 20
-124.5997677085
 30
0.0
 11
-101.0916631612
 21
-124.5997677085
 31
0.0
  0
LINE
  5
487
330
1F
100
AcDbEntity
  8
0
  6
Continuous
 62
     8
370
    25
100
AcDbLine
 10
834.7934454445
 20
-139.0622260909
 30
0.0
 11
842.7824067057
 21
-139.0622260909
 31
0.0
  0
LINE
  5
488
330
1F
100
AcDbEntity
  8
0
  6
Continuous
 62
     8
370
    25
100
AcDbLine
 10
834.4599956449
 20
-139.5997677085
 30
0.0
 11
842.4489569061
 21
-139.5997677085
 31
0.0
  0
LINE
  5
489
330
1F
100
AcDbEntity
  8
0
  6
Continuous
 62
     8
370
    25
100
AcDbLine
 10
684.4161298259
 20
445.1985565459
 30
0.0
 11
657.0161298259
 21
445.1985565459
 31
0.0
  0
LINE
  5
48A
330
1F
100
AcDbEntity
  8
0
  6
Continuous
 62
     8
370
    25
100
AcDbLine
 10
684.0826800263
 20
445.7360981636
 30
0.0
 11
657.3495796256
 21
445.7360981636
 31
0.0
  0
LINE
  5
48B
330
1F
100
AcDbEntity
  8
0
  6
Continuous
 62
     8
370
    25
100
AcDbLine
 10
-782.9326024099
 20
430.1985565459
 30
0.0
 11
-791.3848309994
 21
430.1985565459
 31
0.0
  0
LINE
  5
48C
330
1F
100
AcDbEntity
  8
0
  6
Continuous
 62
     8
370
    25
100
AcDbLine
 10
-763.9848309994
 20
430.1985565459
 30
0.0
 11
-782.9326024099
 21
430.1985565459
 31
0.0
  0
LINE
  5
48D
330
1F
100
AcDbEntity
  8
0
  6
Continuous
 62
     8
370
    25
100
AcDbLine
 10
-782.8048747949
 20
430.7360981636
 30
0.0
 11
-791.0513811998
 21
430.7360981636
 31
0.0
  0
LINE
  5
48E
330
1F
100
AcDbEntity
  8
0
  6
Continuous
 62
     8
370
    25
100
AcDbLine
 10
-764.3182807991
 20
430.7360981636
 30
0.0
 11
-782.8048747949
 21
430.7360981636
 31
0.0
  0
LINE
  5
48F
330
1F
100
AcDbEntity
  8
0
  6
Continuous
 62
     8
370
    25
100
AcDbLine
 10
-791.3848309994
 20
-124.0622260909
 30
0.0
 11
-763.9848309994
 21
-124.0622260909
 31
0.0
  0
LINE
  5
490
330
1F
100
AcDbEntity
  8
0
  6
Continuous
 62
     8
370
    25
100
AcDbLine
 10
-791.0513811998
 20
-124.5997677085
 30
0.0
 11
-764.3182807991
 21
-124.5997677085
 31
0.0
  0
LINE
  5
491
330
1F
100
AcDbEntity
  8
0
  6
Continuous
 62
     8
370
    25
100
AcDbLine
 10
670.7161298259
 20
-139.0622260909
 30
0.0
 11
684.4161298259
 21
-139.0622260909
 31
0.0
  0
LINE
  5
492
330
1F
100
AcDbEntity
  8
0
  6
Continuous
 62
     8
370
    25
100
AcDbLine
 10
657.0161298259
 20
-139.0622260909
 30
0.0
 11
670.7161298259
 21
-139.0622260909
 31
0.0
  0
LINE
  5
493
330
1F
100
AcDbEntity
  8
0
  6
Continuous
 62
     8
370
    25
100
AcDbLine
 10
670.7161298259
 20
-139.5997677085
 30
0.0
 11
684.0826800263
 21
-139.5997677085
 31
0.0
  0
LINE
  5
494
330
1F
100
AcDbEntity
  8
0
  6
Continuous
 62
     8
370
    25
100
AcDbLine
 10
657.3495796256
 20
-139.5997677085
 30
0.0
 11
670.7161298259
 21
-139.5997677085
 31
0.0
  0
LINE
  5
495
330
1F
100
AcDbEntity
  8
0
  6
Continuous
 62
     8
370
    25
100
AcDbLine
 10
834.7931329571
 20
445.1985565459
 30
0.0
 11
807.3931329571
 21
445.1985565459
 31
0.0
  0
LINE
  5
496
330
1F
100
AcDbEntity
  8
0
  6
Continuous
 62
     8
370
    25
100
AcDbLine
 10
834.4596831575
 20
445.7360981636
 30
0.0
 11
807.7265827567
 21
445.7360981636
 31
0.0
  0
LINE
  5
497
330
1F
100
AcDbEntity
  8
0
  6
Continuous
 62
     8
370
    25
100
AcDbLine
 10
603.1341578755
 20
445.1985565459
 30
0.0
 11
575.7341578755
 21
445.1985565459
 31
0.0
  0
LINE
  5
498
330
1F
100
AcDbEntity
  8
0
  6
Continuous
 62
     8
370
    25
100
AcDbLine
 10
602.8007080759
 20
445.7360981636
 30
0.0
 11
576.0676076751
 21
445.7360981636
 31
0.0
  0
LINE
  5
499
330
1F
100
AcDbEntity
  8
0
  6
Continuous
 62
     8
370
    25
100
AcDbLine
 10
821.0931329571
 20
-139.0622260909
 30
0.0
 11
834.7931329571
 21
-139.0622260909
 31
0.0
  0
LINE
  5
49A
330
1F
100
AcDbEntity
  8
0
  6
Continuous
 62
     8
370
    25
100
AcDbLine
 10
807.3931329571
 20
-139.0622260909
 30
0.0
 11
821.0931329571
 21
-139.0622260909
 31
0.0
  0
LINE
  5
49B
330
1F
100
AcDbEntity
  8
0
  6
Continuous
 62
     8
370
    25
100
AcDbLine
 10
821.0931329571
 20
-139.5997677085
 30
0.0
 11
834.4596831575
 21
-139.5997677085
 31
0.0
  0
LINE
  5
49C
330
1F
100
AcDbEntity
  8
0
  6
Continuous
 62
     8
370
    25
100
AcDbLine
 10
807.7265827567
 20
-139.5997677085
 30
0.0
 11
821.0931329571
 21
-139.5997677085
 31
0.0
  0
LINE
  5
49D
330
1F
100
AcDbEntity
  8
0
  6
Continuous
 62
     8
370
    25
100
AcDbLine
 10
589.4341578755
 20
-139.0622260909
 30
0.0
 11
603.1341578755
 21
-139.0622260909
 31
0.0
  0
LINE
  5
49E
330
1F
100
AcDbEntity
  8
0
  6
Continuous
 62
     8
370
    25
100
AcDbLine
 10
575.7341578755
 20
-139.0622260909
 30
0.0
 11
589.4341578755
 21
-139.0622260909
 31
0.0
  0
LINE
  5
49F
330
1F
100
AcDbEntity
  8
0
  6
Continuous
 62
     8
370
    25
100
AcDbLine
 10
589.4341578755
 20
-139.5997677085
 30
0.0
 11
602.8007080759
 21
-139.5997677085
 31
0.0
  0
LINE
  5
4A0
330
1F
100
AcDbEntity
  8
0
  6
Continuous
 62
     8
370
    25
100
AcDbLine
 10
576.0676076751
 20
-139.5997677085
 30
0.0
 11
589.4341578755
 21
-139.5997677085
 31
0.0
  0
LINE
  5
4A1
330
1F
100
AcDbEntity
  8
0
  6
Continuous
 62
     8
370
    25
100
AcDbLine
 10
603.1341578755
 20
-139.0622260909
 30
0.0
 11
626.4361297935
 21
-139.0622260909
 31
0.0
  0
LINE
  5
4A2
330
1F
100
AcDbEntity
  8
0
  6
Continuous
 62
     8
370
    25
100
AcDbLine
 10
602.8007080759
 20
-139.5997677085
 30
0.0
 11
626.1026799938
 21
-139.5997677085
 31
0.0
  0
LINE
  5
4A3
330
1F
100
AcDbEntity
  8
0
  6
Continuous
 62
     8
370
    25
100
AcDbLine
 10
-491.7553849391
 20
-124.0622260909
 30
0.0
 11
-464.3553849391
 21
-124.0622260909
 31
0.0
  0
LINE
  5
4A4
330
1F
100
AcDbEntity
  8
0
  6
Continuous
 62
     8
370
    25
100
AcDbLine
 10
-491.4219351395
 20
-124.5997677085
 30
0.0
 11
-464.6888347387
 21
-124.5997677085
 31
0.0
  0
LINE
  5
4A5
330
1F
100
AcDbEntity
  8
0
  6
Continuous
 62
     8
370
    25
100
AcDbLine
 10
-119.705984772
 20
430.1985565459
 30
0.0
 11
-128.1582133616
 21
430.1985565459
 31
0.0
  0
LINE
  5
4A6
330
1F
100
AcDbEntity
  8
0
  6
Continuous
 62
     8
370
    25
100
AcDbLine
 10
-100.7582133616
 20
430.1985565459
 30
0.0
 11
-119.705984772
 21
430.1985565459
 31
0.0
  0
LINE
  5
4A7
330
1F
100
AcDbEntity
  8
0
  6
Continuous
 62
     8
370
    25
100
AcDbLine
 10
-119.578257157
 20
430.7360981636
 30
0.0
 11
-127.824763562
 21
430.7360981636
 31
0.0
  0
LINE
  5
4A8
330
1F
100
AcDbEntity
  8
0
  6
Continuous
 62
     8
370
    25
100
AcDbLine
 10
-101.0916631612
 20
430.7360981636
 30
0.0
 11
-119.578257157
 21
430.7360981636
 31
0.0
  0
LINE
  5
4A9
330
1F
100
AcDbEntity
  8
0
  6
Continuous
 62
     8
370
    25
100
AcDbLine
 10
235.4389582159
 20
-124.0622260909
 30
0.0
 11
262.8389582159
 21
-124.0622260909
 31
0.0
  0
LINE
  5
4AA
330
1F
100
AcDbEntity
  8
0
  6
Continuous
 62
     8
370
    25
100
AcDbLine
 10
235.7724080156
 20
-124.5997677085
 30
0.0
 11
262.5055084163
 21
-124.5997677085
 31
0.0
  0
LINE
  5
4AB
330
1F
100
AcDbEntity
  8
0
  6
Continuous
 62
     8
370
    25
100
AcDbLine
 10
-1133.0653054174
 20
430.1985565459
 30
0.0
 11
-1141.5175340069
 21
430.1985565459
 31
0.0
  0
LINE
  5
4AC
330
1F
100
AcDbEntity
  8
0
  6
Continuous
 62
     8
370
    25
100
AcDbLine
 10
-1114.1175340069
 20
430.1985565459
 30
0.0
 11
-1133.0653054174
 21
430.1985565459
 31
0.0
  0
LINE
  5
4AD
330
1F
100
AcDbEntity
  8
0
  6
Continuous
 62
     8
370
    25
100
AcDbLine
 10
-1132.9375778024
 20
430.7360981636
 30
0.0
 11
-1141.1840842073
 21
430.7360981636
 31
0.0
  0
LINE
  5
4AE
330
1F
100
AcDbEntity
  8
0
  6
Continuous
 62
     8
370
    25
100
AcDbLine
 10
-1114.4509838065
 20
430.7360981636
 30
0.0
 11
-1132.9375778024
 21
430.7360981636
 31
0.0
  0
LINE
  5
4AF
330
1F
100
AcDbEntity
  8
0
  6
Continuous
 62
     8
370
    25
100
AcDbLine
 10
-1210.8766664041
 20
430.1985565459
 30
0.0
 11
-1238.2766664041
 21
430.1985565459
 31
0.0
  0
LINE
  5
4B0
330
1F
100
AcDbEntity
  8
0
  6
Continuous
 62
     8
370
    25
100
AcDbLine
 10
-1211.2101162037
 20
430.7360981636
 30
0.0
 11
-1237.9432166045
 21
430.7360981636
 31
0.0
  0
LINE
  5
4B1
330
1F
100
AcDbEntity
  8
0
  6
Continuous
 62
     8
370
    25
100
AcDbLine
 10
821.0934454445
 20
-139.0622260909
 30
0.0
 11
834.7934454445
 21
-139.0622260909
 31
0.0
  0
LINE
  5
4B2
330
1F
100
AcDbEntity
  8
0
  6
Continuous
 62
     8
370
    25
100
AcDbLine
 10
807.3934454445
 20
-139.0622260909
 30
0.0
 11
821.0934454445
 21
-139.0622260909
 31
0.0
  0
LINE
  5
4B3
330
1F
100
AcDbEntity
  8
0
  6
Continuous
 62
     8
370
    25
100
AcDbLine
 10
821.0934454445
 20
-139.5997677085
 30
0.0
 11
834.4599956449
 21
-139.5997677085
 31
0.0
  0
LINE
  5
4B4
330
1F
100
AcDbEntity
  8
0
  6
Continuous
 62
     8
370
    25
100
AcDbLine
 10
807.7268952441
 20
-139.5997677085
 30
0.0
 11
821.0934454445
 21
-139.5997677085
 31
0.0
  0
LINE
  5
4B5
330
1F
100
AcDbEntity
  8
0
  6
Continuous
 62
     8
370
    25
100
AcDbLine
 10
-1141.5175340069
 20
-124.0622260909
 30
0.0
 11
-1114.1175340069
 21
-124.0622260909
 31
0.0
  0
LINE
  5
4B6
330
1F
100
AcDbEntity
  8
0
  6
Continuous
 62
     8
370
    25
100
AcDbLine
 10
-1141.1840842073
 20
-124.5997677085
 30
0.0
 11
-1114.4509838065
 21
-124.5997677085
 31
0.0
  0
LINE
  5
4B7
330
1F
100
AcDbEntity
  8
0
  6
Continuous
 62
     8
370
    25
100
AcDbLine
 10
-1210.9811887038
 20
-124.0622260909
 30
0.0
 11
-1210.8766664041
 21
-124.0622260909
 31
0.0
  0
LINE
  5
4B8
330
1F
100
AcDbEntity
  8
0
  6
Continuous
 62
     8
370
    25
100
AcDbLine
 10
-1238.2766664041
 20
-124.0622260909
 30
0.0
 11
-1210.9811887038
 21
-124.0622260909
 31
0.0
  0
LINE
  5
4B9
330
1F
100
AcDbEntity
  8
0
  6
Continuous
 62
     8
370
    25
100
AcDbLine
 10
-1211.3120944932
 20
-124.5997677085
 30
0.0
 11
-1211.2101162037
 21
-124.5997677085
 31
0.0
  0
LINE
  5
4BA
330
1F
100
AcDbEntity
  8
0
  6
Continuous
 62
     8
370
    25
100
AcDbLine
 10
-1237.9432166045
 20
-124.5997677085
 30
0.0
 11
-1211.3120944932
 21
-124.5997677085
 31
0.0
  0
LINE
  5
4BB
330
1F
100
AcDbEntity
  8
0
  6
Continuous
 62
     8
370
    25
100
AcDbLine
 10
971.0855299605
 20
445.1985565459
 30
0.0
 11
962.633301371
 21
445.1985565459
 31
0.0
  0
LINE
  5
4BC
330
1F
100
AcDbEntity
  8
0
  6
Continuous
 62
     8
370
    25
100
AcDbLine
 10
990.033301371
 20
445.1985565459
 30
0.0
 11
971.0855299605
 21
445.1985565459
 31
0.0
  0
LINE
  5
4BD
330
1F
100
AcDbEntity
  8
0
  6
Continuous
 62
     8
370
    25
100
AcDbLine
 10
971.2132575755
 20
445.7360981636
 30
0.0
 11
962.9667511706
 21
445.7360981636
 31
0.0
  0
LINE
  5
4BE
330
1F
100
AcDbEntity
  8
0
  6
Continuous
 62
     8
370
    25
100
AcDbLine
 10
989.6998515714
 20
445.7360981636
 30
0.0
 11
971.2132575755
 21
445.7360981636
 31
0.0
  0
LINE
  5
4BF
330
1F
100
AcDbEntity
  8
0
  6
Continuous
 62
     8
370
    25
100
AcDbLine
 10
243.8911868055
 20
430.1985565459
 30
0.0
 11
235.4389582159
 21
430.1985565459
 31
0.0
  0
LINE
  5
4C0
330
1F
100
AcDbEntity
  8
0
  6
Continuous
 62
     8
370
    25
100
AcDbLine
 10
262.8389582159
 20
430.1985565459
 30
0.0
 11
243.8911868055
 21
430.1985565459
 31
0.0
  0
LINE
  5
4C1
330
1F
100
AcDbEntity
  8
0
  6
Continuous
 62
     8
370
    25
100
AcDbLine
 10
244.0189144205
 20
430.7360981636
 30
0.0
 11
235.7724080156
 21
430.7360981636
 31
0.0
  0
LINE
  5
4C2
330
1F
100
AcDbEntity
  8
0
  6
Continuous
 62
     8
370
    25
100
AcDbLine
 10
262.5055084163
 20
430.7360981636
 30
0.0
 11
244.0189144205
 21
430.7360981636
 31
0.0
  0
LINE
  5
4C3
330
1F
100
AcDbEntity
  8
0
  6
Continuous
 62
     8
370
    25
100
AcDbLine
 10
607.488358383
 20
445.1985565459
 30
0.0
 11
603.1341578755
 21
445.1985565459
 31
0.0
  0
LINE
  5
4C4
330
1F
100
AcDbEntity
  8
0
  6
Continuous
 62
     8
370
    25
100
AcDbLine
 10
626.4361297935
 20
445.1985565459
 30
0.0
 11
607.488358383
 21
445.1985565459
 31
0.0
  0
LINE
  5
4C5
330
1F
100
AcDbEntity
  8
0
  6
Continuous
 62
     8
370
    25
100
AcDbLine
 10
607.616085998
 20
445.7360981636
 30
0.0
 11
602.8007080759
 21
445.7360981636
 31
0.0
  0
LINE
  5
4C6
330
1F
100
AcDbEntity
  8
0
  6
Continuous
 62
     8
370
    25
100
AcDbLine
 10
626.1026799938
 20
445.7360981636
 30
0.0
 11
607.616085998
 21
445.7360981636
 31
0.0
  0
LINE
  5
4C7
330
1F
100
AcDbEntity
  8
0
  6
Continuous
 62
     8
370
    25
100
AcDbLine
 10
962.633301371
 20
-139.0622260909
 30
0.0
 11
990.033301371
 21
-139.0622260909
 31
0.0
  0
LINE
  5
4C8
330
1F
100
AcDbEntity
  8
0
  6
Continuous
 62
     8
370
    25
100
AcDbLine
 10
962.9667511706
 20
-139.5997677085
 30
0.0
 11
989.6998515714
 21
-139.5997677085
 31
0.0
  0
LINE
  5
4C9
330
1F
100
AcDbEntity
  8
0
  6
Continuous
 62
     8
370
    25
100
AcDbLine
 10
-483.3031563495
 20
430.1985565459
 30
0.0
 11
-491.7553849391
 21
430.1985565459
 31
0.0
  0
LINE
  5
4CA
330
1F
100
AcDbEntity
  8
0
  6
Continuous
 62
     8
370
    25
100
AcDbLine
 10
-464.3553849391
 20
430.1985565459
 30
0.0
 11
-483.3031563495
 21
430.1985565459
 31
0.0
  0
LINE
  5
4CB
330
1F
100
AcDbEntity
  8
0
  6
Continuous
 62
     8
370
    25
100
AcDbLine
 10
-483.1754287346
 20
430.7360981636
 30
0.0
 11
-491.4219351395
 21
430.7360981636
 31
0.0
  0
LINE
  5
4CC
330
1F
100
AcDbEntity
  8
0
  6
Continuous
 62
     8
370
    25
100
AcDbLine
 10
-464.6888347387
 20
430.7360981636
 30
0.0
 11
-483.1754287346
 21
430.7360981636
 31
0.0
  0
LINE
  5
4CD
330
1F
100
AcDbEntity
  8
0
  6
Continuous
 62
     8
370
    25
100
AcDbLine
 10
842.7824067057
 20
445.1985565459
 30
0.0
 11
834.7931329571
 21
445.1985565459
 31
0.0
  0
LINE
  5
4CE
330
1F
100
AcDbEntity
  8
0
  6
Continuous
 62
     8
370
    25
100
AcDbLine
 10
842.4489569061
 20
445.7360981636
 30
0.0
 11
834.4596831575
 21
445.7360981636
 31
0.0
  0
LINE
  5
4CF
330
1F
100
AcDbEntity
  8
0
  6
Continuous
 62
     8
370
    25
100
AcDbLine
 10
1550.2639841476
 20
-105.9318347725
 30
0.0
 11
1519.2639841476
 21
-105.9318347725
 31
0.0
  0
LINE
  5
4D0
330
1F
100
AcDbEntity
  8
0
  6
Continuous
 62
     8
370
    25
100
AcDbLine
 10
1567.3414926906
 20
-105.9318347725
 30
0.0
 11
1550.2639841476
 21
-105.9318347725
 31
0.0
  0
LINE
  5
4D1
330
1F
100
AcDbEntity
  8
0
  6
Continuous
 62
     8
370
    25
100
AcDbLine
 10
1550.2639841476
 20
412.0681652275
 30
0.0
 11
1567.3414926906
 21
412.0681652275
 31
0.0
  0
LINE
  5
4D2
330
1F
100
AcDbEntity
  8
0
  6
Continuous
 62
     8
370
    25
100
AcDbLine
 10
1519.2639841476
 20
412.0681652275
 30
0.0
 11
1550.2639841476
 21
412.0681652275
 31
0.0
  0
LINE
  5
4D3
330
1F
100
AcDbEntity
  8
0
  6
Continuous
 62
     8
370
    25
100
AcDbLine
 10
1524.0139841476
 20
399.9830152086
 30
0.0
 11
1545.5139841476
 21
399.9830152086
 31
0.0
  0
LINE
  5
4D4
330
1F
100
AcDbEntity
  8
0
  6
Continuous
 62
     8
370
    25
100
AcDbLine
 10
1524.4060677921
 20
399.4201912671
 30
0.0
 11
1545.1219005031
 21
399.4201912671
 31
0.0
  0
LINE
  5
4D5
330
1F
100
AcDbEntity
  8
0
  6
Continuous
 62
     8
370
    25
100
AcDbLine
 10
1545.5139841476
 20
399.9830152086
 30
0.0
 11
1562.5914926906
 21
399.9830152086
 31
0.0
  0
LINE
  5
4D6
330
1F
100
AcDbEntity
  8
0
  6
Continuous
 62
     8
370
    25
100
AcDbLine
 10
1545.1219005031
 20
399.4201912671
 30
0.0
 11
1562.1994090461
 21
399.4201912671
 31
0.0
  0
LINE
  5
4D7
330
1F
100
AcDbEntity
  8
0
  6
Continuous
 62
     8
370
    25
100
AcDbLine
 10
1545.5139841476
 20
-93.8466847535
 30
0.0
 11
1524.0139841476
 21
-93.8466847535
 31
0.0
  0
LINE
  5
4D8
330
1F
100
AcDbEntity
  8
0
  6
Continuous
 62
     8
370
    25
100
AcDbLine
 10
1545.1219005031
 20
-93.2838608121
 30
0.0
 11
1524.4060677921
 21
-93.2838608121
 31
0.0
  0
LINE
  5
4D9
330
1F
100
AcDbEntity
  8
0
  6
Continuous
 62
     8
370
    25
100
AcDbLine
 10
1562.5914926906
 20
-93.8466847535
 30
0.0
 11
1545.5139841476
 21
-93.8466847535
 31
0.0
  0
LINE
  5
4DA
330
1F
100
AcDbEntity
  8
0
  6
Continuous
 62
     8
370
    25
100
AcDbLine
 10
1562.1994090461
 20
-93.2838608121
 30
0.0
 11
1545.1219005031
 21
-93.2838608121
 31
0.0
  0
LINE
  5
4DB
330
1F
100
AcDbEntity
  8
0
  6
Continuous
 62
     8
370
    25
100
AcDbLine
 10
1344.6639409786
 20
411.3030378097
 30
0.0
 11
1331.3880981785
 21
411.3030378097
 31
0.0
  0
LINE
  5
4DC
330
1F
100
AcDbEntity
  8
0
  6
Continuous
 62
     8
370
    25
100
AcDbLine
 10
1331.3880981785
 20
-105.1667073546
 30
0.0
 11
1344.6639409786
 21
-105.1667073546
 31
0.0
  0
LINE
  5
4DD
330
1F
100
AcDbEntity
  8
0
  6
Continuous
 62
     8
370
    25
100
AcDbLine
 10
1218.5324016037
 20
-128.6518347725
 30
0.0
 11
1209.0324016037
 21
-128.6518347725
 31
0.0
  0
LINE
  5
4DE
330
1F
100
AcDbEntity
  8
0
  6
Continuous
 62
     8
370
    25
100
AcDbLine
 10
1209.0324016037
 20
-130.7818347725
 30
0.0
 11
1218.5324016037
 21
-130.7818347725
 31
0.0
  0
LINE
  5
4DF
330
1F
100
AcDbEntity
  8
0
  6
Continuous
 62
     8
370
    25
100
AcDbLine
 10
1209.0324016037
 20
434.7881652276
 30
0.0
 11
1218.5324016037
 21
434.7881652276
 31
0.0
  0
LINE
  5
4E0
330
1F
100
AcDbEntity
  8
0
  6
Continuous
 62
     8
370
    25
100
AcDbLine
 10
1218.5324016037
 20
436.9181652276
 30
0.0
 11
1209.0324016037
 21
436.9181652276
 31
0.0
  0
ARC
  5
4E1
330
1F
100
AcDbEntity
  8
0
  6
Continuous
 62
     8
370
    25
100
AcDbCircle
 10
1643.1157272811
 20
343.0681652275
 30
0.0
 40
6.63792140006143
100
AcDbArc
 50
270.0
 51
138.8919547582
  0
LWPOLYLINE
  5
4E2
330
1F
100
AcDbEntity
  8
0
  6
Continuous
 62
     8
370
    25
100
AcDbPolyline
 90
        3
 70
   128
 43
0.0
 10
1640.4814088255
 20
336.9753525119
 10
1641.6887703956
 20
336.585434741
 10
1643.1157272811
 20
336.4302438275
  0
ARC
  5
4E3
330
1F
100
AcDbEntity
  8
0
  6
Continuous
 62
     8
370
    25
100
AcDbCircle
 10
1563.4543632615
 20
398.0681652276
 30
0.0
 40
6.63792140006146
100
AcDbArc
 50
270.0
 51
72.7047706894
  0
ARC
  5
4E4
330
1F
100
AcDbEntity
  8
0
  6
Continuous
 62
     8
370
    25
100
AcDbCircle
 10
1563.4543632615
 20
398.0681652276
 30
0.0
 40
6.637921400061316
100
AcDbArc
 50
180.7163831051
 51
270.0
  0
ARC
  5
4E5
330
1F
100
AcDbEntity
  8
0
  6
Continuous
 62
     8
370
    25
100
AcDbCircle
 10
1563.4543632615
 20
-91.9318347724
 30
0.0
 40
6.637921400061414
100
AcDbArc
 50
287.2952293172
 51
179.2836168955
  0
ARC
  5
4E6
330
1F
100
AcDbEntity
  8
0
  6
Continuous
 62
     8
370
    25
100
AcDbCircle
 10
1643.1157272811
 20
-36.9318347725
 30
0.0
 40
6.637921400061423
100
AcDbArc
 50
270.0
 51
113.3819619742
  0
ARC
  5
4E7
330
1F
100
AcDbEntity
  8
0
  6
Continuous
 62
     8
370
    25
100
AcDbCircle
 10
1643.1157272811
 20
-36.9318347725
 30
0.0
 40
6.637921400061423
100
AcDbArc
 50
221.1080452417
 51
270.0
  0
LINE
  5
4E8
330
1F
100
AcDbEntity
  8
0
  6
Continuous
 62
     8
370
    25
100
AcDbLine
 10
1586.1718630148
 20
-109.9318347725
 30
0.0
 11
1476.4719110126
 21
-109.9318347725
 31
0.0
  0
LINE
  5
4E9
330
1F
100
AcDbEntity
  8
0
  6
Continuous
 62
     8
370
    25
100
AcDbLine
 10
1449.5719110126
 20
-109.9318347725
 30
0.0
 11
1359.2958856535
 21
-109.9318347725
 31
0.0
  0
LINE
  5
4EA
330
1F
100
AcDbEntity
  8
0
  6
Continuous
 62
     8
370
    25
100
AcDbLine
 10
1359.2958856535
 20
-118.9318347725
 30
0.0
 11
1449.5719110126
 21
-118.9318347725
 31
0.0
  0
LINE
  5
4EB
330
1F
100
AcDbEntity
  8
0
  6
Continuous
 62
     8
370
    25
100
AcDbLine
 10
1476.4719110126
 20
-118.9318347725
 30
0.0
 11
1586.1718630148
 21
-118.9318347725
 31
0.0
  0
LINE
  5
4EC
330
1F
100
AcDbEntity
  8
0
  6
Continuous
 62
     8
370
    25
100
AcDbLine
 10
1655.8423943056
 20
-109.9318347725
 30
0.0
 11
1655.2184858669
 21
-109.9318347725
 31
0.0
  0
LINE
  5
4ED
330
1F
100
AcDbEntity
  8
0
  6
Continuous
 62
     8
370
    25
100
AcDbLine
 10
1655.2184858669
 20
-118.9318347725
 30
0.0
 11
1655.8423943056
 21
-118.9318347725
 31
0.0
  0
LINE
  5
4EE
330
1F
100
AcDbEntity
  8
0
  6
Continuous
 62
     8
370
    25
100
AcDbLine
 10
1679.9979598857
 20
-109.9318347725
 30
0.0
 11
1655.8423943056
 21
-109.9318347725
 31
0.0
  0
LINE
  5
4EF
330
1F
100
AcDbEntity
  8
0
  6
Continuous
 62
     8
370
    25
100
AcDbLine
 10
1655.8423943056
 20
-118.9318347725
 30
0.0
 11
1679.9979598857
 21
-118.9318347725
 31
0.0
  0
LINE
  5
4F0
330
1F
100
AcDbEntity
  8
0
  6
Continuous
 62
     8
370
    25
100
AcDbLine
 10
1172.914060462
 20
-109.9318347725
 30
0.0
 11
1172.0784621807
 21
-109.9318347725
 31
0.0
  0
LINE
  5
4F1
330
1F
100
AcDbEntity
  8
0
  6
Continuous
 62
     8
370
    25
100
AcDbLine
 10
1172.0784621807
 20
-118.9318347725
 30
0.0
 11
1172.914060462
 21
-118.9318347725
 31
0.0
  0
LINE
  5
4F2
330
1F
100
AcDbEntity
  8
0
  6
Continuous
 62
     8
370
    25
100
AcDbLine
 10
1170.044652406
 20
-118.9318347725
 30
0.0
 11
1172.0784621807
 21
-118.9318347725
 31
0.0
  0
LINE
  5
4F3
330
1F
100
AcDbEntity
  8
0
  6
Continuous
 62
     8
370
    25
100
AcDbLine
 10
1172.0784621807
 20
-109.9318347725
 30
0.0
 11
1170.044652406
 21
-109.9318347725
 31
0.0
  0
LINE
  5
4F4
330
1F
100
AcDbEntity
  8
0
  6
Continuous
 62
     8
370
    25
100
AcDbLine
 10
1169.5007786339
 20
-118.9318347725
 30
0.0
 11
1170.044652406
 21
-118.9318347725
 31
0.0
  0
LINE
  5
4F5
330
1F
100
AcDbEntity
  8
0
  6
Continuous
 62
     8
370
    25
100
AcDbLine
 10
1170.044652406
 20
-109.9318347725
 30
0.0
 11
1169.5007786339
 21
-109.9318347725
 31
0.0
  0
LINE
  5
4F6
330
1F
100
AcDbEntity
  8
0
  6
Continuous
 62
     8
370
    25
100
AcDbLine
 10
1586.1718630148
 20
425.0681652275
 30
0.0
 11
1476.4719110126
 21
425.0681652275
 31
0.0
  0
LINE
  5
4F7
330
1F
100
AcDbEntity
  8
0
  6
Continuous
 62
     8
370
    25
100
AcDbLine
 10
1449.5719110126
 20
425.0681652275
 30
0.0
 11
1359.2958856535
 21
425.0681652275
 31
0.0
  0
LINE
  5
4F8
330
1F
100
AcDbEntity
  8
0
  6
Continuous
 62
     8
370
    25
100
AcDbLine
 10
1359.2958856535
 20
416.0681652275
 30
0.0
 11
1449.5719110126
 21
416.0681652275
 31
0.0
  0
LINE
  5
4F9
330
1F
100
AcDbEntity
  8
0
  6
Continuous
 62
     8
370
    25
100
AcDbLine
 10
1476.4719110126
 20
416.0681652275
 30
0.0
 11
1586.1718630148
 21
416.0681652275
 31
0.0
  0
LINE
  5
4FA
330
1F
100
AcDbEntity
  8
0
  6
Continuous
 62
     8
370
    25
100
AcDbLine
 10
1655.2184858669
 20
416.0681652275
 30
0.0
 11
1655.8423943056
 21
416.0681652275
 31
0.0
  0
LINE
  5
4FB
330
1F
100
AcDbEntity
  8
0
  6
Continuous
 62
     8
370
    25
100
AcDbLine
 10
1655.8423943056
 20
425.0681652275
 30
0.0
 11
1655.2184858669
 21
425.0681652275
 31
0.0
  0
LINE
  5
4FC
330
1F
100
AcDbEntity
  8
0
  6
Continuous
 62
     8
370
    25
100
AcDbLine
 10
1679.9979598857
 20
425.0681652275
 30
0.0
 11
1655.8423943056
 21
425.0681652275
 31
0.0
  0
LINE
  5
4FD
330
1F
100
AcDbEntity
  8
0
  6
Continuous
 62
     8
370
    25
100
AcDbLine
 10
1655.8423943056
 20
416.0681652275
 30
0.0
 11
1679.9979598857
 21
416.0681652275
 31
0.0
  0
LINE
  5
4FE
330
1F
100
AcDbEntity
  8
0
  6
Continuous
 62
     8
370
    25
100
AcDbLine
 10
1172.0784621807
 20
416.0681652275
 30
0.0
 11
1172.914060462
 21
416.0681652275
 31
0.0
  0
LINE
  5
4FF
330
1F
100
AcDbEntity
  8
0
  6
Continuous
 62
     8
370
    25
100
AcDbLine
 10
1172.914060462
 20
425.0681652275
 30
0.0
 11
1172.0784621807
 21
425.0681652275
 31
0.0
  0
LINE
  5
500
330
1F
100
AcDbEntity
  8
0
  6
Continuous
 62
     8
370
    25
100
AcDbLine
 10
1172.0784621807
 20
425.0681652275
 30
0.0
 11
1170.044652406
 21
425.0681652275
 31
0.0
  0
LINE
  5
501
330
1F
100
AcDbEntity
  8
0
  6
Continuous
 62
     8
370
    25
100
AcDbLine
 10
1170.044652406
 20
416.0681652275
 30
0.0
 11
1172.0784621807
 21
416.0681652275
 31
0.0
  0
LINE
  5
502
330
1F
100
AcDbEntity
  8
0
  6
Continuous
 62
     8
370
    25
100
AcDbLine
 10
1170.044652406
 20
425.0681652275
 30
0.0
 11
1169.5007786339
 21
425.0681652275
 31
0.0
  0
LINE
  5
503
330
1F
100
AcDbEntity
  8
0
  6
Continuous
 62
     8
370
    25
100
AcDbLine
 10
1169.5007786339
 20
416.0681652275
 30
0.0
 11
1170.044652406
 21
416.0681652275
 31
0.0
  0
LINE
  5
504
330
1F
100
AcDbEntity
  8
0
  6
Continuous
 62
     8
370
    25
100
AcDbLine
 10
1294.5268870615
 20
431.0681652275
 30
0.0
 11
1407.5675408415
 21
431.0681652275
 31
0.0
  0
LINE
  5
505
330
1F
100
AcDbEntity
  8
0
  6
Continuous
 62
     8
370
    25
100
AcDbLine
 10
1407.5570496827
 20
440.0681652275
 30
0.0
 11
1294.5268870615
 21
440.0681652275
 31
0.0
  0
LINE
  5
506
330
1F
100
AcDbEntity
  8
0
  6
Continuous
 62
     8
370
    25
100
AcDbLine
 10
1234.0380723324
 20
431.0681652275
 30
0.0
 11
1234.2361901928
 21
431.0681652275
 31
0.0
  0
LINE
  5
507
330
1F
100
AcDbEntity
  8
0
  6
Continuous
 62
     8
370
    25
100
AcDbLine
 10
1234.2361901928
 20
440.0681652275
 30
0.0
 11
1234.0380723324
 21
440.0681652275
 31
0.0
  0
LINE
  5
508
330
1F
100
AcDbEntity
  8
0
  6
Continuous
 62
     8
370
    25
100
AcDbLine
 10
1407.5570496827
 20
-124.9318347725
 30
0.0
 11
1294.5268870615
 21
-124.9318347725
 31
0.0
  0
LINE
  5
509
330
1F
100
AcDbEntity
  8
0
  6
Continuous
 62
     8
370
    25
100
AcDbLine
 10
1294.5268870615
 20
-133.9318347725
 30
0.0
 11
1407.5675408415
 21
-133.9318347725
 31
0.0
  0
LINE
  5
50A
330
1F
100
AcDbEntity
  8
0
  6
Continuous
 62
     8
370
    25
100
AcDbLine
 10
1234.2361901928
 20
-124.9318347725
 30
0.0
 11
1234.0380723324
 21
-124.9318347725
 31
0.0
  0
LINE
  5
50B
330
1F
100
AcDbEntity
  8
0
  6
Continuous
 62
     8
370
    25
100
AcDbLine
 10
1234.0380723324
 20
-133.9318347725
 30
0.0
 11
1234.2361901928
 21
-133.9318347725
 31
0.0
  0
ELLIPSE
  5
50C
330
1F
100
AcDbEntity
  8
0
  6
Continuous
 62
     8
370
    25
100
AcDbEllipse
 10
1420.3560031281
 20
-124.7318347725
 30
0.0
 11
2.999556355203595
 21
-0.9876483685978884
 31
0.0
210
0.0
220
0.0
230
1.0
 40
0.0522366015
 41
3.159477925003564
 42
4.555054034360067
  0
ELLIPSE
  5
50D
330
1F
100
AcDbEntity
  8
0
  6
Continuous
 62
     8
370
    25
100
AcDbEllipse
 10
1420.3560031281
 20
-198.7318347725
 30
0.0
 11
2.999556355203595
 21
0.9876483685978884
 31
0.0
210
0.0
220
0.0
230
1.0
 40
0.0522366015
 41
1.728131272819582
 42
3.124394674415287
  0
ELLIPSE
  5
50E
330
1F
100
AcDbEntity
  8
0
  6
Continuous
 62
     8
370
    25
100
AcDbEllipse
 10
1420.3560031281
 20
430.8681652276
 30
0.0
 11
2.999556355203367
 21
0.9876483685978882
 31
0.0
210
0.0
220
0.0
230
1.0
 40
0.0522366015
 41
1.728131272819609
 42
3.124394674414923
  0
ELLIPSE
  5
50F
330
1F
100
AcDbEntity
  8
0
  6
Continuous
 62
     8
370
    25
100
AcDbEllipse
 10
1420.3560031281
 20
504.8681652276
 30
0.0
 11
2.999556355203595
 21
-0.9876483685978884
 31
0.0
210
0.0
220
0.0
230
1.0
 40
0.0522366015
 41
3.158790632764302
 42
4.555054034360097
  0
LINE
  5
510
330
1F
100
AcDbEntity
  8
0
  6
Continuous
 62
     8
370
    25
100
AcDbLine
 10
1693.9931804066
 20
-117.9318347725
 30
0.0
 11
1743.4962039489
 21
-117.9318347725
 31
0.0
  0
LINE
  5
511
330
1F
100
AcDbEntity
  8
0
  6
Continuous
 62
     8
370
    25
100
AcDbLine
 10
1743.4962039489
 20
424.0681652275
 30
0.0
 11
1693.9931804066
 21
424.0681652275
 31
0.0
  0
LINE
  5
512
330
1F
100
AcDbEntity
  8
0
  6
Continuous
 62
     8
370
    25
100
AcDbLine
 10
1852.8945558791
 20
424.0681652275
 30
0.0
 11
1803.3915323367
 21
424.0681652275
 31
0.0
  0
LINE
  5
513
330
1F
100
AcDbEntity
  8
0
  6
Continuous
 62
     8
370
    25
100
AcDbLine
 10
1803.3915323367
 20
-117.9318347725
 30
0.0
 11
1852.8945558791
 21
-117.9318347725
 31
0.0
  0
LINE
  5
514
330
1F
100
AcDbEntity
  8
0
  6
Continuous
 62
     8
370
    25
100
AcDbLine
 10
1748.6923563716
 20
-117.9318347725
 30
0.0
 11
1798.195379914
 21
-117.9318347725
 31
0.0
  0
LINE
  5
515
330
1F
100
AcDbEntity
  8
0
  6
Continuous
 62
     8
370
    25
100
AcDbLine
 10
1798.195379914
 20
424.0681652275
 30
0.0
 11
1748.6923563716
 21
424.0681652275
 31
0.0
  0
LINE
  5
516
330
1F
100
AcDbEntity
  8
0
  6
Continuous
 62
     8
370
    25
100
AcDbLine
 10
1679.9979598857
 20
-117.9318347725
 30
0.0
 11
1688.7970279839
 21
-117.9318347725
 31
0.0
  0
LINE
  5
517
330
1F
100
AcDbEntity
  8
0
  6
Continuous
 62
     8
370
    25
100
AcDbLine
 10
1688.7970279839
 20
424.0681652275
 30
0.0
 11
1679.9979598857
 21
424.0681652275
 31
0.0
  0
LINE
  5
518
330
1F
100
AcDbEntity
  8
0
  6
Continuous
 62
     8
370
    25
100
AcDbLine
 10
1858.0907083018
 20
-117.9318347725
 30
0.0
 11
1907.5937318442
 21
-117.9318347725
 31
0.0
  0
LINE
  5
519
330
1F
100
AcDbEntity
  8
0
  6
Continuous
 62
     8
370
    25
100
AcDbLine
 10
1907.5937318442
 20
424.0681652275
 30
0.0
 11
1858.0907083018
 21
424.0681652275
 31
0.0
  0
ARC
  5
51A
330
1F
100
AcDbEntity
  8
0
  6
Continuous
 62
     8
370
    25
100
AcDbCircle
 10
803.7765854837
 20
153.0681652276
 30
0.0
 40
853.6777777777776
100
AcDbArc
 50
342.2673047841
 51
17.7326952159
  0
ENDSEC
  0
SECTION
  2
OBJECTS
  0
DICTIONARY
  5
C
330
0
100
AcDbDictionary
281
     1
  3
ACAD_GROUP
350
D
  3
ACAD_LAYOUT
350
1A
  3
ACAD_MLINESTYLE
350
17
  3
ACAD_PLOTSETTINGS
350
19
  3
ACAD_PLOTSTYLENAME
350
E
  3
ACAD_SCALELIST
350
47
  3
DWGPROPS
350
51B
  0
DICTIONARY
  5
D
102
{ACAD_REACTORS
330
C
102
}
330
C
100
AcDbDictionary
281
     1
  0
DICTIONARY
  5
1A
102
{ACAD_REACTORS
330
C
102
}
330
C
100
AcDbDictionary
281
     1
  3
Layout1
350
1E
  3
Layout2
350
26
  3
Model
350
22
  0
DICTIONARY
  5
17
102
{ACAD_REACTORS
330
C
102
}
330
C
100
AcDbDictionary
281
     1
  3
Standard
350
18
  0
DICTIONARY
  5
19
102
{ACAD_REACTORS
330
C
102
}
330
C
100
AcDbDictionary
281
     1
  0
ACDBDICTIONARYWDFLT
  5
E
102
{ACAD_REACTORS
330
C
102
}
330
C
100
AcDbDictionary
281
     1
  3
Normal
350
F
100
AcDbDictionaryWithDefault
340
F
  0
DICTIONARY
  5
47
102
{ACAD_REACTORS
330
C
102
}
330
C
100
AcDbDictionary
281
     1
  3
A0
350
48
  3
A1
350
49
  3
A2
350
4A
  3
A3
350
4B
  3
A4
350
4C
  3
A5
350
4D
  3
A6
350
4E
  3
A7
350
4F
  3
A8
350
50
  3
A9
350
51
  3
B0
350
52
  3
B1
350
53
  3
B2
350
54
  3
B3
350
55
  3
B4
350
56
  3
B5
350
57
  3
B6
350
58
  3
B7
350
59
  3
B8
350
5A
  3
B9
350
5B
  3
C0
350
5C
  3
C1
350
5D
  3
C2
350
5E
  3
C3
350
5F
  3
C4
350
60
  3
C5
350
61
  3
C6
350
62
  3
C7
350
63
  3
C8
350
64
  3
C9
350
65
  3
D0
350
66
  3
D1
350
67
  3
D2
350
68
  0
XRECORD
  5
51B
102
{ACAD_REACTORS
330
C
102
}
330
C
100
AcDbXrecord
280
     1
  1
DWGPROPS COOKIE
  2

  3

  4

  6

  7

  8
Swing
  9

300
=
301
=
302
=
303
=
304
=
305
=
306
=
307
=
308
=
309
=
 40
0.0
 41
2459564.587450289
 42
2459564.587450637
  1

 90
        0
  0
LAYOUT
  5
1E
102
{ACAD_REACTORS
330
1A
102
}
330
1A
100
AcDbPlotSettings
  1

  2
none_device
  4

  6

 40
0.0
 41
0.0
 42
0.0
 43
0.0
 44
0.0
 45
0.0
 46
0.0
 47
0.0
 48
0.0
 49
0.0
140
0.0
141
0.0
142
1.0
143
1.0
 70
   688
 72
     1
 73
     0
 74
     5
  7

 75
    16
147
1.0
148
0.0
149
0.0
100
AcDbLayout
  1
Layout1
 70
     1
 71
     1
 10
0.0
 20
0.0
 11
420.0
 21
297.0
 12
0.0
 22
0.0
 32
0.0
 14
1.0000000000E+20
 24
1.0000000000E+20
 34
1.0000000000E+20
 15
-1.0000000000E+20
 25
-1.0000000000E+20
 35
-1.0000000000E+20
146
0.0
 13
0.0
 23
0.0
 33
0.0
 16
1.0
 26
0.0
 36
0.0
 17
0.0
 27
1.0
 37
0.0
 76
     0
330
1B
  0
LAYOUT
  5
26
102
{ACAD_REACTORS
330
1A
102
}
330
1A
100
AcDbPlotSettings
  1

  2
none_device
  4

  6

 40
0.0
 41
0.0
 42
0.0
 43
0.0
 44
0.0
 45
0.0
 46
0.0
 47
0.0
 48
0.0
 49
0.0
140
0.0
141
0.0
142
1.0
143
1.0
 70
   688
 72
     1
 73
     0
 74
     5
  7

 75
    16
147
1.0
148
0.0
149
0.0
100
AcDbLayout
  1
Layout2
 70
     1
 71
     2
 10
0.0
 20
0.0
 11
0.0
 21
0.0
 12
0.0
 22
0.0
 32
0.0
 14
0.0
 24
0.0
 34
0.0
 15
0.0
 25
0.0
 35
0.0
146
0.0
 13
0.0
 23
0.0
 33
0.0
 16
1.0
 26
0.0
 36
0.0
 17
0.0
 27
1.0
 37
0.0
 76
     0
330
23
  0
LAYOUT
  5
22
102
{ACAD_REACTORS
330
1A
102
}
330
1A
100
AcDbPlotSettings
  1

  2
none_device
  4
Letter_(8.50_x_11.00_Inches)
  6

 40
6.35
 41
6.35
 42
6.35000508
 43
6.35000508
 44
215.9
 45
279.4
 46
0.0
 47
0.0
 48
0.0
 49
0.0
140
0.0
141
0.0
142
1.0
143
1.0
 70
  1712
 72
     1
 73
     0
 74
     0
  7

 75
     0
147
1.0
148
0.0
149
0.0
100
AcDbLayout
  1
Model
 70
     1
 71
     0
 10
0.0
 20
0.0
 11
431.8
 21
279.4
 12
0.0
 22
0.0
 32
0.0
 14
0.0
 24
0.0
 34
0.0
 15
431.8
 25
279.4
 35
0.0
146
0.0
 13
0.0
 23
0.0
 33
0.0
 16
1.0
 26
0.0
 36
0.0
 17
0.0
 27
1.0
 37
0.0
 76
     0
330
1F
331
29
  0
MLINESTYLE
  5
18
102
{ACAD_REACTORS
330
17
102
}
330
17
100
AcDbMlineStyle
  2
Standard
 70
     0
  3

 62
   256
 51
90.0
 52
90.0
 71
     2
 49
0.5
 62
   256
  6
BYLAYER
 49
-0.5
 62
   256
  6
BYLAYER
  0
ACDBPLACEHOLDER
  5
F
102
{ACAD_REACTORS
330
E
102
}
330
E
  0
SCALE
  5
48
102
{ACAD_REACTORS
330
47
102
}
330
47
100
AcDbScale
 70
     0
300
1:1
140
1.0
141
1.0
290
     1
  0
SCALE
  5
49
102
{ACAD_REACTORS
330
47
102
}
330
47
100
AcDbScale
 70
     0
300
1:2
140
1.0
141
2.0
290
     0
  0
SCALE
  5
4A
102
{ACAD_REACTORS
330
47
102
}
330
47
100
AcDbScale
 70
     0
300
1:4
140
1.0
141
4.0
290
     0
  0
SCALE
  5
4B
102
{ACAD_REACTORS
330
47
102
}
330
47
100
AcDbScale
 70
     0
300
1:5
140
1.0
141
5.0
290
     0
  0
SCALE
  5
4C
102
{ACAD_REACTORS
330
47
102
}
330
47
100
AcDbScale
 70
     0
300
1:8
140
1.0
141
8.0
290
     0
  0
SCALE
  5
4D
102
{ACAD_REACTORS
330
47
102
}
330
47
100
AcDbScale
 70
     0
300
1:10
140
1.0
141
10.0
290
     0
  0
SCALE
  5
4E
102
{ACAD_REACTORS
330
47
102
}
330
47
100
AcDbScale
 70
     0
300
1:16
140
1.0
141
16.0
290
     0
  0
SCALE
  5
4F
102
{ACAD_REACTORS
330
47
102
}
330
47
100
AcDbScale
 70
     0
300
1:20
140
1.0
141
20.0
290
     0
  0
SCALE
  5
50
102
{ACAD_REACTORS
330
47
102
}
330
47
100
AcDbScale
 70
     0
300
1:30
140
1.0
141
30.0
290
     0
  0
SCALE
  5
51
102
{ACAD_REACTORS
330
47
102
}
330
47
100
AcDbScale
 70
     0
300
1:40
140
1.0
141
40.0
290
     0
  0
SCALE
  5
52
102
{ACAD_REACTORS
330
47
102
}
330
47
100
AcDbScale
 70
     0
300
1:50
140
1.0
141
50.0
290
     0
  0
SCALE
  5
53
102
{ACAD_REACTORS
330
47
102
}
330
47
100
AcDbScale
 70
     0
300
1:100
140
1.0
141
100.0
290
     0
  0
SCALE
  5
54
102
{ACAD_REACTORS
330
47
102
}
330
47
100
AcDbScale
 70
     0
300
2:1
140
2.0
141
1.0
290
     0
  0
SCALE
  5
55
102
{ACAD_REACTORS
330
47
102
}
330
47
100
AcDbScale
 70
     0
300
4:1
140
4.0
141
1.0
290
     0
  0
SCALE
  5
56
102
{ACAD_REACTORS
330
47
102
}
330
47
100
AcDbScale
 70
     0
300
8:1
140
8.0
141
1.0
290
     0
  0
SCALE
  5
57
102
{ACAD_REACTORS
330
47
102
}
330
47
100
AcDbScale
 70
     0
300
10:1
140
10.0
141
1.0
290
     0
  0
SCALE
  5
58
102
{ACAD_REACTORS
330
47
102
}
330
47
100
AcDbScale
 70
     0
300
100:1
140
100.0
141
1.0
290
     0
  0
SCALE
  5
59
102
{ACAD_REACTORS
330
47
102
}
330
47
100
AcDbScale
 70
     0
300
1/128" = 1'-0"
140
0.0078125
141
12.0
290
     0
  0
SCALE
  5
5A
102
{ACAD_REACTORS
330
47
102
}
330
47
100
AcDbScale
 70
     0
300
1/64" = 1'-0"
140
0.015625
141
12.0
290
     0
  0
SCALE
  5
5B
102
{ACAD_REACTORS
330
47
102
}
330
47
100
AcDbScale
 70
     0
300
1/32" = 1'-0"
140
0.03125
141
12.0
290
     0
  0
SCALE
  5
5C
102
{ACAD_REACTORS
330
47
102
}
330
47
100
AcDbScale
 70
     0
300
1/16" = 1'-0"
140
0.0625
141
12.0
290
     0
  0
SCALE
  5
5D
102
{ACAD_REACTORS
330
47
102
}
330
47
100
AcDbScale
 70
     0
300
3/32" = 1'-0"
140
0.09375
141
12.0
290
     0
  0
SCALE
  5
5E
102
{ACAD_REACTORS
330
47
102
}
330
47
100
AcDbScale
 70
     0
300
1/8" = 1'-0"
140
0.125
141
12.0
290
     0
  0
SCALE
  5
5F
102
{ACAD_REACTORS
330
47
102
}
330
47
100
AcDbScale
 70
     0
300
3/16" = 1'-0"
140
0.1875
141
12.0
290
     0
  0
SCALE
  5
60
102
{ACAD_REACTORS
330
47
102
}
330
47
100
AcDbScale
 70
     0
300
1/4" = 1'-0"
140
0.25
141
12.0
290
     0
  0
SCALE
  5
61
102
{ACAD_REACTORS
330
47
102
}
330
47
100
AcDbScale
 70
     0
300
3/8" = 1'-0"
140
0.375
141
12.0
290
     0
  0
SCALE
  5
62
102
{ACAD_REACTORS
330
47
102
}
330
47
100
AcDbScale
 70
     0
300
1/2" = 1'-0"
140
0.5
141
12.0
290
     0
  0
SCALE
  5
63
102
{ACAD_REACTORS
330
47
102
}
330
47
100
AcDbScale
 70
     0
300
3/4" = 1'-0"
140
0.75
141
12.0
290
     0
  0
SCALE
  5
64
102
{ACAD_REACTORS
330
47
102
}
330
47
100
AcDbScale
 70
     0
300
1" = 1'-0"
140
1.0
141
12.0
290
     0
  0
SCALE
  5
65
102
{ACAD_REACTORS
330
47
102
}
330
47
100
AcDbScale
 70
     0
300
1-1/2" = 1'-0"
140
1.5
141
12.0
290
     0
  0
SCALE
  5
66
102
{ACAD_REACTORS
330
47
102
}
330
47
100
AcDbScale
 70
     0
300
3" = 1'-0"
140
3.0
141
12.0
290
     0
  0
SCALE
  5
67
102
{ACAD_REACTORS
330
47
102
}
330
47
100
AcDbScale
 70
     0
300
6" = 1'-0"
140
6.0
141
12.0
290
     0
  0
SCALE
  5
68
102
{ACAD_REACTORS
330
47
102
}
330
47
100
AcDbScale
 70
     0
300
1'-0" = 1'-0"
140
12.0
141
12.0
290
     0
  0
ENDSEC
  0
EOF
