  0
SECTION
  2
HEADER
  9
$ACADVER
  1
AC1015
  9
$ACADMAINTVER
 70
     6
  9
$DWGCODEPAGE
  3
ANSI_1250
  9
$INSBASE
 10
0.0
 20
0.0
 30
0.0
  9
$EXTMIN
 10
0.0
 20
0.0
 30
0.0
  9
$EXTMAX
 10
431.8
 20
279.4
 30
0.0
  9
$LIMMIN
 10
0.0
 20
0.0
  9
$LIMMAX
 10
431.8
 20
279.4
  9
$ORTHOMODE
 70
     0
  9
$REGENMODE
 70
     1
  9
$FILLMODE
 70
     1
  9
$QTEXTMODE
 70
     0
  9
$MIRRTEXT
 70
     1
  9
$LTSCALE
 40
1.0
  9
$ATTMODE
 70
     1
  9
$TEXTSIZE
 40
3.8805555556
  9
$TRACEWID
 40
1.0
  9
$TEXTSTYLE
  7
Standard
  9
$CLAYER
  8
0
  9
$CELTYPE
  6
ByLayer
  9
$CECOLOR
 62
   256
  9
$CELTSCALE
 40
1.0
  9
$DISPSILH
 70
     0
  9
$DIMSCALE
 40
1.0
  9
$DIMASZ
 40
3.302
  9
$DIMEXO
 40
1.0
  9
$DIMDLI
 40
3.75
  9
$DIMRND
 40
0.0
  9
$DIMDLE
 40
0.0
  9
$DIMEXE
 40
1.0
  9
$DIMTP
 40
0.0
  9
$DIMTM
 40
0.0
  9
$DIMTXT
 40
3.8805555556
  9
$DIMCEN
 40
2.5
  9
$DIMTSZ
 40
0.0
  9
$DIMTOL
 70
     0
  9
$DIMLIM
 70
     0
  9
$DIMTIH
 70
     1
  9
$DIMTOH
 70
     1
  9
$DIMSE1
 70
     0
  9
$DIMSE2
 70
     0
  9
$DIMTAD
 70
     1
  9
$DIMZIN
 70
     0
  9
$DIMBLK
  1

  9
$DIMASO
 70
     1
  9
$DIMSHO
 70
     1
  9
$DIMPOST
  1

  9
$DIMAPOST
  1

  9
$DIMALT
 70
     0
  9
$DIMALTD
 70
     3
  9
$DIMALTF
 40
0.0393700787
  9
$DIMLFAC
 40
1.0
  9
$DIMTOFL
 70
     1
  9
$DIMTVP
 40
0.0
  9
$DIMTIX
 70
     0
  9
$DIMSOXD
 70
     0
  9
$DIMSAH
 70
     0
  9
$DIMBLK1
  1

  9
$DIMBLK2
  1

  9
$DIMSTYLE
  2
ISO-25
  9
$DIMCLRD
 70
     0
  9
$DIMCLRE
 70
     0
  9
$DIMCLRT
 70
     0
  9
$DIMTFAC
 40
1.0
  9
$DIMGAP
 40
1.524
  9
$DIMJUST
 70
     0
  9
$DIMSD1
 70
     0
  9
$DIMSD2
 70
     0
  9
$DIMTOLJ
 70
     0
  9
$DIMTZIN
 70
     0
  9
$DIMALTZ
 70
     0
  9
$DIMALTTZ
 70
     0
  9
$DIMUPT
 70
     0
  9
$DIMDEC
 70
     1
  9
$DIMTDEC
 70
     1
  9
$DIMALTU
 70
     2
  9
$DIMALTTD
 70
     3
  9
$DIMTXSTY
  7
Standard
  9
$DIMAUNIT
 70
     0
  9
$DIMADEC
 70
     1
  9
$DIMALTRND
 40
0.0
  9
$DIMAZIN
 70
     0
  9
$DIMDSEP
 70
    44
  9
$DIMATFIT
 70
     3
  9
$DIMFRAC
 70
     0
  9
$DIMLDRBLK
  1

  9
$DIMLUNIT
 70
     2
  9
$DIMLWD
 70
    -2
  9
$DIMLWE
 70
    -2
  9
$DIMTMOVE
 70
     0
  9
$LUNITS
 70
     2
  9
$LUPREC
 70
     1
  9
$SKETCHINC
 40
1.0
  9
$FILLETRAD
 40
10.0
  9
$AUNITS
 70
     0
  9
$AUPREC
 70
     1
  9
$MENU
  1
.
  9
$ELEVATION
 40
0.0
  9
$PELEVATION
 40
0.0
  9
$THICKNESS
 40
0.0
  9
$LIMCHECK
 70
     0
  9
$CHAMFERA
 40
0.0
  9
$CHAMFERB
 40
0.0
  9
$CHAMFERC
 40
0.0
  9
$CHAMFERD
 40
0.0
  9
$SKPOLY
 70
     0
  9
$TDCREATE
 40
2459564.629942361
  9
$TDUCREATE
 40
2459564.588275694
  9
$TDUPDATE
 40
2459564.629942534
  9
$TDUUPDATE
 40
2459564.588275868
  9
$TDINDWG
 40
0.0000000116
  9
$TDUSRTIMER
 40
0.0000000116
  9
$USRTIMER
 70
     1
  9
$ANGBASE
 50
0.0
  9
$ANGDIR
 70
     0
  9
$PDMODE
 70
     0
  9
$PDSIZE
 40
-1.0
  9
$PLINEWID
 40
0.0
  9
$SPLFRAME
 70
     0
  9
$SPLINETYPE
 70
     6
  9
$SPLINESEGS
 70
     8
  9
$HANDSEED
  5
3C4
  9
$SURFTAB1
 70
     6
  9
$SURFTAB2
 70
     6
  9
$SURFTYPE
 70
     6
  9
$SURFU
 70
     6
  9
$SURFV
 70
     6
  9
$UCSBASE
  2

  9
$UCSNAME
  2

  9
$UCSORG
 10
0.0
 20
0.0
 30
0.0
  9
$UCSXDIR
 10
1.0
 20
0.0
 30
0.0
  9
$UCSYDIR
 10
0.0
 20
1.0
 30
0.0
  9
$UCSORTHOREF
  2

  9
$UCSORTHOVIEW
 70
     0
  9
$UCSORGTOP
 10
0.0
 20
0.0
 30
0.0
  9
$UCSORGBOTTOM
 10
0.0
 20
0.0
 30
0.0
  9
$UCSORGLEFT
 10
0.0
 20
0.0
 30
0.0
  9
$UCSORGRIGHT
 10
0.0
 20
0.0
 30
0.0
  9
$UCSORGFRONT
 10
0.0
 20
0.0
 30
0.0
  9
$UCSORGBACK
 10
0.0
 20
0.0
 30
0.0
  9
$PUCSBASE
  2

  9
$PUCSNAME
  2

  9
$PUCSORG
 10
0.0
 20
0.0
 30
0.0
  9
$PUCSXDIR
 10
1.0
 20
0.0
 30
0.0
  9
$PUCSYDIR
 10
0.0
 20
1.0
 30
0.0
  9
$PUCSORTHOREF
  2

  9
$PUCSORTHOVIEW
 70
     0
  9
$PUCSORGTOP
 10
0.0
 20
0.0
 30
0.0
  9
$PUCSORGBOTTOM
 10
0.0
 20
0.0
 30
0.0
  9
$PUCSORGLEFT
 10
0.0
 20
0.0
 30
0.0
  9
$PUCSORGRIGHT
 10
0.0
 20
0.0
 30
0.0
  9
$PUCSORGFRONT
 10
0.0
 20
0.0
 30
0.0
  9
$PUCSORGBACK
 10
0.0
 20
0.0
 30
0.0
  9
$USERI1
 70
     0
  9
$USERI2
 70
     0
  9
$USERI3
 70
     0
  9
$USERI4
 70
     0
  9
$USERI5
 70
     0
  9
$USERR1
 40
0.0
  9
$USERR2
 40
0.0
  9
$USERR3
 40
0.0
  9
$USERR4
 40
0.0
  9
$USERR5
 40
0.0
  9
$WORLDVIEW
 70
     1
  9
$SHADEDGE
 70
     3
  9
$SHADEDIF
 70
    70
  9
$TILEMODE
 70
     1
  9
$MAXACTVP
 70
    64
  9
$PINSBASE
 10
0.0
 20
0.0
 30
0.0
  9
$PLIMCHECK
 70
     0
  9
$PEXTMIN
 10
1.0000000000E+20
 20
1.0000000000E+20
 30
1.0000000000E+20
  9
$PEXTMAX
 10
-1.0000000000E+20
 20
-1.0000000000E+20
 30
-1.0000000000E+20
  9
$PLIMMIN
 10
0.0
 20
0.0
  9
$PLIMMAX
 10
420.0
 20
297.0
  9
$UNITMODE
 70
     0
  9
$VISRETAIN
 70
     1
  9
$PLINEGEN
 70
     0
  9
$PSLTSCALE
 70
     1
  9
$TREEDEPTH
 70
  3020
  9
$CMLSTYLE
  2
Standard
  9
$CMLJUST
 70
     0
  9
$CMLSCALE
 40
20.0
  9
$PROXYGRAPHICS
 70
     1
  9
$MEASUREMENT
 70
     1
  9
$CELWEIGHT
370
    -1
  9
$ENDCAPS
280
     0
  9
$JOINSTYLE
280
     0
  9
$LWDISPLAY
290
     1
  9
$INSUNITS
 70
     4
  9
$HYPERLINKBASE
  1

  9
$STYLESHEET
  1

  9
$XEDIT
290
     1
  9
$CEPSNTYPE
380
     0
  9
$PSTYLEMODE
290
     1
  9
$FINGERPRINTGUID
  2
{5d60a955-d289-4683-bf65-672e137f2517}
  9
$VERSIONGUID
  2
{FAEB1C32-E019-11D5-929B-00C0DF256EC4}
  9
$EXTNAMES
290
     1
  9
$PSVPSCALE
 40
0.0
  9
$OLESTARTUP
290
     0
  0
ENDSEC
  0
SECTION
  2
CLASSES
  0
CLASS
  1
ACDBDICTIONARYWDFLT
  2
AcDbDictionaryWithDefault
  3
ObjectDBX Classes
 90
        0
280
     0
281
     0
  0
CLASS
  1
VISUALSTYLE
  2
AcDbVisualStyle
  3
ObjectDBX Classes
 90
     4095
280
     0
281
     0
  0
CLASS
  1
MATERIAL
  2
AcDbMaterial
  3
ObjectDBX Classes
 90
     1153
280
     0
281
     0
  0
CLASS
  1
SCALE
  2
AcDbScale
  3
ObjectDBX Classes
 90
     1153
280
     0
281
     0
  0
CLASS
  1
TABLESTYLE
  2
AcDbTableStyle
  3
ObjectDBX Classes
 90
     4095
280
     0
281
     0
  0
CLASS
  1
MLEADERSTYLE
  2
AcDbMLeaderStyle
  3
ACDB_MLEADERSTYLE_CLASS
 90
     4095
280
     0
281
     0
  0
CLASS
  1
SUN
  2
AcDbSun
  3
SCENEOE
 90
     1153
280
     0
281
     0
  0
CLASS
  1
ACDBPLACEHOLDER
  2
AcDbPlaceHolder
  3
ObjectDBX Classes
 90
        0
280
     0
281
     0
  0
CLASS
  1
LAYOUT
  2
AcDbLayout
  3
ObjectDBX Classes
 90
        0
280
     0
281
     0
  0
ENDSEC
  0
SECTION
  2
TABLES
  0
TABLE
  2
VPORT
  5
8
330
0
100
AcDbSymbolTable
 70
     1
  0
VPORT
  5
29
330
8
100
AcDbSymbolTableRecord
100
AcDbViewportTableRecord
  2
*Active
 70
     0
 10
0.0
 20
0.0
 11
1.0
 21
1.0
 12
215.9
 22
139.7
 13
0.0
 23
0.0
 14
10.0
 24
10.0
 15
10.0
 25
10.0
 16
0.0
 26
0.0
 36
1.0
 17
0.0
 27
0.0
 37
0.0
 40
279.4
 41
1.5454545455
 42
50.0
 43
0.0
 44
0.0
 50
0.0
 51
0.0
 71
     0
 72
  2000
 73
     1
 74
     3
 75
     0
 76
     0
 77
     0
 78
     0
281
     0
 65
     1
110
0.0
120
0.0
130
0.0
111
1.0
121
0.0
131
0.0
112
0.0
122
1.0
132
0.0
 79
     0
146
0.0
  0
ENDTAB
  0
TABLE
  2
LTYPE
  5
5
330
0
100
AcDbSymbolTable
 70
     6
  0
LTYPE
  5
14
330
5
100
AcDbSymbolTableRecord
100
AcDbLinetypeTableRecord
  2
ByBlock
 70
     0
  3

 72
    65
 73
     0
 40
0.0
  0
LTYPE
  5
15
330
5
100
AcDbSymbolTableRecord
100
AcDbLinetypeTableRecord
  2
ByLayer
 70
     0
  3

 72
    65
 73
     0
 40
0.0
  0
LTYPE
  5
16
330
5
100
AcDbSymbolTableRecord
100
AcDbLinetypeTableRecord
  2
Continuous
 70
     0
  3
Solid line
 72
    65
 73
     0
 40
0.0
  0
LTYPE
  5
6E
330
5
100
AcDbSymbolTableRecord
100
AcDbLinetypeTableRecord
  2
HIDDEN
 70
     0
  3
Hidden __ __ __ __ __ __ __ __ __ __ __ __ __ __
 72
    65
 73
     2
 40
1.905
 49
1.27
 74
     0
 49
-0.635
 74
     0
  0
LTYPE
  5
6F
330
5
100
AcDbSymbolTableRecord
100
AcDbLinetypeTableRecord
  2
PHANTOM
 70
     0
  3
Phantom ______  __  __  ______  __  __  ______
 72
    65
 73
     6
 40
12.7
 49
6.35
 74
     0
 49
-1.27
 74
     0
 49
1.27
 74
     0
 49
-1.27
 74
     0
 49
1.27
 74
     0
 49
-1.27
 74
     0
  0
LTYPE
  5
70
330
5
100
AcDbSymbolTableRecord
100
AcDbLinetypeTableRecord
  2
CENTER
 70
     0
  3
Center ____ _ ____ _ ____ _ ____ _ ____ _ ____
 72
    65
 73
     4
 40
10.16
 49
6.35
 74
     0
 49
-1.27
 74
     0
 49
1.27
 74
     0
 49
-1.27
 74
     0
  0
LTYPE
  5
71
330
5
100
AcDbSymbolTableRecord
100
AcDbLinetypeTableRecord
  2
CENTERX2
 70
     0
  3
Center (2x) ________  __  ________  __  _____
 72
    65
 73
     4
 40
20.32
 49
12.7
 74
     0
 49
-2.54
 74
     0
 49
2.54
 74
     0
 49
-2.54
 74
     0
  0
LTYPE
  5
72
330
5
100
AcDbSymbolTableRecord
100
AcDbLinetypeTableRecord
  2
DOT2
 70
     0
  3
Dot (.5x) ........................................
 72
    65
 73
     2
 40
0.635
 49
0.0
 74
     0
 49
-0.635
 74
     0
  0
ENDTAB
  0
TABLE
  2
LAYER
  5
2
330
0
100
AcDbSymbolTable
 70
     3
  0
LAYER
  5
10
330
2
100
AcDbSymbolTableRecord
100
AcDbLayerTableRecord
  2
0
 70
     0
 62
     7
  6
Continuous
370
    -3
390
F
  0
LAYER
  5
73
330
2
100
AcDbSymbolTableRecord
100
AcDbLayerTableRecord
  2
FRAME_&_TABLE
 70
     0
 62
     8
  6
Continuous
370
    50
390
F
  0
LAYER
  5
74
330
2
100
AcDbSymbolTableRecord
100
AcDbLayerTableRecord
  2
DIMENSIONS
 70
     0
 62
     7
  6
Continuous
370
    -3
390
F
  0
ENDTAB
  0
TABLE
  2
STYLE
  5
3
330
0
100
AcDbSymbolTable
 70
     1
  0
STYLE
  5
11
330
3
100
AcDbSymbolTableRecord
100
AcDbTextStyleTableRecord
  2
Standard
 70
     0
 40
0.0
 41
1.0
 50
0.0
 71
     0
 42
3.8805555556
  3
txt
  4

  0
ENDTAB
  0
TABLE
  2
VIEW
  5
6
330
0
100
AcDbSymbolTable
 70
     0
  0
ENDTAB
  0
TABLE
  2
UCS
  5
7
330
0
100
AcDbSymbolTable
 70
     0
  0
ENDTAB
  0
TABLE
  2
APPID
  5
9
330
0
100
AcDbSymbolTable
 70
     1
  0
APPID
  5
12
330
9
100
AcDbSymbolTableRecord
100
AcDbRegAppTableRecord
  2
ACAD
 70
     0
  0
ENDTAB
  0
TABLE
  2
DIMSTYLE
  5
A
330
0
100
AcDbSymbolTable
 70
     1
100
AcDbDimStyleTable
  0
DIMSTYLE
105
27
330
A
100
AcDbSymbolTableRecord
100
AcDbDimStyleTableRecord
  2
ISO-25
 70
     0
 41
2.5
 42
0.625
 43
3.75
 44
1.25
 73
     0
 74
     0
 77
     1
 78
     8
140
2.5
141
2.5
143
0.0393700787
147
0.625
171
     3
172
     1
178
     0
271
     2
272
     2
274
     3
278
    44
283
     0
284
     8
340
11
  0
ENDTAB
  0
TABLE
  2
BLOCK_RECORD
  5
1
330
0
100
AcDbSymbolTable
 70
     1
  0
BLOCK_RECORD
  5
1F
330
1
100
AcDbSymbolTableRecord
100
AcDbBlockTableRecord
  2
*Model_Space
340
22
  0
BLOCK_RECORD
  5
1B
330
1
100
AcDbSymbolTableRecord
100
AcDbBlockTableRecord
  2
*Paper_Space
340
1E
  0
BLOCK_RECORD
  5
23
330
1
100
AcDbSymbolTableRecord
100
AcDbBlockTableRecord
  2
*Paper_Space0
340
26
  0
ENDTAB
  0
ENDSEC
  0
SECTION
  2
BLOCKS
  0
BLOCK
  5
20
330
1F
100
AcDbEntity
  8
0
100
AcDbBlockBegin
  2
*Model_Space
 70
     0
 10
0.0
 20
0.0
 30
0.0
  3
*Model_Space
  1

  0
ENDBLK
  5
21
330
1F
100
AcDbEntity
  8
0
100
AcDbBlockEnd
  0
BLOCK
  5
1C
330
1B
100
AcDbEntity
 67
     1
  8
0
100
AcDbBlockBegin
  2
*Paper_Space
 70
     0
 10
0.0
 20
0.0
 30
0.0
  3
*Paper_Space
  1

  0
ENDBLK
  5
1D
330
1B
100
AcDbEntity
 67
     1
  8
0
100
AcDbBlockEnd
  0
BLOCK
  5
24
330
23
100
AcDbEntity
  8
0
100
AcDbBlockBegin
  2
*Paper_Space0
 70
     0
 10
0.0
 20
0.0
 30
0.0
  3
*Paper_Space0
  1

  0
ENDBLK
  5
25
330
23
100
AcDbEntity
  8
0
100
AcDbBlockEnd
  0
ENDSEC
  0
SECTION
  2
ENTITIES
  0
ARC
  5
75
330
1F
100
AcDbEntity
  8
0
  6
Continuous
 62
     7
370
    25
100
AcDbCircle
 10
1563.3018028561
 20
431.0681639844
 30
0.0
 40
2.999998759388532
100
AcDbArc
 50
270.1159371848
 51
0.1075303068
  0
ARC
  5
76
330
1F
100
AcDbEntity
  8
0
  6
Continuous
 62
     7
370
    25
100
AcDbCircle
 10
1563.3018028634
 20
440.0681664834
 30
0.0
 40
2.99999874666943
100
AcDbArc
 50
0.1408983324
 51
89.8840629541
  0
LINE
  5
77
330
1F
100
AcDbEntity
  8
0
  6
Continuous
 62
     7
370
    25
100
AcDbLine
 10
1566.301843545
 20
431.0681652275
 30
0.0
 11
1566.301843545
 21
440.0681652275
 31
0.0
  0
ARC
  5
78
330
1F
100
AcDbEntity
  8
0
  6
Continuous
 62
     7
370
    25
100
AcDbCircle
 10
1395.73235497
 20
431.0681652275
 30
0.0
 40
3.0
100
AcDbArc
 50
180.0
 51
270.0
  0
ARC
  5
79
330
1F
100
AcDbEntity
  8
0
  6
Continuous
 62
     7
370
    25
100
AcDbCircle
 10
1395.73235497
 20
440.0681652275
 30
0.0
 40
3.0
100
AcDbArc
 50
90.0
 51
180.0
  0
LINE
  5
7A
330
1F
100
AcDbEntity
  8
0
  6
Continuous
 62
     7
370
    25
100
AcDbLine
 10
1392.73235497
 20
440.0681652275
 30
0.0
 11
1392.73235497
 21
431.0681652275
 31
0.0
  0
ARC
  5
7B
330
1F
100
AcDbEntity
  8
0
  6
Continuous
 62
     7
370
    25
100
AcDbCircle
 10
1563.3018028634
 20
-124.9318335166
 30
0.0
 40
2.999998746668988
100
AcDbArc
 50
0.1408983324
 51
89.8840629541
  0
ARC
  5
7C
330
1F
100
AcDbEntity
  8
0
  6
Continuous
 62
     7
370
    25
100
AcDbCircle
 10
1563.3018028561
 20
-133.9318360156
 30
0.0
 40
2.999998759387851
100
AcDbArc
 50
270.1159371848
 51
0.1075303068
  0
LINE
  5
7D
330
1F
100
AcDbEntity
  8
0
  6
Continuous
 62
     7
370
    25
100
AcDbLine
 10
1566.301843545
 20
-133.9318347725
 30
0.0
 11
1566.301843545
 21
-124.9318347725
 31
0.0
  0
ARC
  5
7E
330
1F
100
AcDbEntity
  8
0
  6
Continuous
 62
     7
370
    25
100
AcDbCircle
 10
1395.73235497
 20
-133.9318347725
 30
0.0
 40
3.0
100
AcDbArc
 50
180.0
 51
270.0
  0
ARC
  5
7F
330
1F
100
AcDbEntity
  8
0
  6
Continuous
 62
     7
370
    25
100
AcDbCircle
 10
1395.73235497
 20
-124.9318347725
 30
0.0
 40
3.0
100
AcDbArc
 50
90.0
 51
180.0
  0
LINE
  5
80
330
1F
100
AcDbEntity
  8
0
  6
Continuous
 62
     7
370
    25
100
AcDbLine
 10
1392.73235497
 20
-124.9318347725
 30
0.0
 11
1392.73235497
 21
-133.9318347725
 31
0.0
  0
ARC
  5
81
330
1F
100
AcDbEntity
  8
0
  6
Continuous
 62
     7
370
    25
100
AcDbCircle
 10
1811.5366769432
 20
416.0681652275
 30
0.0
 40
3.0
100
AcDbArc
 50
270.0
 51
0.0
  0
ARC
  5
82
330
1F
100
AcDbEntity
  8
0
  6
Continuous
 62
     7
370
    25
100
AcDbCircle
 10
1811.5366769432
 20
425.0681652275
 30
0.0
 40
3.0
100
AcDbArc
 50
0.0
 51
90.0
  0
LINE
  5
83
330
1F
100
AcDbEntity
  8
0
  6
Continuous
 62
     7
370
    25
100
AcDbLine
 10
1814.5366769432
 20
416.0681652275
 30
0.0
 11
1814.5366769432
 21
425.0681652275
 31
0.0
  0
ARC
  5
84
330
1F
100
AcDbEntity
  8
0
  6
Continuous
 62
     7
370
    25
100
AcDbCircle
 10
1835.6922425233
 20
425.0681652275
 30
0.0
 40
3.0
100
AcDbArc
 50
0.0
 51
90.0
  0
ARC
  5
85
330
1F
100
AcDbEntity
  8
0
  6
Continuous
 62
     7
370
    25
100
AcDbCircle
 10
1835.6922425233
 20
416.0681652275
 30
0.0
 40
3.0
100
AcDbArc
 50
270.0
 51
0.0
  0
LINE
  5
86
330
1F
100
AcDbEntity
  8
0
  6
Continuous
 62
     7
370
    25
100
AcDbLine
 10
1838.6922425233
 20
416.0681652275
 30
0.0
 11
1838.6922425233
 21
425.0681652275
 31
0.0
  0
ARC
  5
87
330
1F
100
AcDbEntity
  8
0
  6
Continuous
 62
     7
370
    25
100
AcDbCircle
 10
1775.3400986897
 20
416.0681652275
 30
0.0
 40
3.000000000000227
100
AcDbArc
 50
270.0
 51
0.0
  0
ARC
  5
88
330
1F
100
AcDbEntity
  8
0
  6
Continuous
 62
     7
370
    25
100
AcDbCircle
 10
1333.7727448183
 20
416.0681652275
 30
0.0
 40
3.0
100
AcDbArc
 50
180.0
 51
270.0
  0
ARC
  5
89
330
1F
100
AcDbEntity
  8
0
  6
Continuous
 62
     7
370
    25
100
AcDbCircle
 10
1333.7727448183
 20
425.0681652275
 30
0.0
 40
3.0
100
AcDbArc
 50
90.0
 51
180.0
  0
LINE
  5
8A
330
1F
100
AcDbEntity
  8
0
  6
Continuous
 62
     7
370
    25
100
AcDbLine
 10
1330.7727448183
 20
425.0681652275
 30
0.0
 11
1330.7727448183
 21
416.0681652275
 31
0.0
  0
ARC
  5
8B
330
1F
100
AcDbEntity
  8
0
  6
Continuous
 62
     7
370
    25
100
AcDbCircle
 10
1331.1950612715
 20
425.0681652275
 30
0.0
 40
3.000000000000227
100
AcDbArc
 50
90.0
 51
180.0
  0
ARC
  5
8C
330
1F
100
AcDbEntity
  8
0
  6
Continuous
 62
     7
370
    25
100
AcDbCircle
 10
1331.1950612715
 20
416.0681652275
 30
0.0
 40
3.000000000000227
100
AcDbArc
 50
180.0
 51
270.0
  0
LINE
  5
8D
330
1F
100
AcDbEntity
  8
0
  6
Continuous
 62
     7
370
    25
100
AcDbLine
 10
1328.1950612715
 20
425.0681652275
 30
0.0
 11
1328.1950612715
 21
416.0681652275
 31
0.0
  0
ARC
  5
8E
330
1F
100
AcDbEntity
  8
0
  6
Continuous
 62
     7
370
    25
100
AcDbCircle
 10
1811.5366769432
 20
-118.9318347725
 30
0.0
 40
3.0
100
AcDbArc
 50
270.0
 51
0.0
  0
ARC
  5
8F
330
1F
100
AcDbEntity
  8
0
  6
Continuous
 62
     7
370
    25
100
AcDbCircle
 10
1811.5366769432
 20
-109.9318347725
 30
0.0
 40
3.000000000000014
100
AcDbArc
 50
0.0
 51
90.0
  0
LINE
  5
90
330
1F
100
AcDbEntity
  8
0
  6
Continuous
 62
     7
370
    25
100
AcDbLine
 10
1814.5366769432
 20
-118.9318347725
 30
0.0
 11
1814.5366769432
 21
-109.9318347725
 31
0.0
  0
ARC
  5
91
330
1F
100
AcDbEntity
  8
0
  6
Continuous
 62
     7
370
    25
100
AcDbCircle
 10
1835.6922425233
 20
-118.9318347725
 30
0.0
 40
3.000000000000227
100
AcDbArc
 50
270.0
 51
0.0
  0
ARC
  5
92
330
1F
100
AcDbEntity
  8
0
  6
Continuous
 62
     7
370
    25
100
AcDbCircle
 10
1835.6922425233
 20
-109.9318347725
 30
0.0
 40
3.000000000000227
100
AcDbArc
 50
0.0
 51
90.0
  0
LINE
  5
93
330
1F
100
AcDbEntity
  8
0
  6
Continuous
 62
     7
370
    25
100
AcDbLine
 10
1838.6922425233
 20
-118.9318347725
 30
0.0
 11
1838.6922425233
 21
-109.9318347725
 31
0.0
  0
ARC
  5
94
330
1F
100
AcDbEntity
  8
0
  6
Continuous
 62
     7
370
    25
100
AcDbCircle
 10
1775.3400986897
 20
-109.9318347725
 30
0.0
 40
3.000000000000014
100
AcDbArc
 50
0.0
 51
90.0
  0
ARC
  5
95
330
1F
100
AcDbEntity
  8
0
  6
Continuous
 62
     7
370
    25
100
AcDbCircle
 10
1333.7727448183
 20
-109.9318347725
 30
0.0
 40
3.000000000000014
100
AcDbArc
 50
90.0
 51
180.0
  0
ARC
  5
96
330
1F
100
AcDbEntity
  8
0
  6
Continuous
 62
     7
370
    25
100
AcDbCircle
 10
1333.7727448183
 20
-118.9318347725
 30
0.0
 40
3.0
100
AcDbArc
 50
180.0
 51
270.0
  0
LINE
  5
97
330
1F
100
AcDbEntity
  8
0
  6
Continuous
 62
     7
370
    25
100
AcDbLine
 10
1330.7727448183
 20
-109.9318347725
 30
0.0
 11
1330.7727448183
 21
-118.9318347725
 31
0.0
  0
ARC
  5
98
330
1F
100
AcDbEntity
  8
0
  6
Continuous
 62
     7
370
    25
100
AcDbCircle
 10
1331.1950612715
 20
-109.9318347725
 30
0.0
 40
3.000000000000014
100
AcDbArc
 50
90.0
 51
180.0
  0
ARC
  5
99
330
1F
100
AcDbEntity
  8
0
  6
Continuous
 62
     7
370
    25
100
AcDbCircle
 10
1331.1950612715
 20
-118.9318347725
 30
0.0
 40
3.0
100
AcDbArc
 50
180.0
 51
270.0
  0
LINE
  5
9A
330
1F
100
AcDbEntity
  8
0
  6
Continuous
 62
     7
370
    25
100
AcDbLine
 10
1328.1950612715
 20
-109.9318347725
 30
0.0
 11
1328.1950612715
 21
-118.9318347725
 31
0.0
  0
ARC
  5
9B
330
1F
100
AcDbEntity
  8
0
  6
Continuous
 62
     7
370
    25
100
AcDbCircle
 10
-115.4923767345
 20
401.0681652276
 30
0.0
 40
3.0
100
AcDbArc
 50
180.0
 51
270.0
  0
ARC
  5
9C
330
1F
100
AcDbEntity
  8
0
  6
Continuous
 62
     7
370
    25
100
AcDbCircle
 10
-115.4923767345
 20
410.0681652276
 30
0.0
 40
3.0
100
AcDbArc
 50
90.0
 51
180.0
  0
LINE
  5
9D
330
1F
100
AcDbEntity
  8
0
  6
Continuous
 62
     7
370
    25
100
AcDbLine
 10
-118.4923767345
 20
410.0681652276
 30
0.0
 11
-118.4923767345
 21
401.0681652276
 31
0.0
  0
ARC
  5
9E
330
1F
100
AcDbEntity
  8
0
  6
Continuous
 62
     7
370
    25
100
AcDbCircle
 10
-8.0643541273
 20
414.3181652276
 30
0.0
 40
1.250000000000017
100
AcDbArc
 50
126.8698976458
 51
270.0
  0
ARC
  5
9F
330
1F
100
AcDbEntity
  8
0
  6
Continuous
 62
     7
370
    25
100
AcDbCircle
 10
1.8356458727
 20
401.1181652276
 30
0.0
 40
17.75000000000011
100
AcDbArc
 50
64.9460518967
 51
126.8698976458
  0
ARC
  5
A0
330
1F
100
AcDbEntity
  8
0
  6
Continuous
 62
     7
370
    25
100
AcDbCircle
 10
-8.0643541273
 20
-108.1818347724
 30
0.0
 40
1.250000000000017
100
AcDbArc
 50
90.0
 51
233.1301023542
  0
ARC
  5
A1
330
1F
100
AcDbEntity
  8
0
  6
Continuous
 62
     7
370
    25
100
AcDbCircle
 10
1.8356458727
 20
-94.9818347724
 30
0.0
 40
17.75000000000002
100
AcDbArc
 50
233.1301023542
 51
295.0539481048
  0
ARC
  5
A2
330
1F
100
AcDbEntity
  8
0
  6
Continuous
 62
     7
370
    25
100
AcDbCircle
 10
-115.4923767345
 20
-94.9318347724
 30
0.0
 40
3.000000000000114
100
AcDbArc
 50
90.0
 51
180.0
  0
LINE
  5
A3
330
1F
100
AcDbEntity
  8
0
  6
Continuous
 62
     7
370
    25
100
AcDbLine
 10
-118.4923767345
 20
-94.9318347724
 30
0.0
 11
-118.4923767345
 21
-103.9318347724
 31
0.0
  0
ARC
  5
A4
330
1F
100
AcDbEntity
  8
0
  6
Continuous
 62
     7
370
    25
100
AcDbCircle
 10
-115.4923767345
 20
-103.9318347724
 30
0.0
 40
3.000000000000114
100
AcDbArc
 50
180.0
 51
270.0
  0
LINE
  5
A5
330
1F
100
AcDbEntity
  8
0
  6
Continuous
 62
     7
370
    25
100
AcDbLine
 10
-65.6346165972
 20
398.0681652276
 30
0.0
 11
-65.6346165972
 21
-91.9318347724
 31
0.0
  0
LINE
  5
A6
330
1F
100
AcDbEntity
  8
0
  6
Continuous
 62
     7
370
    25
100
AcDbLine
 10
448.5015530766
 20
413.0681652276
 30
0.0
 11
448.5015530766
 21
415.0681652276
 31
0.0
  0
LINE
  5
A7
330
1F
100
AcDbEntity
  8
0
  6
Continuous
 62
     7
370
    25
100
AcDbLine
 10
408.5015530766
 20
415.0681652276
 30
0.0
 11
408.5015530766
 21
413.0681652276
 31
0.0
  0
ARC
  5
A8
330
1F
100
AcDbEntity
  8
0
  6
Continuous
 62
     7
370
    25
100
AcDbCircle
 10
428.6292453843
 20
415.0681652276
 30
0.0
 40
19.87230769230774
100
AcDbArc
 50
0.0
 51
46.9233678463
  0
ARC
  5
A9
330
1F
100
AcDbEntity
  8
0
  6
Continuous
 62
     7
370
    25
100
AcDbCircle
 10
428.3738607689
 20
415.0681652276
 30
0.0
 40
19.87230769230774
100
AcDbArc
 50
133.0766321537
 51
180.0
  0
ARC
  5
AA
330
1F
100
AcDbEntity
  8
0
  6
Continuous
 62
     7
370
    25
100
AcDbCircle
 10
428.3738607689
 20
-108.9318347724
 30
0.0
 40
19.87230769230774
100
AcDbArc
 50
180.0
 51
226.9233678463
  0
ARC
  5
AB
330
1F
100
AcDbEntity
  8
0
  6
Continuous
 62
     7
370
    25
100
AcDbCircle
 10
428.6292453843
 20
-108.9318347724
 30
0.0
 40
19.87230769230774
100
AcDbArc
 50
313.0766321537
 51
0.0
  0
LINE
  5
AC
330
1F
100
AcDbEntity
  8
0
  6
Continuous
 62
     7
370
    25
100
AcDbLine
 10
408.5015530766
 20
-106.9318347724
 30
0.0
 11
408.5015530766
 21
-108.9318347724
 31
0.0
  0
LINE
  5
AD
330
1F
100
AcDbEntity
  8
0
  6
Continuous
 62
     7
370
    25
100
AcDbLine
 10
448.5015530766
 20
-108.9318347724
 30
0.0
 11
448.5015530766
 21
-106.9318347724
 31
0.0
  0
LINE
  5
AE
330
1F
100
AcDbEntity
  8
0
  6
Continuous
 62
     7
370
    25
100
AcDbLine
 10
992.7499140473
 20
413.0681652276
 30
0.0
 11
992.7499140473
 21
415.0681652276
 31
0.0
  0
LINE
  5
AF
330
1F
100
AcDbEntity
  8
0
  6
Continuous
 62
     7
370
    25
100
AcDbLine
 10
952.7499140473
 20
415.0681652276
 30
0.0
 11
952.7499140473
 21
413.0681652276
 31
0.0
  0
ARC
  5
B0
330
1F
100
AcDbEntity
  8
0
  6
Continuous
 62
     7
370
    25
100
AcDbCircle
 10
972.877606355
 20
415.0681652276
 30
0.0
 40
19.8723076923078
100
AcDbArc
 50
0.0
 51
46.9233678463
  0
ARC
  5
B1
330
1F
100
AcDbEntity
  8
0
  6
Continuous
 62
     7
370
    25
100
AcDbCircle
 10
972.6222217396
 20
415.0681652276
 30
0.0
 40
19.8723076923078
100
AcDbArc
 50
133.0766321537
 51
180.0
  0
ARC
  5
B2
330
1F
100
AcDbEntity
  8
0
  6
Continuous
 62
     7
370
    25
100
AcDbCircle
 10
29.3654865128
 20
415.0681652276
 30
0.0
 40
19.87230769230774
100
AcDbArc
 50
0.0
 51
46.9233678463
  0
ARC
  5
B3
330
1F
100
AcDbEntity
  8
0
  6
Continuous
 62
     7
370
    25
100
AcDbCircle
 10
29.1101018974
 20
415.0681652276
 30
0.0
 40
19.87230769230774
100
AcDbArc
 50
133.0766321537
 51
180.0
  0
LINE
  5
B4
330
1F
100
AcDbEntity
  8
0
  6
Continuous
 62
     7
370
    25
100
AcDbLine
 10
49.2377942051
 20
413.0681652276
 30
0.0
 11
49.2377942051
 21
415.0681652276
 31
0.0
  0
LINE
  5
B5
330
1F
100
AcDbEntity
  8
0
  6
Continuous
 62
     7
370
    25
100
AcDbLine
 10
9.2377942051
 20
415.0681652276
 30
0.0
 11
9.2377942051
 21
413.0681652276
 31
0.0
  0
LINE
  5
B6
330
1F
100
AcDbEntity
  8
0
  6
Continuous
 62
     7
370
    25
100
AcDbLine
 10
1252.8095515345
 20
413.0681652276
 30
0.0
 11
1252.8095515345
 21
415.0681652276
 31
0.0
  0
LINE
  5
B7
330
1F
100
AcDbEntity
  8
0
  6
Continuous
 62
     7
370
    25
100
AcDbLine
 10
1212.8095515345
 20
415.0681652276
 30
0.0
 11
1212.8095515345
 21
413.0681652276
 31
0.0
  0
ARC
  5
B8
330
1F
100
AcDbEntity
  8
0
  6
Continuous
 62
     7
370
    25
100
AcDbCircle
 10
1232.9372438422
 20
415.0681652276
 30
0.0
 40
19.87230769230791
100
AcDbArc
 50
0.0
 51
46.9233678463
  0
ARC
  5
B9
330
1F
100
AcDbEntity
  8
0
  6
Continuous
 62
     7
370
    25
100
AcDbCircle
 10
1232.6818592268
 20
415.0681652276
 30
0.0
 40
19.87230769230769
100
AcDbArc
 50
133.0766321537
 51
180.0
  0
ARC
  5
BA
330
1F
100
AcDbEntity
  8
0
  6
Continuous
 62
     7
370
    25
100
AcDbCircle
 10
972.6222217396
 20
-108.9318347724
 30
0.0
 40
19.8723076923078
100
AcDbArc
 50
180.0
 51
226.9233678463
  0
ARC
  5
BB
330
1F
100
AcDbEntity
  8
0
  6
Continuous
 62
     7
370
    25
100
AcDbCircle
 10
972.877606355
 20
-108.9318347724
 30
0.0
 40
19.8723076923078
100
AcDbArc
 50
313.0766321537
 51
0.0
  0
LINE
  5
BC
330
1F
100
AcDbEntity
  8
0
  6
Continuous
 62
     7
370
    25
100
AcDbLine
 10
952.7499140473
 20
-106.9318347724
 30
0.0
 11
952.7499140473
 21
-108.9318347724
 31
0.0
  0
LINE
  5
BD
330
1F
100
AcDbEntity
  8
0
  6
Continuous
 62
     7
370
    25
100
AcDbLine
 10
992.7499140473
 20
-108.9318347724
 30
0.0
 11
992.7499140473
 21
-106.9318347724
 31
0.0
  0
LINE
  5
BE
330
1F
100
AcDbEntity
  8
0
  6
Continuous
 62
     7
370
    25
100
AcDbLine
 10
1212.8095515345
 20
-106.9318347724
 30
0.0
 11
1212.8095515345
 21
-108.9318347724
 31
0.0
  0
LINE
  5
BF
330
1F
100
AcDbEntity
  8
0
  6
Continuous
 62
     7
370
    25
100
AcDbLine
 10
1252.8095515345
 20
-108.9318347724
 30
0.0
 11
1252.8095515345
 21
-106.9318347724
 31
0.0
  0
ARC
  5
C0
330
1F
100
AcDbEntity
  8
0
  6
Continuous
 62
     7
370
    25
100
AcDbCircle
 10
1232.6818592268
 20
-108.9318347724
 30
0.0
 40
19.87230769230769
100
AcDbArc
 50
180.0
 51
226.9233678463
  0
ARC
  5
C1
330
1F
100
AcDbEntity
  8
0
  6
Continuous
 62
     7
370
    25
100
AcDbCircle
 10
1232.9372438422
 20
-108.9318347724
 30
0.0
 40
19.87230769230791
100
AcDbArc
 50
313.0766321537
 51
0.0
  0
ARC
  5
C2
330
1F
100
AcDbEntity
  8
0
  6
Continuous
 62
     7
370
    25
100
AcDbCircle
 10
29.1101018974
 20
-108.9318347724
 30
0.0
 40
19.87230769230774
100
AcDbArc
 50
180.0
 51
226.9233678463
  0
ARC
  5
C3
330
1F
100
AcDbEntity
  8
0
  6
Continuous
 62
     7
370
    25
100
AcDbCircle
 10
29.3654865128
 20
-108.9318347724
 30
0.0
 40
19.87230769230774
100
AcDbArc
 50
313.0766321537
 51
0.0
  0
LINE
  5
C4
330
1F
100
AcDbEntity
  8
0
  6
Continuous
 62
     7
370
    25
100
AcDbLine
 10
9.2377942051
 20
-106.9318347724
 30
0.0
 11
9.2377942051
 21
-108.9318347724
 31
0.0
  0
LINE
  5
C5
330
1F
100
AcDbEntity
  8
0
  6
Continuous
 62
     7
370
    25
100
AcDbLine
 10
49.2377942051
 20
-108.9318347724
 30
0.0
 11
49.2377942051
 21
-106.9318347724
 31
0.0
  0
LINE
  5
C6
330
1F
100
AcDbEntity
  8
0
  6
Continuous
 62
     7
370
    25
100
AcDbLine
 10
-30.5988965963
 20
413.0681652276
 30
0.0
 11
-30.5988965963
 21
415.0681652276
 31
0.0
  0
LINE
  5
C7
330
1F
100
AcDbEntity
  8
0
  6
Continuous
 62
     7
370
    25
100
AcDbLine
 10
-70.5988965963
 20
415.0681652276
 30
0.0
 11
-70.5988965963
 21
413.0681652276
 31
0.0
  0
ARC
  5
C8
330
1F
100
AcDbEntity
  8
0
  6
Continuous
 62
     7
370
    25
100
AcDbCircle
 10
-50.4712042886
 20
415.0681652276
 30
0.0
 40
19.87230769230769
100
AcDbArc
 50
0.0
 51
46.9233678463
  0
ARC
  5
C9
330
1F
100
AcDbEntity
  8
0
  6
Continuous
 62
     7
370
    25
100
AcDbCircle
 10
-50.726588904
 20
415.0681652276
 30
0.0
 40
19.87230769230769
100
AcDbArc
 50
133.0766321537
 51
180.0
  0
LINE
  5
CA
330
1F
100
AcDbEntity
  8
0
  6
Continuous
 62
     7
370
    25
100
AcDbLine
 10
732.6902765601
 20
413.0681652276
 30
0.0
 11
732.6902765601
 21
415.0681652276
 31
0.0
  0
LINE
  5
CB
330
1F
100
AcDbEntity
  8
0
  6
Continuous
 62
     7
370
    25
100
AcDbLine
 10
692.6902765601
 20
415.0681652276
 30
0.0
 11
692.6902765601
 21
413.0681652276
 31
0.0
  0
ARC
  5
CC
330
1F
100
AcDbEntity
  8
0
  6
Continuous
 62
     7
370
    25
100
AcDbCircle
 10
712.8179688678
 20
415.0681652276
 30
0.0
 40
19.87230769230769
100
AcDbArc
 50
0.0
 51
46.9233678463
  0
ARC
  5
CD
330
1F
100
AcDbEntity
  8
0
  6
Continuous
 62
     7
370
    25
100
AcDbCircle
 10
712.5625842525
 20
415.0681652276
 30
0.0
 40
19.87230769230769
100
AcDbArc
 50
133.0766321537
 51
180.0
  0
LINE
  5
CE
330
1F
100
AcDbEntity
  8
0
  6
Continuous
 62
     7
370
    25
100
AcDbLine
 10
-70.5988965963
 20
-106.9318347724
 30
0.0
 11
-70.5988965963
 21
-108.9318347724
 31
0.0
  0
LINE
  5
CF
330
1F
100
AcDbEntity
  8
0
  6
Continuous
 62
     7
370
    25
100
AcDbLine
 10
-30.5988965963
 20
-108.9318347724
 30
0.0
 11
-30.5988965963
 21
-106.9318347724
 31
0.0
  0
ARC
  5
D0
330
1F
100
AcDbEntity
  8
0
  6
Continuous
 62
     7
370
    25
100
AcDbCircle
 10
-50.726588904
 20
-108.9318347724
 30
0.0
 40
19.8723076923077
100
AcDbArc
 50
180.0
 51
226.9233678463
  0
ARC
  5
D1
330
1F
100
AcDbEntity
  8
0
  6
Continuous
 62
     7
370
    25
100
AcDbCircle
 10
-50.4712042886
 20
-108.9318347724
 30
0.0
 40
19.8723076923077
100
AcDbArc
 50
313.0766321537
 51
0.0
  0
ARC
  5
D2
330
1F
100
AcDbEntity
  8
0
  6
Continuous
 62
     7
370
    25
100
AcDbCircle
 10
712.5625842525
 20
-108.9318347724
 30
0.0
 40
19.87230769230769
100
AcDbArc
 50
180.0
 51
226.9233678463
  0
ARC
  5
D3
330
1F
100
AcDbEntity
  8
0
  6
Continuous
 62
     7
370
    25
100
AcDbCircle
 10
712.8179688678
 20
-108.9318347724
 30
0.0
 40
19.87230769230769
100
AcDbArc
 50
313.0766321537
 51
0.0
  0
LINE
  5
D4
330
1F
100
AcDbEntity
  8
0
  6
Continuous
 62
     7
370
    25
100
AcDbLine
 10
692.6902765601
 20
-106.9318347724
 30
0.0
 11
692.6902765601
 21
-108.9318347724
 31
0.0
  0
LINE
  5
D5
330
1F
100
AcDbEntity
  8
0
  6
Continuous
 62
     7
370
    25
100
AcDbLine
 10
732.6902765601
 20
-108.9318347724
 30
0.0
 11
732.6902765601
 21
-106.9318347724
 31
0.0
  0
ARC
  5
D6
330
1F
100
AcDbEntity
  8
0
  6
Continuous
 62
     7
370
    25
100
AcDbCircle
 10
699.5902765601
 20
-124.0622260908
 30
0.0
 40
0.5999999999999428
100
AcDbArc
 50
180.0
 51
243.6246146768
  0
ARC
  5
D7
330
1F
100
AcDbEntity
  8
0
  6
Continuous
 62
     7
370
    25
100
AcDbCircle
 10
725.7902765601
 20
-124.0622260908
 30
0.0
 40
0.5999999999999428
100
AcDbArc
 50
296.3753853232
 51
0.0
  0
LINE
  5
D8
330
1F
100
AcDbEntity
  8
0
  6
Continuous
 62
     7
370
    25
100
AcDbLine
 10
698.9902765601
 20
-123.4473808153
 30
0.0
 11
698.9902765601
 21
-124.0622260908
 31
0.0
  0
LINE
  5
D9
330
1F
100
AcDbEntity
  8
0
  6
Continuous
 62
     7
370
    25
100
AcDbLine
 10
726.3902765601
 20
-124.0622260908
 30
0.0
 11
726.3902765601
 21
-123.4473808153
 31
0.0
  0
ARC
  5
DA
330
1F
100
AcDbEntity
  8
0
  6
Continuous
 62
     7
370
    25
100
AcDbCircle
 10
712.6902765601
 20
-97.6439559846
 30
0.0
 40
30.0878787878788
100
AcDbArc
 50
243.6246146768
 51
296.3753853232
  0
LINE
  5
DB
330
1F
100
AcDbEntity
  8
0
  6
Continuous
 62
     7
370
    25
100
AcDbLine
 10
414.8015530766
 20
-123.4473808153
 30
0.0
 11
414.8015530766
 21
-124.0622260908
 31
0.0
  0
LINE
  5
DC
330
1F
100
AcDbEntity
  8
0
  6
Continuous
 62
     7
370
    25
100
AcDbLine
 10
442.2015530766
 20
-124.0622260908
 30
0.0
 11
442.2015530766
 21
-123.4473808153
 31
0.0
  0
ARC
  5
DD
330
1F
100
AcDbEntity
  8
0
  6
Continuous
 62
     7
370
    25
100
AcDbCircle
 10
415.4015530766
 20
-124.0622260908
 30
0.0
 40
0.5999999999999933
100
AcDbArc
 50
180.0
 51
243.6246146768
  0
ARC
  5
DE
330
1F
100
AcDbEntity
  8
0
  6
Continuous
 62
     7
370
    25
100
AcDbCircle
 10
441.6015530766
 20
-124.0622260908
 30
0.0
 40
0.5999999999999681
100
AcDbArc
 50
296.3753853232
 51
0.0
  0
ARC
  5
DF
330
1F
100
AcDbEntity
  8
0
  6
Continuous
 62
     7
370
    25
100
AcDbCircle
 10
428.5015530766
 20
-97.6439559846
 30
0.0
 40
30.08787878787882
100
AcDbArc
 50
243.6246146768
 51
296.3753853232
  0
LINE
  5
E0
330
1F
100
AcDbEntity
  8
0
  6
Continuous
 62
     7
370
    25
100
AcDbLine
 10
-64.2988965963
 20
-123.4473808153
 30
0.0
 11
-64.2988965963
 21
-124.0622260908
 31
0.0
  0
LINE
  5
E1
330
1F
100
AcDbEntity
  8
0
  6
Continuous
 62
     7
370
    25
100
AcDbLine
 10
-36.8988965963
 20
-124.0622260908
 30
0.0
 11
-36.8988965963
 21
-123.4473808153
 31
0.0
  0
ARC
  5
E2
330
1F
100
AcDbEntity
  8
0
  6
Continuous
 62
     7
370
    25
100
AcDbCircle
 10
-63.6988965963
 20
-124.0622260908
 30
0.0
 40
0.5999999999999743
100
AcDbArc
 50
180.0
 51
243.6246146768
  0
ARC
  5
E3
330
1F
100
AcDbEntity
  8
0
  6
Continuous
 62
     7
370
    25
100
AcDbCircle
 10
-37.4988965963
 20
-124.0622260908
 30
0.0
 40
0.5999999999999776
100
AcDbArc
 50
296.3753853232
 51
0.0
  0
ARC
  5
E4
330
1F
100
AcDbEntity
  8
0
  6
Continuous
 62
     7
370
    25
100
AcDbCircle
 10
-50.5988965963
 20
-97.6439559846
 30
0.0
 40
30.08787878787882
100
AcDbArc
 50
243.6246146768
 51
296.3753853232
  0
LINE
  5
E5
330
1F
100
AcDbEntity
  8
0
  6
Continuous
 62
     7
370
    25
100
AcDbLine
 10
726.3902765601
 20
429.5837112704
 30
0.0
 11
726.3902765601
 21
430.198556546
 31
0.0
  0
LINE
  5
E6
330
1F
100
AcDbEntity
  8
0
  6
Continuous
 62
     7
370
    25
100
AcDbLine
 10
698.9902765601
 20
430.198556546
 30
0.0
 11
698.9902765601
 21
429.5837112704
 31
0.0
  0
ARC
  5
E7
330
1F
100
AcDbEntity
  8
0
  6
Continuous
 62
     7
370
    25
100
AcDbCircle
 10
725.7902765601
 20
430.198556546
 30
0.0
 40
0.5999999999999556
100
AcDbArc
 50
0.0
 51
63.6246146768
  0
ARC
  5
E8
330
1F
100
AcDbEntity
  8
0
  6
Continuous
 62
     7
370
    25
100
AcDbCircle
 10
699.5902765601
 20
430.198556546
 30
0.0
 40
0.5999999999999556
100
AcDbArc
 50
116.3753853232
 51
180.0
  0
ARC
  5
E9
330
1F
100
AcDbEntity
  8
0
  6
Continuous
 62
     7
370
    25
100
AcDbCircle
 10
712.6902765601
 20
403.7802864397
 30
0.0
 40
30.08787878787868
100
AcDbArc
 50
63.6246146768
 51
116.3753853232
  0
LINE
  5
EA
330
1F
100
AcDbEntity
  8
0
  6
Continuous
 62
     7
370
    25
100
AcDbLine
 10
42.9377942051
 20
429.5837112704
 30
0.0
 11
42.9377942051
 21
430.198556546
 31
0.0
  0
LINE
  5
EB
330
1F
100
AcDbEntity
  8
0
  6
Continuous
 62
     7
370
    25
100
AcDbLine
 10
15.5377942051
 20
430.198556546
 30
0.0
 11
15.5377942051
 21
429.5837112704
 31
0.0
  0
ARC
  5
EC
330
1F
100
AcDbEntity
  8
0
  6
Continuous
 62
     7
370
    25
100
AcDbCircle
 10
42.3377942051
 20
430.198556546
 30
0.0
 40
0.5999999999999902
100
AcDbArc
 50
0.0
 51
63.6246146768
  0
ARC
  5
ED
330
1F
100
AcDbEntity
  8
0
  6
Continuous
 62
     7
370
    25
100
AcDbCircle
 10
16.1377942051
 20
430.198556546
 30
0.0
 40
0.5999999999999879
100
AcDbArc
 50
116.3753853232
 51
180.0
  0
ARC
  5
EE
330
1F
100
AcDbEntity
  8
0
  6
Continuous
 62
     7
370
    25
100
AcDbCircle
 10
29.2377942051
 20
403.7802864397
 30
0.0
 40
30.0878787878787
100
AcDbArc
 50
63.6246146768
 51
116.3753853232
  0
ARC
  5
EF
330
1F
100
AcDbEntity
  8
0
  6
Continuous
 62
     7
370
    25
100
AcDbCircle
 10
-37.4988965963
 20
430.198556546
 30
0.0
 40
0.5999999999999392
100
AcDbArc
 50
0.0
 51
63.6246146768
  0
ARC
  5
F0
330
1F
100
AcDbEntity
  8
0
  6
Continuous
 62
     7
370
    25
100
AcDbCircle
 10
-63.6988965963
 20
430.198556546
 30
0.0
 40
0.5999999999999375
100
AcDbArc
 50
116.3753853232
 51
180.0
  0
LINE
  5
F1
330
1F
100
AcDbEntity
  8
0
  6
Continuous
 62
     7
370
    25
100
AcDbLine
 10
-36.8988965963
 20
429.5837112704
 30
0.0
 11
-36.8988965963
 21
430.198556546
 31
0.0
  0
LINE
  5
F2
330
1F
100
AcDbEntity
  8
0
  6
Continuous
 62
     7
370
    25
100
AcDbLine
 10
-64.2988965963
 20
430.198556546
 30
0.0
 11
-64.2988965963
 21
429.5837112704
 31
0.0
  0
ARC
  5
F3
330
1F
100
AcDbEntity
  8
0
  6
Continuous
 62
     7
370
    25
100
AcDbCircle
 10
-50.5988965963
 20
403.7802864397
 30
0.0
 40
30.08787878787875
100
AcDbArc
 50
63.6246146768
 51
116.3753853232
  0
ARC
  5
F4
330
1F
100
AcDbEntity
  8
0
  6
Continuous
 62
     7
370
    25
100
AcDbCircle
 10
441.6015530766
 20
430.198556546
 30
0.0
 40
0.5999999999999808
100
AcDbArc
 50
0.0
 51
63.6246146768
  0
ARC
  5
F5
330
1F
100
AcDbEntity
  8
0
  6
Continuous
 62
     7
370
    25
100
AcDbCircle
 10
415.4015530766
 20
430.198556546
 30
0.0
 40
0.600000000000006
100
AcDbArc
 50
116.3753853232
 51
180.0
  0
LINE
  5
F6
330
1F
100
AcDbEntity
  8
0
  6
Continuous
 62
     7
370
    25
100
AcDbLine
 10
442.2015530766
 20
429.5837112704
 30
0.0
 11
442.2015530766
 21
430.198556546
 31
0.0
  0
LINE
  5
F7
330
1F
100
AcDbEntity
  8
0
  6
Continuous
 62
     7
370
    25
100
AcDbLine
 10
414.8015530766
 20
430.198556546
 30
0.0
 11
414.8015530766
 21
429.5837112704
 31
0.0
  0
ARC
  5
F8
330
1F
100
AcDbEntity
  8
0
  6
Continuous
 62
     7
370
    25
100
AcDbCircle
 10
428.5015530766
 20
403.7802864397
 30
0.0
 40
30.08787878787871
100
AcDbArc
 50
63.6246146768
 51
116.3753853232
  0
LINE
  5
F9
330
1F
100
AcDbEntity
  8
0
  6
Continuous
 62
     7
370
    25
100
AcDbLine
 10
1219.1095515345
 20
-123.4473808153
 30
0.0
 11
1219.1095515345
 21
-124.0622260908
 31
0.0
  0
LINE
  5
FA
330
1F
100
AcDbEntity
  8
0
  6
Continuous
 62
     7
370
    25
100
AcDbLine
 10
1246.5095515345
 20
-124.0622260908
 30
0.0
 11
1246.5095515345
 21
-123.4473808153
 31
0.0
  0
ARC
  5
FB
330
1F
100
AcDbEntity
  8
0
  6
Continuous
 62
     7
370
    25
100
AcDbCircle
 10
1219.7095515345
 20
-124.0622260908
 30
0.0
 40
0.6000000000000438
100
AcDbArc
 50
180.0
 51
243.6246146768
  0
ARC
  5
FC
330
1F
100
AcDbEntity
  8
0
  6
Continuous
 62
     7
370
    25
100
AcDbCircle
 10
1245.9095515345
 20
-124.0622260908
 30
0.0
 40
0.6000000000001364
100
AcDbArc
 50
296.3753853232
 51
0.0
  0
ARC
  5
FD
330
1F
100
AcDbEntity
  8
0
  6
Continuous
 62
     7
370
    25
100
AcDbCircle
 10
1232.8095515345
 20
-97.6439559846
 30
0.0
 40
30.0878787878789
100
AcDbArc
 50
243.6246146768
 51
296.3753853232
  0
LINE
  5
FE
330
1F
100
AcDbEntity
  8
0
  6
Continuous
 62
     7
370
    25
100
AcDbLine
 10
959.0499140473
 20
-123.4473808153
 30
0.0
 11
959.0499140473
 21
-124.0622260908
 31
0.0
  0
LINE
  5
FF
330
1F
100
AcDbEntity
  8
0
  6
Continuous
 62
     7
370
    25
100
AcDbLine
 10
986.4499140473
 20
-124.0622260908
 30
0.0
 11
986.4499140473
 21
-123.4473808153
 31
0.0
  0
ARC
  5
100
330
1F
100
AcDbEntity
  8
0
  6
Continuous
 62
     7
370
    25
100
AcDbCircle
 10
959.6499140473
 20
-124.0622260908
 30
0.0
 40
0.5999999999999933
100
AcDbArc
 50
180.0
 51
243.6246146768
  0
ARC
  5
101
330
1F
100
AcDbEntity
  8
0
  6
Continuous
 62
     7
370
    25
100
AcDbCircle
 10
985.8499140473
 20
-124.0622260908
 30
0.0
 40
0.6000000000002501
100
AcDbArc
 50
296.3753853232
 51
0.0
  0
ARC
  5
102
330
1F
100
AcDbEntity
  8
0
  6
Continuous
 62
     7
370
    25
100
AcDbCircle
 10
972.7499140473
 20
-97.6439559846
 30
0.0
 40
30.08787878787885
100
AcDbArc
 50
243.6246146768
 51
296.3753853232
  0
LINE
  5
103
330
1F
100
AcDbEntity
  8
0
  6
Continuous
 62
     7
370
    25
100
AcDbLine
 10
1246.5095515345
 20
429.5837112704
 30
0.0
 11
1246.5095515345
 21
430.198556546
 31
0.0
  0
LINE
  5
104
330
1F
100
AcDbEntity
  8
0
  6
Continuous
 62
     7
370
    25
100
AcDbLine
 10
1219.1095515345
 20
430.198556546
 30
0.0
 11
1219.1095515345
 21
429.5837112704
 31
0.0
  0
ARC
  5
105
330
1F
100
AcDbEntity
  8
0
  6
Continuous
 62
     7
370
    25
100
AcDbCircle
 10
1245.9095515345
 20
430.198556546
 30
0.0
 40
0.6000000000001364
100
AcDbArc
 50
0.0
 51
63.6246146768
  0
ARC
  5
106
330
1F
100
AcDbEntity
  8
0
  6
Continuous
 62
     7
370
    25
100
AcDbCircle
 10
1219.7095515345
 20
430.198556546
 30
0.0
 40
0.6000000000000565
100
AcDbArc
 50
116.3753853232
 51
180.0
  0
ARC
  5
107
330
1F
100
AcDbEntity
  8
0
  6
Continuous
 62
     7
370
    25
100
AcDbCircle
 10
1232.8095515345
 20
403.7802864397
 30
0.0
 40
30.08787878787878
100
AcDbArc
 50
63.6246146768
 51
116.3753853232
  0
ARC
  5
108
330
1F
100
AcDbEntity
  8
0
  6
Continuous
 62
     7
370
    25
100
AcDbCircle
 10
16.1377942051
 20
-124.0622260908
 30
0.0
 40
0.5999999999999751
100
AcDbArc
 50
180.0
 51
243.6246146768
  0
ARC
  5
109
330
1F
100
AcDbEntity
  8
0
  6
Continuous
 62
     7
370
    25
100
AcDbCircle
 10
42.3377942051
 20
-124.0622260908
 30
0.0
 40
0.5999999999999776
100
AcDbArc
 50
296.3753853232
 51
0.0
  0
LINE
  5
10A
330
1F
100
AcDbEntity
  8
0
  6
Continuous
 62
     7
370
    25
100
AcDbLine
 10
15.5377942051
 20
-123.4473808153
 30
0.0
 11
15.5377942051
 21
-124.0622260908
 31
0.0
  0
LINE
  5
10B
330
1F
100
AcDbEntity
  8
0
  6
Continuous
 62
     7
370
    25
100
AcDbLine
 10
42.9377942051
 20
-124.0622260908
 30
0.0
 11
42.9377942051
 21
-123.4473808153
 31
0.0
  0
ARC
  5
10C
330
1F
100
AcDbEntity
  8
0
  6
Continuous
 62
     7
370
    25
100
AcDbCircle
 10
29.2377942051
 20
-97.6439559846
 30
0.0
 40
30.08787878787882
100
AcDbArc
 50
243.6246146768
 51
296.3753853232
  0
LINE
  5
10D
330
1F
100
AcDbEntity
  8
0
  6
Continuous
 62
     7
370
    25
100
AcDbLine
 10
986.4499140473
 20
429.5837112704
 30
0.0
 11
986.4499140473
 21
430.198556546
 31
0.0
  0
LINE
  5
10E
330
1F
100
AcDbEntity
  8
0
  6
Continuous
 62
     7
370
    25
100
AcDbLine
 10
959.0499140473
 20
430.198556546
 30
0.0
 11
959.0499140473
 21
429.5837112704
 31
0.0
  0
ARC
  5
10F
330
1F
100
AcDbEntity
  8
0
  6
Continuous
 62
     7
370
    25
100
AcDbCircle
 10
985.8499140473
 20
430.198556546
 30
0.0
 40
0.6000000000002501
100
AcDbArc
 50
0.0
 51
63.6246146768
  0
ARC
  5
110
330
1F
100
AcDbEntity
  8
0
  6
Continuous
 62
     7
370
    25
100
AcDbCircle
 10
959.6499140473
 20
430.198556546
 30
0.0
 40
0.600000000000006
100
AcDbArc
 50
116.3753853232
 51
180.0
  0
ARC
  5
111
330
1F
100
AcDbEntity
  8
0
  6
Continuous
 62
     7
370
    25
100
AcDbCircle
 10
972.7499140473
 20
403.7802864397
 30
0.0
 40
30.08787878787873
100
AcDbArc
 50
63.6246146768
 51
116.3753853232
  0
LINE
  5
112
330
1F
100
AcDbEntity
  8
0
  6
Continuous
 62
     7
370
    25
100
AcDbLine
 10
1695.0357753282
 20
413.0681652275
 30
0.0
 11
1695.0357753282
 21
412.0681652275
 31
0.0
  0
LINE
  5
113
330
1F
100
AcDbEntity
  8
0
  6
Continuous
 62
     7
370
    25
100
AcDbLine
 10
1726.0357753282
 20
412.0681652275
 30
0.0
 11
1726.0357753282
 21
413.0681652275
 31
0.0
  0
ARC
  5
114
330
1F
100
AcDbEntity
  8
0
  6
Continuous
 62
     7
370
    25
100
AcDbCircle
 10
1709.7397226966
 20
412.0681652275
 30
0.0
 40
16.29605263157896
100
AcDbArc
 50
315.1144932694
 51
0.0
  0
ARC
  5
115
330
1F
100
AcDbEntity
  8
0
  6
Continuous
 62
     7
370
    25
100
AcDbCircle
 10
1711.3318279598
 20
412.0681652275
 30
0.0
 40
16.29605263157896
100
AcDbArc
 50
180.0
 51
224.8855067306
  0
ARC
  5
116
330
1F
100
AcDbEntity
  8
0
  6
Continuous
 62
     7
370
    25
100
AcDbCircle
 10
1711.3318279598
 20
-105.9318347725
 30
0.0
 40
16.29605263157896
100
AcDbArc
 50
135.1144932694
 51
180.0
  0
ARC
  5
117
330
1F
100
AcDbEntity
  8
0
  6
Continuous
 62
     7
370
    25
100
AcDbCircle
 10
1709.7397226966
 20
-105.9318347725
 30
0.0
 40
16.29605263157896
100
AcDbArc
 50
0.0
 51
44.8855067306
  0
LINE
  5
118
330
1F
100
AcDbEntity
  8
0
  6
Continuous
 62
     7
370
    25
100
AcDbLine
 10
1726.0357753282
 20
-106.9318347725
 30
0.0
 11
1726.0357753282
 21
-105.9318347725
 31
0.0
  0
LINE
  5
119
330
1F
100
AcDbEntity
  8
0
  6
Continuous
 62
     7
370
    25
100
AcDbLine
 10
1695.0357753282
 20
-105.9318347725
 30
0.0
 11
1695.0357753282
 21
-106.9318347725
 31
0.0
  0
LINE
  5
11A
330
1F
100
AcDbEntity
  8
0
  6
Continuous
 62
     7
370
    25
100
AcDbLine
 10
1656.0601725727
 20
412.0681652275
 30
0.0
 11
1656.0601725727
 21
413.0681652275
 31
0.0
  0
ARC
  5
11B
330
1F
100
AcDbEntity
  8
0
  6
Continuous
 62
     7
370
    25
100
AcDbCircle
 10
1639.7641199411
 20
412.0681652275
 30
0.0
 40
16.29605263157896
100
AcDbArc
 50
315.1144932694
 51
0.0
  0
ARC
  5
11C
330
1F
100
AcDbEntity
  8
0
  6
Continuous
 62
     7
370
    25
100
AcDbCircle
 10
1639.7641199411
 20
-105.9318347725
 30
0.0
 40
16.29605263157896
100
AcDbArc
 50
0.0
 51
44.8855067306
  0
LINE
  5
11D
330
1F
100
AcDbEntity
  8
0
  6
Continuous
 62
     7
370
    25
100
AcDbLine
 10
1656.0601725727
 20
-106.9318347725
 30
0.0
 11
1656.0601725727
 21
-105.9318347725
 31
0.0
  0
ARC
  5
11E
330
1F
100
AcDbEntity
  8
0
  6
Continuous
 62
     7
370
    25
100
AcDbCircle
 10
1650.7101725727
 20
399.9830152086
 30
0.0
 40
0.6000000000001364
100
AcDbArc
 50
290.275053252
 51
0.0
  0
LINE
  5
11F
330
1F
100
AcDbEntity
  8
0
  6
Continuous
 62
     7
370
    25
100
AcDbLine
 10
1651.3101725727
 20
399.9830152086
 30
0.0
 11
1651.3101725727
 21
400.5681652275
 31
0.0
  0
ARC
  5
120
330
1F
100
AcDbEntity
  8
0
  6
Continuous
 62
     7
370
    25
100
AcDbCircle
 10
1640.5601725727
 20
427.4587902275
 30
0.0
 40
29.89062499999998
100
AcDbArc
 50
254.863745352
 51
290.275053252
  0
ARC
  5
121
330
1F
100
AcDbEntity
  8
0
  6
Continuous
 62
     7
370
    25
100
AcDbCircle
 10
1700.3857753282
 20
399.9830152086
 30
0.0
 40
0.5999999999999718
100
AcDbArc
 50
180.0
 51
249.724946748
  0
ARC
  5
122
330
1F
100
AcDbEntity
  8
0
  6
Continuous
 62
     7
370
    25
100
AcDbCircle
 10
1720.6857753282
 20
399.9830152086
 30
0.0
 40
0.6000000000000505
100
AcDbArc
 50
290.275053252
 51
0.0
  0
LINE
  5
123
330
1F
100
AcDbEntity
  8
0
  6
Continuous
 62
     7
370
    25
100
AcDbLine
 10
1699.7857753282
 20
400.5681652275
 30
0.0
 11
1699.7857753282
 21
399.9830152086
 31
0.0
  0
LINE
  5
124
330
1F
100
AcDbEntity
  8
0
  6
Continuous
 62
     7
370
    25
100
AcDbLine
 10
1721.2857753282
 20
399.9830152086
 30
0.0
 11
1721.2857753282
 21
400.5681652275
 31
0.0
  0
ARC
  5
125
330
1F
100
AcDbEntity
  8
0
  6
Continuous
 62
     7
370
    25
100
AcDbCircle
 10
1710.5357753282
 20
427.4587902275
 30
0.0
 40
29.89062500000002
100
AcDbArc
 50
249.724946748
 51
290.275053252
  0
LINE
  5
126
330
1F
100
AcDbEntity
  8
0
  6
Continuous
 62
     7
370
    25
100
AcDbLine
 10
1651.3101725727
 20
-94.4318347725
 30
0.0
 11
1651.3101725727
 21
-93.8466847535
 31
0.0
  0
ARC
  5
127
330
1F
100
AcDbEntity
  8
0
  6
Continuous
 62
     7
370
    25
100
AcDbCircle
 10
1650.7101725727
 20
-93.8466847535
 30
0.0
 40
0.5999999999999585
100
AcDbArc
 50
0.0
 51
69.724946748
  0
ARC
  5
128
330
1F
100
AcDbEntity
  8
0
  6
Continuous
 62
     7
370
    25
100
AcDbCircle
 10
1640.5601725727
 20
-121.3224597725
 30
0.0
 40
29.89062499999993
100
AcDbArc
 50
69.724946748
 51
105.136254648
  0
LINE
  5
129
330
1F
100
AcDbEntity
  8
0
  6
Continuous
 62
     7
370
    25
100
AcDbLine
 10
1721.2857753282
 20
-94.4318347725
 30
0.0
 11
1721.2857753282
 21
-93.8466847535
 31
0.0
  0
LINE
  5
12A
330
1F
100
AcDbEntity
  8
0
  6
Continuous
 62
     7
370
    25
100
AcDbLine
 10
1699.7857753282
 20
-93.8466847535
 30
0.0
 11
1699.7857753282
 21
-94.4318347725
 31
0.0
  0
ARC
  5
12B
330
1F
100
AcDbEntity
  8
0
  6
Continuous
 62
     7
370
    25
100
AcDbCircle
 10
1720.6857753282
 20
-93.8466847535
 30
0.0
 40
0.6000000000001364
100
AcDbArc
 50
0.0
 51
69.724946748
  0
ARC
  5
12C
330
1F
100
AcDbEntity
  8
0
  6
Continuous
 62
     7
370
    25
100
AcDbCircle
 10
1700.3857753282
 20
-93.8466847535
 30
0.0
 40
0.6000000000001364
100
AcDbArc
 50
110.275053252
 51
180.0
  0
ARC
  5
12D
330
1F
100
AcDbEntity
  8
0
  6
Continuous
 62
     7
370
    25
100
AcDbCircle
 10
1710.5357753282
 20
-121.3224597725
 30
0.0
 40
29.89062499999993
100
AcDbArc
 50
69.724946748
 51
110.275053252
  0
ARC
  5
12E
330
1F
100
AcDbEntity
  8
0
  6
Continuous
 62
     7
370
    25
100
AcDbCircle
 10
1372.4766842413
 20
409.3924299401
 30
0.0
 40
12.92426470588242
100
AcDbArc
 50
241.1875354711
 51
298.8124645289
  0
ARC
  5
12F
330
1F
100
AcDbEntity
  8
0
  6
Continuous
 62
     7
370
    25
100
AcDbCircle
 10
1521.148645695
 20
409.392429941
 30
0.0
 40
12.92426470588242
100
AcDbArc
 50
241.1875354802
 51
298.8124645198
  0
ARC
  5
130
330
1F
100
AcDbEntity
  8
0
  6
Continuous
 62
     7
370
    25
100
AcDbCircle
 10
1521.148645695
 20
-103.256099486
 30
0.0
 40
12.92426470588235
100
AcDbArc
 50
61.1875354808
 51
118.8124645192
  0
ARC
  5
131
330
1F
100
AcDbEntity
  8
0
  6
Continuous
 62
     7
370
    25
100
AcDbCircle
 10
1372.4766842413
 20
-103.256099485
 30
0.0
 40
12.92426470588229
100
AcDbArc
 50
61.1875354717
 51
118.8124645283
  0
LINE
  5
132
330
1F
100
AcDbEntity
  8
0
  6
Continuous
 62
     7
370
    25
100
AcDbLine
 10
1490.2203022162
 20
-136.9318347725
 30
0.0
 11
1490.2203022162
 21
-138.3109299454
 31
0.0
  0
LINE
  5
133
330
1F
100
AcDbEntity
  8
0
  6
Continuous
 62
     7
370
    25
100
AcDbLine
 10
1503.2203022162
 20
-138.3109299454
 30
0.0
 11
1503.2203022162
 21
-136.9318347725
 31
0.0
  0
LINE
  5
134
330
1F
100
AcDbEntity
  8
0
  6
Continuous
 62
     7
370
    25
100
AcDbLine
 10
1490.2203022162
 20
-138.3109299454
 30
0.0
 11
1491.2203022162
 21
-139.3109299454
 31
0.0
  0
LINE
  5
135
330
1F
100
AcDbEntity
  8
0
  6
Continuous
 62
     7
370
    25
100
AcDbLine
 10
1502.2203022162
 20
-139.3109299454
 30
0.0
 11
1503.2203022162
 21
-138.3109299454
 31
0.0
  0
LINE
  5
136
330
1F
100
AcDbEntity
  8
0
  6
Continuous
 62
     7
370
    25
100
AcDbLine
 10
1405.6925951206
 20
-138.3109299454
 30
0.0
 11
1406.6925951206
 21
-139.3109299454
 31
0.0
  0
LINE
  5
137
330
1F
100
AcDbEntity
  8
0
  6
Continuous
 62
     7
370
    25
100
AcDbLine
 10
1417.6925951206
 20
-139.3109299454
 30
0.0
 11
1418.6925951206
 21
-138.3109299454
 31
0.0
  0
LINE
  5
138
330
1F
100
AcDbEntity
  8
0
  6
Continuous
 62
     7
370
    25
100
AcDbLine
 10
1405.6925951206
 20
-136.9318347725
 30
0.0
 11
1405.6925951206
 21
-138.3109299454
 31
0.0
  0
LINE
  5
139
330
1F
100
AcDbEntity
  8
0
  6
Continuous
 62
     7
370
    25
100
AcDbLine
 10
1418.6925951206
 20
-138.3109299454
 30
0.0
 11
1418.6925951206
 21
-136.9318347725
 31
0.0
  0
LINE
  5
13A
330
1F
100
AcDbEntity
  8
0
  6
Continuous
 62
     7
370
    25
100
AcDbLine
 10
1418.6925951206
 20
443.0681652275
 30
0.0
 11
1418.6925951206
 21
444.4472604004
 31
0.0
  0
LINE
  5
13B
330
1F
100
AcDbEntity
  8
0
  6
Continuous
 62
     7
370
    25
100
AcDbLine
 10
1405.6925951206
 20
444.4472604004
 30
0.0
 11
1405.6925951206
 21
443.0681652275
 31
0.0
  0
LINE
  5
13C
330
1F
100
AcDbEntity
  8
0
  6
Continuous
 62
     7
370
    25
100
AcDbLine
 10
1418.6925951206
 20
444.4472604004
 30
0.0
 11
1417.6925951206
 21
445.4472604004
 31
0.0
  0
LINE
  5
13D
330
1F
100
AcDbEntity
  8
0
  6
Continuous
 62
     7
370
    25
100
AcDbLine
 10
1406.6925951206
 20
445.4472604004
 30
0.0
 11
1405.6925951206
 21
444.4472604004
 31
0.0
  0
LINE
  5
13E
330
1F
100
AcDbEntity
  8
0
  6
Continuous
 62
     7
370
    25
100
AcDbLine
 10
1503.2203022162
 20
443.0681652275
 30
0.0
 11
1503.2203022162
 21
444.4472604004
 31
0.0
  0
LINE
  5
13F
330
1F
100
AcDbEntity
  8
0
  6
Continuous
 62
     7
370
    25
100
AcDbLine
 10
1490.2203022162
 20
444.4472604004
 30
0.0
 11
1490.2203022162
 21
443.0681652275
 31
0.0
  0
LINE
  5
140
330
1F
100
AcDbEntity
  8
0
  6
Continuous
 62
     7
370
    25
100
AcDbLine
 10
1503.2203022162
 20
444.4472604004
 30
0.0
 11
1502.2203022162
 21
445.4472604004
 31
0.0
  0
LINE
  5
141
330
1F
100
AcDbEntity
  8
0
  6
Continuous
 62
     7
370
    25
100
AcDbLine
 10
1491.2203022162
 20
445.4472604004
 30
0.0
 11
1490.2203022162
 21
444.4472604004
 31
0.0
  0
ARC
  5
142
330
1F
100
AcDbEntity
  8
0
  6
Continuous
 62
     7
370
    25
100
AcDbCircle
 10
1406.0425951206
 20
-105.9818347725
 30
0.0
 40
0.9500000000002417
100
AcDbArc
 50
120.9040212823
 51
269.9999999999
  0
ARC
  5
143
330
1F
100
AcDbEntity
  8
0
  6
Continuous
 62
     7
370
    25
100
AcDbCircle
 10
1418.3425951206
 20
-105.9818347725
 30
0.0
 40
0.9500000000001247
100
AcDbArc
 50
270.0000000001
 51
59.0959787177
  0
ARC
  5
144
330
1F
100
AcDbEntity
  8
0
  6
Continuous
 62
     7
370
    25
100
AcDbCircle
 10
1412.1925951206
 20
-116.2560994784
 30
0.0
 40
12.92426470588243
100
AcDbArc
 50
59.0959787177
 51
120.9040212823
  0
ARC
  5
145
330
1F
100
AcDbEntity
  8
0
  6
Continuous
 62
     7
370
    25
100
AcDbCircle
 10
1490.5703022162
 20
-105.9818347725
 30
0.0
 40
0.9500000000000761
100
AcDbArc
 50
120.9040212823
 51
270.0
  0
ARC
  5
146
330
1F
100
AcDbEntity
  8
0
  6
Continuous
 62
     7
370
    25
100
AcDbCircle
 10
1502.8703022162
 20
-105.9818347725
 30
0.0
 40
0.9500000000000028
100
AcDbArc
 50
270.0
 51
59.0959787177
  0
ARC
  5
147
330
1F
100
AcDbEntity
  8
0
  6
Continuous
 62
     7
370
    25
100
AcDbCircle
 10
1496.7203022162
 20
-116.2560994784
 30
0.0
 40
12.92426470588254
100
AcDbArc
 50
59.0959787177
 51
120.9040212823
  0
ARC
  5
148
330
1F
100
AcDbEntity
  8
0
  6
Continuous
 62
     7
370
    25
100
AcDbCircle
 10
1418.3425951206
 20
412.1181652275
 30
0.0
 40
0.9500000000000395
100
AcDbArc
 50
300.9040212823
 51
89.9999999999
  0
ARC
  5
149
330
1F
100
AcDbEntity
  8
0
  6
Continuous
 62
     7
370
    25
100
AcDbCircle
 10
1406.0425951206
 20
412.1181652275
 30
0.0
 40
0.9500000000001563
100
AcDbArc
 50
90.0000000001
 51
239.0959787177
  0
ARC
  5
14A
330
1F
100
AcDbEntity
  8
0
  6
Continuous
 62
     7
370
    25
100
AcDbCircle
 10
1412.1925951206
 20
422.3924299334
 30
0.0
 40
12.92426470588252
100
AcDbArc
 50
239.0959787177
 51
300.9040212823
  0
ARC
  5
14B
330
1F
100
AcDbEntity
  8
0
  6
Continuous
 62
     7
370
    25
100
AcDbCircle
 10
1502.8703022162
 20
412.1181652275
 30
0.0
 40
0.9499999999999886
100
AcDbArc
 50
300.9040212823
 51
90.0
  0
ARC
  5
14C
330
1F
100
AcDbEntity
  8
0
  6
Continuous
 62
     7
370
    25
100
AcDbCircle
 10
1490.5703022162
 20
412.1181652275
 30
0.0
 40
0.9499999999999886
100
AcDbArc
 50
90.0
 51
239.0959787177
  0
ARC
  5
14D
330
1F
100
AcDbEntity
  8
0
  6
Continuous
 62
     7
370
    25
100
AcDbCircle
 10
1496.7203022162
 20
422.3924299334
 30
0.0
 40
12.9242647058824
100
AcDbArc
 50
239.0959787177
 51
300.9040212823
  0
ARC
  5
14E
330
1F
100
AcDbEntity
  8
0
  6
Continuous
 62
     7
370
    25
100
AcDbCircle
 10
1377.3466842413
 20
-128.6518347725
 30
0.0
 40
0.1200000000001182
100
AcDbArc
 50
90.0
 51
180.0
  0
ARC
  5
14F
330
1F
100
AcDbEntity
  8
0
  6
Continuous
 62
     7
370
    25
100
AcDbCircle
 10
1367.6066842413
 20
-128.6518347725
 30
0.0
 40
0.1200000000000045
100
AcDbArc
 50
0.0
 51
90.0
  0
LINE
  5
150
330
1F
100
AcDbEntity
  8
0
  6
Continuous
 62
     7
370
    25
100
AcDbLine
 10
1367.7266842413
 20
-128.6518347725
 30
0.0
 11
1367.7266842413
 21
-130.7818347725
 31
0.0
  0
LINE
  5
151
330
1F
100
AcDbEntity
  8
0
  6
Continuous
 62
     7
370
    25
100
AcDbLine
 10
1377.2266842413
 20
-130.7818347725
 30
0.0
 11
1377.2266842413
 21
-128.6518347725
 31
0.0
  0
ARC
  5
152
330
1F
100
AcDbEntity
  8
0
  6
Continuous
 62
     7
370
    25
100
AcDbCircle
 10
1372.4766842413
 20
-130.7818347725
 30
0.0
 40
4.75
100
AcDbArc
 50
180.0
 51
0.0
  0
ARC
  5
153
330
1F
100
AcDbEntity
  8
0
  6
Continuous
 62
     7
370
    25
100
AcDbCircle
 10
1367.6066842413
 20
434.7881652275
 30
0.0
 40
0.1200000000000045
100
AcDbArc
 50
270.0
 51
0.0
  0
ARC
  5
154
330
1F
100
AcDbEntity
  8
0
  6
Continuous
 62
     7
370
    25
100
AcDbCircle
 10
1377.3466842413
 20
434.7881652275
 30
0.0
 40
0.1200000000001182
100
AcDbArc
 50
180.0
 51
270.0
  0
LINE
  5
155
330
1F
100
AcDbEntity
  8
0
  6
Continuous
 62
     7
370
    25
100
AcDbLine
 10
1377.2266842413
 20
434.7881652275
 30
0.0
 11
1377.2266842413
 21
436.9181652275
 31
0.0
  0
LINE
  5
156
330
1F
100
AcDbEntity
  8
0
  6
Continuous
 62
     7
370
    25
100
AcDbLine
 10
1367.7266842413
 20
436.9181652275
 30
0.0
 11
1367.7266842413
 21
434.7881652275
 31
0.0
  0
ARC
  5
157
330
1F
100
AcDbEntity
  8
0
  6
Continuous
 62
     7
370
    25
100
AcDbCircle
 10
1372.4766842413
 20
436.9181652275
 30
0.0
 40
4.75
100
AcDbArc
 50
0.0
 51
180.0
  0
LINE
  5
158
330
1F
100
AcDbEntity
  8
0
  6
Continuous
 62
     7
370
    25
100
AcDbLine
 10
1366.4766842413
 20
429.6681652275
 30
0.0
 11
1366.4766842413
 21
428.0681652275
 31
0.0
  0
LINE
  5
159
330
1F
100
AcDbEntity
  8
0
  6
Continuous
 62
     7
370
    25
100
AcDbLine
 10
1378.4766842413
 20
428.0681652275
 30
0.0
 11
1378.4766842413
 21
429.6681652275
 31
0.0
  0
LINE
  5
15A
330
1F
100
AcDbEntity
  8
0
  6
Continuous
 62
     7
370
    25
100
AcDbLine
 10
1378.4766842413
 20
-123.5318347725
 30
0.0
 11
1378.4766842413
 21
-121.9318347725
 31
0.0
  0
LINE
  5
15B
330
1F
100
AcDbEntity
  8
0
  6
Continuous
 62
     7
370
    25
100
AcDbLine
 10
1366.4766842413
 20
-121.9318347725
 30
0.0
 11
1366.4766842413
 21
-123.5318347725
 31
0.0
  0
ARC
  5
15C
330
1F
100
AcDbEntity
  8
0
  6
Continuous
 62
     7
370
    25
100
AcDbCircle
 10
1801.8100099187
 20
343.0681652275
 30
0.0
 40
7.100000000000001
100
AcDbArc
 50
249.2604779976
 51
136.2495147865
  0
ARC
  5
15D
330
1F
100
AcDbEntity
  8
0
  6
Continuous
 62
     7
370
    25
100
AcDbCircle
 10
1722.1486458991
 20
398.0681652276
 30
0.0
 40
7.099999999999994
100
AcDbArc
 50
181.2678349731
 51
72.0527719645
  0
ARC
  5
15E
330
1F
100
AcDbEntity
  8
0
  6
Continuous
 62
     7
370
    25
100
AcDbCircle
 10
1722.1486458991
 20
-91.9318347724
 30
0.0
 40
7.100000000000124
100
AcDbArc
 50
287.9472280373
 51
178.7321650274
  0
CIRCLE
  5
15F
330
1F
100
AcDbEntity
  8
0
  6
Continuous
 62
     7
370
    25
100
AcDbCircle
 10
1572.1486458991
 20
-91.9318347724
 30
0.0
 40
7.099999999999909
  0
CIRCLE
  5
160
330
1F
100
AcDbEntity
  8
0
  6
Continuous
 62
     7
370
    25
100
AcDbCircle
 10
1572.1486458991
 20
398.0681652276
 30
0.0
 40
7.099999999999909
  0
ARC
  5
161
330
1F
100
AcDbEntity
  8
0
  6
Continuous
 62
     7
370
    25
100
AcDbCircle
 10
1801.8100099187
 20
-36.9318347725
 30
0.0
 40
7.099999999999976
100
AcDbArc
 50
223.7504852133
 51
110.7395220026
  0
LINE
  5
162
330
1F
100
AcDbEntity
  8
0
  6
Continuous
 62
     7
370
    25
100
AcDbLine
 10
1573.6393630283
 20
505.8529729806
 30
0.0
 11
1573.6393630283
 21
429.8833574746
 31
0.0
  0
ARC
  5
163
330
1F
100
AcDbEntity
  8
0
  6
Continuous
 62
     7
370
    25
100
AcDbCircle
 10
1575.6216431088
 20
505.8971862142
 30
0.0
 40
1.971253784211642
100
AcDbArc
 50
89.0433419221
 51
182.0603214249
  0
ARC
  5
164
330
1F
100
AcDbEntity
  8
0
  6
Continuous
 62
     7
370
    25
100
AcDbCircle
 10
1575.6277366825
 20
429.8383029282
 30
0.0
 40
1.970320226901576
100
AcDbArc
 50
178.0446092568
 51
270.7798933435
  0
ARC
  5
165
330
1F
100
AcDbEntity
  8
0
  6
Continuous
 62
     7
370
    25
100
AcDbCircle
 10
1575.6216431088
 20
-123.7028137859
 30
0.0
 40
1.971253784210981
100
AcDbArc
 50
89.0433419221
 51
182.0603214249
  0
LINE
  5
166
330
1F
100
AcDbEntity
  8
0
  6
Continuous
 62
     7
370
    25
100
AcDbLine
 10
1573.6393630283
 20
-123.7470270195
 30
0.0
 11
1573.6393630283
 21
-199.7166425255
 31
0.0
  0
ARC
  5
167
330
1F
100
AcDbEntity
  8
0
  6
Continuous
 62
     7
370
    25
100
AcDbCircle
 10
1575.6277366825
 20
-199.7616970718
 30
0.0
 40
1.970320226901798
100
AcDbArc
 50
178.0446092568
 51
270.7798933435
  0
LINE
  5
168
330
1F
100
AcDbEntity
  8
0
  6
Continuous
 62
     7
370
    25
100
AcDbLine
 10
1632.7552709129
 20
-121.7318347725
 30
0.0
 11
1632.7552709129
 21
427.8681652276
 31
0.0
  0
LINE
  5
169
330
1F
100
AcDbEntity
  8
0
  6
Continuous
 62
     7
370
    25
100
AcDbLine
 10
1605.8552709129
 20
427.8681652276
 30
0.0
 11
1605.8552709129
 21
-121.7318347725
 31
0.0
  0
ARC
  5
16A
330
1F
100
AcDbEntity
  8
0
  6
Continuous
 62
     7
370
    25
100
AcDbCircle
 10
1441.8973667028
 20
430.1490114409
 30
0.0
 40
11.36104563770598
100
AcDbArc
 50
349.4463448468
 51
4.6405283008
  0
ARC
  5
16B
330
1F
100
AcDbEntity
  8
0
  6
Continuous
 62
     7
370
    25
100
AcDbCircle
 10
1441.8973667014
 20
440.9873190141
 30
0.0
 40
11.36104563917524
100
AcDbArc
 50
355.3594717002
 51
10.5536551523
  0
LINE
  5
16C
330
1F
100
AcDbEntity
  8
0
  6
Continuous
 62
     7
370
    25
100
AcDbLine
 10
1453.0662268514
 20
443.0681652275
 30
0.0
 11
1563.2559911022
 21
443.0681652275
 31
0.0
  0
LINE
  5
16D
330
1F
100
AcDbEntity
  8
0
  6
Continuous
 62
     7
370
    25
100
AcDbLine
 10
1453.2211696991
 20
431.0681652275
 30
0.0
 11
1453.2211696991
 21
440.0681652275
 31
0.0
  0
LINE
  5
16E
330
1F
100
AcDbEntity
  8
0
  6
Continuous
 62
     7
370
    25
100
AcDbLine
 10
1438.548891567
 20
431.0681652275
 30
0.0
 11
1453.2211696991
 21
431.0681652275
 31
0.0
  0
ARC
  5
16F
330
1F
100
AcDbEntity
  8
0
  6
Continuous
 62
     7
370
    25
100
AcDbCircle
 10
1416.0965820985
 20
430.319007755
 30
0.0
 40
22.46480441465945
100
AcDbArc
 50
354.2496480019
 51
1.9110569755
  0
LINE
  5
170
330
1F
100
AcDbEntity
  8
0
  6
Continuous
 62
     7
370
    25
100
AcDbLine
 10
1453.2211696991
 20
440.0681652275
 30
0.0
 11
1438.548891567
 21
440.0681652275
 31
0.0
  0
ARC
  5
171
330
1F
100
AcDbEntity
  8
0
  6
Continuous
 62
     7
370
    25
100
AcDbCircle
 10
1416.0965820969
 20
440.8173227001
 30
0.0
 40
22.46480441626434
100
AcDbArc
 50
358.0889430247
 51
5.7503519977
  0
LINE
  5
172
330
1F
100
AcDbEntity
  8
0
  6
Continuous
 62
     7
370
    25
100
AcDbLine
 10
1438.4483414321
 20
443.0681652275
 30
0.0
 11
1453.0662268514
 21
443.0681652275
 31
0.0
  0
LINE
  5
173
330
1F
100
AcDbEntity
  8
0
  6
Continuous
 62
     7
370
    25
100
AcDbLine
 10
1438.548891567
 20
431.0681652275
 30
0.0
 11
1438.548891567
 21
440.0681652275
 31
0.0
  0
LINE
  5
174
330
1F
100
AcDbEntity
  8
0
  6
Continuous
 62
     7
370
    25
100
AcDbLine
 10
1438.548891567
 20
440.0681652275
 30
0.0
 11
1410.6591101084
 21
440.0681652275
 31
0.0
  0
ARC
  5
175
330
1F
100
AcDbEntity
  8
0
  6
Continuous
 62
     7
370
    25
100
AcDbCircle
 10
1413.658267581
 20
440.069007755
 30
0.0
 40
2.999157591005218
100
AcDbArc
 50
90.0161046576
 51
180.0160956093
  0
LINE
  5
176
330
1F
100
AcDbEntity
  8
0
  6
Continuous
 62
     7
370
    25
100
AcDbLine
 10
1413.6574245799
 20
443.0681652275
 30
0.0
 11
1438.4483414321
 21
443.0681652275
 31
0.0
  0
ARC
  5
177
330
1F
100
AcDbEntity
  8
0
  6
Continuous
 62
     7
370
    25
100
AcDbCircle
 10
1413.658267581
 20
431.0673227
 30
0.0
 40
2.999157590985454
100
AcDbArc
 50
179.9839043903
 51
269.9838953426
  0
LINE
  5
178
330
1F
100
AcDbEntity
  8
0
  6
Continuous
 62
     7
370
    25
100
AcDbLine
 10
1410.6591101084
 20
431.0681652275
 30
0.0
 11
1438.548891567
 21
431.0681652275
 31
0.0
  0
LINE
  5
179
330
1F
100
AcDbEntity
  8
0
  6
Continuous
 62
     7
370
    25
100
AcDbLine
 10
1410.6591101084
 20
431.0681652275
 30
0.0
 11
1410.6591101084
 21
440.0681652275
 31
0.0
  0
ARC
  5
17A
330
1F
100
AcDbEntity
  8
0
  6
Continuous
 62
     7
370
    25
100
AcDbCircle
 10
1410.3084359582
 20
431.0673227001
 30
0.0
 40
2.999157591004613
100
AcDbArc
 50
179.9839043907
 51
269.9838953424
  0
LINE
  5
17B
330
1F
100
AcDbEntity
  8
0
  6
Continuous
 62
     7
370
    25
100
AcDbLine
 10
1407.3092784856
 20
431.0681652275
 30
0.0
 11
1410.6591101084
 21
431.0681652275
 31
0.0
  0
LINE
  5
17C
330
1F
100
AcDbEntity
  8
0
  6
Continuous
 62
     7
370
    25
100
AcDbLine
 10
1410.6591101084
 20
440.0681652275
 30
0.0
 11
1407.3092784856
 21
440.0681652275
 31
0.0
  0
ARC
  5
17D
330
1F
100
AcDbEntity
  8
0
  6
Continuous
 62
     7
370
    25
100
AcDbCircle
 10
1410.3084359582
 20
440.069007755
 30
0.0
 40
2.999157590995574
100
AcDbArc
 50
90.0161046575
 51
180.0160956095
  0
LINE
  5
17E
330
1F
100
AcDbEntity
  8
0
  6
Continuous
 62
     7
370
    25
100
AcDbLine
 10
1410.3075929571
 20
443.0681652275
 30
0.0
 11
1413.6574245799
 21
443.0681652275
 31
0.0
  0
LINE
  5
17F
330
1F
100
AcDbEntity
  8
0
  6
Continuous
 62
     7
370
    25
100
AcDbLine
 10
1407.3092784856
 20
431.0681652275
 30
0.0
 11
1407.3092784856
 21
440.0681652275
 31
0.0
  0
ARC
  5
180
330
1F
100
AcDbEntity
  8
0
  6
Continuous
 62
     7
370
    25
100
AcDbCircle
 10
1395.8817890108
 20
431.0194534851
 30
0.0
 40
2.951718148957915
100
AcDbArc
 50
179.0544137975
 51
269.0221216205
  0
LINE
  5
181
330
1F
100
AcDbEntity
  8
0
  6
Continuous
 62
     7
370
    25
100
AcDbLine
 10
1392.9304728304
 20
431.0681652275
 30
0.0
 11
1407.3092784856
 21
431.0681652275
 31
0.0
  0
LINE
  5
182
330
1F
100
AcDbEntity
  8
0
  6
Continuous
 62
     7
370
    25
100
AcDbLine
 10
1407.3092784856
 20
440.0681652275
 30
0.0
 11
1392.9304728304
 21
440.0681652275
 31
0.0
  0
ARC
  5
183
330
1F
100
AcDbEntity
  8
0
  6
Continuous
 62
     7
370
    25
100
AcDbCircle
 10
1395.8817890109
 20
440.11687697
 30
0.0
 40
2.951718148972014
100
AcDbArc
 50
90.9778783797
 51
180.9455862022
  0
LINE
  5
184
330
1F
100
AcDbEntity
  8
0
  6
Continuous
 62
     7
370
    25
100
AcDbLine
 10
1395.8314139002
 20
443.0681652275
 30
0.0
 11
1410.3075929571
 21
443.0681652275
 31
0.0
  0
LINE
  5
185
330
1F
100
AcDbEntity
  8
0
  6
Continuous
 62
     7
370
    25
100
AcDbLine
 10
1392.9304728304
 20
431.0681652275
 30
0.0
 11
1392.9304728304
 21
440.0681652275
 31
0.0
  0
LINE
  5
186
330
1F
100
AcDbEntity
  8
0
  6
Continuous
 62
     7
370
    25
100
AcDbLine
 10
1395.73235497
 20
443.0681652275
 30
0.0
 11
1395.8314139002
 21
443.0681652275
 31
0.0
  0
ARC
  5
187
330
1F
100
AcDbEntity
  8
0
  6
Continuous
 62
     7
370
    25
100
AcDbCircle
 10
1441.8973667014
 20
-124.0126809859
 30
0.0
 40
11.36104563910595
100
AcDbArc
 50
355.3594717002
 51
10.5536551523
  0
LINE
  5
188
330
1F
100
AcDbEntity
  8
0
  6
Continuous
 62
     7
370
    25
100
AcDbLine
 10
1563.2559911022
 20
-136.9318347725
 30
0.0
 11
1453.0662268514
 21
-136.9318347725
 31
0.0
  0
ARC
  5
189
330
1F
100
AcDbEntity
  8
0
  6
Continuous
 62
     7
370
    25
100
AcDbCircle
 10
1441.8973667029
 20
-134.8509885591
 30
0.0
 40
11.36104563766678
100
AcDbArc
 50
349.4463448467
 51
4.6405283008
  0
LINE
  5
18A
330
1F
100
AcDbEntity
  8
0
  6
Continuous
 62
     7
370
    25
100
AcDbLine
 10
1453.2211696991
 20
-133.9318347725
 30
0.0
 11
1453.2211696991
 21
-124.9318347725
 31
0.0
  0
LINE
  5
18B
330
1F
100
AcDbEntity
  8
0
  6
Continuous
 62
     7
370
    25
100
AcDbLine
 10
1453.2211696991
 20
-124.9318347725
 30
0.0
 11
1438.548891567
 21
-124.9318347725
 31
0.0
  0
ARC
  5
18C
330
1F
100
AcDbEntity
  8
0
  6
Continuous
 62
     7
370
    25
100
AcDbCircle
 10
1416.096582097
 20
-124.1826772999
 30
0.0
 40
22.46480441613745
100
AcDbArc
 50
358.0889430246
 51
5.7503519978
  0
LINE
  5
18D
330
1F
100
AcDbEntity
  8
0
  6
Continuous
 62
     7
370
    25
100
AcDbLine
 10
1438.548891567
 20
-133.9318347725
 30
0.0
 11
1453.2211696991
 21
-133.9318347725
 31
0.0
  0
ARC
  5
18E
330
1F
100
AcDbEntity
  8
0
  6
Continuous
 62
     7
370
    25
100
AcDbCircle
 10
1416.0965820985
 20
-134.680992245
 30
0.0
 40
22.46480441465468
100
AcDbArc
 50
354.2496480019
 51
1.9110569755
  0
LINE
  5
18F
330
1F
100
AcDbEntity
  8
0
  6
Continuous
 62
     7
370
    25
100
AcDbLine
 10
1453.0662268514
 20
-136.9318347725
 30
0.0
 11
1438.4483414321
 21
-136.9318347725
 31
0.0
  0
LINE
  5
190
330
1F
100
AcDbEntity
  8
0
  6
Continuous
 62
     7
370
    25
100
AcDbLine
 10
1438.548891567
 20
-133.9318347725
 30
0.0
 11
1438.548891567
 21
-124.9318347725
 31
0.0
  0
LINE
  5
191
330
1F
100
AcDbEntity
  8
0
  6
Continuous
 62
     7
370
    25
100
AcDbLine
 10
1438.548891567
 20
-124.9318347725
 30
0.0
 11
1410.6591101084
 21
-124.9318347725
 31
0.0
  0
ARC
  5
192
330
1F
100
AcDbEntity
  8
0
  6
Continuous
 62
     7
370
    25
100
AcDbCircle
 10
1413.658267581
 20
-124.930992245
 30
0.0
 40
2.99915759100499
100
AcDbArc
 50
90.0161046576
 51
180.0160956093
  0
ARC
  5
193
330
1F
100
AcDbEntity
  8
0
  6
Continuous
 62
     7
370
    25
100
AcDbCircle
 10
1413.658267581
 20
-133.9326773
 30
0.0
 40
2.999157590985227
100
AcDbArc
 50
179.9839043903
 51
269.9838953426
  0
LINE
  5
194
330
1F
100
AcDbEntity
  8
0
  6
Continuous
 62
     7
370
    25
100
AcDbLine
 10
1410.6591101084
 20
-133.9318347725
 30
0.0
 11
1438.548891567
 21
-133.9318347725
 31
0.0
  0
LINE
  5
195
330
1F
100
AcDbEntity
  8
0
  6
Continuous
 62
     7
370
    25
100
AcDbLine
 10
1438.4483414321
 20
-136.9318347725
 30
0.0
 11
1413.6574245799
 21
-136.9318347725
 31
0.0
  0
LINE
  5
196
330
1F
100
AcDbEntity
  8
0
  6
Continuous
 62
     7
370
    25
100
AcDbLine
 10
1410.6591101084
 20
-133.9318347725
 30
0.0
 11
1410.6591101084
 21
-124.9318347725
 31
0.0
  0
ARC
  5
197
330
1F
100
AcDbEntity
  8
0
  6
Continuous
 62
     7
370
    25
100
AcDbCircle
 10
1410.3084359582
 20
-133.9326772999
 30
0.0
 40
2.999157591004641
100
AcDbArc
 50
179.9839043907
 51
269.9838953424
  0
LINE
  5
198
330
1F
100
AcDbEntity
  8
0
  6
Continuous
 62
     7
370
    25
100
AcDbLine
 10
1407.3092784856
 20
-133.9318347725
 30
0.0
 11
1410.6591101084
 21
-133.9318347725
 31
0.0
  0
LINE
  5
199
330
1F
100
AcDbEntity
  8
0
  6
Continuous
 62
     7
370
    25
100
AcDbLine
 10
1413.6574245799
 20
-136.9318347725
 30
0.0
 11
1410.3075929571
 21
-136.9318347725
 31
0.0
  0
LINE
  5
19A
330
1F
100
AcDbEntity
  8
0
  6
Continuous
 62
     7
370
    25
100
AcDbLine
 10
1410.6591101084
 20
-124.9318347725
 30
0.0
 11
1407.3092784856
 21
-124.9318347725
 31
0.0
  0
ARC
  5
19B
330
1F
100
AcDbEntity
  8
0
  6
Continuous
 62
     7
370
    25
100
AcDbCircle
 10
1410.3084359582
 20
-124.930992245
 30
0.0
 40
2.999157590995204
100
AcDbArc
 50
90.0161046575
 51
180.0160956095
  0
LINE
  5
19C
330
1F
100
AcDbEntity
  8
0
  6
Continuous
 62
     7
370
    25
100
AcDbLine
 10
1407.3092784856
 20
-133.9318347725
 30
0.0
 11
1407.3092784856
 21
-124.9318347725
 31
0.0
  0
ARC
  5
19D
330
1F
100
AcDbEntity
  8
0
  6
Continuous
 62
     7
370
    25
100
AcDbCircle
 10
1395.8817890108
 20
-133.9805465149
 30
0.0
 40
2.951718148957734
100
AcDbArc
 50
179.0544137975
 51
269.0221216205
  0
LINE
  5
19E
330
1F
100
AcDbEntity
  8
0
  6
Continuous
 62
     7
370
    25
100
AcDbLine
 10
1392.9304728304
 20
-133.9318347725
 30
0.0
 11
1407.3092784856
 21
-133.9318347725
 31
0.0
  0
LINE
  5
19F
330
1F
100
AcDbEntity
  8
0
  6
Continuous
 62
     7
370
    25
100
AcDbLine
 10
1410.3075929571
 20
-136.9318347725
 30
0.0
 11
1395.8314139002
 21
-136.9318347725
 31
0.0
  0
LINE
  5
1A0
330
1F
100
AcDbEntity
  8
0
  6
Continuous
 62
     7
370
    25
100
AcDbLine
 10
1407.3092784856
 20
-124.9318347725
 30
0.0
 11
1392.9304728304
 21
-124.9318347725
 31
0.0
  0
ARC
  5
1A1
330
1F
100
AcDbEntity
  8
0
  6
Continuous
 62
     7
370
    25
100
AcDbCircle
 10
1395.8817890109
 20
-124.88312303
 30
0.0
 40
2.951718148971787
100
AcDbArc
 50
90.9778783797
 51
180.9455862022
  0
LINE
  5
1A2
330
1F
100
AcDbEntity
  8
0
  6
Continuous
 62
     7
370
    25
100
AcDbLine
 10
1392.9304728304
 20
-133.9318347725
 30
0.0
 11
1392.9304728304
 21
-124.9318347725
 31
0.0
  0
LINE
  5
1A3
330
1F
100
AcDbEntity
  8
0
  6
Continuous
 62
     7
370
    25
100
AcDbLine
 10
1395.8314139002
 20
-136.9318347725
 30
0.0
 11
1395.73235497
 21
-136.9318347725
 31
0.0
  0
ARC
  5
1A4
330
1F
100
AcDbEntity
  8
0
  6
Continuous
 62
     7
370
    25
100
AcDbCircle
 10
1742.063590382
 20
415.8681223891
 30
0.0
 40
2.809685601774619
100
AcDbArc
 50
274.7693123281
 51
4.0827756121
  0
LINE
  5
1A5
330
1F
100
AcDbEntity
  8
0
  6
Continuous
 62
     7
370
    25
100
AcDbLine
 10
1742.2971991875
 20
413.0681652275
 30
0.0
 11
1632.7552709129
 21
413.0681652275
 31
0.0
  0
LINE
  5
1A6
330
1F
100
AcDbEntity
  8
0
  6
Continuous
 62
     7
370
    25
100
AcDbLine
 10
1605.8552709129
 20
413.0681652275
 30
0.0
 11
1520.8728297277
 21
413.0681652275
 31
0.0
  0
ARC
  5
1A7
330
1F
100
AcDbEntity
  8
0
  6
Continuous
 62
     7
370
    25
100
AcDbCircle
 10
1520.9326930742
 20
416.0106433074
 30
0.0
 40
2.943086962799531
100
AcDbArc
 50
178.880096592
 51
268.8345048245
  0
LINE
  5
1A8
330
1F
100
AcDbEntity
  8
0
  6
Continuous
 62
     7
370
    25
100
AcDbLine
 10
1520.8728297277
 20
428.0681652275
 30
0.0
 11
1574.7335039135
 21
428.0681652275
 31
0.0
  0
LINE
  5
1A9
330
1F
100
AcDbEntity
  8
0
  6
Continuous
 62
     7
370
    25
100
AcDbLine
 10
1667.4606269517
 20
428.0681652275
 30
0.0
 11
1742.2971991875
 21
428.0681652275
 31
0.0
  0
ARC
  5
1AA
330
1F
100
AcDbEntity
  8
0
  6
Continuous
 62
     7
370
    25
100
AcDbCircle
 10
1742.063590382
 20
425.2682080659
 30
0.0
 40
2.809685601774495
100
AcDbArc
 50
355.9172243879
 51
85.2306876719
  0
ARC
  5
1AB
330
1F
100
AcDbEntity
  8
0
  6
Continuous
 62
     7
370
    25
100
AcDbCircle
 10
1520.9326930742
 20
425.1256871477
 30
0.0
 40
2.943086962799474
100
AcDbArc
 50
91.1654951755
 51
181.119903408
  0
LINE
  5
1AC
330
1F
100
AcDbEntity
  8
0
  6
Continuous
 62
     7
370
    25
100
AcDbLine
 10
1744.8661456524
 20
416.0681652275
 30
0.0
 11
1744.8661456524
 21
425.0681652275
 31
0.0
  0
LINE
  5
1AD
330
1F
100
AcDbEntity
  8
0
  6
Continuous
 62
     7
370
    25
100
AcDbLine
 10
1517.9901682911
 20
416.0681652275
 30
0.0
 11
1517.9901682911
 21
425.0681652275
 31
0.0
  0
LINE
  5
1AE
330
1F
100
AcDbEntity
  8
0
  6
Continuous
 62
     7
370
    25
100
AcDbLine
 10
1744.8661456524
 20
416.0681652275
 30
0.0
 11
1813.9127685045
 21
416.0681652275
 31
0.0
  0
ARC
  5
1AF
330
1F
100
AcDbEntity
  8
0
  6
Continuous
 62
     7
370
    25
100
AcDbCircle
 10
1811.0032410389
 20
415.9774984248
 30
0.0
 40
2.910939803918057
100
AcDbArc
 50
271.9036880255
 51
1.7848756071
  0
LINE
  5
1B0
330
1F
100
AcDbEntity
  8
0
  6
Continuous
 62
     7
370
    25
100
AcDbLine
 10
1811.0999410361
 20
413.0681652275
 30
0.0
 11
1742.2971991875
 21
413.0681652275
 31
0.0
  0
ARC
  5
1B1
330
1F
100
AcDbEntity
  8
0
  6
Continuous
 62
     7
370
    25
100
AcDbCircle
 10
1811.0032410389
 20
425.1588320303
 30
0.0
 40
2.910939803918499
100
AcDbArc
 50
358.2151243929
 51
88.0963119745
  0
LINE
  5
1B2
330
1F
100
AcDbEntity
  8
0
  6
Continuous
 62
     7
370
    25
100
AcDbLine
 10
1813.9127685045
 20
425.0681652275
 30
0.0
 11
1744.8661456524
 21
425.0681652275
 31
0.0
  0
LINE
  5
1B3
330
1F
100
AcDbEntity
  8
0
  6
Continuous
 62
     7
370
    25
100
AcDbLine
 10
1742.2971991875
 20
428.0681652275
 30
0.0
 11
1811.0999410361
 21
428.0681652275
 31
0.0
  0
LINE
  5
1B4
330
1F
100
AcDbEntity
  8
0
  6
Continuous
 62
     7
370
    25
100
AcDbLine
 10
1813.9127685045
 20
416.0681652275
 30
0.0
 11
1813.9127685045
 21
425.0681652275
 31
0.0
  0
LINE
  5
1B5
330
1F
100
AcDbEntity
  8
0
  6
Continuous
 62
     7
370
    25
100
AcDbLine
 10
1463.265758406
 20
416.0681652275
 30
0.0
 11
1517.9901682911
 21
416.0681652275
 31
0.0
  0
ARC
  5
1B6
330
1F
100
AcDbEntity
  8
0
  6
Continuous
 62
     7
370
    25
100
AcDbCircle
 10
1466.2082831891
 20
416.0106433074
 30
0.0
 40
2.943086962799999
100
AcDbArc
 50
178.880096592
 51
268.8345048244
  0
LINE
  5
1B7
330
1F
100
AcDbEntity
  8
0
  6
Continuous
 62
     7
370
    25
100
AcDbLine
 10
1520.8728297277
 20
413.0681652275
 30
0.0
 11
1466.1484198426
 21
413.0681652275
 31
0.0
  0
LINE
  5
1B8
330
1F
100
AcDbEntity
  8
0
  6
Continuous
 62
     7
370
    25
100
AcDbLine
 10
1517.9901682911
 20
425.0681652275
 30
0.0
 11
1463.265758406
 21
425.0681652275
 31
0.0
  0
ARC
  5
1B9
330
1F
100
AcDbEntity
  8
0
  6
Continuous
 62
     7
370
    25
100
AcDbCircle
 10
1466.2082831891
 20
425.1256871477
 30
0.0
 40
2.943086962799607
100
AcDbArc
 50
91.1654951756
 51
181.119903408
  0
LINE
  5
1BA
330
1F
100
AcDbEntity
  8
0
  6
Continuous
 62
     7
370
    25
100
AcDbLine
 10
1466.1484198426
 20
428.0681652275
 30
0.0
 11
1520.8728297277
 21
428.0681652275
 31
0.0
  0
LINE
  5
1BB
330
1F
100
AcDbEntity
  8
0
  6
Continuous
 62
     7
370
    25
100
AcDbLine
 10
1463.265758406
 20
416.0681652275
 30
0.0
 11
1463.265758406
 21
425.0681652275
 31
0.0
  0
LINE
  5
1BC
330
1F
100
AcDbEntity
  8
0
  6
Continuous
 62
     7
370
    25
100
AcDbLine
 10
1811.5366769432
 20
413.0681652275
 30
0.0
 11
1811.0999410361
 21
413.0681652275
 31
0.0
  0
LINE
  5
1BD
330
1F
100
AcDbEntity
  8
0
  6
Continuous
 62
     7
370
    25
100
AcDbLine
 10
1811.0999410361
 20
428.0681652275
 30
0.0
 11
1811.5366769432
 21
428.0681652275
 31
0.0
  0
LINE
  5
1BE
330
1F
100
AcDbEntity
  8
0
  6
Continuous
 62
     7
370
    25
100
AcDbLine
 10
1811.5366769432
 20
428.0681652275
 30
0.0
 11
1835.6922425233
 21
428.0681652275
 31
0.0
  0
LINE
  5
1BF
330
1F
100
AcDbEntity
  8
0
  6
Continuous
 62
     7
370
    25
100
AcDbLine
 10
1835.6922425233
 20
413.0681652275
 30
0.0
 11
1811.5366769432
 21
413.0681652275
 31
0.0
  0
LINE
  5
1C0
330
1F
100
AcDbEntity
  8
0
  6
Continuous
 62
     7
370
    25
100
AcDbLine
 10
1453.3217198341
 20
416.0681652275
 30
0.0
 11
1463.265758406
 21
416.0681652275
 31
0.0
  0
ARC
  5
1C1
330
1F
100
AcDbEntity
  8
0
  6
Continuous
 62
     7
370
    25
100
AcDbCircle
 10
1430.8694103657
 20
415.319007755
 30
0.0
 40
22.46480441451089
100
AcDbArc
 50
354.2496480018
 51
1.9110569755
  0
LINE
  5
1C2
330
1F
100
AcDbEntity
  8
0
  6
Continuous
 62
     7
370
    25
100
AcDbLine
 10
1466.1484198426
 20
413.0681652275
 30
0.0
 11
1453.2211696991
 21
413.0681652275
 31
0.0
  0
LINE
  5
1C3
330
1F
100
AcDbEntity
  8
0
  6
Continuous
 62
     7
370
    25
100
AcDbLine
 10
1463.265758406
 20
425.0681652275
 30
0.0
 11
1453.3217198341
 21
425.0681652275
 31
0.0
  0
ARC
  5
1C4
330
1F
100
AcDbEntity
  8
0
  6
Continuous
 62
     7
370
    25
100
AcDbCircle
 10
1430.8694103657
 20
425.8173227001
 30
0.0
 40
22.46480441451384
100
AcDbArc
 50
358.0889430245
 51
5.7503519982
  0
LINE
  5
1C5
330
1F
100
AcDbEntity
  8
0
  6
Continuous
 62
     7
370
    25
100
AcDbLine
 10
1453.2211696991
 20
428.0681652275
 30
0.0
 11
1466.1484198426
 21
428.0681652275
 31
0.0
  0
LINE
  5
1C6
330
1F
100
AcDbEntity
  8
0
  6
Continuous
 62
     7
370
    25
100
AcDbLine
 10
1453.3217198341
 20
416.0681652275
 30
0.0
 11
1453.3217198341
 21
425.0681652275
 31
0.0
  0
LINE
  5
1C7
330
1F
100
AcDbEntity
  8
0
  6
Continuous
 62
     7
370
    25
100
AcDbLine
 10
1453.3217198341
 20
425.0681652275
 30
0.0
 11
1438.649441702
 21
425.0681652275
 31
0.0
  0
ARC
  5
1C8
330
1F
100
AcDbEntity
  8
0
  6
Continuous
 62
     7
370
    25
100
AcDbCircle
 10
1416.1971322336
 20
425.8173227001
 30
0.0
 40
22.46480441457899
100
AcDbArc
 50
358.0889430245
 51
5.7503519982
  0
LINE
  5
1C9
330
1F
100
AcDbEntity
  8
0
  6
Continuous
 62
     7
370
    25
100
AcDbLine
 10
1438.548891567
 20
428.0681652275
 30
0.0
 11
1453.2211696991
 21
428.0681652275
 31
0.0
  0
LINE
  5
1CA
330
1F
100
AcDbEntity
  8
0
  6
Continuous
 62
     7
370
    25
100
AcDbLine
 10
1438.649441702
 20
416.0681652275
 30
0.0
 11
1453.3217198341
 21
416.0681652275
 31
0.0
  0
ARC
  5
1CB
330
1F
100
AcDbEntity
  8
0
  6
Continuous
 62
     7
370
    25
100
AcDbCircle
 10
1416.1971322336
 20
415.319007755
 30
0.0
 40
22.46480441457989
100
AcDbArc
 50
354.2496480018
 51
1.9110569755
  0
LINE
  5
1CC
330
1F
100
AcDbEntity
  8
0
  6
Continuous
 62
     7
370
    25
100
AcDbLine
 10
1453.2211696991
 20
413.0681652275
 30
0.0
 11
1438.548891567
 21
413.0681652275
 31
0.0
  0
LINE
  5
1CD
330
1F
100
AcDbEntity
  8
0
  6
Continuous
 62
     7
370
    25
100
AcDbLine
 10
1438.649441702
 20
416.0681652275
 30
0.0
 11
1438.649441702
 21
425.0681652275
 31
0.0
  0
LINE
  5
1CE
330
1F
100
AcDbEntity
  8
0
  6
Continuous
 62
     7
370
    25
100
AcDbLine
 10
1438.649441702
 20
425.0681652275
 30
0.0
 11
1407.6607956368
 21
425.0681652275
 31
0.0
  0
ARC
  5
1CF
330
1F
100
AcDbEntity
  8
0
  6
Continuous
 62
     7
370
    25
100
AcDbCircle
 10
1410.6599531095
 20
425.069007755
 30
0.0
 40
2.999157591005444
100
AcDbArc
 50
90.0161046576
 51
180.0160956093
  0
LINE
  5
1D0
330
1F
100
AcDbEntity
  8
0
  6
Continuous
 62
     7
370
    25
100
AcDbLine
 10
1410.6591101084
 20
428.0681652275
 30
0.0
 11
1438.548891567
 21
428.0681652275
 31
0.0
  0
LINE
  5
1D1
330
1F
100
AcDbEntity
  8
0
  6
Continuous
 62
     7
370
    25
100
AcDbLine
 10
1407.6607956368
 20
416.0681652275
 30
0.0
 11
1438.649441702
 21
416.0681652275
 31
0.0
  0
LINE
  5
1D2
330
1F
100
AcDbEntity
  8
0
  6
Continuous
 62
     7
370
    25
100
AcDbLine
 10
1407.6607956368
 20
416.0681652275
 30
0.0
 11
1407.6607956368
 21
425.0681652275
 31
0.0
  0
ARC
  5
1D3
330
1F
100
AcDbEntity
  8
0
  6
Continuous
 62
     7
370
    25
100
AcDbCircle
 10
1410.6599531095
 20
416.0673227001
 30
0.0
 40
2.999157591005444
100
AcDbArc
 50
179.9839043907
 51
269.9838953424
  0
LINE
  5
1D4
330
1F
100
AcDbEntity
  8
0
  6
Continuous
 62
     7
370
    25
100
AcDbLine
 10
1438.548891567
 20
413.0681652275
 30
0.0
 11
1410.6591101084
 21
413.0681652275
 31
0.0
  0
LINE
  5
1D5
330
1F
100
AcDbEntity
  8
0
  6
Continuous
 62
     7
370
    25
100
AcDbLine
 10
1407.6607956368
 20
425.0681652275
 30
0.0
 11
1404.310964014
 21
425.0681652275
 31
0.0
  0
ARC
  5
1D6
330
1F
100
AcDbEntity
  8
0
  6
Continuous
 62
     7
370
    25
100
AcDbCircle
 10
1407.3101214867
 20
425.069007755
 30
0.0
 40
2.999157591005218
100
AcDbArc
 50
90.0161046576
 51
180.0160956093
  0
LINE
  5
1D7
330
1F
100
AcDbEntity
  8
0
  6
Continuous
 62
     7
370
    25
100
AcDbLine
 10
1407.3092784856
 20
428.0681652275
 30
0.0
 11
1410.6591101084
 21
428.0681652275
 31
0.0
  0
ARC
  5
1D8
330
1F
100
AcDbEntity
  8
0
  6
Continuous
 62
     7
370
    25
100
AcDbCircle
 10
1407.3101214867
 20
416.0673227001
 30
0.0
 40
2.999157591005218
100
AcDbArc
 50
179.9839043907
 51
269.9838953424
  0
LINE
  5
1D9
330
1F
100
AcDbEntity
  8
0
  6
Continuous
 62
     7
370
    25
100
AcDbLine
 10
1404.310964014
 20
416.0681652275
 30
0.0
 11
1407.6607956368
 21
416.0681652275
 31
0.0
  0
LINE
  5
1DA
330
1F
100
AcDbEntity
  8
0
  6
Continuous
 62
     7
370
    25
100
AcDbLine
 10
1410.6591101084
 20
413.0681652275
 30
0.0
 11
1407.3092784856
 21
413.0681652275
 31
0.0
  0
LINE
  5
1DB
330
1F
100
AcDbEntity
  8
0
  6
Continuous
 62
     7
370
    25
100
AcDbLine
 10
1404.310964014
 20
416.0681652275
 30
0.0
 11
1404.310964014
 21
425.0681652275
 31
0.0
  0
LINE
  5
1DC
330
1F
100
AcDbEntity
  8
0
  6
Continuous
 62
     7
370
    25
100
AcDbLine
 10
1404.310964014
 20
425.0681652275
 30
0.0
 11
1343.2809675526
 21
425.0681652275
 31
0.0
  0
ARC
  5
1DD
330
1F
100
AcDbEntity
  8
0
  6
Continuous
 62
     7
370
    25
100
AcDbCircle
 10
1346.0889679188
 20
425.2625184544
 30
0.0
 40
2.814718322142144
100
AcDbArc
 50
94.6012686922
 51
183.9593614852
  0
LINE
  5
1DE
330
1F
100
AcDbEntity
  8
0
  6
Continuous
 62
     7
370
    25
100
AcDbLine
 10
1345.863168412
 20
428.0681652275
 30
0.0
 11
1407.3092784856
 21
428.0681652275
 31
0.0
  0
ARC
  5
1DF
330
1F
100
AcDbEntity
  8
0
  6
Continuous
 62
     7
370
    25
100
AcDbCircle
 10
1346.0889679188
 20
415.8738120007
 30
0.0
 40
2.81471832214259
100
AcDbArc
 50
176.0406385148
 51
265.3987313078
  0
LINE
  5
1E0
330
1F
100
AcDbEntity
  8
0
  6
Continuous
 62
     7
370
    25
100
AcDbLine
 10
1343.2809675526
 20
416.0681652275
 30
0.0
 11
1404.310964014
 21
416.0681652275
 31
0.0
  0
LINE
  5
1E1
330
1F
100
AcDbEntity
  8
0
  6
Continuous
 62
     7
370
    25
100
AcDbLine
 10
1407.3092784856
 20
413.0681652275
 30
0.0
 11
1381.2660440095
 21
413.0681652275
 31
0.0
  0
LINE
  5
1E2
330
1F
100
AcDbEntity
  8
0
  6
Continuous
 62
     7
370
    25
100
AcDbLine
 10
1343.2809675526
 20
416.0681652275
 30
0.0
 11
1343.2809675526
 21
425.0681652275
 31
0.0
  0
ARC
  5
1E3
330
1F
100
AcDbEntity
  8
0
  6
Continuous
 62
     7
370
    25
100
AcDbCircle
 10
1334.4163434658
 20
415.8738120007
 30
0.0
 40
2.814718322142059
100
AcDbArc
 50
176.0406385148
 51
265.3987313078
  0
LINE
  5
1E4
330
1F
100
AcDbEntity
  8
0
  6
Continuous
 62
     7
370
    25
100
AcDbLine
 10
1331.6083430996
 20
416.0681652275
 30
0.0
 11
1343.2809675526
 21
416.0681652275
 31
0.0
  0
LINE
  5
1E5
330
1F
100
AcDbEntity
  8
0
  6
Continuous
 62
     7
370
    25
100
AcDbLine
 10
1343.2809675526
 20
425.0681652275
 30
0.0
 11
1331.6083430996
 21
425.0681652275
 31
0.0
  0
ARC
  5
1E6
330
1F
100
AcDbEntity
  8
0
  6
Continuous
 62
     7
370
    25
100
AcDbCircle
 10
1334.4163434658
 20
425.2625184544
 30
0.0
 40
2.814718322142059
100
AcDbArc
 50
94.6012686922
 51
183.9593614853
  0
LINE
  5
1E7
330
1F
100
AcDbEntity
  8
0
  6
Continuous
 62
     7
370
    25
100
AcDbLine
 10
1334.190543959
 20
428.0681652275
 30
0.0
 11
1345.863168412
 21
428.0681652275
 31
0.0
  0
LINE
  5
1E8
330
1F
100
AcDbEntity
  8
0
  6
Continuous
 62
     7
370
    25
100
AcDbLine
 10
1331.6083430996
 20
425.0681652275
 30
0.0
 11
1331.6083430996
 21
416.0681652275
 31
0.0
  0
LINE
  5
1E9
330
1F
100
AcDbEntity
  8
0
  6
Continuous
 62
     7
370
    25
100
AcDbLine
 10
1333.7727448183
 20
428.0681652275
 30
0.0
 11
1334.190543959
 21
428.0681652275
 31
0.0
  0
ARC
  5
1EA
330
1F
100
AcDbEntity
  8
0
  6
Continuous
 62
     7
370
    25
100
AcDbCircle
 10
1331.6097433563
 20
425.197971198
 30
0.0
 40
2.873741456482246
100
AcDbArc
 50
92.8471818223
 51
182.5889126661
  0
LINE
  5
1EB
330
1F
100
AcDbEntity
  8
0
  6
Continuous
 62
     7
370
    25
100
AcDbLine
 10
1331.4669981575
 20
428.0681652275
 30
0.0
 11
1333.7727448183
 21
428.0681652275
 31
0.0
  0
ARC
  5
1EC
330
1F
100
AcDbEntity
  8
0
  6
Continuous
 62
     7
370
    25
100
AcDbCircle
 10
1331.6097433563
 20
415.938359257
 30
0.0
 40
2.873741456482234
100
AcDbArc
 50
177.4110873339
 51
267.1528181777
  0
LINE
  5
1ED
330
1F
100
AcDbEntity
  8
0
  6
Continuous
 62
     7
370
    25
100
AcDbLine
 10
1328.7389350435
 20
425.0681652275
 30
0.0
 11
1328.7389350435
 21
416.0681652275
 31
0.0
  0
LINE
  5
1EE
330
1F
100
AcDbEntity
  8
0
  6
Continuous
 62
     7
370
    25
100
AcDbLine
 10
1331.1950612715
 20
428.0681652275
 30
0.0
 11
1331.4669981575
 21
428.0681652275
 31
0.0
  0
LINE
  5
1EF
330
1F
100
AcDbEntity
  8
0
  6
Continuous
 62
     7
370
    25
100
AcDbLine
 10
1520.8728297277
 20
-106.9318347725
 30
0.0
 11
1605.8552709129
 21
-106.9318347725
 31
0.0
  0
LINE
  5
1F0
330
1F
100
AcDbEntity
  8
0
  6
Continuous
 62
     7
370
    25
100
AcDbLine
 10
1632.7552709129
 20
-106.9318347725
 30
0.0
 11
1742.2971991875
 21
-106.9318347725
 31
0.0
  0
ARC
  5
1F1
330
1F
100
AcDbEntity
  8
0
  6
Continuous
 62
     7
370
    25
100
AcDbCircle
 10
1742.063590382
 20
-109.7317919341
 30
0.0
 40
2.809685601774277
100
AcDbArc
 50
355.9172243879
 51
85.2306876719
  0
ARC
  5
1F2
330
1F
100
AcDbEntity
  8
0
  6
Continuous
 62
     7
370
    25
100
AcDbCircle
 10
1520.9326930742
 20
-109.8743128523
 30
0.0
 40
2.943086962799758
100
AcDbArc
 50
91.1654951755
 51
181.119903408
  0
ARC
  5
1F3
330
1F
100
AcDbEntity
  8
0
  6
Continuous
 62
     7
370
    25
100
AcDbCircle
 10
1742.063590382
 20
-119.1318776109
 30
0.0
 40
2.809685601774317
100
AcDbArc
 50
274.7693123281
 51
4.0827756121
  0
LINE
  5
1F4
330
1F
100
AcDbEntity
  8
0
  6
Continuous
 62
     7
370
    25
100
AcDbLine
 10
1742.2971991875
 20
-121.9318347725
 30
0.0
 11
1667.4606269517
 21
-121.9318347725
 31
0.0
  0
LINE
  5
1F5
330
1F
100
AcDbEntity
  8
0
  6
Continuous
 62
     7
370
    25
100
AcDbLine
 10
1574.827753579
 20
-121.9318347725
 30
0.0
 11
1520.8728297277
 21
-121.9318347725
 31
0.0
  0
ARC
  5
1F6
330
1F
100
AcDbEntity
  8
0
  6
Continuous
 62
     7
370
    25
100
AcDbCircle
 10
1520.9326930742
 20
-118.9893566926
 30
0.0
 40
2.943086962799711
100
AcDbArc
 50
178.880096592
 51
268.8345048245
  0
LINE
  5
1F7
330
1F
100
AcDbEntity
  8
0
  6
Continuous
 62
     7
370
    25
100
AcDbLine
 10
1744.8661456524
 20
-118.9318347725
 30
0.0
 11
1744.8661456524
 21
-109.9318347725
 31
0.0
  0
LINE
  5
1F8
330
1F
100
AcDbEntity
  8
0
  6
Continuous
 62
     7
370
    25
100
AcDbLine
 10
1517.9901682911
 20
-118.9318347725
 30
0.0
 11
1517.9901682911
 21
-109.9318347725
 31
0.0
  0
LINE
  5
1F9
330
1F
100
AcDbEntity
  8
0
  6
Continuous
 62
     7
370
    25
100
AcDbLine
 10
1744.8661456524
 20
-118.9318347725
 30
0.0
 11
1813.9127685045
 21
-118.9318347725
 31
0.0
  0
ARC
  5
1FA
330
1F
100
AcDbEntity
  8
0
  6
Continuous
 62
     7
370
    25
100
AcDbCircle
 10
1811.0032410389
 20
-119.0225015752
 30
0.0
 40
2.910939803918164
100
AcDbArc
 50
271.9036880255
 51
1.7848756071
  0
LINE
  5
1FB
330
1F
100
AcDbEntity
  8
0
  6
Continuous
 62
     7
370
    25
100
AcDbLine
 10
1811.0999410361
 20
-121.9318347725
 30
0.0
 11
1742.2971991875
 21
-121.9318347725
 31
0.0
  0
ARC
  5
1FC
330
1F
100
AcDbEntity
  8
0
  6
Continuous
 62
     7
370
    25
100
AcDbCircle
 10
1811.0032410389
 20
-109.8411679697
 30
0.0
 40
2.910939803918398
100
AcDbArc
 50
358.2151243929
 51
88.0963119745
  0
LINE
  5
1FD
330
1F
100
AcDbEntity
  8
0
  6
Continuous
 62
     7
370
    25
100
AcDbLine
 10
1813.9127685045
 20
-109.9318347725
 30
0.0
 11
1744.8661456524
 21
-109.9318347725
 31
0.0
  0
LINE
  5
1FE
330
1F
100
AcDbEntity
  8
0
  6
Continuous
 62
     7
370
    25
100
AcDbLine
 10
1742.2971991875
 20
-106.9318347725
 30
0.0
 11
1811.0999410361
 21
-106.9318347725
 31
0.0
  0
LINE
  5
1FF
330
1F
100
AcDbEntity
  8
0
  6
Continuous
 62
     7
370
    25
100
AcDbLine
 10
1813.9127685045
 20
-118.9318347725
 30
0.0
 11
1813.9127685045
 21
-109.9318347725
 31
0.0
  0
LINE
  5
200
330
1F
100
AcDbEntity
  8
0
  6
Continuous
 62
     7
370
    25
100
AcDbLine
 10
1463.265758406
 20
-118.9318347725
 30
0.0
 11
1517.9901682911
 21
-118.9318347725
 31
0.0
  0
ARC
  5
201
330
1F
100
AcDbEntity
  8
0
  6
Continuous
 62
     7
370
    25
100
AcDbCircle
 10
1466.2082831891
 20
-118.9893566926
 30
0.0
 40
2.943086962799938
100
AcDbArc
 50
178.880096592
 51
268.8345048244
  0
LINE
  5
202
330
1F
100
AcDbEntity
  8
0
  6
Continuous
 62
     7
370
    25
100
AcDbLine
 10
1520.8728297277
 20
-121.9318347725
 30
0.0
 11
1466.1484198426
 21
-121.9318347725
 31
0.0
  0
LINE
  5
203
330
1F
100
AcDbEntity
  8
0
  6
Continuous
 62
     7
370
    25
100
AcDbLine
 10
1517.9901682911
 20
-109.9318347725
 30
0.0
 11
1463.265758406
 21
-109.9318347725
 31
0.0
  0
ARC
  5
204
330
1F
100
AcDbEntity
  8
0
  6
Continuous
 62
     7
370
    25
100
AcDbCircle
 10
1466.2082831891
 20
-109.8743128523
 30
0.0
 40
2.943086962800051
100
AcDbArc
 50
91.1654951756
 51
181.119903408
  0
LINE
  5
205
330
1F
100
AcDbEntity
  8
0
  6
Continuous
 62
     7
370
    25
100
AcDbLine
 10
1466.1484198426
 20
-106.9318347725
 30
0.0
 11
1520.8728297277
 21
-106.9318347725
 31
0.0
  0
LINE
  5
206
330
1F
100
AcDbEntity
  8
0
  6
Continuous
 62
     7
370
    25
100
AcDbLine
 10
1463.265758406
 20
-118.9318347725
 30
0.0
 11
1463.265758406
 21
-109.9318347725
 31
0.0
  0
LINE
  5
207
330
1F
100
AcDbEntity
  8
0
  6
Continuous
 62
     7
370
    25
100
AcDbLine
 10
1811.5366769432
 20
-121.9318347725
 30
0.0
 11
1811.0999410361
 21
-121.9318347725
 31
0.0
  0
LINE
  5
208
330
1F
100
AcDbEntity
  8
0
  6
Continuous
 62
     7
370
    25
100
AcDbLine
 10
1811.0999410361
 20
-106.9318347725
 30
0.0
 11
1811.5366769432
 21
-106.9318347725
 31
0.0
  0
LINE
  5
209
330
1F
100
AcDbEntity
  8
0
  6
Continuous
 62
     7
370
    25
100
AcDbLine
 10
1835.6922425233
 20
-121.9318347725
 30
0.0
 11
1811.5366769432
 21
-121.9318347725
 31
0.0
  0
LINE
  5
20A
330
1F
100
AcDbEntity
  8
0
  6
Continuous
 62
     7
370
    25
100
AcDbLine
 10
1811.5366769432
 20
-106.9318347725
 30
0.0
 11
1835.6922425233
 21
-106.9318347725
 31
0.0
  0
LINE
  5
20B
330
1F
100
AcDbEntity
  8
0
  6
Continuous
 62
     7
370
    25
100
AcDbLine
 10
1453.3217198341
 20
-118.9318347725
 30
0.0
 11
1463.265758406
 21
-118.9318347725
 31
0.0
  0
ARC
  5
20C
330
1F
100
AcDbEntity
  8
0
  6
Continuous
 62
     7
370
    25
100
AcDbCircle
 10
1430.8694103656
 20
-119.680992245
 30
0.0
 40
22.46480441457626
100
AcDbArc
 50
354.2496480018
 51
1.9110569755
  0
LINE
  5
20D
330
1F
100
AcDbEntity
  8
0
  6
Continuous
 62
     7
370
    25
100
AcDbLine
 10
1466.1484198426
 20
-121.9318347725
 30
0.0
 11
1453.2211696991
 21
-121.9318347725
 31
0.0
  0
LINE
  5
20E
330
1F
100
AcDbEntity
  8
0
  6
Continuous
 62
     7
370
    25
100
AcDbLine
 10
1463.265758406
 20
-109.9318347725
 30
0.0
 11
1453.3217198341
 21
-109.9318347725
 31
0.0
  0
ARC
  5
20F
330
1F
100
AcDbEntity
  8
0
  6
Continuous
 62
     7
370
    25
100
AcDbCircle
 10
1430.8694103656
 20
-109.1826772999
 30
0.0
 40
22.46480441458216
100
AcDbArc
 50
358.0889430245
 51
5.7503519982
  0
LINE
  5
210
330
1F
100
AcDbEntity
  8
0
  6
Continuous
 62
     7
370
    25
100
AcDbLine
 10
1453.2211696991
 20
-106.9318347725
 30
0.0
 11
1466.1484198426
 21
-106.9318347725
 31
0.0
  0
LINE
  5
211
330
1F
100
AcDbEntity
  8
0
  6
Continuous
 62
     7
370
    25
100
AcDbLine
 10
1453.3217198341
 20
-118.9318347725
 30
0.0
 11
1453.3217198341
 21
-109.9318347725
 31
0.0
  0
LINE
  5
212
330
1F
100
AcDbEntity
  8
0
  6
Continuous
 62
     7
370
    25
100
AcDbLine
 10
1438.649441702
 20
-118.9318347725
 30
0.0
 11
1453.3217198341
 21
-118.9318347725
 31
0.0
  0
ARC
  5
213
330
1F
100
AcDbEntity
  8
0
  6
Continuous
 62
     7
370
    25
100
AcDbCircle
 10
1416.1971322336
 20
-119.680992245
 30
0.0
 40
22.46480441448864
100
AcDbArc
 50
354.2496480018
 51
1.9110569755
  0
LINE
  5
214
330
1F
100
AcDbEntity
  8
0
  6
Continuous
 62
     7
370
    25
100
AcDbLine
 10
1453.2211696991
 20
-121.9318347725
 30
0.0
 11
1438.548891567
 21
-121.9318347725
 31
0.0
  0
LINE
  5
215
330
1F
100
AcDbEntity
  8
0
  6
Continuous
 62
     7
370
    25
100
AcDbLine
 10
1453.3217198341
 20
-109.9318347725
 30
0.0
 11
1438.649441702
 21
-109.9318347725
 31
0.0
  0
ARC
  5
216
330
1F
100
AcDbEntity
  8
0
  6
Continuous
 62
     7
370
    25
100
AcDbCircle
 10
1416.1971322336
 20
-109.1826772999
 30
0.0
 40
22.46480441448932
100
AcDbArc
 50
358.0889430245
 51
5.7503519982
  0
LINE
  5
217
330
1F
100
AcDbEntity
  8
0
  6
Continuous
 62
     7
370
    25
100
AcDbLine
 10
1438.548891567
 20
-106.9318347725
 30
0.0
 11
1453.2211696991
 21
-106.9318347725
 31
0.0
  0
LINE
  5
218
330
1F
100
AcDbEntity
  8
0
  6
Continuous
 62
     7
370
    25
100
AcDbLine
 10
1438.649441702
 20
-118.9318347725
 30
0.0
 11
1438.649441702
 21
-109.9318347725
 31
0.0
  0
LINE
  5
219
330
1F
100
AcDbEntity
  8
0
  6
Continuous
 62
     7
370
    25
100
AcDbLine
 10
1438.649441702
 20
-109.9318347725
 30
0.0
 11
1407.6607956368
 21
-109.9318347725
 31
0.0
  0
LINE
  5
21A
330
1F
100
AcDbEntity
  8
0
  6
Continuous
 62
     7
370
    25
100
AcDbLine
 10
1407.6607956368
 20
-118.9318347725
 30
0.0
 11
1438.649441702
 21
-118.9318347725
 31
0.0
  0
LINE
  5
21B
330
1F
100
AcDbEntity
  8
0
  6
Continuous
 62
     7
370
    25
100
AcDbLine
 10
1407.6607956368
 20
-118.9318347725
 30
0.0
 11
1407.6607956368
 21
-109.9318347725
 31
0.0
  0
ARC
  5
21C
330
1F
100
AcDbEntity
  8
0
  6
Continuous
 62
     7
370
    25
100
AcDbCircle
 10
1410.6599531095
 20
-118.9326772999
 30
0.0
 40
2.999157591005218
100
AcDbArc
 50
179.9839043907
 51
269.9838953424
  0
LINE
  5
21D
330
1F
100
AcDbEntity
  8
0
  6
Continuous
 62
     7
370
    25
100
AcDbLine
 10
1438.548891567
 20
-121.9318347725
 30
0.0
 11
1410.6591101084
 21
-121.9318347725
 31
0.0
  0
ARC
  5
21E
330
1F
100
AcDbEntity
  8
0
  6
Continuous
 62
     7
370
    25
100
AcDbCircle
 10
1410.6599531095
 20
-109.930992245
 30
0.0
 40
2.999157591005218
100
AcDbArc
 50
90.0161046576
 51
180.0160956093
  0
LINE
  5
21F
330
1F
100
AcDbEntity
  8
0
  6
Continuous
 62
     7
370
    25
100
AcDbLine
 10
1410.6591101084
 20
-106.9318347725
 30
0.0
 11
1438.548891567
 21
-106.9318347725
 31
0.0
  0
ARC
  5
220
330
1F
100
AcDbEntity
  8
0
  6
Continuous
 62
     7
370
    25
100
AcDbCircle
 10
1407.3101214867
 20
-118.9326772999
 30
0.0
 40
2.999157591005218
100
AcDbArc
 50
179.9839043907
 51
269.9838953424
  0
LINE
  5
221
330
1F
100
AcDbEntity
  8
0
  6
Continuous
 62
     7
370
    25
100
AcDbLine
 10
1404.310964014
 20
-118.9318347725
 30
0.0
 11
1407.6607956368
 21
-118.9318347725
 31
0.0
  0
LINE
  5
222
330
1F
100
AcDbEntity
  8
0
  6
Continuous
 62
     7
370
    25
100
AcDbLine
 10
1410.6591101084
 20
-121.9318347725
 30
0.0
 11
1407.3092784856
 21
-121.9318347725
 31
0.0
  0
LINE
  5
223
330
1F
100
AcDbEntity
  8
0
  6
Continuous
 62
     7
370
    25
100
AcDbLine
 10
1407.6607956368
 20
-109.9318347725
 30
0.0
 11
1404.310964014
 21
-109.9318347725
 31
0.0
  0
ARC
  5
224
330
1F
100
AcDbEntity
  8
0
  6
Continuous
 62
     7
370
    25
100
AcDbCircle
 10
1407.3101214867
 20
-109.930992245
 30
0.0
 40
2.999157591004769
100
AcDbArc
 50
90.0161046576
 51
180.0160956093
  0
LINE
  5
225
330
1F
100
AcDbEntity
  8
0
  6
Continuous
 62
     7
370
    25
100
AcDbLine
 10
1407.3092784856
 20
-106.9318347725
 30
0.0
 11
1410.6591101084
 21
-106.9318347725
 31
0.0
  0
LINE
  5
226
330
1F
100
AcDbEntity
  8
0
  6
Continuous
 62
     7
370
    25
100
AcDbLine
 10
1404.310964014
 20
-118.9318347725
 30
0.0
 11
1404.310964014
 21
-109.9318347725
 31
0.0
  0
ARC
  5
227
330
1F
100
AcDbEntity
  8
0
  6
Continuous
 62
     7
370
    25
100
AcDbCircle
 10
1346.0889679188
 20
-119.1261879993
 30
0.0
 40
2.814718322142168
100
AcDbArc
 50
176.0406385148
 51
265.3987313078
  0
LINE
  5
228
330
1F
100
AcDbEntity
  8
0
  6
Continuous
 62
     7
370
    25
100
AcDbLine
 10
1343.2809675526
 20
-118.9318347725
 30
0.0
 11
1404.310964014
 21
-118.9318347725
 31
0.0
  0
LINE
  5
229
330
1F
100
AcDbEntity
  8
0
  6
Continuous
 62
     7
370
    25
100
AcDbLine
 10
1407.3092784856
 20
-121.9318347725
 30
0.0
 11
1345.863168412
 21
-121.9318347725
 31
0.0
  0
LINE
  5
22A
330
1F
100
AcDbEntity
  8
0
  6
Continuous
 62
     7
370
    25
100
AcDbLine
 10
1404.310964014
 20
-109.9318347725
 30
0.0
 11
1343.2809675526
 21
-109.9318347725
 31
0.0
  0
ARC
  5
22B
330
1F
100
AcDbEntity
  8
0
  6
Continuous
 62
     7
370
    25
100
AcDbCircle
 10
1346.0889679188
 20
-109.7374815456
 30
0.0
 40
2.814718322142803
100
AcDbArc
 50
94.6012686922
 51
183.9593614852
  0
LINE
  5
22C
330
1F
100
AcDbEntity
  8
0
  6
Continuous
 62
     7
370
    25
100
AcDbLine
 10
1381.2660440095
 20
-106.9318347725
 30
0.0
 11
1407.3092784856
 21
-106.9318347725
 31
0.0
  0
LINE
  5
22D
330
1F
100
AcDbEntity
  8
0
  6
Continuous
 62
     7
370
    25
100
AcDbLine
 10
1343.2809675526
 20
-118.9318347725
 30
0.0
 11
1343.2809675526
 21
-109.9318347725
 31
0.0
  0
ARC
  5
22E
330
1F
100
AcDbEntity
  8
0
  6
Continuous
 62
     7
370
    25
100
AcDbCircle
 10
1334.4163434658
 20
-119.1261879993
 30
0.0
 40
2.814718322142097
100
AcDbArc
 50
176.0406385148
 51
265.3987313078
  0
LINE
  5
22F
330
1F
100
AcDbEntity
  8
0
  6
Continuous
 62
     7
370
    25
100
AcDbLine
 10
1331.6083430996
 20
-118.9318347725
 30
0.0
 11
1343.2809675526
 21
-118.9318347725
 31
0.0
  0
LINE
  5
230
330
1F
100
AcDbEntity
  8
0
  6
Continuous
 62
     7
370
    25
100
AcDbLine
 10
1345.863168412
 20
-121.9318347725
 30
0.0
 11
1334.190543959
 21
-121.9318347725
 31
0.0
  0
LINE
  5
231
330
1F
100
AcDbEntity
  8
0
  6
Continuous
 62
     7
370
    25
100
AcDbLine
 10
1343.2809675526
 20
-109.9318347725
 30
0.0
 11
1331.6083430996
 21
-109.9318347725
 31
0.0
  0
ARC
  5
232
330
1F
100
AcDbEntity
  8
0
  6
Continuous
 62
     7
370
    25
100
AcDbCircle
 10
1334.4163434658
 20
-109.7374815456
 30
0.0
 40
2.814718322142112
100
AcDbArc
 50
94.6012686922
 51
183.9593614852
  0
LINE
  5
233
330
1F
100
AcDbEntity
  8
0
  6
Continuous
 62
     7
370
    25
100
AcDbLine
 10
1331.6083430996
 20
-109.9318347725
 30
0.0
 11
1331.6083430996
 21
-118.9318347725
 31
0.0
  0
LINE
  5
234
330
1F
100
AcDbEntity
  8
0
  6
Continuous
 62
     7
370
    25
100
AcDbLine
 10
1334.190543959
 20
-121.9318347725
 30
0.0
 11
1333.7727448183
 21
-121.9318347725
 31
0.0
  0
ARC
  5
235
330
1F
100
AcDbEntity
  8
0
  6
Continuous
 62
     7
370
    25
100
AcDbCircle
 10
1331.6097433563
 20
-119.061640743
 30
0.0
 40
2.873741456482672
100
AcDbArc
 50
177.4110873339
 51
267.1528181777
  0
LINE
  5
236
330
1F
100
AcDbEntity
  8
0
  6
Continuous
 62
     7
370
    25
100
AcDbLine
 10
1333.7727448183
 20
-121.9318347725
 30
0.0
 11
1331.4669981575
 21
-121.9318347725
 31
0.0
  0
ARC
  5
237
330
1F
100
AcDbEntity
  8
0
  6
Continuous
 62
     7
370
    25
100
AcDbCircle
 10
1331.6097433563
 20
-109.802028802
 30
0.0
 40
2.873741456482712
100
AcDbArc
 50
92.8471818223
 51
182.5889126661
  0
LINE
  5
238
330
1F
100
AcDbEntity
  8
0
  6
Continuous
 62
     7
370
    25
100
AcDbLine
 10
1328.7389350435
 20
-109.9318347725
 30
0.0
 11
1328.7389350435
 21
-118.9318347725
 31
0.0
  0
LINE
  5
239
330
1F
100
AcDbEntity
  8
0
  6
Continuous
 62
     7
370
    25
100
AcDbLine
 10
1331.4669981575
 20
-121.9318347725
 30
0.0
 11
1331.1950612715
 21
-121.9318347725
 31
0.0
  0
LINE
  5
23A
330
1F
100
AcDbEntity
  8
0
  6
Continuous
 62
     7
370
    25
100
AcDbLine
 10
1939.8052878697
 20
2008.0681652275
 30
0.0
 11
1519.1486458991
 21
2008.0681652275
 31
0.0
  0
ARC
  5
23B
330
1F
100
AcDbEntity
  8
0
  6
Continuous
 62
     7
370
    25
100
AcDbCircle
 10
1939.8052878697
 20
508.0681652275
 30
0.0
 40
1500.0
100
AcDbArc
 50
0.0
 51
90.0
  0
ARC
  5
23C
330
1F
100
AcDbEntity
  8
0
  6
Continuous
 62
     7
370
    25
100
AcDbCircle
 10
1939.8052878697
 20
-201.9318347725
 30
0.0
 40
1500.0
100
AcDbArc
 50
270.0
 51
0.0
  0
LINE
  5
23D
330
1F
100
AcDbEntity
  8
0
  6
Continuous
 62
     7
370
    25
100
AcDbLine
 10
1939.8052878697
 20
-1701.9318347725
 30
0.0
 11
1519.1486458991
 21
-1701.9318347725
 31
0.0
  0
ARC
  5
23E
330
1F
100
AcDbEntity
  8
0
  6
Continuous
 62
     7
370
    25
100
AcDbCircle
 10
1519.1486458991
 20
-201.9318347725
 30
0.0
 40
1500.0
100
AcDbArc
 50
249.2633825306
 51
270.0
  0
LINE
  5
23F
330
1F
100
AcDbEntity
  8
0
  6
Continuous
 62
     7
370
    25
100
AcDbLine
 10
-618.4923767345
 20
-1106.9318347724
 30
0.0
 11
-49.2813883754
 21
-1106.9318347724
 31
0.0
  0
ARC
  5
240
330
1F
100
AcDbEntity
  8
0
  6
Continuous
 62
     7
370
    25
100
AcDbCircle
 10
-618.4923767345
 20
-106.9318347724
 30
0.0
 40
1000.0
100
AcDbArc
 50
180.0
 51
270.0
  0
LINE
  5
241
330
1F
100
AcDbEntity
  8
0
  6
Continuous
 62
     7
370
    25
100
AcDbLine
 10
-1618.4923767345
 20
413.0681652275
 30
0.0
 11
-1618.4923767345
 21
-106.9318347724
 31
0.0
  0
ARC
  5
242
330
1F
100
AcDbEntity
  8
0
  6
Continuous
 62
     7
370
    25
100
AcDbCircle
 10
-618.4923767345
 20
413.0681652276
 30
0.0
 40
1000.0
100
AcDbArc
 50
90.0
 51
180.0
  0
LINE
  5
243
330
1F
100
AcDbEntity
  8
0
  6
Continuous
 62
     7
370
    25
100
AcDbLine
 10
-618.4923767345
 20
1413.0681652276
 30
0.0
 11
-49.2813883754
 21
1413.0681652276
 31
0.0
  0
ARC
  5
244
330
1F
100
AcDbEntity
  8
0
  6
Continuous
 62
     7
370
    25
100
AcDbCircle
 10
1068.7526003745
 20
413.0681652276
 30
0.0
 40
1500.0
100
AcDbArc
 50
93.0844941668
 51
138.1896851042
  0
ARC
  5
245
330
1F
100
AcDbEntity
  8
0
  6
Continuous
 62
     7
370
    25
100
AcDbCircle
 10
1519.1486458991
 20
508.0681652275
 30
0.0
 40
1500.0
100
AcDbArc
 50
90.0
 51
110.7366174694
  0
ARC
  5
246
330
1F
100
AcDbEntity
  8
0
  6
Continuous
 62
     7
370
    25
100
AcDbCircle
 10
1068.7526003745
 20
-106.9318347724
 30
0.0
 40
1500.0
100
AcDbArc
 50
221.8103148958
 51
266.9155058332
  0
LINE
  5
247
330
1F
100
AcDbEntity
  8
0
  6
Continuous
 62
     7
370
    25
100
AcDbLine
 10
3439.8052878697
 20
-201.9318347725
 30
0.0
 11
3439.8052878697
 21
508.0681652275
 31
0.0
  0
LINE
  5
248
330
1F
100
AcDbEntity
  8
0
  6
Continuous
 62
     7
370
    25
100
AcDbLine
 10
1489.0724095419
 20
401.0681652276
 30
0.0
 11
1521.1577755283
 21
401.0681652276
 31
0.0
  0
LINE
  5
249
330
1F
100
AcDbEntity
  8
0
  6
Continuous
 62
     7
370
    25
100
AcDbLine
 10
1489.0724095419
 20
401.0681652276
 30
0.0
 11
1489.0724095419
 21
410.0681652276
 31
0.0
  0
LINE
  5
24A
330
1F
100
AcDbEntity
  8
0
  6
Continuous
 62
     7
370
    25
100
AcDbLine
 10
1521.1577755283
 20
401.0681652276
 30
0.0
 11
1521.1577755283
 21
410.0681652276
 31
0.0
  0
LWPOLYLINE
  5
24B
330
1F
100
AcDbEntity
  8
0
  6
Continuous
 62
     7
370
    25
100
AcDbPolyline
 90
        9
 70
   128
 43
0.0
 10
1521.1575379966
 20
398.0681652276
 10
1521.1575843367
 20
398.1258093863
 10
1521.157628896
 20
398.29652663
 10
1521.1576699621
 20
398.5737563906
 10
1521.1577059568
 20
398.946844884
 10
1521.157735497
 20
399.4014545285
 10
1521.1577574472
 20
399.9201149305
 10
1521.1577709641
 20
400.4828942615
 10
1521.1577755283
 20
401.0681652276
  0
LWPOLYLINE
  5
24C
330
1F
100
AcDbEntity
  8
0
  6
Continuous
 62
     7
370
    25
100
AcDbPolyline
 90
        9
 70
   128
 43
0.0
 10
1489.0724095419
 20
401.0681652276
 10
1489.0724049778
 20
400.4828942615
 10
1489.0723914609
 20
399.9201149305
 10
1489.0723695106
 20
399.4014545285
 10
1489.0723399705
 20
398.946844884
 10
1489.0723039758
 20
398.5737563906
 10
1489.0722629097
 20
398.29652663
 10
1489.0722183504
 20
398.1258093863
 10
1489.0721720102
 20
398.0681652276
  0
LINE
  5
24D
330
1F
100
AcDbEntity
  8
0
  6
Continuous
 62
     7
370
    25
100
AcDbLine
 10
1521.1575379966
 20
398.0681652276
 30
0.0
 11
1489.0721720102
 21
398.0681652276
 31
0.0
  0
LWPOLYLINE
  5
24E
330
1F
100
AcDbEntity
  8
0
  6
Continuous
 62
     7
370
    25
100
AcDbPolyline
 90
        9
 70
   128
 43
0.0
 10
1521.1575379966
 20
413.0681652276
 10
1521.1575843367
 20
413.0105210688
 10
1521.157628896
 20
412.8398038251
 10
1521.1576699621
 20
412.5625740645
 10
1521.1577059568
 20
412.1894855711
 10
1521.157735497
 20
411.7348759266
 10
1521.1577574472
 20
411.2162155247
 10
1521.1577709641
 20
410.6534361936
 10
1521.1577755283
 20
410.0681652276
  0
LWPOLYLINE
  5
24F
330
1F
100
AcDbEntity
  8
0
  6
Continuous
 62
     7
370
    25
100
AcDbPolyline
 90
        9
 70
   128
 43
0.0
 10
1489.0721720102
 20
413.0681652276
 10
1489.0722183504
 20
413.0105210688
 10
1489.0722629097
 20
412.8398038251
 10
1489.0723039758
 20
412.5625740645
 10
1489.0723399705
 20
412.1894855711
 10
1489.0723695106
 20
411.7348759266
 10
1489.0723914609
 20
411.2162155247
 10
1489.0724049778
 20
410.6534361936
 10
1489.0724095419
 20
410.0681652276
  0
ARC
  5
250
330
1F
100
AcDbEntity
  8
0
  6
Continuous
 62
     7
370
    25
100
AcDbCircle
 10
1543.1557961278
 20
410.0681652276
 30
0.0
 40
3.000000000000267
100
AcDbArc
 50
0.0045373942
 51
90.0
  0
LINE
  5
251
330
1F
100
AcDbEntity
  8
0
  6
Continuous
 62
     7
370
    25
100
AcDbLine
 10
1546.1557961184
 20
410.0681652276
 30
0.0
 11
1521.1577755283
 21
410.0681652276
 31
0.0
  0
LINE
  5
252
330
1F
100
AcDbEntity
  8
0
  6
Continuous
 62
     7
370
    25
100
AcDbLine
 10
1521.1577755283
 20
401.0681652276
 30
0.0
 11
1546.1557961184
 21
401.0681652276
 31
0.0
  0
ARC
  5
253
330
1F
100
AcDbEntity
  8
0
  6
Continuous
 62
     7
370
    25
100
AcDbCircle
 10
1543.1557961278
 20
401.0681652276
 30
0.0
 40
3.00000000000004
100
AcDbArc
 50
270.0
 51
0.0045373942
  0
LINE
  5
254
330
1F
100
AcDbEntity
  8
0
  6
Continuous
 62
     7
370
    25
100
AcDbLine
 10
1543.1557961278
 20
398.0681652276
 30
0.0
 11
1521.1575379966
 21
398.0681652276
 31
0.0
  0
LINE
  5
255
330
1F
100
AcDbEntity
  8
0
  6
Continuous
 62
     7
370
    25
100
AcDbLine
 10
1546.1557961184
 20
401.0681652276
 30
0.0
 11
1546.1557961184
 21
410.0681652276
 31
0.0
  0
LINE
  5
256
330
1F
100
AcDbEntity
  8
0
  6
Continuous
 62
     7
370
    25
100
AcDbLine
 10
1473.6804533494
 20
401.0681652276
 30
0.0
 11
1489.0724095419
 21
401.0681652276
 31
0.0
  0
LWPOLYLINE
  5
257
330
1F
100
AcDbEntity
  8
0
  6
Continuous
 62
     7
370
    25
100
AcDbPolyline
 90
        9
 70
   128
 43
0.0
 10
1473.6804533494
 20
401.0681652276
 10
1473.7159390399
 20
400.4828942615
 10
1473.821032416
 20
399.9201149305
 10
1473.9916947982
 20
399.4014545285
 10
1474.221367727
 20
398.946844884
 10
1474.5012250005
 20
398.5737563906
 10
1474.8205118606
 20
398.29652663
 10
1475.1669582923
 20
398.1258093863
 10
1475.5272505536
 20
398.0681652276
  0
LINE
  5
258
330
1F
100
AcDbEntity
  8
0
  6
Continuous
 62
     7
370
    25
100
AcDbLine
 10
1489.0721720102
 20
398.0681652276
 30
0.0
 11
1475.5272505536
 21
398.0681652276
 31
0.0
  0
LINE
  5
259
330
1F
100
AcDbEntity
  8
0
  6
Continuous
 62
     7
370
    25
100
AcDbLine
 10
1489.0724095419
 20
410.0681652276
 30
0.0
 11
1473.6804533494
 21
410.0681652276
 31
0.0
  0
LWPOLYLINE
  5
25A
330
1F
100
AcDbEntity
  8
0
  6
Continuous
 62
     7
370
    25
100
AcDbPolyline
 90
        9
 70
   128
 43
0.0
 10
1475.5272505536
 20
413.0681652276
 10
1475.1669582923
 20
413.0105210688
 10
1474.8205118606
 20
412.8398038251
 10
1474.5012250005
 20
412.5625740645
 10
1474.221367727
 20
412.1894855711
 10
1473.9916947982
 20
411.7348759266
 10
1473.821032416
 20
411.2162155247
 10
1473.7159390399
 20
410.6534361936
 10
1473.6804533494
 20
410.0681652276
  0
LINE
  5
25B
330
1F
100
AcDbEntity
  8
0
  6
Continuous
 62
     7
370
    25
100
AcDbLine
 10
1473.6804533494
 20
401.0681652276
 30
0.0
 11
1473.6804533494
 21
410.0681652276
 31
0.0
  0
LINE
  5
25C
330
1F
100
AcDbEntity
  8
0
  6
Continuous
 62
     7
370
    25
100
AcDbLine
 10
652.5281733245
 20
401.0681652276
 30
0.0
 11
1473.6804533494
 21
401.0681652276
 31
0.0
  0
LINE
  5
25D
330
1F
100
AcDbEntity
  8
0
  6
Continuous
 62
     7
370
    25
100
AcDbLine
 10
652.5281733245
 20
401.0681652276
 30
0.0
 11
652.5281733245
 21
410.0681652276
 31
0.0
  0
LWPOLYLINE
  5
25E
330
1F
100
AcDbEntity
  8
0
  6
Continuous
 62
     7
370
    25
100
AcDbPolyline
 90
        9
 70
   128
 43
0.0
 10
654.3749705286
 20
413.0681652276
 10
654.0146782674
 20
413.0105210688
 10
653.6682318356
 20
412.8398038251
 10
653.3489449756
 20
412.5625740645
 10
653.0690877021
 20
412.1894855711
 10
652.8394147733
 20
411.7348759266
 10
652.668752391
 20
411.2162155247
 10
652.5636590149
 20
410.6534361936
 10
652.5281733245
 20
410.0681652276
  0
LINE
  5
25F
330
1F
100
AcDbEntity
  8
0
  6
Continuous
 62
     7
370
    25
100
AcDbLine
 10
654.3749705286
 20
413.0681652276
 30
0.0
 11
1381.2660440095
 21
413.0681652275
 31
0.0
  0
LWPOLYLINE
  5
260
330
1F
100
AcDbEntity
  8
0
  6
Continuous
 62
     7
370
    25
100
AcDbPolyline
 90
        9
 70
   128
 43
0.0
 10
652.5281733245
 20
401.0681652276
 10
652.5636590149
 20
400.4828942615
 10
652.668752391
 20
399.9201149305
 10
652.8394147733
 20
399.4014545285
 10
653.0690877021
 20
398.946844884
 10
653.3489449756
 20
398.5737563906
 10
653.6682318356
 20
398.29652663
 10
654.0146782674
 20
398.1258093863
 10
654.3749705286
 20
398.0681652276
  0
LINE
  5
261
330
1F
100
AcDbEntity
  8
0
  6
Continuous
 62
     7
370
    25
100
AcDbLine
 10
1475.5272505536
 20
398.0681652276
 30
0.0
 11
654.3749705286
 21
398.0681652276
 31
0.0
  0
LINE
  5
262
330
1F
100
AcDbEntity
  8
0
  6
Continuous
 62
     7
370
    25
100
AcDbLine
 10
-51.3006299249
 20
401.0681652276
 30
0.0
 11
434.58792298
 21
401.0681652276
 31
0.0
  0
ARC
  5
263
330
1F
100
AcDbEntity
  8
0
  6
Continuous
 62
     7
370
    25
100
AcDbCircle
 10
438.1276271646
 20
400.3659314177
 30
0.0
 40
3.608689240996547
100
AcDbArc
 50
168.7789193975
 51
219.5485267894
  0
ARC
  5
264
330
1F
100
AcDbEntity
  8
0
  6
Continuous
 62
     7
370
    25
100
AcDbCircle
 10
-47.7609257404
 20
400.3659314177
 30
0.0
 40
3.608689240999138
100
AcDbArc
 50
168.7789193975
 51
219.5485267893
  0
LINE
  5
265
330
1F
100
AcDbEntity
  8
0
  6
Continuous
 62
     7
370
    25
100
AcDbLine
 10
435.3450189324
 20
398.0681652276
 30
0.0
 11
-50.5435339725
 21
398.0681652276
 31
0.0
  0
ARC
  5
266
330
1F
100
AcDbEntity
  8
0
  6
Continuous
 62
     7
370
    25
100
AcDbCircle
 10
438.1276271646
 20
410.7703990375
 30
0.0
 40
3.608689240998239
100
AcDbArc
 50
140.4514732106
 51
191.2210806025
  0
LINE
  5
267
330
1F
100
AcDbEntity
  8
0
  6
Continuous
 62
     7
370
    25
100
AcDbLine
 10
434.58792298
 20
410.0681652276
 30
0.0
 11
-51.3006299249
 21
410.0681652276
 31
0.0
  0
ARC
  5
268
330
1F
100
AcDbEntity
  8
0
  6
Continuous
 62
     7
370
    25
100
AcDbCircle
 10
-47.7609257404
 20
410.7703990375
 30
0.0
 40
3.608689240995306
100
AcDbArc
 50
140.4514732106
 51
191.2210806025
  0
LINE
  5
269
330
1F
100
AcDbEntity
  8
0
  6
Continuous
 62
     7
370
    25
100
AcDbLine
 10
-50.5435339725
 20
413.0681652276
 30
0.0
 11
435.3450189324
 21
413.0681652276
 31
0.0
  0
LINE
  5
26A
330
1F
100
AcDbEntity
  8
0
  6
Continuous
 62
     7
370
    25
100
AcDbLine
 10
-51.3006299249
 20
401.0681652276
 30
0.0
 11
-51.3006299249
 21
410.0681652276
 31
0.0
  0
LINE
  5
26B
330
1F
100
AcDbEntity
  8
0
  6
Continuous
 62
     7
370
    25
100
AcDbLine
 10
434.58792298
 20
401.0681652276
 30
0.0
 11
434.58792298
 21
410.0681652276
 31
0.0
  0
LINE
  5
26C
330
1F
100
AcDbEntity
  8
0
  6
Continuous
 62
     7
370
    25
100
AcDbLine
 10
434.58792298
 20
401.0681652276
 30
0.0
 11
652.5281733245
 21
401.0681652276
 31
0.0
  0
LINE
  5
26D
330
1F
100
AcDbEntity
  8
0
  6
Continuous
 62
     7
370
    25
100
AcDbLine
 10
654.3749705286
 20
398.0681652276
 30
0.0
 11
435.3450189324
 21
398.0681652276
 31
0.0
  0
LINE
  5
26E
330
1F
100
AcDbEntity
  8
0
  6
Continuous
 62
     7
370
    25
100
AcDbLine
 10
652.5281733245
 20
410.0681652276
 30
0.0
 11
434.58792298
 21
410.0681652276
 31
0.0
  0
LINE
  5
26F
330
1F
100
AcDbEntity
  8
0
  6
Continuous
 62
     7
370
    25
100
AcDbLine
 10
435.3450189324
 20
413.0681652276
 30
0.0
 11
654.3749705286
 21
413.0681652276
 31
0.0
  0
LINE
  5
270
330
1F
100
AcDbEntity
  8
0
  6
Continuous
 62
     7
370
    25
100
AcDbLine
 10
-50.5435339725
 20
398.0681652276
 30
0.0
 11
-115.4923767345
 21
398.0681652276
 31
0.0
  0
LINE
  5
271
330
1F
100
AcDbEntity
  8
0
  6
Continuous
 62
     7
370
    25
100
AcDbLine
 10
-115.4923767345
 20
413.0681652276
 30
0.0
 11
-50.5435339725
 21
413.0681652276
 31
0.0
  0
LWPOLYLINE
  5
272
330
1F
100
AcDbEntity
  8
0
  6
Continuous
 62
     7
370
    25
100
AcDbPolyline
 90
        9
 70
   128
 43
0.0
 10
1521.1575379966
 20
-106.9318347724
 10
1521.1575843367
 20
-106.8741906137
 10
1521.157628896
 20
-106.70347337
 10
1521.1576699621
 20
-106.4262436094
 10
1521.1577059568
 20
-106.053155116
 10
1521.157735497
 20
-105.5985454715
 10
1521.1577574472
 20
-105.0798850695
 10
1521.1577709641
 20
-104.5171057385
 10
1521.1577755283
 20
-103.9318347724
  0
LWPOLYLINE
  5
273
330
1F
100
AcDbEntity
  8
0
  6
Continuous
 62
     7
370
    25
100
AcDbPolyline
 90
        9
 70
   128
 43
0.0
 10
1489.0721720102
 20
-106.9318347724
 10
1489.0722183504
 20
-106.8741906137
 10
1489.0722629097
 20
-106.70347337
 10
1489.0723039758
 20
-106.4262436094
 10
1489.0723399705
 20
-106.053155116
 10
1489.0723695106
 20
-105.5985454715
 10
1489.0723914609
 20
-105.0798850695
 10
1489.0724049778
 20
-104.5171057385
 10
1489.0724095419
 20
-103.9318347724
  0
LINE
  5
274
330
1F
100
AcDbEntity
  8
0
  6
Continuous
 62
     7
370
    25
100
AcDbLine
 10
1489.0724095419
 20
-94.9318347724
 30
0.0
 11
1489.0724095419
 21
-103.9318347724
 31
0.0
  0
LINE
  5
275
330
1F
100
AcDbEntity
  8
0
  6
Continuous
 62
     7
370
    25
100
AcDbLine
 10
1489.0724095419
 20
-94.9318347724
 30
0.0
 11
1521.1577755283
 21
-94.9318347724
 31
0.0
  0
LINE
  5
276
330
1F
100
AcDbEntity
  8
0
  6
Continuous
 62
     7
370
    25
100
AcDbLine
 10
1521.1577755283
 20
-94.9318347724
 30
0.0
 11
1521.1577755283
 21
-103.9318347724
 31
0.0
  0
LWPOLYLINE
  5
277
330
1F
100
AcDbEntity
  8
0
  6
Continuous
 62
     7
370
    25
100
AcDbPolyline
 90
        9
 70
   128
 43
0.0
 10
1521.1575379966
 20
-91.9318347724
 10
1521.1575843367
 20
-91.9894789312
 10
1521.157628896
 20
-92.1601961749
 10
1521.1576699621
 20
-92.4374259355
 10
1521.1577059568
 20
-92.8105144289
 10
1521.157735497
 20
-93.2651240734
 10
1521.1577574472
 20
-93.7837844753
 10
1521.1577709641
 20
-94.3465638064
 10
1521.1577755283
 20
-94.9318347724
  0
LWPOLYLINE
  5
278
330
1F
100
AcDbEntity
  8
0
  6
Continuous
 62
     7
370
    25
100
AcDbPolyline
 90
        9
 70
   128
 43
0.0
 10
1489.0724095419
 20
-94.9318347724
 10
1489.0724049778
 20
-94.3465638064
 10
1489.0723914609
 20
-93.7837844753
 10
1489.0723695106
 20
-93.2651240734
 10
1489.0723399705
 20
-92.8105144289
 10
1489.0723039758
 20
-92.4374259355
 10
1489.0722629097
 20
-92.1601961749
 10
1489.0722183504
 20
-91.9894789312
 10
1489.0721720102
 20
-91.9318347724
  0
LINE
  5
279
330
1F
100
AcDbEntity
  8
0
  6
Continuous
 62
     7
370
    25
100
AcDbLine
 10
1521.1575379966
 20
-91.9318347724
 30
0.0
 11
1489.0721720102
 21
-91.9318347724
 31
0.0
  0
LINE
  5
27A
330
1F
100
AcDbEntity
  8
0
  6
Continuous
 62
     7
370
    25
100
AcDbLine
 10
1546.1557961184
 20
-103.9318347724
 30
0.0
 11
1521.1577755283
 21
-103.9318347724
 31
0.0
  0
ARC
  5
27B
330
1F
100
AcDbEntity
  8
0
  6
Continuous
 62
     7
370
    25
100
AcDbCircle
 10
1543.1557961278
 20
-103.9318347724
 30
0.0
 40
3.000000000000267
100
AcDbArc
 50
270.0
 51
0.0045373942
  0
LINE
  5
27C
330
1F
100
AcDbEntity
  8
0
  6
Continuous
 62
     7
370
    25
100
AcDbLine
 10
1521.1577755283
 20
-94.9318347724
 30
0.0
 11
1546.1557961184
 21
-94.9318347724
 31
0.0
  0
ARC
  5
27D
330
1F
100
AcDbEntity
  8
0
  6
Continuous
 62
     7
370
    25
100
AcDbCircle
 10
1543.1557961278
 20
-94.9318347724
 30
0.0
 40
3.00000000000004
100
AcDbArc
 50
0.0045373942
 51
90.0
  0
LINE
  5
27E
330
1F
100
AcDbEntity
  8
0
  6
Continuous
 62
     7
370
    25
100
AcDbLine
 10
1543.1557961278
 20
-91.9318347724
 30
0.0
 11
1521.1575379966
 21
-91.9318347724
 31
0.0
  0
LINE
  5
27F
330
1F
100
AcDbEntity
  8
0
  6
Continuous
 62
     7
370
    25
100
AcDbLine
 10
1546.1557961184
 20
-94.9318347724
 30
0.0
 11
1546.1557961184
 21
-103.9318347724
 31
0.0
  0
LINE
  5
280
330
1F
100
AcDbEntity
  8
0
  6
Continuous
 62
     7
370
    25
100
AcDbLine
 10
1489.0724095419
 20
-103.9318347724
 30
0.0
 11
1473.6804533494
 21
-103.9318347724
 31
0.0
  0
LINE
  5
281
330
1F
100
AcDbEntity
  8
0
  6
Continuous
 62
     7
370
    25
100
AcDbLine
 10
1473.6804533494
 20
-94.9318347724
 30
0.0
 11
1473.6804533494
 21
-103.9318347724
 31
0.0
  0
LINE
  5
282
330
1F
100
AcDbEntity
  8
0
  6
Continuous
 62
     7
370
    25
100
AcDbLine
 10
1473.6804533494
 20
-94.9318347724
 30
0.0
 11
1489.0724095419
 21
-94.9318347724
 31
0.0
  0
LWPOLYLINE
  5
283
330
1F
100
AcDbEntity
  8
0
  6
Continuous
 62
     7
370
    25
100
AcDbPolyline
 90
        9
 70
   128
 43
0.0
 10
1475.5272505536
 20
-106.9318347724
 10
1475.1669582923
 20
-106.8741906137
 10
1474.8205118606
 20
-106.70347337
 10
1474.5012250005
 20
-106.4262436094
 10
1474.221367727
 20
-106.053155116
 10
1473.9916947982
 20
-105.5985454715
 10
1473.821032416
 20
-105.0798850695
 10
1473.7159390399
 20
-104.5171057385
 10
1473.6804533494
 20
-103.9318347724
  0
LWPOLYLINE
  5
284
330
1F
100
AcDbEntity
  8
0
  6
Continuous
 62
     7
370
    25
100
AcDbPolyline
 90
        9
 70
   128
 43
0.0
 10
1473.6804533494
 20
-94.9318347724
 10
1473.7159390399
 20
-94.3465638064
 10
1473.821032416
 20
-93.7837844753
 10
1473.9916947982
 20
-93.2651240734
 10
1474.221367727
 20
-92.8105144289
 10
1474.5012250005
 20
-92.4374259355
 10
1474.8205118606
 20
-92.1601961749
 10
1475.1669582923
 20
-91.9894789312
 10
1475.5272505536
 20
-91.9318347724
  0
LINE
  5
285
330
1F
100
AcDbEntity
  8
0
  6
Continuous
 62
     7
370
    25
100
AcDbLine
 10
1489.0721720102
 20
-91.9318347724
 30
0.0
 11
1475.5272505536
 21
-91.9318347724
 31
0.0
  0
LINE
  5
286
330
1F
100
AcDbEntity
  8
0
  6
Continuous
 62
     7
370
    25
100
AcDbLine
 10
652.5281733245
 20
-94.9318347724
 30
0.0
 11
1473.6804533494
 21
-94.9318347724
 31
0.0
  0
LWPOLYLINE
  5
287
330
1F
100
AcDbEntity
  8
0
  6
Continuous
 62
     7
370
    25
100
AcDbPolyline
 90
        9
 70
   128
 43
0.0
 10
652.5281733245
 20
-94.9318347724
 10
652.5636590149
 20
-94.3465638064
 10
652.668752391
 20
-93.7837844753
 10
652.8394147733
 20
-93.2651240734
 10
653.0690877021
 20
-92.8105144289
 10
653.3489449756
 20
-92.4374259355
 10
653.6682318356
 20
-92.1601961749
 10
654.0146782674
 20
-91.9894789312
 10
654.3749705286
 20
-91.9318347724
  0
LINE
  5
288
330
1F
100
AcDbEntity
  8
0
  6
Continuous
 62
     7
370
    25
100
AcDbLine
 10
1475.5272505536
 20
-91.9318347724
 30
0.0
 11
654.3749705286
 21
-91.9318347724
 31
0.0
  0
LINE
  5
289
330
1F
100
AcDbEntity
  8
0
  6
Continuous
 62
     7
370
    25
100
AcDbLine
 10
652.5281733245
 20
-94.9318347724
 30
0.0
 11
652.5281733245
 21
-103.9318347724
 31
0.0
  0
LWPOLYLINE
  5
28A
330
1F
100
AcDbEntity
  8
0
  6
Continuous
 62
     7
370
    25
100
AcDbPolyline
 90
        9
 70
   128
 43
0.0
 10
654.3749705286
 20
-106.9318347724
 10
654.0146782674
 20
-106.8741906137
 10
653.6682318356
 20
-106.70347337
 10
653.3489449756
 20
-106.4262436094
 10
653.0690877021
 20
-106.053155116
 10
652.8394147733
 20
-105.5985454715
 10
652.668752391
 20
-105.0798850695
 10
652.5636590149
 20
-104.5171057385
 10
652.5281733245
 20
-103.9318347724
  0
LINE
  5
28B
330
1F
100
AcDbEntity
  8
0
  6
Continuous
 62
     7
370
    25
100
AcDbLine
 10
654.3749705286
 20
-106.9318347724
 30
0.0
 11
1381.2660440095
 21
-106.9318347725
 31
0.0
  0
ARC
  5
28C
330
1F
100
AcDbEntity
  8
0
  6
Continuous
 62
     7
370
    25
100
AcDbCircle
 10
438.1276271646
 20
-94.2296009625
 30
0.0
 40
3.608689240996538
100
AcDbArc
 50
140.4514732106
 51
191.2210806025
  0
LINE
  5
28D
330
1F
100
AcDbEntity
  8
0
  6
Continuous
 62
     7
370
    25
100
AcDbLine
 10
-51.3006299249
 20
-94.9318347724
 30
0.0
 11
434.58792298
 21
-94.9318347724
 31
0.0
  0
ARC
  5
28E
330
1F
100
AcDbEntity
  8
0
  6
Continuous
 62
     7
370
    25
100
AcDbCircle
 10
-47.7609257404
 20
-94.2296009625
 30
0.0
 40
3.608689240999318
100
AcDbArc
 50
140.4514732107
 51
191.2210806025
  0
LINE
  5
28F
330
1F
100
AcDbEntity
  8
0
  6
Continuous
 62
     7
370
    25
100
AcDbLine
 10
435.3450189324
 20
-91.9318347724
 30
0.0
 11
-50.5435339725
 21
-91.9318347724
 31
0.0
  0
LINE
  5
290
330
1F
100
AcDbEntity
  8
0
  6
Continuous
 62
     7
370
    25
100
AcDbLine
 10
434.58792298
 20
-103.9318347724
 30
0.0
 11
-51.3006299249
 21
-103.9318347724
 31
0.0
  0
ARC
  5
291
330
1F
100
AcDbEntity
  8
0
  6
Continuous
 62
     7
370
    25
100
AcDbCircle
 10
438.1276271646
 20
-104.6340685823
 30
0.0
 40
3.608689240998354
100
AcDbArc
 50
168.7789193975
 51
219.5485267894
  0
ARC
  5
292
330
1F
100
AcDbEntity
  8
0
  6
Continuous
 62
     7
370
    25
100
AcDbCircle
 10
-47.7609257404
 20
-104.6340685823
 30
0.0
 40
3.608689240995334
100
AcDbArc
 50
168.7789193975
 51
219.5485267894
  0
LINE
  5
293
330
1F
100
AcDbEntity
  8
0
  6
Continuous
 62
     7
370
    25
100
AcDbLine
 10
-50.5435339725
 20
-106.9318347724
 30
0.0
 11
435.3450189324
 21
-106.9318347724
 31
0.0
  0
LINE
  5
294
330
1F
100
AcDbEntity
  8
0
  6
Continuous
 62
     7
370
    25
100
AcDbLine
 10
-51.3006299249
 20
-94.9318347724
 30
0.0
 11
-51.3006299249
 21
-103.9318347724
 31
0.0
  0
LINE
  5
295
330
1F
100
AcDbEntity
  8
0
  6
Continuous
 62
     7
370
    25
100
AcDbLine
 10
434.58792298
 20
-94.9318347724
 30
0.0
 11
434.58792298
 21
-103.9318347724
 31
0.0
  0
LINE
  5
296
330
1F
100
AcDbEntity
  8
0
  6
Continuous
 62
     7
370
    25
100
AcDbLine
 10
652.5281733245
 20
-103.9318347724
 30
0.0
 11
434.58792298
 21
-103.9318347724
 31
0.0
  0
LINE
  5
297
330
1F
100
AcDbEntity
  8
0
  6
Continuous
 62
     7
370
    25
100
AcDbLine
 10
435.3450189324
 20
-106.9318347724
 30
0.0
 11
654.3749705286
 21
-106.9318347724
 31
0.0
  0
LINE
  5
298
330
1F
100
AcDbEntity
  8
0
  6
Continuous
 62
     7
370
    25
100
AcDbLine
 10
434.58792298
 20
-94.9318347724
 30
0.0
 11
652.5281733245
 21
-94.9318347724
 31
0.0
  0
LINE
  5
299
330
1F
100
AcDbEntity
  8
0
  6
Continuous
 62
     7
370
    25
100
AcDbLine
 10
654.3749705286
 20
-91.9318347724
 30
0.0
 11
435.3450189324
 21
-91.9318347724
 31
0.0
  0
LINE
  5
29A
330
1F
100
AcDbEntity
  8
0
  6
Continuous
 62
     7
370
    25
100
AcDbLine
 10
-50.5435339725
 20
-91.9318347724
 30
0.0
 11
-115.4923767345
 21
-91.9318347724
 31
0.0
  0
LINE
  5
29B
330
1F
100
AcDbEntity
  8
0
  6
Continuous
 62
     7
370
    25
100
AcDbLine
 10
-115.4923767345
 20
-106.9318347724
 30
0.0
 11
-50.5435339725
 21
-106.9318347724
 31
0.0
  0
LINE
  5
29C
330
1F
100
AcDbEntity
  8
0
  6
Continuous
 62
     7
370
    25
100
AcDbLine
 10
1546.7321716422
 20
-96.9318347724
 30
0.0
 11
1546.7321716422
 21
403.0681652276
 31
0.0
  0
LINE
  5
29D
330
1F
100
AcDbEntity
  8
0
  6
Continuous
 62
     7
370
    25
100
AcDbLine
 10
1546.7321716422
 20
-96.9318347724
 30
0.0
 11
1546.1557961184
 21
-96.9318347724
 31
0.0
  0
LINE
  5
29E
330
1F
100
AcDbEntity
  8
0
  6
Continuous
 62
     7
370
    25
100
AcDbLine
 10
1546.7321716422
 20
403.0681652276
 30
0.0
 11
1546.1557961184
 21
403.0681652276
 31
0.0
  0
LINE
  5
29F
330
1F
100
AcDbEntity
  8
0
  6
Continuous
 62
     7
370
    25
100
AcDbLine
 10
1649.4685100054
 20
-201.9318347725
 30
0.0
 11
1936.7322496924
 21
-201.9318347725
 31
0.0
  0
LWPOLYLINE
  5
2A0
330
1F
100
AcDbEntity
  8
0
  6
Continuous
 62
     7
370
    25
100
AcDbPolyline
 90
        3
 70
   128
 43
0.0
 10
1649.4685100054
 20
-201.9318347725
 10
1650.0833146827
 20
-201.8703476698
 10
1650.5651455075
 20
-201.7318347725
  0
LINE
  5
2A1
330
1F
100
AcDbEntity
  8
0
  6
Continuous
 62
     7
370
    25
100
AcDbLine
 10
1651.7057763543
 20
-121.9318347725
 30
0.0
 11
1667.4606269517
 21
-121.9318347725
 31
0.0
  0
LINE
  5
2A2
330
1F
100
AcDbEntity
  8
0
  6
Continuous
 62
     7
370
    25
100
AcDbLine
 10
1835.6922425233
 20
-121.9318347725
 30
0.0
 11
1936.7322496924
 21
-121.9318347725
 31
0.0
  0
LINE
  5
2A3
330
1F
100
AcDbEntity
  8
0
  6
Continuous
 62
     7
370
    25
100
AcDbLine
 10
1576.9866593837
 20
-201.9318347725
 30
0.0
 11
1649.4685100054
 21
-201.9318347725
 31
0.0
  0
LWPOLYLINE
  5
2A4
330
1F
100
AcDbEntity
  8
0
  6
Continuous
 62
     7
370
    25
100
AcDbPolyline
 90
        3
 70
   128
 43
0.0
 10
1575.8900238815
 20
-201.7318347725
 10
1576.3718547064
 20
-201.8703476698
 10
1576.9866593837
 20
-201.9318347725
  0
LWPOLYLINE
  5
2A5
330
1F
100
AcDbEntity
  8
0
  6
Continuous
 62
     7
370
    25
100
AcDbPolyline
 90
        3
 70
   128
 43
0.0
 10
1576.9866593837
 20
508.0681652275
 10
1576.3718547064
 20
508.0066781248
 10
1575.8900238815
 20
507.8681652276
  0
LINE
  5
2A6
330
1F
100
AcDbEntity
  8
0
  6
Continuous
 62
     7
370
    25
100
AcDbLine
 10
1649.4685100054
 20
508.0681652275
 30
0.0
 11
1576.9866593837
 21
508.0681652275
 31
0.0
  0
LWPOLYLINE
  5
2A7
330
1F
100
AcDbEntity
  8
0
  6
Continuous
 62
     7
370
    25
100
AcDbPolyline
 90
        3
 70
   128
 43
0.0
 10
1650.5651455075
 20
507.8681652276
 10
1650.0833146827
 20
508.0066781248
 10
1649.4685100054
 20
508.0681652275
  0
LINE
  5
2A8
330
1F
100
AcDbEntity
  8
0
  6
Continuous
 62
     7
370
    25
100
AcDbLine
 10
1649.4685100054
 20
508.0681652275
 30
0.0
 11
1936.7322496924
 21
508.0681652275
 31
0.0
  0
LINE
  5
2A9
330
1F
100
AcDbEntity
  8
0
  6
Continuous
 62
     7
370
    25
100
AcDbLine
 10
1651.7057763543
 20
428.0681652275
 30
0.0
 11
1667.4606269517
 21
428.0681652275
 31
0.0
  0
LINE
  5
2AA
330
1F
100
AcDbEntity
  8
0
  6
Continuous
 62
     7
370
    25
100
AcDbLine
 10
1835.6922425233
 20
428.0681652275
 30
0.0
 11
1936.7322496924
 21
428.0681652275
 31
0.0
  0
LINE
  5
2AB
330
1F
100
AcDbEntity
  8
0
  6
Continuous
 62
     7
370
    25
100
AcDbLine
 10
1699.7857753282
 20
400.5681652275
 30
0.0
 11
1721.2857753282
 21
400.5681652275
 31
0.0
  0
LINE
  5
2AC
330
1F
100
AcDbEntity
  8
0
  6
Continuous
 62
     7
370
    25
100
AcDbLine
 10
1721.2857753282
 20
-94.4318347725
 30
0.0
 11
1699.7857753282
 21
-94.4318347725
 31
0.0
  0
LINE
  5
2AD
330
1F
100
AcDbEntity
  8
0
  6
Continuous
 62
     7
370
    25
100
AcDbLine
 10
1632.7552709129
 20
400.5681652275
 30
0.0
 11
1651.3101725727
 21
400.5681652275
 31
0.0
  0
LINE
  5
2AE
330
1F
100
AcDbEntity
  8
0
  6
Continuous
 62
     7
370
    25
100
AcDbLine
 10
1651.3101725727
 20
-94.4318347725
 30
0.0
 11
1632.7552709129
 21
-94.4318347725
 31
0.0
  0
LINE
  5
2AF
330
1F
100
AcDbEntity
  8
0
  6
Continuous
 62
     7
370
    25
100
AcDbLine
 10
1496.7203022162
 20
-138.3109299454
 30
0.0
 11
1503.2203022162
 21
-138.3109299454
 31
0.0
  0
LINE
  5
2B0
330
1F
100
AcDbEntity
  8
0
  6
Continuous
 62
     7
370
    25
100
AcDbLine
 10
1490.2203022162
 20
-138.3109299454
 30
0.0
 11
1496.7203022162
 21
-138.3109299454
 31
0.0
  0
LINE
  5
2B1
330
1F
100
AcDbEntity
  8
0
  6
Continuous
 62
     7
370
    25
100
AcDbLine
 10
1496.7203022162
 20
-139.3109299454
 30
0.0
 11
1491.2203022162
 21
-139.3109299454
 31
0.0
  0
LINE
  5
2B2
330
1F
100
AcDbEntity
  8
0
  6
Continuous
 62
     7
370
    25
100
AcDbLine
 10
1502.2203022162
 20
-139.3109299454
 30
0.0
 11
1496.7203022162
 21
-139.3109299454
 31
0.0
  0
LINE
  5
2B3
330
1F
100
AcDbEntity
  8
0
  6
Continuous
 62
     7
370
    25
100
AcDbLine
 10
1412.1925951206
 20
-138.3109299454
 30
0.0
 11
1418.6925951206
 21
-138.3109299454
 31
0.0
  0
LINE
  5
2B4
330
1F
100
AcDbEntity
  8
0
  6
Continuous
 62
     7
370
    25
100
AcDbLine
 10
1405.6925951206
 20
-138.3109299454
 30
0.0
 11
1412.1925951206
 21
-138.3109299454
 31
0.0
  0
LINE
  5
2B5
330
1F
100
AcDbEntity
  8
0
  6
Continuous
 62
     7
370
    25
100
AcDbLine
 10
1412.1925951206
 20
-139.3109299454
 30
0.0
 11
1406.6925951206
 21
-139.3109299454
 31
0.0
  0
LINE
  5
2B6
330
1F
100
AcDbEntity
  8
0
  6
Continuous
 62
     7
370
    25
100
AcDbLine
 10
1417.6925951206
 20
-139.3109299454
 30
0.0
 11
1412.1925951206
 21
-139.3109299454
 31
0.0
  0
LINE
  5
2B7
330
1F
100
AcDbEntity
  8
0
  6
Continuous
 62
     7
370
    25
100
AcDbLine
 10
1418.6925951206
 20
444.4472604004
 30
0.0
 11
1405.6925951206
 21
444.4472604004
 31
0.0
  0
LINE
  5
2B8
330
1F
100
AcDbEntity
  8
0
  6
Continuous
 62
     7
370
    25
100
AcDbLine
 10
1406.6925951206
 20
445.4472604004
 30
0.0
 11
1417.6925951206
 21
445.4472604004
 31
0.0
  0
LINE
  5
2B9
330
1F
100
AcDbEntity
  8
0
  6
Continuous
 62
     7
370
    25
100
AcDbLine
 10
1503.2203022162
 20
444.4472604004
 30
0.0
 11
1490.2203022162
 21
444.4472604004
 31
0.0
  0
LINE
  5
2BA
330
1F
100
AcDbEntity
  8
0
  6
Continuous
 62
     7
370
    25
100
AcDbLine
 10
1491.2203022162
 20
445.4472604004
 30
0.0
 11
1502.2203022162
 21
445.4472604004
 31
0.0
  0
LWPOLYLINE
  5
2BB
330
1F
100
AcDbEntity
  8
0
  6
Continuous
 62
     7
370
    25
100
AcDbPolyline
 90
        3
 70
   128
 43
0.0
 10
1372.4766842413
 20
-123.9784167599
 10
1373.7015048921
 20
-123.6544083691
 10
1374.9766842413
 20
-123.5318347725
  0
LWPOLYLINE
  5
2BC
330
1F
100
AcDbEntity
  8
0
  6
Continuous
 62
     7
370
    25
100
AcDbPolyline
 90
        3
 70
   128
 43
0.0
 10
1369.9766842413
 20
-123.5318347725
 10
1370.1543952079
 20
-123.5342648706
 10
1372.4766842413
 20
-123.9784167599
  0
LWPOLYLINE
  5
2BD
330
1F
100
AcDbEntity
  8
0
  6
Continuous
 62
     7
370
    25
100
AcDbPolyline
 90
        3
 70
   128
 43
0.0
 10
1369.9766842413
 20
-128.5318347725
 10
1369.7989732747
 20
-128.5294046744
 10
1367.4766842413
 20
-128.0852527851
  0
LINE
  5
2BE
330
1F
100
AcDbEntity
  8
0
  6
Continuous
 62
     7
370
    25
100
AcDbLine
 10
1367.4766842413
 20
-128.0852527851
 30
0.0
 11
1367.4766842413
 21
-123.9784167599
 31
0.0
  0
LWPOLYLINE
  5
2BF
330
1F
100
AcDbEntity
  8
0
  6
Continuous
 62
     7
370
    25
100
AcDbPolyline
 90
        3
 70
   128
 43
0.0
 10
1367.4766842413
 20
-123.9784167599
 10
1368.7015048921
 20
-123.6544083691
 10
1369.9766842413
 20
-123.5318347725
  0
LINE
  5
2C0
330
1F
100
AcDbEntity
  8
0
  6
Continuous
 62
     7
370
    25
100
AcDbLine
 10
1372.4766842413
 20
-128.0852527851
 30
0.0
 11
1372.4766842413
 21
-123.9784167599
 31
0.0
  0
LWPOLYLINE
  5
2C1
330
1F
100
AcDbEntity
  8
0
  6
Continuous
 62
     7
370
    25
100
AcDbPolyline
 90
        3
 70
   128
 43
0.0
 10
1372.4766842413
 20
-128.0852527851
 10
1371.2518635906
 20
-128.4092611758
 10
1369.9766842413
 20
-128.5318347725
  0
LWPOLYLINE
  5
2C2
330
1F
100
AcDbEntity
  8
0
  6
Continuous
 62
     7
370
    25
100
AcDbPolyline
 90
        3
 70
   128
 43
0.0
 10
1374.9766842413
 20
-128.5318347725
 10
1374.7989732747
 20
-128.5294046744
 10
1372.4766842413
 20
-128.0852527851
  0
LWPOLYLINE
  5
2C3
330
1F
100
AcDbEntity
  8
0
  6
Continuous
 62
     7
370
    25
100
AcDbPolyline
 90
        3
 70
   128
 43
0.0
 10
1374.9766842413
 20
-123.5318347725
 10
1375.1543952079
 20
-123.5342648706
 10
1377.4766842413
 20
-123.9784167599
  0
LINE
  5
2C4
330
1F
100
AcDbEntity
  8
0
  6
Continuous
 62
     7
370
    25
100
AcDbLine
 10
1377.4766842413
 20
-128.0852527851
 30
0.0
 11
1377.4766842413
 21
-123.9784167599
 31
0.0
  0
LWPOLYLINE
  5
2C5
330
1F
100
AcDbEntity
  8
0
  6
Continuous
 62
     7
370
    25
100
AcDbPolyline
 90
        3
 70
   128
 43
0.0
 10
1377.4766842413
 20
-128.0852527851
 10
1376.2518635906
 20
-128.4092611758
 10
1374.9766842413
 20
-128.5318347725
  0
LINE
  5
2C6
330
1F
100
AcDbEntity
  8
0
  6
Continuous
 62
     7
370
    25
100
AcDbLine
 10
1374.9766842413
 20
-128.5318347725
 30
0.0
 11
1369.9766842413
 21
-128.5318347725
 31
0.0
  0
LINE
  5
2C7
330
1F
100
AcDbEntity
  8
0
  6
Continuous
 62
     7
370
    25
100
AcDbLine
 10
1367.4766842413
 20
-123.5318347725
 30
0.0
 11
1367.4766842413
 21
-123.9784167599
 31
0.0
  0
LINE
  5
2C8
330
1F
100
AcDbEntity
  8
0
  6
Continuous
 62
     7
370
    25
100
AcDbLine
 10
1367.4766842413
 20
-128.0852527851
 30
0.0
 11
1367.4766842413
 21
-128.5318347725
 31
0.0
  0
LINE
  5
2C9
330
1F
100
AcDbEntity
  8
0
  6
Continuous
 62
     7
370
    25
100
AcDbLine
 10
1367.4766842413
 20
-128.5318347725
 30
0.0
 11
1369.9766842413
 21
-128.5318347725
 31
0.0
  0
LINE
  5
2CA
330
1F
100
AcDbEntity
  8
0
  6
Continuous
 62
     7
370
    25
100
AcDbLine
 10
1377.4766842413
 20
-123.5318347725
 30
0.0
 11
1377.4766842413
 21
-123.9784167599
 31
0.0
  0
LINE
  5
2CB
330
1F
100
AcDbEntity
  8
0
  6
Continuous
 62
     7
370
    25
100
AcDbLine
 10
1377.4766842413
 20
-128.0852527851
 30
0.0
 11
1377.4766842413
 21
-128.5318347725
 31
0.0
  0
LINE
  5
2CC
330
1F
100
AcDbEntity
  8
0
  6
Continuous
 62
     7
370
    25
100
AcDbLine
 10
1377.4766842413
 20
-128.5318347725
 30
0.0
 11
1374.9766842413
 21
-128.5318347725
 31
0.0
  0
LWPOLYLINE
  5
2CD
330
1F
100
AcDbEntity
  8
0
  6
Continuous
 62
     7
370
    25
100
AcDbPolyline
 90
        3
 70
   128
 43
0.0
 10
1369.9766842413
 20
434.6681652275
 10
1370.1543952079
 20
434.6657351294
 10
1372.4766842413
 20
434.2215832402
  0
LINE
  5
2CE
330
1F
100
AcDbEntity
  8
0
  6
Continuous
 62
     7
370
    25
100
AcDbLine
 10
1372.4766842413
 20
434.2215832402
 30
0.0
 11
1372.4766842413
 21
430.1147472149
 31
0.0
  0
LWPOLYLINE
  5
2CF
330
1F
100
AcDbEntity
  8
0
  6
Continuous
 62
     7
370
    25
100
AcDbPolyline
 90
        3
 70
   128
 43
0.0
 10
1372.4766842413
 20
430.1147472149
 10
1371.2518635906
 20
429.7907388242
 10
1369.9766842413
 20
429.6681652275
  0
LWPOLYLINE
  5
2D0
330
1F
100
AcDbEntity
  8
0
  6
Continuous
 62
     7
370
    25
100
AcDbPolyline
 90
        3
 70
   128
 43
0.0
 10
1369.9766842413
 20
429.6681652275
 10
1369.7989732747
 20
429.6705953257
 10
1367.4766842413
 20
430.1147472149
  0
LINE
  5
2D1
330
1F
100
AcDbEntity
  8
0
  6
Continuous
 62
     7
370
    25
100
AcDbLine
 10
1367.4766842413
 20
434.2215832402
 30
0.0
 11
1367.4766842413
 21
430.1147472149
 31
0.0
  0
LWPOLYLINE
  5
2D2
330
1F
100
AcDbEntity
  8
0
  6
Continuous
 62
     7
370
    25
100
AcDbPolyline
 90
        3
 70
   128
 43
0.0
 10
1367.4766842413
 20
434.2215832402
 10
1368.7015048921
 20
434.5455916309
 10
1369.9766842413
 20
434.6681652275
  0
LWPOLYLINE
  5
2D3
330
1F
100
AcDbEntity
  8
0
  6
Continuous
 62
     7
370
    25
100
AcDbPolyline
 90
        3
 70
   128
 43
0.0
 10
1374.9766842413
 20
429.6681652275
 10
1374.7989732747
 20
429.6705953257
 10
1372.4766842413
 20
430.1147472149
  0
LINE
  5
2D4
330
1F
100
AcDbEntity
  8
0
  6
Continuous
 62
     7
370
    25
100
AcDbLine
 10
1369.9766842413
 20
434.6681652275
 30
0.0
 11
1374.9766842413
 21
434.6681652275
 31
0.0
  0
LWPOLYLINE
  5
2D5
330
1F
100
AcDbEntity
  8
0
  6
Continuous
 62
     7
370
    25
100
AcDbPolyline
 90
        3
 70
   128
 43
0.0
 10
1372.4766842413
 20
434.2215832402
 10
1373.7015048921
 20
434.5455916309
 10
1374.9766842413
 20
434.6681652275
  0
LWPOLYLINE
  5
2D6
330
1F
100
AcDbEntity
  8
0
  6
Continuous
 62
     7
370
    25
100
AcDbPolyline
 90
        3
 70
   128
 43
0.0
 10
1374.9766842413
 20
434.6681652275
 10
1375.1543952079
 20
434.6657351294
 10
1377.4766842413
 20
434.2215832402
  0
LINE
  5
2D7
330
1F
100
AcDbEntity
  8
0
  6
Continuous
 62
     7
370
    25
100
AcDbLine
 10
1377.4766842413
 20
434.2215832402
 30
0.0
 11
1377.4766842413
 21
430.1147472149
 31
0.0
  0
LWPOLYLINE
  5
2D8
330
1F
100
AcDbEntity
  8
0
  6
Continuous
 62
     7
370
    25
100
AcDbPolyline
 90
        3
 70
   128
 43
0.0
 10
1377.4766842413
 20
430.1147472149
 10
1376.2518635906
 20
429.7907388242
 10
1374.9766842413
 20
429.6681652275
  0
LINE
  5
2D9
330
1F
100
AcDbEntity
  8
0
  6
Continuous
 62
     7
370
    25
100
AcDbLine
 10
1377.4766842413
 20
429.6681652275
 30
0.0
 11
1377.4766842413
 21
430.1147472149
 31
0.0
  0
LINE
  5
2DA
330
1F
100
AcDbEntity
  8
0
  6
Continuous
 62
     7
370
    25
100
AcDbLine
 10
1367.4766842413
 20
434.2215832402
 30
0.0
 11
1367.4766842413
 21
434.6681652275
 31
0.0
  0
LINE
  5
2DB
330
1F
100
AcDbEntity
  8
0
  6
Continuous
 62
     7
370
    25
100
AcDbLine
 10
1367.4766842413
 20
434.6681652275
 30
0.0
 11
1369.9766842413
 21
434.6681652275
 31
0.0
  0
LINE
  5
2DC
330
1F
100
AcDbEntity
  8
0
  6
Continuous
 62
     7
370
    25
100
AcDbLine
 10
1367.4766842413
 20
429.6681652275
 30
0.0
 11
1367.4766842413
 21
430.1147472149
 31
0.0
  0
LINE
  5
2DD
330
1F
100
AcDbEntity
  8
0
  6
Continuous
 62
     7
370
    25
100
AcDbLine
 10
1377.4766842413
 20
434.2215832402
 30
0.0
 11
1377.4766842413
 21
434.6681652275
 31
0.0
  0
LINE
  5
2DE
330
1F
100
AcDbEntity
  8
0
  6
Continuous
 62
     7
370
    25
100
AcDbLine
 10
1377.4766842413
 20
434.6681652275
 30
0.0
 11
1374.9766842413
 21
434.6681652275
 31
0.0
  0
LINE
  5
2DF
330
1F
100
AcDbEntity
  8
0
  6
Continuous
 62
     7
370
    25
100
AcDbLine
 10
1366.4766842413
 20
429.6681652275
 30
0.0
 11
1378.4766842413
 21
429.6681652275
 31
0.0
  0
LINE
  5
2E0
330
1F
100
AcDbEntity
  8
0
  6
Continuous
 62
     7
370
    25
100
AcDbLine
 10
1378.4766842413
 20
-123.5318347725
 30
0.0
 11
1366.4766842413
 21
-123.5318347725
 31
0.0
  0
CIRCLE
  5
2E1
330
1F
100
AcDbEntity
  8
0
  6
Continuous
 62
     7
370
    25
100
AcDbCircle
 10
1572.1486458991
 20
-91.9318347724
 30
0.0
 40
6.637921400061416
  0
CIRCLE
  5
2E2
330
1F
100
AcDbEntity
  8
0
  6
Continuous
 62
     7
370
    25
100
AcDbCircle
 10
1572.1486458991
 20
398.0681652276
 30
0.0
 40
6.637921400061373
  0
LINE
  5
2E3
330
1F
100
AcDbEntity
  8
0
  6
Continuous
 62
     7
370
    25
100
AcDbLine
 10
1652.4695600102
 20
505.8681652276
 30
0.0
 11
1652.4695600103
 21
429.8681652276
 31
0.0
  0
ELLIPSE
  5
2E4
330
1F
100
AcDbEntity
  8
0
  6
Continuous
 62
     7
370
    25
100
AcDbEllipse
 10
1649.5151367512
 20
430.8681652276
 30
0.0
 11
2.999556355203367
 21
-0.9876483685978882
 31
0.0
210
0.0
220
0.0
230
1.0
 40
0.0522366015
 41
4.555054034360439
 42
6.125850361155153
  0
LINE
  5
2E5
330
1F
100
AcDbEntity
  8
0
  6
Continuous
 62
     7
370
    25
100
AcDbLine
 10
1648.9941922182
 20
430.8681652276
 30
0.0
 11
1648.9941922182
 21
504.8681652276
 31
0.0
  0
ELLIPSE
  5
2E6
330
1F
100
AcDbEntity
  8
0
  6
Continuous
 62
     7
370
    25
100
AcDbEllipse
 10
1649.5151367512
 20
504.8681652276
 30
0.0
 11
2.999556355203367
 21
0.9876483685978882
 31
0.0
210
0.0
220
0.0
230
1.0
 40
0.0522366015
 41
0.1573349460251289
 42
1.728131272819154
  0
ELLIPSE
  5
2E7
330
1F
100
AcDbEntity
  8
0
  6
Continuous
 62
     7
370
    25
100
AcDbEllipse
 10
1649.5151367512
 20
504.8681652276
 30
0.0
 11
1.010882551693157
 21
2.995834705233278
 31
0.0
210
0.0
220
0.0
230
1.0
 40
0.1563316802
 41
0.0527020492643081
 42
1.623498376058527
  0
ARC
  5
2E8
330
1F
100
AcDbEntity
  8
0
  6
Continuous
 62
     7
370
    25
100
AcDbCircle
 10
1650.4846350748
 20
505.8832420724
 30
0.0
 40
1.984982194041267
100
AcDbArc
 50
359.5648082464
 51
89.5580945801
  0
ELLIPSE
  5
2E9
330
1F
100
AcDbEntity
  8
0
  6
Continuous
 62
     7
370
    25
100
AcDbEllipse
 10
1649.5151367512
 20
430.8681652276
 30
0.0
 11
-1.010882551693157
 21
2.995834705233278
 31
0.0
210
0.0
220
0.0
230
1.0
 40
0.1563316802
 41
1.51809427753127
 42
3.088890604325481
  0
ARC
  5
2EA
330
1F
100
AcDbEntity
  8
0
  6
Continuous
 62
     7
370
    25
100
AcDbCircle
 10
1650.4846350748
 20
429.8530883828
 30
0.0
 40
1.984982194042049
100
AcDbArc
 50
270.4419054199
 51
0.4351917536
  0
LINE
  5
2EB
330
1F
100
AcDbEntity
  8
0
  6
Continuous
 62
     7
370
    25
100
AcDbLine
 10
1648.9941922182
 20
504.8681652276
 30
0.0
 11
1576.1184184953
 21
504.8681652276
 31
0.0
  0
ELLIPSE
  5
2EC
330
1F
100
AcDbEntity
  8
0
  6
Continuous
 62
     7
370
    25
100
AcDbEllipse
 10
1576.6393630283
 20
504.8681652276
 30
0.0
 11
-1.010882551693385
 21
2.995834705233335
 31
0.0
210
0.0
220
0.0
230
1.0
 40
0.1563316802
 41
6.230483257915799
 42
7.80127958471085
  0
LINE
  5
2ED
330
1F
100
AcDbEntity
  8
0
  6
Continuous
 62
     7
370
    25
100
AcDbLine
 10
1575.6545552753
 20
507.8681652276
 30
0.0
 11
1650.4999445042
 21
507.8681652276
 31
0.0
  0
LINE
  5
2EE
330
1F
100
AcDbEntity
  8
0
  6
Continuous
 62
     7
370
    25
100
AcDbLine
 10
1576.1184184953
 20
430.8681652276
 30
0.0
 11
1648.9941922182
 21
430.8681652276
 31
0.0
  0
LINE
  5
2EF
330
1F
100
AcDbEntity
  8
0
  6
Continuous
 62
     7
370
    25
100
AcDbLine
 10
1650.4999445042
 20
427.8681652276
 30
0.0
 11
1575.6545552753
 21
427.8681652276
 31
0.0
  0
ELLIPSE
  5
2F0
330
1F
100
AcDbEntity
  8
0
  6
Continuous
 62
     7
370
    25
100
AcDbEllipse
 10
1576.6393630283
 20
430.8681652276
 30
0.0
 11
1.010882551693157
 21
2.995834705233278
 31
0.0
210
0.0
220
0.0
230
1.0
 40
0.1563316802
 41
1.623498376058546
 42
3.194294702852825
  0
LINE
  5
2F1
330
1F
100
AcDbEntity
  8
0
  6
Continuous
 62
     7
370
    25
100
AcDbLine
 10
1576.1184184953
 20
504.8681652276
 30
0.0
 11
1576.1184184953
 21
430.8681652276
 31
0.0
  0
CIRCLE
  5
2F2
330
1F
100
AcDbEntity
  8
0
  6
Continuous
 62
     7
370
    25
100
AcDbCircle
 10
1612.5602111334
 20
467.8584965499
 30
0.0
 40
0.9903390242730628
  0
ARC
  5
2F3
330
1F
100
AcDbEntity
  8
0
  6
Continuous
 62
     7
370
    25
100
AcDbCircle
 10
1650.8319314301
 20
429.8530883828
 30
0.0
 40
1.984982194043248
100
AcDbArc
 50
270.4419054199
 51
0.4351917535
  0
LINE
  5
2F4
330
1F
100
AcDbEntity
  8
0
  6
Continuous
 62
     7
370
    25
100
AcDbLine
 10
1650.4999445042
 20
427.8681652276
 30
0.0
 11
1650.8472408596
 21
427.8681652276
 31
0.0
  0
LINE
  5
2F5
330
1F
100
AcDbEntity
  8
0
  6
Continuous
 62
     7
370
    25
100
AcDbLine
 10
1652.4695600103
 20
429.8681652276
 30
0.0
 11
1652.8168563656
 21
429.8681652276
 31
0.0
  0
LINE
  5
2F6
330
1F
100
AcDbEntity
  8
0
  6
Continuous
 62
     7
370
    25
100
AcDbLine
 10
1652.8168563656
 20
429.8681652276
 30
0.0
 11
1652.8168563656
 21
505.8681652276
 31
0.0
  0
LINE
  5
2F7
330
1F
100
AcDbEntity
  8
0
  6
Continuous
 62
     7
370
    25
100
AcDbLine
 10
1652.4695600102
 20
505.8681652276
 30
0.0
 11
1652.8168563656
 21
505.8681652276
 31
0.0
  0
ARC
  5
2F8
330
1F
100
AcDbEntity
  8
0
  6
Continuous
 62
     7
370
    25
100
AcDbCircle
 10
1650.8319314301
 20
505.8832420724
 30
0.0
 40
1.984982194042104
100
AcDbArc
 50
359.5648082464
 51
89.5580945801
  0
LINE
  5
2F9
330
1F
100
AcDbEntity
  8
0
  6
Continuous
 62
     7
370
    25
100
AcDbLine
 10
1650.4999445042
 20
507.8681652276
 30
0.0
 11
1650.8472408596
 21
507.8681652276
 31
0.0
  0
ARC
  5
2FA
330
1F
100
AcDbEntity
  8
0
  6
Continuous
 62
     7
370
    25
100
AcDbCircle
 10
1613.4436149862
 20
467.8681652276
 30
0.0
 40
1.005514998309867
100
AcDbArc
 50
116.788832331
 51
243.211167669
  0
LINE
  5
2FB
330
1F
100
AcDbEntity
  8
0
  6
Continuous
 62
     7
370
    25
100
AcDbLine
 10
1652.4695600102
 20
-123.7318347725
 30
0.0
 11
1652.4695600103
 21
-199.7318347725
 31
0.0
  0
ELLIPSE
  5
2FC
330
1F
100
AcDbEntity
  8
0
  6
Continuous
 62
     7
370
    25
100
AcDbEllipse
 10
1649.5151367512
 20
-198.7318347725
 30
0.0
 11
2.999556355203367
 21
-0.9876483685978882
 31
0.0
210
0.0
220
0.0
230
1.0
 40
0.0522366015
 41
4.555054034360439
 42
6.125850361155435
  0
LINE
  5
2FD
330
1F
100
AcDbEntity
  8
0
  6
Continuous
 62
     7
370
    25
100
AcDbLine
 10
1648.9941922182
 20
-198.7318347725
 30
0.0
 11
1648.9941922182
 21
-124.7318347725
 31
0.0
  0
ELLIPSE
  5
2FE
330
1F
100
AcDbEntity
  8
0
  6
Continuous
 62
     7
370
    25
100
AcDbEllipse
 10
1649.5151367512
 20
-124.7318347725
 30
0.0
 11
2.999556355203367
 21
0.9876483685978882
 31
0.0
210
0.0
220
0.0
230
1.0
 40
0.0522366015
 41
0.1573349460252097
 42
1.728131272819154
  0
ELLIPSE
  5
2FF
330
1F
100
AcDbEntity
  8
0
  6
Continuous
 62
     7
370
    25
100
AcDbEllipse
 10
1649.5151367512
 20
-124.7318347725
 30
0.0
 11
1.010882551693157
 21
2.995834705233293
 31
0.0
210
0.0
220
0.0
230
1.0
 40
0.1563316802
 41
0.0527020492642744
 42
1.623498376058524
  0
ARC
  5
300
330
1F
100
AcDbEntity
  8
0
  6
Continuous
 62
     7
370
    25
100
AcDbCircle
 10
1650.4846350748
 20
-123.7167579277
 30
0.0
 40
1.984982194041267
100
AcDbArc
 50
359.5648082464
 51
89.5580945801
  0
ELLIPSE
  5
301
330
1F
100
AcDbEntity
  8
0
  6
Continuous
 62
     7
370
    25
100
AcDbEllipse
 10
1649.5151367512
 20
-198.7318347725
 30
0.0
 11
-1.010882551693157
 21
2.995834705233278
 31
0.0
210
0.0
220
0.0
230
1.0
 40
0.1563316802
 41
1.518094277531269
 42
3.0888906043255
  0
ARC
  5
302
330
1F
100
AcDbEntity
  8
0
  6
Continuous
 62
     7
370
    25
100
AcDbCircle
 10
1650.4846350748
 20
-199.7469116173
 30
0.0
 40
1.984982194042395
100
AcDbArc
 50
270.4419054199
 51
0.4351917535
  0
LINE
  5
303
330
1F
100
AcDbEntity
  8
0
  6
Continuous
 62
     7
370
    25
100
AcDbLine
 10
1648.9941922182
 20
-124.7318347725
 30
0.0
 11
1576.1184184953
 21
-124.7318347725
 31
0.0
  0
ELLIPSE
  5
304
330
1F
100
AcDbEntity
  8
0
  6
Continuous
 62
     7
370
    25
100
AcDbEllipse
 10
1576.6393630283
 20
-124.7318347725
 30
0.0
 11
-1.010882551693385
 21
2.995834705233293
 31
0.0
210
0.0
220
0.0
230
1.0
 40
0.1563316802
 41
6.2304832579162
 42
7.801279584710844
  0
LINE
  5
305
330
1F
100
AcDbEntity
  8
0
  6
Continuous
 62
     7
370
    25
100
AcDbLine
 10
1575.6545552753
 20
-121.7318347725
 30
0.0
 11
1650.4999445042
 21
-121.7318347725
 31
0.0
  0
LINE
  5
306
330
1F
100
AcDbEntity
  8
0
  6
Continuous
 62
     7
370
    25
100
AcDbLine
 10
1576.1184184953
 20
-198.7318347725
 30
0.0
 11
1648.9941922182
 21
-198.7318347725
 31
0.0
  0
LINE
  5
307
330
1F
100
AcDbEntity
  8
0
  6
Continuous
 62
     7
370
    25
100
AcDbLine
 10
1650.4999445042
 20
-201.7318347725
 30
0.0
 11
1575.6545552753
 21
-201.7318347725
 31
0.0
  0
ELLIPSE
  5
308
330
1F
100
AcDbEntity
  8
0
  6
Continuous
 62
     7
370
    25
100
AcDbEllipse
 10
1576.6393630283
 20
-198.7318347725
 30
0.0
 11
1.010882551693157
 21
2.995834705233278
 31
0.0
210
0.0
220
0.0
230
1.0
 40
0.1563316802
 41
1.623498376058547
 42
3.194294702852824
  0
LINE
  5
309
330
1F
100
AcDbEntity
  8
0
  6
Continuous
 62
     7
370
    25
100
AcDbLine
 10
1576.1184184953
 20
-124.7318347725
 30
0.0
 11
1576.1184184953
 21
-198.7318347725
 31
0.0
  0
CIRCLE
  5
30A
330
1F
100
AcDbEntity
  8
0
  6
Continuous
 62
     7
370
    25
100
AcDbCircle
 10
1612.5602111334
 20
-161.7415034502
 30
0.0
 40
0.9903390242731169
  0
LINE
  5
30B
330
1F
100
AcDbEntity
  8
0
  6
Continuous
 62
     7
370
    25
100
AcDbLine
 10
1652.8168563656
 20
-199.7318347725
 30
0.0
 11
1652.8168563656
 21
-123.7318347725
 31
0.0
  0
LINE
  5
30C
330
1F
100
AcDbEntity
  8
0
  6
Continuous
 62
     7
370
    25
100
AcDbLine
 10
1652.4695600103
 20
-199.7318347725
 30
0.0
 11
1652.8168563656
 21
-199.7318347725
 31
0.0
  0
LINE
  5
30D
330
1F
100
AcDbEntity
  8
0
  6
Continuous
 62
     7
370
    25
100
AcDbLine
 10
1652.4695600102
 20
-123.7318347725
 30
0.0
 11
1652.8168563656
 21
-123.7318347725
 31
0.0
  0
ARC
  5
30E
330
1F
100
AcDbEntity
  8
0
  6
Continuous
 62
     7
370
    25
100
AcDbCircle
 10
1650.8319314301
 20
-199.7469116173
 30
0.0
 40
1.984982194043298
100
AcDbArc
 50
270.44190542
 51
0.4351917535
  0
LINE
  5
30F
330
1F
100
AcDbEntity
  8
0
  6
Continuous
 62
     7
370
    25
100
AcDbLine
 10
1650.4999445042
 20
-201.7318347725
 30
0.0
 11
1650.8472408596
 21
-201.7318347725
 31
0.0
  0
ARC
  5
310
330
1F
100
AcDbEntity
  8
0
  6
Continuous
 62
     7
370
    25
100
AcDbCircle
 10
1650.8319314301
 20
-123.7167579277
 30
0.0
 40
1.98498219404217
100
AcDbArc
 50
359.5648082464
 51
89.5580945801
  0
LINE
  5
311
330
1F
100
AcDbEntity
  8
0
  6
Continuous
 62
     7
370
    25
100
AcDbLine
 10
1650.4999445042
 20
-121.7318347725
 30
0.0
 11
1650.8472408596
 21
-121.7318347725
 31
0.0
  0
ARC
  5
312
330
1F
100
AcDbEntity
  8
0
  6
Continuous
 62
     7
370
    25
100
AcDbCircle
 10
1613.4436149862
 20
-161.7318347725
 30
0.0
 40
1.005514998309526
100
AcDbArc
 50
116.7888323286
 51
243.2111676714
  0
ARC
  5
313
330
1F
100
AcDbEntity
  8
0
  6
Continuous
 62
     7
370
    25
100
AcDbCircle
 10
1902.1904865866
 20
421.0681652275
 30
0.0
 40
3.0
100
AcDbArc
 50
18.3634040667
 51
90.0
  0
ARC
  5
314
330
1F
100
AcDbEntity
  8
0
  6
Continuous
 62
     7
370
    25
100
AcDbCircle
 10
1094.831408106
 20
153.0681652275
 30
0.0
 40
853.6777777777779
100
AcDbArc
 50
341.6365959333
 51
18.3634040667
  0
ARC
  5
315
330
1F
100
AcDbEntity
  8
0
  6
Continuous
 62
     7
370
    25
100
AcDbCircle
 10
1902.1904865866
 20
-114.9318347725
 30
0.0
 40
3.000000000000024
100
AcDbArc
 50
270.0
 51
341.6365959333
  0
LINE
  5
316
330
1F
100
AcDbEntity
  8
0
  6
Continuous
 62
     7
370
    25
100
AcDbLine
 10
1905.0377188744
 20
422.0132939484
 30
0.0
 11
1907.8849511622
 21
422.9584226693
 31
0.0
  0
ARC
  5
317
330
1F
100
AcDbEntity
  8
0
  6
Continuous
 62
     7
370
    25
100
AcDbCircle
 10
1094.831408106
 20
153.0681652275
 30
0.0
 40
856.6777777777783
100
AcDbArc
 50
341.6365959333
 51
18.3634040667
  0
LINE
  5
318
330
1F
100
AcDbEntity
  8
0
  6
Continuous
 62
     7
370
    25
100
AcDbLine
 10
1905.0377188744
 20
-115.8769634934
 30
0.0
 11
1907.8849511622
 21
-116.8220922143
 31
0.0
  0
LINE
  5
319
330
1F
100
AcDbEntity
  8
0
  6
Continuous
 62
     7
370
    25
100
AcDbLine
 10
1847.4913106215
 20
427.0681652275
 30
0.0
 11
1902.1904865866
 21
427.0681652275
 31
0.0
  0
LINE
  5
31A
330
1F
100
AcDbEntity
  8
0
  6
Continuous
 62
     7
370
    25
100
AcDbLine
 10
1902.1904865866
 20
424.0681652275
 30
0.0
 11
1902.1904865866
 21
427.0681652275
 31
0.0
  0
ARC
  5
31B
330
1F
100
AcDbEntity
  8
0
  6
Continuous
 62
     7
370
    25
100
AcDbCircle
 10
1902.1904865866
 20
421.0681652275
 30
0.0
 40
6.000000000000291
100
AcDbArc
 50
18.3634040667
 51
90.0
  0
ARC
  5
31C
330
1F
100
AcDbEntity
  8
0
  6
Continuous
 62
     7
370
    25
100
AcDbCircle
 10
1902.1904865866
 20
-114.9318347725
 30
0.0
 40
6.000000000000282
100
AcDbArc
 50
270.0
 51
341.6365959333
  0
LINE
  5
31D
330
1F
100
AcDbEntity
  8
0
  6
Continuous
 62
     7
370
    25
100
AcDbLine
 10
1902.1904865866
 20
-120.9318347725
 30
0.0
 11
1902.1904865866
 21
-117.9318347725
 31
0.0
  0
LINE
  5
31E
330
1F
100
AcDbEntity
  8
0
  6
Continuous
 62
     7
370
    25
100
AcDbLine
 10
1902.1904865866
 20
-120.9318347725
 30
0.0
 11
1847.4913106215
 21
-120.9318347725
 31
0.0
  0
LINE
  5
31F
330
1F
100
AcDbEntity
  8
0
  6
Continuous
 62
     7
370
    25
100
AcDbLine
 10
1837.9283105008
 20
427.0681652275
 30
0.0
 11
1847.4913106215
 21
427.0681652275
 31
0.0
  0
LINE
  5
320
330
1F
100
AcDbEntity
  8
0
  6
Continuous
 62
     7
370
    25
100
AcDbLine
 10
1847.4913106215
 20
424.0681652275
 30
0.0
 11
1847.4913106215
 21
427.0681652275
 31
0.0
  0
ARC
  5
321
330
1F
100
AcDbEntity
  8
0
  6
Continuous
 62
     7
370
    25
100
AcDbCircle
 10
1847.4913106215
 20
421.0681652275
 30
0.0
 40
3.0
100
AcDbArc
 50
18.3634040667
 51
90.0
  0
ARC
  5
322
330
1F
100
AcDbEntity
  8
0
  6
Continuous
 62
     7
370
    25
100
AcDbCircle
 10
1847.4913106215
 20
421.0681652275
 30
0.0
 40
6.00000000000004
100
AcDbArc
 50
18.3634040667
 51
90.0
  0
LINE
  5
323
330
1F
100
AcDbEntity
  8
0
  6
Continuous
 62
     7
370
    25
100
AcDbLine
 10
1850.3385429093
 20
422.0132939484
 30
0.0
 11
1853.1857751972
 21
422.9584226693
 31
0.0
  0
LINE
  5
324
330
1F
100
AcDbEntity
  8
0
  6
Continuous
 62
     7
370
    25
100
AcDbLine
 10
1847.4913106215
 20
-120.9318347725
 30
0.0
 11
1837.9283105008
 21
-120.9318347725
 31
0.0
  0
LINE
  5
325
330
1F
100
AcDbEntity
  8
0
  6
Continuous
 62
     7
370
    25
100
AcDbLine
 10
1847.4913106215
 20
-120.9318347725
 30
0.0
 11
1847.4913106215
 21
-117.9318347725
 31
0.0
  0
ARC
  5
326
330
1F
100
AcDbEntity
  8
0
  6
Continuous
 62
     7
370
    25
100
AcDbCircle
 10
1847.4913106215
 20
-114.9318347725
 30
0.0
 40
3.0
100
AcDbArc
 50
270.0
 51
341.6365959333
  0
LINE
  5
327
330
1F
100
AcDbEntity
  8
0
  6
Continuous
 62
     7
370
    25
100
AcDbLine
 10
1850.3385429093
 20
-115.8769634934
 30
0.0
 11
1853.1857751972
 21
-116.8220922143
 31
0.0
  0
ARC
  5
328
330
1F
100
AcDbEntity
  8
0
  6
Continuous
 62
     7
370
    25
100
AcDbCircle
 10
1847.4913106215
 20
-114.9318347725
 30
0.0
 40
6.000000000000067
100
AcDbArc
 50
270.0
 51
341.6365959333
  0
ARC
  5
329
330
1F
100
AcDbEntity
  8
0
  6
Continuous
 62
     7
370
    25
100
AcDbCircle
 10
1040.1322321409
 20
153.0681652275
 30
0.0
 40
853.6777777777777
100
AcDbArc
 50
341.6365959333
 51
18.3634040667
  0
ARC
  5
32A
330
1F
100
AcDbEntity
  8
0
  6
Continuous
 62
     7
370
    25
100
AcDbCircle
 10
1040.1322321409
 20
153.0681652275
 30
0.0
 40
856.677777777778
100
AcDbArc
 50
341.6365959333
 51
18.3634040667
  0
ARC
  5
32B
330
1F
100
AcDbEntity
  8
0
  6
Continuous
 62
     7
370
    25
100
AcDbCircle
 10
962.4708681213
 20
153.0681652276
 30
0.0
 40
856.6777777777776
100
AcDbArc
 50
342.3321766613
 51
17.6678233387
  0
LINE
  5
32C
330
1F
100
AcDbEntity
  8
0
  6
Continuous
 62
     7
370
    25
100
AcDbLine
 10
1881.5091858838
 20
-121.9318347725
 30
0.0
 11
1881.5091858838
 21
-120.9318347725
 31
0.0
  0
LINE
  5
32D
330
1F
100
AcDbEntity
  8
0
  6
Continuous
 62
     7
370
    25
100
AcDbLine
 10
1881.5091858838
 20
427.0681652275
 30
0.0
 11
1881.5091858838
 21
428.0681652275
 31
0.0
  0
LINE
  5
32E
330
1F
100
AcDbEntity
  8
0
  6
Continuous
 62
     8
370
    25
100
AcDbLine
 10
1453.2211696991
 20
431.0681652275
 30
0.0
 11
1566.2618234791
 21
431.0681652275
 31
0.0
  0
LINE
  5
32F
330
1F
100
AcDbEntity
  8
0
  6
Continuous
 62
     8
370
    25
100
AcDbLine
 10
1566.2513323203
 20
440.0681652275
 30
0.0
 11
1453.2211696991
 21
440.0681652275
 31
0.0
  0
LINE
  5
330
330
1F
100
AcDbEntity
  8
0
  6
Continuous
 62
     8
370
    25
100
AcDbLine
 10
1392.73235497
 20
431.0681652275
 30
0.0
 11
1392.9304728304
 21
431.0681652275
 31
0.0
  0
LINE
  5
331
330
1F
100
AcDbEntity
  8
0
  6
Continuous
 62
     8
370
    25
100
AcDbLine
 10
1392.9304728304
 20
440.0681652275
 30
0.0
 11
1392.73235497
 21
440.0681652275
 31
0.0
  0
LINE
  5
332
330
1F
100
AcDbEntity
  8
0
  6
Continuous
 62
     8
370
    25
100
AcDbLine
 10
1566.2513323203
 20
-124.9318347725
 30
0.0
 11
1453.2211696991
 21
-124.9318347725
 31
0.0
  0
LINE
  5
333
330
1F
100
AcDbEntity
  8
0
  6
Continuous
 62
     8
370
    25
100
AcDbLine
 10
1453.2211696991
 20
-133.9318347725
 30
0.0
 11
1566.2618234791
 21
-133.9318347725
 31
0.0
  0
LINE
  5
334
330
1F
100
AcDbEntity
  8
0
  6
Continuous
 62
     8
370
    25
100
AcDbLine
 10
1392.73235497
 20
-133.9318347725
 30
0.0
 11
1392.9304728304
 21
-133.9318347725
 31
0.0
  0
LINE
  5
335
330
1F
100
AcDbEntity
  8
0
  6
Continuous
 62
     8
370
    25
100
AcDbLine
 10
1392.9304728304
 20
-124.9318347725
 30
0.0
 11
1392.73235497
 21
-124.9318347725
 31
0.0
  0
LINE
  5
336
330
1F
100
AcDbEntity
  8
0
  6
Continuous
 62
     8
370
    25
100
AcDbLine
 10
1517.9901682911
 20
416.0681652275
 30
0.0
 11
1605.8552709129
 21
416.0681652275
 31
0.0
  0
LINE
  5
337
330
1F
100
AcDbEntity
  8
0
  6
Continuous
 62
     8
370
    25
100
AcDbLine
 10
1632.7552709129
 20
416.0681652275
 30
0.0
 11
1744.8661456524
 21
416.0681652275
 31
0.0
  0
LINE
  5
338
330
1F
100
AcDbEntity
  8
0
  6
Continuous
 62
     8
370
    25
100
AcDbLine
 10
1744.8661456524
 20
425.0681652275
 30
0.0
 11
1632.7552709129
 21
425.0681652275
 31
0.0
  0
LINE
  5
339
330
1F
100
AcDbEntity
  8
0
  6
Continuous
 62
     8
370
    25
100
AcDbLine
 10
1605.8552709129
 20
425.0681652275
 30
0.0
 11
1517.9901682911
 21
425.0681652275
 31
0.0
  0
LINE
  5
33A
330
1F
100
AcDbEntity
  8
0
  6
Continuous
 62
     8
370
    25
100
AcDbLine
 10
1813.9127685045
 20
416.0681652275
 30
0.0
 11
1814.5366769432
 21
416.0681652275
 31
0.0
  0
LINE
  5
33B
330
1F
100
AcDbEntity
  8
0
  6
Continuous
 62
     8
370
    25
100
AcDbLine
 10
1814.5366769432
 20
425.0681652275
 30
0.0
 11
1813.9127685045
 21
425.0681652275
 31
0.0
  0
LINE
  5
33C
330
1F
100
AcDbEntity
  8
0
  6
Continuous
 62
     8
370
    25
100
AcDbLine
 10
1838.6922425233
 20
425.0681652275
 30
0.0
 11
1814.5366769432
 21
425.0681652275
 31
0.0
  0
LINE
  5
33D
330
1F
100
AcDbEntity
  8
0
  6
Continuous
 62
     8
370
    25
100
AcDbLine
 10
1814.5366769432
 20
416.0681652275
 30
0.0
 11
1838.6922425233
 21
416.0681652275
 31
0.0
  0
LINE
  5
33E
330
1F
100
AcDbEntity
  8
0
  6
Continuous
 62
     8
370
    25
100
AcDbLine
 10
1330.7727448183
 20
416.0681652275
 30
0.0
 11
1331.6083430996
 21
416.0681652275
 31
0.0
  0
LINE
  5
33F
330
1F
100
AcDbEntity
  8
0
  6
Continuous
 62
     8
370
    25
100
AcDbLine
 10
1331.6083430996
 20
425.0681652275
 30
0.0
 11
1330.7727448183
 21
425.0681652275
 31
0.0
  0
LINE
  5
340
330
1F
100
AcDbEntity
  8
0
  6
Continuous
 62
     8
370
    25
100
AcDbLine
 10
1330.7727448183
 20
425.0681652275
 30
0.0
 11
1328.7389350435
 21
425.0681652275
 31
0.0
  0
LINE
  5
341
330
1F
100
AcDbEntity
  8
0
  6
Continuous
 62
     8
370
    25
100
AcDbLine
 10
1328.7389350435
 20
416.0681652275
 30
0.0
 11
1330.7727448183
 21
416.0681652275
 31
0.0
  0
LINE
  5
342
330
1F
100
AcDbEntity
  8
0
  6
Continuous
 62
     8
370
    25
100
AcDbLine
 10
1328.7389350435
 20
425.0681652275
 30
0.0
 11
1328.1950612715
 21
425.0681652275
 31
0.0
  0
LINE
  5
343
330
1F
100
AcDbEntity
  8
0
  6
Continuous
 62
     8
370
    25
100
AcDbLine
 10
1328.1950612715
 20
416.0681652275
 30
0.0
 11
1328.7389350435
 21
416.0681652275
 31
0.0
  0
LINE
  5
344
330
1F
100
AcDbEntity
  8
0
  6
Continuous
 62
     8
370
    25
100
AcDbLine
 10
1744.8661456524
 20
-109.9318347725
 30
0.0
 11
1632.7552709129
 21
-109.9318347725
 31
0.0
  0
LINE
  5
345
330
1F
100
AcDbEntity
  8
0
  6
Continuous
 62
     8
370
    25
100
AcDbLine
 10
1605.8552709129
 20
-109.9318347725
 30
0.0
 11
1517.9901682911
 21
-109.9318347725
 31
0.0
  0
LINE
  5
346
330
1F
100
AcDbEntity
  8
0
  6
Continuous
 62
     8
370
    25
100
AcDbLine
 10
1517.9901682911
 20
-118.9318347725
 30
0.0
 11
1605.8552709129
 21
-118.9318347725
 31
0.0
  0
LINE
  5
347
330
1F
100
AcDbEntity
  8
0
  6
Continuous
 62
     8
370
    25
100
AcDbLine
 10
1632.7552709129
 20
-118.9318347725
 30
0.0
 11
1744.8661456524
 21
-118.9318347725
 31
0.0
  0
LINE
  5
348
330
1F
100
AcDbEntity
  8
0
  6
Continuous
 62
     8
370
    25
100
AcDbLine
 10
1813.9127685045
 20
-118.9318347725
 30
0.0
 11
1814.5366769432
 21
-118.9318347725
 31
0.0
  0
LINE
  5
349
330
1F
100
AcDbEntity
  8
0
  6
Continuous
 62
     8
370
    25
100
AcDbLine
 10
1814.5366769432
 20
-109.9318347725
 30
0.0
 11
1813.9127685045
 21
-109.9318347725
 31
0.0
  0
LINE
  5
34A
330
1F
100
AcDbEntity
  8
0
  6
Continuous
 62
     8
370
    25
100
AcDbLine
 10
1814.5366769432
 20
-118.9318347725
 30
0.0
 11
1838.6922425233
 21
-118.9318347725
 31
0.0
  0
LINE
  5
34B
330
1F
100
AcDbEntity
  8
0
  6
Continuous
 62
     8
370
    25
100
AcDbLine
 10
1838.6922425233
 20
-109.9318347725
 30
0.0
 11
1814.5366769432
 21
-109.9318347725
 31
0.0
  0
LINE
  5
34C
330
1F
100
AcDbEntity
  8
0
  6
Continuous
 62
     8
370
    25
100
AcDbLine
 10
1331.6083430996
 20
-109.9318347725
 30
0.0
 11
1330.7727448183
 21
-109.9318347725
 31
0.0
  0
LINE
  5
34D
330
1F
100
AcDbEntity
  8
0
  6
Continuous
 62
     8
370
    25
100
AcDbLine
 10
1330.7727448183
 20
-118.9318347725
 30
0.0
 11
1331.6083430996
 21
-118.9318347725
 31
0.0
  0
LINE
  5
34E
330
1F
100
AcDbEntity
  8
0
  6
Continuous
 62
     8
370
    25
100
AcDbLine
 10
1328.7389350435
 20
-118.9318347725
 30
0.0
 11
1330.7727448183
 21
-118.9318347725
 31
0.0
  0
LINE
  5
34F
330
1F
100
AcDbEntity
  8
0
  6
Continuous
 62
     8
370
    25
100
AcDbLine
 10
1330.7727448183
 20
-109.9318347725
 30
0.0
 11
1328.7389350435
 21
-109.9318347725
 31
0.0
  0
LINE
  5
350
330
1F
100
AcDbEntity
  8
0
  6
Continuous
 62
     8
370
    25
100
AcDbLine
 10
1328.7389350435
 20
-109.9318347725
 30
0.0
 11
1328.1950612715
 21
-109.9318347725
 31
0.0
  0
LINE
  5
351
330
1F
100
AcDbEntity
  8
0
  6
Continuous
 62
     8
370
    25
100
AcDbLine
 10
1328.1950612715
 20
-118.9318347725
 30
0.0
 11
1328.7389350435
 21
-118.9318347725
 31
0.0
  0
LINE
  5
352
330
1F
100
AcDbEntity
  8
0
  6
Continuous
 62
     8
370
    25
100
AcDbLine
 10
1521.1577755283
 20
410.0681652276
 30
0.0
 11
1500.6124889599
 21
410.0681652276
 31
0.0
  0
LINE
  5
353
330
1F
100
AcDbEntity
  8
0
  6
Continuous
 62
     8
370
    25
100
AcDbLine
 10
1492.8281154725
 20
410.0681652276
 30
0.0
 11
1489.0724095419
 21
410.0681652276
 31
0.0
  0
LINE
  5
354
330
1F
100
AcDbEntity
  8
0
  6
Continuous
 62
     8
370
    25
100
AcDbLine
 10
1473.6804533494
 20
410.0681652276
 30
0.0
 11
1416.0847818643
 21
410.0681652276
 31
0.0
  0
LINE
  5
355
330
1F
100
AcDbEntity
  8
0
  6
Continuous
 62
     8
370
    25
100
AcDbLine
 10
1408.3004083769
 20
410.0681652276
 30
0.0
 11
652.5281733245
 21
410.0681652276
 31
0.0
  0
LINE
  5
356
330
1F
100
AcDbEntity
  8
0
  6
Continuous
 62
     8
370
    25
100
AcDbLine
 10
-118.4923767345
 20
401.0681652276
 30
0.0
 11
-51.3006299249
 21
401.0681652276
 31
0.0
  0
LINE
  5
357
330
1F
100
AcDbEntity
  8
0
  6
Continuous
 62
     8
370
    25
100
AcDbLine
 10
-51.3006299249
 20
410.0681652276
 30
0.0
 11
-118.4923767345
 21
410.0681652276
 31
0.0
  0
LINE
  5
358
330
1F
100
AcDbEntity
  8
0
  6
Continuous
 62
     8
370
    25
100
AcDbLine
 10
-8.8143541273
 20
415.3181652276
 30
0.0
 11
9.2393668074
 21
415.3181652276
 31
0.0
  0
LINE
  5
359
330
1F
100
AcDbEntity
  8
0
  6
Continuous
 62
     8
370
    25
100
AcDbLine
 10
9.2393668074
 20
-109.1818347724
 30
0.0
 11
-8.8143541273
 21
-109.1818347724
 31
0.0
  0
LINE
  5
35A
330
1F
100
AcDbEntity
  8
0
  6
Continuous
 62
     8
370
    25
100
AcDbLine
 10
1521.1577755283
 20
-103.9318347724
 30
0.0
 11
1500.6124889597
 21
-103.9318347724
 31
0.0
  0
LINE
  5
35B
330
1F
100
AcDbEntity
  8
0
  6
Continuous
 62
     8
370
    25
100
AcDbLine
 10
1492.8281154727
 20
-103.9318347724
 30
0.0
 11
1489.0724095419
 21
-103.9318347724
 31
0.0
  0
LINE
  5
35C
330
1F
100
AcDbEntity
  8
0
  6
Continuous
 62
     8
370
    25
100
AcDbLine
 10
1473.6804533494
 20
-103.9318347724
 30
0.0
 11
1416.0847818641
 21
-103.9318347724
 31
0.0
  0
LINE
  5
35D
330
1F
100
AcDbEntity
  8
0
  6
Continuous
 62
     8
370
    25
100
AcDbLine
 10
1408.3004083771
 20
-103.9318347724
 30
0.0
 11
652.5281733245
 21
-103.9318347724
 31
0.0
  0
LINE
  5
35E
330
1F
100
AcDbEntity
  8
0
  6
Continuous
 62
     8
370
    25
100
AcDbLine
 10
-118.4923767345
 20
-94.9318347724
 30
0.0
 11
-51.3006299249
 21
-94.9318347724
 31
0.0
  0
LINE
  5
35F
330
1F
100
AcDbEntity
  8
0
  6
Continuous
 62
     8
370
    25
100
AcDbLine
 10
-51.3006299249
 20
-103.9318347724
 30
0.0
 11
-118.4923767345
 21
-103.9318347724
 31
0.0
  0
LINE
  5
360
330
1F
100
AcDbEntity
  8
0
  6
Continuous
 62
     8
370
    25
100
AcDbLine
 10
1519.340739317
 20
-90.4589086725
 30
0.0
 11
1519.340739317
 21
396.5952391276
 31
0.0
  0
LINE
  5
361
330
1F
100
AcDbEntity
  8
0
  6
Continuous
 62
     8
370
    25
100
AcDbLine
 10
1518.1094163664
 20
-90.6942642986
 30
0.0
 11
1518.1094163664
 21
396.8305947536
 31
0.0
  0
LINE
  5
362
330
1F
100
AcDbEntity
  8
0
  6
Continuous
 62
     8
370
    25
100
AcDbLine
 10
695.930608815
 20
-91.9318347724
 30
0.0
 11
695.930608815
 21
398.0681652276
 31
0.0
  0
LINE
  5
363
330
1F
100
AcDbEntity
  8
0
  6
Continuous
 62
     8
370
    25
100
AcDbLine
 10
400.6635379881
 20
-91.9318347724
 30
0.0
 11
400.6635379881
 21
398.0681652276
 31
0.0
  0
LINE
  5
364
330
1F
100
AcDbEntity
  8
0
  6
Continuous
 62
     8
370
    25
100
AcDbLine
 10
48.7958166864
 20
-91.9318347724
 30
0.0
 11
48.7958166864
 21
398.0681652276
 31
0.0
  0
LINE
  5
365
330
1F
100
AcDbEntity
  8
0
  6
Continuous
 62
     8
370
    25
100
AcDbLine
 10
1652.8168563656
 20
-198.7318347725
 30
0.0
 11
1939.9816148504
 21
-198.7318347725
 31
0.0
  0
LINE
  5
366
330
1F
100
AcDbEntity
  8
0
  6
Continuous
 62
     8
370
    25
100
AcDbLine
 10
1652.8168563656
 20
-125.1318347725
 30
0.0
 11
1939.9816148504
 21
-125.1318347725
 31
0.0
  0
LINE
  5
367
330
1F
100
AcDbEntity
  8
0
  6
Continuous
 62
     8
370
    25
100
AcDbLine
 10
1652.8168563656
 20
431.2681652275
 30
0.0
 11
1939.9816148504
 21
431.2681652275
 31
0.0
  0
LINE
  5
368
330
1F
100
AcDbEntity
  8
0
  6
Continuous
 62
     8
370
    25
100
AcDbLine
 10
1652.8168563656
 20
504.8681652275
 30
0.0
 11
1939.9816148504
 21
504.8681652275
 31
0.0
  0
LINE
  5
369
330
1F
100
AcDbEntity
  8
0
  6
Continuous
 62
     8
370
    25
100
AcDbLine
 10
420.8405729153
 20
415.0681652276
 30
0.0
 11
408.5015530766
 21
415.0681652276
 31
0.0
  0
LINE
  5
36A
330
1F
100
AcDbEntity
  8
0
  6
Continuous
 62
     8
370
    25
100
AcDbLine
 10
448.5015530766
 20
415.0681652276
 30
0.0
 11
420.8405729153
 21
415.0681652276
 31
0.0
  0
LINE
  5
36B
330
1F
100
AcDbEntity
  8
0
  6
Continuous
 62
     8
370
    25
100
AcDbLine
 10
408.5015530766
 20
-108.9318347724
 30
0.0
 11
448.5015530766
 21
-108.9318347724
 31
0.0
  0
LINE
  5
36C
330
1F
100
AcDbEntity
  8
0
  6
Continuous
 62
     8
370
    25
100
AcDbLine
 10
965.088933886
 20
415.0681652276
 30
0.0
 11
952.7499140473
 21
415.0681652276
 31
0.0
  0
LINE
  5
36D
330
1F
100
AcDbEntity
  8
0
  6
Continuous
 62
     8
370
    25
100
AcDbLine
 10
992.7499140473
 20
415.0681652276
 30
0.0
 11
965.088933886
 21
415.0681652276
 31
0.0
  0
LINE
  5
36E
330
1F
100
AcDbEntity
  8
0
  6
Continuous
 62
     8
370
    25
100
AcDbLine
 10
21.5768140438
 20
415.0681652276
 30
0.0
 11
9.2377942051
 21
415.0681652276
 31
0.0
  0
LINE
  5
36F
330
1F
100
AcDbEntity
  8
0
  6
Continuous
 62
     8
370
    25
100
AcDbLine
 10
49.2377942051
 20
415.0681652276
 30
0.0
 11
21.5768140438
 21
415.0681652276
 31
0.0
  0
LINE
  5
370
330
1F
100
AcDbEntity
  8
0
  6
Continuous
 62
     8
370
    25
100
AcDbLine
 10
1225.1485713732
 20
415.0681652276
 30
0.0
 11
1212.8095515345
 21
415.0681652276
 31
0.0
  0
LINE
  5
371
330
1F
100
AcDbEntity
  8
0
  6
Continuous
 62
     8
370
    25
100
AcDbLine
 10
1252.8095515345
 20
415.0681652276
 30
0.0
 11
1225.1485713732
 21
415.0681652276
 31
0.0
  0
LINE
  5
372
330
1F
100
AcDbEntity
  8
0
  6
Continuous
 62
     8
370
    25
100
AcDbLine
 10
952.7499140473
 20
-108.9318347724
 30
0.0
 11
992.7499140473
 21
-108.9318347724
 31
0.0
  0
LINE
  5
373
330
1F
100
AcDbEntity
  8
0
  6
Continuous
 62
     8
370
    25
100
AcDbLine
 10
1212.8095515345
 20
-108.9318347724
 30
0.0
 11
1252.8095515345
 21
-108.9318347724
 31
0.0
  0
LINE
  5
374
330
1F
100
AcDbEntity
  8
0
  6
Continuous
 62
     8
370
    25
100
AcDbLine
 10
9.2377942051
 20
-108.9318347724
 30
0.0
 11
49.2377942051
 21
-108.9318347724
 31
0.0
  0
LINE
  5
375
330
1F
100
AcDbEntity
  8
0
  6
Continuous
 62
     8
370
    25
100
AcDbLine
 10
-53.1419727907
 20
415.0681652276
 30
0.0
 11
-70.5988965963
 21
415.0681652276
 31
0.0
  0
LINE
  5
376
330
1F
100
AcDbEntity
  8
0
  6
Continuous
 62
     8
370
    25
100
AcDbLine
 10
-30.5988965963
 20
415.0681652276
 30
0.0
 11
-53.1419727907
 21
415.0681652276
 31
0.0
  0
LINE
  5
377
330
1F
100
AcDbEntity
  8
0
  6
Continuous
 62
     8
370
    25
100
AcDbLine
 10
705.0292963989
 20
415.0681652276
 30
0.0
 11
692.6902765601
 21
415.0681652276
 31
0.0
  0
LINE
  5
378
330
1F
100
AcDbEntity
  8
0
  6
Continuous
 62
     8
370
    25
100
AcDbLine
 10
732.6902765601
 20
415.0681652276
 30
0.0
 11
705.0292963989
 21
415.0681652276
 31
0.0
  0
LINE
  5
379
330
1F
100
AcDbEntity
  8
0
  6
Continuous
 62
     8
370
    25
100
AcDbLine
 10
-70.5988965963
 20
-108.9318347724
 30
0.0
 11
-30.5988965963
 21
-108.9318347724
 31
0.0
  0
LINE
  5
37A
330
1F
100
AcDbEntity
  8
0
  6
Continuous
 62
     8
370
    25
100
AcDbLine
 10
692.6902765601
 20
-108.9318347724
 30
0.0
 11
732.6902765601
 21
-108.9318347724
 31
0.0
  0
LINE
  5
37B
330
1F
100
AcDbEntity
  8
0
  6
Continuous
 62
     8
370
    25
100
AcDbLine
 10
698.9902765601
 20
-124.0622260908
 30
0.0
 11
726.3902765601
 21
-124.0622260908
 31
0.0
  0
LINE
  5
37C
330
1F
100
AcDbEntity
  8
0
  6
Continuous
 62
     8
370
    25
100
AcDbLine
 10
699.3237263598
 20
-124.5997677085
 30
0.0
 11
726.0568267605
 21
-124.5997677085
 31
0.0
  0
LINE
  5
37D
330
1F
100
AcDbEntity
  8
0
  6
Continuous
 62
     8
370
    25
100
AcDbLine
 10
414.8015530766
 20
-124.0622260908
 30
0.0
 11
442.2015530766
 21
-124.0622260908
 31
0.0
  0
LINE
  5
37E
330
1F
100
AcDbEntity
  8
0
  6
Continuous
 62
     8
370
    25
100
AcDbLine
 10
415.1350028762
 20
-124.5997677085
 30
0.0
 11
441.868103277
 21
-124.5997677085
 31
0.0
  0
LINE
  5
37F
330
1F
100
AcDbEntity
  8
0
  6
Continuous
 62
     8
370
    25
100
AcDbLine
 10
-64.2988965963
 20
-124.0622260908
 30
0.0
 11
-36.8988965963
 21
-124.0622260908
 31
0.0
  0
LINE
  5
380
330
1F
100
AcDbEntity
  8
0
  6
Continuous
 62
     8
370
    25
100
AcDbLine
 10
-63.9654467967
 20
-124.5997677085
 30
0.0
 11
-37.2323463959
 21
-124.5997677085
 31
0.0
  0
LINE
  5
381
330
1F
100
AcDbEntity
  8
0
  6
Continuous
 62
     8
370
    25
100
AcDbLine
 10
707.4425051497
 20
430.198556546
 30
0.0
 11
698.9902765601
 21
430.198556546
 31
0.0
  0
LINE
  5
382
330
1F
100
AcDbEntity
  8
0
  6
Continuous
 62
     8
370
    25
100
AcDbLine
 10
726.3902765601
 20
430.198556546
 30
0.0
 11
707.4425051497
 21
430.198556546
 31
0.0
  0
LINE
  5
383
330
1F
100
AcDbEntity
  8
0
  6
Continuous
 62
     8
370
    25
100
AcDbLine
 10
707.5702327647
 20
430.7360981636
 30
0.0
 11
699.3237263598
 21
430.7360981636
 31
0.0
  0
LINE
  5
384
330
1F
100
AcDbEntity
  8
0
  6
Continuous
 62
     8
370
    25
100
AcDbLine
 10
726.0568267605
 20
430.7360981636
 30
0.0
 11
707.5702327647
 21
430.7360981636
 31
0.0
  0
LINE
  5
385
330
1F
100
AcDbEntity
  8
0
  6
Continuous
 62
     8
370
    25
100
AcDbLine
 10
23.9900227946
 20
430.198556546
 30
0.0
 11
15.5377942051
 21
430.198556546
 31
0.0
  0
LINE
  5
386
330
1F
100
AcDbEntity
  8
0
  6
Continuous
 62
     8
370
    25
100
AcDbLine
 10
42.9377942051
 20
430.198556546
 30
0.0
 11
23.9900227946
 21
430.198556546
 31
0.0
  0
LINE
  5
387
330
1F
100
AcDbEntity
  8
0
  6
Continuous
 62
     8
370
    25
100
AcDbLine
 10
24.1177504096
 20
430.7360981636
 30
0.0
 11
15.8712440047
 21
430.7360981636
 31
0.0
  0
LINE
  5
388
330
1F
100
AcDbEntity
  8
0
  6
Continuous
 62
     8
370
    25
100
AcDbLine
 10
42.6043444055
 20
430.7360981636
 30
0.0
 11
24.1177504096
 21
430.7360981636
 31
0.0
  0
LINE
  5
389
330
1F
100
AcDbEntity
  8
0
  6
Continuous
 62
     8
370
    25
100
AcDbLine
 10
-52.3409037895
 20
430.198556546
 30
0.0
 11
-64.2988965963
 21
430.198556546
 31
0.0
  0
LINE
  5
38A
330
1F
100
AcDbEntity
  8
0
  6
Continuous
 62
     8
370
    25
100
AcDbLine
 10
-36.8988965963
 20
430.198556546
 30
0.0
 11
-52.3409037895
 21
430.198556546
 31
0.0
  0
LINE
  5
38B
330
1F
100
AcDbEntity
  8
0
  6
Continuous
 62
     8
370
    25
100
AcDbLine
 10
-52.2985043771
 20
430.7360981636
 30
0.0
 11
-63.9654467967
 21
430.7360981636
 31
0.0
  0
LINE
  5
38C
330
1F
100
AcDbEntity
  8
0
  6
Continuous
 62
     8
370
    25
100
AcDbLine
 10
-37.2323463959
 20
430.7360981636
 30
0.0
 11
-52.2985043771
 21
430.7360981636
 31
0.0
  0
LINE
  5
38D
330
1F
100
AcDbEntity
  8
0
  6
Continuous
 62
     8
370
    25
100
AcDbLine
 10
423.2537816661
 20
430.198556546
 30
0.0
 11
414.8015530766
 21
430.198556546
 31
0.0
  0
LINE
  5
38E
330
1F
100
AcDbEntity
  8
0
  6
Continuous
 62
     8
370
    25
100
AcDbLine
 10
442.2015530766
 20
430.198556546
 30
0.0
 11
423.2537816661
 21
430.198556546
 31
0.0
  0
LINE
  5
38F
330
1F
100
AcDbEntity
  8
0
  6
Continuous
 62
     8
370
    25
100
AcDbLine
 10
423.3815092811
 20
430.7360981636
 30
0.0
 11
415.1350028762
 21
430.7360981636
 31
0.0
  0
LINE
  5
390
330
1F
100
AcDbEntity
  8
0
  6
Continuous
 62
     8
370
    25
100
AcDbLine
 10
441.868103277
 20
430.7360981636
 30
0.0
 11
423.3815092811
 21
430.7360981636
 31
0.0
  0
LINE
  5
391
330
1F
100
AcDbEntity
  8
0
  6
Continuous
 62
     8
370
    25
100
AcDbLine
 10
1219.1095515345
 20
-124.0622260908
 30
0.0
 11
1246.5095515345
 21
-124.0622260908
 31
0.0
  0
LINE
  5
392
330
1F
100
AcDbEntity
  8
0
  6
Continuous
 62
     8
370
    25
100
AcDbLine
 10
1219.4430013341
 20
-124.5997677085
 30
0.0
 11
1246.1761017349
 21
-124.5997677085
 31
0.0
  0
LINE
  5
393
330
1F
100
AcDbEntity
  8
0
  6
Continuous
 62
     8
370
    25
100
AcDbLine
 10
959.0499140473
 20
-124.0622260908
 30
0.0
 11
986.4499140473
 21
-124.0622260908
 31
0.0
  0
LINE
  5
394
330
1F
100
AcDbEntity
  8
0
  6
Continuous
 62
     8
370
    25
100
AcDbLine
 10
959.3833638469
 20
-124.5997677085
 30
0.0
 11
986.1164642477
 21
-124.5997677085
 31
0.0
  0
LINE
  5
395
330
1F
100
AcDbEntity
  8
0
  6
Continuous
 62
     8
370
    25
100
AcDbLine
 10
1227.561780124
 20
430.198556546
 30
0.0
 11
1219.1095515345
 21
430.198556546
 31
0.0
  0
LINE
  5
396
330
1F
100
AcDbEntity
  8
0
  6
Continuous
 62
     8
370
    25
100
AcDbLine
 10
1246.5095515345
 20
430.198556546
 30
0.0
 11
1227.561780124
 21
430.198556546
 31
0.0
  0
LINE
  5
397
330
1F
100
AcDbEntity
  8
0
  6
Continuous
 62
     8
370
    25
100
AcDbLine
 10
1227.689507739
 20
430.7360981636
 30
0.0
 11
1219.4430013341
 21
430.7360981636
 31
0.0
  0
LINE
  5
398
330
1F
100
AcDbEntity
  8
0
  6
Continuous
 62
     8
370
    25
100
AcDbLine
 10
1246.1761017349
 20
430.7360981636
 30
0.0
 11
1227.689507739
 21
430.7360981636
 31
0.0
  0
LINE
  5
399
330
1F
100
AcDbEntity
  8
0
  6
Continuous
 62
     8
370
    25
100
AcDbLine
 10
15.5377942051
 20
-124.0622260908
 30
0.0
 11
42.9377942051
 21
-124.0622260908
 31
0.0
  0
LINE
  5
39A
330
1F
100
AcDbEntity
  8
0
  6
Continuous
 62
     8
370
    25
100
AcDbLine
 10
15.8712440047
 20
-124.5997677085
 30
0.0
 11
42.6043444055
 21
-124.5997677085
 31
0.0
  0
LINE
  5
39B
330
1F
100
AcDbEntity
  8
0
  6
Continuous
 62
     8
370
    25
100
AcDbLine
 10
967.5021426368
 20
430.198556546
 30
0.0
 11
959.0499140473
 21
430.198556546
 31
0.0
  0
LINE
  5
39C
330
1F
100
AcDbEntity
  8
0
  6
Continuous
 62
     8
370
    25
100
AcDbLine
 10
986.4499140473
 20
430.198556546
 30
0.0
 11
967.5021426368
 21
430.198556546
 31
0.0
  0
LINE
  5
39D
330
1F
100
AcDbEntity
  8
0
  6
Continuous
 62
     8
370
    25
100
AcDbLine
 10
967.6298702518
 20
430.7360981636
 30
0.0
 11
959.3833638469
 21
430.7360981636
 31
0.0
  0
LINE
  5
39E
330
1F
100
AcDbEntity
  8
0
  6
Continuous
 62
     8
370
    25
100
AcDbLine
 10
986.1164642477
 20
430.7360981636
 30
0.0
 11
967.6298702518
 21
430.7360981636
 31
0.0
  0
LINE
  5
39F
330
1F
100
AcDbEntity
  8
0
  6
Continuous
 62
     8
370
    25
100
AcDbLine
 10
1695.0357753282
 20
412.0681652275
 30
0.0
 11
1726.0357753282
 21
412.0681652275
 31
0.0
  0
LINE
  5
3A0
330
1F
100
AcDbEntity
  8
0
  6
Continuous
 62
     8
370
    25
100
AcDbLine
 10
1726.0357753282
 20
-105.9318347725
 30
0.0
 11
1695.0357753282
 21
-105.9318347725
 31
0.0
  0
LINE
  5
3A1
330
1F
100
AcDbEntity
  8
0
  6
Continuous
 62
     8
370
    25
100
AcDbLine
 10
1632.7552709129
 20
412.0681652275
 30
0.0
 11
1656.0601725727
 21
412.0681652275
 31
0.0
  0
LINE
  5
3A2
330
1F
100
AcDbEntity
  8
0
  6
Continuous
 62
     8
370
    25
100
AcDbLine
 10
1656.0601725727
 20
-105.9318347725
 30
0.0
 11
1632.7552709129
 21
-105.9318347725
 31
0.0
  0
LINE
  5
3A3
330
1F
100
AcDbEntity
  8
0
  6
Continuous
 62
     8
370
    25
100
AcDbLine
 10
1632.7552709129
 20
399.9830152086
 30
0.0
 11
1651.3101725727
 21
399.9830152086
 31
0.0
  0
LINE
  5
3A4
330
1F
100
AcDbEntity
  8
0
  6
Continuous
 62
     8
370
    25
100
AcDbLine
 10
1632.7552709129
 20
399.4201912671
 30
0.0
 11
1650.9180889282
 21
399.4201912671
 31
0.0
  0
LINE
  5
3A5
330
1F
100
AcDbEntity
  8
0
  6
Continuous
 62
     8
370
    25
100
AcDbLine
 10
1699.7857753282
 20
399.9830152086
 30
0.0
 11
1721.2857753282
 21
399.9830152086
 31
0.0
  0
LINE
  5
3A6
330
1F
100
AcDbEntity
  8
0
  6
Continuous
 62
     8
370
    25
100
AcDbLine
 10
1700.1778589727
 20
399.4201912671
 30
0.0
 11
1720.8936916837
 21
399.4201912671
 31
0.0
  0
LINE
  5
3A7
330
1F
100
AcDbEntity
  8
0
  6
Continuous
 62
     8
370
    25
100
AcDbLine
 10
1651.3101725727
 20
-93.8466847535
 30
0.0
 11
1632.7552709129
 21
-93.8466847535
 31
0.0
  0
LINE
  5
3A8
330
1F
100
AcDbEntity
  8
0
  6
Continuous
 62
     8
370
    25
100
AcDbLine
 10
1650.9180889282
 20
-93.2838608121
 30
0.0
 11
1632.7552709129
 21
-93.2838608121
 31
0.0
  0
LINE
  5
3A9
330
1F
100
AcDbEntity
  8
0
  6
Continuous
 62
     8
370
    25
100
AcDbLine
 10
1721.2857753282
 20
-93.8466847535
 30
0.0
 11
1699.7857753282
 21
-93.8466847535
 31
0.0
  0
LINE
  5
3AA
330
1F
100
AcDbEntity
  8
0
  6
Continuous
 62
     8
370
    25
100
AcDbLine
 10
1720.8936916837
 20
-93.2838608121
 30
0.0
 11
1700.1778589727
 21
-93.2838608121
 31
0.0
  0
LINE
  5
3AB
330
1F
100
AcDbEntity
  8
0
  6
Continuous
 62
     8
370
    25
100
AcDbLine
 10
1405.5546737206
 20
-105.1667073546
 30
0.0
 11
1418.8305165207
 21
-105.1667073546
 31
0.0
  0
LINE
  5
3AC
330
1F
100
AcDbEntity
  8
0
  6
Continuous
 62
     8
370
    25
100
AcDbLine
 10
1490.0823808161
 20
-105.1667073546
 30
0.0
 11
1503.3582236162
 21
-105.1667073546
 31
0.0
  0
LINE
  5
3AD
330
1F
100
AcDbEntity
  8
0
  6
Continuous
 62
     8
370
    25
100
AcDbLine
 10
1418.8305165207
 20
411.3030378097
 30
0.0
 11
1405.5546737206
 21
411.3030378097
 31
0.0
  0
LINE
  5
3AE
330
1F
100
AcDbEntity
  8
0
  6
Continuous
 62
     8
370
    25
100
AcDbLine
 10
1503.3582236162
 20
411.3030378097
 30
0.0
 11
1490.0823808161
 21
411.3030378097
 31
0.0
  0
LINE
  5
3AF
330
1F
100
AcDbEntity
  8
0
  6
Continuous
 62
     8
370
    25
100
AcDbLine
 10
1377.2266842413
 20
-128.6518347725
 30
0.0
 11
1367.7266842413
 21
-128.6518347725
 31
0.0
  0
LINE
  5
3B0
330
1F
100
AcDbEntity
  8
0
  6
Continuous
 62
     8
370
    25
100
AcDbLine
 10
1367.7266842413
 20
-130.7818347725
 30
0.0
 11
1377.2266842413
 21
-130.7818347725
 31
0.0
  0
LINE
  5
3B1
330
1F
100
AcDbEntity
  8
0
  6
Continuous
 62
     8
370
    25
100
AcDbLine
 10
1367.7266842413
 20
434.7881652275
 30
0.0
 11
1377.2266842413
 21
434.7881652275
 31
0.0
  0
LINE
  5
3B2
330
1F
100
AcDbEntity
  8
0
  6
Continuous
 62
     8
370
    25
100
AcDbLine
 10
1377.2266842413
 20
436.9181652275
 30
0.0
 11
1367.7266842413
 21
436.9181652275
 31
0.0
  0
ARC
  5
3B3
330
1F
100
AcDbEntity
  8
0
  6
Continuous
 62
     8
370
    25
100
AcDbCircle
 10
1801.8100099187
 20
343.0681652275
 30
0.0
 40
6.63792140006143
100
AcDbArc
 50
270.0
 51
138.8919547583
  0
ARC
  5
3B4
330
1F
100
AcDbEntity
  8
0
  6
Continuous
 62
     8
370
    25
100
AcDbCircle
 10
1801.8100099187
 20
343.0681652275
 30
0.0
 40
6.63792140006143
100
AcDbArc
 50
246.6180380258
 51
270.0
  0
ARC
  5
3B5
330
1F
100
AcDbEntity
  8
0
  6
Continuous
 62
     8
370
    25
100
AcDbCircle
 10
1722.1486458991
 20
398.0681652276
 30
0.0
 40
6.637921400061373
100
AcDbArc
 50
270.0
 51
72.7047706778
  0
ARC
  5
3B6
330
1F
100
AcDbEntity
  8
0
  6
Continuous
 62
     8
370
    25
100
AcDbCircle
 10
1722.1486458991
 20
398.0681652276
 30
0.0
 40
6.637921400061374
100
AcDbArc
 50
180.7163831042
 51
270.0
  0
ARC
  5
3B7
330
1F
100
AcDbEntity
  8
0
  6
Continuous
 62
     8
370
    25
100
AcDbCircle
 10
1722.1486458991
 20
-91.9318347724
 30
0.0
 40
6.637921400061408
100
AcDbArc
 50
287.2952293169
 51
179.2836168955
  0
ARC
  5
3B8
330
1F
100
AcDbEntity
  8
0
  6
Continuous
 62
     8
370
    25
100
AcDbCircle
 10
1801.8100099187
 20
-36.9318347725
 30
0.0
 40
6.637921400061467
100
AcDbArc
 50
270.0
 51
113.3819619744
  0
ARC
  5
3B9
330
1F
100
AcDbEntity
  8
0
  6
Continuous
 62
     8
370
    25
100
AcDbCircle
 10
1801.8100099187
 20
-36.9318347725
 30
0.0
 40
6.637921400061502
100
AcDbArc
 50
221.1080452416
 51
270.0
  0
ELLIPSE
  5
3BA
330
1F
100
AcDbEntity
  8
0
  6
Continuous
 62
     8
370
    25
100
AcDbEllipse
 10
1576.6393630283
 20
430.8681652276
 30
0.0
 11
2.999556355203367
 21
0.9876483685978882
 31
0.0
210
0.0
220
0.0
230
1.0
 40
0.0522366015
 41
1.728131272819609
 42
3.12439467441449
  0
ELLIPSE
  5
3BB
330
1F
100
AcDbEntity
  8
0
  6
Continuous
 62
     8
370
    25
100
AcDbEllipse
 10
1576.6393630283
 20
504.8681652276
 30
0.0
 11
2.999556355203367
 21
-0.9876483685978882
 31
0.0
210
0.0
220
0.0
230
1.0
 40
0.0522366015
 41
3.158790632765483
 42
4.555054034360098
  0
ELLIPSE
  5
3BC
330
1F
100
AcDbEntity
  8
0
  6
Continuous
 62
     8
370
    25
100
AcDbEllipse
 10
1576.6393630283
 20
-124.7318347725
 30
0.0
 11
2.999556355203367
 21
-0.9876483685978741
 31
0.0
210
0.0
220
0.0
230
1.0
 40
0.0522366015
 41
3.15979799815218
 42
4.555054034360051
  0
ELLIPSE
  5
3BD
330
1F
100
AcDbEntity
  8
0
  6
Continuous
 62
     8
370
    25
100
AcDbEllipse
 10
1576.6393630283
 20
-198.7318347725
 30
0.0
 11
2.999556355203367
 21
0.9876483685978882
 31
0.0
210
0.0
220
0.0
230
1.0
 40
0.0522366015
 41
1.728131272819609
 42
3.124394674414328
  0
LINE
  5
3BE
330
1F
100
AcDbEntity
  8
0
  6
Continuous
 62
     8
370
    25
100
AcDbLine
 10
1852.6874630442
 20
-117.9318347725
 30
0.0
 11
1902.1904865866
 21
-117.9318347725
 31
0.0
  0
LINE
  5
3BF
330
1F
100
AcDbEntity
  8
0
  6
Continuous
 62
     8
370
    25
100
AcDbLine
 10
1902.1904865866
 20
424.0681652275
 30
0.0
 11
1852.6874630442
 21
424.0681652275
 31
0.0
  0
LINE
  5
3C0
330
1F
100
AcDbEntity
  8
0
  6
Continuous
 62
     8
370
    25
100
AcDbLine
 10
1847.4913106215
 20
424.0681652275
 30
0.0
 11
1838.6922425233
 21
424.0681652275
 31
0.0
  0
LINE
  5
3C1
330
1F
100
AcDbEntity
  8
0
  6
Continuous
 62
     8
370
    25
100
AcDbLine
 10
1838.6922425233
 20
-117.9318347725
 30
0.0
 11
1847.4913106215
 21
-117.9318347725
 31
0.0
  0
ARC
  5
3C2
330
1F
100
AcDbEntity
  8
0
  6
Continuous
 62
     8
370
    25
100
AcDbCircle
 10
962.4708681213
 20
153.0681652276
 30
0.0
 40
853.6777777777775
100
AcDbArc
 50
342.2673047841
 51
17.7326952159
  0
ENDSEC
  0
SECTION
  2
OBJECTS
  0
DICTIONARY
  5
C
330
0
100
AcDbDictionary
281
     1
  3
ACAD_GROUP
350
D
  3
ACAD_LAYOUT
350
1A
  3
ACAD_MLINESTYLE
350
17
  3
ACAD_PLOTSETTINGS
350
19
  3
ACAD_PLOTSTYLENAME
350
E
  3
ACAD_SCALELIST
350
47
  3
DWGPROPS
350
3C3
  0
DICTIONARY
  5
D
102
{ACAD_REACTORS
330
C
102
}
330
C
100
AcDbDictionary
281
     1
  0
DICTIONARY
  5
1A
102
{ACAD_REACTORS
330
C
102
}
330
C
100
AcDbDictionary
281
     1
  3
Layout1
350
1E
  3
Layout2
350
26
  3
Model
350
22
  0
DICTIONARY
  5
17
102
{ACAD_REACTORS
330
C
102
}
330
C
100
AcDbDictionary
281
     1
  3
Standard
350
18
  0
DICTIONARY
  5
19
102
{ACAD_REACTORS
330
C
102
}
330
C
100
AcDbDictionary
281
     1
  0
ACDBDICTIONARYWDFLT
  5
E
102
{ACAD_REACTORS
330
C
102
}
330
C
100
AcDbDictionary
281
     1
  3
Normal
350
F
100
AcDbDictionaryWithDefault
340
F
  0
DICTIONARY
  5
47
102
{ACAD_REACTORS
330
C
102
}
330
C
100
AcDbDictionary
281
     1
  3
A0
350
48
  3
A1
350
49
  3
A2
350
4A
  3
A3
350
4B
  3
A4
350
4C
  3
A5
350
4D
  3
A6
350
4E
  3
A7
350
4F
  3
A8
350
50
  3
A9
350
51
  3
B0
350
52
  3
B1
350
53
  3
B2
350
54
  3
B3
350
55
  3
B4
350
56
  3
B5
350
57
  3
B6
350
58
  3
B7
350
59
  3
B8
350
5A
  3
B9
350
5B
  3
C0
350
5C
  3
C1
350
5D
  3
C2
350
5E
  3
C3
350
5F
  3
C4
350
60
  3
C5
350
61
  3
C6
350
62
  3
C7
350
63
  3
C8
350
64
  3
C9
350
65
  3
D0
350
66
  3
D1
350
67
  3
D2
350
68
  0
XRECORD
  5
3C3
102
{ACAD_REACTORS
330
C
102
}
330
C
100
AcDbXrecord
280
     1
  1
DWGPROPS COOKIE
  2

  3

  4

  6

  7

  8
Swing
  9

300
=
301
=
302
=
303
=
304
=
305
=
306
=
307
=
308
=
309
=
 40
0.0
 41
2459564.588275694
 42
2459564.588275868
  1

 90
        0
  0
LAYOUT
  5
1E
102
{ACAD_REACTORS
330
1A
102
}
330
1A
100
AcDbPlotSettings
  1

  2
none_device
  4

  6

 40
0.0
 41
0.0
 42
0.0
 43
0.0
 44
0.0
 45
0.0
 46
0.0
 47
0.0
 48
0.0
 49
0.0
140
0.0
141
0.0
142
1.0
143
1.0
 70
   688
 72
     1
 73
     0
 74
     5
  7

 75
    16
147
1.0
148
0.0
149
0.0
100
AcDbLayout
  1
Layout1
 70
     1
 71
     1
 10
0.0
 20
0.0
 11
420.0
 21
297.0
 12
0.0
 22
0.0
 32
0.0
 14
1.0000000000E+20
 24
1.0000000000E+20
 34
1.0000000000E+20
 15
-1.0000000000E+20
 25
-1.0000000000E+20
 35
-1.0000000000E+20
146
0.0
 13
0.0
 23
0.0
 33
0.0
 16
1.0
 26
0.0
 36
0.0
 17
0.0
 27
1.0
 37
0.0
 76
     0
330
1B
  0
LAYOUT
  5
26
102
{ACAD_REACTORS
330
1A
102
}
330
1A
100
AcDbPlotSettings
  1

  2
none_device
  4

  6

 40
0.0
 41
0.0
 42
0.0
 43
0.0
 44
0.0
 45
0.0
 46
0.0
 47
0.0
 48
0.0
 49
0.0
140
0.0
141
0.0
142
1.0
143
1.0
 70
   688
 72
     1
 73
     0
 74
     5
  7

 75
    16
147
1.0
148
0.0
149
0.0
100
AcDbLayout
  1
Layout2
 70
     1
 71
     2
 10
0.0
 20
0.0
 11
0.0
 21
0.0
 12
0.0
 22
0.0
 32
0.0
 14
0.0
 24
0.0
 34
0.0
 15
0.0
 25
0.0
 35
0.0
146
0.0
 13
0.0
 23
0.0
 33
0.0
 16
1.0
 26
0.0
 36
0.0
 17
0.0
 27
1.0
 37
0.0
 76
     0
330
23
  0
LAYOUT
  5
22
102
{ACAD_REACTORS
330
1A
102
}
330
1A
100
AcDbPlotSettings
  1

  2
none_device
  4
Letter_(8.50_x_11.00_Inches)
  6

 40
6.35
 41
6.35
 42
6.35000508
 43
6.35000508
 44
215.9
 45
279.4
 46
0.0
 47
0.0
 48
0.0
 49
0.0
140
0.0
141
0.0
142
1.0
143
1.0
 70
  1712
 72
     1
 73
     0
 74
     0
  7

 75
     0
147
1.0
148
0.0
149
0.0
100
AcDbLayout
  1
Model
 70
     1
 71
     0
 10
0.0
 20
0.0
 11
431.8
 21
279.4
 12
0.0
 22
0.0
 32
0.0
 14
0.0
 24
0.0
 34
0.0
 15
431.8
 25
279.4
 35
0.0
146
0.0
 13
0.0
 23
0.0
 33
0.0
 16
1.0
 26
0.0
 36
0.0
 17
0.0
 27
1.0
 37
0.0
 76
     0
330
1F
331
29
  0
MLINESTYLE
  5
18
102
{ACAD_REACTORS
330
17
102
}
330
17
100
AcDbMlineStyle
  2
Standard
 70
     0
  3

 62
   256
 51
90.0
 52
90.0
 71
     2
 49
0.5
 62
   256
  6
BYLAYER
 49
-0.5
 62
   256
  6
BYLAYER
  0
ACDBPLACEHOLDER
  5
F
102
{ACAD_REACTORS
330
E
102
}
330
E
  0
SCALE
  5
48
102
{ACAD_REACTORS
330
47
102
}
330
47
100
AcDbScale
 70
     0
300
1:1
140
1.0
141
1.0
290
     1
  0
SCALE
  5
49
102
{ACAD_REACTORS
330
47
102
}
330
47
100
AcDbScale
 70
     0
300
1:2
140
1.0
141
2.0
290
     0
  0
SCALE
  5
4A
102
{ACAD_REACTORS
330
47
102
}
330
47
100
AcDbScale
 70
     0
300
1:4
140
1.0
141
4.0
290
     0
  0
SCALE
  5
4B
102
{ACAD_REACTORS
330
47
102
}
330
47
100
AcDbScale
 70
     0
300
1:5
140
1.0
141
5.0
290
     0
  0
SCALE
  5
4C
102
{ACAD_REACTORS
330
47
102
}
330
47
100
AcDbScale
 70
     0
300
1:8
140
1.0
141
8.0
290
     0
  0
SCALE
  5
4D
102
{ACAD_REACTORS
330
47
102
}
330
47
100
AcDbScale
 70
     0
300
1:10
140
1.0
141
10.0
290
     0
  0
SCALE
  5
4E
102
{ACAD_REACTORS
330
47
102
}
330
47
100
AcDbScale
 70
     0
300
1:16
140
1.0
141
16.0
290
     0
  0
SCALE
  5
4F
102
{ACAD_REACTORS
330
47
102
}
330
47
100
AcDbScale
 70
     0
300
1:20
140
1.0
141
20.0
290
     0
  0
SCALE
  5
50
102
{ACAD_REACTORS
330
47
102
}
330
47
100
AcDbScale
 70
     0
300
1:30
140
1.0
141
30.0
290
     0
  0
SCALE
  5
51
102
{ACAD_REACTORS
330
47
102
}
330
47
100
AcDbScale
 70
     0
300
1:40
140
1.0
141
40.0
290
     0
  0
SCALE
  5
52
102
{ACAD_REACTORS
330
47
102
}
330
47
100
AcDbScale
 70
     0
300
1:50
140
1.0
141
50.0
290
     0
  0
SCALE
  5
53
102
{ACAD_REACTORS
330
47
102
}
330
47
100
AcDbScale
 70
     0
300
1:100
140
1.0
141
100.0
290
     0
  0
SCALE
  5
54
102
{ACAD_REACTORS
330
47
102
}
330
47
100
AcDbScale
 70
     0
300
2:1
140
2.0
141
1.0
290
     0
  0
SCALE
  5
55
102
{ACAD_REACTORS
330
47
102
}
330
47
100
AcDbScale
 70
     0
300
4:1
140
4.0
141
1.0
290
     0
  0
SCALE
  5
56
102
{ACAD_REACTORS
330
47
102
}
330
47
100
AcDbScale
 70
     0
300
8:1
140
8.0
141
1.0
290
     0
  0
SCALE
  5
57
102
{ACAD_REACTORS
330
47
102
}
330
47
100
AcDbScale
 70
     0
300
10:1
140
10.0
141
1.0
290
     0
  0
SCALE
  5
58
102
{ACAD_REACTORS
330
47
102
}
330
47
100
AcDbScale
 70
     0
300
100:1
140
100.0
141
1.0
290
     0
  0
SCALE
  5
59
102
{ACAD_REACTORS
330
47
102
}
330
47
100
AcDbScale
 70
     0
300
1/128" = 1'-0"
140
0.0078125
141
12.0
290
     0
  0
SCALE
  5
5A
102
{ACAD_REACTORS
330
47
102
}
330
47
100
AcDbScale
 70
     0
300
1/64" = 1'-0"
140
0.015625
141
12.0
290
     0
  0
SCALE
  5
5B
102
{ACAD_REACTORS
330
47
102
}
330
47
100
AcDbScale
 70
     0
300
1/32" = 1'-0"
140
0.03125
141
12.0
290
     0
  0
SCALE
  5
5C
102
{ACAD_REACTORS
330
47
102
}
330
47
100
AcDbScale
 70
     0
300
1/16" = 1'-0"
140
0.0625
141
12.0
290
     0
  0
SCALE
  5
5D
102
{ACAD_REACTORS
330
47
102
}
330
47
100
AcDbScale
 70
     0
300
3/32" = 1'-0"
140
0.09375
141
12.0
290
     0
  0
SCALE
  5
5E
102
{ACAD_REACTORS
330
47
102
}
330
47
100
AcDbScale
 70
     0
300
1/8" = 1'-0"
140
0.125
141
12.0
290
     0
  0
SCALE
  5
5F
102
{ACAD_REACTORS
330
47
102
}
330
47
100
AcDbScale
 70
     0
300
3/16" = 1'-0"
140
0.1875
141
12.0
290
     0
  0
SCALE
  5
60
102
{ACAD_REACTORS
330
47
102
}
330
47
100
AcDbScale
 70
     0
300
1/4" = 1'-0"
140
0.25
141
12.0
290
     0
  0
SCALE
  5
61
102
{ACAD_REACTORS
330
47
102
}
330
47
100
AcDbScale
 70
     0
300
3/8" = 1'-0"
140
0.375
141
12.0
290
     0
  0
SCALE
  5
62
102
{ACAD_REACTORS
330
47
102
}
330
47
100
AcDbScale
 70
     0
300
1/2" = 1'-0"
140
0.5
141
12.0
290
     0
  0
SCALE
  5
63
102
{ACAD_REACTORS
330
47
102
}
330
47
100
AcDbScale
 70
     0
300
3/4" = 1'-0"
140
0.75
141
12.0
290
     0
  0
SCALE
  5
64
102
{ACAD_REACTORS
330
47
102
}
330
47
100
AcDbScale
 70
     0
300
1" = 1'-0"
140
1.0
141
12.0
290
     0
  0
SCALE
  5
65
102
{ACAD_REACTORS
330
47
102
}
330
47
100
AcDbScale
 70
     0
300
1-1/2" = 1'-0"
140
1.5
141
12.0
290
     0
  0
SCALE
  5
66
102
{ACAD_REACTORS
330
47
102
}
330
47
100
AcDbScale
 70
     0
300
3" = 1'-0"
140
3.0
141
12.0
290
     0
  0
SCALE
  5
67
102
{ACAD_REACTORS
330
47
102
}
330
47
100
AcDbScale
 70
     0
300
6" = 1'-0"
140
6.0
141
12.0
290
     0
  0
SCALE
  5
68
102
{ACAD_REACTORS
330
47
102
}
330
47
100
AcDbScale
 70
     0
300
1'-0" = 1'-0"
140
12.0
141
12.0
290
     0
  0
ENDSEC
  0
EOF
