  0
SECTION
  2
HEADER
  9
$ACADVER
  1
AC1015
  9
$ACADMAINTVER
 70
     6
  9
$DWGCODEPAGE
  3
ANSI_1250
  9
$INSBASE
 10
0.0
 20
0.0
 30
0.0
  9
$EXTMIN
 10
0.0
 20
0.0
 30
0.0
  9
$EXTMAX
 10
431.8
 20
279.4
 30
0.0
  9
$LIMMIN
 10
0.0
 20
0.0
  9
$LIMMAX
 10
431.8
 20
279.4
  9
$ORTHOMODE
 70
     0
  9
$REGENMODE
 70
     1
  9
$FILLMODE
 70
     1
  9
$QTEXTMODE
 70
     0
  9
$MIRRTEXT
 70
     1
  9
$LTSCALE
 40
1.0
  9
$ATTMODE
 70
     1
  9
$TEXTSIZE
 40
3.8805555556
  9
$TRACEWID
 40
1.0
  9
$TEXTSTYLE
  7
Standard
  9
$CLAYER
  8
0
  9
$CELTYPE
  6
ByLayer
  9
$CECOLOR
 62
   256
  9
$CELTSCALE
 40
1.0
  9
$DISPSILH
 70
     0
  9
$DIMSCALE
 40
1.0
  9
$DIMASZ
 40
3.302
  9
$DIMEXO
 40
1.0
  9
$DIMDLI
 40
3.75
  9
$DIMRND
 40
0.0
  9
$DIMDLE
 40
0.0
  9
$DIMEXE
 40
1.0
  9
$DIMTP
 40
0.0
  9
$DIMTM
 40
0.0
  9
$DIMTXT
 40
3.8805555556
  9
$DIMCEN
 40
2.5
  9
$DIMTSZ
 40
0.0
  9
$DIMTOL
 70
     0
  9
$DIMLIM
 70
     0
  9
$DIMTIH
 70
     1
  9
$DIMTOH
 70
     1
  9
$DIMSE1
 70
     0
  9
$DIMSE2
 70
     0
  9
$DIMTAD
 70
     1
  9
$DIMZIN
 70
     0
  9
$DIMBLK
  1

  9
$DIMASO
 70
     1
  9
$DIMSHO
 70
     1
  9
$DIMPOST
  1

  9
$DIMAPOST
  1

  9
$DIMALT
 70
     0
  9
$DIMALTD
 70
     3
  9
$DIMALTF
 40
0.0393700787
  9
$DIMLFAC
 40
1.0
  9
$DIMTOFL
 70
     1
  9
$DIMTVP
 40
0.0
  9
$DIMTIX
 70
     0
  9
$DIMSOXD
 70
     0
  9
$DIMSAH
 70
     0
  9
$DIMBLK1
  1

  9
$DIMBLK2
  1

  9
$DIMSTYLE
  2
ISO-25
  9
$DIMCLRD
 70
     0
  9
$DIMCLRE
 70
     0
  9
$DIMCLRT
 70
     0
  9
$DIMTFAC
 40
1.0
  9
$DIMGAP
 40
1.524
  9
$DIMJUST
 70
     0
  9
$DIMSD1
 70
     0
  9
$DIMSD2
 70
     0
  9
$DIMTOLJ
 70
     0
  9
$DIMTZIN
 70
     0
  9
$DIMALTZ
 70
     0
  9
$DIMALTTZ
 70
     0
  9
$DIMUPT
 70
     0
  9
$DIMDEC
 70
     1
  9
$DIMTDEC
 70
     1
  9
$DIMALTU
 70
     2
  9
$DIMALTTD
 70
     3
  9
$DIMTXSTY
  7
Standard
  9
$DIMAUNIT
 70
     0
  9
$DIMADEC
 70
     1
  9
$DIMALTRND
 40
0.0
  9
$DIMAZIN
 70
     0
  9
$DIMDSEP
 70
    44
  9
$DIMATFIT
 70
     3
  9
$DIMFRAC
 70
     0
  9
$DIMLDRBLK
  1

  9
$DIMLUNIT
 70
     2
  9
$DIMLWD
 70
    -2
  9
$DIMLWE
 70
    -2
  9
$DIMTMOVE
 70
     0
  9
$LUNITS
 70
     2
  9
$LUPREC
 70
     1
  9
$SKETCHINC
 40
1.0
  9
$FILLETRAD
 40
10.0
  9
$AUNITS
 70
     0
  9
$AUPREC
 70
     1
  9
$MENU
  1
.
  9
$ELEVATION
 40
0.0
  9
$PELEVATION
 40
0.0
  9
$THICKNESS
 40
0.0
  9
$LIMCHECK
 70
     0
  9
$CHAMFERA
 40
0.0
  9
$CHAMFERB
 40
0.0
  9
$CHAMFERC
 40
0.0
  9
$CHAMFERD
 40
0.0
  9
$SKPOLY
 70
     0
  9
$TDCREATE
 40
2459671.547827917
  9
$TDUCREATE
 40
2459671.464494583
  9
$TDUPDATE
 40
2459671.547828264
  9
$TDUUPDATE
 40
2459671.464494931
  9
$TDINDWG
 40
0.0000000116
  9
$TDUSRTIMER
 40
0.0000000116
  9
$USRTIMER
 70
     1
  9
$ANGBASE
 50
0.0
  9
$ANGDIR
 70
     0
  9
$PDMODE
 70
     0
  9
$PDSIZE
 40
-1.0
  9
$PLINEWID
 40
0.0
  9
$SPLFRAME
 70
     0
  9
$SPLINETYPE
 70
     6
  9
$SPLINESEGS
 70
     8
  9
$HANDSEED
  5
282
  9
$SURFTAB1
 70
     6
  9
$SURFTAB2
 70
     6
  9
$SURFTYPE
 70
     6
  9
$SURFU
 70
     6
  9
$SURFV
 70
     6
  9
$UCSBASE
  2

  9
$UCSNAME
  2

  9
$UCSORG
 10
0.0
 20
0.0
 30
0.0
  9
$UCSXDIR
 10
1.0
 20
0.0
 30
0.0
  9
$UCSYDIR
 10
0.0
 20
1.0
 30
0.0
  9
$UCSORTHOREF
  2

  9
$UCSORTHOVIEW
 70
     0
  9
$UCSORGTOP
 10
0.0
 20
0.0
 30
0.0
  9
$UCSORGBOTTOM
 10
0.0
 20
0.0
 30
0.0
  9
$UCSORGLEFT
 10
0.0
 20
0.0
 30
0.0
  9
$UCSORGRIGHT
 10
0.0
 20
0.0
 30
0.0
  9
$UCSORGFRONT
 10
0.0
 20
0.0
 30
0.0
  9
$UCSORGBACK
 10
0.0
 20
0.0
 30
0.0
  9
$PUCSBASE
  2

  9
$PUCSNAME
  2

  9
$PUCSORG
 10
0.0
 20
0.0
 30
0.0
  9
$PUCSXDIR
 10
1.0
 20
0.0
 30
0.0
  9
$PUCSYDIR
 10
0.0
 20
1.0
 30
0.0
  9
$PUCSORTHOREF
  2

  9
$PUCSORTHOVIEW
 70
     0
  9
$PUCSORGTOP
 10
0.0
 20
0.0
 30
0.0
  9
$PUCSORGBOTTOM
 10
0.0
 20
0.0
 30
0.0
  9
$PUCSORGLEFT
 10
0.0
 20
0.0
 30
0.0
  9
$PUCSORGRIGHT
 10
0.0
 20
0.0
 30
0.0
  9
$PUCSORGFRONT
 10
0.0
 20
0.0
 30
0.0
  9
$PUCSORGBACK
 10
0.0
 20
0.0
 30
0.0
  9
$USERI1
 70
     0
  9
$USERI2
 70
     0
  9
$USERI3
 70
     0
  9
$USERI4
 70
     0
  9
$USERI5
 70
     0
  9
$USERR1
 40
0.0
  9
$USERR2
 40
0.0
  9
$USERR3
 40
0.0
  9
$USERR4
 40
0.0
  9
$USERR5
 40
0.0
  9
$WORLDVIEW
 70
     1
  9
$SHADEDGE
 70
     3
  9
$SHADEDIF
 70
    70
  9
$TILEMODE
 70
     1
  9
$MAXACTVP
 70
    64
  9
$PINSBASE
 10
0.0
 20
0.0
 30
0.0
  9
$PLIMCHECK
 70
     0
  9
$PEXTMIN
 10
1.0000000000E+20
 20
1.0000000000E+20
 30
1.0000000000E+20
  9
$PEXTMAX
 10
-1.0000000000E+20
 20
-1.0000000000E+20
 30
-1.0000000000E+20
  9
$PLIMMIN
 10
0.0
 20
0.0
  9
$PLIMMAX
 10
420.0
 20
297.0
  9
$UNITMODE
 70
     0
  9
$VISRETAIN
 70
     1
  9
$PLINEGEN
 70
     0
  9
$PSLTSCALE
 70
     1
  9
$TREEDEPTH
 70
  3020
  9
$CMLSTYLE
  2
Standard
  9
$CMLJUST
 70
     0
  9
$CMLSCALE
 40
20.0
  9
$PROXYGRAPHICS
 70
     1
  9
$MEASUREMENT
 70
     1
  9
$CELWEIGHT
370
    -1
  9
$ENDCAPS
280
     0
  9
$JOINSTYLE
280
     0
  9
$LWDISPLAY
290
     1
  9
$INSUNITS
 70
     4
  9
$HYPERLINKBASE
  1

  9
$STYLESHEET
  1

  9
$XEDIT
290
     1
  9
$CEPSNTYPE
380
     0
  9
$PSTYLEMODE
290
     1
  9
$FINGERPRINTGUID
  2
{0a620f8a-78e0-4f4a-a869-2d7279b7684b}
  9
$VERSIONGUID
  2
{FAEB1C32-E019-11D5-929B-00C0DF256EC4}
  9
$EXTNAMES
290
     1
  9
$PSVPSCALE
 40
0.0
  9
$OLESTARTUP
290
     0
  0
ENDSEC
  0
SECTION
  2
CLASSES
  0
CLASS
  1
ACDBDICTIONARYWDFLT
  2
AcDbDictionaryWithDefault
  3
ObjectDBX Classes
 90
        0
280
     0
281
     0
  0
CLASS
  1
VISUALSTYLE
  2
AcDbVisualStyle
  3
ObjectDBX Classes
 90
     4095
280
     0
281
     0
  0
CLASS
  1
MATERIAL
  2
AcDbMaterial
  3
ObjectDBX Classes
 90
     1153
280
     0
281
     0
  0
CLASS
  1
SCALE
  2
AcDbScale
  3
ObjectDBX Classes
 90
     1153
280
     0
281
     0
  0
CLASS
  1
TABLESTYLE
  2
AcDbTableStyle
  3
ObjectDBX Classes
 90
     4095
280
     0
281
     0
  0
CLASS
  1
MLEADERSTYLE
  2
AcDbMLeaderStyle
  3
ACDB_MLEADERSTYLE_CLASS
 90
     4095
280
     0
281
     0
  0
CLASS
  1
SUN
  2
AcDbSun
  3
SCENEOE
 90
     1153
280
     0
281
     0
  0
CLASS
  1
ACDBPLACEHOLDER
  2
AcDbPlaceHolder
  3
ObjectDBX Classes
 90
        0
280
     0
281
     0
  0
CLASS
  1
LAYOUT
  2
AcDbLayout
  3
ObjectDBX Classes
 90
        0
280
     0
281
     0
  0
ENDSEC
  0
SECTION
  2
TABLES
  0
TABLE
  2
VPORT
  5
8
330
0
100
AcDbSymbolTable
 70
     1
  0
VPORT
  5
29
330
8
100
AcDbSymbolTableRecord
100
AcDbViewportTableRecord
  2
*Active
 70
     0
 10
0.0
 20
0.0
 11
1.0
 21
1.0
 12
215.9
 22
139.7
 13
0.0
 23
0.0
 14
10.0
 24
10.0
 15
10.0
 25
10.0
 16
0.0
 26
0.0
 36
1.0
 17
0.0
 27
0.0
 37
0.0
 40
279.4
 41
1.5454545455
 42
50.0
 43
0.0
 44
0.0
 50
0.0
 51
0.0
 71
     0
 72
  2000
 73
     1
 74
     3
 75
     0
 76
     0
 77
     0
 78
     0
281
     0
 65
     1
110
0.0
120
0.0
130
0.0
111
1.0
121
0.0
131
0.0
112
0.0
122
1.0
132
0.0
 79
     0
146
0.0
  0
ENDTAB
  0
TABLE
  2
LTYPE
  5
5
330
0
100
AcDbSymbolTable
 70
     6
  0
LTYPE
  5
14
330
5
100
AcDbSymbolTableRecord
100
AcDbLinetypeTableRecord
  2
ByBlock
 70
     0
  3

 72
    65
 73
     0
 40
0.0
  0
LTYPE
  5
15
330
5
100
AcDbSymbolTableRecord
100
AcDbLinetypeTableRecord
  2
ByLayer
 70
     0
  3

 72
    65
 73
     0
 40
0.0
  0
LTYPE
  5
16
330
5
100
AcDbSymbolTableRecord
100
AcDbLinetypeTableRecord
  2
Continuous
 70
     0
  3
Solid line
 72
    65
 73
     0
 40
0.0
  0
LTYPE
  5
6E
330
5
100
AcDbSymbolTableRecord
100
AcDbLinetypeTableRecord
  2
HIDDEN
 70
     0
  3
Hidden __ __ __ __ __ __ __ __ __ __ __ __ __ __
 72
    65
 73
     2
 40
1.905
 49
1.27
 74
     0
 49
-0.635
 74
     0
  0
LTYPE
  5
6F
330
5
100
AcDbSymbolTableRecord
100
AcDbLinetypeTableRecord
  2
PHANTOM
 70
     0
  3
Phantom ______  __  __  ______  __  __  ______
 72
    65
 73
     6
 40
12.7
 49
6.35
 74
     0
 49
-1.27
 74
     0
 49
1.27
 74
     0
 49
-1.27
 74
     0
 49
1.27
 74
     0
 49
-1.27
 74
     0
  0
LTYPE
  5
70
330
5
100
AcDbSymbolTableRecord
100
AcDbLinetypeTableRecord
  2
CENTER
 70
     0
  3
Center ____ _ ____ _ ____ _ ____ _ ____ _ ____
 72
    65
 73
     4
 40
10.16
 49
6.35
 74
     0
 49
-1.27
 74
     0
 49
1.27
 74
     0
 49
-1.27
 74
     0
  0
LTYPE
  5
71
330
5
100
AcDbSymbolTableRecord
100
AcDbLinetypeTableRecord
  2
CENTERX2
 70
     0
  3
Center (2x) ________  __  ________  __  _____
 72
    65
 73
     4
 40
20.32
 49
12.7
 74
     0
 49
-2.54
 74
     0
 49
2.54
 74
     0
 49
-2.54
 74
     0
  0
LTYPE
  5
72
330
5
100
AcDbSymbolTableRecord
100
AcDbLinetypeTableRecord
  2
DOT2
 70
     0
  3
Dot (.5x) ........................................
 72
    65
 73
     2
 40
0.635
 49
0.0
 74
     0
 49
-0.635
 74
     0
  0
ENDTAB
  0
TABLE
  2
LAYER
  5
2
330
0
100
AcDbSymbolTable
 70
     3
  0
LAYER
  5
10
330
2
100
AcDbSymbolTableRecord
100
AcDbLayerTableRecord
  2
0
 70
     0
 62
     7
  6
Continuous
370
    -3
390
F
  0
LAYER
  5
73
330
2
100
AcDbSymbolTableRecord
100
AcDbLayerTableRecord
  2
FRAME_&_TABLE
 70
     0
 62
     8
  6
Continuous
370
    50
390
F
  0
LAYER
  5
74
330
2
100
AcDbSymbolTableRecord
100
AcDbLayerTableRecord
  2
DIMENSIONS
 70
     0
 62
     7
  6
Continuous
370
    -3
390
F
  0
ENDTAB
  0
TABLE
  2
STYLE
  5
3
330
0
100
AcDbSymbolTable
 70
     1
  0
STYLE
  5
11
330
3
100
AcDbSymbolTableRecord
100
AcDbTextStyleTableRecord
  2
Standard
 70
     0
 40
0.0
 41
1.0
 50
0.0
 71
     0
 42
3.8805555556
  3
txt
  4

  0
ENDTAB
  0
TABLE
  2
VIEW
  5
6
330
0
100
AcDbSymbolTable
 70
     0
  0
ENDTAB
  0
TABLE
  2
UCS
  5
7
330
0
100
AcDbSymbolTable
 70
     0
  0
ENDTAB
  0
TABLE
  2
APPID
  5
9
330
0
100
AcDbSymbolTable
 70
     1
  0
APPID
  5
12
330
9
100
AcDbSymbolTableRecord
100
AcDbRegAppTableRecord
  2
ACAD
 70
     0
  0
ENDTAB
  0
TABLE
  2
DIMSTYLE
  5
A
330
0
100
AcDbSymbolTable
 70
     1
100
AcDbDimStyleTable
  0
DIMSTYLE
105
27
330
A
100
AcDbSymbolTableRecord
100
AcDbDimStyleTableRecord
  2
ISO-25
 70
     0
 41
2.5
 42
0.625
 43
3.75
 44
1.25
 73
     0
 74
     0
 77
     1
 78
     8
140
2.5
141
2.5
143
0.0393700787
147
0.625
171
     3
172
     1
178
     0
271
     2
272
     2
274
     3
278
    44
283
     0
284
     8
340
11
  0
ENDTAB
  0
TABLE
  2
BLOCK_RECORD
  5
1
330
0
100
AcDbSymbolTable
 70
     1
  0
BLOCK_RECORD
  5
1F
330
1
100
AcDbSymbolTableRecord
100
AcDbBlockTableRecord
  2
*Model_Space
340
22
  0
BLOCK_RECORD
  5
1B
330
1
100
AcDbSymbolTableRecord
100
AcDbBlockTableRecord
  2
*Paper_Space
340
1E
  0
BLOCK_RECORD
  5
23
330
1
100
AcDbSymbolTableRecord
100
AcDbBlockTableRecord
  2
*Paper_Space0
340
26
  0
ENDTAB
  0
ENDSEC
  0
SECTION
  2
BLOCKS
  0
BLOCK
  5
20
330
1F
100
AcDbEntity
  8
0
100
AcDbBlockBegin
  2
*Model_Space
 70
     0
 10
0.0
 20
0.0
 30
0.0
  3
*Model_Space
  1

  0
ENDBLK
  5
21
330
1F
100
AcDbEntity
  8
0
100
AcDbBlockEnd
  0
BLOCK
  5
1C
330
1B
100
AcDbEntity
 67
     1
  8
0
100
AcDbBlockBegin
  2
*Paper_Space
 70
     0
 10
0.0
 20
0.0
 30
0.0
  3
*Paper_Space
  1

  0
ENDBLK
  5
1D
330
1B
100
AcDbEntity
 67
     1
  8
0
100
AcDbBlockEnd
  0
BLOCK
  5
24
330
23
100
AcDbEntity
  8
0
100
AcDbBlockBegin
  2
*Paper_Space0
 70
     0
 10
0.0
 20
0.0
 30
0.0
  3
*Paper_Space0
  1

  0
ENDBLK
  5
25
330
23
100
AcDbEntity
  8
0
100
AcDbBlockEnd
  0
ENDSEC
  0
SECTION
  2
ENTITIES
  0
LINE
  5
75
330
1F
100
AcDbEntity
  8
0
  6
Continuous
 62
     7
370
    25
100
AcDbLine
 10
-423.4349171529
 20
-200.1813513736
 30
0.0
 11
856.5650828471
 21
-200.1813513736
 31
0.0
  0
LINE
  5
76
330
1F
100
AcDbEntity
  8
0
  6
Continuous
 62
     7
370
    25
100
AcDbLine
 10
856.5650828471
 20
509.1775380714
 30
0.0
 11
-423.4349171529
 21
509.1775380714
 31
0.0
  0
LINE
  5
77
330
1F
100
AcDbEntity
  8
0
  6
Continuous
 62
     7
370
    25
100
AcDbLine
 10
-426.4349171529
 20
527.9980933489
 30
0.0
 11
-435.4349171529
 21
527.9980933489
 31
0.0
  0
ARC
  5
78
330
1F
100
AcDbEntity
  8
0
  6
Continuous
 62
     7
370
    25
100
AcDbCircle
 10
-435.4349171529
 20
-214.0019066511
 30
0.0
 40
3.0
100
AcDbArc
 50
180.0
 51
270.0
  0
LINE
  5
79
330
1F
100
AcDbEntity
  8
0
  6
Continuous
 62
     7
370
    25
100
AcDbLine
 10
-435.4349171529
 20
-217.0019066511
 30
0.0
 11
-426.4349171529
 21
-217.0019066511
 31
0.0
  0
ARC
  5
7A
330
1F
100
AcDbEntity
  8
0
  6
Continuous
 62
     7
370
    25
100
AcDbCircle
 10
-426.4349171529
 20
-214.0019066511
 30
0.0
 40
3.0
100
AcDbArc
 50
270.0
 51
0.0
  0
ARC
  5
7B
330
1F
100
AcDbEntity
  8
0
  6
Continuous
 62
     7
370
    25
100
AcDbCircle
 10
-435.4349171529
 20
524.9980933489
 30
0.0
 40
3.000000000000114
100
AcDbArc
 50
90.0
 51
180.0
  0
ARC
  5
7C
330
1F
100
AcDbEntity
  8
0
  6
Continuous
 62
     7
370
    25
100
AcDbCircle
 10
-426.4349171529
 20
524.9980933489
 30
0.0
 40
3.000000000000114
100
AcDbArc
 50
0.0
 51
90.0
  0
ARC
  5
7D
330
1F
100
AcDbEntity
  8
0
  6
Continuous
 62
     7
370
    25
100
AcDbCircle
 10
868.5650828472
 20
-214.0019066511
 30
0.0
 40
3.0
100
AcDbArc
 50
270.0
 51
0.0
  0
ARC
  5
7E
330
1F
100
AcDbEntity
  8
0
  6
Continuous
 62
     7
370
    25
100
AcDbCircle
 10
859.5650828472
 20
524.9980933489
 30
0.0
 40
3.000000000000114
100
AcDbArc
 50
90.0
 51
180.0
  0
LINE
  5
7F
330
1F
100
AcDbEntity
  8
0
  6
Continuous
 62
     7
370
    25
100
AcDbLine
 10
868.5650828472
 20
527.9980933489
 30
0.0
 11
859.5650828472
 21
527.9980933489
 31
0.0
  0
LINE
  5
80
330
1F
100
AcDbEntity
  8
0
  6
Continuous
 62
     7
370
    25
100
AcDbLine
 10
859.5650828472
 20
-217.0019066511
 30
0.0
 11
868.5650828472
 21
-217.0019066511
 31
0.0
  0
ARC
  5
81
330
1F
100
AcDbEntity
  8
0
  6
Continuous
 62
     7
370
    25
100
AcDbCircle
 10
859.5650828472
 20
-214.0019066511
 30
0.0
 40
3.0
100
AcDbArc
 50
180.0
 51
270.0
  0
ARC
  5
82
330
1F
100
AcDbEntity
  8
0
  6
Continuous
 62
     7
370
    25
100
AcDbCircle
 10
868.5650828472
 20
524.9980933489
 30
0.0
 40
3.000000000000114
100
AcDbArc
 50
0.0
 51
90.0
  0
ARC
  5
83
330
1F
100
AcDbEntity
  8
0
  6
Continuous
 62
     7
370
    25
100
AcDbCircle
 10
868.2690302156
 20
515.9980933489
 30
0.0
 40
16.29605263157896
100
AcDbArc
 50
315.1144932694
 51
0.0
  0
ARC
  5
84
330
1F
100
AcDbEntity
  8
0
  6
Continuous
 62
     7
370
    25
100
AcDbCircle
 10
869.8611354787
 20
515.9980933489
 30
0.0
 40
16.29605263157896
100
AcDbArc
 50
180.0
 51
204.7424667934
  0
LINE
  5
85
330
1F
100
AcDbEntity
  8
0
  6
Continuous
 62
     7
370
    25
100
AcDbLine
 10
853.5650828471
 20
516.9980933489
 30
0.0
 11
853.5650828471
 21
515.9980933489
 31
0.0
  0
LINE
  5
86
330
1F
100
AcDbEntity
  8
0
  6
Continuous
 62
     7
370
    25
100
AcDbLine
 10
884.5650828471
 20
515.9980933489
 30
0.0
 11
884.5650828471
 21
516.9980933489
 31
0.0
  0
LINE
  5
87
330
1F
100
AcDbEntity
  8
0
  6
Continuous
 62
     7
370
    25
100
AcDbLine
 10
-361.4349171529
 20
516.9980933489
 30
0.0
 11
-361.4349171529
 21
515.9980933489
 31
0.0
  0
LINE
  5
88
330
1F
100
AcDbEntity
  8
0
  6
Continuous
 62
     7
370
    25
100
AcDbLine
 10
-330.4349171529
 20
515.9980933489
 30
0.0
 11
-330.4349171529
 21
516.9980933489
 31
0.0
  0
ARC
  5
89
330
1F
100
AcDbEntity
  8
0
  6
Continuous
 62
     7
370
    25
100
AcDbCircle
 10
-346.7309697844
 20
515.9980933489
 30
0.0
 40
16.29605263157896
100
AcDbArc
 50
335.2575332066
 51
0.0
  0
ARC
  5
8A
330
1F
100
AcDbEntity
  8
0
  6
Continuous
 62
     7
370
    25
100
AcDbCircle
 10
-345.1388645213
 20
515.9980933489
 30
0.0
 40
16.29605263157896
100
AcDbArc
 50
180.0
 51
204.7424667934
  0
ARC
  5
8B
330
1F
100
AcDbEntity
  8
0
  6
Continuous
 62
     7
370
    25
100
AcDbCircle
 10
872.5650828471
 20
454.7020407173
 30
0.0
 40
16.29605263157908
100
AcDbArc
 50
45.1144932694
 51
90.0
  0
ARC
  5
8C
330
1F
100
AcDbEntity
  8
0
  6
Continuous
 62
     7
370
    25
100
AcDbCircle
 10
872.5650828471
 20
456.2941459805
 30
0.0
 40
16.29605263157908
100
AcDbArc
 50
270.0
 51
314.8855067306
  0
LINE
  5
8D
330
1F
100
AcDbEntity
  8
0
  6
Continuous
 62
     7
370
    25
100
AcDbLine
 10
871.5650828471
 20
439.9980933489
 30
0.0
 11
872.5650828471
 21
439.9980933489
 31
0.0
  0
LINE
  5
8E
330
1F
100
AcDbEntity
  8
0
  6
Continuous
 62
     7
370
    25
100
AcDbLine
 10
872.5650828471
 20
470.9980933489
 30
0.0
 11
871.5650828471
 21
470.9980933489
 31
0.0
  0
ARC
  5
8F
330
1F
100
AcDbEntity
  8
0
  6
Continuous
 62
     7
370
    25
100
AcDbCircle
 10
779.8611354787
 20
-207.0019066511
 30
0.0
 40
16.29605263157896
100
AcDbArc
 50
155.2575332066
 51
180.0
  0
ARC
  5
90
330
1F
100
AcDbEntity
  8
0
  6
Continuous
 62
     7
370
    25
100
AcDbCircle
 10
778.2690302156
 20
-207.0019066511
 30
0.0
 40
16.29605263157896
100
AcDbArc
 50
0.0
 51
24.7424667934
  0
LINE
  5
91
330
1F
100
AcDbEntity
  8
0
  6
Continuous
 62
     7
370
    25
100
AcDbLine
 10
794.5650828471
 20
-208.0019066511
 30
0.0
 11
794.5650828471
 21
-207.0019066511
 31
0.0
  0
LINE
  5
92
330
1F
100
AcDbEntity
  8
0
  6
Continuous
 62
     7
370
    25
100
AcDbLine
 10
763.5650828471
 20
-207.0019066511
 30
0.0
 11
763.5650828471
 21
-208.0019066511
 31
0.0
  0
ARC
  5
93
330
1F
100
AcDbEntity
  8
0
  6
Continuous
 62
     7
370
    25
100
AcDbCircle
 10
-345.1388645213
 20
-207.0019066511
 30
0.0
 40
16.29605263157896
100
AcDbArc
 50
155.2575332066
 51
180.0
  0
ARC
  5
94
330
1F
100
AcDbEntity
  8
0
  6
Continuous
 62
     7
370
    25
100
AcDbCircle
 10
-346.7309697844
 20
-207.0019066511
 30
0.0
 40
16.29605263157896
100
AcDbArc
 50
0.0
 51
24.7424667934
  0
LINE
  5
95
330
1F
100
AcDbEntity
  8
0
  6
Continuous
 62
     7
370
    25
100
AcDbLine
 10
-330.4349171529
 20
-208.0019066511
 30
0.0
 11
-330.4349171529
 21
-207.0019066511
 31
0.0
  0
LINE
  5
96
330
1F
100
AcDbEntity
  8
0
  6
Continuous
 62
     7
370
    25
100
AcDbLine
 10
-361.4349171529
 20
-207.0019066511
 30
0.0
 11
-361.4349171529
 21
-208.0019066511
 31
0.0
  0
ARC
  5
97
330
1F
100
AcDbEntity
  8
0
  6
Continuous
 62
     7
370
    25
100
AcDbCircle
 10
869.8611354787
 20
-207.0019066511
 30
0.0
 40
16.29605263157896
100
AcDbArc
 50
155.2575332066
 51
180.0
  0
ARC
  5
98
330
1F
100
AcDbEntity
  8
0
  6
Continuous
 62
     7
370
    25
100
AcDbCircle
 10
868.2690302156
 20
-207.0019066511
 30
0.0
 40
16.29605263157896
100
AcDbArc
 50
0.0
 51
44.8855067306
  0
LINE
  5
99
330
1F
100
AcDbEntity
  8
0
  6
Continuous
 62
     7
370
    25
100
AcDbLine
 10
884.5650828471
 20
-208.0019066511
 30
0.0
 11
884.5650828471
 21
-207.0019066511
 31
0.0
  0
LINE
  5
9A
330
1F
100
AcDbEntity
  8
0
  6
Continuous
 62
     7
370
    25
100
AcDbLine
 10
853.5650828471
 20
-207.0019066511
 30
0.0
 11
853.5650828471
 21
-208.0019066511
 31
0.0
  0
ARC
  5
9B
330
1F
100
AcDbEntity
  8
0
  6
Continuous
 62
     7
370
    25
100
AcDbCircle
 10
778.2690302156
 20
515.9980933489
 30
0.0
 40
16.29605263157896
100
AcDbArc
 50
335.2575332066
 51
0.0
  0
ARC
  5
9C
330
1F
100
AcDbEntity
  8
0
  6
Continuous
 62
     7
370
    25
100
AcDbCircle
 10
779.8611354787
 20
515.9980933489
 30
0.0
 40
16.29605263157896
100
AcDbArc
 50
180.0
 51
204.7424667934
  0
LINE
  5
9D
330
1F
100
AcDbEntity
  8
0
  6
Continuous
 62
     7
370
    25
100
AcDbLine
 10
763.5650828471
 20
516.9980933489
 30
0.0
 11
763.5650828471
 21
515.9980933489
 31
0.0
  0
LINE
  5
9E
330
1F
100
AcDbEntity
  8
0
  6
Continuous
 62
     7
370
    25
100
AcDbLine
 10
794.5650828471
 20
515.9980933489
 30
0.0
 11
794.5650828471
 21
516.9980933489
 31
0.0
  0
LINE
  5
9F
330
1F
100
AcDbEntity
  8
0
  6
Continuous
 62
     7
370
    25
100
AcDbLine
 10
871.5650828471
 20
139.9980933489
 30
0.0
 11
872.5650828471
 21
139.9980933489
 31
0.0
  0
LINE
  5
A0
330
1F
100
AcDbEntity
  8
0
  6
Continuous
 62
     7
370
    25
100
AcDbLine
 10
872.5650828471
 20
170.9980933489
 30
0.0
 11
871.5650828471
 21
170.9980933489
 31
0.0
  0
ARC
  5
A1
330
1F
100
AcDbEntity
  8
0
  6
Continuous
 62
     7
370
    25
100
AcDbCircle
 10
872.5650828471
 20
154.7020407173
 30
0.0
 40
16.29605263157903
100
AcDbArc
 50
45.1144932694
 51
90.0
  0
ARC
  5
A2
330
1F
100
AcDbEntity
  8
0
  6
Continuous
 62
     7
370
    25
100
AcDbCircle
 10
872.5650828471
 20
156.2941459805
 30
0.0
 40
16.29605263157906
100
AcDbArc
 50
270.0
 51
314.8855067306
  0
ARC
  5
A3
330
1F
100
AcDbEntity
  8
0
  6
Continuous
 62
     7
370
    25
100
AcDbCircle
 10
-435.1388645213
 20
-207.0019066511
 30
0.0
 40
16.29605263157896
100
AcDbArc
 50
135.1144932694
 51
180.0
  0
ARC
  5
A4
330
1F
100
AcDbEntity
  8
0
  6
Continuous
 62
     7
370
    25
100
AcDbCircle
 10
-436.7309697844
 20
-207.0019066511
 30
0.0
 40
16.29605263157897
100
AcDbArc
 50
0.0
 51
24.7424667934
  0
LINE
  5
A5
330
1F
100
AcDbEntity
  8
0
  6
Continuous
 62
     7
370
    25
100
AcDbLine
 10
-420.4349171529
 20
-208.0019066511
 30
0.0
 11
-420.4349171529
 21
-207.0019066511
 31
0.0
  0
LINE
  5
A6
330
1F
100
AcDbEntity
  8
0
  6
Continuous
 62
     7
370
    25
100
AcDbLine
 10
-451.4349171529
 20
-207.0019066511
 30
0.0
 11
-451.4349171529
 21
-208.0019066511
 31
0.0
  0
LINE
  5
A7
330
1F
100
AcDbEntity
  8
0
  6
Continuous
 62
     7
370
    25
100
AcDbLine
 10
-438.4349171529
 20
-129.0019066511
 30
0.0
 11
-439.4349171529
 21
-129.0019066511
 31
0.0
  0
LINE
  5
A8
330
1F
100
AcDbEntity
  8
0
  6
Continuous
 62
     7
370
    25
100
AcDbLine
 10
-439.4349171529
 20
-160.0019066511
 30
0.0
 11
-438.4349171529
 21
-160.0019066511
 31
0.0
  0
ARC
  5
A9
330
1F
100
AcDbEntity
  8
0
  6
Continuous
 62
     7
370
    25
100
AcDbCircle
 10
-439.4349171529
 20
-143.7058540195
 30
0.0
 40
16.29605263157896
100
AcDbArc
 50
225.1144932694
 51
270.0
  0
ARC
  5
AA
330
1F
100
AcDbEntity
  8
0
  6
Continuous
 62
     7
370
    25
100
AcDbCircle
 10
-439.4349171529
 20
-145.2979592827
 30
0.0
 40
16.2960526315789
100
AcDbArc
 50
90.0
 51
134.8855067306
  0
ARC
  5
AB
330
1F
100
AcDbEntity
  8
0
  6
Continuous
 62
     7
370
    25
100
AcDbCircle
 10
-436.7309697844
 20
515.9980933489
 30
0.0
 40
16.29605263157901
100
AcDbArc
 50
335.2575332066
 51
0.0
  0
ARC
  5
AC
330
1F
100
AcDbEntity
  8
0
  6
Continuous
 62
     7
370
    25
100
AcDbCircle
 10
-435.1388645213
 20
515.9980933489
 30
0.0
 40
16.29605263157896
100
AcDbArc
 50
180.0
 51
224.8855067306
  0
LINE
  5
AD
330
1F
100
AcDbEntity
  8
0
  6
Continuous
 62
     7
370
    25
100
AcDbLine
 10
-451.4349171529
 20
516.9980933489
 30
0.0
 11
-451.4349171529
 21
515.9980933489
 31
0.0
  0
LINE
  5
AE
330
1F
100
AcDbEntity
  8
0
  6
Continuous
 62
     7
370
    25
100
AcDbLine
 10
-420.4349171529
 20
515.9980933489
 30
0.0
 11
-420.4349171529
 21
516.9980933489
 31
0.0
  0
LINE
  5
AF
330
1F
100
AcDbEntity
  8
0
  6
Continuous
 62
     7
370
    25
100
AcDbLine
 10
871.5650828471
 20
-160.0019066511
 30
0.0
 11
872.5650828471
 21
-160.0019066511
 31
0.0
  0
LINE
  5
B0
330
1F
100
AcDbEntity
  8
0
  6
Continuous
 62
     7
370
    25
100
AcDbLine
 10
872.5650828471
 20
-129.0019066511
 30
0.0
 11
871.5650828471
 21
-129.0019066511
 31
0.0
  0
ARC
  5
B1
330
1F
100
AcDbEntity
  8
0
  6
Continuous
 62
     7
370
    25
100
AcDbCircle
 10
872.5650828471
 20
-145.2979592827
 30
0.0
 40
16.29605263157902
100
AcDbArc
 50
45.1144932694
 51
90.0
  0
ARC
  5
B2
330
1F
100
AcDbEntity
  8
0
  6
Continuous
 62
     7
370
    25
100
AcDbCircle
 10
872.5650828471
 20
-143.7058540195
 30
0.0
 40
16.29605263157906
100
AcDbArc
 50
270.0
 51
314.8855067306
  0
LINE
  5
B3
330
1F
100
AcDbEntity
  8
0
  6
Continuous
 62
     7
370
    25
100
AcDbLine
 10
-438.4349171529
 20
170.9980933489
 30
0.0
 11
-439.4349171529
 21
170.9980933489
 31
0.0
  0
LINE
  5
B4
330
1F
100
AcDbEntity
  8
0
  6
Continuous
 62
     7
370
    25
100
AcDbLine
 10
-439.4349171529
 20
139.9980933489
 30
0.0
 11
-438.4349171529
 21
139.9980933489
 31
0.0
  0
ARC
  5
B5
330
1F
100
AcDbEntity
  8
0
  6
Continuous
 62
     7
370
    25
100
AcDbCircle
 10
-439.4349171529
 20
156.2941459805
 30
0.0
 40
16.29605263157896
100
AcDbArc
 50
225.1144932694
 51
270.0
  0
ARC
  5
B6
330
1F
100
AcDbEntity
  8
0
  6
Continuous
 62
     7
370
    25
100
AcDbCircle
 10
-439.4349171529
 20
154.7020407173
 30
0.0
 40
16.29605263157896
100
AcDbArc
 50
90.0
 51
134.8855067306
  0
LINE
  5
B7
330
1F
100
AcDbEntity
  8
0
  6
Continuous
 62
     7
370
    25
100
AcDbLine
 10
-438.4349171529
 20
470.9980933489
 30
0.0
 11
-439.4349171529
 21
470.9980933489
 31
0.0
  0
LINE
  5
B8
330
1F
100
AcDbEntity
  8
0
  6
Continuous
 62
     7
370
    25
100
AcDbLine
 10
-439.4349171529
 20
439.9980933489
 30
0.0
 11
-438.4349171529
 21
439.9980933489
 31
0.0
  0
ARC
  5
B9
330
1F
100
AcDbEntity
  8
0
  6
Continuous
 62
     7
370
    25
100
AcDbCircle
 10
-439.4349171529
 20
456.2941459805
 30
0.0
 40
16.29605263157896
100
AcDbArc
 50
225.1144932694
 51
270.0
  0
ARC
  5
BA
330
1F
100
AcDbEntity
  8
0
  6
Continuous
 62
     7
370
    25
100
AcDbCircle
 10
-439.4349171529
 20
454.7020407173
 30
0.0
 40
16.29605263157896
100
AcDbArc
 50
90.0
 51
134.8855067306
  0
ARC
  5
BB
330
1F
100
AcDbEntity
  8
0
  6
Continuous
 62
     7
370
    25
100
AcDbCircle
 10
-451.5200671718
 20
465.6480933489
 30
0.0
 40
0.6000000000000227
100
AcDbArc
 50
90.0
 51
159.724946748
  0
ARC
  5
BC
330
1F
100
AcDbEntity
  8
0
  6
Continuous
 62
     7
370
    25
100
AcDbCircle
 10
-451.5200671718
 20
445.3480933489
 30
0.0
 40
0.6000000000000227
100
AcDbArc
 50
200.275053252
 51
270.0
  0
LINE
  5
BD
330
1F
100
AcDbEntity
  8
0
  6
Continuous
 62
     7
370
    25
100
AcDbLine
 10
-450.9349171529
 20
466.2480933489
 30
0.0
 11
-451.5200671718
 21
466.2480933489
 31
0.0
  0
LINE
  5
BE
330
1F
100
AcDbEntity
  8
0
  6
Continuous
 62
     7
370
    25
100
AcDbLine
 10
-451.5200671718
 20
444.7480933489
 30
0.0
 11
-450.9349171529
 21
444.7480933489
 31
0.0
  0
ARC
  5
BF
330
1F
100
AcDbEntity
  8
0
  6
Continuous
 62
     7
370
    25
100
AcDbCircle
 10
-424.0442921529
 20
455.4980933489
 30
0.0
 40
29.890625
100
AcDbArc
 50
159.724946748
 51
180.0
  0
ARC
  5
C0
330
1F
100
AcDbEntity
  8
0
  6
Continuous
 62
     7
370
    25
100
AcDbCircle
 10
-424.0442921529
 20
455.4980933489
 30
0.0
 40
29.89062499999994
100
AcDbArc
 50
180.0
 51
200.275053252
  0
LINE
  5
C1
330
1F
100
AcDbEntity
  8
0
  6
Continuous
 62
     7
370
    25
100
AcDbLine
 10
879.8150828471
 20
503.91294333
 30
0.0
 11
879.8150828471
 21
504.4980933489
 31
0.0
  0
ARC
  5
C2
330
1F
100
AcDbEntity
  8
0
  6
Continuous
 62
     7
370
    25
100
AcDbCircle
 10
879.2150828471
 20
503.91294333
 30
0.0
 40
0.6000000000000251
100
AcDbArc
 50
290.275053252
 51
0.0
  0
ARC
  5
C3
330
1F
100
AcDbEntity
  8
0
  6
Continuous
 62
     7
370
    25
100
AcDbCircle
 10
869.0650828471
 20
531.3887183489
 30
0.0
 40
29.89062500000001
100
AcDbArc
 50
274.797724323
 51
290.275053252
  0
LINE
  5
C4
330
1F
100
AcDbEntity
  8
0
  6
Continuous
 62
     7
370
    25
100
AcDbLine
 10
-450.9349171529
 20
-133.7519066511
 30
0.0
 11
-451.5200671718
 21
-133.7519066511
 31
0.0
  0
LINE
  5
C5
330
1F
100
AcDbEntity
  8
0
  6
Continuous
 62
     7
370
    25
100
AcDbLine
 10
-451.5200671718
 20
-155.2519066511
 30
0.0
 11
-450.9349171529
 21
-155.2519066511
 31
0.0
  0
ARC
  5
C6
330
1F
100
AcDbEntity
  8
0
  6
Continuous
 62
     7
370
    25
100
AcDbCircle
 10
-451.5200671718
 20
-134.3519066511
 30
0.0
 40
0.5999999999999943
100
AcDbArc
 50
90.0
 51
159.724946748
  0
ARC
  5
C7
330
1F
100
AcDbEntity
  8
0
  6
Continuous
 62
     7
370
    25
100
AcDbCircle
 10
-451.5200671718
 20
-154.6519066511
 30
0.0
 40
0.5999999999999943
100
AcDbArc
 50
200.275053252
 51
270.0
  0
ARC
  5
C8
330
1F
100
AcDbEntity
  8
0
  6
Continuous
 62
     7
370
    25
100
AcDbCircle
 10
-424.0442921529
 20
-144.5019066511
 30
0.0
 40
29.89062499999999
100
AcDbArc
 50
159.724946748
 51
180.0
  0
ARC
  5
C9
330
1F
100
AcDbEntity
  8
0
  6
Continuous
 62
     7
370
    25
100
AcDbCircle
 10
-424.0442921529
 20
-144.5019066511
 30
0.0
 40
29.89062499999994
100
AcDbArc
 50
180.0
 51
200.275053252
  0
LINE
  5
CA
330
1F
100
AcDbEntity
  8
0
  6
Continuous
 62
     7
370
    25
100
AcDbLine
 10
-450.9349171529
 20
166.2480933489
 30
0.0
 11
-451.5200671718
 21
166.2480933489
 31
0.0
  0
LINE
  5
CB
330
1F
100
AcDbEntity
  8
0
  6
Continuous
 62
     7
370
    25
100
AcDbLine
 10
-451.5200671718
 20
144.7480933489
 30
0.0
 11
-450.9349171529
 21
144.7480933489
 31
0.0
  0
ARC
  5
CC
330
1F
100
AcDbEntity
  8
0
  6
Continuous
 62
     7
370
    25
100
AcDbCircle
 10
-451.5200671718
 20
165.6480933489
 30
0.0
 40
0.5999999999999659
100
AcDbArc
 50
90.0
 51
159.724946748
  0
ARC
  5
CD
330
1F
100
AcDbEntity
  8
0
  6
Continuous
 62
     7
370
    25
100
AcDbCircle
 10
-451.5200671718
 20
145.3480933489
 30
0.0
 40
0.5999999999999943
100
AcDbArc
 50
200.275053252
 51
270.0
  0
ARC
  5
CE
330
1F
100
AcDbEntity
  8
0
  6
Continuous
 62
     7
370
    25
100
AcDbCircle
 10
-424.0442921529
 20
155.4980933489
 30
0.0
 40
29.89062499999998
100
AcDbArc
 50
159.724946748
 51
180.0
  0
ARC
  5
CF
330
1F
100
AcDbEntity
  8
0
  6
Continuous
 62
     7
370
    25
100
AcDbCircle
 10
-424.0442921529
 20
155.4980933489
 30
0.0
 40
29.89062499999994
100
AcDbArc
 50
180.0
 51
200.275053252
  0
LINE
  5
D0
330
1F
100
AcDbEntity
  8
0
  6
Continuous
 62
     7
370
    25
100
AcDbLine
 10
-446.6849171529
 20
-194.9167566322
 30
0.0
 11
-446.6849171529
 21
-195.5019066511
 31
0.0
  0
ARC
  5
D1
330
1F
100
AcDbEntity
  8
0
  6
Continuous
 62
     7
370
    25
100
AcDbCircle
 10
-446.0849171529
 20
-194.9167566322
 30
0.0
 40
0.5999999999999659
100
AcDbArc
 50
110.275053252
 51
180.0
  0
ARC
  5
D2
330
1F
100
AcDbEntity
  8
0
  6
Continuous
 62
     7
370
    25
100
AcDbCircle
 10
-435.9349171529
 20
-222.3925316511
 30
0.0
 40
29.89062499999995
100
AcDbArc
 50
94.797724323
 51
110.275053252
  0
ARC
  5
D3
330
1F
100
AcDbEntity
  8
0
  6
Continuous
 62
     7
370
    25
100
AcDbCircle
 10
884.6502328661
 20
445.3480933489
 30
0.0
 40
0.6000000000000308
100
AcDbArc
 50
270.0
 51
339.724946748
  0
ARC
  5
D4
330
1F
100
AcDbEntity
  8
0
  6
Continuous
 62
     7
370
    25
100
AcDbCircle
 10
884.6502328661
 20
465.6480933489
 30
0.0
 40
0.6000000000000308
100
AcDbArc
 50
20.275053252
 51
90.0
  0
LINE
  5
D5
330
1F
100
AcDbEntity
  8
0
  6
Continuous
 62
     7
370
    25
100
AcDbLine
 10
884.0650828471
 20
444.7480933489
 30
0.0
 11
884.6502328661
 21
444.7480933489
 31
0.0
  0
LINE
  5
D6
330
1F
100
AcDbEntity
  8
0
  6
Continuous
 62
     7
370
    25
100
AcDbLine
 10
884.6502328661
 20
466.2480933489
 30
0.0
 11
884.0650828471
 21
466.2480933489
 31
0.0
  0
ARC
  5
D7
330
1F
100
AcDbEntity
  8
0
  6
Continuous
 62
     7
370
    25
100
AcDbCircle
 10
857.1744578471
 20
455.4980933489
 30
0.0
 40
29.89062499999998
100
AcDbArc
 50
339.724946748
 51
0.0
  0
ARC
  5
D8
330
1F
100
AcDbEntity
  8
0
  6
Continuous
 62
     7
370
    25
100
AcDbCircle
 10
857.1744578471
 20
455.4980933489
 30
0.0
 40
29.89062499999992
100
AcDbArc
 50
0.0
 51
20.275053252
  0
LINE
  5
D9
330
1F
100
AcDbEntity
  8
0
  6
Continuous
 62
     7
370
    25
100
AcDbLine
 10
884.0650828471
 20
-155.2519066511
 30
0.0
 11
884.6502328661
 21
-155.2519066511
 31
0.0
  0
LINE
  5
DA
330
1F
100
AcDbEntity
  8
0
  6
Continuous
 62
     7
370
    25
100
AcDbLine
 10
884.6502328661
 20
-133.7519066511
 30
0.0
 11
884.0650828471
 21
-133.7519066511
 31
0.0
  0
ARC
  5
DB
330
1F
100
AcDbEntity
  8
0
  6
Continuous
 62
     7
370
    25
100
AcDbCircle
 10
884.6502328661
 20
-154.6519066511
 30
0.0
 40
0.600000000000021
100
AcDbArc
 50
270.0
 51
339.724946748
  0
ARC
  5
DC
330
1F
100
AcDbEntity
  8
0
  6
Continuous
 62
     7
370
    25
100
AcDbCircle
 10
884.6502328661
 20
-134.3519066511
 30
0.0
 40
0.600000000000021
100
AcDbArc
 50
20.275053252
 51
90.0
  0
ARC
  5
DD
330
1F
100
AcDbEntity
  8
0
  6
Continuous
 62
     7
370
    25
100
AcDbCircle
 10
857.1744578471
 20
-144.5019066511
 30
0.0
 40
29.89062499999997
100
AcDbArc
 50
339.724946748
 51
0.0
  0
ARC
  5
DE
330
1F
100
AcDbEntity
  8
0
  6
Continuous
 62
     7
370
    25
100
AcDbCircle
 10
857.1744578471
 20
-144.5019066511
 30
0.0
 40
29.89062499999992
100
AcDbArc
 50
0.0
 51
20.275053252
  0
LINE
  5
DF
330
1F
100
AcDbEntity
  8
0
  6
Continuous
 62
     7
370
    25
100
AcDbLine
 10
884.0650828471
 20
144.7480933489
 30
0.0
 11
884.6502328661
 21
144.7480933489
 31
0.0
  0
LINE
  5
E0
330
1F
100
AcDbEntity
  8
0
  6
Continuous
 62
     7
370
    25
100
AcDbLine
 10
884.6502328661
 20
166.2480933489
 30
0.0
 11
884.0650828471
 21
166.2480933489
 31
0.0
  0
ARC
  5
E1
330
1F
100
AcDbEntity
  8
0
  6
Continuous
 62
     7
370
    25
100
AcDbCircle
 10
884.6502328661
 20
145.3480933489
 30
0.0
 40
0.600000000000021
100
AcDbArc
 50
270.0
 51
339.724946748
  0
ARC
  5
E2
330
1F
100
AcDbEntity
  8
0
  6
Continuous
 62
     7
370
    25
100
AcDbCircle
 10
884.6502328661
 20
165.6480933489
 30
0.0
 40
0.6000000000000112
100
AcDbArc
 50
20.275053252
 51
90.0
  0
ARC
  5
E3
330
1F
100
AcDbEntity
  8
0
  6
Continuous
 62
     7
370
    25
100
AcDbCircle
 10
857.1744578471
 20
155.4980933489
 30
0.0
 40
29.89062499999997
100
AcDbArc
 50
339.724946748
 51
0.0
  0
ARC
  5
E4
330
1F
100
AcDbEntity
  8
0
  6
Continuous
 62
     7
370
    25
100
AcDbCircle
 10
857.1744578471
 20
155.4980933489
 30
0.0
 40
29.89062499999989
100
AcDbArc
 50
0.0
 51
20.275053252
  0
LINE
  5
E5
330
1F
100
AcDbEntity
  8
0
  6
Continuous
 62
     7
370
    25
100
AcDbLine
 10
879.8150828471
 20
-195.5019066511
 30
0.0
 11
879.8150828471
 21
-194.9167566322
 31
0.0
  0
ARC
  5
E6
330
1F
100
AcDbEntity
  8
0
  6
Continuous
 62
     7
370
    25
100
AcDbCircle
 10
879.2150828471
 20
-194.9167566322
 30
0.0
 40
0.5999999999999184
100
AcDbArc
 50
0.0
 51
69.724946748
  0
ARC
  5
E7
330
1F
100
AcDbEntity
  8
0
  6
Continuous
 62
     7
370
    25
100
AcDbCircle
 10
869.0650828471
 20
-222.3925316511
 30
0.0
 40
29.89062499999998
100
AcDbArc
 50
69.724946748
 51
85.202275677
  0
LINE
  5
E8
330
1F
100
AcDbEntity
  8
0
  6
Continuous
 62
     7
370
    25
100
AcDbLine
 10
-446.6849171529
 20
504.4980933489
 30
0.0
 11
-446.6849171529
 21
503.91294333
 31
0.0
  0
ARC
  5
E9
330
1F
100
AcDbEntity
  8
0
  6
Continuous
 62
     7
370
    25
100
AcDbCircle
 10
-446.0849171529
 20
503.91294333
 30
0.0
 40
0.6000000000000447
100
AcDbArc
 50
180.0
 51
249.724946748
  0
ARC
  5
EA
330
1F
100
AcDbEntity
  8
0
  6
Continuous
 62
     7
370
    25
100
AcDbCircle
 10
-435.9349171529
 20
531.3887183489
 30
0.0
 40
29.89062499999994
100
AcDbArc
 50
249.724946748
 51
265.202275677
  0
ARC
  5
EB
330
1F
100
AcDbEntity
  8
0
  6
Continuous
 62
     7
370
    25
100
AcDbCircle
 10
-430.6000164626
 20
30.9180037623
 30
0.0
 40
9.499999999999998
100
AcDbArc
 50
193.7002334884
 51
203.9076190177
  0
ARC
  5
EC
330
1F
100
AcDbEntity
  8
0
  6
Continuous
 62
     7
370
    25
100
AcDbCircle
 10
-430.6000164626
 20
30.9180037623
 30
0.0
 40
9.499999999999998
100
AcDbArc
 50
156.0923809823
 51
166.2997665116
  0
LINE
  5
ED
330
1F
100
AcDbEntity
  8
0
  6
Continuous
 62
     7
370
    25
100
AcDbLine
 10
-438.7849171529
 20
27.0680037623
 30
0.0
 11
-438.4349171529
 21
27.4180037623
 31
0.0
  0
LINE
  5
EE
330
1F
100
AcDbEntity
  8
0
  6
Continuous
 62
     7
370
    25
100
AcDbLine
 10
-438.4349171529
 20
34.4180037623
 30
0.0
 11
-438.7849171529
 21
34.7680037623
 31
0.0
  0
LINE
  5
EF
330
1F
100
AcDbEntity
  8
0
  6
Continuous
 62
     7
370
    25
100
AcDbLine
 10
-438.7849171529
 20
34.7680037623
 30
0.0
 11
-439.2849171529
 21
34.7680037623
 31
0.0
  0
LINE
  5
F0
330
1F
100
AcDbEntity
  8
0
  6
Continuous
 62
     7
370
    25
100
AcDbLine
 10
-439.2849171529
 20
27.0680037623
 30
0.0
 11
-438.7849171529
 21
27.0680037623
 31
0.0
  0
LINE
  5
F1
330
1F
100
AcDbEntity
  8
0
  6
Continuous
 62
     7
370
    25
100
AcDbLine
 10
871.9150828471
 20
34.7680037623
 30
0.0
 11
871.5650828472
 21
34.4180037623
 31
0.0
  0
LINE
  5
F2
330
1F
100
AcDbEntity
  8
0
  6
Continuous
 62
     7
370
    25
100
AcDbLine
 10
871.5650828472
 20
27.4180037623
 30
0.0
 11
871.9150828471
 21
27.0680037623
 31
0.0
  0
LINE
  5
F3
330
1F
100
AcDbEntity
  8
0
  6
Continuous
 62
     7
370
    25
100
AcDbLine
 10
871.9150828471
 20
27.0680037623
 30
0.0
 11
872.4150828471
 21
27.0680037623
 31
0.0
  0
LINE
  5
F4
330
1F
100
AcDbEntity
  8
0
  6
Continuous
 62
     7
370
    25
100
AcDbLine
 10
872.4150828471
 20
34.7680037623
 30
0.0
 11
871.9150828471
 21
34.7680037623
 31
0.0
  0
ARC
  5
F5
330
1F
100
AcDbEntity
  8
0
  6
Continuous
 62
     7
370
    25
100
AcDbCircle
 10
863.7301821569
 20
30.9180037623
 30
0.0
 40
9.500000000000108
100
AcDbArc
 50
13.7002334884
 51
23.9076190177
  0
ARC
  5
F6
330
1F
100
AcDbEntity
  8
0
  6
Continuous
 62
     7
370
    25
100
AcDbCircle
 10
863.7301821569
 20
30.9180037623
 30
0.0
 40
9.500000000000108
100
AcDbArc
 50
336.0923809823
 51
346.2997665116
  0
LINE
  5
F7
330
1F
100
AcDbEntity
  8
0
  6
Continuous
 62
     7
370
    25
100
AcDbLine
 10
-438.7849171529
 20
394.4503590271
 30
0.0
 11
-438.4349171529
 21
394.8003590271
 31
0.0
  0
LINE
  5
F8
330
1F
100
AcDbEntity
  8
0
  6
Continuous
 62
     7
370
    25
100
AcDbLine
 10
-438.4349171529
 20
401.8003590271
 30
0.0
 11
-438.7849171529
 21
402.1503590271
 31
0.0
  0
LINE
  5
F9
330
1F
100
AcDbEntity
  8
0
  6
Continuous
 62
     7
370
    25
100
AcDbLine
 10
-438.7849171529
 20
402.1503590271
 30
0.0
 11
-439.2849171529
 21
402.1503590271
 31
0.0
  0
LINE
  5
FA
330
1F
100
AcDbEntity
  8
0
  6
Continuous
 62
     7
370
    25
100
AcDbLine
 10
-439.2849171529
 20
394.4503590271
 30
0.0
 11
-438.7849171529
 21
394.4503590271
 31
0.0
  0
ARC
  5
FB
330
1F
100
AcDbEntity
  8
0
  6
Continuous
 62
     7
370
    25
100
AcDbCircle
 10
-430.6000164626
 20
398.3003590271
 30
0.0
 40
9.499999999999991
100
AcDbArc
 50
193.7002334884
 51
203.9076190177
  0
ARC
  5
FC
330
1F
100
AcDbEntity
  8
0
  6
Continuous
 62
     7
370
    25
100
AcDbCircle
 10
-430.6000164626
 20
398.3003590271
 30
0.0
 40
9.499999999999998
100
AcDbArc
 50
156.0923809823
 51
166.2997665116
  0
LINE
  5
FD
330
1F
100
AcDbEntity
  8
0
  6
Continuous
 62
     7
370
    25
100
AcDbLine
 10
-438.7849171529
 20
282.0005720461
 30
0.0
 11
-439.2849171529
 21
282.0005720461
 31
0.0
  0
LINE
  5
FE
330
1F
100
AcDbEntity
  8
0
  6
Continuous
 62
     7
370
    25
100
AcDbLine
 10
-439.2849171529
 20
274.3005720461
 30
0.0
 11
-438.7849171529
 21
274.3005720461
 31
0.0
  0
ARC
  5
FF
330
1F
100
AcDbEntity
  8
0
  6
Continuous
 62
     7
370
    25
100
AcDbCircle
 10
-430.6000164626
 20
278.1505720461
 30
0.0
 40
9.499999999999998
100
AcDbArc
 50
193.7002334884
 51
203.9076190177
  0
ARC
  5
100
330
1F
100
AcDbEntity
  8
0
  6
Continuous
 62
     7
370
    25
100
AcDbCircle
 10
-430.6000164626
 20
278.1505720461
 30
0.0
 40
9.499999999999998
100
AcDbArc
 50
156.0923809823
 51
166.2997665116
  0
LINE
  5
101
330
1F
100
AcDbEntity
  8
0
  6
Continuous
 62
     7
370
    25
100
AcDbLine
 10
-438.7849171529
 20
274.3005720461
 30
0.0
 11
-438.4349171529
 21
274.6505720461
 31
0.0
  0
LINE
  5
102
330
1F
100
AcDbEntity
  8
0
  6
Continuous
 62
     7
370
    25
100
AcDbLine
 10
-438.4349171529
 20
281.6505720461
 30
0.0
 11
-438.7849171529
 21
282.0005720461
 31
0.0
  0
LINE
  5
103
330
1F
100
AcDbEntity
  8
0
  6
Continuous
 62
     7
370
    25
100
AcDbLine
 10
871.9150828471
 20
402.1503590271
 30
0.0
 11
871.5650828472
 21
401.8003590271
 31
0.0
  0
LINE
  5
104
330
1F
100
AcDbEntity
  8
0
  6
Continuous
 62
     7
370
    25
100
AcDbLine
 10
871.5650828472
 20
394.8003590271
 30
0.0
 11
871.9150828471
 21
394.4503590271
 31
0.0
  0
LINE
  5
105
330
1F
100
AcDbEntity
  8
0
  6
Continuous
 62
     7
370
    25
100
AcDbLine
 10
871.9150828471
 20
394.4503590271
 30
0.0
 11
872.4150828471
 21
394.4503590271
 31
0.0
  0
LINE
  5
106
330
1F
100
AcDbEntity
  8
0
  6
Continuous
 62
     7
370
    25
100
AcDbLine
 10
872.4150828471
 20
402.1503590271
 30
0.0
 11
871.9150828471
 21
402.1503590271
 31
0.0
  0
ARC
  5
107
330
1F
100
AcDbEntity
  8
0
  6
Continuous
 62
     7
370
    25
100
AcDbCircle
 10
863.7301821569
 20
398.3003590271
 30
0.0
 40
9.500000000000108
100
AcDbArc
 50
13.7002334884
 51
23.9076190177
  0
ARC
  5
108
330
1F
100
AcDbEntity
  8
0
  6
Continuous
 62
     7
370
    25
100
AcDbCircle
 10
863.7301821569
 20
398.3003590271
 30
0.0
 40
9.500000000000094
100
AcDbArc
 50
336.0923809823
 51
346.2997665116
  0
ARC
  5
109
330
1F
100
AcDbEntity
  8
0
  6
Continuous
 62
     7
370
    25
100
AcDbCircle
 10
-430.6000164626
 20
154.5061779346
 30
0.0
 40
9.499999999999991
100
AcDbArc
 50
193.7002334884
 51
203.9076190177
  0
ARC
  5
10A
330
1F
100
AcDbEntity
  8
0
  6
Continuous
 62
     7
370
    25
100
AcDbCircle
 10
-430.6000164626
 20
154.5061779346
 30
0.0
 40
9.499999999999991
100
AcDbArc
 50
156.0923809823
 51
166.2997665116
  0
LINE
  5
10B
330
1F
100
AcDbEntity
  8
0
  6
Continuous
 62
     7
370
    25
100
AcDbLine
 10
-438.7849171529
 20
158.3561779346
 30
0.0
 11
-439.2849171529
 21
158.3561779346
 31
0.0
  0
LINE
  5
10C
330
1F
100
AcDbEntity
  8
0
  6
Continuous
 62
     7
370
    25
100
AcDbLine
 10
-439.2849171529
 20
150.6561779346
 30
0.0
 11
-438.7849171529
 21
150.6561779346
 31
0.0
  0
LINE
  5
10D
330
1F
100
AcDbEntity
  8
0
  6
Continuous
 62
     7
370
    25
100
AcDbLine
 10
-438.7849171529
 20
150.6561779346
 30
0.0
 11
-438.4349171529
 21
151.0061779346
 31
0.0
  0
LINE
  5
10E
330
1F
100
AcDbEntity
  8
0
  6
Continuous
 62
     7
370
    25
100
AcDbLine
 10
-438.4349171529
 20
158.0061779346
 30
0.0
 11
-438.7849171529
 21
158.3561779346
 31
0.0
  0
LINE
  5
10F
330
1F
100
AcDbEntity
  8
0
  6
Continuous
 62
     7
370
    25
100
AcDbLine
 10
871.9150828471
 20
158.3561779346
 30
0.0
 11
871.5650828471
 21
158.0061779346
 31
0.0
  0
LINE
  5
110
330
1F
100
AcDbEntity
  8
0
  6
Continuous
 62
     7
370
    25
100
AcDbLine
 10
871.5650828471
 20
151.0061779346
 30
0.0
 11
871.9150828471
 21
150.6561779346
 31
0.0
  0
ARC
  5
111
330
1F
100
AcDbEntity
  8
0
  6
Continuous
 62
     7
370
    25
100
AcDbCircle
 10
863.7301821569
 20
154.5061779346
 30
0.0
 40
9.500000000000101
100
AcDbArc
 50
13.7002334884
 51
23.9076190177
  0
ARC
  5
112
330
1F
100
AcDbEntity
  8
0
  6
Continuous
 62
     7
370
    25
100
AcDbCircle
 10
863.7301821569
 20
154.5061779346
 30
0.0
 40
9.500000000000101
100
AcDbArc
 50
336.0923809823
 51
346.2997665116
  0
LINE
  5
113
330
1F
100
AcDbEntity
  8
0
  6
Continuous
 62
     7
370
    25
100
AcDbLine
 10
871.9150828471
 20
150.6561779346
 30
0.0
 11
872.4150828471
 21
150.6561779346
 31
0.0
  0
LINE
  5
114
330
1F
100
AcDbEntity
  8
0
  6
Continuous
 62
     7
370
    25
100
AcDbLine
 10
872.4150828471
 20
158.3561779346
 30
0.0
 11
871.9150828471
 21
158.3561779346
 31
0.0
  0
LINE
  5
115
330
1F
100
AcDbEntity
  8
0
  6
Continuous
 62
     7
370
    25
100
AcDbLine
 10
871.9150828471
 20
274.3005720461
 30
0.0
 11
872.4150828471
 21
274.3005720461
 31
0.0
  0
LINE
  5
116
330
1F
100
AcDbEntity
  8
0
  6
Continuous
 62
     7
370
    25
100
AcDbLine
 10
872.4150828471
 20
282.0005720461
 30
0.0
 11
871.9150828471
 21
282.0005720461
 31
0.0
  0
ARC
  5
117
330
1F
100
AcDbEntity
  8
0
  6
Continuous
 62
     7
370
    25
100
AcDbCircle
 10
863.7301821569
 20
278.1505720461
 30
0.0
 40
9.500000000000108
100
AcDbArc
 50
13.7002334884
 51
23.9076190177
  0
ARC
  5
118
330
1F
100
AcDbEntity
  8
0
  6
Continuous
 62
     7
370
    25
100
AcDbCircle
 10
863.7301821569
 20
278.1505720461
 30
0.0
 40
9.500000000000108
100
AcDbArc
 50
336.0923809823
 51
346.2997665116
  0
LINE
  5
119
330
1F
100
AcDbEntity
  8
0
  6
Continuous
 62
     7
370
    25
100
AcDbLine
 10
871.9150828471
 20
282.0005720461
 30
0.0
 11
871.5650828472
 21
281.6505720461
 31
0.0
  0
LINE
  5
11A
330
1F
100
AcDbEntity
  8
0
  6
Continuous
 62
     7
370
    25
100
AcDbLine
 10
871.5650828472
 20
274.6505720461
 30
0.0
 11
871.9150828471
 21
274.3005720461
 31
0.0
  0
ARC
  5
11B
330
1F
100
AcDbEntity
  8
0
  6
Continuous
 62
     7
370
    25
100
AcDbCircle
 10
-430.6000164626
 20
-89.0695045504
 30
0.0
 40
9.499999999999991
100
AcDbArc
 50
193.7002334884
 51
203.9076190177
  0
ARC
  5
11C
330
1F
100
AcDbEntity
  8
0
  6
Continuous
 62
     7
370
    25
100
AcDbCircle
 10
-430.6000164626
 20
-89.0695045504
 30
0.0
 40
9.500000000000005
100
AcDbArc
 50
156.0923809823
 51
166.2997665116
  0
LINE
  5
11D
330
1F
100
AcDbEntity
  8
0
  6
Continuous
 62
     7
370
    25
100
AcDbLine
 10
-438.7849171529
 20
-92.9195045504
 30
0.0
 11
-438.4349171529
 21
-92.5695045504
 31
0.0
  0
LINE
  5
11E
330
1F
100
AcDbEntity
  8
0
  6
Continuous
 62
     7
370
    25
100
AcDbLine
 10
-438.4349171529
 20
-85.5695045504
 30
0.0
 11
-438.7849171529
 21
-85.2195045504
 31
0.0
  0
LINE
  5
11F
330
1F
100
AcDbEntity
  8
0
  6
Continuous
 62
     7
370
    25
100
AcDbLine
 10
-438.7849171529
 20
-85.2195045504
 30
0.0
 11
-439.2849171529
 21
-85.2195045504
 31
0.0
  0
LINE
  5
120
330
1F
100
AcDbEntity
  8
0
  6
Continuous
 62
     7
370
    25
100
AcDbLine
 10
-439.2849171529
 20
-92.9195045504
 30
0.0
 11
-438.7849171529
 21
-92.9195045504
 31
0.0
  0
LINE
  5
121
330
1F
100
AcDbEntity
  8
0
  6
Continuous
 62
     7
370
    25
100
AcDbLine
 10
871.9150828471
 20
-92.9195045504
 30
0.0
 11
872.4150828471
 21
-92.9195045504
 31
0.0
  0
LINE
  5
122
330
1F
100
AcDbEntity
  8
0
  6
Continuous
 62
     7
370
    25
100
AcDbLine
 10
872.4150828471
 20
-85.2195045504
 30
0.0
 11
871.9150828471
 21
-85.2195045504
 31
0.0
  0
ARC
  5
123
330
1F
100
AcDbEntity
  8
0
  6
Continuous
 62
     7
370
    25
100
AcDbCircle
 10
863.7301821569
 20
-89.0695045504
 30
0.0
 40
9.500000000000115
100
AcDbArc
 50
13.7002334884
 51
23.9076190177
  0
ARC
  5
124
330
1F
100
AcDbEntity
  8
0
  6
Continuous
 62
     7
370
    25
100
AcDbCircle
 10
863.7301821569
 20
-89.0695045504
 30
0.0
 40
9.500000000000101
100
AcDbArc
 50
336.0923809823
 51
346.2997665116
  0
LINE
  5
125
330
1F
100
AcDbEntity
  8
0
  6
Continuous
 62
     7
370
    25
100
AcDbLine
 10
871.9150828471
 20
-85.2195045504
 30
0.0
 11
871.5650828472
 21
-85.5695045503
 31
0.0
  0
LINE
  5
126
330
1F
100
AcDbEntity
  8
0
  6
Continuous
 62
     7
370
    25
100
AcDbLine
 10
871.5650828472
 20
-92.5695045504
 30
0.0
 11
871.9150828471
 21
-92.9195045504
 31
0.0
  0
ARC
  5
127
330
1F
100
AcDbEntity
  8
0
  6
Continuous
 62
     7
370
    25
100
AcDbCircle
 10
862.9150828471
 20
532.9480933489
 30
0.0
 40
0.9500000000000455
100
AcDbArc
 50
120.9040212822
 51
270.0
  0
ARC
  5
128
330
1F
100
AcDbEntity
  8
0
  6
Continuous
 62
     7
370
    25
100
AcDbCircle
 10
875.2150828471
 20
532.9480933489
 30
0.0
 40
0.9500000000000455
100
AcDbArc
 50
270.0
 51
59.0959787178
  0
ARC
  5
129
330
1F
100
AcDbEntity
  8
0
  6
Continuous
 62
     7
370
    25
100
AcDbCircle
 10
869.0650828471
 20
522.673828643
 30
0.0
 40
12.92426470588239
100
AcDbArc
 50
59.0959787177
 51
120.9040212823
  0
ARC
  5
12A
330
1F
100
AcDbEntity
  8
0
  6
Continuous
 62
     7
370
    25
100
AcDbCircle
 10
-442.0849171529
 20
532.9480933489
 30
0.0
 40
0.9500000000000455
100
AcDbArc
 50
120.9040212823
 51
270.0
  0
ARC
  5
12B
330
1F
100
AcDbEntity
  8
0
  6
Continuous
 62
     7
370
    25
100
AcDbCircle
 10
-429.7849171529
 20
532.9480933489
 30
0.0
 40
0.9500000000000455
100
AcDbArc
 50
270.0
 51
59.0959787177
  0
ARC
  5
12C
330
1F
100
AcDbEntity
  8
0
  6
Continuous
 62
     7
370
    25
100
AcDbCircle
 10
-435.9349171529
 20
522.673828643
 30
0.0
 40
12.92426470588245
100
AcDbArc
 50
59.0959787177
 51
120.9040212823
  0
ARC
  5
12D
330
1F
100
AcDbEntity
  8
0
  6
Continuous
 62
     7
370
    25
100
AcDbCircle
 10
-339.7849171529
 20
-223.9519066511
 30
0.0
 40
0.950000000000017
100
AcDbArc
 50
300.9040212823
 51
90.0
  0
ARC
  5
12E
330
1F
100
AcDbEntity
  8
0
  6
Continuous
 62
     7
370
    25
100
AcDbCircle
 10
-352.0849171529
 20
-223.9519066511
 30
0.0
 40
0.950000000000017
100
AcDbArc
 50
90.0
 51
239.0959787177
  0
ARC
  5
12F
330
1F
100
AcDbEntity
  8
0
  6
Continuous
 62
     7
370
    25
100
AcDbCircle
 10
-345.9349171529
 20
-213.6776419452
 30
0.0
 40
12.92426470588243
100
AcDbArc
 50
239.0959787177
 51
300.9040212823
  0
ARC
  5
130
330
1F
100
AcDbEntity
  8
0
  6
Continuous
 62
     7
370
    25
100
AcDbCircle
 10
875.2150828471
 20
-223.9519066511
 30
0.0
 40
0.950000000000017
100
AcDbArc
 50
300.9040212822
 51
90.0
  0
ARC
  5
131
330
1F
100
AcDbEntity
  8
0
  6
Continuous
 62
     7
370
    25
100
AcDbCircle
 10
862.9150828471
 20
-223.9519066511
 30
0.0
 40
0.950000000000017
100
AcDbArc
 50
90.0
 51
239.0959787178
  0
ARC
  5
132
330
1F
100
AcDbEntity
  8
0
  6
Continuous
 62
     7
370
    25
100
AcDbCircle
 10
869.0650828471
 20
-213.6776419452
 30
0.0
 40
12.92426470588237
100
AcDbArc
 50
239.0959787177
 51
300.9040212823
  0
ARC
  5
133
330
1F
100
AcDbEntity
  8
0
  6
Continuous
 62
     7
370
    25
100
AcDbCircle
 10
-429.7849171529
 20
-223.9519066511
 30
0.0
 40
0.950000000000017
100
AcDbArc
 50
300.9040212823
 51
90.0
  0
ARC
  5
134
330
1F
100
AcDbEntity
  8
0
  6
Continuous
 62
     7
370
    25
100
AcDbCircle
 10
-442.0849171529
 20
-223.9519066511
 30
0.0
 40
0.950000000000017
100
AcDbArc
 50
90.0
 51
239.0959787177
  0
ARC
  5
135
330
1F
100
AcDbEntity
  8
0
  6
Continuous
 62
     7
370
    25
100
AcDbCircle
 10
-435.9349171529
 20
-213.6776419452
 30
0.0
 40
12.92426470588243
100
AcDbArc
 50
239.0959787177
 51
300.9040212823
  0
ARC
  5
136
330
1F
100
AcDbEntity
  8
0
  6
Continuous
 62
     7
370
    25
100
AcDbCircle
 10
-352.0849171529
 20
532.9480933489
 30
0.0
 40
0.9500000000000455
100
AcDbArc
 50
120.9040212823
 51
270.0
  0
ARC
  5
137
330
1F
100
AcDbEntity
  8
0
  6
Continuous
 62
     7
370
    25
100
AcDbCircle
 10
-339.7849171529
 20
532.9480933489
 30
0.0
 40
0.9500000000000455
100
AcDbArc
 50
270.0
 51
59.0959787177
  0
ARC
  5
138
330
1F
100
AcDbEntity
  8
0
  6
Continuous
 62
     7
370
    25
100
AcDbCircle
 10
-345.9349171529
 20
522.673828643
 30
0.0
 40
12.92426470588245
100
AcDbArc
 50
59.0959787177
 51
120.9040212823
  0
ARC
  5
139
330
1F
100
AcDbEntity
  8
0
  6
Continuous
 62
     7
370
    25
100
AcDbCircle
 10
785.2150828471
 20
-223.9519066511
 30
0.0
 40
0.950000000000017
100
AcDbArc
 50
300.9040212823
 51
90.0
  0
ARC
  5
13A
330
1F
100
AcDbEntity
  8
0
  6
Continuous
 62
     7
370
    25
100
AcDbCircle
 10
772.9150828471
 20
-223.9519066511
 30
0.0
 40
0.950000000000017
100
AcDbArc
 50
90.0
 51
239.0959787177
  0
ARC
  5
13B
330
1F
100
AcDbEntity
  8
0
  6
Continuous
 62
     7
370
    25
100
AcDbCircle
 10
779.0650828471
 20
-213.6776419452
 30
0.0
 40
12.92426470588237
100
AcDbArc
 50
239.0959787177
 51
300.9040212823
  0
ARC
  5
13C
330
1F
100
AcDbEntity
  8
0
  6
Continuous
 62
     7
370
    25
100
AcDbCircle
 10
772.9150828471
 20
532.9480933489
 30
0.0
 40
0.9500000000000455
100
AcDbArc
 50
120.9040212823
 51
270.0
  0
ARC
  5
13D
330
1F
100
AcDbEntity
  8
0
  6
Continuous
 62
     7
370
    25
100
AcDbCircle
 10
785.2150828471
 20
532.9480933489
 30
0.0
 40
0.9500000000000455
100
AcDbArc
 50
270.0
 51
59.0959787177
  0
ARC
  5
13E
330
1F
100
AcDbEntity
  8
0
  6
Continuous
 62
     7
370
    25
100
AcDbCircle
 10
779.0650828471
 20
522.673828643
 30
0.0
 40
12.92426470588239
100
AcDbArc
 50
59.0959787177
 51
120.9040212823
  0
ARC
  5
13F
330
1F
100
AcDbEntity
  8
0
  6
Continuous
 62
     7
370
    25
100
AcDbCircle
 10
830.2150828471
 20
-223.9519066511
 30
0.0
 40
0.950000000000017
100
AcDbArc
 50
300.9040212823
 51
90.0
  0
ARC
  5
140
330
1F
100
AcDbEntity
  8
0
  6
Continuous
 62
     7
370
    25
100
AcDbCircle
 10
817.9150828471
 20
-223.9519066511
 30
0.0
 40
0.950000000000017
100
AcDbArc
 50
90.0
 51
239.0959787177
  0
ARC
  5
141
330
1F
100
AcDbEntity
  8
0
  6
Continuous
 62
     7
370
    25
100
AcDbCircle
 10
824.0650828471
 20
-213.6776419452
 30
0.0
 40
12.92426470588232
100
AcDbArc
 50
239.0959787177
 51
300.9040212823
  0
ARC
  5
142
330
1F
100
AcDbEntity
  8
0
  6
Continuous
 62
     7
370
    25
100
AcDbCircle
 10
-384.7849171529
 20
-223.9519066511
 30
0.0
 40
0.950000000000017
100
AcDbArc
 50
300.9040212823
 51
90.0
  0
ARC
  5
143
330
1F
100
AcDbEntity
  8
0
  6
Continuous
 62
     7
370
    25
100
AcDbCircle
 10
-397.0849171529
 20
-223.9519066511
 30
0.0
 40
0.950000000000017
100
AcDbArc
 50
90.0
 51
239.0959787177
  0
ARC
  5
144
330
1F
100
AcDbEntity
  8
0
  6
Continuous
 62
     7
370
    25
100
AcDbCircle
 10
-390.9349171529
 20
-213.6776419452
 30
0.0
 40
12.92426470588232
100
AcDbArc
 50
239.0959787177
 51
300.9040212823
  0
ARC
  5
145
330
1F
100
AcDbEntity
  8
0
  6
Continuous
 62
     7
370
    25
100
AcDbCircle
 10
-397.0849171529
 20
532.9480933489
 30
0.0
 40
0.9500000000000455
100
AcDbArc
 50
120.9040212823
 51
270.0
  0
ARC
  5
146
330
1F
100
AcDbEntity
  8
0
  6
Continuous
 62
     7
370
    25
100
AcDbCircle
 10
-384.7849171529
 20
532.9480933489
 30
0.0
 40
0.9500000000000455
100
AcDbArc
 50
270.0
 51
59.0959787177
  0
ARC
  5
147
330
1F
100
AcDbEntity
  8
0
  6
Continuous
 62
     7
370
    25
100
AcDbCircle
 10
-390.9349171529
 20
522.673828643
 30
0.0
 40
12.92426470588239
100
AcDbArc
 50
59.0959787177
 51
120.9040212823
  0
ARC
  5
148
330
1F
100
AcDbEntity
  8
0
  6
Continuous
 62
     7
370
    25
100
AcDbCircle
 10
817.9150828471
 20
532.9480933489
 30
0.0
 40
0.9500000000000455
100
AcDbArc
 50
120.9040212823
 51
270.0
  0
ARC
  5
149
330
1F
100
AcDbEntity
  8
0
  6
Continuous
 62
     7
370
    25
100
AcDbCircle
 10
830.2150828471
 20
532.9480933489
 30
0.0
 40
0.9500000000000455
100
AcDbArc
 50
270.0
 51
59.0959787177
  0
ARC
  5
14A
330
1F
100
AcDbEntity
  8
0
  6
Continuous
 62
     7
370
    25
100
AcDbCircle
 10
824.0650828471
 20
522.673828643
 30
0.0
 40
12.92426470588239
100
AcDbArc
 50
59.0959787177
 51
120.9040212823
  0
LINE
  5
14B
330
1F
100
AcDbEntity
  8
0
  6
Continuous
 62
     7
370
    25
100
AcDbLine
 10
-515.9349171529
 20
-211.0019066511
 30
0.0
 11
-515.9349171529
 21
-220.0019066511
 31
0.0
  0
LINE
  5
14C
330
1F
100
AcDbEntity
  8
0
  6
Continuous
 62
     7
370
    25
100
AcDbLine
 10
-265.9349171529
 20
-220.0019066511
 30
0.0
 11
-265.9349171529
 21
-211.0019066511
 31
0.0
  0
ARC
  5
14D
330
1F
100
AcDbEntity
  8
0
  6
Continuous
 62
     7
370
    25
100
AcDbCircle
 10
-268.9349171529
 20
-220.0019066511
 30
0.0
 40
3.0
100
AcDbArc
 50
270.0
 51
0.0
  0
ARC
  5
14E
330
1F
100
AcDbEntity
  8
0
  6
Continuous
 62
     7
370
    25
100
AcDbCircle
 10
-512.9349171529
 20
-220.0019066511
 30
0.0
 40
3.0
100
AcDbArc
 50
180.0
 51
270.0
  0
ARC
  5
14F
330
1F
100
AcDbEntity
  8
0
  6
Continuous
 62
     7
370
    25
100
AcDbCircle
 10
-268.9349171529
 20
-211.0019066511
 30
0.0
 40
3.000000000000028
100
AcDbArc
 50
0.0
 51
90.0
  0
ARC
  5
150
330
1F
100
AcDbEntity
  8
0
  6
Continuous
 62
     7
370
    25
100
AcDbCircle
 10
-512.9349171529
 20
-211.0019066511
 30
0.0
 40
3.000000000000028
100
AcDbArc
 50
90.0
 51
180.0
  0
ARC
  5
151
330
1F
100
AcDbEntity
  8
0
  6
Continuous
 62
     7
370
    25
100
AcDbCircle
 10
946.0650828471
 20
-220.0019066511
 30
0.0
 40
3.000000000000114
100
AcDbArc
 50
270.0
 51
0.0
  0
ARC
  5
152
330
1F
100
AcDbEntity
  8
0
  6
Continuous
 62
     7
370
    25
100
AcDbCircle
 10
702.0650828471
 20
-220.0019066511
 30
0.0
 40
3.000000000000114
100
AcDbArc
 50
180.0
 51
270.0
  0
ARC
  5
153
330
1F
100
AcDbEntity
  8
0
  6
Continuous
 62
     7
370
    25
100
AcDbCircle
 10
946.0650828471
 20
-211.0019066511
 30
0.0
 40
3.000000000000114
100
AcDbArc
 50
0.0
 51
90.0
  0
ARC
  5
154
330
1F
100
AcDbEntity
  8
0
  6
Continuous
 62
     7
370
    25
100
AcDbCircle
 10
702.0650828471
 20
-211.0019066511
 30
0.0
 40
3.000000000000114
100
AcDbArc
 50
90.0
 51
180.0
  0
LINE
  5
155
330
1F
100
AcDbEntity
  8
0
  6
Continuous
 62
     7
370
    25
100
AcDbLine
 10
699.0650828471
 20
-211.0019066511
 30
0.0
 11
699.0650828471
 21
-220.0019066511
 31
0.0
  0
LINE
  5
156
330
1F
100
AcDbEntity
  8
0
  6
Continuous
 62
     7
370
    25
100
AcDbLine
 10
949.0650828471
 20
-220.0019066511
 30
0.0
 11
949.0650828471
 21
-211.0019066511
 31
0.0
  0
LINE
  5
157
330
1F
100
AcDbEntity
  8
0
  6
Continuous
 62
     7
370
    25
100
AcDbLine
 10
-265.9349171529
 20
519.9980933489
 30
0.0
 11
-265.9349171529
 21
528.9980933489
 31
0.0
  0
LINE
  5
158
330
1F
100
AcDbEntity
  8
0
  6
Continuous
 62
     7
370
    25
100
AcDbLine
 10
-515.9349171529
 20
528.9980933489
 30
0.0
 11
-515.9349171529
 21
519.9980933489
 31
0.0
  0
ARC
  5
159
330
1F
100
AcDbEntity
  8
0
  6
Continuous
 62
     7
370
    25
100
AcDbCircle
 10
-512.9349171529
 20
519.9980933489
 30
0.0
 40
3.0
100
AcDbArc
 50
180.0
 51
270.0
  0
ARC
  5
15A
330
1F
100
AcDbEntity
  8
0
  6
Continuous
 62
     7
370
    25
100
AcDbCircle
 10
-268.9349171529
 20
519.9980933489
 30
0.0
 40
3.0
100
AcDbArc
 50
270.0
 51
0.0
  0
ARC
  5
15B
330
1F
100
AcDbEntity
  8
0
  6
Continuous
 62
     7
370
    25
100
AcDbCircle
 10
-512.9349171529
 20
528.9980933489
 30
0.0
 40
3.0
100
AcDbArc
 50
90.0
 51
180.0
  0
ARC
  5
15C
330
1F
100
AcDbEntity
  8
0
  6
Continuous
 62
     7
370
    25
100
AcDbCircle
 10
-268.9349171529
 20
528.9980933489
 30
0.0
 40
3.0
100
AcDbArc
 50
0.0
 51
90.0
  0
LINE
  5
15D
330
1F
100
AcDbEntity
  8
0
  6
Continuous
 62
     7
370
    25
100
AcDbLine
 10
949.0650828471
 20
519.9980933489
 30
0.0
 11
949.0650828471
 21
528.9980933489
 31
0.0
  0
LINE
  5
15E
330
1F
100
AcDbEntity
  8
0
  6
Continuous
 62
     7
370
    25
100
AcDbLine
 10
699.0650828471
 20
528.9980933489
 30
0.0
 11
699.0650828471
 21
519.9980933489
 31
0.0
  0
ARC
  5
15F
330
1F
100
AcDbEntity
  8
0
  6
Continuous
 62
     7
370
    25
100
AcDbCircle
 10
702.0650828471
 20
519.9980933489
 30
0.0
 40
3.000000000000114
100
AcDbArc
 50
180.0
 51
270.0
  0
ARC
  5
160
330
1F
100
AcDbEntity
  8
0
  6
Continuous
 62
     7
370
    25
100
AcDbCircle
 10
946.0650828471
 20
519.9980933489
 30
0.0
 40
3.000000000000114
100
AcDbArc
 50
270.0
 51
0.0
  0
ARC
  5
161
330
1F
100
AcDbEntity
  8
0
  6
Continuous
 62
     7
370
    25
100
AcDbCircle
 10
702.0650828471
 20
528.9980933489
 30
0.0
 40
3.000000000000114
100
AcDbArc
 50
90.0
 51
180.0
  0
ARC
  5
162
330
1F
100
AcDbEntity
  8
0
  6
Continuous
 62
     7
370
    25
100
AcDbCircle
 10
946.0650828471
 20
528.9980933489
 30
0.0
 40
3.000000000000114
100
AcDbArc
 50
0.0
 51
90.0
  0
LINE
  5
163
330
1F
100
AcDbEntity
  8
0
  6
Continuous
 62
     7
370
    25
100
AcDbLine
 10
2449.0650828471
 20
-223.0019066511
 30
0.0
 11
2449.0650828471
 21
531.9980933489
 31
0.0
  0
LINE
  5
164
330
1F
100
AcDbEntity
  8
0
  6
Continuous
 62
     7
370
    25
100
AcDbLine
 10
949.0650828471
 20
2031.9980933489
 30
0.0
 11
-515.9349171529
 21
2031.9980933489
 31
0.0
  0
ARC
  5
165
330
1F
100
AcDbEntity
  8
0
  6
Continuous
 62
     7
370
    25
100
AcDbCircle
 10
-515.9349171529
 20
-223.0019066511
 30
0.0
 40
1500.0
100
AcDbArc
 50
180.0
 51
270.0
  0
LINE
  5
166
330
1F
100
AcDbEntity
  8
0
  6
Continuous
 62
     7
370
    25
100
AcDbLine
 10
-2015.9349171529
 20
531.9980933489
 30
0.0
 11
-2015.9349171529
 21
-223.0019066511
 31
0.0
  0
ARC
  5
167
330
1F
100
AcDbEntity
  8
0
  6
Continuous
 62
     7
370
    25
100
AcDbCircle
 10
949.0650828471
 20
531.9980933489
 30
0.0
 40
1500.0
100
AcDbArc
 50
0.0
 51
90.0
  0
ARC
  5
168
330
1F
100
AcDbEntity
  8
0
  6
Continuous
 62
     7
370
    25
100
AcDbCircle
 10
-515.9349171529
 20
531.9980933489
 30
0.0
 40
1500.0
100
AcDbArc
 50
90.0
 51
180.0
  0
LINE
  5
169
330
1F
100
AcDbEntity
  8
0
  6
Continuous
 62
     7
370
    25
100
AcDbLine
 10
-515.9349171529
 20
-1723.0019066511
 30
0.0
 11
949.0650828471
 21
-1723.0019066511
 31
0.0
  0
ARC
  5
16A
330
1F
100
AcDbEntity
  8
0
  6
Continuous
 62
     7
370
    25
100
AcDbCircle
 10
949.0650828471
 20
-223.0019066511
 30
0.0
 40
1500.0
100
AcDbArc
 50
270.0
 51
0.0
  0
LINE
  5
16B
330
1F
100
AcDbEntity
  8
0
  6
Continuous
 62
     7
370
    25
100
AcDbLine
 10
444.0650828471
 20
-158.0019066511
 30
0.0
 11
494.0650828471
 21
-158.0019066511
 31
0.0
  0
LINE
  5
16C
330
1F
100
AcDbEntity
  8
0
  6
Continuous
 62
     7
370
    25
100
AcDbLine
 10
494.0650828471
 20
-158.0019066511
 30
0.0
 11
494.0650828471
 21
-173.0019066511
 31
0.0
  0
LINE
  5
16D
330
1F
100
AcDbEntity
  8
0
  6
Continuous
 62
     7
370
    25
100
AcDbLine
 10
494.0650828471
 20
-173.0019066511
 30
0.0
 11
444.0650828471
 21
-173.0019066511
 31
0.0
  0
LINE
  5
16E
330
1F
100
AcDbEntity
  8
0
  6
Continuous
 62
     7
370
    25
100
AcDbLine
 10
444.0650828471
 20
-173.0019066511
 30
0.0
 11
444.0650828471
 21
-158.0019066511
 31
0.0
  0
LINE
  5
16F
330
1F
100
AcDbEntity
  8
0
  6
Continuous
 62
     7
370
    25
100
AcDbLine
 10
-60.9349171529
 20
466.9980933489
 30
0.0
 11
-60.9349171529
 21
481.9980933489
 31
0.0
  0
LINE
  5
170
330
1F
100
AcDbEntity
  8
0
  6
Continuous
 62
     7
370
    25
100
AcDbLine
 10
-10.9349171529
 20
481.9980933489
 30
0.0
 11
-10.9349171529
 21
466.9980933489
 31
0.0
  0
LINE
  5
171
330
1F
100
AcDbEntity
  8
0
  6
Continuous
 62
     7
370
    25
100
AcDbLine
 10
-10.9349171529
 20
466.9980933489
 30
0.0
 11
-60.9349171529
 21
466.9980933489
 31
0.0
  0
LINE
  5
172
330
1F
100
AcDbEntity
  8
0
  6
Continuous
 62
     7
370
    25
100
AcDbLine
 10
-60.9349171529
 20
481.9980933489
 30
0.0
 11
-10.9349171529
 21
481.9980933489
 31
0.0
  0
LINE
  5
173
330
1F
100
AcDbEntity
  8
0
  6
Continuous
 62
     7
370
    25
100
AcDbLine
 10
-10.9349171529
 20
481.9980933489
 30
0.0
 11
-10.9349171529
 21
487.3816549927
 31
0.0
  0
LINE
  5
174
330
1F
100
AcDbEntity
  8
0
  6
Continuous
 62
     7
370
    25
100
AcDbLine
 10
-10.9349171529
 20
487.3816549927
 30
0.0
 11
-60.9349171529
 21
487.3816549927
 31
0.0
  0
LINE
  5
175
330
1F
100
AcDbEntity
  8
0
  6
Continuous
 62
     7
370
    25
100
AcDbLine
 10
-60.9349171529
 20
487.3816549927
 30
0.0
 11
-60.9349171529
 21
481.9980933489
 31
0.0
  0
LINE
  5
176
330
1F
100
AcDbEntity
  8
0
  6
Continuous
 62
     7
370
    25
100
AcDbLine
 10
-60.9349171529
 20
-173.0019066511
 30
0.0
 11
-60.9349171529
 21
-178.3854682949
 31
0.0
  0
LINE
  5
177
330
1F
100
AcDbEntity
  8
0
  6
Continuous
 62
     7
370
    25
100
AcDbLine
 10
-60.9349171529
 20
-178.3854682949
 30
0.0
 11
-10.9349171529
 21
-178.3854682949
 31
0.0
  0
LINE
  5
178
330
1F
100
AcDbEntity
  8
0
  6
Continuous
 62
     7
370
    25
100
AcDbLine
 10
-10.9349171529
 20
-178.3854682949
 30
0.0
 11
-10.9349171529
 21
-173.0019066511
 31
0.0
  0
LINE
  5
179
330
1F
100
AcDbEntity
  8
0
  6
Continuous
 62
     7
370
    25
100
AcDbLine
 10
856.5650828471
 20
507.6051948158
 30
0.0
 11
-423.4349171529
 21
507.6051948158
 31
0.0
  0
LINE
  5
17A
330
1F
100
AcDbEntity
  8
0
  6
Continuous
 62
     7
370
    25
100
AcDbLine
 10
-423.4349171529
 20
-198.609008118
 30
0.0
 11
856.5650828471
 21
-198.609008118
 31
0.0
  0
LINE
  5
17B
330
1F
100
AcDbEntity
  8
0
  6
Continuous
 62
     7
370
    25
100
AcDbLine
 10
494.0650828471
 20
481.9980933489
 30
0.0
 11
494.0650828471
 21
487.3816549927
 31
0.0
  0
LINE
  5
17C
330
1F
100
AcDbEntity
  8
0
  6
Continuous
 62
     7
370
    25
100
AcDbLine
 10
494.0650828471
 20
487.3816549927
 30
0.0
 11
444.0650828471
 21
487.3816549927
 31
0.0
  0
LINE
  5
17D
330
1F
100
AcDbEntity
  8
0
  6
Continuous
 62
     7
370
    25
100
AcDbLine
 10
444.0650828471
 20
487.3816549927
 30
0.0
 11
444.0650828471
 21
481.9980933489
 31
0.0
  0
LINE
  5
17E
330
1F
100
AcDbEntity
  8
0
  6
Continuous
 62
     7
370
    25
100
AcDbLine
 10
444.0650828471
 20
-173.0019066511
 30
0.0
 11
444.0650828471
 21
-178.3854682949
 31
0.0
  0
LINE
  5
17F
330
1F
100
AcDbEntity
  8
0
  6
Continuous
 62
     7
370
    25
100
AcDbLine
 10
444.0650828471
 20
-178.3854682949
 30
0.0
 11
494.0650828471
 21
-178.3854682949
 31
0.0
  0
LINE
  5
180
330
1F
100
AcDbEntity
  8
0
  6
Continuous
 62
     7
370
    25
100
AcDbLine
 10
494.0650828471
 20
-178.3854682949
 30
0.0
 11
494.0650828471
 21
-173.0019066511
 31
0.0
  0
LINE
  5
181
330
1F
100
AcDbEntity
  8
0
  6
Continuous
 62
     7
370
    25
100
AcDbLine
 10
-60.9349171529
 20
-173.0019066511
 30
0.0
 11
-10.9349171529
 21
-173.0019066511
 31
0.0
  0
LINE
  5
182
330
1F
100
AcDbEntity
  8
0
  6
Continuous
 62
     7
370
    25
100
AcDbLine
 10
-10.9349171529
 20
-158.0019066511
 30
0.0
 11
-60.9349171529
 21
-158.0019066511
 31
0.0
  0
LINE
  5
183
330
1F
100
AcDbEntity
  8
0
  6
Continuous
 62
     7
370
    25
100
AcDbLine
 10
-10.9349171529
 20
-173.0019066511
 30
0.0
 11
-10.9349171529
 21
-158.0019066511
 31
0.0
  0
LINE
  5
184
330
1F
100
AcDbEntity
  8
0
  6
Continuous
 62
     7
370
    25
100
AcDbLine
 10
-60.9349171529
 20
-158.0019066511
 30
0.0
 11
-60.9349171529
 21
-173.0019066511
 31
0.0
  0
LINE
  5
185
330
1F
100
AcDbEntity
  8
0
  6
Continuous
 62
     7
370
    25
100
AcDbLine
 10
444.0650828471
 20
466.9980933489
 30
0.0
 11
494.0650828471
 21
466.9980933489
 31
0.0
  0
LINE
  5
186
330
1F
100
AcDbEntity
  8
0
  6
Continuous
 62
     7
370
    25
100
AcDbLine
 10
444.0650828471
 20
481.9980933489
 30
0.0
 11
444.0650828471
 21
466.9980933489
 31
0.0
  0
LINE
  5
187
330
1F
100
AcDbEntity
  8
0
  6
Continuous
 62
     7
370
    25
100
AcDbLine
 10
494.0650828471
 20
481.9980933489
 30
0.0
 11
444.0650828471
 21
481.9980933489
 31
0.0
  0
LINE
  5
188
330
1F
100
AcDbEntity
  8
0
  6
Continuous
 62
     7
370
    25
100
AcDbLine
 10
494.0650828471
 20
466.9980933489
 30
0.0
 11
494.0650828471
 21
481.9980933489
 31
0.0
  0
LINE
  5
189
330
1F
100
AcDbEntity
  8
0
  6
Continuous
 62
     7
370
    25
100
AcDbLine
 10
-423.4349171529
 20
502.3713327855
 30
0.0
 11
-423.4349171529
 21
-191.3751460877
 31
0.0
  0
LWPOLYLINE
  5
18A
330
1F
100
AcDbEntity
  8
0
  6
Continuous
 62
     7
370
    25
100
AcDbPolyline
 90
        9
 70
   128
 43
0.0
 10
-423.4349171529
 20
-191.3751460877
 10
-423.4925613117
 20
-191.6451126249
 10
-423.6632785553
 20
-191.9047044994
 10
-423.940508316
 20
-192.1439457412
 10
-424.3135968093
 20
-192.3536424434
 10
-424.7682064538
 20
-192.5257360794
 10
-425.2868668558
 20
-192.6536131873
 10
-425.8496461868
 20
-192.7323595215
 10
-426.4349171529
 20
-192.7589489046
  0
LINE
  5
18B
330
1F
100
AcDbEntity
  8
0
  6
Continuous
 62
     7
370
    25
100
AcDbLine
 10
-426.4349171529
 20
-192.7589489046
 30
0.0
 11
-426.4349171529
 21
503.7551356024
 31
0.0
  0
LWPOLYLINE
  5
18C
330
1F
100
AcDbEntity
  8
0
  6
Continuous
 62
     7
370
    25
100
AcDbPolyline
 90
        9
 70
   128
 43
0.0
 10
-423.4349171529
 20
502.3713327855
 10
-423.4925613117
 20
502.6412993227
 10
-423.6632785553
 20
502.9008911972
 10
-423.940508316
 20
503.140132439
 10
-424.3135968093
 20
503.3498291412
 10
-424.7682064538
 20
503.5219227772
 10
-425.2868668558
 20
503.6497998851
 10
-425.8496461868
 20
503.7285462193
 10
-426.4349171529
 20
503.7551356024
  0
LINE
  5
18D
330
1F
100
AcDbEntity
  8
0
  6
Continuous
 62
     7
370
    25
100
AcDbLine
 10
-435.4349171529
 20
503.7551356024
 30
0.0
 11
-435.4349171529
 21
-192.7589489046
 31
0.0
  0
LWPOLYLINE
  5
18E
330
1F
100
AcDbEntity
  8
0
  6
Continuous
 62
     7
370
    25
100
AcDbPolyline
 90
        9
 70
   128
 43
0.0
 10
-435.4349171529
 20
-192.7589489046
 10
-436.0201881189
 20
-192.7323595215
 10
-436.58296745
 20
-192.6536131873
 10
-437.1016278519
 20
-192.5257360794
 10
-437.5562374964
 20
-192.3536424434
 10
-437.9293259898
 20
-192.1439457412
 10
-438.2065557504
 20
-191.9047044994
 10
-438.3772729941
 20
-191.6451126249
 10
-438.4349171529
 20
-191.3751460877
  0
LINE
  5
18F
330
1F
100
AcDbEntity
  8
0
  6
Continuous
 62
     7
370
    25
100
AcDbLine
 10
-438.4349171529
 20
-191.3751460877
 30
0.0
 11
-438.4349171529
 21
502.3713327855
 31
0.0
  0
LWPOLYLINE
  5
190
330
1F
100
AcDbEntity
  8
0
  6
Continuous
 62
     7
370
    25
100
AcDbPolyline
 90
        9
 70
   128
 43
0.0
 10
-435.4349171529
 20
503.7551356024
 10
-436.0201881189
 20
503.7285462193
 10
-436.58296745
 20
503.6497998851
 10
-437.1016278519
 20
503.5219227772
 10
-437.5562374964
 20
503.3498291412
 10
-437.9293259898
 20
503.140132439
 10
-438.2065557504
 20
502.9008911972
 10
-438.3772729941
 20
502.6412993227
 10
-438.4349171529
 20
502.3713327855
  0
LINE
  5
191
330
1F
100
AcDbEntity
  8
0
  6
Continuous
 62
     7
370
    25
100
AcDbLine
 10
-435.4349171529
 20
-192.7589489046
 30
0.0
 11
-426.4349171529
 21
-192.7589489046
 31
0.0
  0
LINE
  5
192
330
1F
100
AcDbEntity
  8
0
  6
Continuous
 62
     7
370
    25
100
AcDbLine
 10
-435.4349171529
 20
503.7551356024
 30
0.0
 11
-426.4349171529
 21
503.7551356024
 31
0.0
  0
LINE
  5
193
330
1F
100
AcDbEntity
  8
0
  6
Continuous
 62
     7
370
    25
100
AcDbLine
 10
-438.4349171529
 20
-214.0019066511
 30
0.0
 11
-438.4349171529
 21
-191.3751460877
 31
0.0
  0
LINE
  5
194
330
1F
100
AcDbEntity
  8
0
  6
Continuous
 62
     7
370
    25
100
AcDbLine
 10
-423.4349171529
 20
-191.3751460877
 30
0.0
 11
-423.4349171529
 21
-214.0019066511
 31
0.0
  0
LINE
  5
195
330
1F
100
AcDbEntity
  8
0
  6
Continuous
 62
     7
370
    25
100
AcDbLine
 10
-438.4349171529
 20
502.3713327855
 30
0.0
 11
-438.4349171529
 21
524.9980933489
 31
0.0
  0
LINE
  5
196
330
1F
100
AcDbEntity
  8
0
  6
Continuous
 62
     7
370
    25
100
AcDbLine
 10
-423.4349171529
 20
524.9980933489
 30
0.0
 11
-423.4349171529
 21
502.3713327855
 31
0.0
  0
LINE
  5
197
330
1F
100
AcDbEntity
  8
0
  6
Continuous
 62
     7
370
    25
100
AcDbLine
 10
868.5650828472
 20
-192.7589489046
 30
0.0
 11
868.5650828472
 21
503.7551356024
 31
0.0
  0
LINE
  5
198
330
1F
100
AcDbEntity
  8
0
  6
Continuous
 62
     7
370
    25
100
AcDbLine
 10
859.5650828472
 20
-192.7589489046
 30
0.0
 11
868.5650828472
 21
-192.7589489046
 31
0.0
  0
LINE
  5
199
330
1F
100
AcDbEntity
  8
0
  6
Continuous
 62
     7
370
    25
100
AcDbLine
 10
859.5650828472
 20
503.7551356024
 30
0.0
 11
859.5650828472
 21
-192.7589489046
 31
0.0
  0
LINE
  5
19A
330
1F
100
AcDbEntity
  8
0
  6
Continuous
 62
     7
370
    25
100
AcDbLine
 10
859.5650828472
 20
503.7551356024
 30
0.0
 11
868.5650828472
 21
503.7551356024
 31
0.0
  0
LWPOLYLINE
  5
19B
330
1F
100
AcDbEntity
  8
0
  6
Continuous
 62
     7
370
    25
100
AcDbPolyline
 90
        9
 70
   128
 43
0.0
 10
859.5650828472
 20
-192.7589489046
 10
858.9798118811
 20
-192.7323595215
 10
858.4170325501
 20
-192.6536131873
 10
857.8983721481
 20
-192.5257360794
 10
857.4437625036
 20
-192.3536424434
 10
857.0706740102
 20
-192.1439457412
 10
856.7934442496
 20
-191.9047044994
 10
856.6227270059
 20
-191.6451126249
 10
856.5650828472
 20
-191.3751460877
  0
LINE
  5
19C
330
1F
100
AcDbEntity
  8
0
  6
Continuous
 62
     7
370
    25
100
AcDbLine
 10
856.5650828472
 20
-191.3751460877
 30
0.0
 11
856.5650828472
 21
502.3713327855
 31
0.0
  0
LWPOLYLINE
  5
19D
330
1F
100
AcDbEntity
  8
0
  6
Continuous
 62
     7
370
    25
100
AcDbPolyline
 90
        9
 70
   128
 43
0.0
 10
859.5650828472
 20
503.7551356024
 10
858.9798118811
 20
503.7285462193
 10
858.4170325501
 20
503.6497998851
 10
857.8983721481
 20
503.5219227772
 10
857.4437625036
 20
503.3498291412
 10
857.0706740102
 20
503.140132439
 10
856.7934442496
 20
502.9008911972
 10
856.6227270059
 20
502.6412993227
 10
856.5650828472
 20
502.3713327855
  0
LINE
  5
19E
330
1F
100
AcDbEntity
  8
0
  6
Continuous
 62
     7
370
    25
100
AcDbLine
 10
871.5650828472
 20
502.3713327855
 30
0.0
 11
871.5650828472
 21
-191.3751460877
 31
0.0
  0
LWPOLYLINE
  5
19F
330
1F
100
AcDbEntity
  8
0
  6
Continuous
 62
     7
370
    25
100
AcDbPolyline
 90
        9
 70
   128
 43
0.0
 10
871.5650828472
 20
-191.3751460877
 10
871.5074386884
 20
-191.6451126249
 10
871.3367214447
 20
-191.9047044994
 10
871.0594916841
 20
-192.1439457412
 10
870.6864031907
 20
-192.3536424434
 10
870.2317935462
 20
-192.5257360794
 10
869.7131331442
 20
-192.6536131873
 10
869.1503538132
 20
-192.7323595215
 10
868.5650828472
 20
-192.7589489046
  0
LWPOLYLINE
  5
1A0
330
1F
100
AcDbEntity
  8
0
  6
Continuous
 62
     7
370
    25
100
AcDbPolyline
 90
        9
 70
   128
 43
0.0
 10
871.5650828472
 20
502.3713327855
 10
871.5074386884
 20
502.6412993227
 10
871.3367214447
 20
502.9008911972
 10
871.0594916841
 20
503.140132439
 10
870.6864031907
 20
503.3498291412
 10
870.2317935462
 20
503.5219227772
 10
869.7131331442
 20
503.6497998851
 10
869.1503538132
 20
503.7285462193
 10
868.5650828472
 20
503.7551356024
  0
LINE
  5
1A1
330
1F
100
AcDbEntity
  8
0
  6
Continuous
 62
     7
370
    25
100
AcDbLine
 10
871.5650828472
 20
-191.3751460877
 30
0.0
 11
871.5650828472
 21
-214.0019066511
 31
0.0
  0
LINE
  5
1A2
330
1F
100
AcDbEntity
  8
0
  6
Continuous
 62
     7
370
    25
100
AcDbLine
 10
856.5650828472
 20
502.3713327855
 30
0.0
 11
856.5650828472
 21
524.9980933489
 31
0.0
  0
LINE
  5
1A3
330
1F
100
AcDbEntity
  8
0
  6
Continuous
 62
     7
370
    25
100
AcDbLine
 10
856.5650828472
 20
-214.0019066511
 30
0.0
 11
856.5650828472
 21
-191.3751460877
 31
0.0
  0
LINE
  5
1A4
330
1F
100
AcDbEntity
  8
0
  6
Continuous
 62
     7
370
    25
100
AcDbLine
 10
871.5650828472
 20
524.9980933489
 30
0.0
 11
871.5650828472
 21
502.3713327855
 31
0.0
  0
LINE
  5
1A5
330
1F
100
AcDbEntity
  8
0
  6
Continuous
 62
     7
370
    25
100
AcDbLine
 10
871.5650828472
 20
504.4980933489
 30
0.0
 11
879.8150828471
 21
504.4980933489
 31
0.0
  0
LINE
  5
1A6
330
1F
100
AcDbEntity
  8
0
  6
Continuous
 62
     7
370
    25
100
AcDbLine
 10
884.0650828471
 20
444.7480933489
 30
0.0
 11
884.0650828471
 21
466.2480933489
 31
0.0
  0
LINE
  5
1A7
330
1F
100
AcDbEntity
  8
0
  6
Continuous
 62
     7
370
    25
100
AcDbLine
 10
879.8150828471
 20
-195.5019066511
 30
0.0
 11
871.5650828472
 21
-195.5019066511
 31
0.0
  0
LINE
  5
1A8
330
1F
100
AcDbEntity
  8
0
  6
Continuous
 62
     7
370
    25
100
AcDbLine
 10
884.0650828471
 20
144.7480933489
 30
0.0
 11
884.0650828471
 21
166.2480933489
 31
0.0
  0
LINE
  5
1A9
330
1F
100
AcDbEntity
  8
0
  6
Continuous
 62
     7
370
    25
100
AcDbLine
 10
-438.4349171529
 20
-195.5019066511
 30
0.0
 11
-446.6849171529
 21
-195.5019066511
 31
0.0
  0
LINE
  5
1AA
330
1F
100
AcDbEntity
  8
0
  6
Continuous
 62
     7
370
    25
100
AcDbLine
 10
-450.9349171529
 20
-133.7519066511
 30
0.0
 11
-450.9349171529
 21
-155.2519066511
 31
0.0
  0
LINE
  5
1AB
330
1F
100
AcDbEntity
  8
0
  6
Continuous
 62
     7
370
    25
100
AcDbLine
 10
-446.6849171529
 20
504.4980933489
 30
0.0
 11
-438.4349171529
 21
504.4980933489
 31
0.0
  0
LINE
  5
1AC
330
1F
100
AcDbEntity
  8
0
  6
Continuous
 62
     7
370
    25
100
AcDbLine
 10
884.0650828471
 20
-155.2519066511
 30
0.0
 11
884.0650828471
 21
-133.7519066511
 31
0.0
  0
LINE
  5
1AD
330
1F
100
AcDbEntity
  8
0
  6
Continuous
 62
     7
370
    25
100
AcDbLine
 10
-450.9349171529
 20
166.2480933489
 30
0.0
 11
-450.9349171529
 21
144.7480933489
 31
0.0
  0
LINE
  5
1AE
330
1F
100
AcDbEntity
  8
0
  6
Continuous
 62
     7
370
    25
100
AcDbLine
 10
-450.9349171529
 20
466.2480933489
 30
0.0
 11
-450.9349171529
 21
444.7480933489
 31
0.0
  0
LINE
  5
1AF
330
1F
100
AcDbEntity
  8
0
  6
Continuous
 62
     7
370
    25
100
AcDbLine
 10
-375.4349171529
 20
-208.0019066511
 30
0.0
 11
-376.4349171529
 21
-205.0019066511
 31
0.0
  0
LINE
  5
1B0
330
1F
100
AcDbEntity
  8
0
  6
Continuous
 62
     7
370
    25
100
AcDbLine
 10
-373.4349171529
 20
-206.0019066511
 30
0.0
 11
-376.4349171529
 21
-205.0019066511
 31
0.0
  0
ARC
  5
1B1
330
1F
100
AcDbEntity
  8
0
  6
Continuous
 62
     7
370
    25
100
AcDbCircle
 10
-375.4349171529
 20
-206.0019066511
 30
0.0
 40
2.0
100
AcDbArc
 50
270.0
 51
0.0
  0
LINE
  5
1B2
330
1F
100
AcDbEntity
  8
0
  6
Continuous
 62
     7
370
    25
100
AcDbLine
 10
-405.4349171529
 20
-205.0019066511
 30
0.0
 11
-376.4349171529
 21
-205.0019066511
 31
0.0
  0
LINE
  5
1B3
330
1F
100
AcDbEntity
  8
0
  6
Continuous
 62
     7
370
    25
100
AcDbLine
 10
-405.4349171529
 20
-205.0019066511
 30
0.0
 11
-406.4349171529
 21
-208.0019066511
 31
0.0
  0
ARC
  5
1B4
330
1F
100
AcDbEntity
  8
0
  6
Continuous
 62
     7
370
    25
100
AcDbCircle
 10
-406.4349171529
 20
-206.0019066511
 30
0.0
 40
2.0
100
AcDbArc
 50
180.0
 51
270.0
  0
LINE
  5
1B5
330
1F
100
AcDbEntity
  8
0
  6
Continuous
 62
     7
370
    25
100
AcDbLine
 10
-405.4349171529
 20
-205.0019066511
 30
0.0
 11
-408.4349171529
 21
-206.0019066511
 31
0.0
  0
LINE
  5
1B6
330
1F
100
AcDbEntity
  8
0
  6
Continuous
 62
     7
370
    25
100
AcDbLine
 10
-408.4349171529
 20
-206.0019066511
 30
0.0
 11
-408.4349171529
 21
-200.1813513736
 31
0.0
  0
LINE
  5
1B7
330
1F
100
AcDbEntity
  8
0
  6
Continuous
 62
     7
370
    25
100
AcDbLine
 10
-373.4349171529
 20
-200.1813513736
 30
0.0
 11
-373.4349171529
 21
-206.0019066511
 31
0.0
  0
LINE
  5
1B8
330
1F
100
AcDbEntity
  8
0
  6
Continuous
 62
     7
370
    25
100
AcDbLine
 10
809.5650828471
 20
-205.0019066511
 30
0.0
 11
838.5650828471
 21
-205.0019066511
 31
0.0
  0
LINE
  5
1B9
330
1F
100
AcDbEntity
  8
0
  6
Continuous
 62
     7
370
    25
100
AcDbLine
 10
838.5650828471
 20
-205.0019066511
 30
0.0
 11
839.5650828471
 21
-208.0019066511
 31
0.0
  0
LINE
  5
1BA
330
1F
100
AcDbEntity
  8
0
  6
Continuous
 62
     7
370
    25
100
AcDbLine
 10
808.5650828471
 20
-208.0019066511
 30
0.0
 11
809.5650828471
 21
-205.0019066511
 31
0.0
  0
LINE
  5
1BB
330
1F
100
AcDbEntity
  8
0
  6
Continuous
 62
     7
370
    25
100
AcDbLine
 10
841.5650828471
 20
-200.1813513736
 30
0.0
 11
841.5650828471
 21
-206.0019066511
 31
0.0
  0
LINE
  5
1BC
330
1F
100
AcDbEntity
  8
0
  6
Continuous
 62
     7
370
    25
100
AcDbLine
 10
838.5650828471
 20
-205.0019066511
 30
0.0
 11
841.5650828471
 21
-206.0019066511
 31
0.0
  0
LINE
  5
1BD
330
1F
100
AcDbEntity
  8
0
  6
Continuous
 62
     7
370
    25
100
AcDbLine
 10
806.5650828471
 20
-206.0019066511
 30
0.0
 11
806.5650828471
 21
-200.1813513736
 31
0.0
  0
LINE
  5
1BE
330
1F
100
AcDbEntity
  8
0
  6
Continuous
 62
     7
370
    25
100
AcDbLine
 10
806.5650828471
 20
-206.0019066511
 30
0.0
 11
809.5650828471
 21
-205.0019066511
 31
0.0
  0
ARC
  5
1BF
330
1F
100
AcDbEntity
  8
0
  6
Continuous
 62
     7
370
    25
100
AcDbCircle
 10
839.5650828471
 20
-206.0019066511
 30
0.0
 40
2.0
100
AcDbArc
 50
270.0
 51
0.0
  0
ARC
  5
1C0
330
1F
100
AcDbEntity
  8
0
  6
Continuous
 62
     7
370
    25
100
AcDbCircle
 10
808.5650828471
 20
-206.0019066511
 30
0.0
 40
2.0
100
AcDbArc
 50
180.0
 51
270.0
  0
LINE
  5
1C1
330
1F
100
AcDbEntity
  8
0
  6
Continuous
 62
     7
370
    25
100
AcDbLine
 10
-405.4349171529
 20
513.9980933489
 30
0.0
 11
-408.4349171529
 21
514.9980933489
 31
0.0
  0
ARC
  5
1C2
330
1F
100
AcDbEntity
  8
0
  6
Continuous
 62
     7
370
    25
100
AcDbCircle
 10
-406.4349171529
 20
514.9980933489
 30
0.0
 40
2.0
100
AcDbArc
 50
90.0
 51
180.0
  0
LINE
  5
1C3
330
1F
100
AcDbEntity
  8
0
  6
Continuous
 62
     7
370
    25
100
AcDbLine
 10
-405.4349171529
 20
513.9980933489
 30
0.0
 11
-406.4349171529
 21
516.9980933489
 31
0.0
  0
LINE
  5
1C4
330
1F
100
AcDbEntity
  8
0
  6
Continuous
 62
     7
370
    25
100
AcDbLine
 10
-373.4349171529
 20
514.9980933489
 30
0.0
 11
-376.4349171529
 21
513.9980933489
 31
0.0
  0
LINE
  5
1C5
330
1F
100
AcDbEntity
  8
0
  6
Continuous
 62
     7
370
    25
100
AcDbLine
 10
-375.4349171529
 20
516.9980933489
 30
0.0
 11
-376.4349171529
 21
513.9980933489
 31
0.0
  0
ARC
  5
1C6
330
1F
100
AcDbEntity
  8
0
  6
Continuous
 62
     7
370
    25
100
AcDbCircle
 10
-375.4349171529
 20
514.9980933489
 30
0.0
 40
2.0
100
AcDbArc
 50
0.0
 51
90.0
  0
LINE
  5
1C7
330
1F
100
AcDbEntity
  8
0
  6
Continuous
 62
     7
370
    25
100
AcDbLine
 10
-376.4349171529
 20
513.9980933489
 30
0.0
 11
-405.4349171529
 21
513.9980933489
 31
0.0
  0
LINE
  5
1C8
330
1F
100
AcDbEntity
  8
0
  6
Continuous
 62
     7
370
    25
100
AcDbLine
 10
-373.4349171529
 20
514.9980933489
 30
0.0
 11
-373.4349171529
 21
509.1775380714
 31
0.0
  0
LINE
  5
1C9
330
1F
100
AcDbEntity
  8
0
  6
Continuous
 62
     7
370
    25
100
AcDbLine
 10
-408.4349171529
 20
509.1775380714
 30
0.0
 11
-408.4349171529
 21
514.9980933489
 31
0.0
  0
LINE
  5
1CA
330
1F
100
AcDbEntity
  8
0
  6
Continuous
 62
     7
370
    25
100
AcDbLine
 10
806.5650828471
 20
509.1775380714
 30
0.0
 11
806.5650828471
 21
514.9980933489
 31
0.0
  0
LINE
  5
1CB
330
1F
100
AcDbEntity
  8
0
  6
Continuous
 62
     7
370
    25
100
AcDbLine
 10
806.5650828471
 20
514.9980933489
 30
0.0
 11
809.5650828471
 21
513.9980933489
 31
0.0
  0
LINE
  5
1CC
330
1F
100
AcDbEntity
  8
0
  6
Continuous
 62
     7
370
    25
100
AcDbLine
 10
838.5650828471
 20
513.9980933489
 30
0.0
 11
841.5650828471
 21
514.9980933489
 31
0.0
  0
LINE
  5
1CD
330
1F
100
AcDbEntity
  8
0
  6
Continuous
 62
     7
370
    25
100
AcDbLine
 10
841.5650828471
 20
514.9980933489
 30
0.0
 11
841.5650828471
 21
509.1775380714
 31
0.0
  0
LINE
  5
1CE
330
1F
100
AcDbEntity
  8
0
  6
Continuous
 62
     7
370
    25
100
AcDbLine
 10
838.5650828471
 20
513.9980933489
 30
0.0
 11
809.5650828471
 21
513.9980933489
 31
0.0
  0
LINE
  5
1CF
330
1F
100
AcDbEntity
  8
0
  6
Continuous
 62
     7
370
    25
100
AcDbLine
 10
808.5650828471
 20
516.9980933489
 30
0.0
 11
809.5650828471
 21
513.9980933489
 31
0.0
  0
LINE
  5
1D0
330
1F
100
AcDbEntity
  8
0
  6
Continuous
 62
     7
370
    25
100
AcDbLine
 10
838.5650828471
 20
513.9980933489
 30
0.0
 11
839.5650828471
 21
516.9980933489
 31
0.0
  0
ARC
  5
1D1
330
1F
100
AcDbEntity
  8
0
  6
Continuous
 62
     7
370
    25
100
AcDbCircle
 10
839.5650828471
 20
514.9980933489
 30
0.0
 40
2.0
100
AcDbArc
 50
0.0
 51
90.0
  0
ARC
  5
1D2
330
1F
100
AcDbEntity
  8
0
  6
Continuous
 62
     7
370
    25
100
AcDbCircle
 10
808.5650828471
 20
514.9980933489
 30
0.0
 40
2.0
100
AcDbArc
 50
90.0
 51
180.0
  0
LINE
  5
1D3
330
1F
100
AcDbEntity
  8
0
  6
Continuous
 62
     7
370
    25
100
AcDbLine
 10
-439.8297239336
 20
32.8665609209
 30
0.0
 11
-439.8297239336
 21
30.9180037623
 31
0.0
  0
LINE
  5
1D4
330
1F
100
AcDbEntity
  8
0
  6
Continuous
 62
     7
370
    25
100
AcDbLine
 10
-439.8297239336
 20
33.1680037623
 30
0.0
 11
-439.8297239336
 21
32.8665609209
 31
0.0
  0
LINE
  5
1D5
330
1F
100
AcDbEntity
  8
0
  6
Continuous
 62
     7
370
    25
100
AcDbLine
 10
-439.8297239336
 20
28.9694466038
 30
0.0
 11
-439.8297239336
 21
28.6680037623
 31
0.0
  0
LINE
  5
1D6
330
1F
100
AcDbEntity
  8
0
  6
Continuous
 62
     7
370
    25
100
AcDbLine
 10
-439.8297239336
 20
30.9180037623
 30
0.0
 11
-439.8297239336
 21
28.9694466038
 31
0.0
  0
LINE
  5
1D7
330
1F
100
AcDbEntity
  8
0
  6
Continuous
 62
     7
370
    25
100
AcDbLine
 10
-439.2849171529
 20
30.9180037623
 30
0.0
 11
-439.2849171529
 21
27.0680037623
 31
0.0
  0
LINE
  5
1D8
330
1F
100
AcDbEntity
  8
0
  6
Continuous
 62
     7
370
    25
100
AcDbLine
 10
-439.2849171529
 20
34.7680037623
 30
0.0
 11
-439.2849171529
 21
30.9180037623
 31
0.0
  0
LINE
  5
1D9
330
1F
100
AcDbEntity
  8
0
  6
Continuous
 62
     7
370
    25
100
AcDbLine
 10
-438.7849171529
 20
30.9180037623
 30
0.0
 11
-438.7849171529
 21
27.0680037623
 31
0.0
  0
LINE
  5
1DA
330
1F
100
AcDbEntity
  8
0
  6
Continuous
 62
     7
370
    25
100
AcDbLine
 10
-438.7849171529
 20
34.7680037623
 30
0.0
 11
-438.7849171529
 21
30.9180037623
 31
0.0
  0
LINE
  5
1DB
330
1F
100
AcDbEntity
  8
0
  6
Continuous
 62
     7
370
    25
100
AcDbLine
 10
871.9150828471
 20
30.9180037623
 30
0.0
 11
871.9150828471
 21
34.7680037623
 31
0.0
  0
LINE
  5
1DC
330
1F
100
AcDbEntity
  8
0
  6
Continuous
 62
     7
370
    25
100
AcDbLine
 10
871.9150828471
 20
27.0680037623
 30
0.0
 11
871.9150828471
 21
30.9180037623
 31
0.0
  0
LINE
  5
1DD
330
1F
100
AcDbEntity
  8
0
  6
Continuous
 62
     7
370
    25
100
AcDbLine
 10
872.4150828471
 20
30.9180037623
 30
0.0
 11
872.4150828471
 21
34.7680037623
 31
0.0
  0
LINE
  5
1DE
330
1F
100
AcDbEntity
  8
0
  6
Continuous
 62
     7
370
    25
100
AcDbLine
 10
872.4150828471
 20
27.0680037623
 30
0.0
 11
872.4150828471
 21
30.9180037623
 31
0.0
  0
LINE
  5
1DF
330
1F
100
AcDbEntity
  8
0
  6
Continuous
 62
     7
370
    25
100
AcDbLine
 10
872.9598896279
 20
28.9694466038
 30
0.0
 11
872.9598896279
 21
30.9180037623
 31
0.0
  0
LINE
  5
1E0
330
1F
100
AcDbEntity
  8
0
  6
Continuous
 62
     7
370
    25
100
AcDbLine
 10
872.9598896279
 20
28.6680037623
 30
0.0
 11
872.9598896279
 21
28.9694466038
 31
0.0
  0
LINE
  5
1E1
330
1F
100
AcDbEntity
  8
0
  6
Continuous
 62
     7
370
    25
100
AcDbLine
 10
872.9598896279
 20
32.8665609209
 30
0.0
 11
872.9598896279
 21
33.1680037623
 31
0.0
  0
LINE
  5
1E2
330
1F
100
AcDbEntity
  8
0
  6
Continuous
 62
     7
370
    25
100
AcDbLine
 10
872.9598896279
 20
30.9180037623
 30
0.0
 11
872.9598896279
 21
32.8665609209
 31
0.0
  0
LINE
  5
1E3
330
1F
100
AcDbEntity
  8
0
  6
Continuous
 62
     7
370
    25
100
AcDbLine
 10
-438.7849171529
 20
398.3003590271
 30
0.0
 11
-438.7849171529
 21
394.4503590271
 31
0.0
  0
LINE
  5
1E4
330
1F
100
AcDbEntity
  8
0
  6
Continuous
 62
     7
370
    25
100
AcDbLine
 10
-438.7849171529
 20
402.1503590271
 30
0.0
 11
-438.7849171529
 21
398.3003590271
 31
0.0
  0
LINE
  5
1E5
330
1F
100
AcDbEntity
  8
0
  6
Continuous
 62
     7
370
    25
100
AcDbLine
 10
-439.2849171529
 20
398.3003590271
 30
0.0
 11
-439.2849171529
 21
394.4503590271
 31
0.0
  0
LINE
  5
1E6
330
1F
100
AcDbEntity
  8
0
  6
Continuous
 62
     7
370
    25
100
AcDbLine
 10
-439.2849171529
 20
402.1503590271
 30
0.0
 11
-439.2849171529
 21
398.3003590271
 31
0.0
  0
LINE
  5
1E7
330
1F
100
AcDbEntity
  8
0
  6
Continuous
 62
     7
370
    25
100
AcDbLine
 10
-439.8297239336
 20
400.2489161856
 30
0.0
 11
-439.8297239336
 21
398.3003590271
 31
0.0
  0
LINE
  5
1E8
330
1F
100
AcDbEntity
  8
0
  6
Continuous
 62
     7
370
    25
100
AcDbLine
 10
-439.8297239336
 20
400.5503590271
 30
0.0
 11
-439.8297239336
 21
400.2489161856
 31
0.0
  0
LINE
  5
1E9
330
1F
100
AcDbEntity
  8
0
  6
Continuous
 62
     7
370
    25
100
AcDbLine
 10
-439.8297239336
 20
396.3518018686
 30
0.0
 11
-439.8297239336
 21
396.0503590271
 31
0.0
  0
LINE
  5
1EA
330
1F
100
AcDbEntity
  8
0
  6
Continuous
 62
     7
370
    25
100
AcDbLine
 10
-439.8297239336
 20
398.3003590271
 30
0.0
 11
-439.8297239336
 21
396.3518018686
 31
0.0
  0
LINE
  5
1EB
330
1F
100
AcDbEntity
  8
0
  6
Continuous
 62
     7
370
    25
100
AcDbLine
 10
-438.7849171529
 20
278.1505720461
 30
0.0
 11
-438.7849171529
 21
274.3005720461
 31
0.0
  0
LINE
  5
1EC
330
1F
100
AcDbEntity
  8
0
  6
Continuous
 62
     7
370
    25
100
AcDbLine
 10
-438.7849171529
 20
282.0005720461
 30
0.0
 11
-438.7849171529
 21
278.1505720461
 31
0.0
  0
LINE
  5
1ED
330
1F
100
AcDbEntity
  8
0
  6
Continuous
 62
     7
370
    25
100
AcDbLine
 10
-439.2849171529
 20
278.1505720461
 30
0.0
 11
-439.2849171529
 21
274.3005720461
 31
0.0
  0
LINE
  5
1EE
330
1F
100
AcDbEntity
  8
0
  6
Continuous
 62
     7
370
    25
100
AcDbLine
 10
-439.2849171529
 20
282.0005720461
 30
0.0
 11
-439.2849171529
 21
278.1505720461
 31
0.0
  0
LINE
  5
1EF
330
1F
100
AcDbEntity
  8
0
  6
Continuous
 62
     7
370
    25
100
AcDbLine
 10
-439.8297239336
 20
280.0991292046
 30
0.0
 11
-439.8297239336
 21
278.1505720461
 31
0.0
  0
LINE
  5
1F0
330
1F
100
AcDbEntity
  8
0
  6
Continuous
 62
     7
370
    25
100
AcDbLine
 10
-439.8297239336
 20
280.4005720461
 30
0.0
 11
-439.8297239336
 21
280.0991292046
 31
0.0
  0
LINE
  5
1F1
330
1F
100
AcDbEntity
  8
0
  6
Continuous
 62
     7
370
    25
100
AcDbLine
 10
-439.8297239336
 20
276.2020148876
 30
0.0
 11
-439.8297239336
 21
275.9005720461
 31
0.0
  0
LINE
  5
1F2
330
1F
100
AcDbEntity
  8
0
  6
Continuous
 62
     7
370
    25
100
AcDbLine
 10
-439.8297239336
 20
278.1505720461
 30
0.0
 11
-439.8297239336
 21
276.2020148876
 31
0.0
  0
LINE
  5
1F3
330
1F
100
AcDbEntity
  8
0
  6
Continuous
 62
     7
370
    25
100
AcDbLine
 10
871.9150828471
 20
398.3003590271
 30
0.0
 11
871.9150828471
 21
402.1503590271
 31
0.0
  0
LINE
  5
1F4
330
1F
100
AcDbEntity
  8
0
  6
Continuous
 62
     7
370
    25
100
AcDbLine
 10
871.9150828471
 20
394.4503590271
 30
0.0
 11
871.9150828471
 21
398.3003590271
 31
0.0
  0
LINE
  5
1F5
330
1F
100
AcDbEntity
  8
0
  6
Continuous
 62
     7
370
    25
100
AcDbLine
 10
872.4150828471
 20
398.3003590271
 30
0.0
 11
872.4150828471
 21
402.1503590271
 31
0.0
  0
LINE
  5
1F6
330
1F
100
AcDbEntity
  8
0
  6
Continuous
 62
     7
370
    25
100
AcDbLine
 10
872.4150828471
 20
394.4503590271
 30
0.0
 11
872.4150828471
 21
398.3003590271
 31
0.0
  0
LINE
  5
1F7
330
1F
100
AcDbEntity
  8
0
  6
Continuous
 62
     7
370
    25
100
AcDbLine
 10
872.9598896279
 20
396.3518018686
 30
0.0
 11
872.9598896279
 21
398.3003590271
 31
0.0
  0
LINE
  5
1F8
330
1F
100
AcDbEntity
  8
0
  6
Continuous
 62
     7
370
    25
100
AcDbLine
 10
872.9598896279
 20
396.0503590271
 30
0.0
 11
872.9598896279
 21
396.3518018686
 31
0.0
  0
LINE
  5
1F9
330
1F
100
AcDbEntity
  8
0
  6
Continuous
 62
     7
370
    25
100
AcDbLine
 10
872.9598896279
 20
400.2489161856
 30
0.0
 11
872.9598896279
 21
400.5503590271
 31
0.0
  0
LINE
  5
1FA
330
1F
100
AcDbEntity
  8
0
  6
Continuous
 62
     7
370
    25
100
AcDbLine
 10
872.9598896279
 20
398.3003590271
 30
0.0
 11
872.9598896279
 21
400.2489161856
 31
0.0
  0
LINE
  5
1FB
330
1F
100
AcDbEntity
  8
0
  6
Continuous
 62
     7
370
    25
100
AcDbLine
 10
-439.8297239336
 20
156.4547350931
 30
0.0
 11
-439.8297239336
 21
154.5061779346
 31
0.0
  0
LINE
  5
1FC
330
1F
100
AcDbEntity
  8
0
  6
Continuous
 62
     7
370
    25
100
AcDbLine
 10
-439.8297239336
 20
156.7561779346
 30
0.0
 11
-439.8297239336
 21
156.4547350931
 31
0.0
  0
LINE
  5
1FD
330
1F
100
AcDbEntity
  8
0
  6
Continuous
 62
     7
370
    25
100
AcDbLine
 10
-439.8297239336
 20
152.5576207761
 30
0.0
 11
-439.8297239336
 21
152.2561779346
 31
0.0
  0
LINE
  5
1FE
330
1F
100
AcDbEntity
  8
0
  6
Continuous
 62
     7
370
    25
100
AcDbLine
 10
-439.8297239336
 20
154.5061779346
 30
0.0
 11
-439.8297239336
 21
152.5576207761
 31
0.0
  0
LINE
  5
1FF
330
1F
100
AcDbEntity
  8
0
  6
Continuous
 62
     7
370
    25
100
AcDbLine
 10
-439.2849171529
 20
154.5061779346
 30
0.0
 11
-439.2849171529
 21
150.6561779346
 31
0.0
  0
LINE
  5
200
330
1F
100
AcDbEntity
  8
0
  6
Continuous
 62
     7
370
    25
100
AcDbLine
 10
-439.2849171529
 20
158.3561779346
 30
0.0
 11
-439.2849171529
 21
154.5061779346
 31
0.0
  0
LINE
  5
201
330
1F
100
AcDbEntity
  8
0
  6
Continuous
 62
     7
370
    25
100
AcDbLine
 10
-438.7849171529
 20
154.5061779346
 30
0.0
 11
-438.7849171529
 21
150.6561779346
 31
0.0
  0
LINE
  5
202
330
1F
100
AcDbEntity
  8
0
  6
Continuous
 62
     7
370
    25
100
AcDbLine
 10
-438.7849171529
 20
158.3561779346
 30
0.0
 11
-438.7849171529
 21
154.5061779346
 31
0.0
  0
LINE
  5
203
330
1F
100
AcDbEntity
  8
0
  6
Continuous
 62
     7
370
    25
100
AcDbLine
 10
871.9150828471
 20
154.5061779346
 30
0.0
 11
871.9150828471
 21
158.3561779346
 31
0.0
  0
LINE
  5
204
330
1F
100
AcDbEntity
  8
0
  6
Continuous
 62
     7
370
    25
100
AcDbLine
 10
871.9150828471
 20
150.6561779346
 30
0.0
 11
871.9150828471
 21
154.5061779346
 31
0.0
  0
LINE
  5
205
330
1F
100
AcDbEntity
  8
0
  6
Continuous
 62
     7
370
    25
100
AcDbLine
 10
872.9598896279
 20
152.5576207761
 30
0.0
 11
872.9598896279
 21
154.5061779346
 31
0.0
  0
LINE
  5
206
330
1F
100
AcDbEntity
  8
0
  6
Continuous
 62
     7
370
    25
100
AcDbLine
 10
872.9598896279
 20
152.2561779346
 30
0.0
 11
872.9598896279
 21
152.5576207761
 31
0.0
  0
LINE
  5
207
330
1F
100
AcDbEntity
  8
0
  6
Continuous
 62
     7
370
    25
100
AcDbLine
 10
872.9598896279
 20
156.4547350931
 30
0.0
 11
872.9598896279
 21
156.7561779346
 31
0.0
  0
LINE
  5
208
330
1F
100
AcDbEntity
  8
0
  6
Continuous
 62
     7
370
    25
100
AcDbLine
 10
872.9598896279
 20
154.5061779346
 30
0.0
 11
872.9598896279
 21
156.4547350931
 31
0.0
  0
LINE
  5
209
330
1F
100
AcDbEntity
  8
0
  6
Continuous
 62
     7
370
    25
100
AcDbLine
 10
872.4150828471
 20
154.5061779346
 30
0.0
 11
872.4150828471
 21
158.3561779346
 31
0.0
  0
LINE
  5
20A
330
1F
100
AcDbEntity
  8
0
  6
Continuous
 62
     7
370
    25
100
AcDbLine
 10
872.4150828471
 20
150.6561779346
 30
0.0
 11
872.4150828471
 21
154.5061779346
 31
0.0
  0
LINE
  5
20B
330
1F
100
AcDbEntity
  8
0
  6
Continuous
 62
     7
370
    25
100
AcDbLine
 10
871.9150828471
 20
278.1505720461
 30
0.0
 11
871.9150828471
 21
282.0005720461
 31
0.0
  0
LINE
  5
20C
330
1F
100
AcDbEntity
  8
0
  6
Continuous
 62
     7
370
    25
100
AcDbLine
 10
871.9150828471
 20
274.3005720461
 30
0.0
 11
871.9150828471
 21
278.1505720461
 31
0.0
  0
LINE
  5
20D
330
1F
100
AcDbEntity
  8
0
  6
Continuous
 62
     7
370
    25
100
AcDbLine
 10
872.4150828471
 20
278.1505720461
 30
0.0
 11
872.4150828471
 21
282.0005720461
 31
0.0
  0
LINE
  5
20E
330
1F
100
AcDbEntity
  8
0
  6
Continuous
 62
     7
370
    25
100
AcDbLine
 10
872.4150828471
 20
274.3005720461
 30
0.0
 11
872.4150828471
 21
278.1505720461
 31
0.0
  0
LINE
  5
20F
330
1F
100
AcDbEntity
  8
0
  6
Continuous
 62
     7
370
    25
100
AcDbLine
 10
872.9598896279
 20
276.2020148876
 30
0.0
 11
872.9598896279
 21
278.1505720461
 31
0.0
  0
LINE
  5
210
330
1F
100
AcDbEntity
  8
0
  6
Continuous
 62
     7
370
    25
100
AcDbLine
 10
872.9598896279
 20
275.9005720461
 30
0.0
 11
872.9598896279
 21
276.2020148876
 31
0.0
  0
LINE
  5
211
330
1F
100
AcDbEntity
  8
0
  6
Continuous
 62
     7
370
    25
100
AcDbLine
 10
872.9598896279
 20
280.0991292046
 30
0.0
 11
872.9598896279
 21
280.4005720461
 31
0.0
  0
LINE
  5
212
330
1F
100
AcDbEntity
  8
0
  6
Continuous
 62
     7
370
    25
100
AcDbLine
 10
872.9598896279
 20
278.1505720461
 30
0.0
 11
872.9598896279
 21
280.0991292046
 31
0.0
  0
LINE
  5
213
330
1F
100
AcDbEntity
  8
0
  6
Continuous
 62
     7
370
    25
100
AcDbLine
 10
-439.8297239336
 20
-87.1209473918
 30
0.0
 11
-439.8297239336
 21
-89.0695045504
 31
0.0
  0
LINE
  5
214
330
1F
100
AcDbEntity
  8
0
  6
Continuous
 62
     7
370
    25
100
AcDbLine
 10
-439.8297239336
 20
-86.8195045504
 30
0.0
 11
-439.8297239336
 21
-87.1209473918
 31
0.0
  0
LINE
  5
215
330
1F
100
AcDbEntity
  8
0
  6
Continuous
 62
     7
370
    25
100
AcDbLine
 10
-439.8297239336
 20
-91.0180617089
 30
0.0
 11
-439.8297239336
 21
-91.3195045504
 31
0.0
  0
LINE
  5
216
330
1F
100
AcDbEntity
  8
0
  6
Continuous
 62
     7
370
    25
100
AcDbLine
 10
-439.8297239336
 20
-89.0695045504
 30
0.0
 11
-439.8297239336
 21
-91.0180617089
 31
0.0
  0
LINE
  5
217
330
1F
100
AcDbEntity
  8
0
  6
Continuous
 62
     7
370
    25
100
AcDbLine
 10
-439.2849171529
 20
-89.0695045504
 30
0.0
 11
-439.2849171529
 21
-92.9195045504
 31
0.0
  0
LINE
  5
218
330
1F
100
AcDbEntity
  8
0
  6
Continuous
 62
     7
370
    25
100
AcDbLine
 10
-439.2849171529
 20
-85.2195045504
 30
0.0
 11
-439.2849171529
 21
-89.0695045504
 31
0.0
  0
LINE
  5
219
330
1F
100
AcDbEntity
  8
0
  6
Continuous
 62
     7
370
    25
100
AcDbLine
 10
-438.7849171529
 20
-89.0695045504
 30
0.0
 11
-438.7849171529
 21
-92.9195045504
 31
0.0
  0
LINE
  5
21A
330
1F
100
AcDbEntity
  8
0
  6
Continuous
 62
     7
370
    25
100
AcDbLine
 10
-438.7849171529
 20
-85.2195045504
 30
0.0
 11
-438.7849171529
 21
-89.0695045504
 31
0.0
  0
LINE
  5
21B
330
1F
100
AcDbEntity
  8
0
  6
Continuous
 62
     7
370
    25
100
AcDbLine
 10
871.9150828471
 20
-89.0695045504
 30
0.0
 11
871.9150828471
 21
-85.2195045504
 31
0.0
  0
LINE
  5
21C
330
1F
100
AcDbEntity
  8
0
  6
Continuous
 62
     7
370
    25
100
AcDbLine
 10
871.9150828471
 20
-92.9195045504
 30
0.0
 11
871.9150828471
 21
-89.0695045504
 31
0.0
  0
LINE
  5
21D
330
1F
100
AcDbEntity
  8
0
  6
Continuous
 62
     7
370
    25
100
AcDbLine
 10
872.4150828471
 20
-89.0695045504
 30
0.0
 11
872.4150828471
 21
-85.2195045504
 31
0.0
  0
LINE
  5
21E
330
1F
100
AcDbEntity
  8
0
  6
Continuous
 62
     7
370
    25
100
AcDbLine
 10
872.4150828471
 20
-92.9195045504
 30
0.0
 11
872.4150828471
 21
-89.0695045504
 31
0.0
  0
LINE
  5
21F
330
1F
100
AcDbEntity
  8
0
  6
Continuous
 62
     7
370
    25
100
AcDbLine
 10
872.9598896279
 20
-91.0180617089
 30
0.0
 11
872.9598896279
 21
-89.0695045504
 31
0.0
  0
LINE
  5
220
330
1F
100
AcDbEntity
  8
0
  6
Continuous
 62
     7
370
    25
100
AcDbLine
 10
872.9598896279
 20
-91.3195045504
 30
0.0
 11
872.9598896279
 21
-91.0180617089
 31
0.0
  0
LINE
  5
221
330
1F
100
AcDbEntity
  8
0
  6
Continuous
 62
     7
370
    25
100
AcDbLine
 10
872.9598896279
 20
-87.1209473918
 30
0.0
 11
872.9598896279
 21
-86.8195045504
 31
0.0
  0
LINE
  5
222
330
1F
100
AcDbEntity
  8
0
  6
Continuous
 62
     7
370
    25
100
AcDbLine
 10
872.9598896279
 20
-89.0695045504
 30
0.0
 11
872.9598896279
 21
-87.1209473918
 31
0.0
  0
LINE
  5
223
330
1F
100
AcDbEntity
  8
0
  6
Continuous
 62
     7
370
    25
100
AcDbLine
 10
-268.9349171529
 20
-223.0019066511
 30
0.0
 11
-512.9349171529
 21
-223.0019066511
 31
0.0
  0
LINE
  5
224
330
1F
100
AcDbEntity
  8
0
  6
Continuous
 62
     7
370
    25
100
AcDbLine
 10
-512.9349171519
 20
-208.0019066511
 30
0.0
 11
-438.4349171529
 21
-208.0019066511
 31
0.0
  0
LINE
  5
225
330
1F
100
AcDbEntity
  8
0
  6
Continuous
 62
     7
370
    25
100
AcDbLine
 10
-423.4349171529
 20
-208.0019066511
 30
0.0
 11
-268.9349171529
 21
-208.0019066511
 31
0.0
  0
LINE
  5
226
330
1F
100
AcDbEntity
  8
0
  6
Continuous
 62
     7
370
    25
100
AcDbLine
 10
946.0650828462
 20
-223.0019066511
 30
0.0
 11
702.0650828471
 21
-223.0019066511
 31
0.0
  0
LINE
  5
227
330
1F
100
AcDbEntity
  8
0
  6
Continuous
 62
     7
370
    25
100
AcDbLine
 10
702.0650828471
 20
-208.0019066511
 30
0.0
 11
856.5650828472
 21
-208.0019066511
 31
0.0
  0
LINE
  5
228
330
1F
100
AcDbEntity
  8
0
  6
Continuous
 62
     7
370
    25
100
AcDbLine
 10
871.5650828472
 20
-208.0019066511
 30
0.0
 11
946.0650828471
 21
-208.0019066511
 31
0.0
  0
LINE
  5
229
330
1F
100
AcDbEntity
  8
0
  6
Continuous
 62
     7
370
    25
100
AcDbLine
 10
-268.9349171538
 20
516.9980933489
 30
0.0
 11
-423.4349171529
 21
516.9980933489
 31
0.0
  0
LINE
  5
22A
330
1F
100
AcDbEntity
  8
0
  6
Continuous
 62
     7
370
    25
100
AcDbLine
 10
-438.4349171529
 20
516.9980933489
 30
0.0
 11
-512.9349171529
 21
516.9980933489
 31
0.0
  0
LINE
  5
22B
330
1F
100
AcDbEntity
  8
0
  6
Continuous
 62
     7
370
    25
100
AcDbLine
 10
-512.9349171529
 20
531.9980933489
 30
0.0
 11
-268.9349171529
 21
531.9980933489
 31
0.0
  0
LINE
  5
22C
330
1F
100
AcDbEntity
  8
0
  6
Continuous
 62
     7
370
    25
100
AcDbLine
 10
946.0650828462
 20
516.9980933489
 30
0.0
 11
871.5650828472
 21
516.9980933489
 31
0.0
  0
LINE
  5
22D
330
1F
100
AcDbEntity
  8
0
  6
Continuous
 62
     7
370
    25
100
AcDbLine
 10
856.5650828472
 20
516.9980933489
 30
0.0
 11
702.0650828471
 21
516.9980933489
 31
0.0
  0
LINE
  5
22E
330
1F
100
AcDbEntity
  8
0
  6
Continuous
 62
     7
370
    25
100
AcDbLine
 10
702.0650828471
 20
531.9980933489
 30
0.0
 11
946.0650828471
 21
531.9980933489
 31
0.0
  0
LINE
  5
22F
330
1F
100
AcDbEntity
  8
0
  6
Continuous
 62
     8
370
    25
100
AcDbLine
 10
-426.4349171529
 20
503.7551356024
 30
0.0
 11
-426.4349171529
 21
527.9980933489
 31
0.0
  0
LINE
  5
230
330
1F
100
AcDbEntity
  8
0
  6
Continuous
 62
     8
370
    25
100
AcDbLine
 10
-435.4349171529
 20
527.9980933489
 30
0.0
 11
-435.4349171529
 21
503.7551356024
 31
0.0
  0
LINE
  5
231
330
1F
100
AcDbEntity
  8
0
  6
Continuous
 62
     8
370
    25
100
AcDbLine
 10
-435.4349171529
 20
-192.7589489046
 30
0.0
 11
-435.4349171529
 21
-217.0019066511
 31
0.0
  0
LINE
  5
232
330
1F
100
AcDbEntity
  8
0
  6
Continuous
 62
     8
370
    25
100
AcDbLine
 10
-426.4349171529
 20
-217.0019066511
 30
0.0
 11
-426.4349171529
 21
-192.7589489046
 31
0.0
  0
LINE
  5
233
330
1F
100
AcDbEntity
  8
0
  6
Continuous
 62
     8
370
    25
100
AcDbLine
 10
868.5650828472
 20
-217.0019066511
 30
0.0
 11
868.5650828472
 21
-192.7589489046
 31
0.0
  0
LINE
  5
234
330
1F
100
AcDbEntity
  8
0
  6
Continuous
 62
     8
370
    25
100
AcDbLine
 10
859.5650828472
 20
527.9980933489
 30
0.0
 11
859.5650828472
 21
503.7551356024
 31
0.0
  0
LINE
  5
235
330
1F
100
AcDbEntity
  8
0
  6
Continuous
 62
     8
370
    25
100
AcDbLine
 10
868.5650828472
 20
503.7551356024
 30
0.0
 11
868.5650828472
 21
527.9980933489
 31
0.0
  0
LINE
  5
236
330
1F
100
AcDbEntity
  8
0
  6
Continuous
 62
     8
370
    25
100
AcDbLine
 10
859.5650828472
 20
-192.7589489046
 30
0.0
 11
859.5650828472
 21
-217.0019066511
 31
0.0
  0
LINE
  5
237
330
1F
100
AcDbEntity
  8
0
  6
Continuous
 62
     8
370
    25
100
AcDbLine
 10
853.5650828471
 20
515.9980933489
 30
0.0
 11
856.5650828472
 21
515.9980933489
 31
0.0
  0
LINE
  5
238
330
1F
100
AcDbEntity
  8
0
  6
Continuous
 62
     8
370
    25
100
AcDbLine
 10
871.5650828472
 20
515.9980933489
 30
0.0
 11
884.5650828471
 21
515.9980933489
 31
0.0
  0
LINE
  5
239
330
1F
100
AcDbEntity
  8
0
  6
Continuous
 62
     8
370
    25
100
AcDbLine
 10
-345.9349171529
 20
515.9980933489
 30
0.0
 11
-330.4349171529
 21
515.9980933489
 31
0.0
  0
LINE
  5
23A
330
1F
100
AcDbEntity
  8
0
  6
Continuous
 62
     8
370
    25
100
AcDbLine
 10
-361.4349171529
 20
515.9980933489
 30
0.0
 11
-345.9349171529
 21
515.9980933489
 31
0.0
  0
LINE
  5
23B
330
1F
100
AcDbEntity
  8
0
  6
Continuous
 62
     8
370
    25
100
AcDbLine
 10
872.5650828471
 20
439.9980933489
 30
0.0
 11
872.5650828471
 21
470.9980933489
 31
0.0
  0
LINE
  5
23C
330
1F
100
AcDbEntity
  8
0
  6
Continuous
 62
     8
370
    25
100
AcDbLine
 10
779.0650828471
 20
-207.0019066511
 30
0.0
 11
763.5650828471
 21
-207.0019066511
 31
0.0
  0
LINE
  5
23D
330
1F
100
AcDbEntity
  8
0
  6
Continuous
 62
     8
370
    25
100
AcDbLine
 10
794.5650828471
 20
-207.0019066511
 30
0.0
 11
779.0650828471
 21
-207.0019066511
 31
0.0
  0
LINE
  5
23E
330
1F
100
AcDbEntity
  8
0
  6
Continuous
 62
     8
370
    25
100
AcDbLine
 10
-330.4349171529
 20
-207.0019066511
 30
0.0
 11
-361.4349171529
 21
-207.0019066511
 31
0.0
  0
LINE
  5
23F
330
1F
100
AcDbEntity
  8
0
  6
Continuous
 62
     8
370
    25
100
AcDbLine
 10
856.5650828472
 20
-207.0019066511
 30
0.0
 11
853.5650828471
 21
-207.0019066511
 31
0.0
  0
LINE
  5
240
330
1F
100
AcDbEntity
  8
0
  6
Continuous
 62
     8
370
    25
100
AcDbLine
 10
884.5650828471
 20
-207.0019066511
 30
0.0
 11
871.5650828472
 21
-207.0019066511
 31
0.0
  0
LINE
  5
241
330
1F
100
AcDbEntity
  8
0
  6
Continuous
 62
     8
370
    25
100
AcDbLine
 10
763.5650828471
 20
515.9980933489
 30
0.0
 11
794.5650828471
 21
515.9980933489
 31
0.0
  0
LINE
  5
242
330
1F
100
AcDbEntity
  8
0
  6
Continuous
 62
     8
370
    25
100
AcDbLine
 10
872.5650828471
 20
139.9980933489
 30
0.0
 11
872.5650828471
 21
151.0141112409
 31
0.0
  0
LINE
  5
243
330
1F
100
AcDbEntity
  8
0
  6
Continuous
 62
     8
370
    25
100
AcDbLine
 10
872.5650828471
 20
157.9982446282
 30
0.0
 11
872.5650828471
 21
170.9980933489
 31
0.0
  0
LINE
  5
244
330
1F
100
AcDbEntity
  8
0
  6
Continuous
 62
     8
370
    25
100
AcDbLine
 10
-420.4349171529
 20
-207.0019066511
 30
0.0
 11
-423.4349171529
 21
-207.0019066511
 31
0.0
  0
LINE
  5
245
330
1F
100
AcDbEntity
  8
0
  6
Continuous
 62
     8
370
    25
100
AcDbLine
 10
-438.4349171529
 20
-207.0019066511
 30
0.0
 11
-451.4349171529
 21
-207.0019066511
 31
0.0
  0
LINE
  5
246
330
1F
100
AcDbEntity
  8
0
  6
Continuous
 62
     8
370
    25
100
AcDbLine
 10
-439.4349171529
 20
-129.0019066511
 30
0.0
 11
-439.4349171529
 21
-160.0019066511
 31
0.0
  0
LINE
  5
247
330
1F
100
AcDbEntity
  8
0
  6
Continuous
 62
     8
370
    25
100
AcDbLine
 10
-423.4349171529
 20
515.9980933489
 30
0.0
 11
-420.4349171529
 21
515.9980933489
 31
0.0
  0
LINE
  5
248
330
1F
100
AcDbEntity
  8
0
  6
Continuous
 62
     8
370
    25
100
AcDbLine
 10
-451.4349171529
 20
515.9980933489
 30
0.0
 11
-438.4349171529
 21
515.9980933489
 31
0.0
  0
LINE
  5
249
330
1F
100
AcDbEntity
  8
0
  6
Continuous
 62
     8
370
    25
100
AcDbLine
 10
872.5650828471
 20
-160.0019066511
 30
0.0
 11
872.5650828471
 21
-129.0019066511
 31
0.0
  0
LINE
  5
24A
330
1F
100
AcDbEntity
  8
0
  6
Continuous
 62
     8
370
    25
100
AcDbLine
 10
-439.4349171529
 20
170.9980933489
 30
0.0
 11
-439.4349171529
 21
157.9982446282
 31
0.0
  0
LINE
  5
24B
330
1F
100
AcDbEntity
  8
0
  6
Continuous
 62
     8
370
    25
100
AcDbLine
 10
-439.4349171529
 20
151.0141112409
 30
0.0
 11
-439.4349171529
 21
139.9980933489
 31
0.0
  0
LINE
  5
24C
330
1F
100
AcDbEntity
  8
0
  6
Continuous
 62
     8
370
    25
100
AcDbLine
 10
-439.4349171529
 20
470.9980933489
 30
0.0
 11
-439.4349171529
 21
439.9980933489
 31
0.0
  0
LINE
  5
24D
330
1F
100
AcDbEntity
  8
0
  6
Continuous
 62
     8
370
    25
100
AcDbLine
 10
-451.5200671718
 20
466.2480933489
 30
0.0
 11
-451.5200671718
 21
444.7480933489
 31
0.0
  0
LINE
  5
24E
330
1F
100
AcDbEntity
  8
0
  6
Continuous
 62
     8
370
    25
100
AcDbLine
 10
-452.0828911133
 20
465.8560097044
 30
0.0
 11
-452.0828911133
 21
445.1401769934
 31
0.0
  0
LINE
  5
24F
330
1F
100
AcDbEntity
  8
0
  6
Continuous
 62
     8
370
    25
100
AcDbLine
 10
871.5650828472
 20
503.91294333
 30
0.0
 11
879.8150828471
 21
503.91294333
 31
0.0
  0
LINE
  5
250
330
1F
100
AcDbEntity
  8
0
  6
Continuous
 62
     8
370
    25
100
AcDbLine
 10
871.5650828472
 20
503.3501193885
 30
0.0
 11
879.4229992026
 21
503.3501193885
 31
0.0
  0
LINE
  5
251
330
1F
100
AcDbEntity
  8
0
  6
Continuous
 62
     8
370
    25
100
AcDbLine
 10
-451.5200671718
 20
-133.7519066511
 30
0.0
 11
-451.5200671718
 21
-155.2519066511
 31
0.0
  0
LINE
  5
252
330
1F
100
AcDbEntity
  8
0
  6
Continuous
 62
     8
370
    25
100
AcDbLine
 10
-452.0828911133
 20
-134.1439902956
 30
0.0
 11
-452.0828911133
 21
-154.8598230066
 31
0.0
  0
LINE
  5
253
330
1F
100
AcDbEntity
  8
0
  6
Continuous
 62
     8
370
    25
100
AcDbLine
 10
-451.5200671718
 20
166.2480933489
 30
0.0
 11
-451.5200671718
 21
144.7480933489
 31
0.0
  0
LINE
  5
254
330
1F
100
AcDbEntity
  8
0
  6
Continuous
 62
     8
370
    25
100
AcDbLine
 10
-452.0828911133
 20
165.8560097044
 30
0.0
 11
-452.0828911133
 21
145.1401769934
 31
0.0
  0
LINE
  5
255
330
1F
100
AcDbEntity
  8
0
  6
Continuous
 62
     8
370
    25
100
AcDbLine
 10
-438.4349171529
 20
-194.9167566322
 30
0.0
 11
-446.6849171529
 21
-194.9167566322
 31
0.0
  0
LINE
  5
256
330
1F
100
AcDbEntity
  8
0
  6
Continuous
 62
     8
370
    25
100
AcDbLine
 10
-438.4349171529
 20
-194.3539326907
 30
0.0
 11
-446.2928335084
 21
-194.3539326907
 31
0.0
  0
LINE
  5
257
330
1F
100
AcDbEntity
  8
0
  6
Continuous
 62
     8
370
    25
100
AcDbLine
 10
884.6502328661
 20
444.7480933489
 30
0.0
 11
884.6502328661
 21
466.2480933489
 31
0.0
  0
LINE
  5
258
330
1F
100
AcDbEntity
  8
0
  6
Continuous
 62
     8
370
    25
100
AcDbLine
 10
885.2130568076
 20
445.1401769934
 30
0.0
 11
885.2130568076
 21
465.8560097044
 31
0.0
  0
LINE
  5
259
330
1F
100
AcDbEntity
  8
0
  6
Continuous
 62
     8
370
    25
100
AcDbLine
 10
884.6502328661
 20
-155.2519066511
 30
0.0
 11
884.6502328661
 21
-133.7519066511
 31
0.0
  0
LINE
  5
25A
330
1F
100
AcDbEntity
  8
0
  6
Continuous
 62
     8
370
    25
100
AcDbLine
 10
885.2130568076
 20
-154.8598230066
 30
0.0
 11
885.2130568076
 21
-134.1439902956
 31
0.0
  0
LINE
  5
25B
330
1F
100
AcDbEntity
  8
0
  6
Continuous
 62
     8
370
    25
100
AcDbLine
 10
884.6502328661
 20
144.7480933489
 30
0.0
 11
884.6502328661
 21
166.2480933489
 31
0.0
  0
LINE
  5
25C
330
1F
100
AcDbEntity
  8
0
  6
Continuous
 62
     8
370
    25
100
AcDbLine
 10
885.2130568076
 20
145.1401769934
 30
0.0
 11
885.2130568076
 21
165.8560097044
 31
0.0
  0
LINE
  5
25D
330
1F
100
AcDbEntity
  8
0
  6
Continuous
 62
     8
370
    25
100
AcDbLine
 10
879.8150828471
 20
-194.9167566322
 30
0.0
 11
871.5650828472
 21
-194.9167566322
 31
0.0
  0
LINE
  5
25E
330
1F
100
AcDbEntity
  8
0
  6
Continuous
 62
     8
370
    25
100
AcDbLine
 10
879.4229992026
 20
-194.3539326907
 30
0.0
 11
871.5650828472
 21
-194.3539326907
 31
0.0
  0
LINE
  5
25F
330
1F
100
AcDbEntity
  8
0
  6
Continuous
 62
     8
370
    25
100
AcDbLine
 10
-446.6849171529
 20
503.91294333
 30
0.0
 11
-438.4349171529
 21
503.91294333
 31
0.0
  0
LINE
  5
260
330
1F
100
AcDbEntity
  8
0
  6
Continuous
 62
     8
370
    25
100
AcDbLine
 10
-446.2928335084
 20
503.3501193885
 30
0.0
 11
-438.4349171529
 21
503.3501193885
 31
0.0
  0
LINE
  5
261
330
1F
100
AcDbEntity
  8
0
  6
Continuous
 62
     8
370
    25
100
AcDbLine
 10
-376.4349171529
 20
-205.0019066511
 30
0.0
 11
-376.4349171529
 21
-200.1813513736
 31
0.0
  0
LINE
  5
262
330
1F
100
AcDbEntity
  8
0
  6
Continuous
 62
     8
370
    25
100
AcDbLine
 10
-405.4349171529
 20
-200.1813513736
 30
0.0
 11
-405.4349171529
 21
-205.0019066511
 31
0.0
  0
LINE
  5
263
330
1F
100
AcDbEntity
  8
0
  6
Continuous
 62
     8
370
    25
100
AcDbLine
 10
809.5650828471
 20
-200.1813513736
 30
0.0
 11
809.5650828471
 21
-205.0019066511
 31
0.0
  0
LINE
  5
264
330
1F
100
AcDbEntity
  8
0
  6
Continuous
 62
     8
370
    25
100
AcDbLine
 10
838.5650828471
 20
-205.0019066511
 30
0.0
 11
838.5650828471
 21
-200.1813513736
 31
0.0
  0
LINE
  5
265
330
1F
100
AcDbEntity
  8
0
  6
Continuous
 62
     8
370
    25
100
AcDbLine
 10
-376.4349171529
 20
509.1775380714
 30
0.0
 11
-376.4349171529
 21
513.9980933489
 31
0.0
  0
LINE
  5
266
330
1F
100
AcDbEntity
  8
0
  6
Continuous
 62
     8
370
    25
100
AcDbLine
 10
-405.4349171529
 20
513.9980933489
 30
0.0
 11
-405.4349171529
 21
509.1775380714
 31
0.0
  0
LINE
  5
267
330
1F
100
AcDbEntity
  8
0
  6
Continuous
 62
     8
370
    25
100
AcDbLine
 10
809.5650828471
 20
513.9980933489
 30
0.0
 11
809.5650828471
 21
509.1775380714
 31
0.0
  0
LINE
  5
268
330
1F
100
AcDbEntity
  8
0
  6
Continuous
 62
     8
370
    25
100
AcDbLine
 10
838.5650828471
 20
509.1775380714
 30
0.0
 11
838.5650828471
 21
513.9980933489
 31
0.0
  0
LINE
  5
269
330
1F
100
AcDbEntity
  8
0
  6
Continuous
 62
     8
370
    25
100
AcDbLine
 10
862.4271614471
 20
533.7632207668
 30
0.0
 11
875.7030042472
 21
533.7632207668
 31
0.0
  0
LINE
  5
26A
330
1F
100
AcDbEntity
  8
0
  6
Continuous
 62
     8
370
    25
100
AcDbLine
 10
-442.5728385529
 20
533.7632207668
 30
0.0
 11
-429.2969957528
 21
533.7632207668
 31
0.0
  0
LINE
  5
26B
330
1F
100
AcDbEntity
  8
0
  6
Continuous
 62
     8
370
    25
100
AcDbLine
 10
-339.2969957528
 20
-224.767034069
 30
0.0
 11
-352.5728385529
 21
-224.767034069
 31
0.0
  0
LINE
  5
26C
330
1F
100
AcDbEntity
  8
0
  6
Continuous
 62
     8
370
    25
100
AcDbLine
 10
875.7030042472
 20
-224.767034069
 30
0.0
 11
862.4271614471
 21
-224.767034069
 31
0.0
  0
LINE
  5
26D
330
1F
100
AcDbEntity
  8
0
  6
Continuous
 62
     8
370
    25
100
AcDbLine
 10
-429.2969957528
 20
-224.767034069
 30
0.0
 11
-442.5728385529
 21
-224.767034069
 31
0.0
  0
LINE
  5
26E
330
1F
100
AcDbEntity
  8
0
  6
Continuous
 62
     8
370
    25
100
AcDbLine
 10
-352.5728385529
 20
533.7632207668
 30
0.0
 11
-339.2969957528
 21
533.7632207668
 31
0.0
  0
LINE
  5
26F
330
1F
100
AcDbEntity
  8
0
  6
Continuous
 62
     8
370
    25
100
AcDbLine
 10
785.7030042472
 20
-224.767034069
 30
0.0
 11
772.4271614471
 21
-224.767034069
 31
0.0
  0
LINE
  5
270
330
1F
100
AcDbEntity
  8
0
  6
Continuous
 62
     8
370
    25
100
AcDbLine
 10
772.4271614471
 20
533.7632207668
 30
0.0
 11
785.7030042472
 21
533.7632207668
 31
0.0
  0
LINE
  5
271
330
1F
100
AcDbEntity
  8
0
  6
Continuous
 62
     8
370
    25
100
AcDbLine
 10
830.7030042472
 20
-224.767034069
 30
0.0
 11
817.4271614471
 21
-224.767034069
 31
0.0
  0
LINE
  5
272
330
1F
100
AcDbEntity
  8
0
  6
Continuous
 62
     8
370
    25
100
AcDbLine
 10
-384.2969957528
 20
-224.767034069
 30
0.0
 11
-397.5728385529
 21
-224.767034069
 31
0.0
  0
LINE
  5
273
330
1F
100
AcDbEntity
  8
0
  6
Continuous
 62
     8
370
    25
100
AcDbLine
 10
-397.5728385529
 20
533.7632207668
 30
0.0
 11
-384.2969957528
 21
533.7632207668
 31
0.0
  0
LINE
  5
274
330
1F
100
AcDbEntity
  8
0
  6
Continuous
 62
     8
370
    25
100
AcDbLine
 10
817.4271614471
 20
533.7632207668
 30
0.0
 11
830.7030042472
 21
533.7632207668
 31
0.0
  0
LINE
  5
275
330
1F
100
AcDbEntity
  8
0
  6
Continuous
 62
     8
370
    25
100
AcDbLine
 10
-515.9349171529
 20
-220.0019066511
 30
0.0
 11
-265.9349171529
 21
-220.0019066511
 31
0.0
  0
LINE
  5
276
330
1F
100
AcDbEntity
  8
0
  6
Continuous
 62
     8
370
    25
100
AcDbLine
 10
-265.9349171529
 20
-211.0019066511
 30
0.0
 11
-423.4349171529
 21
-211.0019066511
 31
0.0
  0
LINE
  5
277
330
1F
100
AcDbEntity
  8
0
  6
Continuous
 62
     8
370
    25
100
AcDbLine
 10
-438.4349171529
 20
-211.0019066511
 30
0.0
 11
-515.9349171529
 21
-211.0019066511
 31
0.0
  0
LINE
  5
278
330
1F
100
AcDbEntity
  8
0
  6
Continuous
 62
     8
370
    25
100
AcDbLine
 10
699.0650828471
 20
-220.0019066511
 30
0.0
 11
949.0650828471
 21
-220.0019066511
 31
0.0
  0
LINE
  5
279
330
1F
100
AcDbEntity
  8
0
  6
Continuous
 62
     8
370
    25
100
AcDbLine
 10
949.0650828471
 20
-211.0019066511
 30
0.0
 11
871.5650828472
 21
-211.0019066511
 31
0.0
  0
LINE
  5
27A
330
1F
100
AcDbEntity
  8
0
  6
Continuous
 62
     8
370
    25
100
AcDbLine
 10
856.5650828472
 20
-211.0019066511
 30
0.0
 11
699.0650828471
 21
-211.0019066511
 31
0.0
  0
LINE
  5
27B
330
1F
100
AcDbEntity
  8
0
  6
Continuous
 62
     8
370
    25
100
AcDbLine
 10
-265.9349171529
 20
528.9980933489
 30
0.0
 11
-515.9349171529
 21
528.9980933489
 31
0.0
  0
LINE
  5
27C
330
1F
100
AcDbEntity
  8
0
  6
Continuous
 62
     8
370
    25
100
AcDbLine
 10
-515.9349171529
 20
519.9980933489
 30
0.0
 11
-438.4349171529
 21
519.9980933489
 31
0.0
  0
LINE
  5
27D
330
1F
100
AcDbEntity
  8
0
  6
Continuous
 62
     8
370
    25
100
AcDbLine
 10
-423.4349171529
 20
519.9980933489
 30
0.0
 11
-265.9349171529
 21
519.9980933489
 31
0.0
  0
LINE
  5
27E
330
1F
100
AcDbEntity
  8
0
  6
Continuous
 62
     8
370
    25
100
AcDbLine
 10
949.0650828471
 20
528.9980933489
 30
0.0
 11
699.0650828471
 21
528.9980933489
 31
0.0
  0
LINE
  5
27F
330
1F
100
AcDbEntity
  8
0
  6
Continuous
 62
     8
370
    25
100
AcDbLine
 10
699.0650828471
 20
519.9980933489
 30
0.0
 11
856.5650828472
 21
519.9980933489
 31
0.0
  0
LINE
  5
280
330
1F
100
AcDbEntity
  8
0
  6
Continuous
 62
     8
370
    25
100
AcDbLine
 10
871.5650828472
 20
519.9980933489
 30
0.0
 11
949.0650828471
 21
519.9980933489
 31
0.0
  0
ENDSEC
  0
SECTION
  2
OBJECTS
  0
DICTIONARY
  5
C
330
0
100
AcDbDictionary
281
     1
  3
ACAD_GROUP
350
D
  3
ACAD_LAYOUT
350
1A
  3
ACAD_MLINESTYLE
350
17
  3
ACAD_PLOTSETTINGS
350
19
  3
ACAD_PLOTSTYLENAME
350
E
  3
ACAD_SCALELIST
350
47
  3
DWGPROPS
350
281
  0
DICTIONARY
  5
D
102
{ACAD_REACTORS
330
C
102
}
330
C
100
AcDbDictionary
281
     1
  0
DICTIONARY
  5
1A
102
{ACAD_REACTORS
330
C
102
}
330
C
100
AcDbDictionary
281
     1
  3
Layout1
350
1E
  3
Layout2
350
26
  3
Model
350
22
  0
DICTIONARY
  5
17
102
{ACAD_REACTORS
330
C
102
}
330
C
100
AcDbDictionary
281
     1
  3
Standard
350
18
  0
DICTIONARY
  5
19
102
{ACAD_REACTORS
330
C
102
}
330
C
100
AcDbDictionary
281
     1
  0
ACDBDICTIONARYWDFLT
  5
E
102
{ACAD_REACTORS
330
C
102
}
330
C
100
AcDbDictionary
281
     1
  3
Normal
350
F
100
AcDbDictionaryWithDefault
340
F
  0
DICTIONARY
  5
47
102
{ACAD_REACTORS
330
C
102
}
330
C
100
AcDbDictionary
281
     1
  3
A0
350
48
  3
A1
350
49
  3
A2
350
4A
  3
A3
350
4B
  3
A4
350
4C
  3
A5
350
4D
  3
A6
350
4E
  3
A7
350
4F
  3
A8
350
50
  3
A9
350
51
  3
B0
350
52
  3
B1
350
53
  3
B2
350
54
  3
B3
350
55
  3
B4
350
56
  3
B5
350
57
  3
B6
350
58
  3
B7
350
59
  3
B8
350
5A
  3
B9
350
5B
  3
C0
350
5C
  3
C1
350
5D
  3
C2
350
5E
  3
C3
350
5F
  3
C4
350
60
  3
C5
350
61
  3
C6
350
62
  3
C7
350
63
  3
C8
350
64
  3
C9
350
65
  3
D0
350
66
  3
D1
350
67
  3
D2
350
68
  0
XRECORD
  5
281
102
{ACAD_REACTORS
330
C
102
}
330
C
100
AcDbXrecord
280
     1
  1
DWGPROPS COOKIE
  2

  3

  4

  6

  7

  8
Swing
  9

300
=
301
=
302
=
303
=
304
=
305
=
306
=
307
=
308
=
309
=
 40
0.0
 41
2459671.464494583
 42
2459671.464494931
  1

 90
        0
  0
LAYOUT
  5
1E
102
{ACAD_REACTORS
330
1A
102
}
330
1A
100
AcDbPlotSettings
  1

  2
none_device
  4

  6

 40
0.0
 41
0.0
 42
0.0
 43
0.0
 44
0.0
 45
0.0
 46
0.0
 47
0.0
 48
0.0
 49
0.0
140
0.0
141
0.0
142
1.0
143
1.0
 70
   688
 72
     1
 73
     0
 74
     5
  7

 75
    16
147
1.0
148
0.0
149
0.0
100
AcDbLayout
  1
Layout1
 70
     1
 71
     1
 10
0.0
 20
0.0
 11
420.0
 21
297.0
 12
0.0
 22
0.0
 32
0.0
 14
1.0000000000E+20
 24
1.0000000000E+20
 34
1.0000000000E+20
 15
-1.0000000000E+20
 25
-1.0000000000E+20
 35
-1.0000000000E+20
146
0.0
 13
0.0
 23
0.0
 33
0.0
 16
1.0
 26
0.0
 36
0.0
 17
0.0
 27
1.0
 37
0.0
 76
     0
330
1B
  0
LAYOUT
  5
26
102
{ACAD_REACTORS
330
1A
102
}
330
1A
100
AcDbPlotSettings
  1

  2
none_device
  4

  6

 40
0.0
 41
0.0
 42
0.0
 43
0.0
 44
0.0
 45
0.0
 46
0.0
 47
0.0
 48
0.0
 49
0.0
140
0.0
141
0.0
142
1.0
143
1.0
 70
   688
 72
     1
 73
     0
 74
     5
  7

 75
    16
147
1.0
148
0.0
149
0.0
100
AcDbLayout
  1
Layout2
 70
     1
 71
     2
 10
0.0
 20
0.0
 11
0.0
 21
0.0
 12
0.0
 22
0.0
 32
0.0
 14
0.0
 24
0.0
 34
0.0
 15
0.0
 25
0.0
 35
0.0
146
0.0
 13
0.0
 23
0.0
 33
0.0
 16
1.0
 26
0.0
 36
0.0
 17
0.0
 27
1.0
 37
0.0
 76
     0
330
23
  0
LAYOUT
  5
22
102
{ACAD_REACTORS
330
1A
102
}
330
1A
100
AcDbPlotSettings
  1

  2
none_device
  4
Letter_(8.50_x_11.00_Inches)
  6

 40
6.35
 41
6.35
 42
6.35000508
 43
6.35000508
 44
215.9
 45
279.4
 46
0.0
 47
0.0
 48
0.0
 49
0.0
140
0.0
141
0.0
142
1.0
143
1.0
 70
  1712
 72
     1
 73
     0
 74
     0
  7

 75
     0
147
1.0
148
0.0
149
0.0
100
AcDbLayout
  1
Model
 70
     1
 71
     0
 10
0.0
 20
0.0
 11
431.8
 21
279.4
 12
0.0
 22
0.0
 32
0.0
 14
0.0
 24
0.0
 34
0.0
 15
431.8
 25
279.4
 35
0.0
146
0.0
 13
0.0
 23
0.0
 33
0.0
 16
1.0
 26
0.0
 36
0.0
 17
0.0
 27
1.0
 37
0.0
 76
     0
330
1F
331
29
  0
MLINESTYLE
  5
18
102
{ACAD_REACTORS
330
17
102
}
330
17
100
AcDbMlineStyle
  2
Standard
 70
     0
  3

 62
   256
 51
90.0
 52
90.0
 71
     2
 49
0.5
 62
   256
  6
BYLAYER
 49
-0.5
 62
   256
  6
BYLAYER
  0
ACDBPLACEHOLDER
  5
F
102
{ACAD_REACTORS
330
E
102
}
330
E
  0
SCALE
  5
48
102
{ACAD_REACTORS
330
47
102
}
330
47
100
AcDbScale
 70
     0
300
1:1
140
1.0
141
1.0
290
     1
  0
SCALE
  5
49
102
{ACAD_REACTORS
330
47
102
}
330
47
100
AcDbScale
 70
     0
300
1:2
140
1.0
141
2.0
290
     0
  0
SCALE
  5
4A
102
{ACAD_REACTORS
330
47
102
}
330
47
100
AcDbScale
 70
     0
300
1:4
140
1.0
141
4.0
290
     0
  0
SCALE
  5
4B
102
{ACAD_REACTORS
330
47
102
}
330
47
100
AcDbScale
 70
     0
300
1:5
140
1.0
141
5.0
290
     0
  0
SCALE
  5
4C
102
{ACAD_REACTORS
330
47
102
}
330
47
100
AcDbScale
 70
     0
300
1:8
140
1.0
141
8.0
290
     0
  0
SCALE
  5
4D
102
{ACAD_REACTORS
330
47
102
}
330
47
100
AcDbScale
 70
     0
300
1:10
140
1.0
141
10.0
290
     0
  0
SCALE
  5
4E
102
{ACAD_REACTORS
330
47
102
}
330
47
100
AcDbScale
 70
     0
300
1:16
140
1.0
141
16.0
290
     0
  0
SCALE
  5
4F
102
{ACAD_REACTORS
330
47
102
}
330
47
100
AcDbScale
 70
     0
300
1:20
140
1.0
141
20.0
290
     0
  0
SCALE
  5
50
102
{ACAD_REACTORS
330
47
102
}
330
47
100
AcDbScale
 70
     0
300
1:30
140
1.0
141
30.0
290
     0
  0
SCALE
  5
51
102
{ACAD_REACTORS
330
47
102
}
330
47
100
AcDbScale
 70
     0
300
1:40
140
1.0
141
40.0
290
     0
  0
SCALE
  5
52
102
{ACAD_REACTORS
330
47
102
}
330
47
100
AcDbScale
 70
     0
300
1:50
140
1.0
141
50.0
290
     0
  0
SCALE
  5
53
102
{ACAD_REACTORS
330
47
102
}
330
47
100
AcDbScale
 70
     0
300
1:100
140
1.0
141
100.0
290
     0
  0
SCALE
  5
54
102
{ACAD_REACTORS
330
47
102
}
330
47
100
AcDbScale
 70
     0
300
2:1
140
2.0
141
1.0
290
     0
  0
SCALE
  5
55
102
{ACAD_REACTORS
330
47
102
}
330
47
100
AcDbScale
 70
     0
300
4:1
140
4.0
141
1.0
290
     0
  0
SCALE
  5
56
102
{ACAD_REACTORS
330
47
102
}
330
47
100
AcDbScale
 70
     0
300
8:1
140
8.0
141
1.0
290
     0
  0
SCALE
  5
57
102
{ACAD_REACTORS
330
47
102
}
330
47
100
AcDbScale
 70
     0
300
10:1
140
10.0
141
1.0
290
     0
  0
SCALE
  5
58
102
{ACAD_REACTORS
330
47
102
}
330
47
100
AcDbScale
 70
     0
300
100:1
140
100.0
141
1.0
290
     0
  0
SCALE
  5
59
102
{ACAD_REACTORS
330
47
102
}
330
47
100
AcDbScale
 70
     0
300
1/128" = 1'-0"
140
0.0078125
141
12.0
290
     0
  0
SCALE
  5
5A
102
{ACAD_REACTORS
330
47
102
}
330
47
100
AcDbScale
 70
     0
300
1/64" = 1'-0"
140
0.015625
141
12.0
290
     0
  0
SCALE
  5
5B
102
{ACAD_REACTORS
330
47
102
}
330
47
100
AcDbScale
 70
     0
300
1/32" = 1'-0"
140
0.03125
141
12.0
290
     0
  0
SCALE
  5
5C
102
{ACAD_REACTORS
330
47
102
}
330
47
100
AcDbScale
 70
     0
300
1/16" = 1'-0"
140
0.0625
141
12.0
290
     0
  0
SCALE
  5
5D
102
{ACAD_REACTORS
330
47
102
}
330
47
100
AcDbScale
 70
     0
300
3/32" = 1'-0"
140
0.09375
141
12.0
290
     0
  0
SCALE
  5
5E
102
{ACAD_REACTORS
330
47
102
}
330
47
100
AcDbScale
 70
     0
300
1/8" = 1'-0"
140
0.125
141
12.0
290
     0
  0
SCALE
  5
5F
102
{ACAD_REACTORS
330
47
102
}
330
47
100
AcDbScale
 70
     0
300
3/16" = 1'-0"
140
0.1875
141
12.0
290
     0
  0
SCALE
  5
60
102
{ACAD_REACTORS
330
47
102
}
330
47
100
AcDbScale
 70
     0
300
1/4" = 1'-0"
140
0.25
141
12.0
290
     0
  0
SCALE
  5
61
102
{ACAD_REACTORS
330
47
102
}
330
47
100
AcDbScale
 70
     0
300
3/8" = 1'-0"
140
0.375
141
12.0
290
     0
  0
SCALE
  5
62
102
{ACAD_REACTORS
330
47
102
}
330
47
100
AcDbScale
 70
     0
300
1/2" = 1'-0"
140
0.5
141
12.0
290
     0
  0
SCALE
  5
63
102
{ACAD_REACTORS
330
47
102
}
330
47
100
AcDbScale
 70
     0
300
3/4" = 1'-0"
140
0.75
141
12.0
290
     0
  0
SCALE
  5
64
102
{ACAD_REACTORS
330
47
102
}
330
47
100
AcDbScale
 70
     0
300
1" = 1'-0"
140
1.0
141
12.0
290
     0
  0
SCALE
  5
65
102
{ACAD_REACTORS
330
47
102
}
330
47
100
AcDbScale
 70
     0
300
1-1/2" = 1'-0"
140
1.5
141
12.0
290
     0
  0
SCALE
  5
66
102
{ACAD_REACTORS
330
47
102
}
330
47
100
AcDbScale
 70
     0
300
3" = 1'-0"
140
3.0
141
12.0
290
     0
  0
SCALE
  5
67
102
{ACAD_REACTORS
330
47
102
}
330
47
100
AcDbScale
 70
     0
300
6" = 1'-0"
140
6.0
141
12.0
290
     0
  0
SCALE
  5
68
102
{ACAD_REACTORS
330
47
102
}
330
47
100
AcDbScale
 70
     0
300
1'-0" = 1'-0"
140
12.0
141
12.0
290
     0
  0
ENDSEC
  0
EOF
