  0
SECTION
  2
HEADER
  9
$ACADVER
  1
AC1015
  9
$ACADMAINTVER
 70
     6
  9
$DWGCODEPAGE
  3
ANSI_1250
  9
$INSBASE
 10
0.0
 20
0.0
 30
0.0
  9
$EXTMIN
 10
0.0
 20
0.0
 30
0.0
  9
$EXTMAX
 10
431.8
 20
279.4
 30
0.0
  9
$LIMMIN
 10
0.0
 20
0.0
  9
$LIMMAX
 10
431.8
 20
279.4
  9
$ORTHOMODE
 70
     0
  9
$REGENMODE
 70
     1
  9
$FILLMODE
 70
     1
  9
$QTEXTMODE
 70
     0
  9
$MIRRTEXT
 70
     1
  9
$LTSCALE
 40
1.0
  9
$ATTMODE
 70
     1
  9
$TEXTSIZE
 40
3.8805555556
  9
$TRACEWID
 40
1.0
  9
$TEXTSTYLE
  7
Standard
  9
$CLAYER
  8
0
  9
$CELTYPE
  6
ByLayer
  9
$CECOLOR
 62
   256
  9
$CELTSCALE
 40
1.0
  9
$DISPSILH
 70
     0
  9
$DIMSCALE
 40
1.0
  9
$DIMASZ
 40
3.302
  9
$DIMEXO
 40
1.0
  9
$DIMDLI
 40
3.75
  9
$DIMRND
 40
0.0
  9
$DIMDLE
 40
0.0
  9
$DIMEXE
 40
1.0
  9
$DIMTP
 40
0.0
  9
$DIMTM
 40
0.0
  9
$DIMTXT
 40
3.8805555556
  9
$DIMCEN
 40
2.5
  9
$DIMTSZ
 40
0.0
  9
$DIMTOL
 70
     0
  9
$DIMLIM
 70
     0
  9
$DIMTIH
 70
     1
  9
$DIMTOH
 70
     1
  9
$DIMSE1
 70
     0
  9
$DIMSE2
 70
     0
  9
$DIMTAD
 70
     1
  9
$DIMZIN
 70
     0
  9
$DIMBLK
  1

  9
$DIMASO
 70
     1
  9
$DIMSHO
 70
     1
  9
$DIMPOST
  1

  9
$DIMAPOST
  1

  9
$DIMALT
 70
     0
  9
$DIMALTD
 70
     3
  9
$DIMALTF
 40
0.0393700787
  9
$DIMLFAC
 40
1.0
  9
$DIMTOFL
 70
     1
  9
$DIMTVP
 40
0.0
  9
$DIMTIX
 70
     0
  9
$DIMSOXD
 70
     0
  9
$DIMSAH
 70
     0
  9
$DIMBLK1
  1

  9
$DIMBLK2
  1

  9
$DIMSTYLE
  2
ISO-25
  9
$DIMCLRD
 70
     0
  9
$DIMCLRE
 70
     0
  9
$DIMCLRT
 70
     0
  9
$DIMTFAC
 40
1.0
  9
$DIMGAP
 40
1.524
  9
$DIMJUST
 70
     0
  9
$DIMSD1
 70
     0
  9
$DIMSD2
 70
     0
  9
$DIMTOLJ
 70
     0
  9
$DIMTZIN
 70
     0
  9
$DIMALTZ
 70
     0
  9
$DIMALTTZ
 70
     0
  9
$DIMUPT
 70
     0
  9
$DIMDEC
 70
     1
  9
$DIMTDEC
 70
     1
  9
$DIMALTU
 70
     2
  9
$DIMALTTD
 70
     3
  9
$DIMTXSTY
  7
Standard
  9
$DIMAUNIT
 70
     0
  9
$DIMADEC
 70
     1
  9
$DIMALTRND
 40
0.0
  9
$DIMAZIN
 70
     0
  9
$DIMDSEP
 70
    44
  9
$DIMATFIT
 70
     3
  9
$DIMFRAC
 70
     0
  9
$DIMLDRBLK
  1

  9
$DIMLUNIT
 70
     2
  9
$DIMLWD
 70
    -2
  9
$DIMLWE
 70
    -2
  9
$DIMTMOVE
 70
     0
  9
$LUNITS
 70
     2
  9
$LUPREC
 70
     1
  9
$SKETCHINC
 40
1.0
  9
$FILLETRAD
 40
10.0
  9
$AUNITS
 70
     0
  9
$AUPREC
 70
     1
  9
$MENU
  1
.
  9
$ELEVATION
 40
0.0
  9
$PELEVATION
 40
0.0
  9
$THICKNESS
 40
0.0
  9
$LIMCHECK
 70
     0
  9
$CHAMFERA
 40
0.0
  9
$CHAMFERB
 40
0.0
  9
$CHAMFERC
 40
0.0
  9
$CHAMFERD
 40
0.0
  9
$SKPOLY
 70
     0
  9
$TDCREATE
 40
2459565.483656053
  9
$TDUCREATE
 40
2459565.441989386
  9
$TDUPDATE
 40
2459565.483656308
  9
$TDUUPDATE
 40
2459565.441989641
  9
$TDINDWG
 40
0.0000000116
  9
$TDUSRTIMER
 40
0.0000000116
  9
$USRTIMER
 70
     1
  9
$ANGBASE
 50
0.0
  9
$ANGDIR
 70
     0
  9
$PDMODE
 70
     0
  9
$PDSIZE
 40
-1.0
  9
$PLINEWID
 40
0.0
  9
$SPLFRAME
 70
     0
  9
$SPLINETYPE
 70
     6
  9
$SPLINESEGS
 70
     8
  9
$HANDSEED
  5
4DD
  9
$SURFTAB1
 70
     6
  9
$SURFTAB2
 70
     6
  9
$SURFTYPE
 70
     6
  9
$SURFU
 70
     6
  9
$SURFV
 70
     6
  9
$UCSBASE
  2

  9
$UCSNAME
  2

  9
$UCSORG
 10
0.0
 20
0.0
 30
0.0
  9
$UCSXDIR
 10
1.0
 20
0.0
 30
0.0
  9
$UCSYDIR
 10
0.0
 20
1.0
 30
0.0
  9
$UCSORTHOREF
  2

  9
$UCSORTHOVIEW
 70
     0
  9
$UCSORGTOP
 10
0.0
 20
0.0
 30
0.0
  9
$UCSORGBOTTOM
 10
0.0
 20
0.0
 30
0.0
  9
$UCSORGLEFT
 10
0.0
 20
0.0
 30
0.0
  9
$UCSORGRIGHT
 10
0.0
 20
0.0
 30
0.0
  9
$UCSORGFRONT
 10
0.0
 20
0.0
 30
0.0
  9
$UCSORGBACK
 10
0.0
 20
0.0
 30
0.0
  9
$PUCSBASE
  2

  9
$PUCSNAME
  2

  9
$PUCSORG
 10
0.0
 20
0.0
 30
0.0
  9
$PUCSXDIR
 10
1.0
 20
0.0
 30
0.0
  9
$PUCSYDIR
 10
0.0
 20
1.0
 30
0.0
  9
$PUCSORTHOREF
  2

  9
$PUCSORTHOVIEW
 70
     0
  9
$PUCSORGTOP
 10
0.0
 20
0.0
 30
0.0
  9
$PUCSORGBOTTOM
 10
0.0
 20
0.0
 30
0.0
  9
$PUCSORGLEFT
 10
0.0
 20
0.0
 30
0.0
  9
$PUCSORGRIGHT
 10
0.0
 20
0.0
 30
0.0
  9
$PUCSORGFRONT
 10
0.0
 20
0.0
 30
0.0
  9
$PUCSORGBACK
 10
0.0
 20
0.0
 30
0.0
  9
$USERI1
 70
     0
  9
$USERI2
 70
     0
  9
$USERI3
 70
     0
  9
$USERI4
 70
     0
  9
$USERI5
 70
     0
  9
$USERR1
 40
0.0
  9
$USERR2
 40
0.0
  9
$USERR3
 40
0.0
  9
$USERR4
 40
0.0
  9
$USERR5
 40
0.0
  9
$WORLDVIEW
 70
     1
  9
$SHADEDGE
 70
     3
  9
$SHADEDIF
 70
    70
  9
$TILEMODE
 70
     1
  9
$MAXACTVP
 70
    64
  9
$PINSBASE
 10
0.0
 20
0.0
 30
0.0
  9
$PLIMCHECK
 70
     0
  9
$PEXTMIN
 10
1.0000000000E+20
 20
1.0000000000E+20
 30
1.0000000000E+20
  9
$PEXTMAX
 10
-1.0000000000E+20
 20
-1.0000000000E+20
 30
-1.0000000000E+20
  9
$PLIMMIN
 10
0.0
 20
0.0
  9
$PLIMMAX
 10
420.0
 20
297.0
  9
$UNITMODE
 70
     0
  9
$VISRETAIN
 70
     1
  9
$PLINEGEN
 70
     0
  9
$PSLTSCALE
 70
     1
  9
$TREEDEPTH
 70
  3020
  9
$CMLSTYLE
  2
Standard
  9
$CMLJUST
 70
     0
  9
$CMLSCALE
 40
20.0
  9
$PROXYGRAPHICS
 70
     1
  9
$MEASUREMENT
 70
     1
  9
$CELWEIGHT
370
    -1
  9
$ENDCAPS
280
     0
  9
$JOINSTYLE
280
     0
  9
$LWDISPLAY
290
     1
  9
$INSUNITS
 70
     4
  9
$HYPERLINKBASE
  1

  9
$STYLESHEET
  1

  9
$XEDIT
290
     1
  9
$CEPSNTYPE
380
     0
  9
$PSTYLEMODE
290
     1
  9
$FINGERPRINTGUID
  2
{7b4cd97b-06c4-4ea0-bd73-e0b078c20811}
  9
$VERSIONGUID
  2
{FAEB1C32-E019-11D5-929B-00C0DF256EC4}
  9
$EXTNAMES
290
     1
  9
$PSVPSCALE
 40
0.0
  9
$OLESTARTUP
290
     0
  0
ENDSEC
  0
SECTION
  2
CLASSES
  0
CLASS
  1
ACDBDICTIONARYWDFLT
  2
AcDbDictionaryWithDefault
  3
ObjectDBX Classes
 90
        0
280
     0
281
     0
  0
CLASS
  1
VISUALSTYLE
  2
AcDbVisualStyle
  3
ObjectDBX Classes
 90
     4095
280
     0
281
     0
  0
CLASS
  1
MATERIAL
  2
AcDbMaterial
  3
ObjectDBX Classes
 90
     1153
280
     0
281
     0
  0
CLASS
  1
SCALE
  2
AcDbScale
  3
ObjectDBX Classes
 90
     1153
280
     0
281
     0
  0
CLASS
  1
TABLESTYLE
  2
AcDbTableStyle
  3
ObjectDBX Classes
 90
     4095
280
     0
281
     0
  0
CLASS
  1
MLEADERSTYLE
  2
AcDbMLeaderStyle
  3
ACDB_MLEADERSTYLE_CLASS
 90
     4095
280
     0
281
     0
  0
CLASS
  1
SUN
  2
AcDbSun
  3
SCENEOE
 90
     1153
280
     0
281
     0
  0
CLASS
  1
ACDBPLACEHOLDER
  2
AcDbPlaceHolder
  3
ObjectDBX Classes
 90
        0
280
     0
281
     0
  0
CLASS
  1
LAYOUT
  2
AcDbLayout
  3
ObjectDBX Classes
 90
        0
280
     0
281
     0
  0
ENDSEC
  0
SECTION
  2
TABLES
  0
TABLE
  2
VPORT
  5
8
330
0
100
AcDbSymbolTable
 70
     1
  0
VPORT
  5
29
330
8
100
AcDbSymbolTableRecord
100
AcDbViewportTableRecord
  2
*Active
 70
     0
 10
0.0
 20
0.0
 11
1.0
 21
1.0
 12
215.9
 22
139.7
 13
0.0
 23
0.0
 14
10.0
 24
10.0
 15
10.0
 25
10.0
 16
0.0
 26
0.0
 36
1.0
 17
0.0
 27
0.0
 37
0.0
 40
279.4
 41
1.5454545455
 42
50.0
 43
0.0
 44
0.0
 50
0.0
 51
0.0
 71
     0
 72
  2000
 73
     1
 74
     3
 75
     0
 76
     0
 77
     0
 78
     0
281
     0
 65
     1
110
0.0
120
0.0
130
0.0
111
1.0
121
0.0
131
0.0
112
0.0
122
1.0
132
0.0
 79
     0
146
0.0
  0
ENDTAB
  0
TABLE
  2
LTYPE
  5
5
330
0
100
AcDbSymbolTable
 70
     6
  0
LTYPE
  5
14
330
5
100
AcDbSymbolTableRecord
100
AcDbLinetypeTableRecord
  2
ByBlock
 70
     0
  3

 72
    65
 73
     0
 40
0.0
  0
LTYPE
  5
15
330
5
100
AcDbSymbolTableRecord
100
AcDbLinetypeTableRecord
  2
ByLayer
 70
     0
  3

 72
    65
 73
     0
 40
0.0
  0
LTYPE
  5
16
330
5
100
AcDbSymbolTableRecord
100
AcDbLinetypeTableRecord
  2
Continuous
 70
     0
  3
Solid line
 72
    65
 73
     0
 40
0.0
  0
LTYPE
  5
6E
330
5
100
AcDbSymbolTableRecord
100
AcDbLinetypeTableRecord
  2
HIDDEN
 70
     0
  3
Hidden __ __ __ __ __ __ __ __ __ __ __ __ __ __
 72
    65
 73
     2
 40
1.905
 49
1.27
 74
     0
 49
-0.635
 74
     0
  0
LTYPE
  5
6F
330
5
100
AcDbSymbolTableRecord
100
AcDbLinetypeTableRecord
  2
PHANTOM
 70
     0
  3
Phantom ______  __  __  ______  __  __  ______
 72
    65
 73
     6
 40
12.7
 49
6.35
 74
     0
 49
-1.27
 74
     0
 49
1.27
 74
     0
 49
-1.27
 74
     0
 49
1.27
 74
     0
 49
-1.27
 74
     0
  0
LTYPE
  5
70
330
5
100
AcDbSymbolTableRecord
100
AcDbLinetypeTableRecord
  2
CENTER
 70
     0
  3
Center ____ _ ____ _ ____ _ ____ _ ____ _ ____
 72
    65
 73
     4
 40
10.16
 49
6.35
 74
     0
 49
-1.27
 74
     0
 49
1.27
 74
     0
 49
-1.27
 74
     0
  0
LTYPE
  5
71
330
5
100
AcDbSymbolTableRecord
100
AcDbLinetypeTableRecord
  2
CENTERX2
 70
     0
  3
Center (2x) ________  __  ________  __  _____
 72
    65
 73
     4
 40
20.32
 49
12.7
 74
     0
 49
-2.54
 74
     0
 49
2.54
 74
     0
 49
-2.54
 74
     0
  0
LTYPE
  5
72
330
5
100
AcDbSymbolTableRecord
100
AcDbLinetypeTableRecord
  2
DOT2
 70
     0
  3
Dot (.5x) ........................................
 72
    65
 73
     2
 40
0.635
 49
0.0
 74
     0
 49
-0.635
 74
     0
  0
ENDTAB
  0
TABLE
  2
LAYER
  5
2
330
0
100
AcDbSymbolTable
 70
     3
  0
LAYER
  5
10
330
2
100
AcDbSymbolTableRecord
100
AcDbLayerTableRecord
  2
0
 70
     0
 62
     7
  6
Continuous
370
    -3
390
F
  0
LAYER
  5
73
330
2
100
AcDbSymbolTableRecord
100
AcDbLayerTableRecord
  2
FRAME_&_TABLE
 70
     0
 62
     8
  6
Continuous
370
    50
390
F
  0
LAYER
  5
74
330
2
100
AcDbSymbolTableRecord
100
AcDbLayerTableRecord
  2
DIMENSIONS
 70
     0
 62
     7
  6
Continuous
370
    -3
390
F
  0
ENDTAB
  0
TABLE
  2
STYLE
  5
3
330
0
100
AcDbSymbolTable
 70
     1
  0
STYLE
  5
11
330
3
100
AcDbSymbolTableRecord
100
AcDbTextStyleTableRecord
  2
Standard
 70
     0
 40
0.0
 41
1.0
 50
0.0
 71
     0
 42
3.8805555556
  3
txt
  4

  0
ENDTAB
  0
TABLE
  2
VIEW
  5
6
330
0
100
AcDbSymbolTable
 70
     0
  0
ENDTAB
  0
TABLE
  2
UCS
  5
7
330
0
100
AcDbSymbolTable
 70
     0
  0
ENDTAB
  0
TABLE
  2
APPID
  5
9
330
0
100
AcDbSymbolTable
 70
     1
  0
APPID
  5
12
330
9
100
AcDbSymbolTableRecord
100
AcDbRegAppTableRecord
  2
ACAD
 70
     0
  0
ENDTAB
  0
TABLE
  2
DIMSTYLE
  5
A
330
0
100
AcDbSymbolTable
 70
     1
100
AcDbDimStyleTable
  0
DIMSTYLE
105
27
330
A
100
AcDbSymbolTableRecord
100
AcDbDimStyleTableRecord
  2
ISO-25
 70
     0
 41
2.5
 42
0.625
 43
3.75
 44
1.25
 73
     0
 74
     0
 77
     1
 78
     8
140
2.5
141
2.5
143
0.0393700787
147
0.625
171
     3
172
     1
178
     0
271
     2
272
     2
274
     3
278
    44
283
     0
284
     8
340
11
  0
ENDTAB
  0
TABLE
  2
BLOCK_RECORD
  5
1
330
0
100
AcDbSymbolTable
 70
     1
  0
BLOCK_RECORD
  5
1F
330
1
100
AcDbSymbolTableRecord
100
AcDbBlockTableRecord
  2
*Model_Space
340
22
  0
BLOCK_RECORD
  5
1B
330
1
100
AcDbSymbolTableRecord
100
AcDbBlockTableRecord
  2
*Paper_Space
340
1E
  0
BLOCK_RECORD
  5
23
330
1
100
AcDbSymbolTableRecord
100
AcDbBlockTableRecord
  2
*Paper_Space0
340
26
  0
ENDTAB
  0
ENDSEC
  0
SECTION
  2
BLOCKS
  0
BLOCK
  5
20
330
1F
100
AcDbEntity
  8
0
100
AcDbBlockBegin
  2
*Model_Space
 70
     0
 10
0.0
 20
0.0
 30
0.0
  3
*Model_Space
  1

  0
ENDBLK
  5
21
330
1F
100
AcDbEntity
  8
0
100
AcDbBlockEnd
  0
BLOCK
  5
1C
330
1B
100
AcDbEntity
 67
     1
  8
0
100
AcDbBlockBegin
  2
*Paper_Space
 70
     0
 10
0.0
 20
0.0
 30
0.0
  3
*Paper_Space
  1

  0
ENDBLK
  5
1D
330
1B
100
AcDbEntity
 67
     1
  8
0
100
AcDbBlockEnd
  0
BLOCK
  5
24
330
23
100
AcDbEntity
  8
0
100
AcDbBlockBegin
  2
*Paper_Space0
 70
     0
 10
0.0
 20
0.0
 30
0.0
  3
*Paper_Space0
  1

  0
ENDBLK
  5
25
330
23
100
AcDbEntity
  8
0
100
AcDbBlockEnd
  0
ENDSEC
  0
SECTION
  2
ENTITIES
  0
ARC
  5
75
330
1F
100
AcDbEntity
  8
0
  6
Continuous
 62
     7
370
    25
100
AcDbCircle
 10
-293.5123537923
 20
465.9586823414
 30
0.0
 40
1.100000000000023
100
AcDbArc
 50
306.4341903956
 51
90.0
  0
ARC
  5
76
330
1F
100
AcDbEntity
  8
0
  6
Continuous
 62
     7
370
    25
100
AcDbCircle
 10
-309.3123537923
 20
465.9586823414
 30
0.0
 40
1.100000000000023
100
AcDbArc
 50
90.0
 51
233.5658096044
  0
ARC
  5
77
330
1F
100
AcDbEntity
  8
0
  6
Continuous
 62
     7
370
    25
100
AcDbCircle
 10
-301.4123537923
 20
476.6606054183
 30
0.0
 40
14.40192307692313
100
AcDbArc
 50
233.5658096044
 51
306.4341903957
  0
ARC
  5
78
330
1F
100
AcDbEntity
  8
0
  6
Continuous
 62
     7
370
    25
100
AcDbCircle
 10
751.4876462077
 20
465.9586823414
 30
0.0
 40
1.100000000000049
100
AcDbArc
 50
306.4341903957
 51
90.0
  0
ARC
  5
79
330
1F
100
AcDbEntity
  8
0
  6
Continuous
 62
     7
370
    25
100
AcDbCircle
 10
735.6876462077
 20
465.9586823414
 30
0.0
 40
1.100000000000023
100
AcDbArc
 50
90.0
 51
233.5658096044
  0
ARC
  5
7A
330
1F
100
AcDbEntity
  8
0
  6
Continuous
 62
     7
370
    25
100
AcDbCircle
 10
743.5876462077
 20
476.6606054183
 30
0.0
 40
14.40192307692313
100
AcDbArc
 50
233.5658096044
 51
306.4341903957
  0
ARC
  5
7B
330
1F
100
AcDbEntity
  8
0
  6
Continuous
 62
     7
370
    25
100
AcDbCircle
 10
735.6876462077
 20
-170.9957437183
 30
0.0
 40
1.100000000000051
100
AcDbArc
 50
126.4341903956
 51
270.0
  0
ARC
  5
7C
330
1F
100
AcDbEntity
  8
0
  6
Continuous
 62
     7
370
    25
100
AcDbCircle
 10
751.4876462077
 20
-170.9957437183
 30
0.0
 40
1.100000000000051
100
AcDbArc
 50
270.0
 51
53.5658096043
  0
ARC
  5
7D
330
1F
100
AcDbEntity
  8
0
  6
Continuous
 62
     7
370
    25
100
AcDbCircle
 10
743.5876462077
 20
-181.6976667952
 30
0.0
 40
14.40192307692315
100
AcDbArc
 50
53.5658096044
 51
90.0
  0
ARC
  5
7E
330
1F
100
AcDbEntity
  8
0
  6
Continuous
 62
     7
370
    25
100
AcDbCircle
 10
743.5876462077
 20
-181.6976667952
 30
0.0
 40
14.40192307692315
100
AcDbArc
 50
90.0
 51
126.4341903956
  0
ARC
  5
7F
330
1F
100
AcDbEntity
  8
0
  6
Continuous
 62
     7
370
    25
100
AcDbCircle
 10
-309.3123537923
 20
-170.9957437183
 30
0.0
 40
1.100000000000051
100
AcDbArc
 50
126.4341903956
 51
270.0
  0
ARC
  5
80
330
1F
100
AcDbEntity
  8
0
  6
Continuous
 62
     7
370
    25
100
AcDbCircle
 10
-293.5123537923
 20
-170.9957437183
 30
0.0
 40
1.100000000000051
100
AcDbArc
 50
270.0
 51
53.5658096044
  0
ARC
  5
81
330
1F
100
AcDbEntity
  8
0
  6
Continuous
 62
     7
370
    25
100
AcDbCircle
 10
-301.4123537923
 20
-181.6976667952
 30
0.0
 40
14.40192307692315
100
AcDbArc
 50
53.5658096044
 51
90.0
  0
ARC
  5
82
330
1F
100
AcDbEntity
  8
0
  6
Continuous
 62
     7
370
    25
100
AcDbCircle
 10
-301.4123537923
 20
-181.6976667952
 30
0.0
 40
14.40192307692315
100
AcDbArc
 50
90.0
 51
126.4341903956
  0
ARC
  5
83
330
1F
100
AcDbEntity
  8
0
  6
Continuous
 62
     7
370
    25
100
AcDbCircle
 10
-264.3123537923
 20
-205.9957437183
 30
0.0
 40
1.099999999999994
100
AcDbArc
 50
126.4341903956
 51
270.0
  0
ARC
  5
84
330
1F
100
AcDbEntity
  8
0
  6
Continuous
 62
     7
370
    25
100
AcDbCircle
 10
-248.5123537923
 20
-205.9957437183
 30
0.0
 40
1.099999999999994
100
AcDbArc
 50
270.0
 51
53.5658096044
  0
ARC
  5
85
330
1F
100
AcDbEntity
  8
0
  6
Continuous
 62
     7
370
    25
100
AcDbCircle
 10
-256.4123537923
 20
-216.6976667952
 30
0.0
 40
14.40192307692319
100
AcDbArc
 50
53.5658096044
 51
126.4341903956
  0
ARC
  5
86
330
1F
100
AcDbEntity
  8
0
  6
Continuous
 62
     7
370
    25
100
AcDbCircle
 10
706.4876462077
 20
500.9586823414
 30
0.0
 40
1.099999999999966
100
AcDbArc
 50
306.4341903956
 51
90.0
  0
ARC
  5
87
330
1F
100
AcDbEntity
  8
0
  6
Continuous
 62
     7
370
    25
100
AcDbCircle
 10
690.6876462077
 20
500.9586823414
 30
0.0
 40
1.099999999999966
100
AcDbArc
 50
90.0
 51
233.5658096044
  0
ARC
  5
88
330
1F
100
AcDbEntity
  8
0
  6
Continuous
 62
     7
370
    25
100
AcDbCircle
 10
698.5876462077
 20
511.6606054183
 30
0.0
 40
14.40192307692326
100
AcDbArc
 50
233.5658096044
 51
306.4341903957
  0
ARC
  5
89
330
1F
100
AcDbEntity
  8
0
  6
Continuous
 62
     7
370
    25
100
AcDbCircle
 10
-248.5123537923
 20
500.9586823414
 30
0.0
 40
1.099999999999969
100
AcDbArc
 50
306.4341903957
 51
90.0
  0
ARC
  5
8A
330
1F
100
AcDbEntity
  8
0
  6
Continuous
 62
     7
370
    25
100
AcDbCircle
 10
-264.3123537923
 20
500.9586823414
 30
0.0
 40
1.099999999999969
100
AcDbArc
 50
90.0
 51
233.5658096044
  0
ARC
  5
8B
330
1F
100
AcDbEntity
  8
0
  6
Continuous
 62
     7
370
    25
100
AcDbCircle
 10
-256.4123537923
 20
511.6606054183
 30
0.0
 40
14.40192307692326
100
AcDbArc
 50
233.5658096044
 51
306.4341903956
  0
ARC
  5
8C
330
1F
100
AcDbEntity
  8
0
  6
Continuous
 62
     7
370
    25
100
AcDbCircle
 10
796.4876462077
 20
500.9586823414
 30
0.0
 40
1.100000000000003
100
AcDbArc
 50
306.4341903957
 51
90.0
  0
ARC
  5
8D
330
1F
100
AcDbEntity
  8
0
  6
Continuous
 62
     7
370
    25
100
AcDbCircle
 10
780.6876462077
 20
500.9586823414
 30
0.0
 40
1.100000000000003
100
AcDbArc
 50
90.0
 51
233.5658096043
  0
ARC
  5
8E
330
1F
100
AcDbEntity
  8
0
  6
Continuous
 62
     7
370
    25
100
AcDbCircle
 10
788.5876462077
 20
511.6606054183
 30
0.0
 40
14.40192307692326
100
AcDbArc
 50
233.5658096044
 51
306.4341903957
  0
ARC
  5
8F
330
1F
100
AcDbEntity
  8
0
  6
Continuous
 62
     7
370
    25
100
AcDbCircle
 10
690.6876462077
 20
-205.9957437183
 30
0.0
 40
1.099999999999994
100
AcDbArc
 50
126.4341903956
 51
270.0
  0
ARC
  5
90
330
1F
100
AcDbEntity
  8
0
  6
Continuous
 62
     7
370
    25
100
AcDbCircle
 10
706.4876462077
 20
-205.9957437183
 30
0.0
 40
1.099999999999994
100
AcDbArc
 50
270.0
 51
53.5658096044
  0
ARC
  5
91
330
1F
100
AcDbEntity
  8
0
  6
Continuous
 62
     7
370
    25
100
AcDbCircle
 10
698.5876462077
 20
-216.6976667952
 30
0.0
 40
14.40192307692319
100
AcDbArc
 50
53.5658096044
 51
126.4341903956
  0
ARC
  5
92
330
1F
100
AcDbEntity
  8
0
  6
Continuous
 62
     7
370
    25
100
AcDbCircle
 10
-354.3123537923
 20
-205.9957437183
 30
0.0
 40
1.099999999999994
100
AcDbArc
 50
126.4341903956
 51
270.0
  0
ARC
  5
93
330
1F
100
AcDbEntity
  8
0
  6
Continuous
 62
     7
370
    25
100
AcDbCircle
 10
-338.5123537923
 20
-205.9957437183
 30
0.0
 40
1.099999999999994
100
AcDbArc
 50
270.0
 51
53.5658096044
  0
ARC
  5
94
330
1F
100
AcDbEntity
  8
0
  6
Continuous
 62
     7
370
    25
100
AcDbCircle
 10
-346.4123537923
 20
-216.6976667952
 30
0.0
 40
14.40192307692319
100
AcDbArc
 50
53.5658096044
 51
126.4341903956
  0
ARC
  5
95
330
1F
100
AcDbEntity
  8
0
  6
Continuous
 62
     7
370
    25
100
AcDbCircle
 10
780.6876462077
 20
-205.9957437183
 30
0.0
 40
1.100000000000003
100
AcDbArc
 50
126.4341903957
 51
270.0
  0
ARC
  5
96
330
1F
100
AcDbEntity
  8
0
  6
Continuous
 62
     7
370
    25
100
AcDbCircle
 10
796.4876462077
 20
-205.9957437183
 30
0.0
 40
1.100000000000003
100
AcDbArc
 50
270.0
 51
53.5658096043
  0
ARC
  5
97
330
1F
100
AcDbEntity
  8
0
  6
Continuous
 62
     7
370
    25
100
AcDbCircle
 10
788.5876462077
 20
-216.6976667952
 30
0.0
 40
14.40192307692319
100
AcDbArc
 50
53.5658096044
 51
126.4341903956
  0
ARC
  5
98
330
1F
100
AcDbEntity
  8
0
  6
Continuous
 62
     7
370
    25
100
AcDbCircle
 10
-338.5123537923
 20
500.9586823414
 30
0.0
 40
1.099999999999969
100
AcDbArc
 50
306.4341903957
 51
90.0
  0
ARC
  5
99
330
1F
100
AcDbEntity
  8
0
  6
Continuous
 62
     7
370
    25
100
AcDbCircle
 10
-354.3123537923
 20
500.9586823414
 30
0.0
 40
1.099999999999969
100
AcDbArc
 50
90.0
 51
233.5658096044
  0
ARC
  5
9A
330
1F
100
AcDbEntity
  8
0
  6
Continuous
 62
     7
370
    25
100
AcDbCircle
 10
-346.4123537923
 20
511.6606054183
 30
0.0
 40
14.40192307692326
100
AcDbArc
 50
233.5658096044
 51
306.4341903957
  0
ARC
  5
9B
330
1F
100
AcDbEntity
  8
0
  6
Continuous
 62
     7
370
    25
100
AcDbCircle
 10
-335.0123537923
 20
-197.4957437183
 30
0.0
 40
1.10000000000006
100
AcDbArc
 50
216.4341903956
 51
0.0
  0
ARC
  5
9C
330
1F
100
AcDbEntity
  8
0
  6
Continuous
 62
     7
370
    25
100
AcDbCircle
 10
-335.0123537923
 20
-181.6957437183
 30
0.0
 40
1.10000000000006
100
AcDbArc
 50
0.0
 51
143.5658096044
  0
ARC
  5
9D
330
1F
100
AcDbEntity
  8
0
  6
Continuous
 62
     7
370
    25
100
AcDbCircle
 10
-324.3104307154
 20
-189.5957437183
 30
0.0
 40
14.40192307692317
100
AcDbArc
 50
143.5658096044
 51
216.4341903957
  0
ARC
  5
9E
330
1F
100
AcDbEntity
  8
0
  6
Continuous
 62
     7
370
    25
100
AcDbCircle
 10
777.1876462077
 20
492.4586823414
 30
0.0
 40
1.100000000000023
100
AcDbArc
 50
36.4341903956
 51
180.0
  0
ARC
  5
9F
330
1F
100
AcDbEntity
  8
0
  6
Continuous
 62
     7
370
    25
100
AcDbCircle
 10
777.1876462077
 20
476.6586823414
 30
0.0
 40
1.100000000000023
100
AcDbArc
 50
180.0
 51
323.5658096044
  0
ARC
  5
A0
330
1F
100
AcDbEntity
  8
0
  6
Continuous
 62
     7
370
    25
100
AcDbCircle
 10
766.4857231308
 20
484.5586823414
 30
0.0
 40
14.40192307692322
100
AcDbArc
 50
323.5658096044
 51
36.4341903956
  0
ARC
  5
A1
330
1F
100
AcDbEntity
  8
0
  6
Continuous
 62
     7
370
    25
100
AcDbCircle
 10
-335.0123537923
 20
476.6586823414
 30
0.0
 40
1.10000000000006
100
AcDbArc
 50
216.4341903956
 51
0.0
  0
ARC
  5
A2
330
1F
100
AcDbEntity
  8
0
  6
Continuous
 62
     7
370
    25
100
AcDbCircle
 10
-335.0123537923
 20
492.4586823414
 30
0.0
 40
1.10000000000006
100
AcDbArc
 50
0.0
 51
143.5658096044
  0
ARC
  5
A3
330
1F
100
AcDbEntity
  8
0
  6
Continuous
 62
     7
370
    25
100
AcDbCircle
 10
-324.3104307154
 20
484.5586823414
 30
0.0
 40
14.40192307692317
100
AcDbArc
 50
143.5658096044
 51
216.4341903957
  0
ARC
  5
A4
330
1F
100
AcDbEntity
  8
0
  6
Continuous
 62
     7
370
    25
100
AcDbCircle
 10
777.1876462077
 20
-181.6957437183
 30
0.0
 40
1.100000000000023
100
AcDbArc
 50
36.4341903956
 51
180.0
  0
ARC
  5
A5
330
1F
100
AcDbEntity
  8
0
  6
Continuous
 62
     7
370
    25
100
AcDbCircle
 10
777.1876462077
 20
-197.4957437183
 30
0.0
 40
1.100000000000023
100
AcDbArc
 50
180.0
 51
323.5658096044
  0
ARC
  5
A6
330
1F
100
AcDbEntity
  8
0
  6
Continuous
 62
     7
370
    25
100
AcDbCircle
 10
766.4857231308
 20
-189.5957437183
 30
0.0
 40
14.40192307692322
100
AcDbArc
 50
323.5658096044
 51
36.4341903956
  0
ARC
  5
A7
330
1F
100
AcDbEntity
  8
0
  6
Continuous
 62
     7
370
    25
100
AcDbCircle
 10
497.0876462077
 20
-90.1953550175
 30
0.0
 40
16.296052631579
100
AcDbArc
 50
45.1144932694
 51
90.0
  0
ARC
  5
A8
330
1F
100
AcDbEntity
  8
0
  6
Continuous
 62
     7
370
    25
100
AcDbCircle
 10
497.0876462077
 20
-88.6032497544
 30
0.0
 40
16.296052631579
100
AcDbArc
 50
270.0
 51
314.8855067306
  0
LINE
  5
A9
330
1F
100
AcDbEntity
  8
0
  6
Continuous
 62
     7
370
    25
100
AcDbLine
 10
496.0876462077
 20
-104.8993023859
 30
0.0
 11
497.0876462077
 21
-104.8993023859
 31
0.0
  0
LINE
  5
AA
330
1F
100
AcDbEntity
  8
0
  6
Continuous
 62
     7
370
    25
100
AcDbLine
 10
497.0876462077
 20
-73.8993023859
 30
0.0
 11
496.0876462077
 21
-73.8993023859
 31
0.0
  0
ARC
  5
AB
330
1F
100
AcDbEntity
  8
0
  6
Continuous
 62
     7
370
    25
100
AcDbCircle
 10
-54.9123537923
 20
385.1582936406
 30
0.0
 40
16.29605263157902
100
AcDbArc
 50
225.1144932694
 51
270.0
  0
ARC
  5
AC
330
1F
100
AcDbEntity
  8
0
  6
Continuous
 62
     7
370
    25
100
AcDbCircle
 10
-54.9123537923
 20
383.5661883775
 30
0.0
 40
16.29605263157896
100
AcDbArc
 50
90.0
 51
134.8855067306
  0
LINE
  5
AD
330
1F
100
AcDbEntity
  8
0
  6
Continuous
 62
     7
370
    25
100
AcDbLine
 10
-53.9123537923
 20
399.862241009
 30
0.0
 11
-54.9123537923
 21
399.862241009
 31
0.0
  0
LINE
  5
AE
330
1F
100
AcDbEntity
  8
0
  6
Continuous
 62
     7
370
    25
100
AcDbLine
 10
-54.9123537923
 20
368.862241009
 30
0.0
 11
-53.9123537923
 21
368.862241009
 31
0.0
  0
ARC
  5
AF
330
1F
100
AcDbEntity
  8
0
  6
Continuous
 62
     7
370
    25
100
AcDbCircle
 10
-54.9123537923
 20
148.2775219431
 30
0.0
 40
16.29605263157896
100
AcDbArc
 50
225.1144932694
 51
270.0
  0
ARC
  5
B0
330
1F
100
AcDbEntity
  8
0
  6
Continuous
 62
     7
370
    25
100
AcDbCircle
 10
-54.9123537923
 20
146.68541668
 30
0.0
 40
16.29605263157896
100
AcDbArc
 50
90.0
 51
134.8855067306
  0
LINE
  5
B1
330
1F
100
AcDbEntity
  8
0
  6
Continuous
 62
     7
370
    25
100
AcDbLine
 10
-53.9123537923
 20
162.9814693116
 30
0.0
 11
-54.9123537923
 21
162.9814693116
 31
0.0
  0
LINE
  5
B2
330
1F
100
AcDbEntity
  8
0
  6
Continuous
 62
     7
370
    25
100
AcDbLine
 10
-54.9123537923
 20
131.9814693116
 30
0.0
 11
-53.9123537923
 21
131.9814693116
 31
0.0
  0
LINE
  5
B3
330
1F
100
AcDbEntity
  8
0
  6
Continuous
 62
     7
370
    25
100
AcDbLine
 10
-53.9123537923
 20
-73.8993023859
 30
0.0
 11
-54.9123537923
 21
-73.8993023859
 31
0.0
  0
LINE
  5
B4
330
1F
100
AcDbEntity
  8
0
  6
Continuous
 62
     7
370
    25
100
AcDbLine
 10
-54.9123537923
 20
-104.8993023859
 30
0.0
 11
-53.9123537923
 21
-104.8993023859
 31
0.0
  0
ARC
  5
B5
330
1F
100
AcDbEntity
  8
0
  6
Continuous
 62
     7
370
    25
100
AcDbCircle
 10
-54.9123537923
 20
-88.6032497544
 30
0.0
 40
16.29605263157896
100
AcDbArc
 50
225.1144932694
 51
270.0
  0
ARC
  5
B6
330
1F
100
AcDbEntity
  8
0
  6
Continuous
 62
     7
370
    25
100
AcDbCircle
 10
-54.9123537923
 20
-90.1953550175
 30
0.0
 40
16.29605263157896
100
AcDbArc
 50
90.0
 51
134.8855067306
  0
ARC
  5
B7
330
1F
100
AcDbEntity
  8
0
  6
Continuous
 62
     7
370
    25
100
AcDbCircle
 10
725.0876462077
 20
485.354734973
 30
0.0
 40
16.29605263157896
100
AcDbArc
 50
225.1144932694
 51
270.0
  0
ARC
  5
B8
330
1F
100
AcDbEntity
  8
0
  6
Continuous
 62
     7
370
    25
100
AcDbCircle
 10
725.0876462077
 20
483.7626297098
 30
0.0
 40
16.29605263157896
100
AcDbArc
 50
90.0
 51
134.8855067306
  0
LINE
  5
B9
330
1F
100
AcDbEntity
  8
0
  6
Continuous
 62
     7
370
    25
100
AcDbLine
 10
726.0876462077
 20
500.0586823414
 30
0.0
 11
725.0876462077
 21
500.0586823414
 31
0.0
  0
LINE
  5
BA
330
1F
100
AcDbEntity
  8
0
  6
Continuous
 62
     7
370
    25
100
AcDbLine
 10
725.0876462077
 20
469.0586823414
 30
0.0
 11
726.0876462077
 21
469.0586823414
 31
0.0
  0
ARC
  5
BB
330
1F
100
AcDbEntity
  8
0
  6
Continuous
 62
     7
370
    25
100
AcDbCircle
 10
-334.9123537923
 20
-41.2270954112
 30
0.0
 40
16.29605263157893
100
AcDbArc
 50
225.1144932694
 51
270.0
  0
ARC
  5
BC
330
1F
100
AcDbEntity
  8
0
  6
Continuous
 62
     7
370
    25
100
AcDbCircle
 10
-334.9123537923
 20
-42.8192006744
 30
0.0
 40
16.29605263157893
100
AcDbArc
 50
90.0
 51
134.8855067306
  0
LINE
  5
BD
330
1F
100
AcDbEntity
  8
0
  6
Continuous
 62
     7
370
    25
100
AcDbLine
 10
-333.9123537923
 20
-26.5231480428
 30
0.0
 11
-334.9123537923
 21
-26.5231480428
 31
0.0
  0
LINE
  5
BE
330
1F
100
AcDbEntity
  8
0
  6
Continuous
 62
     7
370
    25
100
AcDbLine
 10
-334.9123537923
 20
-57.5231480428
 30
0.0
 11
-333.9123537923
 21
-57.5231480428
 31
0.0
  0
ARC
  5
BF
330
1F
100
AcDbEntity
  8
0
  6
Continuous
 62
     7
370
    25
100
AcDbCircle
 10
497.0876462077
 20
481.68541668
 30
0.0
 40
16.296052631579
100
AcDbArc
 50
45.1144932694
 51
90.0
  0
ARC
  5
C0
330
1F
100
AcDbEntity
  8
0
  6
Continuous
 62
     7
370
    25
100
AcDbCircle
 10
497.0876462077
 20
483.2775219431
 30
0.0
 40
16.296052631579
100
AcDbArc
 50
270.0
 51
314.8855067306
  0
LINE
  5
C1
330
1F
100
AcDbEntity
  8
0
  6
Continuous
 62
     7
370
    25
100
AcDbLine
 10
496.0876462077
 20
466.9814693116
 30
0.0
 11
497.0876462077
 21
466.9814693116
 31
0.0
  0
LINE
  5
C2
330
1F
100
AcDbEntity
  8
0
  6
Continuous
 62
     7
370
    25
100
AcDbLine
 10
497.0876462077
 20
497.9814693116
 30
0.0
 11
496.0876462077
 21
497.9814693116
 31
0.0
  0
ARC
  5
C3
330
1F
100
AcDbEntity
  8
0
  6
Continuous
 62
     7
370
    25
100
AcDbCircle
 10
-334.9123537923
 20
337.7821393083
 30
0.0
 40
16.29605263157896
100
AcDbArc
 50
225.1144932694
 51
270.0
  0
ARC
  5
C4
330
1F
100
AcDbEntity
  8
0
  6
Continuous
 62
     7
370
    25
100
AcDbCircle
 10
-334.9123537923
 20
336.1900340451
 30
0.0
 40
16.29605263157896
100
AcDbArc
 50
90.0
 51
134.8855067306
  0
LINE
  5
C5
330
1F
100
AcDbEntity
  8
0
  6
Continuous
 62
     7
370
    25
100
AcDbLine
 10
-333.9123537923
 20
352.4860866767
 30
0.0
 11
-334.9123537923
 21
352.4860866767
 31
0.0
  0
LINE
  5
C6
330
1F
100
AcDbEntity
  8
0
  6
Continuous
 62
     7
370
    25
100
AcDbLine
 10
-334.9123537923
 20
321.4860866767
 30
0.0
 11
-333.9123537923
 21
321.4860866767
 31
0.0
  0
ARC
  5
C7
330
1F
100
AcDbEntity
  8
0
  6
Continuous
 62
     7
370
    25
100
AcDbCircle
 10
697.7915935761
 20
-223.0957437183
 30
0.0
 40
16.29605263157898
100
AcDbArc
 50
315.1144932694
 51
0.0
  0
ARC
  5
C8
330
1F
100
AcDbEntity
  8
0
  6
Continuous
 62
     7
370
    25
100
AcDbCircle
 10
699.3836988393
 20
-223.0957437183
 30
0.0
 40
16.29605263157898
100
AcDbArc
 50
180.0
 51
224.8855067306
  0
LINE
  5
C9
330
1F
100
AcDbEntity
  8
0
  6
Continuous
 62
     7
370
    25
100
AcDbLine
 10
683.0876462077
 20
-222.0957437183
 30
0.0
 11
683.0876462077
 21
-223.0957437183
 31
0.0
  0
LINE
  5
CA
330
1F
100
AcDbEntity
  8
0
  6
Continuous
 62
     7
370
    25
100
AcDbLine
 10
714.0876462077
 20
-223.0957437183
 30
0.0
 11
714.0876462077
 21
-222.0957437183
 31
0.0
  0
LINE
  5
CB
330
1F
100
AcDbEntity
  8
0
  6
Continuous
 62
     7
370
    25
100
AcDbLine
 10
-3.9123537923
 20
-203.0185306884
 30
0.0
 11
-2.9123537923
 21
-203.0185306884
 31
0.0
  0
LINE
  5
CC
330
1F
100
AcDbEntity
  8
0
  6
Continuous
 62
     7
370
    25
100
AcDbLine
 10
-2.9123537923
 20
-172.0185306884
 30
0.0
 11
-3.9123537923
 21
-172.0185306884
 31
0.0
  0
ARC
  5
CD
330
1F
100
AcDbEntity
  8
0
  6
Continuous
 62
     7
370
    25
100
AcDbCircle
 10
-2.9123537923
 20
-188.31458332
 30
0.0
 40
16.29605263157897
100
AcDbArc
 50
54.6770773841
 51
90.0
  0
ARC
  5
CE
330
1F
100
AcDbEntity
  8
0
  6
Continuous
 62
     7
370
    25
100
AcDbCircle
 10
-2.9123537923
 20
-186.7224780569
 30
0.0
 40
16.29605263157896
100
AcDbArc
 50
270.0
 51
305.3229226158
  0
LINE
  5
CF
330
1F
100
AcDbEntity
  8
0
  6
Continuous
 62
     7
370
    25
100
AcDbLine
 10
-283.9123537923
 20
-205.0957437183
 30
0.0
 11
-282.9123537923
 21
-205.0957437183
 31
0.0
  0
LINE
  5
D0
330
1F
100
AcDbEntity
  8
0
  6
Continuous
 62
     7
370
    25
100
AcDbLine
 10
-282.9123537923
 20
-174.0957437183
 30
0.0
 11
-283.9123537923
 21
-174.0957437183
 31
0.0
  0
ARC
  5
D1
330
1F
100
AcDbEntity
  8
0
  6
Continuous
 62
     7
370
    25
100
AcDbCircle
 10
-282.9123537923
 20
-190.3917963499
 30
0.0
 40
16.29605263157896
100
AcDbArc
 50
45.1144932694
 51
90.0
  0
ARC
  5
D2
330
1F
100
AcDbEntity
  8
0
  6
Continuous
 62
     7
370
    25
100
AcDbCircle
 10
-282.9123537923
 20
-188.7996910867
 30
0.0
 40
16.29605263157896
100
AcDbArc
 50
270.0
 51
314.8855067306
  0
ARC
  5
D3
330
1F
100
AcDbEntity
  8
0
  6
Continuous
 62
     7
370
    25
100
AcDbCircle
 10
777.0876462077
 20
-42.8192006744
 30
0.0
 40
16.29605263157896
100
AcDbArc
 50
45.1144932694
 51
90.0
  0
ARC
  5
D4
330
1F
100
AcDbEntity
  8
0
  6
Continuous
 62
     7
370
    25
100
AcDbCircle
 10
777.0876462077
 20
-41.2270954112
 30
0.0
 40
16.29605263157896
100
AcDbArc
 50
270.0
 51
314.8855067306
  0
LINE
  5
D5
330
1F
100
AcDbEntity
  8
0
  6
Continuous
 62
     7
370
    25
100
AcDbLine
 10
776.0876462077
 20
-57.5231480428
 30
0.0
 11
777.0876462077
 21
-57.5231480428
 31
0.0
  0
LINE
  5
D6
330
1F
100
AcDbEntity
  8
0
  6
Continuous
 62
     7
370
    25
100
AcDbLine
 10
777.0876462077
 20
-26.5231480428
 30
0.0
 11
776.0876462077
 21
-26.5231480428
 31
0.0
  0
LINE
  5
D7
330
1F
100
AcDbEntity
  8
0
  6
Continuous
 62
     7
370
    25
100
AcDbLine
 10
776.0876462077
 20
321.4860866767
 30
0.0
 11
777.0876462077
 21
321.4860866767
 31
0.0
  0
LINE
  5
D8
330
1F
100
AcDbEntity
  8
0
  6
Continuous
 62
     7
370
    25
100
AcDbLine
 10
777.0876462077
 20
352.4860866767
 30
0.0
 11
776.0876462077
 21
352.4860866767
 31
0.0
  0
ARC
  5
D9
330
1F
100
AcDbEntity
  8
0
  6
Continuous
 62
     7
370
    25
100
AcDbCircle
 10
777.0876462077
 20
336.1900340451
 30
0.0
 40
16.29605263157896
100
AcDbArc
 50
45.1144932694
 51
90.0
  0
ARC
  5
DA
330
1F
100
AcDbEntity
  8
0
  6
Continuous
 62
     7
370
    25
100
AcDbCircle
 10
777.0876462077
 20
337.7821393083
 30
0.0
 40
16.29605263157896
100
AcDbArc
 50
270.0
 51
314.8855067306
  0
ARC
  5
DB
330
1F
100
AcDbEntity
  8
0
  6
Continuous
 62
     7
370
    25
100
AcDbCircle
 10
-54.9123537923
 20
483.2775219431
 30
0.0
 40
16.29605263157896
100
AcDbArc
 50
225.1144932694
 51
270.0
  0
ARC
  5
DC
330
1F
100
AcDbEntity
  8
0
  6
Continuous
 62
     7
370
    25
100
AcDbCircle
 10
-54.9123537923
 20
481.68541668
 30
0.0
 40
16.29605263157896
100
AcDbArc
 50
90.0
 51
134.8855067306
  0
LINE
  5
DD
330
1F
100
AcDbEntity
  8
0
  6
Continuous
 62
     7
370
    25
100
AcDbLine
 10
-53.9123537923
 20
497.9814693116
 30
0.0
 11
-54.9123537923
 21
497.9814693116
 31
0.0
  0
LINE
  5
DE
330
1F
100
AcDbEntity
  8
0
  6
Continuous
 62
     7
370
    25
100
AcDbLine
 10
-54.9123537923
 20
466.9814693116
 30
0.0
 11
-53.9123537923
 21
466.9814693116
 31
0.0
  0
ARC
  5
DF
330
1F
100
AcDbEntity
  8
0
  6
Continuous
 62
     7
370
    25
100
AcDbCircle
 10
445.0876462077
 20
483.2775219431
 30
0.0
 40
16.29605263157896
100
AcDbArc
 50
234.6770773841
 51
270.0
  0
ARC
  5
E0
330
1F
100
AcDbEntity
  8
0
  6
Continuous
 62
     7
370
    25
100
AcDbCircle
 10
445.0876462077
 20
481.68541668
 30
0.0
 40
16.29605263157902
100
AcDbArc
 50
90.0
 51
125.3229226158
  0
LINE
  5
E1
330
1F
100
AcDbEntity
  8
0
  6
Continuous
 62
     7
370
    25
100
AcDbLine
 10
446.0876462077
 20
497.9814693116
 30
0.0
 11
445.0876462077
 21
497.9814693116
 31
0.0
  0
LINE
  5
E2
330
1F
100
AcDbEntity
  8
0
  6
Continuous
 62
     7
370
    25
100
AcDbLine
 10
445.0876462077
 20
466.9814693116
 30
0.0
 11
446.0876462077
 21
466.9814693116
 31
0.0
  0
ARC
  5
E3
330
1F
100
AcDbEntity
  8
0
  6
Continuous
 62
     7
370
    25
100
AcDbCircle
 10
497.0876462077
 20
383.5661883775
 30
0.0
 40
16.296052631579
100
AcDbArc
 50
45.1144932694
 51
90.0
  0
ARC
  5
E4
330
1F
100
AcDbEntity
  8
0
  6
Continuous
 62
     7
370
    25
100
AcDbCircle
 10
497.0876462077
 20
385.1582936406
 30
0.0
 40
16.29605263157902
100
AcDbArc
 50
270.0
 51
314.8855067306
  0
LINE
  5
E5
330
1F
100
AcDbEntity
  8
0
  6
Continuous
 62
     7
370
    25
100
AcDbLine
 10
496.0876462077
 20
368.862241009
 30
0.0
 11
497.0876462077
 21
368.862241009
 31
0.0
  0
LINE
  5
E6
330
1F
100
AcDbEntity
  8
0
  6
Continuous
 62
     7
370
    25
100
AcDbLine
 10
497.0876462077
 20
399.862241009
 30
0.0
 11
496.0876462077
 21
399.862241009
 31
0.0
  0
ARC
  5
E7
330
1F
100
AcDbEntity
  8
0
  6
Continuous
 62
     7
370
    25
100
AcDbCircle
 10
-54.9123537923
 20
-186.7224780569
 30
0.0
 40
16.29605263157896
100
AcDbArc
 50
225.1144932694
 51
270.0
  0
ARC
  5
E8
330
1F
100
AcDbEntity
  8
0
  6
Continuous
 62
     7
370
    25
100
AcDbCircle
 10
-54.9123537923
 20
-188.31458332
 30
0.0
 40
16.29605263157896
100
AcDbArc
 50
90.0
 51
134.8855067306
  0
LINE
  5
E9
330
1F
100
AcDbEntity
  8
0
  6
Continuous
 62
     7
370
    25
100
AcDbLine
 10
-53.9123537923
 20
-172.0185306884
 30
0.0
 11
-54.9123537923
 21
-172.0185306884
 31
0.0
  0
LINE
  5
EA
330
1F
100
AcDbEntity
  8
0
  6
Continuous
 62
     7
370
    25
100
AcDbLine
 10
-54.9123537923
 20
-203.0185306884
 30
0.0
 11
-53.9123537923
 21
-203.0185306884
 31
0.0
  0
ARC
  5
EB
330
1F
100
AcDbEntity
  8
0
  6
Continuous
 62
     7
370
    25
100
AcDbCircle
 10
497.0876462077
 20
146.68541668
 30
0.0
 40
16.296052631579
100
AcDbArc
 50
45.1144932694
 51
90.0
  0
ARC
  5
EC
330
1F
100
AcDbEntity
  8
0
  6
Continuous
 62
     7
370
    25
100
AcDbCircle
 10
497.0876462077
 20
148.2775219431
 30
0.0
 40
16.296052631579
100
AcDbArc
 50
270.0
 51
314.8855067306
  0
LINE
  5
ED
330
1F
100
AcDbEntity
  8
0
  6
Continuous
 62
     7
370
    25
100
AcDbLine
 10
496.0876462077
 20
131.9814693116
 30
0.0
 11
497.0876462077
 21
131.9814693116
 31
0.0
  0
LINE
  5
EE
330
1F
100
AcDbEntity
  8
0
  6
Continuous
 62
     7
370
    25
100
AcDbLine
 10
497.0876462077
 20
162.9814693116
 30
0.0
 11
496.0876462077
 21
162.9814693116
 31
0.0
  0
ARC
  5
EF
330
1F
100
AcDbEntity
  8
0
  6
Continuous
 62
     7
370
    25
100
AcDbCircle
 10
725.0876462077
 20
-188.7996910867
 30
0.0
 40
16.29605263157896
100
AcDbArc
 50
225.1144932694
 51
270.0
  0
ARC
  5
F0
330
1F
100
AcDbEntity
  8
0
  6
Continuous
 62
     7
370
    25
100
AcDbCircle
 10
725.0876462077
 20
-190.3917963499
 30
0.0
 40
16.29605263157896
100
AcDbArc
 50
90.0
 51
134.8855067306
  0
LINE
  5
F1
330
1F
100
AcDbEntity
  8
0
  6
Continuous
 62
     7
370
    25
100
AcDbLine
 10
726.0876462077
 20
-174.0957437183
 30
0.0
 11
725.0876462077
 21
-174.0957437183
 31
0.0
  0
LINE
  5
F2
330
1F
100
AcDbEntity
  8
0
  6
Continuous
 62
     7
370
    25
100
AcDbLine
 10
725.0876462077
 20
-205.0957437183
 30
0.0
 11
726.0876462077
 21
-205.0957437183
 31
0.0
  0
LWPOLYLINE
  5
F3
330
1F
100
AcDbEntity
  8
0
  6
Continuous
 62
     7
370
    25
100
AcDbPolyline
 90
        3
 70
   128
 43
0.0
 10
777.8376462077
 20
529.5586823414
 10
776.7686229037
 20
528.3747470227
 10
776.0876462077
 20
527.4808007757
  0
ARC
  5
F4
330
1F
100
AcDbEntity
  8
0
  6
Continuous
 62
     7
370
    25
100
AcDbCircle
 10
787.7915935761
 20
518.0586823414
 30
0.0
 40
16.29605263157896
100
AcDbArc
 50
0.0
 51
44.8855067306
  0
LINE
  5
F5
330
1F
100
AcDbEntity
  8
0
  6
Continuous
 62
     7
370
    25
100
AcDbLine
 10
804.0876462077
 20
517.0586823414
 30
0.0
 11
804.0876462077
 21
518.0586823414
 31
0.0
  0
LINE
  5
F6
330
1F
100
AcDbEntity
  8
0
  6
Continuous
 62
     7
370
    25
100
AcDbLine
 10
496.0876462077
 20
-203.0185306884
 30
0.0
 11
497.0876462077
 21
-203.0185306884
 31
0.0
  0
LINE
  5
F7
330
1F
100
AcDbEntity
  8
0
  6
Continuous
 62
     7
370
    25
100
AcDbLine
 10
497.0876462077
 20
-172.0185306884
 30
0.0
 11
496.0876462077
 21
-172.0185306884
 31
0.0
  0
ARC
  5
F8
330
1F
100
AcDbEntity
  8
0
  6
Continuous
 62
     7
370
    25
100
AcDbCircle
 10
497.0876462077
 20
-188.31458332
 30
0.0
 40
16.29605263157898
100
AcDbArc
 50
45.1144932694
 51
90.0
  0
ARC
  5
F9
330
1F
100
AcDbEntity
  8
0
  6
Continuous
 62
     7
370
    25
100
AcDbCircle
 10
497.0876462077
 20
-186.7224780569
 30
0.0
 40
16.29605263157898
100
AcDbArc
 50
270.0
 51
314.8855067306
  0
ARC
  5
FA
330
1F
100
AcDbEntity
  8
0
  6
Continuous
 62
     7
370
    25
100
AcDbCircle
 10
-300.6163011607
 20
518.0586823414
 30
0.0
 40
16.29605263157903
100
AcDbArc
 50
135.1144932694
 51
180.0
  0
ARC
  5
FB
330
1F
100
AcDbEntity
  8
0
  6
Continuous
 62
     7
370
    25
100
AcDbCircle
 10
-302.2084064239
 20
518.0586823414
 30
0.0
 40
16.29605263157903
100
AcDbArc
 50
0.0
 51
44.8855067306
  0
LINE
  5
FC
330
1F
100
AcDbEntity
  8
0
  6
Continuous
 62
     7
370
    25
100
AcDbLine
 10
-285.9123537923
 20
517.0586823414
 30
0.0
 11
-285.9123537923
 21
518.0586823414
 31
0.0
  0
LINE
  5
FD
330
1F
100
AcDbEntity
  8
0
  6
Continuous
 62
     7
370
    25
100
AcDbLine
 10
-316.9123537923
 20
518.0586823414
 30
0.0
 11
-316.9123537923
 21
517.0586823414
 31
0.0
  0
ARC
  5
FE
330
1F
100
AcDbEntity
  8
0
  6
Continuous
 62
     7
370
    25
100
AcDbCircle
 10
742.7915935761
 20
-223.0957437183
 30
0.0
 40
16.29605263157898
100
AcDbArc
 50
315.1144932694
 51
0.0
  0
ARC
  5
FF
330
1F
100
AcDbEntity
  8
0
  6
Continuous
 62
     7
370
    25
100
AcDbCircle
 10
744.3836988393
 20
-223.0957437183
 30
0.0
 40
16.29605263157898
100
AcDbArc
 50
180.0
 51
224.8855067306
  0
LINE
  5
100
330
1F
100
AcDbEntity
  8
0
  6
Continuous
 62
     7
370
    25
100
AcDbLine
 10
728.0876462077
 20
-222.0957437183
 30
0.0
 11
728.0876462077
 21
-223.0957437183
 31
0.0
  0
LINE
  5
101
330
1F
100
AcDbEntity
  8
0
  6
Continuous
 62
     7
370
    25
100
AcDbLine
 10
759.0876462077
 20
-223.0957437183
 30
0.0
 11
759.0876462077
 21
-222.0957437183
 31
0.0
  0
LINE
  5
102
330
1F
100
AcDbEntity
  8
0
  6
Continuous
 62
     7
370
    25
100
AcDbLine
 10
804.0876462077
 20
-223.0957437183
 30
0.0
 11
804.0876462077
 21
-222.0957437183
 31
0.0
  0
ARC
  5
103
330
1F
100
AcDbEntity
  8
0
  6
Continuous
 62
     7
370
    25
100
AcDbCircle
 10
787.7915935761
 20
-223.0957437183
 30
0.0
 40
16.29605263157896
100
AcDbArc
 50
315.1144932694
 51
0.0
  0
LWPOLYLINE
  5
104
330
1F
100
AcDbEntity
  8
0
  6
Continuous
 62
     7
370
    25
100
AcDbPolyline
 90
        3
 70
   128
 43
0.0
 10
776.0876462077
 20
-232.5178621525
 10
776.7686229037
 20
-233.4118083996
 10
777.8376462077
 20
-234.5957437183
  0
ARC
  5
105
330
1F
100
AcDbEntity
  8
0
  6
Continuous
 62
     7
370
    25
100
AcDbCircle
 10
445.0876462077
 20
-186.7224780569
 30
0.0
 40
16.29605263157896
100
AcDbArc
 50
234.6770773842
 51
270.0
  0
ARC
  5
106
330
1F
100
AcDbEntity
  8
0
  6
Continuous
 62
     7
370
    25
100
AcDbCircle
 10
445.0876462077
 20
-188.31458332
 30
0.0
 40
16.29605263157896
100
AcDbArc
 50
90.0
 51
125.3229226159
  0
LINE
  5
107
330
1F
100
AcDbEntity
  8
0
  6
Continuous
 62
     7
370
    25
100
AcDbLine
 10
446.0876462077
 20
-172.0185306884
 30
0.0
 11
445.0876462077
 21
-172.0185306884
 31
0.0
  0
LINE
  5
108
330
1F
100
AcDbEntity
  8
0
  6
Continuous
 62
     7
370
    25
100
AcDbLine
 10
445.0876462077
 20
-203.0185306884
 30
0.0
 11
446.0876462077
 21
-203.0185306884
 31
0.0
  0
LINE
  5
109
330
1F
100
AcDbEntity
  8
0
  6
Continuous
 62
     7
370
    25
100
AcDbLine
 10
-361.9123537923
 20
-222.0957437183
 30
0.0
 11
-361.9123537923
 21
-223.0957437183
 31
0.0
  0
LWPOLYLINE
  5
10A
330
1F
100
AcDbEntity
  8
0
  6
Continuous
 62
     7
370
    25
100
AcDbPolyline
 90
        3
 70
   128
 43
0.0
 10
-335.6623537923
 20
-234.5957437183
 10
-334.5933304883
 20
-233.4118083996
 10
-333.9123537923
 20
-232.5178621525
  0
ARC
  5
10B
330
1F
100
AcDbEntity
  8
0
  6
Continuous
 62
     7
370
    25
100
AcDbCircle
 10
-345.6163011607
 20
-223.0957437183
 30
0.0
 40
16.29605263157902
100
AcDbArc
 50
180.0
 51
224.8855067306
  0
ARC
  5
10C
330
1F
100
AcDbEntity
  8
0
  6
Continuous
 62
     7
370
    25
100
AcDbCircle
 10
-2.9123537923
 20
481.68541668
 30
0.0
 40
16.29605263157902
100
AcDbArc
 50
54.6770773842
 51
90.0
  0
ARC
  5
10D
330
1F
100
AcDbEntity
  8
0
  6
Continuous
 62
     7
370
    25
100
AcDbCircle
 10
-2.9123537923
 20
483.2775219431
 30
0.0
 40
16.29605263157896
100
AcDbArc
 50
270.0
 51
305.3229226159
  0
LINE
  5
10E
330
1F
100
AcDbEntity
  8
0
  6
Continuous
 62
     7
370
    25
100
AcDbLine
 10
-3.9123537923
 20
466.9814693116
 30
0.0
 11
-2.9123537923
 21
466.9814693116
 31
0.0
  0
LINE
  5
10F
330
1F
100
AcDbEntity
  8
0
  6
Continuous
 62
     7
370
    25
100
AcDbLine
 10
-2.9123537923
 20
497.9814693116
 30
0.0
 11
-3.9123537923
 21
497.9814693116
 31
0.0
  0
LINE
  5
110
330
1F
100
AcDbEntity
  8
0
  6
Continuous
 62
     7
370
    25
100
AcDbLine
 10
-240.9123537923
 20
517.0586823414
 30
0.0
 11
-240.9123537923
 21
518.0586823414
 31
0.0
  0
LINE
  5
111
330
1F
100
AcDbEntity
  8
0
  6
Continuous
 62
     7
370
    25
100
AcDbLine
 10
-271.9123537923
 20
518.0586823414
 30
0.0
 11
-271.9123537923
 21
517.0586823414
 31
0.0
  0
ARC
  5
112
330
1F
100
AcDbEntity
  8
0
  6
Continuous
 62
     7
370
    25
100
AcDbCircle
 10
-255.6163011607
 20
518.0586823414
 30
0.0
 40
16.29605263157902
100
AcDbArc
 50
135.1144932694
 51
180.0
  0
ARC
  5
113
330
1F
100
AcDbEntity
  8
0
  6
Continuous
 62
     7
370
    25
100
AcDbCircle
 10
-257.2084064239
 20
518.0586823414
 30
0.0
 40
16.29605263157902
100
AcDbArc
 50
0.0
 51
44.8855067306
  0
LINE
  5
114
330
1F
100
AcDbEntity
  8
0
  6
Continuous
 62
     7
370
    25
100
AcDbLine
 10
-283.9123537923
 20
469.0586823414
 30
0.0
 11
-282.9123537923
 21
469.0586823414
 31
0.0
  0
LINE
  5
115
330
1F
100
AcDbEntity
  8
0
  6
Continuous
 62
     7
370
    25
100
AcDbLine
 10
-282.9123537923
 20
500.0586823414
 30
0.0
 11
-283.9123537923
 21
500.0586823414
 31
0.0
  0
ARC
  5
116
330
1F
100
AcDbEntity
  8
0
  6
Continuous
 62
     7
370
    25
100
AcDbCircle
 10
-282.9123537923
 20
483.7626297098
 30
0.0
 40
16.29605263157896
100
AcDbArc
 50
45.1144932694
 51
90.0
  0
ARC
  5
117
330
1F
100
AcDbEntity
  8
0
  6
Continuous
 62
     7
370
    25
100
AcDbCircle
 10
-282.9123537923
 20
485.354734973
 30
0.0
 40
16.29605263157896
100
AcDbArc
 50
270.0
 51
314.8855067306
  0
ARC
  5
118
330
1F
100
AcDbEntity
  8
0
  6
Continuous
 62
     7
370
    25
100
AcDbCircle
 10
-302.2084064239
 20
-223.0957437183
 30
0.0
 40
16.29605263157906
100
AcDbArc
 50
315.1144932694
 51
0.0
  0
ARC
  5
119
330
1F
100
AcDbEntity
  8
0
  6
Continuous
 62
     7
370
    25
100
AcDbCircle
 10
-300.6163011607
 20
-223.0957437183
 30
0.0
 40
16.29605263157906
100
AcDbArc
 50
180.0
 51
224.8855067306
  0
LINE
  5
11A
330
1F
100
AcDbEntity
  8
0
  6
Continuous
 62
     7
370
    25
100
AcDbLine
 10
-316.9123537923
 20
-222.0957437183
 30
0.0
 11
-316.9123537923
 21
-223.0957437183
 31
0.0
  0
LINE
  5
11B
330
1F
100
AcDbEntity
  8
0
  6
Continuous
 62
     7
370
    25
100
AcDbLine
 10
-285.9123537923
 20
-223.0957437183
 30
0.0
 11
-285.9123537923
 21
-222.0957437183
 31
0.0
  0
LINE
  5
11C
330
1F
100
AcDbEntity
  8
0
  6
Continuous
 62
     7
370
    25
100
AcDbLine
 10
-271.9123537923
 20
-222.0957437183
 30
0.0
 11
-271.9123537923
 21
-223.0957437183
 31
0.0
  0
LINE
  5
11D
330
1F
100
AcDbEntity
  8
0
  6
Continuous
 62
     7
370
    25
100
AcDbLine
 10
-240.9123537923
 20
-223.0957437183
 30
0.0
 11
-240.9123537923
 21
-222.0957437183
 31
0.0
  0
ARC
  5
11E
330
1F
100
AcDbEntity
  8
0
  6
Continuous
 62
     7
370
    25
100
AcDbCircle
 10
-257.2084064239
 20
-223.0957437183
 30
0.0
 40
16.29605263157903
100
AcDbArc
 50
315.1144932694
 51
0.0
  0
ARC
  5
11F
330
1F
100
AcDbEntity
  8
0
  6
Continuous
 62
     7
370
    25
100
AcDbCircle
 10
-255.6163011607
 20
-223.0957437183
 30
0.0
 40
16.29605263157903
100
AcDbArc
 50
180.0
 51
224.8855067306
  0
ARC
  5
120
330
1F
100
AcDbEntity
  8
0
  6
Continuous
 62
     7
370
    25
100
AcDbCircle
 10
744.3836988393
 20
518.0586823414
 30
0.0
 40
16.29605263157896
100
AcDbArc
 50
135.1144932694
 51
180.0
  0
ARC
  5
121
330
1F
100
AcDbEntity
  8
0
  6
Continuous
 62
     7
370
    25
100
AcDbCircle
 10
742.7915935761
 20
518.0586823414
 30
0.0
 40
16.29605263157896
100
AcDbArc
 50
0.0
 51
44.8855067306
  0
LINE
  5
122
330
1F
100
AcDbEntity
  8
0
  6
Continuous
 62
     7
370
    25
100
AcDbLine
 10
759.0876462077
 20
517.0586823414
 30
0.0
 11
759.0876462077
 21
518.0586823414
 31
0.0
  0
LINE
  5
123
330
1F
100
AcDbEntity
  8
0
  6
Continuous
 62
     7
370
    25
100
AcDbLine
 10
728.0876462077
 20
518.0586823414
 30
0.0
 11
728.0876462077
 21
517.0586823414
 31
0.0
  0
LINE
  5
124
330
1F
100
AcDbEntity
  8
0
  6
Continuous
 62
     7
370
    25
100
AcDbLine
 10
714.0876462077
 20
517.0586823414
 30
0.0
 11
714.0876462077
 21
518.0586823414
 31
0.0
  0
LINE
  5
125
330
1F
100
AcDbEntity
  8
0
  6
Continuous
 62
     7
370
    25
100
AcDbLine
 10
683.0876462077
 20
518.0586823414
 30
0.0
 11
683.0876462077
 21
517.0586823414
 31
0.0
  0
ARC
  5
126
330
1F
100
AcDbEntity
  8
0
  6
Continuous
 62
     7
370
    25
100
AcDbCircle
 10
699.3836988393
 20
518.0586823414
 30
0.0
 40
16.29605263157896
100
AcDbArc
 50
135.1144932694
 51
180.0
  0
ARC
  5
127
330
1F
100
AcDbEntity
  8
0
  6
Continuous
 62
     7
370
    25
100
AcDbCircle
 10
697.7915935761
 20
518.0586823414
 30
0.0
 40
16.29605263157896
100
AcDbArc
 50
0.0
 51
44.8855067306
  0
ARC
  5
128
330
1F
100
AcDbEntity
  8
0
  6
Continuous
 62
     7
370
    25
100
AcDbCircle
 10
-345.6163011607
 20
518.0586823414
 30
0.0
 40
16.296052631579
100
AcDbArc
 50
135.1144932694
 51
180.0
  0
LWPOLYLINE
  5
129
330
1F
100
AcDbEntity
  8
0
  6
Continuous
 62
     7
370
    25
100
AcDbPolyline
 90
        3
 70
   128
 43
0.0
 10
-333.9123537923
 20
527.4808007757
 10
-334.5933304883
 20
528.3747470227
 10
-335.6623537923
 20
529.5586823414
  0
LINE
  5
12A
330
1F
100
AcDbEntity
  8
0
  6
Continuous
 62
     7
370
    25
100
AcDbLine
 10
-361.9123537923
 20
518.0586823414
 30
0.0
 11
-361.9123537923
 21
517.0586823414
 31
0.0
  0
LINE
  5
12B
330
1F
100
AcDbEntity
  8
0
  6
Continuous
 62
     7
370
    25
100
AcDbLine
 10
-335.6623537923
 20
529.5586823414
 30
0.0
 11
-335.6623537923
 21
530.1438323603
 31
0.0
  0
LINE
  5
12C
330
1F
100
AcDbEntity
  8
0
  6
Continuous
 62
     7
370
    25
100
AcDbLine
 10
-357.1623537923
 20
530.1438323603
 30
0.0
 11
-357.1623537923
 21
529.5586823414
 31
0.0
  0
ARC
  5
12D
330
1F
100
AcDbEntity
  8
0
  6
Continuous
 62
     7
370
    25
100
AcDbCircle
 10
-336.2623537923
 20
530.1438323603
 30
0.0
 40
0.6000000000000796
100
AcDbArc
 50
0.0
 51
69.724946748
  0
ARC
  5
12E
330
1F
100
AcDbEntity
  8
0
  6
Continuous
 62
     7
370
    25
100
AcDbCircle
 10
-356.5623537923
 20
530.1438323603
 30
0.0
 40
0.6000000000000227
100
AcDbArc
 50
110.275053252
 51
180.0
  0
ARC
  5
12F
330
1F
100
AcDbEntity
  8
0
  6
Continuous
 62
     7
370
    25
100
AcDbCircle
 10
-346.4123537923
 20
502.6680573414
 30
0.0
 40
29.89062499999991
100
AcDbArc
 50
69.724946748
 51
110.275053252
  0
LINE
  5
130
330
1F
100
AcDbEntity
  8
0
  6
Continuous
 62
     7
370
    25
100
AcDbLine
 10
-245.6623537923
 20
529.5586823414
 30
0.0
 11
-245.6623537923
 21
530.1438323603
 31
0.0
  0
LINE
  5
131
330
1F
100
AcDbEntity
  8
0
  6
Continuous
 62
     7
370
    25
100
AcDbLine
 10
-267.1623537923
 20
530.1438323603
 30
0.0
 11
-267.1623537923
 21
529.5586823414
 31
0.0
  0
ARC
  5
132
330
1F
100
AcDbEntity
  8
0
  6
Continuous
 62
     7
370
    25
100
AcDbCircle
 10
-246.2623537923
 20
530.1438323603
 30
0.0
 40
0.6000000000000512
100
AcDbArc
 50
0.0
 51
69.724946748
  0
ARC
  5
133
330
1F
100
AcDbEntity
  8
0
  6
Continuous
 62
     7
370
    25
100
AcDbCircle
 10
-266.5623537923
 20
530.1438323603
 30
0.0
 40
0.6000000000000227
100
AcDbArc
 50
110.275053252
 51
180.0
  0
ARC
  5
134
330
1F
100
AcDbEntity
  8
0
  6
Continuous
 62
     7
370
    25
100
AcDbCircle
 10
-256.4123537923
 20
502.6680573414
 30
0.0
 40
29.89062499999991
100
AcDbArc
 50
69.724946748
 51
110.275053252
  0
ARC
  5
135
330
1F
100
AcDbEntity
  8
0
  6
Continuous
 62
     7
370
    25
100
AcDbCircle
 10
-291.2623537923
 20
530.1438323603
 30
0.0
 40
0.6000000000000796
100
AcDbArc
 50
0.0
 51
69.724946748
  0
ARC
  5
136
330
1F
100
AcDbEntity
  8
0
  6
Continuous
 62
     7
370
    25
100
AcDbCircle
 10
-311.5623537923
 20
530.1438323603
 30
0.0
 40
0.6000000000000796
100
AcDbArc
 50
110.275053252
 51
180.0
  0
LINE
  5
137
330
1F
100
AcDbEntity
  8
0
  6
Continuous
 62
     7
370
    25
100
AcDbLine
 10
-290.6623537923
 20
529.5586823414
 30
0.0
 11
-290.6623537923
 21
530.1438323603
 31
0.0
  0
LINE
  5
138
330
1F
100
AcDbEntity
  8
0
  6
Continuous
 62
     7
370
    25
100
AcDbLine
 10
-312.1623537923
 20
530.1438323603
 30
0.0
 11
-312.1623537923
 21
529.5586823414
 31
0.0
  0
ARC
  5
139
330
1F
100
AcDbEntity
  8
0
  6
Continuous
 62
     7
370
    25
100
AcDbCircle
 10
-301.4123537923
 20
502.6680573414
 30
0.0
 40
29.89062499999991
100
AcDbArc
 50
69.724946748
 51
110.275053252
  0
LINE
  5
13A
330
1F
100
AcDbEntity
  8
0
  6
Continuous
 62
     7
370
    25
100
AcDbLine
 10
508.5876462077
 20
-100.1493023859
 30
0.0
 11
509.1727962266
 21
-100.1493023859
 31
0.0
  0
LINE
  5
13B
330
1F
100
AcDbEntity
  8
0
  6
Continuous
 62
     7
370
    25
100
AcDbLine
 10
509.1727962266
 20
-78.6493023859
 30
0.0
 11
508.5876462077
 21
-78.6493023859
 31
0.0
  0
ARC
  5
13C
330
1F
100
AcDbEntity
  8
0
  6
Continuous
 62
     7
370
    25
100
AcDbCircle
 10
509.1727962266
 20
-99.5493023859
 30
0.0
 40
0.6000000000000227
100
AcDbArc
 50
270.0
 51
339.724946748
  0
ARC
  5
13D
330
1F
100
AcDbEntity
  8
0
  6
Continuous
 62
     7
370
    25
100
AcDbCircle
 10
509.1727962266
 20
-79.2493023859
 30
0.0
 40
0.6000000000000227
100
AcDbArc
 50
20.275053252
 51
90.0
  0
ARC
  5
13E
330
1F
100
AcDbEntity
  8
0
  6
Continuous
 62
     7
370
    25
100
AcDbCircle
 10
481.6970212077
 20
-89.3993023859
 30
0.0
 40
29.89062499999988
100
AcDbArc
 50
339.724946748
 51
20.275053252
  0
LINE
  5
13F
330
1F
100
AcDbEntity
  8
0
  6
Continuous
 62
     7
370
    25
100
AcDbLine
 10
709.3376462077
 20
529.5586823414
 30
0.0
 11
709.3376462077
 21
530.1438323603
 31
0.0
  0
LINE
  5
140
330
1F
100
AcDbEntity
  8
0
  6
Continuous
 62
     7
370
    25
100
AcDbLine
 10
687.8376462077
 20
530.1438323603
 30
0.0
 11
687.8376462077
 21
529.5586823414
 31
0.0
  0
ARC
  5
141
330
1F
100
AcDbEntity
  8
0
  6
Continuous
 62
     7
370
    25
100
AcDbCircle
 10
708.7376462077
 20
530.1438323603
 30
0.0
 40
0.6000000000000227
100
AcDbArc
 50
0.0
 51
69.724946748
  0
ARC
  5
142
330
1F
100
AcDbEntity
  8
0
  6
Continuous
 62
     7
370
    25
100
AcDbCircle
 10
688.4376462077
 20
530.1438323603
 30
0.0
 40
0.6000000000000227
100
AcDbArc
 50
110.275053252
 51
180.0
  0
ARC
  5
143
330
1F
100
AcDbEntity
  8
0
  6
Continuous
 62
     7
370
    25
100
AcDbCircle
 10
698.5876462077
 20
502.6680573414
 30
0.0
 40
29.89062499999991
100
AcDbArc
 50
69.724946748
 51
110.275053252
  0
LINE
  5
144
330
1F
100
AcDbEntity
  8
0
  6
Continuous
 62
     7
370
    25
100
AcDbLine
 10
687.8376462077
 20
-234.5957437183
 30
0.0
 11
687.8376462077
 21
-235.1808937372
 31
0.0
  0
LINE
  5
145
330
1F
100
AcDbEntity
  8
0
  6
Continuous
 62
     7
370
    25
100
AcDbLine
 10
709.3376462077
 20
-235.1808937372
 30
0.0
 11
709.3376462077
 21
-234.5957437183
 31
0.0
  0
ARC
  5
146
330
1F
100
AcDbEntity
  8
0
  6
Continuous
 62
     7
370
    25
100
AcDbCircle
 10
688.4376462077
 20
-235.1808937372
 30
0.0
 40
0.6000000000000227
100
AcDbArc
 50
180.0
 51
249.724946748
  0
ARC
  5
147
330
1F
100
AcDbEntity
  8
0
  6
Continuous
 62
     7
370
    25
100
AcDbCircle
 10
708.7376462077
 20
-235.1808937372
 30
0.0
 40
0.6000000000000227
100
AcDbArc
 50
290.275053252
 51
0.0
  0
ARC
  5
148
330
1F
100
AcDbEntity
  8
0
  6
Continuous
 62
     7
370
    25
100
AcDbCircle
 10
698.5876462077
 20
-207.7051187183
 30
0.0
 40
29.89062499999999
100
AcDbArc
 50
249.724946748
 51
290.275053252
  0
LINE
  5
149
330
1F
100
AcDbEntity
  8
0
  6
Continuous
 62
     7
370
    25
100
AcDbLine
 10
713.5876462077
 20
495.3086823414
 30
0.0
 11
713.0024961888
 21
495.3086823414
 31
0.0
  0
LINE
  5
14A
330
1F
100
AcDbEntity
  8
0
  6
Continuous
 62
     7
370
    25
100
AcDbLine
 10
713.0024961888
 20
473.8086823414
 30
0.0
 11
713.5876462077
 21
473.8086823414
 31
0.0
  0
ARC
  5
14B
330
1F
100
AcDbEntity
  8
0
  6
Continuous
 62
     7
370
    25
100
AcDbCircle
 10
713.0024961888
 20
494.7086823414
 30
0.0
 40
0.6000000000001572
100
AcDbArc
 50
90.0
 51
159.724946748
  0
ARC
  5
14C
330
1F
100
AcDbEntity
  8
0
  6
Continuous
 62
     7
370
    25
100
AcDbCircle
 10
713.0024961888
 20
474.4086823414
 30
0.0
 40
0.6000000000001178
100
AcDbArc
 50
200.275053252
 51
270.0
  0
ARC
  5
14D
330
1F
100
AcDbEntity
  8
0
  6
Continuous
 62
     7
370
    25
100
AcDbCircle
 10
740.4782712077
 20
484.5586823414
 30
0.0
 40
29.89062500000007
100
AcDbArc
 50
159.724946748
 51
200.275053252
  0
ARC
  5
14E
330
1F
100
AcDbEntity
  8
0
  6
Continuous
 62
     7
370
    25
100
AcDbCircle
 10
753.7376462077
 20
530.1438323603
 30
0.0
 40
0.6000000000000227
100
AcDbArc
 50
0.0
 51
69.724946748
  0
ARC
  5
14F
330
1F
100
AcDbEntity
  8
0
  6
Continuous
 62
     7
370
    25
100
AcDbCircle
 10
733.4376462077
 20
530.1438323603
 30
0.0
 40
0.6000000000001364
100
AcDbArc
 50
110.275053252
 51
180.0
  0
LINE
  5
150
330
1F
100
AcDbEntity
  8
0
  6
Continuous
 62
     7
370
    25
100
AcDbLine
 10
754.3376462077
 20
529.5586823414
 30
0.0
 11
754.3376462077
 21
530.1438323603
 31
0.0
  0
LINE
  5
151
330
1F
100
AcDbEntity
  8
0
  6
Continuous
 62
     7
370
    25
100
AcDbLine
 10
732.8376462077
 20
530.1438323603
 30
0.0
 11
732.8376462077
 21
529.5586823414
 31
0.0
  0
ARC
  5
152
330
1F
100
AcDbEntity
  8
0
  6
Continuous
 62
     7
370
    25
100
AcDbCircle
 10
743.5876462077
 20
502.6680573414
 30
0.0
 40
29.89062499999991
100
AcDbArc
 50
69.724946748
 51
110.275053252
  0
LINE
  5
153
330
1F
100
AcDbEntity
  8
0
  6
Continuous
 62
     7
370
    25
100
AcDbLine
 10
788.5876462077
 20
-52.7731480428
 30
0.0
 11
789.1727962266
 21
-52.7731480428
 31
0.0
  0
LINE
  5
154
330
1F
100
AcDbEntity
  8
0
  6
Continuous
 62
     7
370
    25
100
AcDbLine
 10
789.1727962266
 20
-31.2731480428
 30
0.0
 11
788.5876462077
 21
-31.2731480428
 31
0.0
  0
ARC
  5
155
330
1F
100
AcDbEntity
  8
0
  6
Continuous
 62
     7
370
    25
100
AcDbCircle
 10
789.1727962266
 20
-52.1731480428
 30
0.0
 40
0.6000000000000185
100
AcDbArc
 50
270.0
 51
339.724946748
  0
ARC
  5
156
330
1F
100
AcDbEntity
  8
0
  6
Continuous
 62
     7
370
    25
100
AcDbCircle
 10
789.1727962266
 20
-31.8731480428
 30
0.0
 40
0.6000000000000185
100
AcDbArc
 50
20.275053252
 51
90.0
  0
ARC
  5
157
330
1F
100
AcDbEntity
  8
0
  6
Continuous
 62
     7
370
    25
100
AcDbCircle
 10
761.6970212077
 20
-42.0231480428
 30
0.0
 40
29.89062499999994
100
AcDbArc
 50
339.724946748
 51
20.275053252
  0
ARC
  5
158
330
1F
100
AcDbEntity
  8
0
  6
Continuous
 62
     7
370
    25
100
AcDbCircle
 10
-346.9975038112
 20
-31.8731480428
 30
0.0
 40
0.5999999999999872
100
AcDbArc
 50
90.0
 51
159.724946748
  0
ARC
  5
159
330
1F
100
AcDbEntity
  8
0
  6
Continuous
 62
     7
370
    25
100
AcDbCircle
 10
-346.9975038112
 20
-52.1731480428
 30
0.0
 40
0.5999999999999872
100
AcDbArc
 50
200.275053252
 51
270.0
  0
LINE
  5
15A
330
1F
100
AcDbEntity
  8
0
  6
Continuous
 62
     7
370
    25
100
AcDbLine
 10
-346.4123537923
 20
-31.2731480428
 30
0.0
 11
-346.9975038112
 21
-31.2731480428
 31
0.0
  0
LINE
  5
15B
330
1F
100
AcDbEntity
  8
0
  6
Continuous
 62
     7
370
    25
100
AcDbLine
 10
-346.9975038112
 20
-52.7731480428
 30
0.0
 11
-346.4123537923
 21
-52.7731480428
 31
0.0
  0
ARC
  5
15C
330
1F
100
AcDbEntity
  8
0
  6
Continuous
 62
     7
370
    25
100
AcDbCircle
 10
-319.5217287923
 20
-42.0231480428
 30
0.0
 40
29.89062499999993
100
AcDbArc
 50
159.724946748
 51
200.275053252
  0
LINE
  5
15D
330
1F
100
AcDbEntity
  8
0
  6
Continuous
 62
     7
370
    25
100
AcDbLine
 10
-346.4123537818
 20
347.7360866767
 30
0.0
 11
-346.9975038112
 21
347.7360866767
 31
0.0
  0
LINE
  5
15E
330
1F
100
AcDbEntity
  8
0
  6
Continuous
 62
     7
370
    25
100
AcDbLine
 10
-346.9975038112
 20
326.2360866767
 30
0.0
 11
-346.4123537923
 21
326.2360866767
 31
0.0
  0
ARC
  5
15F
330
1F
100
AcDbEntity
  8
0
  6
Continuous
 62
     7
370
    25
100
AcDbCircle
 10
-346.9975038112
 20
347.1360866767
 30
0.0
 40
0.6000000000000308
100
AcDbArc
 50
90.0
 51
159.724946748
  0
ARC
  5
160
330
1F
100
AcDbEntity
  8
0
  6
Continuous
 62
     7
370
    25
100
AcDbCircle
 10
-346.9975038112
 20
326.8360866767
 30
0.0
 40
0.6000000000000308
100
AcDbArc
 50
200.275053252
 51
270.0
  0
ARC
  5
161
330
1F
100
AcDbEntity
  8
0
  6
Continuous
 62
     7
370
    25
100
AcDbCircle
 10
-319.5217287923
 20
336.9860866767
 30
0.0
 40
29.89062499999999
100
AcDbArc
 50
159.724946748
 51
200.275053252
  0
LINE
  5
162
330
1F
100
AcDbEntity
  8
0
  6
Continuous
 62
     7
370
    25
100
AcDbLine
 10
-357.1623537923
 20
-234.5957437183
 30
0.0
 11
-357.1623537923
 21
-235.1808937372
 31
0.0
  0
LINE
  5
163
330
1F
100
AcDbEntity
  8
0
  6
Continuous
 62
     7
370
    25
100
AcDbLine
 10
-335.6623537923
 20
-235.1808937372
 30
0.0
 11
-335.6623537923
 21
-234.5957437183
 31
0.0
  0
ARC
  5
164
330
1F
100
AcDbEntity
  8
0
  6
Continuous
 62
     7
370
    25
100
AcDbCircle
 10
-356.5623537923
 20
-235.1808937372
 30
0.0
 40
0.6000000000000308
100
AcDbArc
 50
180.0
 51
249.724946748
  0
ARC
  5
165
330
1F
100
AcDbEntity
  8
0
  6
Continuous
 62
     7
370
    25
100
AcDbCircle
 10
-336.2623537923
 20
-235.1808937372
 30
0.0
 40
0.6000000000000796
100
AcDbArc
 50
290.275053252
 51
0.0
  0
ARC
  5
166
330
1F
100
AcDbEntity
  8
0
  6
Continuous
 62
     7
370
    25
100
AcDbCircle
 10
-346.4123537923
 20
-207.7051187183
 30
0.0
 40
29.89062499999999
100
AcDbArc
 50
249.724946748
 51
290.275053252
  0
ARC
  5
167
330
1F
100
AcDbEntity
  8
0
  6
Continuous
 62
     7
370
    25
100
AcDbCircle
 10
778.4376462077
 20
-235.1808937372
 30
0.0
 40
0.6000000000000112
100
AcDbArc
 50
180.0
 51
249.724946748
  0
ARC
  5
168
330
1F
100
AcDbEntity
  8
0
  6
Continuous
 62
     7
370
    25
100
AcDbCircle
 10
798.7376462077
 20
-235.1808937372
 30
0.0
 40
0.6000000000000112
100
AcDbArc
 50
290.275053252
 51
0.0
  0
LINE
  5
169
330
1F
100
AcDbEntity
  8
0
  6
Continuous
 62
     7
370
    25
100
AcDbLine
 10
777.8376462077
 20
-234.5957437183
 30
0.0
 11
777.8376462077
 21
-235.1808937372
 31
0.0
  0
LINE
  5
16A
330
1F
100
AcDbEntity
  8
0
  6
Continuous
 62
     7
370
    25
100
AcDbLine
 10
799.3376462077
 20
-235.1808937372
 30
0.0
 11
799.3376462077
 21
-234.5957437183
 31
0.0
  0
ARC
  5
16B
330
1F
100
AcDbEntity
  8
0
  6
Continuous
 62
     7
370
    25
100
AcDbCircle
 10
788.5876462077
 20
-207.7051187183
 30
0.0
 40
29.89062499999995
100
AcDbArc
 50
249.724946748
 51
290.275053252
  0
ARC
  5
16C
330
1F
100
AcDbEntity
  8
0
  6
Continuous
 62
     7
370
    25
100
AcDbCircle
 10
733.4376462077
 20
-235.1808937372
 30
0.0
 40
0.6000000000001364
100
AcDbArc
 50
180.0
 51
249.724946748
  0
ARC
  5
16D
330
1F
100
AcDbEntity
  8
0
  6
Continuous
 62
     7
370
    25
100
AcDbCircle
 10
753.7376462077
 20
-235.1808937372
 30
0.0
 40
0.6000000000000505
100
AcDbArc
 50
290.275053252
 51
0.0
  0
LINE
  5
16E
330
1F
100
AcDbEntity
  8
0
  6
Continuous
 62
     7
370
    25
100
AcDbLine
 10
732.8376462077
 20
-234.5957437183
 30
0.0
 11
732.8376462077
 21
-235.1808937372
 31
0.0
  0
LINE
  5
16F
330
1F
100
AcDbEntity
  8
0
  6
Continuous
 62
     7
370
    25
100
AcDbLine
 10
754.3376462077
 20
-235.1808937372
 30
0.0
 11
754.3376462077
 21
-234.5957437183
 31
0.0
  0
ARC
  5
170
330
1F
100
AcDbEntity
  8
0
  6
Continuous
 62
     7
370
    25
100
AcDbCircle
 10
743.5876462077
 20
-207.7051187183
 30
0.0
 40
29.89062499999999
100
AcDbArc
 50
249.724946748
 51
290.275053252
  0
ARC
  5
171
330
1F
100
AcDbEntity
  8
0
  6
Continuous
 62
     7
370
    25
100
AcDbCircle
 10
-266.5623537923
 20
-235.1808937372
 30
0.0
 40
0.6000000000000308
100
AcDbArc
 50
180.0
 51
249.724946748
  0
ARC
  5
172
330
1F
100
AcDbEntity
  8
0
  6
Continuous
 62
     7
370
    25
100
AcDbCircle
 10
-246.2623537923
 20
-235.1808937372
 30
0.0
 40
0.6000000000000512
100
AcDbArc
 50
290.275053252
 51
0.0
  0
LINE
  5
173
330
1F
100
AcDbEntity
  8
0
  6
Continuous
 62
     7
370
    25
100
AcDbLine
 10
-267.1623537923
 20
-234.5957437183
 30
0.0
 11
-267.1623537923
 21
-235.1808937372
 31
0.0
  0
LINE
  5
174
330
1F
100
AcDbEntity
  8
0
  6
Continuous
 62
     7
370
    25
100
AcDbLine
 10
-245.6623537923
 20
-235.1808937372
 30
0.0
 11
-245.6623537923
 21
-234.5957437183
 31
0.0
  0
ARC
  5
175
330
1F
100
AcDbEntity
  8
0
  6
Continuous
 62
     7
370
    25
100
AcDbCircle
 10
-256.4123537923
 20
-207.7051187183
 30
0.0
 40
29.89062499999999
100
AcDbArc
 50
249.724946748
 51
290.275053252
  0
LINE
  5
176
330
1F
100
AcDbEntity
  8
0
  6
Continuous
 62
     7
370
    25
100
AcDbLine
 10
-312.1623537923
 20
-234.5957437183
 30
0.0
 11
-312.1623537923
 21
-235.1808937372
 31
0.0
  0
LINE
  5
177
330
1F
100
AcDbEntity
  8
0
  6
Continuous
 62
     7
370
    25
100
AcDbLine
 10
-290.6623537923
 20
-235.1808937372
 30
0.0
 11
-290.6623537923
 21
-234.5957437183
 31
0.0
  0
ARC
  5
178
330
1F
100
AcDbEntity
  8
0
  6
Continuous
 62
     7
370
    25
100
AcDbCircle
 10
-311.5623537923
 20
-235.1808937372
 30
0.0
 40
0.6000000000000796
100
AcDbArc
 50
180.0
 51
249.724946748
  0
ARC
  5
179
330
1F
100
AcDbEntity
  8
0
  6
Continuous
 62
     7
370
    25
100
AcDbCircle
 10
-291.2623537923
 20
-235.1808937372
 30
0.0
 40
0.6000000000000796
100
AcDbArc
 50
290.275053252
 51
0.0
  0
ARC
  5
17A
330
1F
100
AcDbEntity
  8
0
  6
Continuous
 62
     7
370
    25
100
AcDbCircle
 10
-301.4123537923
 20
-207.7051187183
 30
0.0
 40
29.89062499999999
100
AcDbArc
 50
249.724946748
 51
290.275053252
  0
ARC
  5
17B
330
1F
100
AcDbEntity
  8
0
  6
Continuous
 62
     7
370
    25
100
AcDbCircle
 10
798.7376462077
 20
530.1438323603
 30
0.0
 40
0.599999999999909
100
AcDbArc
 50
0.0
 51
69.724946748
  0
ARC
  5
17C
330
1F
100
AcDbEntity
  8
0
  6
Continuous
 62
     7
370
    25
100
AcDbCircle
 10
778.4376462077
 20
530.1438323603
 30
0.0
 40
0.599999999999909
100
AcDbArc
 50
110.275053252
 51
180.0
  0
LINE
  5
17D
330
1F
100
AcDbEntity
  8
0
  6
Continuous
 62
     7
370
    25
100
AcDbLine
 10
799.3376462077
 20
529.5586823414
 30
0.0
 11
799.3376462077
 21
530.1438323603
 31
0.0
  0
LINE
  5
17E
330
1F
100
AcDbEntity
  8
0
  6
Continuous
 62
     7
370
    25
100
AcDbLine
 10
777.8376462077
 20
530.1438323603
 30
0.0
 11
777.8376462077
 21
529.5586823414
 31
0.0
  0
ARC
  5
17F
330
1F
100
AcDbEntity
  8
0
  6
Continuous
 62
     7
370
    25
100
AcDbCircle
 10
788.5876462077
 20
502.6680573414
 30
0.0
 40
29.89062499999987
100
AcDbArc
 50
69.724946748
 51
110.275053252
  0
LINE
  5
180
330
1F
100
AcDbEntity
  8
0
  6
Continuous
 62
     7
370
    25
100
AcDbLine
 10
713.5876462077
 20
-178.8457437183
 30
0.0
 11
713.0024961888
 21
-178.8457437183
 31
0.0
  0
LINE
  5
181
330
1F
100
AcDbEntity
  8
0
  6
Continuous
 62
     7
370
    25
100
AcDbLine
 10
713.0024961888
 20
-200.3457437183
 30
0.0
 11
713.5876462077
 21
-200.3457437183
 31
0.0
  0
ARC
  5
182
330
1F
100
AcDbEntity
  8
0
  6
Continuous
 62
     7
370
    25
100
AcDbCircle
 10
713.0024961888
 20
-179.4457437183
 30
0.0
 40
0.6000000000001277
100
AcDbArc
 50
90.0
 51
159.724946748
  0
ARC
  5
183
330
1F
100
AcDbEntity
  8
0
  6
Continuous
 62
     7
370
    25
100
AcDbCircle
 10
713.0024961888
 20
-199.7457437183
 30
0.0
 40
0.6000000000001178
100
AcDbArc
 50
200.275053252
 51
270.0
  0
ARC
  5
184
330
1F
100
AcDbEntity
  8
0
  6
Continuous
 62
     7
370
    25
100
AcDbCircle
 10
740.4782712077
 20
-189.5957437183
 30
0.0
 40
29.89062500000004
100
AcDbArc
 50
159.724946748
 51
200.275053252
  0
ARC
  5
185
330
1F
100
AcDbEntity
  8
0
  6
Continuous
 62
     7
370
    25
100
AcDbCircle
 10
-270.8272037734
 20
-199.7457437183
 30
0.0
 40
0.6000000000000112
100
AcDbArc
 50
270.0
 51
339.724946748
  0
ARC
  5
186
330
1F
100
AcDbEntity
  8
0
  6
Continuous
 62
     7
370
    25
100
AcDbCircle
 10
-270.8272037734
 20
-179.4457437183
 30
0.0
 40
0.600000000000021
100
AcDbArc
 50
20.275053252
 51
90.0
  0
LINE
  5
187
330
1F
100
AcDbEntity
  8
0
  6
Continuous
 62
     7
370
    25
100
AcDbLine
 10
-271.4123537923
 20
-200.3457437183
 30
0.0
 11
-270.8272037734
 21
-200.3457437183
 31
0.0
  0
LINE
  5
188
330
1F
100
AcDbEntity
  8
0
  6
Continuous
 62
     7
370
    25
100
AcDbLine
 10
-270.8272037734
 20
-178.8457437183
 30
0.0
 11
-271.4123537923
 21
-178.8457437183
 31
0.0
  0
ARC
  5
189
330
1F
100
AcDbEntity
  8
0
  6
Continuous
 62
     7
370
    25
100
AcDbCircle
 10
-298.3029787923
 20
-189.5957437183
 30
0.0
 40
29.89062499999998
100
AcDbArc
 50
339.724946748
 51
20.275053252
  0
LINE
  5
18A
330
1F
100
AcDbEntity
  8
0
  6
Continuous
 62
     7
370
    25
100
AcDbLine
 10
508.5876462077
 20
-198.2685306884
 30
0.0
 11
509.1727962266
 21
-198.2685306884
 31
0.0
  0
LINE
  5
18B
330
1F
100
AcDbEntity
  8
0
  6
Continuous
 62
     7
370
    25
100
AcDbLine
 10
509.1727962266
 20
-176.7685306884
 30
0.0
 11
508.5876462077
 21
-176.7685306884
 31
0.0
  0
ARC
  5
18C
330
1F
100
AcDbEntity
  8
0
  6
Continuous
 62
     7
370
    25
100
AcDbCircle
 10
509.1727962266
 20
-197.6685306884
 30
0.0
 40
0.5999999999999943
100
AcDbArc
 50
270.0
 51
339.724946748
  0
ARC
  5
18D
330
1F
100
AcDbEntity
  8
0
  6
Continuous
 62
     7
370
    25
100
AcDbCircle
 10
509.1727962266
 20
-177.3685306884
 30
0.0
 40
0.5999999999999943
100
AcDbArc
 50
20.275053252
 51
90.0
  0
ARC
  5
18E
330
1F
100
AcDbEntity
  8
0
  6
Continuous
 62
     7
370
    25
100
AcDbCircle
 10
481.6970212077
 20
-187.5185306884
 30
0.0
 40
29.89062499999989
100
AcDbArc
 50
339.724946748
 51
20.275053252
  0
ARC
  5
18F
330
1F
100
AcDbEntity
  8
0
  6
Continuous
 62
     7
370
    25
100
AcDbCircle
 10
509.1727962266
 20
137.3314693116
 30
0.0
 40
0.5999999999999943
100
AcDbArc
 50
270.0
 51
339.724946748
  0
ARC
  5
190
330
1F
100
AcDbEntity
  8
0
  6
Continuous
 62
     7
370
    25
100
AcDbCircle
 10
509.1727962266
 20
157.6314693116
 30
0.0
 40
0.5999999999999943
100
AcDbArc
 50
20.275053252
 51
90.0
  0
LINE
  5
191
330
1F
100
AcDbEntity
  8
0
  6
Continuous
 62
     7
370
    25
100
AcDbLine
 10
508.5876462077
 20
136.7314693116
 30
0.0
 11
509.1727962266
 21
136.7314693116
 31
0.0
  0
LINE
  5
192
330
1F
100
AcDbEntity
  8
0
  6
Continuous
 62
     7
370
    25
100
AcDbLine
 10
509.1727962266
 20
158.2314693116
 30
0.0
 11
508.5876462077
 21
158.2314693116
 31
0.0
  0
ARC
  5
193
330
1F
100
AcDbEntity
  8
0
  6
Continuous
 62
     7
370
    25
100
AcDbCircle
 10
481.6970212077
 20
147.4814693116
 30
0.0
 40
29.89062499999988
100
AcDbArc
 50
339.724946748
 51
20.275053252
  0
LINE
  5
194
330
1F
100
AcDbEntity
  8
0
  6
Continuous
 62
     7
370
    25
100
AcDbLine
 10
-66.4123537923
 20
-176.7685306884
 30
0.0
 11
-66.9975038112
 21
-176.7685306884
 31
0.0
  0
LINE
  5
195
330
1F
100
AcDbEntity
  8
0
  6
Continuous
 62
     7
370
    25
100
AcDbLine
 10
-66.9975038112
 20
-198.2685306884
 30
0.0
 11
-66.4123537923
 21
-198.2685306884
 31
0.0
  0
ARC
  5
196
330
1F
100
AcDbEntity
  8
0
  6
Continuous
 62
     7
370
    25
100
AcDbCircle
 10
-66.9975038112
 20
-177.3685306884
 30
0.0
 40
0.6000000000000343
100
AcDbArc
 50
90.0
 51
159.724946748
  0
ARC
  5
197
330
1F
100
AcDbEntity
  8
0
  6
Continuous
 62
     7
370
    25
100
AcDbCircle
 10
-66.9975038112
 20
-197.6685306884
 30
0.0
 40
0.6000000000000343
100
AcDbArc
 50
200.275053252
 51
270.0
  0
ARC
  5
198
330
1F
100
AcDbEntity
  8
0
  6
Continuous
 62
     7
370
    25
100
AcDbCircle
 10
-39.5217287923
 20
-187.5185306884
 30
0.0
 40
29.89062499999996
100
AcDbArc
 50
159.724946748
 51
180.0
  0
ARC
  5
199
330
1F
100
AcDbEntity
  8
0
  6
Continuous
 62
     7
370
    25
100
AcDbCircle
 10
-39.5217287923
 20
-187.5185306884
 30
0.0
 40
29.89062499999996
100
AcDbArc
 50
180.0
 51
200.275053252
  0
LINE
  5
19A
330
1F
100
AcDbEntity
  8
0
  6
Continuous
 62
     7
370
    25
100
AcDbLine
 10
508.5876462077
 20
471.7314693116
 30
0.0
 11
509.1727962266
 21
471.7314693116
 31
0.0
  0
LINE
  5
19B
330
1F
100
AcDbEntity
  8
0
  6
Continuous
 62
     7
370
    25
100
AcDbLine
 10
509.1727962266
 20
493.2314693116
 30
0.0
 11
508.5876462077
 21
493.2314693116
 31
0.0
  0
ARC
  5
19C
330
1F
100
AcDbEntity
  8
0
  6
Continuous
 62
     7
370
    25
100
AcDbCircle
 10
509.1727962266
 20
472.3314693116
 30
0.0
 40
0.6000000000000796
100
AcDbArc
 50
270.0
 51
339.724946748
  0
ARC
  5
19D
330
1F
100
AcDbEntity
  8
0
  6
Continuous
 62
     7
370
    25
100
AcDbCircle
 10
509.1727962266
 20
492.6314693116
 30
0.0
 40
0.5999999999999659
100
AcDbArc
 50
20.275053252
 51
90.0
  0
ARC
  5
19E
330
1F
100
AcDbEntity
  8
0
  6
Continuous
 62
     7
370
    25
100
AcDbCircle
 10
481.6970212077
 20
482.4814693116
 30
0.0
 40
29.89062499999991
100
AcDbArc
 50
339.724946748
 51
20.275053252
  0
LINE
  5
19F
330
1F
100
AcDbEntity
  8
0
  6
Continuous
 62
     7
370
    25
100
AcDbLine
 10
508.5876462077
 20
373.612241009
 30
0.0
 11
509.1727962266
 21
373.612241009
 31
0.0
  0
LINE
  5
1A0
330
1F
100
AcDbEntity
  8
0
  6
Continuous
 62
     7
370
    25
100
AcDbLine
 10
509.1727962266
 20
395.112241009
 30
0.0
 11
508.5876462077
 21
395.112241009
 31
0.0
  0
ARC
  5
1A1
330
1F
100
AcDbEntity
  8
0
  6
Continuous
 62
     7
370
    25
100
AcDbCircle
 10
509.1727962266
 20
374.212241009
 30
0.0
 40
0.6000000000000227
100
AcDbArc
 50
270.0
 51
339.724946748
  0
ARC
  5
1A2
330
1F
100
AcDbEntity
  8
0
  6
Continuous
 62
     7
370
    25
100
AcDbCircle
 10
509.1727962266
 20
394.512241009
 30
0.0
 40
0.5999999999999659
100
AcDbArc
 50
20.275053252
 51
90.0
  0
ARC
  5
1A3
330
1F
100
AcDbEntity
  8
0
  6
Continuous
 62
     7
370
    25
100
AcDbCircle
 10
481.6970212077
 20
384.362241009
 30
0.0
 40
29.89062499999991
100
AcDbArc
 50
339.724946748
 51
20.275053252
  0
LINE
  5
1A4
330
1F
100
AcDbEntity
  8
0
  6
Continuous
 62
     7
370
    25
100
AcDbLine
 10
-66.4123537923
 20
395.112241009
 30
0.0
 11
-66.9975038112
 21
395.112241009
 31
0.0
  0
LINE
  5
1A5
330
1F
100
AcDbEntity
  8
0
  6
Continuous
 62
     7
370
    25
100
AcDbLine
 10
-66.9975038112
 20
373.612241009
 30
0.0
 11
-66.4123537923
 21
373.612241009
 31
0.0
  0
ARC
  5
1A6
330
1F
100
AcDbEntity
  8
0
  6
Continuous
 62
     7
370
    25
100
AcDbCircle
 10
-66.9975038112
 20
394.512241009
 30
0.0
 40
0.6000000000000048
100
AcDbArc
 50
90.0
 51
159.724946748
  0
ARC
  5
1A7
330
1F
100
AcDbEntity
  8
0
  6
Continuous
 62
     7
370
    25
100
AcDbCircle
 10
-66.9975038112
 20
374.212241009
 30
0.0
 40
0.6000000000000442
100
AcDbArc
 50
200.275053252
 51
270.0
  0
ARC
  5
1A8
330
1F
100
AcDbEntity
  8
0
  6
Continuous
 62
     7
370
    25
100
AcDbCircle
 10
-39.5217287923
 20
384.362241009
 30
0.0
 40
29.89062499999996
100
AcDbArc
 50
159.724946748
 51
180.0
  0
ARC
  5
1A9
330
1F
100
AcDbEntity
  8
0
  6
Continuous
 62
     7
370
    25
100
AcDbCircle
 10
-39.5217287923
 20
384.362241009
 30
0.0
 40
29.89062499999998
100
AcDbArc
 50
180.0
 51
200.275053252
  0
ARC
  5
1AA
330
1F
100
AcDbEntity
  8
0
  6
Continuous
 62
     7
370
    25
100
AcDbCircle
 10
-66.9975038112
 20
157.6314693116
 30
0.0
 40
0.6000000000000245
100
AcDbArc
 50
90.0
 51
159.724946748
  0
ARC
  5
1AB
330
1F
100
AcDbEntity
  8
0
  6
Continuous
 62
     7
370
    25
100
AcDbCircle
 10
-66.9975038112
 20
137.3314693116
 30
0.0
 40
0.6000000000000245
100
AcDbArc
 50
200.275053252
 51
270.0
  0
LINE
  5
1AC
330
1F
100
AcDbEntity
  8
0
  6
Continuous
 62
     7
370
    25
100
AcDbLine
 10
-66.4123537923
 20
158.2314693116
 30
0.0
 11
-66.9975038112
 21
158.2314693116
 31
0.0
  0
LINE
  5
1AD
330
1F
100
AcDbEntity
  8
0
  6
Continuous
 62
     7
370
    25
100
AcDbLine
 10
-66.9975038112
 20
136.7314693116
 30
0.0
 11
-66.4123537923
 21
136.7314693116
 31
0.0
  0
ARC
  5
1AE
330
1F
100
AcDbEntity
  8
0
  6
Continuous
 62
     7
370
    25
100
AcDbCircle
 10
-39.5217287923
 20
147.4814693116
 30
0.0
 40
29.89062499999996
100
AcDbArc
 50
159.724946748
 51
180.0
  0
ARC
  5
1AF
330
1F
100
AcDbEntity
  8
0
  6
Continuous
 62
     7
370
    25
100
AcDbCircle
 10
-39.5217287923
 20
147.4814693116
 30
0.0
 40
29.89062499999996
100
AcDbArc
 50
180.0
 51
200.275053252
  0
LINE
  5
1B0
330
1F
100
AcDbEntity
  8
0
  6
Continuous
 62
     7
370
    25
100
AcDbLine
 10
-66.4123537923
 20
-78.6493023859
 30
0.0
 11
-66.9975038112
 21
-78.6493023859
 31
0.0
  0
LINE
  5
1B1
330
1F
100
AcDbEntity
  8
0
  6
Continuous
 62
     7
370
    25
100
AcDbLine
 10
-66.9975038112
 20
-100.1493023859
 30
0.0
 11
-66.4123537923
 21
-100.1493023859
 31
0.0
  0
ARC
  5
1B2
330
1F
100
AcDbEntity
  8
0
  6
Continuous
 62
     7
370
    25
100
AcDbCircle
 10
-66.9975038112
 20
-79.2493023859
 30
0.0
 40
0.6000000000000343
100
AcDbArc
 50
90.0
 51
159.724946748
  0
ARC
  5
1B3
330
1F
100
AcDbEntity
  8
0
  6
Continuous
 62
     7
370
    25
100
AcDbCircle
 10
-66.9975038112
 20
-99.5493023859
 30
0.0
 40
0.6000000000000343
100
AcDbArc
 50
200.275053252
 51
270.0
  0
ARC
  5
1B4
330
1F
100
AcDbEntity
  8
0
  6
Continuous
 62
     7
370
    25
100
AcDbCircle
 10
-39.5217287923
 20
-89.3993023859
 30
0.0
 40
29.89062499999996
100
AcDbArc
 50
159.724946748
 51
180.0
  0
ARC
  5
1B5
330
1F
100
AcDbEntity
  8
0
  6
Continuous
 62
     7
370
    25
100
AcDbCircle
 10
-39.5217287923
 20
-89.3993023859
 30
0.0
 40
29.89062499999996
100
AcDbArc
 50
180.0
 51
200.275053252
  0
LINE
  5
1B6
330
1F
100
AcDbEntity
  8
0
  6
Continuous
 62
     7
370
    25
100
AcDbLine
 10
788.5876462077
 20
326.2360866767
 30
0.0
 11
789.1727962266
 21
326.2360866767
 31
0.0
  0
LINE
  5
1B7
330
1F
100
AcDbEntity
  8
0
  6
Continuous
 62
     7
370
    25
100
AcDbLine
 10
789.1727962266
 20
347.7360866767
 30
0.0
 11
788.5876462077
 21
347.7360866767
 31
0.0
  0
ARC
  5
1B8
330
1F
100
AcDbEntity
  8
0
  6
Continuous
 62
     7
370
    25
100
AcDbCircle
 10
789.1727962266
 20
326.8360866767
 30
0.0
 40
0.6000000000001374
100
AcDbArc
 50
270.0
 51
339.724946748
  0
ARC
  5
1B9
330
1F
100
AcDbEntity
  8
0
  6
Continuous
 62
     7
370
    25
100
AcDbCircle
 10
789.1727962266
 20
347.1360866767
 30
0.0
 40
0.6000000000001374
100
AcDbArc
 50
20.275053252
 51
90.0
  0
ARC
  5
1BA
330
1F
100
AcDbEntity
  8
0
  6
Continuous
 62
     7
370
    25
100
AcDbCircle
 10
761.6970212077
 20
336.9860866767
 30
0.0
 40
29.89062499999994
100
AcDbArc
 50
339.724946748
 51
20.275053252
  0
LINE
  5
1BB
330
1F
100
AcDbEntity
  8
0
  6
Continuous
 62
     7
370
    25
100
AcDbLine
 10
-66.4123537923
 20
493.2314693116
 30
0.0
 11
-66.9975038112
 21
493.2314693116
 31
0.0
  0
LINE
  5
1BC
330
1F
100
AcDbEntity
  8
0
  6
Continuous
 62
     7
370
    25
100
AcDbLine
 10
-66.9975038112
 20
471.7314693116
 30
0.0
 11
-66.4123537923
 21
471.7314693116
 31
0.0
  0
ARC
  5
1BD
330
1F
100
AcDbEntity
  8
0
  6
Continuous
 62
     7
370
    25
100
AcDbCircle
 10
-66.9975038112
 20
492.6314693116
 30
0.0
 40
0.6000000000000048
100
AcDbArc
 50
90.0
 51
159.724946748
  0
ARC
  5
1BE
330
1F
100
AcDbEntity
  8
0
  6
Continuous
 62
     7
370
    25
100
AcDbCircle
 10
-66.9975038112
 20
472.3314693116
 30
0.0
 40
0.6000000000000796
100
AcDbArc
 50
200.275053252
 51
270.0
  0
ARC
  5
1BF
330
1F
100
AcDbEntity
  8
0
  6
Continuous
 62
     7
370
    25
100
AcDbCircle
 10
-39.5217287923
 20
482.4814693116
 30
0.0
 40
29.89062499999996
100
AcDbArc
 50
159.724946748
 51
180.0
  0
ARC
  5
1C0
330
1F
100
AcDbEntity
  8
0
  6
Continuous
 62
     7
370
    25
100
AcDbCircle
 10
-39.5217287923
 20
482.4814693116
 30
0.0
 40
29.89062499999998
100
AcDbArc
 50
180.0
 51
200.275053252
  0
LINE
  5
1C1
330
1F
100
AcDbEntity
  8
0
  6
Continuous
 62
     7
370
    25
100
AcDbLine
 10
-271.4123537923
 20
473.8086823414
 30
0.0
 11
-270.8272037734
 21
473.8086823414
 31
0.0
  0
LINE
  5
1C2
330
1F
100
AcDbEntity
  8
0
  6
Continuous
 62
     7
370
    25
100
AcDbLine
 10
-270.8272037734
 20
495.3086823414
 30
0.0
 11
-271.4123537923
 21
495.3086823414
 31
0.0
  0
ARC
  5
1C3
330
1F
100
AcDbEntity
  8
0
  6
Continuous
 62
     7
370
    25
100
AcDbCircle
 10
-270.8272037734
 20
474.4086823414
 30
0.0
 40
0.6000000000000112
100
AcDbArc
 50
270.0
 51
339.724946748
  0
ARC
  5
1C4
330
1F
100
AcDbEntity
  8
0
  6
Continuous
 62
     7
370
    25
100
AcDbCircle
 10
-270.8272037734
 20
494.7086823414
 30
0.0
 40
0.6000000000000796
100
AcDbArc
 50
20.275053252
 51
90.0
  0
ARC
  5
1C5
330
1F
100
AcDbEntity
  8
0
  6
Continuous
 62
     7
370
    25
100
AcDbCircle
 10
-298.3029787923
 20
484.5586823414
 30
0.0
 40
29.89062500000001
100
AcDbArc
 50
339.724946748
 51
20.275053252
  0
ARC
  5
1C6
330
1F
100
AcDbEntity
  8
0
  6
Continuous
 62
     7
370
    25
100
AcDbCircle
 10
865.5876462077
 20
-219.0957437183
 30
0.0
 40
3.0
100
AcDbArc
 50
270.0
 51
0.0
  0
ARC
  5
1C7
330
1F
100
AcDbEntity
  8
0
  6
Continuous
 62
     7
370
    25
100
AcDbCircle
 10
621.5876462077
 20
-219.0957437183
 30
0.0
 40
3.0
100
AcDbArc
 50
180.0
 51
270.0
  0
LINE
  5
1C8
330
1F
100
AcDbEntity
  8
0
  6
Continuous
 62
     7
370
    25
100
AcDbLine
 10
618.5876462077
 20
-210.0957437183
 30
0.0
 11
618.5876462077
 21
-219.0957437183
 31
0.0
  0
LINE
  5
1C9
330
1F
100
AcDbEntity
  8
0
  6
Continuous
 62
     7
370
    25
100
AcDbLine
 10
868.5876462077
 20
-219.0957437183
 30
0.0
 11
868.5876462077
 21
-210.0957437183
 31
0.0
  0
ARC
  5
1CA
330
1F
100
AcDbEntity
  8
0
  6
Continuous
 62
     7
370
    25
100
AcDbCircle
 10
865.5876462077
 20
-210.0957437183
 30
0.0
 40
3.0
100
AcDbArc
 50
0.0
 51
90.0
  0
ARC
  5
1CB
330
1F
100
AcDbEntity
  8
0
  6
Continuous
 62
     7
370
    25
100
AcDbCircle
 10
621.5876462077
 20
-210.0957437183
 30
0.0
 40
3.0
100
AcDbArc
 50
90.0
 51
180.0
  0
LINE
  5
1CC
330
1F
100
AcDbEntity
  8
0
  6
Continuous
 62
     7
370
    25
100
AcDbLine
 10
-176.4123537923
 20
505.0586823414
 30
0.0
 11
-176.4123537923
 21
514.0586823414
 31
0.0
  0
LINE
  5
1CD
330
1F
100
AcDbEntity
  8
0
  6
Continuous
 62
     7
370
    25
100
AcDbLine
 10
-426.4123537923
 20
514.0586823414
 30
0.0
 11
-426.4123537923
 21
505.0586823414
 31
0.0
  0
ARC
  5
1CE
330
1F
100
AcDbEntity
  8
0
  6
Continuous
 62
     7
370
    25
100
AcDbCircle
 10
-423.4123537923
 20
505.0586823414
 30
0.0
 40
3.0
100
AcDbArc
 50
180.0
 51
270.0
  0
ARC
  5
1CF
330
1F
100
AcDbEntity
  8
0
  6
Continuous
 62
     7
370
    25
100
AcDbCircle
 10
-179.4123537923
 20
505.0586823414
 30
0.0
 40
3.0
100
AcDbArc
 50
270.0
 51
0.0
  0
ARC
  5
1D0
330
1F
100
AcDbEntity
  8
0
  6
Continuous
 62
     7
370
    25
100
AcDbCircle
 10
-423.4123537923
 20
514.0586823414
 30
0.0
 40
3.0
100
AcDbArc
 50
90.0
 51
180.0
  0
ARC
  5
1D1
330
1F
100
AcDbEntity
  8
0
  6
Continuous
 62
     7
370
    25
100
AcDbCircle
 10
-179.4123537923
 20
514.0586823414
 30
0.0
 40
3.0
100
AcDbArc
 50
0.0
 51
90.0
  0
ARC
  5
1D2
330
1F
100
AcDbEntity
  8
0
  6
Continuous
 62
     7
370
    25
100
AcDbCircle
 10
621.5876462077
 20
505.0586823414
 30
0.0
 40
3.0
100
AcDbArc
 50
180.0
 51
270.0
  0
ARC
  5
1D3
330
1F
100
AcDbEntity
  8
0
  6
Continuous
 62
     7
370
    25
100
AcDbCircle
 10
865.5876462077
 20
505.0586823414
 30
0.0
 40
3.0
100
AcDbArc
 50
270.0
 51
0.0
  0
ARC
  5
1D4
330
1F
100
AcDbEntity
  8
0
  6
Continuous
 62
     7
370
    25
100
AcDbCircle
 10
621.5876462077
 20
514.0586823414
 30
0.0
 40
3.0
100
AcDbArc
 50
90.0
 51
180.0
  0
ARC
  5
1D5
330
1F
100
AcDbEntity
  8
0
  6
Continuous
 62
     7
370
    25
100
AcDbCircle
 10
865.5876462077
 20
514.0586823414
 30
0.0
 40
3.0
100
AcDbArc
 50
0.0
 51
90.0
  0
LINE
  5
1D6
330
1F
100
AcDbEntity
  8
0
  6
Continuous
 62
     7
370
    25
100
AcDbLine
 10
868.5876462077
 20
505.0586823414
 30
0.0
 11
868.5876462077
 21
514.0586823414
 31
0.0
  0
LINE
  5
1D7
330
1F
100
AcDbEntity
  8
0
  6
Continuous
 62
     7
370
    25
100
AcDbLine
 10
618.5876462077
 20
514.0586823414
 30
0.0
 11
618.5876462077
 21
505.0586823414
 31
0.0
  0
ARC
  5
1D8
330
1F
100
AcDbEntity
  8
0
  6
Continuous
 62
     7
370
    25
100
AcDbCircle
 10
-179.4123537923
 20
-210.0957437183
 30
0.0
 40
3.0
100
AcDbArc
 50
0.0
 51
90.0
  0
ARC
  5
1D9
330
1F
100
AcDbEntity
  8
0
  6
Continuous
 62
     7
370
    25
100
AcDbCircle
 10
-423.4123537923
 20
-210.0957437183
 30
0.0
 40
3.0
100
AcDbArc
 50
90.0
 51
180.0
  0
ARC
  5
1DA
330
1F
100
AcDbEntity
  8
0
  6
Continuous
 62
     7
370
    25
100
AcDbCircle
 10
-179.4123537923
 20
-219.0957437183
 30
0.0
 40
3.0
100
AcDbArc
 50
270.0
 51
0.0
  0
ARC
  5
1DB
330
1F
100
AcDbEntity
  8
0
  6
Continuous
 62
     7
370
    25
100
AcDbCircle
 10
-423.4123537923
 20
-219.0957437183
 30
0.0
 40
3.0
100
AcDbArc
 50
180.0
 51
270.0
  0
LINE
  5
1DC
330
1F
100
AcDbEntity
  8
0
  6
Continuous
 62
     7
370
    25
100
AcDbLine
 10
-426.4123537923
 20
-210.0957437183
 30
0.0
 11
-426.4123537923
 21
-219.0957437183
 31
0.0
  0
LINE
  5
1DD
330
1F
100
AcDbEntity
  8
0
  6
Continuous
 62
     7
370
    25
100
AcDbLine
 10
-176.4123537923
 20
-219.0957437183
 30
0.0
 11
-176.4123537923
 21
-210.0957437183
 31
0.0
  0
LINE
  5
1DE
330
1F
100
AcDbEntity
  8
0
  6
Continuous
 62
     7
370
    25
100
AcDbLine
 10
-38.9123537923
 20
134.9814693116
 30
0.0
 11
481.0876462077
 21
134.9814693116
 31
0.0
  0
LINE
  5
1DF
330
1F
100
AcDbEntity
  8
0
  6
Continuous
 62
     7
370
    25
100
AcDbLine
 10
481.0876462077
 20
159.9814693116
 30
0.0
 11
-38.9123537923
 21
159.9814693116
 31
0.0
  0
LINE
  5
1E0
330
1F
100
AcDbEntity
  8
0
  6
Continuous
 62
     7
370
    25
100
AcDbLine
 10
-38.9123537923
 20
-200.0185306884
 30
0.0
 11
481.0876462077
 21
-200.0185306884
 31
0.0
  0
LINE
  5
1E1
330
1F
100
AcDbEntity
  8
0
  6
Continuous
 62
     7
370
    25
100
AcDbLine
 10
481.0876462077
 20
-175.0185306884
 30
0.0
 11
-38.9123537923
 21
-175.0185306884
 31
0.0
  0
LINE
  5
1E2
330
1F
100
AcDbEntity
  8
0
  6
Continuous
 62
     7
370
    25
100
AcDbLine
 10
-38.9123537923
 20
469.9814693116
 30
0.0
 11
481.0876462077
 21
469.9814693116
 31
0.0
  0
LINE
  5
1E3
330
1F
100
AcDbEntity
  8
0
  6
Continuous
 62
     7
370
    25
100
AcDbLine
 10
481.0876462077
 20
494.9814693116
 30
0.0
 11
-38.9123537923
 21
494.9814693116
 31
0.0
  0
LINE
  5
1E4
330
1F
100
AcDbEntity
  8
0
  6
Continuous
 62
     7
370
    25
100
AcDbLine
 10
-38.9123537923
 20
371.862241009
 30
0.0
 11
481.0876462077
 21
371.862241009
 31
0.0
  0
LINE
  5
1E5
330
1F
100
AcDbEntity
  8
0
  6
Continuous
 62
     7
370
    25
100
AcDbLine
 10
481.0876462077
 20
396.862241009
 30
0.0
 11
-38.9123537923
 21
396.862241009
 31
0.0
  0
LINE
  5
1E6
330
1F
100
AcDbEntity
  8
0
  6
Continuous
 62
     7
370
    25
100
AcDbLine
 10
-38.9123537923
 20
-101.8993023859
 30
0.0
 11
481.0876462077
 21
-101.8993023859
 31
0.0
  0
LINE
  5
1E7
330
1F
100
AcDbEntity
  8
0
  6
Continuous
 62
     7
370
    25
100
AcDbLine
 10
481.0876462077
 20
-76.8993023859
 30
0.0
 11
-38.9123537923
 21
-76.8993023859
 31
0.0
  0
ARC
  5
1E8
330
1F
100
AcDbEntity
  8
0
  6
Continuous
 62
     7
370
    25
100
AcDbCircle
 10
773.0876462077
 20
529.4814693116
 30
0.0
 40
3.0
100
AcDbArc
 50
0.0
 51
90.0
  0
ARC
  5
1E9
330
1F
100
AcDbEntity
  8
0
  6
Continuous
 62
     7
370
    25
100
AcDbCircle
 10
773.0876462077
 20
-234.5185306884
 30
0.0
 40
3.0
100
AcDbArc
 50
270.0
 51
0.0
  0
LINE
  5
1EA
330
1F
100
AcDbEntity
  8
0
  6
Continuous
 62
     7
370
    25
100
AcDbLine
 10
764.0876462077
 20
-237.5185306884
 30
0.0
 11
773.0876462077
 21
-237.5185306884
 31
0.0
  0
LINE
  5
1EB
330
1F
100
AcDbEntity
  8
0
  6
Continuous
 62
     7
370
    25
100
AcDbLine
 10
773.0876462077
 20
532.4814693116
 30
0.0
 11
764.0876462077
 21
532.4814693116
 31
0.0
  0
ARC
  5
1EC
330
1F
100
AcDbEntity
  8
0
  6
Continuous
 62
     7
370
    25
100
AcDbCircle
 10
764.0876462077
 20
529.4814693116
 30
0.0
 40
3.0
100
AcDbArc
 50
90.0
 51
180.0
  0
ARC
  5
1ED
330
1F
100
AcDbEntity
  8
0
  6
Continuous
 62
     7
370
    25
100
AcDbCircle
 10
764.0876462077
 20
-234.5185306884
 30
0.0
 40
3.0
100
AcDbArc
 50
180.0
 51
270.0
  0
LINE
  5
1EE
330
1F
100
AcDbEntity
  8
0
  6
Continuous
 62
     7
370
    25
100
AcDbLine
 10
-321.9123537923
 20
532.4814693116
 30
0.0
 11
-330.9123537923
 21
532.4814693116
 31
0.0
  0
LINE
  5
1EF
330
1F
100
AcDbEntity
  8
0
  6
Continuous
 62
     7
370
    25
100
AcDbLine
 10
-330.9123537923
 20
-237.5185306884
 30
0.0
 11
-321.9123537923
 21
-237.5185306884
 31
0.0
  0
ARC
  5
1F0
330
1F
100
AcDbEntity
  8
0
  6
Continuous
 62
     7
370
    25
100
AcDbCircle
 10
-321.9123537923
 20
-234.5185306884
 30
0.0
 40
3.0
100
AcDbArc
 50
270.0
 51
0.0
  0
ARC
  5
1F1
330
1F
100
AcDbEntity
  8
0
  6
Continuous
 62
     7
370
    25
100
AcDbCircle
 10
-321.9123537923
 20
529.4814693116
 30
0.0
 40
3.0
100
AcDbArc
 50
0.0
 51
90.0
  0
ARC
  5
1F2
330
1F
100
AcDbEntity
  8
0
  6
Continuous
 62
     7
370
    25
100
AcDbCircle
 10
-330.9123537923
 20
-234.5185306884
 30
0.0
 40
3.0
100
AcDbArc
 50
180.0
 51
270.0
  0
ARC
  5
1F3
330
1F
100
AcDbEntity
  8
0
  6
Continuous
 62
     7
370
    25
100
AcDbCircle
 10
-330.9123537923
 20
529.4814693116
 30
0.0
 40
3.0
100
AcDbArc
 50
90.0
 51
180.0
  0
LINE
  5
1F4
330
1F
100
AcDbEntity
  8
0
  6
Continuous
 62
     7
370
    25
100
AcDbLine
 10
70.9297514709
 20
-137.5185306884
 30
0.0
 11
94.9297514709
 21
-137.5185306884
 31
0.0
  0
LINE
  5
1F5
330
1F
100
AcDbEntity
  8
0
  6
Continuous
 62
     7
370
    25
100
AcDbLine
 10
94.9297514709
 20
432.4814693116
 30
0.0
 11
70.9297514709
 21
432.4814693116
 31
0.0
  0
ARC
  5
1F6
330
1F
100
AcDbEntity
  8
0
  6
Continuous
 62
     7
370
    25
100
AcDbCircle
 10
-205.3860380028
 20
429.4814693116
 30
0.0
 40
3.0
100
AcDbArc
 50
90.0
 51
180.0
  0
ARC
  5
1F7
330
1F
100
AcDbEntity
  8
0
  6
Continuous
 62
     7
370
    25
100
AcDbCircle
 10
-205.3860380028
 20
-134.5185306884
 30
0.0
 40
3.0
100
AcDbArc
 50
180.0
 51
270.0
  0
LINE
  5
1F8
330
1F
100
AcDbEntity
  8
0
  6
Continuous
 62
     7
370
    25
100
AcDbLine
 10
-315.9123537923
 20
-137.5185306884
 30
0.0
 11
-291.9123537923
 21
-137.5185306884
 31
0.0
  0
LINE
  5
1F9
330
1F
100
AcDbEntity
  8
0
  6
Continuous
 62
     7
370
    25
100
AcDbLine
 10
-291.9123537923
 20
432.4814693116
 30
0.0
 11
-315.9123537923
 21
432.4814693116
 31
0.0
  0
ARC
  5
1FA
330
1F
100
AcDbEntity
  8
0
  6
Continuous
 62
     7
370
    25
100
AcDbCircle
 10
315.9823830498
 20
-134.5185306884
 30
0.0
 40
3.0
100
AcDbArc
 50
270.0
 51
0.0
  0
ARC
  5
1FB
330
1F
100
AcDbEntity
  8
0
  6
Continuous
 62
     7
370
    25
100
AcDbCircle
 10
315.9823830498
 20
429.4814693116
 30
0.0
 40
3.0
100
AcDbArc
 50
0.0
 51
90.0
  0
LINE
  5
1FC
330
1F
100
AcDbEntity
  8
0
  6
Continuous
 62
     7
370
    25
100
AcDbLine
 10
568.2981725235
 20
-137.5185306884
 30
0.0
 11
592.2981725235
 21
-137.5185306884
 31
0.0
  0
LINE
  5
1FD
330
1F
100
AcDbEntity
  8
0
  6
Continuous
 62
     7
370
    25
100
AcDbLine
 10
592.2981725235
 20
432.4814693116
 30
0.0
 11
568.2981725235
 21
432.4814693116
 31
0.0
  0
LINE
  5
1FE
330
1F
100
AcDbEntity
  8
0
  6
Continuous
 62
     7
370
    25
100
AcDbLine
 10
457.771856734
 20
-137.5185306884
 30
0.0
 11
481.0876462077
 21
-137.5185306884
 31
0.0
  0
LINE
  5
1FF
330
1F
100
AcDbEntity
  8
0
  6
Continuous
 62
     7
370
    25
100
AcDbLine
 10
481.0876462077
 20
432.4814693116
 30
0.0
 11
457.771856734
 21
432.4814693116
 31
0.0
  0
LINE
  5
200
330
1F
100
AcDbEntity
  8
0
  6
Continuous
 62
     7
370
    25
100
AcDbLine
 10
513.0350146288
 20
-137.5185306884
 30
0.0
 11
537.0350146288
 21
-137.5185306884
 31
0.0
  0
LINE
  5
201
330
1F
100
AcDbEntity
  8
0
  6
Continuous
 62
     7
370
    25
100
AcDbLine
 10
537.0350146288
 20
432.4814693116
 30
0.0
 11
513.0350146288
 21
432.4814693116
 31
0.0
  0
ARC
  5
202
330
1F
100
AcDbEntity
  8
0
  6
Continuous
 62
     7
370
    25
100
AcDbCircle
 10
236.7192251551
 20
429.4814693116
 30
0.0
 40
3.000000000000028
100
AcDbArc
 50
90.0
 51
180.0
  0
ARC
  5
203
330
1F
100
AcDbEntity
  8
0
  6
Continuous
 62
     7
370
    25
100
AcDbCircle
 10
236.7192251551
 20
-134.5185306884
 30
0.0
 40
3.000000000000028
100
AcDbArc
 50
180.0
 51
270.0
  0
LINE
  5
204
330
1F
100
AcDbEntity
  8
0
  6
Continuous
 62
     7
370
    25
100
AcDbLine
 10
15.6665935761
 20
-137.5185306884
 30
0.0
 11
39.6665935761
 21
-137.5185306884
 31
0.0
  0
LINE
  5
205
330
1F
100
AcDbEntity
  8
0
  6
Continuous
 62
     7
370
    25
100
AcDbLine
 10
39.6665935761
 20
432.4814693116
 30
0.0
 11
15.6665935761
 21
432.4814693116
 31
0.0
  0
ARC
  5
206
330
1F
100
AcDbEntity
  8
0
  6
Continuous
 62
     7
370
    25
100
AcDbCircle
 10
260.7192251551
 20
-134.5185306884
 30
0.0
 40
3.0
100
AcDbArc
 50
270.0
 51
0.0
  0
ARC
  5
207
330
1F
100
AcDbEntity
  8
0
  6
Continuous
 62
     7
370
    25
100
AcDbCircle
 10
260.7192251551
 20
429.4814693116
 30
0.0
 40
3.0
100
AcDbArc
 50
0.0
 51
90.0
  0
ARC
  5
208
330
1F
100
AcDbEntity
  8
0
  6
Continuous
 62
     7
370
    25
100
AcDbCircle
 10
181.4560672603
 20
429.4814693116
 30
0.0
 40
3.0
100
AcDbArc
 50
90.0
 51
180.0
  0
ARC
  5
209
330
1F
100
AcDbEntity
  8
0
  6
Continuous
 62
     7
370
    25
100
AcDbCircle
 10
181.4560672603
 20
-134.5185306884
 30
0.0
 40
3.0
100
AcDbArc
 50
180.0
 51
270.0
  0
LINE
  5
20A
330
1F
100
AcDbEntity
  8
0
  6
Continuous
 62
     7
370
    25
100
AcDbLine
 10
402.5086988393
 20
-137.5185306884
 30
0.0
 11
426.5086988393
 21
-137.5185306884
 31
0.0
  0
LINE
  5
20B
330
1F
100
AcDbEntity
  8
0
  6
Continuous
 62
     7
370
    25
100
AcDbLine
 10
426.5086988393
 20
432.4814693116
 30
0.0
 11
402.5086988393
 21
432.4814693116
 31
0.0
  0
ARC
  5
20C
330
1F
100
AcDbEntity
  8
0
  6
Continuous
 62
     7
370
    25
100
AcDbCircle
 10
-126.1228801081
 20
-134.5185306884
 30
0.0
 40
3.0
100
AcDbArc
 50
270.0
 51
0.0
  0
ARC
  5
20D
330
1F
100
AcDbEntity
  8
0
  6
Continuous
 62
     7
370
    25
100
AcDbCircle
 10
-126.1228801081
 20
429.4814693116
 30
0.0
 40
3.0
100
AcDbArc
 50
0.0
 51
90.0
  0
LINE
  5
20E
330
1F
100
AcDbEntity
  8
0
  6
Continuous
 62
     7
370
    25
100
AcDbLine
 10
347.2455409445
 20
-137.5185306884
 30
0.0
 11
371.2455409445
 21
-137.5185306884
 31
0.0
  0
LINE
  5
20F
330
1F
100
AcDbEntity
  8
0
  6
Continuous
 62
     7
370
    25
100
AcDbLine
 10
371.2455409445
 20
432.4814693116
 30
0.0
 11
347.2455409445
 21
432.4814693116
 31
0.0
  0
ARC
  5
210
330
1F
100
AcDbEntity
  8
0
  6
Continuous
 62
     7
370
    25
100
AcDbCircle
 10
291.9823830498
 20
429.4814693116
 30
0.0
 40
3.0
100
AcDbArc
 50
90.0
 51
180.0
  0
ARC
  5
211
330
1F
100
AcDbEntity
  8
0
  6
Continuous
 62
     7
370
    25
100
AcDbCircle
 10
291.9823830498
 20
-134.5185306884
 30
0.0
 40
3.0
100
AcDbArc
 50
180.0
 51
270.0
  0
ARC
  5
212
330
1F
100
AcDbEntity
  8
0
  6
Continuous
 62
     7
370
    25
100
AcDbCircle
 10
-150.1228801081
 20
429.4814693116
 30
0.0
 40
3.0
100
AcDbArc
 50
90.0
 51
180.0
  0
ARC
  5
213
330
1F
100
AcDbEntity
  8
0
  6
Continuous
 62
     7
370
    25
100
AcDbCircle
 10
-150.1228801081
 20
-134.5185306884
 30
0.0
 40
3.0
100
AcDbArc
 50
180.0
 51
270.0
  0
ARC
  5
214
330
1F
100
AcDbEntity
  8
0
  6
Continuous
 62
     7
370
    25
100
AcDbCircle
 10
623.5613304182
 20
429.4814693116
 30
0.0
 40
3.0
100
AcDbArc
 50
90.0
 51
180.0
  0
ARC
  5
215
330
1F
100
AcDbEntity
  8
0
  6
Continuous
 62
     7
370
    25
100
AcDbCircle
 10
623.5613304182
 20
-134.5185306884
 30
0.0
 40
3.0
100
AcDbArc
 50
180.0
 51
270.0
  0
ARC
  5
216
330
1F
100
AcDbEntity
  8
0
  6
Continuous
 62
     7
370
    25
100
AcDbCircle
 10
537.0350146288
 20
-134.5185306884
 30
0.0
 40
3.000000000000114
100
AcDbArc
 50
270.0
 51
0.0
  0
ARC
  5
217
330
1F
100
AcDbEntity
  8
0
  6
Continuous
 62
     7
370
    25
100
AcDbCircle
 10
537.0350146288
 20
429.4814693116
 30
0.0
 40
3.000000000000114
100
AcDbArc
 50
0.0
 51
90.0
  0
ARC
  5
218
330
1F
100
AcDbEntity
  8
0
  6
Continuous
 62
     7
370
    25
100
AcDbCircle
 10
150.1929093656
 20
-134.5185306884
 30
0.0
 40
3.000000000000028
100
AcDbArc
 50
270.0
 51
0.0
  0
ARC
  5
219
330
1F
100
AcDbEntity
  8
0
  6
Continuous
 62
     7
370
    25
100
AcDbCircle
 10
150.1929093656
 20
429.4814693116
 30
0.0
 40
3.000000000000028
100
AcDbArc
 50
0.0
 51
90.0
  0
ARC
  5
21A
330
1F
100
AcDbEntity
  8
0
  6
Continuous
 62
     7
370
    25
100
AcDbCircle
 10
-181.3860380028
 20
-134.5185306884
 30
0.0
 40
3.0
100
AcDbArc
 50
270.0
 51
0.0
  0
ARC
  5
21B
330
1F
100
AcDbEntity
  8
0
  6
Continuous
 62
     7
370
    25
100
AcDbCircle
 10
-181.3860380028
 20
429.4814693116
 30
0.0
 40
3.0
100
AcDbArc
 50
0.0
 51
90.0
  0
LINE
  5
21C
330
1F
100
AcDbEntity
  8
0
  6
Continuous
 62
     7
370
    25
100
AcDbLine
 10
678.824488313
 20
-137.5185306884
 30
0.0
 11
702.824488313
 21
-137.5185306884
 31
0.0
  0
LINE
  5
21D
330
1F
100
AcDbEntity
  8
0
  6
Continuous
 62
     7
370
    25
100
AcDbLine
 10
702.824488313
 20
432.4814693116
 30
0.0
 11
678.824488313
 21
432.4814693116
 31
0.0
  0
ARC
  5
21E
330
1F
100
AcDbEntity
  8
0
  6
Continuous
 62
     7
370
    25
100
AcDbCircle
 10
-260.6491958976
 20
429.4814693116
 30
0.0
 40
3.000000000000114
100
AcDbArc
 50
90.0
 51
180.0
  0
ARC
  5
21F
330
1F
100
AcDbEntity
  8
0
  6
Continuous
 62
     7
370
    25
100
AcDbCircle
 10
-260.6491958976
 20
-134.5185306884
 30
0.0
 40
3.000000000000114
100
AcDbArc
 50
180.0
 51
270.0
  0
ARC
  5
220
330
1F
100
AcDbEntity
  8
0
  6
Continuous
 62
     7
370
    25
100
AcDbCircle
 10
734.0876462077
 20
429.4814693116
 30
0.0
 40
3.0
100
AcDbArc
 50
90.0
 51
180.0
  0
ARC
  5
221
330
1F
100
AcDbEntity
  8
0
  6
Continuous
 62
     7
370
    25
100
AcDbCircle
 10
734.0876462077
 20
-134.5185306884
 30
0.0
 40
3.0
100
AcDbArc
 50
180.0
 51
270.0
  0
ARC
  5
222
330
1F
100
AcDbEntity
  8
0
  6
Continuous
 62
     7
370
    25
100
AcDbCircle
 10
70.9297514709
 20
429.4814693116
 30
0.0
 40
3.000000000000014
100
AcDbArc
 50
90.0
 51
180.0
  0
ARC
  5
223
330
1F
100
AcDbEntity
  8
0
  6
Continuous
 62
     7
370
    25
100
AcDbCircle
 10
70.9297514709
 20
-134.5185306884
 30
0.0
 40
3.000000000000014
100
AcDbArc
 50
180.0
 51
270.0
  0
ARC
  5
224
330
1F
100
AcDbEntity
  8
0
  6
Continuous
 62
     7
370
    25
100
AcDbCircle
 10
126.1929093656
 20
429.4814693116
 30
0.0
 40
3.0
100
AcDbArc
 50
90.0
 51
180.0
  0
ARC
  5
225
330
1F
100
AcDbEntity
  8
0
  6
Continuous
 62
     7
370
    25
100
AcDbCircle
 10
126.1929093656
 20
-134.5185306884
 30
0.0
 40
3.0
100
AcDbArc
 50
180.0
 51
270.0
  0
LINE
  5
226
330
1F
100
AcDbEntity
  8
0
  6
Continuous
 62
     7
370
    25
100
AcDbLine
 10
-38.9123537923
 20
-137.5185306884
 30
0.0
 11
-15.5965643186
 21
-137.5185306884
 31
0.0
  0
LINE
  5
227
330
1F
100
AcDbEntity
  8
0
  6
Continuous
 62
     7
370
    25
100
AcDbLine
 10
-15.5965643186
 20
432.4814693116
 30
0.0
 11
-38.9123537923
 21
432.4814693116
 31
0.0
  0
ARC
  5
228
330
1F
100
AcDbEntity
  8
0
  6
Continuous
 62
     7
370
    25
100
AcDbCircle
 10
758.0876462077
 20
429.4814693116
 30
0.0
 40
3.0
100
AcDbArc
 50
0.0
 51
90.0
  0
ARC
  5
229
330
1F
100
AcDbEntity
  8
0
  6
Continuous
 62
     7
370
    25
100
AcDbCircle
 10
758.0876462077
 20
-134.5185306884
 30
0.0
 40
3.0
100
AcDbArc
 50
270.0
 51
0.0
  0
ARC
  5
22A
330
1F
100
AcDbEntity
  8
0
  6
Continuous
 62
     7
370
    25
100
AcDbCircle
 10
568.2981725235
 20
429.4814693116
 30
0.0
 40
3.000000000000114
100
AcDbArc
 50
90.0
 51
180.0
  0
ARC
  5
22B
330
1F
100
AcDbEntity
  8
0
  6
Continuous
 62
     7
370
    25
100
AcDbCircle
 10
568.2981725235
 20
-134.5185306884
 30
0.0
 40
3.000000000000114
100
AcDbArc
 50
180.0
 51
270.0
  0
ARC
  5
22C
330
1F
100
AcDbEntity
  8
0
  6
Continuous
 62
     7
370
    25
100
AcDbCircle
 10
426.5086988393
 20
-134.5185306884
 30
0.0
 40
3.0
100
AcDbArc
 50
270.0
 51
0.0
  0
ARC
  5
22D
330
1F
100
AcDbEntity
  8
0
  6
Continuous
 62
     7
370
    25
100
AcDbCircle
 10
426.5086988393
 20
429.4814693116
 30
0.0
 40
3.0
100
AcDbArc
 50
0.0
 51
90.0
  0
ARC
  5
22E
330
1F
100
AcDbEntity
  8
0
  6
Continuous
 62
     7
370
    25
100
AcDbCircle
 10
371.2455409445
 20
-134.5185306884
 30
0.0
 40
3.0
100
AcDbArc
 50
270.0
 51
0.0
  0
ARC
  5
22F
330
1F
100
AcDbEntity
  8
0
  6
Continuous
 62
     7
370
    25
100
AcDbCircle
 10
371.2455409445
 20
429.4814693116
 30
0.0
 40
3.0
100
AcDbArc
 50
0.0
 51
90.0
  0
LINE
  5
230
330
1F
100
AcDbEntity
  8
0
  6
Continuous
 62
     7
370
    25
100
AcDbLine
 10
-150.1228801081
 20
-137.5185306884
 30
0.0
 11
-126.1228801081
 21
-137.5185306884
 31
0.0
  0
LINE
  5
231
330
1F
100
AcDbEntity
  8
0
  6
Continuous
 62
     7
370
    25
100
AcDbLine
 10
-126.1228801081
 20
432.4814693116
 30
0.0
 11
-150.1228801081
 21
432.4814693116
 31
0.0
  0
ARC
  5
232
330
1F
100
AcDbEntity
  8
0
  6
Continuous
 62
     7
370
    25
100
AcDbCircle
 10
347.2455409445
 20
429.4814693116
 30
0.0
 40
3.0
100
AcDbArc
 50
90.0
 51
180.0
  0
ARC
  5
233
330
1F
100
AcDbEntity
  8
0
  6
Continuous
 62
     7
370
    25
100
AcDbCircle
 10
347.2455409445
 20
-134.5185306884
 30
0.0
 40
3.0
100
AcDbArc
 50
180.0
 51
270.0
  0
LINE
  5
234
330
1F
100
AcDbEntity
  8
0
  6
Continuous
 62
     7
370
    25
100
AcDbLine
 10
236.7192251551
 20
-137.5185306884
 30
0.0
 11
260.7192251551
 21
-137.5185306884
 31
0.0
  0
LINE
  5
235
330
1F
100
AcDbEntity
  8
0
  6
Continuous
 62
     7
370
    25
100
AcDbLine
 10
260.7192251551
 20
432.4814693116
 30
0.0
 11
236.7192251551
 21
432.4814693116
 31
0.0
  0
LINE
  5
236
330
1F
100
AcDbEntity
  8
0
  6
Continuous
 62
     7
370
    25
100
AcDbLine
 10
181.4560672603
 20
-137.5185306884
 30
0.0
 11
205.4560672603
 21
-137.5185306884
 31
0.0
  0
LINE
  5
237
330
1F
100
AcDbEntity
  8
0
  6
Continuous
 62
     7
370
    25
100
AcDbLine
 10
205.4560672603
 20
432.4814693116
 30
0.0
 11
181.4560672603
 21
432.4814693116
 31
0.0
  0
ARC
  5
238
330
1F
100
AcDbEntity
  8
0
  6
Continuous
 62
     7
370
    25
100
AcDbCircle
 10
-70.8597222134
 20
-134.5185306884
 30
0.0
 40
3.0
100
AcDbArc
 50
270.0
 51
0.0
  0
ARC
  5
239
330
1F
100
AcDbEntity
  8
0
  6
Continuous
 62
     7
370
    25
100
AcDbCircle
 10
-70.8597222134
 20
429.4814693116
 30
0.0
 40
3.0
100
AcDbArc
 50
0.0
 51
90.0
  0
ARC
  5
23A
330
1F
100
AcDbEntity
  8
0
  6
Continuous
 62
     7
370
    25
100
AcDbCircle
 10
94.9297514709
 20
-134.5185306884
 30
0.0
 40
3.0
100
AcDbArc
 50
270.0
 51
0.0
  0
ARC
  5
23B
330
1F
100
AcDbEntity
  8
0
  6
Continuous
 62
     7
370
    25
100
AcDbCircle
 10
94.9297514709
 20
429.4814693116
 30
0.0
 40
3.0
100
AcDbArc
 50
0.0
 51
90.0
  0
ARC
  5
23C
330
1F
100
AcDbEntity
  8
0
  6
Continuous
 62
     7
370
    25
100
AcDbCircle
 10
-236.6491958976
 20
-134.5185306884
 30
0.0
 40
3.0
100
AcDbArc
 50
270.0
 51
0.0
  0
ARC
  5
23D
330
1F
100
AcDbEntity
  8
0
  6
Continuous
 62
     7
370
    25
100
AcDbCircle
 10
-236.6491958976
 20
429.4814693116
 30
0.0
 40
3.0
100
AcDbArc
 50
0.0
 51
90.0
  0
ARC
  5
23E
330
1F
100
AcDbEntity
  8
0
  6
Continuous
 62
     7
370
    25
100
AcDbCircle
 10
678.824488313
 20
429.4814693116
 30
0.0
 40
3.0
100
AcDbArc
 50
90.0
 51
180.0
  0
ARC
  5
23F
330
1F
100
AcDbEntity
  8
0
  6
Continuous
 62
     7
370
    25
100
AcDbCircle
 10
678.824488313
 20
-134.5185306884
 30
0.0
 40
3.0
100
AcDbArc
 50
180.0
 51
270.0
  0
ARC
  5
240
330
1F
100
AcDbEntity
  8
0
  6
Continuous
 62
     7
370
    25
100
AcDbCircle
 10
-315.9123537923
 20
429.4814693116
 30
0.0
 40
3.0
100
AcDbArc
 50
90.0
 51
180.0
  0
ARC
  5
241
330
1F
100
AcDbEntity
  8
0
  6
Continuous
 62
     7
370
    25
100
AcDbCircle
 10
-315.9123537923
 20
-134.5185306884
 30
0.0
 40
3.0
100
AcDbArc
 50
180.0
 51
270.0
  0
ARC
  5
242
330
1F
100
AcDbEntity
  8
0
  6
Continuous
 62
     7
370
    25
100
AcDbCircle
 10
402.5086988393
 20
429.4814693116
 30
0.0
 40
3.0
100
AcDbArc
 50
90.0
 51
180.0
  0
ARC
  5
243
330
1F
100
AcDbEntity
  8
0
  6
Continuous
 62
     7
370
    25
100
AcDbCircle
 10
402.5086988393
 20
-134.5185306884
 30
0.0
 40
3.0
100
AcDbArc
 50
180.0
 51
270.0
  0
LINE
  5
244
330
1F
100
AcDbEntity
  8
0
  6
Continuous
 62
     7
370
    25
100
AcDbLine
 10
-260.6491958976
 20
-137.5185306884
 30
0.0
 11
-236.6491958976
 21
-137.5185306884
 31
0.0
  0
LINE
  5
245
330
1F
100
AcDbEntity
  8
0
  6
Continuous
 62
     7
370
    25
100
AcDbLine
 10
-236.6491958976
 20
432.4814693116
 30
0.0
 11
-260.6491958976
 21
432.4814693116
 31
0.0
  0
ARC
  5
246
330
1F
100
AcDbEntity
  8
0
  6
Continuous
 62
     7
370
    25
100
AcDbCircle
 10
457.771856734
 20
429.4814693116
 30
0.0
 40
3.0
100
AcDbArc
 50
90.0
 51
180.0
  0
ARC
  5
247
330
1F
100
AcDbEntity
  8
0
  6
Continuous
 62
     7
370
    25
100
AcDbCircle
 10
457.771856734
 20
-134.5185306884
 30
0.0
 40
3.0
100
AcDbArc
 50
180.0
 51
270.0
  0
ARC
  5
248
330
1F
100
AcDbEntity
  8
0
  6
Continuous
 62
     7
370
    25
100
AcDbCircle
 10
205.4560672603
 20
-134.5185306884
 30
0.0
 40
3.000000000000028
100
AcDbArc
 50
270.0
 51
0.0
  0
ARC
  5
249
330
1F
100
AcDbEntity
  8
0
  6
Continuous
 62
     7
370
    25
100
AcDbCircle
 10
205.4560672603
 20
429.4814693116
 30
0.0
 40
3.000000000000028
100
AcDbArc
 50
0.0
 51
90.0
  0
LINE
  5
24A
330
1F
100
AcDbEntity
  8
0
  6
Continuous
 62
     7
370
    25
100
AcDbLine
 10
126.1929093656
 20
-137.5185306884
 30
0.0
 11
150.1929093656
 21
-137.5185306884
 31
0.0
  0
LINE
  5
24B
330
1F
100
AcDbEntity
  8
0
  6
Continuous
 62
     7
370
    25
100
AcDbLine
 10
150.1929093656
 20
432.4814693116
 30
0.0
 11
126.1929093656
 21
432.4814693116
 31
0.0
  0
LINE
  5
24C
330
1F
100
AcDbEntity
  8
0
  6
Continuous
 62
     7
370
    25
100
AcDbLine
 10
-94.8597222134
 20
-137.5185306884
 30
0.0
 11
-70.8597222134
 21
-137.5185306884
 31
0.0
  0
LINE
  5
24D
330
1F
100
AcDbEntity
  8
0
  6
Continuous
 62
     7
370
    25
100
AcDbLine
 10
-70.8597222134
 20
432.4814693116
 30
0.0
 11
-94.8597222134
 21
432.4814693116
 31
0.0
  0
ARC
  5
24E
330
1F
100
AcDbEntity
  8
0
  6
Continuous
 62
     7
370
    25
100
AcDbCircle
 10
592.2981725235
 20
-134.5185306884
 30
0.0
 40
3.0
100
AcDbArc
 50
270.0
 51
0.0
  0
ARC
  5
24F
330
1F
100
AcDbEntity
  8
0
  6
Continuous
 62
     7
370
    25
100
AcDbCircle
 10
592.2981725235
 20
429.4814693116
 30
0.0
 40
3.0
100
AcDbArc
 50
0.0
 51
90.0
  0
LINE
  5
250
330
1F
100
AcDbEntity
  8
0
  6
Continuous
 62
     7
370
    25
100
AcDbLine
 10
623.5613304182
 20
-137.5185306884
 30
0.0
 11
647.5613304182
 21
-137.5185306884
 31
0.0
  0
LINE
  5
251
330
1F
100
AcDbEntity
  8
0
  6
Continuous
 62
     7
370
    25
100
AcDbLine
 10
647.5613304182
 20
432.4814693116
 30
0.0
 11
623.5613304182
 21
432.4814693116
 31
0.0
  0
LINE
  5
252
330
1F
100
AcDbEntity
  8
0
  6
Continuous
 62
     7
370
    25
100
AcDbLine
 10
734.0876462077
 20
-137.5185306884
 30
0.0
 11
758.0876462077
 21
-137.5185306884
 31
0.0
  0
LINE
  5
253
330
1F
100
AcDbEntity
  8
0
  6
Continuous
 62
     7
370
    25
100
AcDbLine
 10
758.0876462077
 20
432.4814693116
 30
0.0
 11
734.0876462077
 21
432.4814693116
 31
0.0
  0
ARC
  5
254
330
1F
100
AcDbEntity
  8
0
  6
Continuous
 62
     7
370
    25
100
AcDbCircle
 10
-291.9123537923
 20
-134.5185306884
 30
0.0
 40
3.0
100
AcDbArc
 50
270.0
 51
0.0
  0
ARC
  5
255
330
1F
100
AcDbEntity
  8
0
  6
Continuous
 62
     7
370
    25
100
AcDbCircle
 10
-291.9123537923
 20
429.4814693116
 30
0.0
 40
3.0
100
AcDbArc
 50
0.0
 51
90.0
  0
LINE
  5
256
330
1F
100
AcDbEntity
  8
0
  6
Continuous
 62
     7
370
    25
100
AcDbLine
 10
-205.3860380028
 20
-137.5185306884
 30
0.0
 11
-181.3860380028
 21
-137.5185306884
 31
0.0
  0
LINE
  5
257
330
1F
100
AcDbEntity
  8
0
  6
Continuous
 62
     7
370
    25
100
AcDbLine
 10
-181.3860380028
 20
432.4814693116
 30
0.0
 11
-205.3860380028
 21
432.4814693116
 31
0.0
  0
LINE
  5
258
330
1F
100
AcDbEntity
  8
0
  6
Continuous
 62
     7
370
    25
100
AcDbLine
 10
291.9823830498
 20
-137.5185306884
 30
0.0
 11
315.9823830498
 21
-137.5185306884
 31
0.0
  0
LINE
  5
259
330
1F
100
AcDbEntity
  8
0
  6
Continuous
 62
     7
370
    25
100
AcDbLine
 10
315.9823830498
 20
432.4814693116
 30
0.0
 11
291.9823830498
 21
432.4814693116
 31
0.0
  0
ARC
  5
25A
330
1F
100
AcDbEntity
  8
0
  6
Continuous
 62
     7
370
    25
100
AcDbCircle
 10
647.5613304182
 20
-134.5185306884
 30
0.0
 40
3.0
100
AcDbArc
 50
270.0
 51
0.0
  0
ARC
  5
25B
330
1F
100
AcDbEntity
  8
0
  6
Continuous
 62
     7
370
    25
100
AcDbCircle
 10
647.5613304182
 20
429.4814693116
 30
0.0
 40
3.0
100
AcDbArc
 50
0.0
 51
90.0
  0
ARC
  5
25C
330
1F
100
AcDbEntity
  8
0
  6
Continuous
 62
     7
370
    25
100
AcDbCircle
 10
-94.8597222134
 20
429.4814693116
 30
0.0
 40
3.0
100
AcDbArc
 50
90.0
 51
180.0
  0
ARC
  5
25D
330
1F
100
AcDbEntity
  8
0
  6
Continuous
 62
     7
370
    25
100
AcDbCircle
 10
-94.8597222134
 20
-134.5185306884
 30
0.0
 40
3.0
100
AcDbArc
 50
180.0
 51
270.0
  0
ARC
  5
25E
330
1F
100
AcDbEntity
  8
0
  6
Continuous
 62
     7
370
    25
100
AcDbCircle
 10
702.824488313
 20
-134.5185306884
 30
0.0
 40
3.0
100
AcDbArc
 50
270.0
 51
0.0
  0
ARC
  5
25F
330
1F
100
AcDbEntity
  8
0
  6
Continuous
 62
     7
370
    25
100
AcDbCircle
 10
702.824488313
 20
429.4814693116
 30
0.0
 40
3.0
100
AcDbArc
 50
0.0
 51
90.0
  0
ARC
  5
260
330
1F
100
AcDbEntity
  8
0
  6
Continuous
 62
     7
370
    25
100
AcDbCircle
 10
15.6665935761
 20
429.4814693116
 30
0.0
 40
3.000000000000004
100
AcDbArc
 50
90.0
 51
180.0
  0
ARC
  5
261
330
1F
100
AcDbEntity
  8
0
  6
Continuous
 62
     7
370
    25
100
AcDbCircle
 10
15.6665935761
 20
-134.5185306884
 30
0.0
 40
3.000000000000004
100
AcDbArc
 50
180.0
 51
270.0
  0
ARC
  5
262
330
1F
100
AcDbEntity
  8
0
  6
Continuous
 62
     7
370
    25
100
AcDbCircle
 10
-15.5965643186
 20
-134.5185306884
 30
0.0
 40
3.000000000000004
100
AcDbArc
 50
270.0
 51
0.0
  0
ARC
  5
263
330
1F
100
AcDbEntity
  8
0
  6
Continuous
 62
     7
370
    25
100
AcDbCircle
 10
-15.5965643186
 20
429.4814693116
 30
0.0
 40
3.000000000000004
100
AcDbArc
 50
0.0
 51
90.0
  0
ARC
  5
264
330
1F
100
AcDbEntity
  8
0
  6
Continuous
 62
     7
370
    25
100
AcDbCircle
 10
513.0350146288
 20
429.4814693116
 30
0.0
 40
3.0
100
AcDbArc
 50
90.0
 51
180.0
  0
ARC
  5
265
330
1F
100
AcDbEntity
  8
0
  6
Continuous
 62
     7
370
    25
100
AcDbCircle
 10
513.0350146288
 20
-134.5185306884
 30
0.0
 40
3.0
100
AcDbArc
 50
180.0
 51
270.0
  0
ARC
  5
266
330
1F
100
AcDbEntity
  8
0
  6
Continuous
 62
     7
370
    25
100
AcDbCircle
 10
39.6665935761
 20
-134.5185306884
 30
0.0
 40
3.000000000000007
100
AcDbArc
 50
270.0
 51
0.0
  0
ARC
  5
267
330
1F
100
AcDbEntity
  8
0
  6
Continuous
 62
     7
370
    25
100
AcDbCircle
 10
39.6665935761
 20
429.4814693116
 30
0.0
 40
3.000000000000007
100
AcDbArc
 50
0.0
 51
90.0
  0
LINE
  5
268
330
1F
100
AcDbEntity
  8
0
  6
Continuous
 62
     7
370
    25
100
AcDbLine
 10
565.2981725235
 20
412.4814693116
 30
0.0
 11
540.0350146288
 21
412.4814693116
 31
0.0
  0
LINE
  5
269
330
1F
100
AcDbEntity
  8
0
  6
Continuous
 62
     7
370
    25
100
AcDbLine
 10
540.0350146288
 20
-117.5185306884
 30
0.0
 11
565.2981725235
 21
-117.5185306884
 31
0.0
  0
LINE
  5
26A
330
1F
100
AcDbEntity
  8
0
  6
Continuous
 62
     7
370
    25
100
AcDbLine
 10
510.0350146288
 20
412.4814693116
 30
0.0
 11
496.0876462077
 21
412.4814693116
 31
0.0
  0
LINE
  5
26B
330
1F
100
AcDbEntity
  8
0
  6
Continuous
 62
     7
370
    25
100
AcDbLine
 10
496.0876462077
 20
-117.5185306884
 30
0.0
 11
510.0350146288
 21
-117.5185306884
 31
0.0
  0
LINE
  5
26C
330
1F
100
AcDbEntity
  8
0
  6
Continuous
 62
     7
370
    25
100
AcDbLine
 10
344.2455409445
 20
412.4814693116
 30
0.0
 11
318.9823830498
 21
412.4814693116
 31
0.0
  0
LINE
  5
26D
330
1F
100
AcDbEntity
  8
0
  6
Continuous
 62
     7
370
    25
100
AcDbLine
 10
318.9823830498
 20
-117.5185306884
 30
0.0
 11
344.2455409445
 21
-117.5185306884
 31
0.0
  0
LINE
  5
26E
330
1F
100
AcDbEntity
  8
0
  6
Continuous
 62
     7
370
    25
100
AcDbLine
 10
233.7192251551
 20
412.4814693116
 30
0.0
 11
208.4560672603
 21
412.4814693116
 31
0.0
  0
LINE
  5
26F
330
1F
100
AcDbEntity
  8
0
  6
Continuous
 62
     7
370
    25
100
AcDbLine
 10
208.4560672603
 20
-117.5185306884
 30
0.0
 11
233.7192251551
 21
-117.5185306884
 31
0.0
  0
LINE
  5
270
330
1F
100
AcDbEntity
  8
0
  6
Continuous
 62
     7
370
    25
100
AcDbLine
 10
675.824488313
 20
412.4814693116
 30
0.0
 11
650.5613304182
 21
412.4814693116
 31
0.0
  0
LINE
  5
271
330
1F
100
AcDbEntity
  8
0
  6
Continuous
 62
     7
370
    25
100
AcDbLine
 10
650.5613304182
 20
-117.5185306884
 30
0.0
 11
675.824488313
 21
-117.5185306884
 31
0.0
  0
LINE
  5
272
330
1F
100
AcDbEntity
  8
0
  6
Continuous
 62
     7
370
    25
100
AcDbLine
 10
731.0876462077
 20
412.4814693116
 30
0.0
 11
705.824488313
 21
412.4814693116
 31
0.0
  0
LINE
  5
273
330
1F
100
AcDbEntity
  8
0
  6
Continuous
 62
     7
370
    25
100
AcDbLine
 10
705.824488313
 20
-117.5185306884
 30
0.0
 11
731.0876462077
 21
-117.5185306884
 31
0.0
  0
LINE
  5
274
330
1F
100
AcDbEntity
  8
0
  6
Continuous
 62
     7
370
    25
100
AcDbLine
 10
399.5086988393
 20
412.4814693116
 30
0.0
 11
374.2455409445
 21
412.4814693116
 31
0.0
  0
LINE
  5
275
330
1F
100
AcDbEntity
  8
0
  6
Continuous
 62
     7
370
    25
100
AcDbLine
 10
374.2455409445
 20
-117.5185306884
 30
0.0
 11
399.5086988393
 21
-117.5185306884
 31
0.0
  0
LINE
  5
276
330
1F
100
AcDbEntity
  8
0
  6
Continuous
 62
     7
370
    25
100
AcDbLine
 10
288.9823830498
 20
412.4814693116
 30
0.0
 11
263.7192251551
 21
412.4814693116
 31
0.0
  0
LINE
  5
277
330
1F
100
AcDbEntity
  8
0
  6
Continuous
 62
     7
370
    25
100
AcDbLine
 10
263.7192251551
 20
-117.5185306884
 30
0.0
 11
288.9823830498
 21
-117.5185306884
 31
0.0
  0
LINE
  5
278
330
1F
100
AcDbEntity
  8
0
  6
Continuous
 62
     7
370
    25
100
AcDbLine
 10
-153.1228801081
 20
412.4814693116
 30
0.0
 11
-178.3860380028
 21
412.4814693116
 31
0.0
  0
LINE
  5
279
330
1F
100
AcDbEntity
  8
0
  6
Continuous
 62
     7
370
    25
100
AcDbLine
 10
-178.3860380028
 20
-117.5185306884
 30
0.0
 11
-153.1228801081
 21
-117.5185306884
 31
0.0
  0
LINE
  5
27A
330
1F
100
AcDbEntity
  8
0
  6
Continuous
 62
     7
370
    25
100
AcDbLine
 10
178.4560672603
 20
412.4814693116
 30
0.0
 11
153.1929093656
 21
412.4814693116
 31
0.0
  0
LINE
  5
27B
330
1F
100
AcDbEntity
  8
0
  6
Continuous
 62
     7
370
    25
100
AcDbLine
 10
153.1929093656
 20
-117.5185306884
 30
0.0
 11
178.4560672603
 21
-117.5185306884
 31
0.0
  0
LINE
  5
27C
330
1F
100
AcDbEntity
  8
0
  6
Continuous
 62
     7
370
    25
100
AcDbLine
 10
-263.6491958976
 20
412.4814693116
 30
0.0
 11
-288.9123537923
 21
412.4814693116
 31
0.0
  0
LINE
  5
27D
330
1F
100
AcDbEntity
  8
0
  6
Continuous
 62
     7
370
    25
100
AcDbLine
 10
-288.9123537923
 20
-117.5185306884
 30
0.0
 11
-263.6491958976
 21
-117.5185306884
 31
0.0
  0
LINE
  5
27E
330
1F
100
AcDbEntity
  8
0
  6
Continuous
 62
     7
370
    25
100
AcDbLine
 10
-97.8597222134
 20
412.4814693116
 30
0.0
 11
-123.1228801081
 21
412.4814693116
 31
0.0
  0
LINE
  5
27F
330
1F
100
AcDbEntity
  8
0
  6
Continuous
 62
     7
370
    25
100
AcDbLine
 10
-123.1228801081
 20
-117.5185306884
 30
0.0
 11
-97.8597222134
 21
-117.5185306884
 31
0.0
  0
LINE
  5
280
330
1F
100
AcDbEntity
  8
0
  6
Continuous
 62
     7
370
    25
100
AcDbLine
 10
12.6665935761
 20
412.4814693116
 30
0.0
 11
-12.5965643186
 21
412.4814693116
 31
0.0
  0
LINE
  5
281
330
1F
100
AcDbEntity
  8
0
  6
Continuous
 62
     7
370
    25
100
AcDbLine
 10
-12.5965643186
 20
-117.5185306884
 30
0.0
 11
12.6665935761
 21
-117.5185306884
 31
0.0
  0
LINE
  5
282
330
1F
100
AcDbEntity
  8
0
  6
Continuous
 62
     7
370
    25
100
AcDbLine
 10
620.5613304182
 20
412.4814693116
 30
0.0
 11
595.2981725235
 21
412.4814693116
 31
0.0
  0
LINE
  5
283
330
1F
100
AcDbEntity
  8
0
  6
Continuous
 62
     7
370
    25
100
AcDbLine
 10
595.2981725235
 20
-117.5185306884
 30
0.0
 11
620.5613304182
 21
-117.5185306884
 31
0.0
  0
LINE
  5
284
330
1F
100
AcDbEntity
  8
0
  6
Continuous
 62
     7
370
    25
100
AcDbLine
 10
-53.9123537923
 20
412.4814693116
 30
0.0
 11
-67.8597222134
 21
412.4814693116
 31
0.0
  0
LINE
  5
285
330
1F
100
AcDbEntity
  8
0
  6
Continuous
 62
     7
370
    25
100
AcDbLine
 10
-67.8597222134
 20
-117.5185306884
 30
0.0
 11
-53.9123537923
 21
-117.5185306884
 31
0.0
  0
LINE
  5
286
330
1F
100
AcDbEntity
  8
0
  6
Continuous
 62
     7
370
    25
100
AcDbLine
 10
454.771856734
 20
412.4814693116
 30
0.0
 11
429.5086988393
 21
412.4814693116
 31
0.0
  0
LINE
  5
287
330
1F
100
AcDbEntity
  8
0
  6
Continuous
 62
     7
370
    25
100
AcDbLine
 10
429.5086988393
 20
-117.5185306884
 30
0.0
 11
454.771856734
 21
-117.5185306884
 31
0.0
  0
LINE
  5
288
330
1F
100
AcDbEntity
  8
0
  6
Continuous
 62
     7
370
    25
100
AcDbLine
 10
67.9297514709
 20
412.4814693116
 30
0.0
 11
42.6665935761
 21
412.4814693116
 31
0.0
  0
LINE
  5
289
330
1F
100
AcDbEntity
  8
0
  6
Continuous
 62
     7
370
    25
100
AcDbLine
 10
42.6665935761
 20
-117.5185306884
 30
0.0
 11
67.9297514709
 21
-117.5185306884
 31
0.0
  0
LINE
  5
28A
330
1F
100
AcDbEntity
  8
0
  6
Continuous
 62
     7
370
    25
100
AcDbLine
 10
123.1929093656
 20
412.4814693116
 30
0.0
 11
97.9297514709
 21
412.4814693116
 31
0.0
  0
LINE
  5
28B
330
1F
100
AcDbEntity
  8
0
  6
Continuous
 62
     7
370
    25
100
AcDbLine
 10
97.9297514709
 20
-117.5185306884
 30
0.0
 11
123.1929093656
 21
-117.5185306884
 31
0.0
  0
LINE
  5
28C
330
1F
100
AcDbEntity
  8
0
  6
Continuous
 62
     7
370
    25
100
AcDbLine
 10
-208.3860380028
 20
412.4814693116
 30
0.0
 11
-233.6491958976
 21
412.4814693116
 31
0.0
  0
LINE
  5
28D
330
1F
100
AcDbEntity
  8
0
  6
Continuous
 62
     7
370
    25
100
AcDbLine
 10
-233.6491958976
 20
-117.5185306884
 30
0.0
 11
-208.3860380028
 21
-117.5185306884
 31
0.0
  0
LINE
  5
28E
330
1F
100
AcDbEntity
  8
0
  6
Continuous
 62
     7
370
    25
100
AcDbLine
 10
-426.4123537923
 20
2032.4814693116
 30
0.0
 11
868.5876462077
 21
2032.4814693116
 31
0.0
  0
ARC
  5
28F
330
1F
100
AcDbEntity
  8
0
  6
Continuous
 62
     7
370
    25
100
AcDbCircle
 10
868.5876462077
 20
532.4814693116
 30
0.0
 40
1500.0
100
AcDbArc
 50
0.0
 51
90.0
  0
LINE
  5
290
330
1F
100
AcDbEntity
  8
0
  6
Continuous
 62
     7
370
    25
100
AcDbLine
 10
2368.5876462077
 20
532.4814693116
 30
0.0
 11
2368.5876462077
 21
-237.5185306884
 31
0.0
  0
ARC
  5
291
330
1F
100
AcDbEntity
  8
0
  6
Continuous
 62
     7
370
    25
100
AcDbCircle
 10
868.5876462077
 20
-237.5185306884
 30
0.0
 40
1500.0
100
AcDbArc
 50
270.0
 51
0.0
  0
LINE
  5
292
330
1F
100
AcDbEntity
  8
0
  6
Continuous
 62
     7
370
    25
100
AcDbLine
 10
868.5876462077
 20
-1737.5185306884
 30
0.0
 11
-426.4123537923
 21
-1737.5185306884
 31
0.0
  0
ARC
  5
293
330
1F
100
AcDbEntity
  8
0
  6
Continuous
 62
     7
370
    25
100
AcDbCircle
 10
-426.4123537923
 20
-237.5185306884
 30
0.0
 40
1500.0
100
AcDbArc
 50
180.0
 51
270.0
  0
LINE
  5
294
330
1F
100
AcDbEntity
  8
0
  6
Continuous
 62
     7
370
    25
100
AcDbLine
 10
-1926.4123537923
 20
-237.5185306884
 30
0.0
 11
-1926.4123537923
 21
532.4814693115
 31
0.0
  0
ARC
  5
295
330
1F
100
AcDbEntity
  8
0
  6
Continuous
 62
     7
370
    25
100
AcDbCircle
 10
-426.4123537923
 20
532.4814693116
 30
0.0
 40
1500.0
100
AcDbArc
 50
90.0
 51
180.0
  0
LINE
  5
296
330
1F
100
AcDbEntity
  8
0
  6
Continuous
 62
     7
370
    25
100
AcDbLine
 10
446.0876462077
 20
466.9814693116
 30
0.0
 11
449.0876462077
 21
467.9814693116
 31
0.0
  0
LINE
  5
297
330
1F
100
AcDbEntity
  8
0
  6
Continuous
 62
     7
370
    25
100
AcDbLine
 10
448.0876462077
 20
464.9814693116
 30
0.0
 11
449.0876462077
 21
467.9814693116
 31
0.0
  0
ARC
  5
298
330
1F
100
AcDbEntity
  8
0
  6
Continuous
 62
     7
370
    25
100
AcDbCircle
 10
448.0876462077
 20
466.9814693116
 30
0.0
 40
2.0
100
AcDbArc
 50
180.0
 51
270.0
  0
LINE
  5
299
330
1F
100
AcDbEntity
  8
0
  6
Continuous
 62
     7
370
    25
100
AcDbLine
 10
449.0876462077
 20
467.9814693116
 30
0.0
 11
478.0876462077
 21
467.9814693116
 31
0.0
  0
LINE
  5
29A
330
1F
100
AcDbEntity
  8
0
  6
Continuous
 62
     7
370
    25
100
AcDbLine
 10
478.0876462077
 20
467.9814693116
 30
0.0
 11
479.0876462077
 21
464.9814693116
 31
0.0
  0
LINE
  5
29B
330
1F
100
AcDbEntity
  8
0
  6
Continuous
 62
     7
370
    25
100
AcDbLine
 10
479.0876462077
 20
464.9814693116
 30
0.0
 11
448.0876462077
 21
464.9814693116
 31
0.0
  0
LINE
  5
29C
330
1F
100
AcDbEntity
  8
0
  6
Continuous
 62
     7
370
    25
100
AcDbLine
 10
478.0876462077
 20
496.9814693116
 30
0.0
 11
449.0876462077
 21
496.9814693116
 31
0.0
  0
LINE
  5
29D
330
1F
100
AcDbEntity
  8
0
  6
Continuous
 62
     7
370
    25
100
AcDbLine
 10
448.0876462077
 20
499.9814693116
 30
0.0
 11
449.0876462077
 21
496.9814693116
 31
0.0
  0
LINE
  5
29E
330
1F
100
AcDbEntity
  8
0
  6
Continuous
 62
     7
370
    25
100
AcDbLine
 10
448.0876462077
 20
499.9814693116
 30
0.0
 11
479.0876462077
 21
499.9814693116
 31
0.0
  0
LINE
  5
29F
330
1F
100
AcDbEntity
  8
0
  6
Continuous
 62
     7
370
    25
100
AcDbLine
 10
478.0876462077
 20
496.9814693116
 30
0.0
 11
479.0876462077
 21
499.9814693116
 31
0.0
  0
LINE
  5
2A0
330
1F
100
AcDbEntity
  8
0
  6
Continuous
 62
     7
370
    25
100
AcDbLine
 10
446.0876462077
 20
466.9814693116
 30
0.0
 11
446.0876462077
 21
469.9814693116
 31
0.0
  0
LINE
  5
2A1
330
1F
100
AcDbEntity
  8
0
  6
Continuous
 62
     7
370
    25
100
AcDbLine
 10
446.0876462077
 20
494.9814693116
 30
0.0
 11
446.0876462077
 21
497.9814693116
 31
0.0
  0
LINE
  5
2A2
330
1F
100
AcDbEntity
  8
0
  6
Continuous
 62
     7
370
    25
100
AcDbLine
 10
446.0876462077
 20
497.9814693116
 30
0.0
 11
449.0876462077
 21
496.9814693116
 31
0.0
  0
LINE
  5
2A3
330
1F
100
AcDbEntity
  8
0
  6
Continuous
 62
     7
370
    25
100
AcDbLine
 10
478.0876462077
 20
496.9814693116
 30
0.0
 11
481.0876462077
 21
497.9814693116
 31
0.0
  0
LINE
  5
2A4
330
1F
100
AcDbEntity
  8
0
  6
Continuous
 62
     7
370
    25
100
AcDbLine
 10
478.0876462077
 20
467.9814693116
 30
0.0
 11
481.0876462077
 21
466.9814693116
 31
0.0
  0
ARC
  5
2A5
330
1F
100
AcDbEntity
  8
0
  6
Continuous
 62
     7
370
    25
100
AcDbCircle
 10
479.0876462077
 20
497.9814693116
 30
0.0
 40
2.0
100
AcDbArc
 50
0.0
 51
90.0
  0
ARC
  5
2A6
330
1F
100
AcDbEntity
  8
0
  6
Continuous
 62
     7
370
    25
100
AcDbCircle
 10
448.0876462077
 20
497.9814693116
 30
0.0
 40
2.0
100
AcDbArc
 50
90.0
 51
180.0
  0
ARC
  5
2A7
330
1F
100
AcDbEntity
  8
0
  6
Continuous
 62
     7
370
    25
100
AcDbCircle
 10
479.0876462077
 20
466.9814693116
 30
0.0
 40
2.0
100
AcDbArc
 50
270.0
 51
0.0
  0
LINE
  5
2A8
330
1F
100
AcDbEntity
  8
0
  6
Continuous
 62
     7
370
    25
100
AcDbLine
 10
449.0876462077
 20
-202.0185306884
 30
0.0
 11
478.0876462077
 21
-202.0185306884
 31
0.0
  0
LINE
  5
2A9
330
1F
100
AcDbEntity
  8
0
  6
Continuous
 62
     7
370
    25
100
AcDbLine
 10
478.0876462077
 20
-173.0185306884
 30
0.0
 11
449.0876462077
 21
-173.0185306884
 31
0.0
  0
LINE
  5
2AA
330
1F
100
AcDbEntity
  8
0
  6
Continuous
 62
     7
370
    25
100
AcDbLine
 10
446.0876462077
 20
-203.0185306884
 30
0.0
 11
449.0876462077
 21
-202.0185306884
 31
0.0
  0
LINE
  5
2AB
330
1F
100
AcDbEntity
  8
0
  6
Continuous
 62
     7
370
    25
100
AcDbLine
 10
448.0876462077
 20
-205.0185306884
 30
0.0
 11
449.0876462077
 21
-202.0185306884
 31
0.0
  0
ARC
  5
2AC
330
1F
100
AcDbEntity
  8
0
  6
Continuous
 62
     7
370
    25
100
AcDbCircle
 10
448.0876462077
 20
-203.0185306884
 30
0.0
 40
2.0
100
AcDbArc
 50
180.0
 51
270.0
  0
LINE
  5
2AD
330
1F
100
AcDbEntity
  8
0
  6
Continuous
 62
     7
370
    25
100
AcDbLine
 10
478.0876462077
 20
-173.0185306884
 30
0.0
 11
479.0876462077
 21
-170.0185306884
 31
0.0
  0
ARC
  5
2AE
330
1F
100
AcDbEntity
  8
0
  6
Continuous
 62
     7
370
    25
100
AcDbCircle
 10
479.0876462077
 20
-172.0185306884
 30
0.0
 40
2.0
100
AcDbArc
 50
0.0
 51
90.0
  0
LINE
  5
2AF
330
1F
100
AcDbEntity
  8
0
  6
Continuous
 62
     7
370
    25
100
AcDbLine
 10
478.0876462077
 20
-173.0185306884
 30
0.0
 11
481.0876462077
 21
-172.0185306884
 31
0.0
  0
LINE
  5
2B0
330
1F
100
AcDbEntity
  8
0
  6
Continuous
 62
     7
370
    25
100
AcDbLine
 10
446.0876462077
 20
-203.0185306884
 30
0.0
 11
446.0876462077
 21
-200.0185306884
 31
0.0
  0
LINE
  5
2B1
330
1F
100
AcDbEntity
  8
0
  6
Continuous
 62
     7
370
    25
100
AcDbLine
 10
446.0876462077
 20
-175.0185306884
 30
0.0
 11
446.0876462077
 21
-172.0185306884
 31
0.0
  0
LINE
  5
2B2
330
1F
100
AcDbEntity
  8
0
  6
Continuous
 62
     7
370
    25
100
AcDbLine
 10
446.0876462077
 20
-172.0185306884
 30
0.0
 11
449.0876462077
 21
-173.0185306884
 31
0.0
  0
LINE
  5
2B3
330
1F
100
AcDbEntity
  8
0
  6
Continuous
 62
     7
370
    25
100
AcDbLine
 10
478.0876462077
 20
-202.0185306884
 30
0.0
 11
481.0876462077
 21
-203.0185306884
 31
0.0
  0
LINE
  5
2B4
330
1F
100
AcDbEntity
  8
0
  6
Continuous
 62
     7
370
    25
100
AcDbLine
 10
478.0876462077
 20
-202.0185306884
 30
0.0
 11
479.0876462077
 21
-205.0185306884
 31
0.0
  0
LINE
  5
2B5
330
1F
100
AcDbEntity
  8
0
  6
Continuous
 62
     7
370
    25
100
AcDbLine
 10
479.0876462077
 20
-205.0185306884
 30
0.0
 11
448.0876462077
 21
-205.0185306884
 31
0.0
  0
LINE
  5
2B6
330
1F
100
AcDbEntity
  8
0
  6
Continuous
 62
     7
370
    25
100
AcDbLine
 10
448.0876462077
 20
-170.0185306884
 30
0.0
 11
449.0876462077
 21
-173.0185306884
 31
0.0
  0
ARC
  5
2B7
330
1F
100
AcDbEntity
  8
0
  6
Continuous
 62
     7
370
    25
100
AcDbCircle
 10
448.0876462077
 20
-172.0185306884
 30
0.0
 40
2.0
100
AcDbArc
 50
90.0
 51
180.0
  0
ARC
  5
2B8
330
1F
100
AcDbEntity
  8
0
  6
Continuous
 62
     7
370
    25
100
AcDbCircle
 10
479.0876462077
 20
-203.0185306884
 30
0.0
 40
2.0
100
AcDbArc
 50
270.0
 51
0.0
  0
LINE
  5
2B9
330
1F
100
AcDbEntity
  8
0
  6
Continuous
 62
     7
370
    25
100
AcDbLine
 10
448.0876462077
 20
-170.0185306884
 30
0.0
 11
479.0876462077
 21
-170.0185306884
 31
0.0
  0
LINE
  5
2BA
330
1F
100
AcDbEntity
  8
0
  6
Continuous
 62
     7
370
    25
100
AcDbLine
 10
758.0876462077
 20
-204.0957437183
 30
0.0
 11
761.0876462077
 21
-205.0957437183
 31
0.0
  0
ARC
  5
2BB
330
1F
100
AcDbEntity
  8
0
  6
Continuous
 62
     7
370
    25
100
AcDbCircle
 10
759.0876462077
 20
-205.0957437183
 30
0.0
 40
2.0
100
AcDbArc
 50
270.0
 51
0.0
  0
LINE
  5
2BC
330
1F
100
AcDbEntity
  8
0
  6
Continuous
 62
     7
370
    25
100
AcDbLine
 10
758.0876462077
 20
-204.0957437183
 30
0.0
 11
759.0876462077
 21
-207.0957437183
 31
0.0
  0
LINE
  5
2BD
330
1F
100
AcDbEntity
  8
0
  6
Continuous
 62
     7
370
    25
100
AcDbLine
 10
758.0876462077
 20
-204.0957437183
 30
0.0
 11
758.0876462077
 21
-175.0957437183
 31
0.0
  0
LINE
  5
2BE
330
1F
100
AcDbEntity
  8
0
  6
Continuous
 62
     7
370
    25
100
AcDbLine
 10
758.0876462077
 20
-175.0957437183
 30
0.0
 11
761.0876462077
 21
-174.0957437183
 31
0.0
  0
LINE
  5
2BF
330
1F
100
AcDbEntity
  8
0
  6
Continuous
 62
     7
370
    25
100
AcDbLine
 10
729.0876462077
 20
-204.0957437183
 30
0.0
 11
758.0876462077
 21
-204.0957437183
 31
0.0
  0
LINE
  5
2C0
330
1F
100
AcDbEntity
  8
0
  6
Continuous
 62
     7
370
    25
100
AcDbLine
 10
729.0876462077
 20
-175.0957437183
 30
0.0
 11
729.0876462077
 21
-204.0957437183
 31
0.0
  0
LINE
  5
2C1
330
1F
100
AcDbEntity
  8
0
  6
Continuous
 62
     7
370
    25
100
AcDbLine
 10
758.0876462077
 20
-175.0957437183
 30
0.0
 11
729.0876462077
 21
-175.0957437183
 31
0.0
  0
CIRCLE
  5
2C2
330
1F
100
AcDbEntity
  8
0
  6
Continuous
 62
     7
370
    25
100
AcDbCircle
 10
743.5876462077
 20
-189.5957437183
 30
0.0
 40
1.0
  0
LINE
  5
2C3
330
1F
100
AcDbEntity
  8
0
  6
Continuous
 62
     7
370
    25
100
AcDbLine
 10
728.0876462077
 20
-207.0957437183
 30
0.0
 11
729.0876462077
 21
-204.0957437183
 31
0.0
  0
LINE
  5
2C4
330
1F
100
AcDbEntity
  8
0
  6
Continuous
 62
     7
370
    25
100
AcDbLine
 10
758.0876462077
 20
-175.0957437183
 30
0.0
 11
759.0876462077
 21
-172.0957437183
 31
0.0
  0
ARC
  5
2C5
330
1F
100
AcDbEntity
  8
0
  6
Continuous
 62
     7
370
    25
100
AcDbCircle
 10
759.0876462077
 20
-174.0957437183
 30
0.0
 40
2.0
100
AcDbArc
 50
0.0
 51
90.0
  0
LINE
  5
2C6
330
1F
100
AcDbEntity
  8
0
  6
Continuous
 62
     7
370
    25
100
AcDbLine
 10
728.0876462077
 20
-172.0957437183
 30
0.0
 11
729.0876462077
 21
-175.0957437183
 31
0.0
  0
LINE
  5
2C7
330
1F
100
AcDbEntity
  8
0
  6
Continuous
 62
     7
370
    25
100
AcDbLine
 10
726.0876462077
 20
-174.0957437183
 30
0.0
 11
729.0876462077
 21
-175.0957437183
 31
0.0
  0
ARC
  5
2C8
330
1F
100
AcDbEntity
  8
0
  6
Continuous
 62
     7
370
    25
100
AcDbCircle
 10
728.0876462077
 20
-174.0957437183
 30
0.0
 40
2.0
100
AcDbArc
 50
90.0
 51
180.0
  0
LINE
  5
2C9
330
1F
100
AcDbEntity
  8
0
  6
Continuous
 62
     7
370
    25
100
AcDbLine
 10
728.0876462077
 20
-172.0957437183
 30
0.0
 11
759.0876462077
 21
-172.0957437183
 31
0.0
  0
LINE
  5
2CA
330
1F
100
AcDbEntity
  8
0
  6
Continuous
 62
     7
370
    25
100
AcDbLine
 10
726.0876462077
 20
-205.0957437183
 30
0.0
 11
729.0876462077
 21
-204.0957437183
 31
0.0
  0
ARC
  5
2CB
330
1F
100
AcDbEntity
  8
0
  6
Continuous
 62
     7
370
    25
100
AcDbCircle
 10
728.0876462077
 20
-205.0957437183
 30
0.0
 40
2.0
100
AcDbArc
 50
180.0
 51
270.0
  0
LINE
  5
2CC
330
1F
100
AcDbEntity
  8
0
  6
Continuous
 62
     7
370
    25
100
AcDbLine
 10
726.0876462077
 20
-205.0957437183
 30
0.0
 11
726.0876462077
 21
-174.0957437183
 31
0.0
  0
LINE
  5
2CD
330
1F
100
AcDbEntity
  8
0
  6
Continuous
 62
     7
370
    25
100
AcDbLine
 10
-315.9123537923
 20
-204.0957437183
 30
0.0
 11
-316.9123537923
 21
-207.0957437183
 31
0.0
  0
ARC
  5
2CE
330
1F
100
AcDbEntity
  8
0
  6
Continuous
 62
     7
370
    25
100
AcDbCircle
 10
-316.9123537923
 20
-205.0957437183
 30
0.0
 40
2.0
100
AcDbArc
 50
180.0
 51
270.0
  0
LINE
  5
2CF
330
1F
100
AcDbEntity
  8
0
  6
Continuous
 62
     7
370
    25
100
AcDbLine
 10
-315.9123537923
 20
-204.0957437183
 30
0.0
 11
-318.9123537923
 21
-205.0957437183
 31
0.0
  0
LINE
  5
2D0
330
1F
100
AcDbEntity
  8
0
  6
Continuous
 62
     7
370
    25
100
AcDbLine
 10
-315.9123537923
 20
-175.0957437183
 30
0.0
 11
-315.9123537923
 21
-204.0957437183
 31
0.0
  0
LINE
  5
2D1
330
1F
100
AcDbEntity
  8
0
  6
Continuous
 62
     7
370
    25
100
AcDbLine
 10
-315.9123537923
 20
-175.0957437183
 30
0.0
 11
-318.9123537923
 21
-174.0957437183
 31
0.0
  0
LINE
  5
2D2
330
1F
100
AcDbEntity
  8
0
  6
Continuous
 62
     7
370
    25
100
AcDbLine
 10
-286.9123537923
 20
-175.0957437183
 30
0.0
 11
-315.9123537923
 21
-175.0957437183
 31
0.0
  0
LINE
  5
2D3
330
1F
100
AcDbEntity
  8
0
  6
Continuous
 62
     7
370
    25
100
AcDbLine
 10
-286.9123537923
 20
-204.0957437183
 30
0.0
 11
-286.9123537923
 21
-175.0957437183
 31
0.0
  0
LINE
  5
2D4
330
1F
100
AcDbEntity
  8
0
  6
Continuous
 62
     7
370
    25
100
AcDbLine
 10
-315.9123537923
 20
-204.0957437183
 30
0.0
 11
-286.9123537923
 21
-204.0957437183
 31
0.0
  0
CIRCLE
  5
2D5
330
1F
100
AcDbEntity
  8
0
  6
Continuous
 62
     7
370
    25
100
AcDbCircle
 10
-301.4123537923
 20
-189.5957437183
 30
0.0
 40
1.0
  0
LINE
  5
2D6
330
1F
100
AcDbEntity
  8
0
  6
Continuous
 62
     7
370
    25
100
AcDbLine
 10
-315.9123537923
 20
-175.0957437183
 30
0.0
 11
-316.9123537923
 21
-172.0957437183
 31
0.0
  0
LINE
  5
2D7
330
1F
100
AcDbEntity
  8
0
  6
Continuous
 62
     7
370
    25
100
AcDbLine
 10
-316.9123537923
 20
-172.0957437183
 30
0.0
 11
-285.9123537923
 21
-172.0957437183
 31
0.0
  0
LINE
  5
2D8
330
1F
100
AcDbEntity
  8
0
  6
Continuous
 62
     7
370
    25
100
AcDbLine
 10
-285.9123537923
 20
-172.0957437183
 30
0.0
 11
-286.9123537923
 21
-175.0957437183
 31
0.0
  0
LINE
  5
2D9
330
1F
100
AcDbEntity
  8
0
  6
Continuous
 62
     7
370
    25
100
AcDbLine
 10
-283.9123537923
 20
-174.0957437183
 30
0.0
 11
-283.9123537923
 21
-205.0957437183
 31
0.0
  0
LINE
  5
2DA
330
1F
100
AcDbEntity
  8
0
  6
Continuous
 62
     7
370
    25
100
AcDbLine
 10
-283.9123537923
 20
-205.0957437183
 30
0.0
 11
-286.9123537923
 21
-204.0957437183
 31
0.0
  0
LINE
  5
2DB
330
1F
100
AcDbEntity
  8
0
  6
Continuous
 62
     7
370
    25
100
AcDbLine
 10
-283.9123537923
 20
-174.0957437183
 30
0.0
 11
-286.9123537923
 21
-175.0957437183
 31
0.0
  0
LINE
  5
2DC
330
1F
100
AcDbEntity
  8
0
  6
Continuous
 62
     7
370
    25
100
AcDbLine
 10
-285.9123537923
 20
-207.0957437183
 30
0.0
 11
-286.9123537923
 21
-204.0957437183
 31
0.0
  0
ARC
  5
2DD
330
1F
100
AcDbEntity
  8
0
  6
Continuous
 62
     7
370
    25
100
AcDbCircle
 10
-285.9123537923
 20
-205.0957437183
 30
0.0
 40
2.0
100
AcDbArc
 50
270.0
 51
0.0
  0
ARC
  5
2DE
330
1F
100
AcDbEntity
  8
0
  6
Continuous
 62
     7
370
    25
100
AcDbCircle
 10
-316.9123537923
 20
-174.0957437183
 30
0.0
 40
2.0
100
AcDbArc
 50
90.0
 51
180.0
  0
ARC
  5
2DF
330
1F
100
AcDbEntity
  8
0
  6
Continuous
 62
     7
370
    25
100
AcDbCircle
 10
-285.9123537923
 20
-174.0957437183
 30
0.0
 40
2.0
100
AcDbArc
 50
0.0
 51
90.0
  0
LINE
  5
2E0
330
1F
100
AcDbEntity
  8
0
  6
Continuous
 62
     7
370
    25
100
AcDbLine
 10
726.0876462077
 20
469.0586823414
 30
0.0
 11
726.0876462077
 21
500.0586823414
 31
0.0
  0
LINE
  5
2E1
330
1F
100
AcDbEntity
  8
0
  6
Continuous
 62
     7
370
    25
100
AcDbLine
 10
726.0876462077
 20
500.0586823414
 30
0.0
 11
729.0876462077
 21
499.0586823414
 31
0.0
  0
LINE
  5
2E2
330
1F
100
AcDbEntity
  8
0
  6
Continuous
 62
     7
370
    25
100
AcDbLine
 10
729.0876462077
 20
499.0586823414
 30
0.0
 11
729.0876462077
 21
470.0586823414
 31
0.0
  0
LINE
  5
2E3
330
1F
100
AcDbEntity
  8
0
  6
Continuous
 62
     7
370
    25
100
AcDbLine
 10
726.0876462077
 20
469.0586823414
 30
0.0
 11
729.0876462077
 21
470.0586823414
 31
0.0
  0
LINE
  5
2E4
330
1F
100
AcDbEntity
  8
0
  6
Continuous
 62
     7
370
    25
100
AcDbLine
 10
758.0876462077
 20
470.0586823414
 30
0.0
 11
758.0876462077
 21
499.0586823414
 31
0.0
  0
LINE
  5
2E5
330
1F
100
AcDbEntity
  8
0
  6
Continuous
 62
     7
370
    25
100
AcDbLine
 10
758.0876462077
 20
499.0586823414
 30
0.0
 11
761.0876462077
 21
500.0586823414
 31
0.0
  0
LINE
  5
2E6
330
1F
100
AcDbEntity
  8
0
  6
Continuous
 62
     7
370
    25
100
AcDbLine
 10
758.0876462077
 20
470.0586823414
 30
0.0
 11
761.0876462077
 21
469.0586823414
 31
0.0
  0
LINE
  5
2E7
330
1F
100
AcDbEntity
  8
0
  6
Continuous
 62
     7
370
    25
100
AcDbLine
 10
729.0876462077
 20
470.0586823414
 30
0.0
 11
758.0876462077
 21
470.0586823414
 31
0.0
  0
LINE
  5
2E8
330
1F
100
AcDbEntity
  8
0
  6
Continuous
 62
     7
370
    25
100
AcDbLine
 10
758.0876462077
 20
470.0586823414
 30
0.0
 11
759.0876462077
 21
467.0586823414
 31
0.0
  0
LINE
  5
2E9
330
1F
100
AcDbEntity
  8
0
  6
Continuous
 62
     7
370
    25
100
AcDbLine
 10
759.0876462077
 20
467.0586823414
 30
0.0
 11
728.0876462077
 21
467.0586823414
 31
0.0
  0
LINE
  5
2EA
330
1F
100
AcDbEntity
  8
0
  6
Continuous
 62
     7
370
    25
100
AcDbLine
 10
728.0876462077
 20
467.0586823414
 30
0.0
 11
729.0876462077
 21
470.0586823414
 31
0.0
  0
LINE
  5
2EB
330
1F
100
AcDbEntity
  8
0
  6
Continuous
 62
     7
370
    25
100
AcDbLine
 10
758.0876462077
 20
499.0586823414
 30
0.0
 11
759.0876462077
 21
502.0586823414
 31
0.0
  0
ARC
  5
2EC
330
1F
100
AcDbEntity
  8
0
  6
Continuous
 62
     7
370
    25
100
AcDbCircle
 10
759.0876462077
 20
500.0586823414
 30
0.0
 40
2.0
100
AcDbArc
 50
0.0
 51
90.0
  0
LINE
  5
2ED
330
1F
100
AcDbEntity
  8
0
  6
Continuous
 62
     7
370
    25
100
AcDbLine
 10
758.0876462077
 20
499.0586823414
 30
0.0
 11
729.0876462077
 21
499.0586823414
 31
0.0
  0
LINE
  5
2EE
330
1F
100
AcDbEntity
  8
0
  6
Continuous
 62
     7
370
    25
100
AcDbLine
 10
728.0876462077
 20
502.0586823414
 30
0.0
 11
729.0876462077
 21
499.0586823414
 31
0.0
  0
CIRCLE
  5
2EF
330
1F
100
AcDbEntity
  8
0
  6
Continuous
 62
     7
370
    25
100
AcDbCircle
 10
743.5876462077
 20
484.5586823414
 30
0.0
 40
1.0
  0
ARC
  5
2F0
330
1F
100
AcDbEntity
  8
0
  6
Continuous
 62
     7
370
    25
100
AcDbCircle
 10
728.0876462077
 20
469.0586823414
 30
0.0
 40
2.0
100
AcDbArc
 50
180.0
 51
270.0
  0
ARC
  5
2F1
330
1F
100
AcDbEntity
  8
0
  6
Continuous
 62
     7
370
    25
100
AcDbCircle
 10
728.0876462077
 20
500.0586823414
 30
0.0
 40
2.0
100
AcDbArc
 50
90.0
 51
180.0
  0
ARC
  5
2F2
330
1F
100
AcDbEntity
  8
0
  6
Continuous
 62
     7
370
    25
100
AcDbCircle
 10
759.0876462077
 20
469.0586823414
 30
0.0
 40
2.0
100
AcDbArc
 50
270.0
 51
0.0
  0
LINE
  5
2F3
330
1F
100
AcDbEntity
  8
0
  6
Continuous
 62
     7
370
    25
100
AcDbLine
 10
-35.9123537923
 20
-202.0185306884
 30
0.0
 11
-38.9123537923
 21
-203.0185306884
 31
0.0
  0
LINE
  5
2F4
330
1F
100
AcDbEntity
  8
0
  6
Continuous
 62
     7
370
    25
100
AcDbLine
 10
-35.9123537923
 20
-173.0185306884
 30
0.0
 11
-38.9123537923
 21
-172.0185306884
 31
0.0
  0
LINE
  5
2F5
330
1F
100
AcDbEntity
  8
0
  6
Continuous
 62
     7
370
    25
100
AcDbLine
 10
-6.9123537923
 20
-173.0185306884
 30
0.0
 11
-35.9123537923
 21
-173.0185306884
 31
0.0
  0
LINE
  5
2F6
330
1F
100
AcDbEntity
  8
0
  6
Continuous
 62
     7
370
    25
100
AcDbLine
 10
-35.9123537923
 20
-202.0185306884
 30
0.0
 11
-6.9123537923
 21
-202.0185306884
 31
0.0
  0
LINE
  5
2F7
330
1F
100
AcDbEntity
  8
0
  6
Continuous
 62
     7
370
    25
100
AcDbLine
 10
-3.9123537923
 20
-172.0185306884
 30
0.0
 11
-6.9123537923
 21
-173.0185306884
 31
0.0
  0
LINE
  5
2F8
330
1F
100
AcDbEntity
  8
0
  6
Continuous
 62
     7
370
    25
100
AcDbLine
 10
-5.9123537923
 20
-170.0185306884
 30
0.0
 11
-6.9123537923
 21
-173.0185306884
 31
0.0
  0
ARC
  5
2F9
330
1F
100
AcDbEntity
  8
0
  6
Continuous
 62
     7
370
    25
100
AcDbCircle
 10
-5.9123537923
 20
-172.0185306884
 30
0.0
 40
2.000000000000001
100
AcDbArc
 50
0.0
 51
90.0
  0
LINE
  5
2FA
330
1F
100
AcDbEntity
  8
0
  6
Continuous
 62
     7
370
    25
100
AcDbLine
 10
-5.9123537923
 20
-205.0185306884
 30
0.0
 11
-6.9123537923
 21
-202.0185306884
 31
0.0
  0
LINE
  5
2FB
330
1F
100
AcDbEntity
  8
0
  6
Continuous
 62
     7
370
    25
100
AcDbLine
 10
-5.9123537923
 20
-205.0185306884
 30
0.0
 11
-36.9123537923
 21
-205.0185306884
 31
0.0
  0
LINE
  5
2FC
330
1F
100
AcDbEntity
  8
0
  6
Continuous
 62
     7
370
    25
100
AcDbLine
 10
-35.9123537923
 20
-202.0185306884
 30
0.0
 11
-36.9123537923
 21
-205.0185306884
 31
0.0
  0
LINE
  5
2FD
330
1F
100
AcDbEntity
  8
0
  6
Continuous
 62
     7
370
    25
100
AcDbLine
 10
-3.9123537923
 20
-203.0185306884
 30
0.0
 11
-6.9123537923
 21
-202.0185306884
 31
0.0
  0
ARC
  5
2FE
330
1F
100
AcDbEntity
  8
0
  6
Continuous
 62
     7
370
    25
100
AcDbCircle
 10
-5.9123537923
 20
-203.0185306884
 30
0.0
 40
2.000000000000001
100
AcDbArc
 50
270.0
 51
0.0
  0
ARC
  5
2FF
330
1F
100
AcDbEntity
  8
0
  6
Continuous
 62
     7
370
    25
100
AcDbCircle
 10
-36.9123537923
 20
-172.0185306884
 30
0.0
 40
2.0
100
AcDbArc
 50
90.0
 51
180.0
  0
LINE
  5
300
330
1F
100
AcDbEntity
  8
0
  6
Continuous
 62
     7
370
    25
100
AcDbLine
 10
-35.9123537923
 20
-173.0185306884
 30
0.0
 11
-36.9123537923
 21
-170.0185306884
 31
0.0
  0
ARC
  5
301
330
1F
100
AcDbEntity
  8
0
  6
Continuous
 62
     7
370
    25
100
AcDbCircle
 10
-36.9123537923
 20
-203.0185306884
 30
0.0
 40
2.0
100
AcDbArc
 50
180.0
 51
270.0
  0
LINE
  5
302
330
1F
100
AcDbEntity
  8
0
  6
Continuous
 62
     7
370
    25
100
AcDbLine
 10
-36.9123537923
 20
-170.0185306884
 30
0.0
 11
-5.9123537923
 21
-170.0185306884
 31
0.0
  0
LINE
  5
303
330
1F
100
AcDbEntity
  8
0
  6
Continuous
 62
     7
370
    25
100
AcDbLine
 10
-3.9123537923
 20
-172.0185306884
 30
0.0
 11
-3.9123537923
 21
-175.0185306884
 31
0.0
  0
LINE
  5
304
330
1F
100
AcDbEntity
  8
0
  6
Continuous
 62
     7
370
    25
100
AcDbLine
 10
-3.9123537923
 20
-200.0185306884
 30
0.0
 11
-3.9123537923
 21
-203.0185306884
 31
0.0
  0
LINE
  5
305
330
1F
100
AcDbEntity
  8
0
  6
Continuous
 62
     7
370
    25
100
AcDbLine
 10
-35.9123537923
 20
467.9814693116
 30
0.0
 11
-6.9123537923
 21
467.9814693116
 31
0.0
  0
LINE
  5
306
330
1F
100
AcDbEntity
  8
0
  6
Continuous
 62
     7
370
    25
100
AcDbLine
 10
-5.9123537923
 20
464.9814693116
 30
0.0
 11
-6.9123537923
 21
467.9814693116
 31
0.0
  0
LINE
  5
307
330
1F
100
AcDbEntity
  8
0
  6
Continuous
 62
     7
370
    25
100
AcDbLine
 10
-5.9123537923
 20
464.9814693116
 30
0.0
 11
-36.9123537923
 21
464.9814693116
 31
0.0
  0
LINE
  5
308
330
1F
100
AcDbEntity
  8
0
  6
Continuous
 62
     7
370
    25
100
AcDbLine
 10
-35.9123537923
 20
467.9814693116
 30
0.0
 11
-36.9123537923
 21
464.9814693116
 31
0.0
  0
LINE
  5
309
330
1F
100
AcDbEntity
  8
0
  6
Continuous
 62
     7
370
    25
100
AcDbLine
 10
-35.9123537923
 20
467.9814693116
 30
0.0
 11
-38.9123537923
 21
466.9814693116
 31
0.0
  0
LINE
  5
30A
330
1F
100
AcDbEntity
  8
0
  6
Continuous
 62
     7
370
    25
100
AcDbLine
 10
-35.9123537923
 20
496.9814693116
 30
0.0
 11
-38.9123537923
 21
497.9814693116
 31
0.0
  0
LINE
  5
30B
330
1F
100
AcDbEntity
  8
0
  6
Continuous
 62
     7
370
    25
100
AcDbLine
 10
-3.9123537923
 20
497.9814693116
 30
0.0
 11
-3.9123537923
 21
494.9814693116
 31
0.0
  0
LINE
  5
30C
330
1F
100
AcDbEntity
  8
0
  6
Continuous
 62
     7
370
    25
100
AcDbLine
 10
-3.9123537923
 20
469.9814693116
 30
0.0
 11
-3.9123537923
 21
466.9814693116
 31
0.0
  0
LINE
  5
30D
330
1F
100
AcDbEntity
  8
0
  6
Continuous
 62
     7
370
    25
100
AcDbLine
 10
-3.9123537923
 20
466.9814693116
 30
0.0
 11
-6.9123537923
 21
467.9814693116
 31
0.0
  0
LINE
  5
30E
330
1F
100
AcDbEntity
  8
0
  6
Continuous
 62
     7
370
    25
100
AcDbLine
 10
-3.9123537923
 20
497.9814693116
 30
0.0
 11
-6.9123537923
 21
496.9814693116
 31
0.0
  0
LINE
  5
30F
330
1F
100
AcDbEntity
  8
0
  6
Continuous
 62
     7
370
    25
100
AcDbLine
 10
-6.9123537923
 20
496.9814693116
 30
0.0
 11
-35.9123537923
 21
496.9814693116
 31
0.0
  0
LINE
  5
310
330
1F
100
AcDbEntity
  8
0
  6
Continuous
 62
     7
370
    25
100
AcDbLine
 10
-35.9123537923
 20
496.9814693116
 30
0.0
 11
-36.9123537923
 21
499.9814693116
 31
0.0
  0
LINE
  5
311
330
1F
100
AcDbEntity
  8
0
  6
Continuous
 62
     7
370
    25
100
AcDbLine
 10
-36.9123537923
 20
499.9814693116
 30
0.0
 11
-5.9123537923
 21
499.9814693116
 31
0.0
  0
LINE
  5
312
330
1F
100
AcDbEntity
  8
0
  6
Continuous
 62
     7
370
    25
100
AcDbLine
 10
-5.9123537923
 20
499.9814693116
 30
0.0
 11
-6.9123537923
 21
496.9814693116
 31
0.0
  0
ARC
  5
313
330
1F
100
AcDbEntity
  8
0
  6
Continuous
 62
     7
370
    25
100
AcDbCircle
 10
-36.9123537923
 20
466.9814693116
 30
0.0
 40
2.0
100
AcDbArc
 50
180.0
 51
270.0
  0
ARC
  5
314
330
1F
100
AcDbEntity
  8
0
  6
Continuous
 62
     7
370
    25
100
AcDbCircle
 10
-5.9123537923
 20
466.9814693116
 30
0.0
 40
2.000000000000001
100
AcDbArc
 50
270.0
 51
0.0
  0
ARC
  5
315
330
1F
100
AcDbEntity
  8
0
  6
Continuous
 62
     7
370
    25
100
AcDbCircle
 10
-5.9123537923
 20
497.9814693116
 30
0.0
 40
2.000000000000001
100
AcDbArc
 50
0.0
 51
90.0
  0
ARC
  5
316
330
1F
100
AcDbEntity
  8
0
  6
Continuous
 62
     7
370
    25
100
AcDbCircle
 10
-36.9123537923
 20
497.9814693116
 30
0.0
 40
2.0
100
AcDbArc
 50
90.0
 51
180.0
  0
LINE
  5
317
330
1F
100
AcDbEntity
  8
0
  6
Continuous
 62
     7
370
    25
100
AcDbLine
 10
-286.9123537923
 20
499.0586823414
 30
0.0
 11
-315.9123537923
 21
499.0586823414
 31
0.0
  0
LINE
  5
318
330
1F
100
AcDbEntity
  8
0
  6
Continuous
 62
     7
370
    25
100
AcDbLine
 10
-315.9123537923
 20
499.0586823414
 30
0.0
 11
-316.9123537923
 21
502.0586823414
 31
0.0
  0
LINE
  5
319
330
1F
100
AcDbEntity
  8
0
  6
Continuous
 62
     7
370
    25
100
AcDbLine
 10
-285.9123537923
 20
502.0586823414
 30
0.0
 11
-286.9123537923
 21
499.0586823414
 31
0.0
  0
LINE
  5
31A
330
1F
100
AcDbEntity
  8
0
  6
Continuous
 62
     7
370
    25
100
AcDbLine
 10
-283.9123537923
 20
500.0586823414
 30
0.0
 11
-286.9123537923
 21
499.0586823414
 31
0.0
  0
ARC
  5
31B
330
1F
100
AcDbEntity
  8
0
  6
Continuous
 62
     7
370
    25
100
AcDbCircle
 10
-285.9123537923
 20
500.0586823414
 30
0.0
 40
2.0
100
AcDbArc
 50
0.0
 51
90.0
  0
LINE
  5
31C
330
1F
100
AcDbEntity
  8
0
  6
Continuous
 62
     7
370
    25
100
AcDbLine
 10
-283.9123537923
 20
500.0586823414
 30
0.0
 11
-283.9123537923
 21
469.0586823414
 31
0.0
  0
LINE
  5
31D
330
1F
100
AcDbEntity
  8
0
  6
Continuous
 62
     7
370
    25
100
AcDbLine
 10
-283.9123537923
 20
469.0586823414
 30
0.0
 11
-286.9123537923
 21
470.0586823414
 31
0.0
  0
LINE
  5
31E
330
1F
100
AcDbEntity
  8
0
  6
Continuous
 62
     7
370
    25
100
AcDbLine
 10
-286.9123537923
 20
470.0586823414
 30
0.0
 11
-286.9123537923
 21
499.0586823414
 31
0.0
  0
LINE
  5
31F
330
1F
100
AcDbEntity
  8
0
  6
Continuous
 62
     7
370
    25
100
AcDbLine
 10
-315.9123537923
 20
499.0586823414
 30
0.0
 11
-318.9123537923
 21
500.0586823414
 31
0.0
  0
ARC
  5
320
330
1F
100
AcDbEntity
  8
0
  6
Continuous
 62
     7
370
    25
100
AcDbCircle
 10
-316.9123537923
 20
500.0586823414
 30
0.0
 40
2.0
100
AcDbArc
 50
90.0
 51
180.0
  0
LINE
  5
321
330
1F
100
AcDbEntity
  8
0
  6
Continuous
 62
     7
370
    25
100
AcDbLine
 10
-315.9123537923
 20
470.0586823414
 30
0.0
 11
-316.9123537923
 21
467.0586823414
 31
0.0
  0
ARC
  5
322
330
1F
100
AcDbEntity
  8
0
  6
Continuous
 62
     7
370
    25
100
AcDbCircle
 10
-316.9123537923
 20
469.0586823414
 30
0.0
 40
2.0
100
AcDbArc
 50
180.0
 51
270.0
  0
LINE
  5
323
330
1F
100
AcDbEntity
  8
0
  6
Continuous
 62
     7
370
    25
100
AcDbLine
 10
-315.9123537923
 20
470.0586823414
 30
0.0
 11
-318.9123537923
 21
469.0586823414
 31
0.0
  0
LINE
  5
324
330
1F
100
AcDbEntity
  8
0
  6
Continuous
 62
     7
370
    25
100
AcDbLine
 10
-315.9123537923
 20
470.0586823414
 30
0.0
 11
-286.9123537923
 21
470.0586823414
 31
0.0
  0
LINE
  5
325
330
1F
100
AcDbEntity
  8
0
  6
Continuous
 62
     7
370
    25
100
AcDbLine
 10
-285.9123537923
 20
467.0586823414
 30
0.0
 11
-286.9123537923
 21
470.0586823414
 31
0.0
  0
LINE
  5
326
330
1F
100
AcDbEntity
  8
0
  6
Continuous
 62
     7
370
    25
100
AcDbLine
 10
-285.9123537923
 20
467.0586823414
 30
0.0
 11
-316.9123537923
 21
467.0586823414
 31
0.0
  0
LINE
  5
327
330
1F
100
AcDbEntity
  8
0
  6
Continuous
 62
     7
370
    25
100
AcDbLine
 10
-315.9123537923
 20
499.0586823414
 30
0.0
 11
-315.9123537923
 21
470.0586823414
 31
0.0
  0
CIRCLE
  5
328
330
1F
100
AcDbEntity
  8
0
  6
Continuous
 62
     7
370
    25
100
AcDbCircle
 10
-301.4123537923
 20
484.5586823414
 30
0.0
 40
1.0
  0
ARC
  5
329
330
1F
100
AcDbEntity
  8
0
  6
Continuous
 62
     7
370
    25
100
AcDbCircle
 10
-285.9123537923
 20
469.0586823414
 30
0.0
 40
2.0
100
AcDbArc
 50
270.0
 51
0.0
  0
LINE
  5
32A
330
1F
100
AcDbEntity
  8
0
  6
Continuous
 62
     7
370
    25
100
AcDbLine
 10
508.5876462077
 20
-100.1493023859
 30
0.0
 11
508.5876462077
 21
-78.6493023859
 31
0.0
  0
LINE
  5
32B
330
1F
100
AcDbEntity
  8
0
  6
Continuous
 62
     7
370
    25
100
AcDbLine
 10
-66.4123537923
 20
395.112241009
 30
0.0
 11
-66.4123537923
 21
373.612241009
 31
0.0
  0
LINE
  5
32C
330
1F
100
AcDbEntity
  8
0
  6
Continuous
 62
     7
370
    25
100
AcDbLine
 10
-66.4123537923
 20
158.2314693116
 30
0.0
 11
-66.4123537923
 21
136.7314693116
 31
0.0
  0
LINE
  5
32D
330
1F
100
AcDbEntity
  8
0
  6
Continuous
 62
     7
370
    25
100
AcDbLine
 10
-66.4123537923
 20
-78.6493023859
 30
0.0
 11
-66.4123537923
 21
-100.1493023859
 31
0.0
  0
LINE
  5
32E
330
1F
100
AcDbEntity
  8
0
  6
Continuous
 62
     7
370
    25
100
AcDbLine
 10
713.5876462077
 20
473.8092026705
 30
0.0
 11
713.5876462077
 21
473.8086823414
 31
0.0
  0
LINE
  5
32F
330
1F
100
AcDbEntity
  8
0
  6
Continuous
 62
     7
370
    25
100
AcDbLine
 10
713.5876462077
 20
495.3086823414
 30
0.0
 11
713.5876462077
 21
473.8092026705
 31
0.0
  0
LINE
  5
330
330
1F
100
AcDbEntity
  8
0
  6
Continuous
 62
     7
370
    25
100
AcDbLine
 10
-346.4123537923
 20
-47.9523958695
 30
0.0
 11
-346.4123537923
 21
-52.7731480428
 31
0.0
  0
LINE
  5
331
330
1F
100
AcDbEntity
  8
0
  6
Continuous
 62
     7
370
    25
100
AcDbLine
 10
-346.4123537923
 20
-31.2731480428
 30
0.0
 11
-346.4123537923
 21
-47.9523958695
 31
0.0
  0
LINE
  5
332
330
1F
100
AcDbEntity
  8
0
  6
Continuous
 62
     7
370
    25
100
AcDbLine
 10
508.5876462077
 20
471.7314693116
 30
0.0
 11
508.5876462077
 21
493.2314693116
 31
0.0
  0
LINE
  5
333
330
1F
100
AcDbEntity
  8
0
  6
Continuous
 62
     7
370
    25
100
AcDbLine
 10
-346.4123537923
 20
345.9530549609
 30
0.0
 11
-346.4123537923
 21
326.2360866767
 31
0.0
  0
LINE
  5
334
330
1F
100
AcDbEntity
  8
0
  6
Continuous
 62
     7
370
    25
100
AcDbLine
 10
-346.4123537923
 20
347.7360866767
 30
0.0
 11
-346.4123537923
 21
345.9530549609
 31
0.0
  0
LINE
  5
335
330
1F
100
AcDbEntity
  8
0
  6
Continuous
 62
     7
370
    25
100
AcDbLine
 10
687.8376462077
 20
-234.5957437183
 30
0.0
 11
709.3376462077
 21
-234.5957437183
 31
0.0
  0
LINE
  5
336
330
1F
100
AcDbEntity
  8
0
  6
Continuous
 62
     7
370
    25
100
AcDbLine
 10
-271.4123537923
 20
-178.8462640474
 30
0.0
 11
-271.4123537923
 21
-178.8457437183
 31
0.0
  0
LINE
  5
337
330
1F
100
AcDbEntity
  8
0
  6
Continuous
 62
     7
370
    25
100
AcDbLine
 10
-271.4123537923
 20
-200.3457437183
 30
0.0
 11
-271.4123537923
 21
-178.8462640474
 31
0.0
  0
LINE
  5
338
330
1F
100
AcDbEntity
  8
0
  6
Continuous
 62
     7
370
    25
100
AcDbLine
 10
788.5876462077
 20
-47.9523958695
 30
0.0
 11
788.5876462077
 21
-31.2731480428
 31
0.0
  0
LINE
  5
339
330
1F
100
AcDbEntity
  8
0
  6
Continuous
 62
     7
370
    25
100
AcDbLine
 10
788.5876462077
 20
-52.7731480428
 30
0.0
 11
788.5876462077
 21
-47.9523958695
 31
0.0
  0
LINE
  5
33A
330
1F
100
AcDbEntity
  8
0
  6
Continuous
 62
     7
370
    25
100
AcDbLine
 10
788.5876462077
 20
345.9530549609
 30
0.0
 11
788.5876462077
 21
347.7360866767
 31
0.0
  0
LINE
  5
33B
330
1F
100
AcDbEntity
  8
0
  6
Continuous
 62
     7
370
    25
100
AcDbLine
 10
788.5876462077
 20
326.2360866767
 30
0.0
 11
788.5876462077
 21
345.9530549609
 31
0.0
  0
LINE
  5
33C
330
1F
100
AcDbEntity
  8
0
  6
Continuous
 62
     7
370
    25
100
AcDbLine
 10
-66.4123537923
 20
493.2314693116
 30
0.0
 11
-66.4123537923
 21
471.7314693116
 31
0.0
  0
LINE
  5
33D
330
1F
100
AcDbEntity
  8
0
  6
Continuous
 62
     7
370
    25
100
AcDbLine
 10
508.5876462077
 20
373.612241009
 30
0.0
 11
508.5876462077
 21
395.112241009
 31
0.0
  0
LINE
  5
33E
330
1F
100
AcDbEntity
  8
0
  6
Continuous
 62
     7
370
    25
100
AcDbLine
 10
-66.4123537923
 20
-176.7685306884
 30
0.0
 11
-66.4123537923
 21
-198.2685306884
 31
0.0
  0
LINE
  5
33F
330
1F
100
AcDbEntity
  8
0
  6
Continuous
 62
     7
370
    25
100
AcDbLine
 10
508.5876462077
 20
136.7314693116
 30
0.0
 11
508.5876462077
 21
158.2314693116
 31
0.0
  0
LINE
  5
340
330
1F
100
AcDbEntity
  8
0
  6
Continuous
 62
     7
370
    25
100
AcDbLine
 10
713.5876462077
 20
-178.8457437183
 30
0.0
 11
713.5876462077
 21
-200.3457437183
 31
0.0
  0
LINE
  5
341
330
1F
100
AcDbEntity
  8
0
  6
Continuous
 62
     7
370
    25
100
AcDbLine
 10
799.3376462077
 20
529.5586823414
 30
0.0
 11
777.8376462077
 21
529.5586823414
 31
0.0
  0
LINE
  5
342
330
1F
100
AcDbEntity
  8
0
  6
Continuous
 62
     7
370
    25
100
AcDbLine
 10
508.5876462077
 20
-198.2685306884
 30
0.0
 11
508.5876462077
 21
-176.7685306884
 31
0.0
  0
LINE
  5
343
330
1F
100
AcDbEntity
  8
0
  6
Continuous
 62
     7
370
    25
100
AcDbLine
 10
-290.6623537923
 20
529.5586823414
 30
0.0
 11
-312.1623537923
 21
529.5586823414
 31
0.0
  0
LINE
  5
344
330
1F
100
AcDbEntity
  8
0
  6
Continuous
 62
     7
370
    25
100
AcDbLine
 10
732.8376462077
 20
-234.5957437183
 30
0.0
 11
754.3376462077
 21
-234.5957437183
 31
0.0
  0
LINE
  5
345
330
1F
100
AcDbEntity
  8
0
  6
Continuous
 62
     7
370
    25
100
AcDbLine
 10
777.8376462077
 20
-234.5957437183
 30
0.0
 11
799.3376462077
 21
-234.5957437183
 31
0.0
  0
LINE
  5
346
330
1F
100
AcDbEntity
  8
0
  6
Continuous
 62
     7
370
    25
100
AcDbLine
 10
-357.1623537923
 20
-234.5957437183
 30
0.0
 11
-335.6623537923
 21
-234.5957437183
 31
0.0
  0
LINE
  5
347
330
1F
100
AcDbEntity
  8
0
  6
Continuous
 62
     7
370
    25
100
AcDbLine
 10
-245.6623537923
 20
529.5586823414
 30
0.0
 11
-267.1623537923
 21
529.5586823414
 31
0.0
  0
LINE
  5
348
330
1F
100
AcDbEntity
  8
0
  6
Continuous
 62
     7
370
    25
100
AcDbLine
 10
-271.4123537923
 20
473.8086823414
 30
0.0
 11
-271.4123537923
 21
495.3086823414
 31
0.0
  0
LINE
  5
349
330
1F
100
AcDbEntity
  8
0
  6
Continuous
 62
     7
370
    25
100
AcDbLine
 10
-312.1623537923
 20
-234.5957437183
 30
0.0
 11
-290.6623537923
 21
-234.5957437183
 31
0.0
  0
LINE
  5
34A
330
1F
100
AcDbEntity
  8
0
  6
Continuous
 62
     7
370
    25
100
AcDbLine
 10
-267.1623537923
 20
-234.5957437183
 30
0.0
 11
-245.6623537923
 21
-234.5957437183
 31
0.0
  0
LINE
  5
34B
330
1F
100
AcDbEntity
  8
0
  6
Continuous
 62
     7
370
    25
100
AcDbLine
 10
754.3376462077
 20
529.5586823414
 30
0.0
 11
732.8376462077
 21
529.5586823414
 31
0.0
  0
LINE
  5
34C
330
1F
100
AcDbEntity
  8
0
  6
Continuous
 62
     7
370
    25
100
AcDbLine
 10
709.3376462077
 20
529.5586823414
 30
0.0
 11
687.8376462077
 21
529.5586823414
 31
0.0
  0
LINE
  5
34D
330
1F
100
AcDbEntity
  8
0
  6
Continuous
 62
     7
370
    25
100
AcDbLine
 10
-335.6623537923
 20
529.5586823414
 30
0.0
 11
-357.1623537923
 21
529.5586823414
 31
0.0
  0
LINE
  5
34E
330
1F
100
AcDbEntity
  8
0
  6
Continuous
 62
     7
370
    25
100
AcDbLine
 10
865.5876462073
 20
-222.0957437183
 30
0.0
 11
776.0876462077
 21
-222.0957437183
 31
0.0
  0
LINE
  5
34F
330
1F
100
AcDbEntity
  8
0
  6
Continuous
 62
     7
370
    25
100
AcDbLine
 10
761.0876462077
 20
-222.0957437183
 30
0.0
 11
621.5876462077
 21
-222.0957437183
 31
0.0
  0
LINE
  5
350
330
1F
100
AcDbEntity
  8
0
  6
Continuous
 62
     7
370
    25
100
AcDbLine
 10
621.5876462077
 20
-207.0957437183
 30
0.0
 11
761.0876462077
 21
-207.0957437183
 31
0.0
  0
LINE
  5
351
330
1F
100
AcDbEntity
  8
0
  6
Continuous
 62
     7
370
    25
100
AcDbLine
 10
776.0876462077
 20
-207.0957437183
 30
0.0
 11
865.5876462073
 21
-207.0957437183
 31
0.0
  0
LINE
  5
352
330
1F
100
AcDbEntity
  8
0
  6
Continuous
 62
     7
370
    25
100
AcDbLine
 10
-179.4123537927
 20
502.0586823414
 30
0.0
 11
-318.9123537923
 21
502.0586823414
 31
0.0
  0
LINE
  5
353
330
1F
100
AcDbEntity
  8
0
  6
Continuous
 62
     7
370
    25
100
AcDbLine
 10
-333.9123537923
 20
502.0586823414
 30
0.0
 11
-423.4123537923
 21
502.0586823414
 31
0.0
  0
LINE
  5
354
330
1F
100
AcDbEntity
  8
0
  6
Continuous
 62
     7
370
    25
100
AcDbLine
 10
-423.4123537923
 20
517.0586823414
 30
0.0
 11
-333.9123537923
 21
517.0586823414
 31
0.0
  0
LINE
  5
355
330
1F
100
AcDbEntity
  8
0
  6
Continuous
 62
     7
370
    25
100
AcDbLine
 10
-318.9123537923
 20
517.0586823414
 30
0.0
 11
-179.4123537927
 21
517.0586823414
 31
0.0
  0
LINE
  5
356
330
1F
100
AcDbEntity
  8
0
  6
Continuous
 62
     7
370
    25
100
AcDbLine
 10
865.5876462073
 20
502.0586823414
 30
0.0
 11
776.0876462077
 21
502.0586823414
 31
0.0
  0
LINE
  5
357
330
1F
100
AcDbEntity
  8
0
  6
Continuous
 62
     7
370
    25
100
AcDbLine
 10
761.0876462077
 20
502.0586823414
 30
0.0
 11
621.5876462077
 21
502.0586823414
 31
0.0
  0
LINE
  5
358
330
1F
100
AcDbEntity
  8
0
  6
Continuous
 62
     7
370
    25
100
AcDbLine
 10
621.5876462077
 20
517.0586823414
 30
0.0
 11
761.0876462077
 21
517.0586823414
 31
0.0
  0
LINE
  5
359
330
1F
100
AcDbEntity
  8
0
  6
Continuous
 62
     7
370
    25
100
AcDbLine
 10
776.0876462077
 20
517.0586823414
 30
0.0
 11
865.5876462073
 21
517.0586823414
 31
0.0
  0
LINE
  5
35A
330
1F
100
AcDbEntity
  8
0
  6
Continuous
 62
     7
370
    25
100
AcDbLine
 10
-423.4123537919
 20
-207.0957437183
 30
0.0
 11
-333.9123537923
 21
-207.0957437183
 31
0.0
  0
LINE
  5
35B
330
1F
100
AcDbEntity
  8
0
  6
Continuous
 62
     7
370
    25
100
AcDbLine
 10
-318.9123537923
 20
-207.0957437183
 30
0.0
 11
-179.4123537923
 21
-207.0957437183
 31
0.0
  0
LINE
  5
35C
330
1F
100
AcDbEntity
  8
0
  6
Continuous
 62
     7
370
    25
100
AcDbLine
 10
-179.4123537923
 20
-222.0957437183
 30
0.0
 11
-318.9123537923
 21
-222.0957437183
 31
0.0
  0
LINE
  5
35D
330
1F
100
AcDbEntity
  8
0
  6
Continuous
 62
     7
370
    25
100
AcDbLine
 10
-333.9123537923
 20
-222.0957437183
 30
0.0
 11
-423.4123537919
 21
-222.0957437183
 31
0.0
  0
LINE
  5
35E
330
1F
100
AcDbEntity
  8
0
  6
Continuous
 62
     7
370
    25
100
AcDbLine
 10
776.0876462077
 20
529.4814693116
 30
0.0
 11
776.0876462077
 21
-234.5185306884
 31
0.0
  0
LINE
  5
35F
330
1F
100
AcDbEntity
  8
0
  6
Continuous
 62
     7
370
    25
100
AcDbLine
 10
761.0876462077
 20
-234.5185306884
 30
0.0
 11
761.0876462077
 21
529.4814693116
 31
0.0
  0
LINE
  5
360
330
1F
100
AcDbEntity
  8
0
  6
Continuous
 62
     7
370
    25
100
AcDbLine
 10
-318.9123537923
 20
529.4814693116
 30
0.0
 11
-318.9123537923
 21
-234.5185306884
 31
0.0
  0
LINE
  5
361
330
1F
100
AcDbEntity
  8
0
  6
Continuous
 62
     7
370
    25
100
AcDbLine
 10
-333.9123537923
 20
-234.5185306884
 30
0.0
 11
-333.9123537923
 21
529.4814693116
 31
0.0
  0
LINE
  5
362
330
1F
100
AcDbEntity
  8
0
  6
Continuous
 62
     7
370
    25
100
AcDbLine
 10
493.0876462077
 20
-237.5185306884
 30
0.0
 11
493.0876462077
 21
532.4814693116
 31
0.0
  0
ARC
  5
363
330
1F
100
AcDbEntity
  8
0
  6
Continuous
 62
     7
370
    25
100
AcDbCircle
 10
493.0876462077
 20
529.4814693116
 30
0.0
 40
3.0
100
AcDbArc
 50
0.0
 51
90.0
  0
LINE
  5
364
330
1F
100
AcDbEntity
  8
0
  6
Continuous
 62
     7
370
    25
100
AcDbLine
 10
496.0876462077
 20
529.4814693116
 30
0.0
 11
496.0876462077
 21
-234.5185306884
 31
0.0
  0
ARC
  5
365
330
1F
100
AcDbEntity
  8
0
  6
Continuous
 62
     7
370
    25
100
AcDbCircle
 10
493.0876462077
 20
-234.5185306884
 30
0.0
 40
3.0
100
AcDbArc
 50
270.0
 51
0.0
  0
LINE
  5
366
330
1F
100
AcDbEntity
  8
0
  6
Continuous
 62
     7
370
    25
100
AcDbLine
 10
484.0876462077
 20
-237.5185306884
 30
0.0
 11
493.0876462077
 21
-237.5185306884
 31
0.0
  0
LINE
  5
367
330
1F
100
AcDbEntity
  8
0
  6
Continuous
 62
     7
370
    25
100
AcDbLine
 10
484.0876462077
 20
532.4814693116
 30
0.0
 11
484.0876462077
 21
-237.5185306884
 31
0.0
  0
LINE
  5
368
330
1F
100
AcDbEntity
  8
0
  6
Continuous
 62
     7
370
    25
100
AcDbLine
 10
484.0876462077
 20
532.4814693116
 30
0.0
 11
493.0876462077
 21
532.4814693116
 31
0.0
  0
LINE
  5
369
330
1F
100
AcDbEntity
  8
0
  6
Continuous
 62
     7
370
    25
100
AcDbLine
 10
481.0876462077
 20
-234.5185306884
 30
0.0
 11
481.0876462077
 21
529.4814693116
 31
0.0
  0
ARC
  5
36A
330
1F
100
AcDbEntity
  8
0
  6
Continuous
 62
     7
370
    25
100
AcDbCircle
 10
484.0876462077
 20
529.4814693116
 30
0.0
 40
3.0
100
AcDbArc
 50
90.0
 51
180.0
  0
ARC
  5
36B
330
1F
100
AcDbEntity
  8
0
  6
Continuous
 62
     7
370
    25
100
AcDbCircle
 10
484.0876462077
 20
-234.5185306884
 30
0.0
 40
3.0
100
AcDbArc
 50
180.0
 51
270.0
  0
LINE
  5
36C
330
1F
100
AcDbEntity
  8
0
  6
Continuous
 62
     7
370
    25
100
AcDbLine
 10
-41.9123537923
 20
-237.5185306884
 30
0.0
 11
-41.9123537923
 21
532.4814693116
 31
0.0
  0
LINE
  5
36D
330
1F
100
AcDbEntity
  8
0
  6
Continuous
 62
     7
370
    25
100
AcDbLine
 10
-50.9123537923
 20
-237.5185306884
 30
0.0
 11
-41.9123537923
 21
-237.5185306884
 31
0.0
  0
LINE
  5
36E
330
1F
100
AcDbEntity
  8
0
  6
Continuous
 62
     7
370
    25
100
AcDbLine
 10
-50.9123537923
 20
532.4814693116
 30
0.0
 11
-50.9123537923
 21
-237.5185306884
 31
0.0
  0
LINE
  5
36F
330
1F
100
AcDbEntity
  8
0
  6
Continuous
 62
     7
370
    25
100
AcDbLine
 10
-50.9123537923
 20
532.4814693116
 30
0.0
 11
-41.9123537923
 21
532.4814693116
 31
0.0
  0
LINE
  5
370
330
1F
100
AcDbEntity
  8
0
  6
Continuous
 62
     7
370
    25
100
AcDbLine
 10
-53.9123537923
 20
-234.5185306884
 30
0.0
 11
-53.9123537923
 21
529.4814693116
 31
0.0
  0
ARC
  5
371
330
1F
100
AcDbEntity
  8
0
  6
Continuous
 62
     7
370
    25
100
AcDbCircle
 10
-50.9123537923
 20
529.4814693116
 30
0.0
 40
3.0
100
AcDbArc
 50
90.0
 51
180.0
  0
ARC
  5
372
330
1F
100
AcDbEntity
  8
0
  6
Continuous
 62
     7
370
    25
100
AcDbCircle
 10
-50.9123537923
 20
-234.5185306884
 30
0.0
 40
3.0
100
AcDbArc
 50
180.0
 51
270.0
  0
ARC
  5
373
330
1F
100
AcDbEntity
  8
0
  6
Continuous
 62
     7
370
    25
100
AcDbCircle
 10
-41.9123537923
 20
529.4814693116
 30
0.0
 40
3.000000000000007
100
AcDbArc
 50
0.0
 51
90.0
  0
LINE
  5
374
330
1F
100
AcDbEntity
  8
0
  6
Continuous
 62
     7
370
    25
100
AcDbLine
 10
-38.9123537923
 20
529.4814693116
 30
0.0
 11
-38.9123537923
 21
-234.5185306884
 31
0.0
  0
ARC
  5
375
330
1F
100
AcDbEntity
  8
0
  6
Continuous
 62
     7
370
    25
100
AcDbCircle
 10
-41.9123537923
 20
-234.5185306884
 30
0.0
 40
3.000000000000007
100
AcDbArc
 50
270.0
 51
0.0
  0
LINE
  5
376
330
1F
100
AcDbEntity
  8
0
  6
Continuous
 62
     7
370
    25
100
AcDbLine
 10
-208.3860380028
 20
-134.5185306884
 30
0.0
 11
-208.3860380028
 21
429.4814693116
 31
0.0
  0
LINE
  5
377
330
1F
100
AcDbEntity
  8
0
  6
Continuous
 62
     7
370
    25
100
AcDbLine
 10
318.9823830498
 20
429.4814693115
 30
0.0
 11
318.9823830498
 21
396.862241009
 31
0.0
  0
LINE
  5
378
330
1F
100
AcDbEntity
  8
0
  6
Continuous
 62
     7
370
    25
100
AcDbLine
 10
318.9823830498
 20
371.862241009
 30
0.0
 11
318.9823830498
 21
159.9814693116
 31
0.0
  0
LINE
  5
379
330
1F
100
AcDbEntity
  8
0
  6
Continuous
 62
     7
370
    25
100
AcDbLine
 10
318.9823830498
 20
134.9814693116
 30
0.0
 11
318.9823830498
 21
-76.8993023859
 31
0.0
  0
LINE
  5
37A
330
1F
100
AcDbEntity
  8
0
  6
Continuous
 62
     7
370
    25
100
AcDbLine
 10
318.9823830498
 20
-101.8993023859
 30
0.0
 11
318.9823830498
 21
-134.5185306884
 31
0.0
  0
LINE
  5
37B
330
1F
100
AcDbEntity
  8
0
  6
Continuous
 62
     7
370
    25
100
AcDbLine
 10
233.7192251551
 20
-134.5185306884
 30
0.0
 11
233.7192251551
 21
-101.8993023859
 31
0.0
  0
LINE
  5
37C
330
1F
100
AcDbEntity
  8
0
  6
Continuous
 62
     7
370
    25
100
AcDbLine
 10
233.7192251551
 20
-76.8993023859
 30
0.0
 11
233.7192251551
 21
134.9814693116
 31
0.0
  0
LINE
  5
37D
330
1F
100
AcDbEntity
  8
0
  6
Continuous
 62
     7
370
    25
100
AcDbLine
 10
233.7192251551
 20
159.9814693116
 30
0.0
 11
233.7192251551
 21
371.862241009
 31
0.0
  0
LINE
  5
37E
330
1F
100
AcDbEntity
  8
0
  6
Continuous
 62
     7
370
    25
100
AcDbLine
 10
233.7192251551
 20
396.862241009
 30
0.0
 11
233.7192251551
 21
429.4814693116
 31
0.0
  0
LINE
  5
37F
330
1F
100
AcDbEntity
  8
0
  6
Continuous
 62
     7
370
    25
100
AcDbLine
 10
263.7192251551
 20
429.4814693115
 30
0.0
 11
263.7192251551
 21
396.862241009
 31
0.0
  0
LINE
  5
380
330
1F
100
AcDbEntity
  8
0
  6
Continuous
 62
     7
370
    25
100
AcDbLine
 10
263.7192251551
 20
371.862241009
 30
0.0
 11
263.7192251551
 21
159.9814693116
 31
0.0
  0
LINE
  5
381
330
1F
100
AcDbEntity
  8
0
  6
Continuous
 62
     7
370
    25
100
AcDbLine
 10
263.7192251551
 20
134.9814693116
 30
0.0
 11
263.7192251551
 21
-76.8993023859
 31
0.0
  0
LINE
  5
382
330
1F
100
AcDbEntity
  8
0
  6
Continuous
 62
     7
370
    25
100
AcDbLine
 10
263.7192251551
 20
-101.8993023859
 30
0.0
 11
263.7192251551
 21
-134.5185306884
 31
0.0
  0
LINE
  5
383
330
1F
100
AcDbEntity
  8
0
  6
Continuous
 62
     7
370
    25
100
AcDbLine
 10
178.4560672603
 20
-134.5185306884
 30
0.0
 11
178.4560672603
 21
-101.8993023859
 31
0.0
  0
LINE
  5
384
330
1F
100
AcDbEntity
  8
0
  6
Continuous
 62
     7
370
    25
100
AcDbLine
 10
178.4560672603
 20
-76.8993023859
 30
0.0
 11
178.4560672603
 21
134.9814693116
 31
0.0
  0
LINE
  5
385
330
1F
100
AcDbEntity
  8
0
  6
Continuous
 62
     7
370
    25
100
AcDbLine
 10
178.4560672603
 20
159.9814693116
 30
0.0
 11
178.4560672603
 21
371.862241009
 31
0.0
  0
LINE
  5
386
330
1F
100
AcDbEntity
  8
0
  6
Continuous
 62
     7
370
    25
100
AcDbLine
 10
178.4560672603
 20
396.862241009
 30
0.0
 11
178.4560672603
 21
429.4814693116
 31
0.0
  0
LINE
  5
387
330
1F
100
AcDbEntity
  8
0
  6
Continuous
 62
     7
370
    25
100
AcDbLine
 10
-123.1228801081
 20
429.4814693115
 30
0.0
 11
-123.1228801081
 21
-134.5185306884
 31
0.0
  0
LINE
  5
388
330
1F
100
AcDbEntity
  8
0
  6
Continuous
 62
     7
370
    25
100
AcDbLine
 10
288.9823830498
 20
-134.5185306884
 30
0.0
 11
288.9823830498
 21
-101.8993023859
 31
0.0
  0
LINE
  5
389
330
1F
100
AcDbEntity
  8
0
  6
Continuous
 62
     7
370
    25
100
AcDbLine
 10
288.9823830498
 20
-76.8993023859
 30
0.0
 11
288.9823830498
 21
134.9814693116
 31
0.0
  0
LINE
  5
38A
330
1F
100
AcDbEntity
  8
0
  6
Continuous
 62
     7
370
    25
100
AcDbLine
 10
288.9823830498
 20
159.9814693116
 30
0.0
 11
288.9823830498
 21
371.862241009
 31
0.0
  0
LINE
  5
38B
330
1F
100
AcDbEntity
  8
0
  6
Continuous
 62
     7
370
    25
100
AcDbLine
 10
288.9823830498
 20
396.862241009
 30
0.0
 11
288.9823830498
 21
429.4814693116
 31
0.0
  0
LINE
  5
38C
330
1F
100
AcDbEntity
  8
0
  6
Continuous
 62
     7
370
    25
100
AcDbLine
 10
-153.1228801081
 20
-134.5185306884
 30
0.0
 11
-153.1228801081
 21
429.4814693116
 31
0.0
  0
LINE
  5
38D
330
1F
100
AcDbEntity
  8
0
  6
Continuous
 62
     7
370
    25
100
AcDbLine
 10
620.5613304182
 20
-134.5185306884
 30
0.0
 11
620.5613304182
 21
429.4814693116
 31
0.0
  0
LINE
  5
38E
330
1F
100
AcDbEntity
  8
0
  6
Continuous
 62
     7
370
    25
100
AcDbLine
 10
540.0350146288
 20
429.4814693115
 30
0.0
 11
540.0350146288
 21
-134.5185306884
 31
0.0
  0
LINE
  5
38F
330
1F
100
AcDbEntity
  8
0
  6
Continuous
 62
     7
370
    25
100
AcDbLine
 10
153.1929093656
 20
429.4814693115
 30
0.0
 11
153.1929093656
 21
396.862241009
 31
0.0
  0
LINE
  5
390
330
1F
100
AcDbEntity
  8
0
  6
Continuous
 62
     7
370
    25
100
AcDbLine
 10
153.1929093656
 20
371.862241009
 30
0.0
 11
153.1929093656
 21
159.9814693116
 31
0.0
  0
LINE
  5
391
330
1F
100
AcDbEntity
  8
0
  6
Continuous
 62
     7
370
    25
100
AcDbLine
 10
153.1929093656
 20
134.9814693116
 30
0.0
 11
153.1929093656
 21
-76.8993023859
 31
0.0
  0
LINE
  5
392
330
1F
100
AcDbEntity
  8
0
  6
Continuous
 62
     7
370
    25
100
AcDbLine
 10
153.1929093656
 20
-101.8993023859
 30
0.0
 11
153.1929093656
 21
-134.5185306884
 31
0.0
  0
LINE
  5
393
330
1F
100
AcDbEntity
  8
0
  6
Continuous
 62
     7
370
    25
100
AcDbLine
 10
-178.3860380028
 20
429.4814693115
 30
0.0
 11
-178.3860380028
 21
-134.5185306884
 31
0.0
  0
LINE
  5
394
330
1F
100
AcDbEntity
  8
0
  6
Continuous
 62
     7
370
    25
100
AcDbLine
 10
-263.6491958976
 20
-134.5185306884
 30
0.0
 11
-263.6491958976
 21
429.4814693116
 31
0.0
  0
LINE
  5
395
330
1F
100
AcDbEntity
  8
0
  6
Continuous
 62
     7
370
    25
100
AcDbLine
 10
731.0876462077
 20
-134.5185306884
 30
0.0
 11
731.0876462077
 21
429.4814693116
 31
0.0
  0
LINE
  5
396
330
1F
100
AcDbEntity
  8
0
  6
Continuous
 62
     7
370
    25
100
AcDbLine
 10
67.9297514709
 20
-134.5185306884
 30
0.0
 11
67.9297514709
 21
-101.8993023859
 31
0.0
  0
LINE
  5
397
330
1F
100
AcDbEntity
  8
0
  6
Continuous
 62
     7
370
    25
100
AcDbLine
 10
67.9297514709
 20
-76.8993023859
 30
0.0
 11
67.9297514709
 21
134.9814693116
 31
0.0
  0
LINE
  5
398
330
1F
100
AcDbEntity
  8
0
  6
Continuous
 62
     7
370
    25
100
AcDbLine
 10
67.9297514709
 20
159.9814693116
 30
0.0
 11
67.9297514709
 21
371.862241009
 31
0.0
  0
LINE
  5
399
330
1F
100
AcDbEntity
  8
0
  6
Continuous
 62
     7
370
    25
100
AcDbLine
 10
67.9297514709
 20
396.862241009
 30
0.0
 11
67.9297514709
 21
429.4814693116
 31
0.0
  0
LINE
  5
39A
330
1F
100
AcDbEntity
  8
0
  6
Continuous
 62
     7
370
    25
100
AcDbLine
 10
123.1929093656
 20
-134.5185306884
 30
0.0
 11
123.1929093656
 21
-101.8993023859
 31
0.0
  0
LINE
  5
39B
330
1F
100
AcDbEntity
  8
0
  6
Continuous
 62
     7
370
    25
100
AcDbLine
 10
123.1929093656
 20
-76.8993023859
 30
0.0
 11
123.1929093656
 21
134.9814693116
 31
0.0
  0
LINE
  5
39C
330
1F
100
AcDbEntity
  8
0
  6
Continuous
 62
     7
370
    25
100
AcDbLine
 10
123.1929093656
 20
159.9814693116
 30
0.0
 11
123.1929093656
 21
371.862241009
 31
0.0
  0
LINE
  5
39D
330
1F
100
AcDbEntity
  8
0
  6
Continuous
 62
     7
370
    25
100
AcDbLine
 10
123.1929093656
 20
396.862241009
 30
0.0
 11
123.1929093656
 21
429.4814693116
 31
0.0
  0
LINE
  5
39E
330
1F
100
AcDbEntity
  8
0
  6
Continuous
 62
     7
370
    25
100
AcDbLine
 10
565.2981725235
 20
-134.5185306884
 30
0.0
 11
565.2981725235
 21
429.4814693116
 31
0.0
  0
LINE
  5
39F
330
1F
100
AcDbEntity
  8
0
  6
Continuous
 62
     7
370
    25
100
AcDbLine
 10
429.5086988393
 20
429.4814693115
 30
0.0
 11
429.5086988393
 21
396.862241009
 31
0.0
  0
LINE
  5
3A0
330
1F
100
AcDbEntity
  8
0
  6
Continuous
 62
     7
370
    25
100
AcDbLine
 10
429.5086988393
 20
371.862241009
 30
0.0
 11
429.5086988393
 21
159.9814693116
 31
0.0
  0
LINE
  5
3A1
330
1F
100
AcDbEntity
  8
0
  6
Continuous
 62
     7
370
    25
100
AcDbLine
 10
429.5086988393
 20
134.9814693116
 30
0.0
 11
429.5086988393
 21
-76.8993023859
 31
0.0
  0
LINE
  5
3A2
330
1F
100
AcDbEntity
  8
0
  6
Continuous
 62
     7
370
    25
100
AcDbLine
 10
429.5086988393
 20
-101.8993023859
 30
0.0
 11
429.5086988393
 21
-134.5185306884
 31
0.0
  0
LINE
  5
3A3
330
1F
100
AcDbEntity
  8
0
  6
Continuous
 62
     7
370
    25
100
AcDbLine
 10
374.2455409445
 20
429.4814693115
 30
0.0
 11
374.2455409445
 21
396.862241009
 31
0.0
  0
LINE
  5
3A4
330
1F
100
AcDbEntity
  8
0
  6
Continuous
 62
     7
370
    25
100
AcDbLine
 10
374.2455409445
 20
371.862241009
 30
0.0
 11
374.2455409445
 21
159.9814693116
 31
0.0
  0
LINE
  5
3A5
330
1F
100
AcDbEntity
  8
0
  6
Continuous
 62
     7
370
    25
100
AcDbLine
 10
374.2455409445
 20
134.9814693116
 30
0.0
 11
374.2455409445
 21
-76.8993023859
 31
0.0
  0
LINE
  5
3A6
330
1F
100
AcDbEntity
  8
0
  6
Continuous
 62
     7
370
    25
100
AcDbLine
 10
374.2455409445
 20
-101.8993023859
 30
0.0
 11
374.2455409445
 21
-134.5185306884
 31
0.0
  0
LINE
  5
3A7
330
1F
100
AcDbEntity
  8
0
  6
Continuous
 62
     7
370
    25
100
AcDbLine
 10
344.2455409445
 20
-134.5185306884
 30
0.0
 11
344.2455409445
 21
-101.8993023859
 31
0.0
  0
LINE
  5
3A8
330
1F
100
AcDbEntity
  8
0
  6
Continuous
 62
     7
370
    25
100
AcDbLine
 10
344.2455409445
 20
-76.8993023859
 30
0.0
 11
344.2455409445
 21
134.9814693116
 31
0.0
  0
LINE
  5
3A9
330
1F
100
AcDbEntity
  8
0
  6
Continuous
 62
     7
370
    25
100
AcDbLine
 10
344.2455409445
 20
159.9814693116
 30
0.0
 11
344.2455409445
 21
371.862241009
 31
0.0
  0
LINE
  5
3AA
330
1F
100
AcDbEntity
  8
0
  6
Continuous
 62
     7
370
    25
100
AcDbLine
 10
344.2455409445
 20
396.862241009
 30
0.0
 11
344.2455409445
 21
429.4814693116
 31
0.0
  0
LINE
  5
3AB
330
1F
100
AcDbEntity
  8
0
  6
Continuous
 62
     7
370
    25
100
AcDbLine
 10
-67.8597222134
 20
429.4814693115
 30
0.0
 11
-67.8597222134
 21
393.8705316945
 31
0.0
  0
LINE
  5
3AC
330
1F
100
AcDbEntity
  8
0
  6
Continuous
 62
     7
370
    25
100
AcDbLine
 10
-67.8597222134
 20
374.8539503236
 30
0.0
 11
-67.8597222134
 21
156.989759997
 31
0.0
  0
LINE
  5
3AD
330
1F
100
AcDbEntity
  8
0
  6
Continuous
 62
     7
370
    25
100
AcDbLine
 10
-67.8597222134
 20
137.9731786261
 30
0.0
 11
-67.8597222134
 21
-79.8910117005
 31
0.0
  0
LINE
  5
3AE
330
1F
100
AcDbEntity
  8
0
  6
Continuous
 62
     7
370
    25
100
AcDbLine
 10
-67.8597222134
 20
-98.9075930714
 30
0.0
 11
-67.8597222134
 21
-134.5185306884
 31
0.0
  0
LINE
  5
3AF
330
1F
100
AcDbEntity
  8
0
  6
Continuous
 62
     7
370
    25
100
AcDbLine
 10
97.9297514709
 20
429.4814693115
 30
0.0
 11
97.9297514709
 21
396.862241009
 31
0.0
  0
LINE
  5
3B0
330
1F
100
AcDbEntity
  8
0
  6
Continuous
 62
     7
370
    25
100
AcDbLine
 10
97.9297514709
 20
371.862241009
 30
0.0
 11
97.9297514709
 21
159.9814693116
 31
0.0
  0
LINE
  5
3B1
330
1F
100
AcDbEntity
  8
0
  6
Continuous
 62
     7
370
    25
100
AcDbLine
 10
97.9297514709
 20
134.9814693116
 30
0.0
 11
97.9297514709
 21
-76.8993023859
 31
0.0
  0
LINE
  5
3B2
330
1F
100
AcDbEntity
  8
0
  6
Continuous
 62
     7
370
    25
100
AcDbLine
 10
97.9297514709
 20
-101.8993023859
 30
0.0
 11
97.9297514709
 21
-134.5185306884
 31
0.0
  0
LINE
  5
3B3
330
1F
100
AcDbEntity
  8
0
  6
Continuous
 62
     7
370
    25
100
AcDbLine
 10
-233.6491958976
 20
429.4814693115
 30
0.0
 11
-233.6491958976
 21
-134.5185306884
 31
0.0
  0
LINE
  5
3B4
330
1F
100
AcDbEntity
  8
0
  6
Continuous
 62
     7
370
    25
100
AcDbLine
 10
675.824488313
 20
-134.5185306884
 30
0.0
 11
675.824488313
 21
429.4814693116
 31
0.0
  0
LINE
  5
3B5
330
1F
100
AcDbEntity
  8
0
  6
Continuous
 62
     7
370
    25
100
AcDbLine
 10
399.5086988393
 20
-134.5185306884
 30
0.0
 11
399.5086988393
 21
-101.8993023859
 31
0.0
  0
LINE
  5
3B6
330
1F
100
AcDbEntity
  8
0
  6
Continuous
 62
     7
370
    25
100
AcDbLine
 10
399.5086988393
 20
-76.8993023859
 30
0.0
 11
399.5086988393
 21
134.9814693116
 31
0.0
  0
LINE
  5
3B7
330
1F
100
AcDbEntity
  8
0
  6
Continuous
 62
     7
370
    25
100
AcDbLine
 10
399.5086988393
 20
159.9814693116
 30
0.0
 11
399.5086988393
 21
371.862241009
 31
0.0
  0
LINE
  5
3B8
330
1F
100
AcDbEntity
  8
0
  6
Continuous
 62
     7
370
    25
100
AcDbLine
 10
399.5086988393
 20
396.862241009
 30
0.0
 11
399.5086988393
 21
429.4814693116
 31
0.0
  0
LINE
  5
3B9
330
1F
100
AcDbEntity
  8
0
  6
Continuous
 62
     7
370
    25
100
AcDbLine
 10
454.771856734
 20
-134.5185306884
 30
0.0
 11
454.771856734
 21
-101.8993023859
 31
0.0
  0
LINE
  5
3BA
330
1F
100
AcDbEntity
  8
0
  6
Continuous
 62
     7
370
    25
100
AcDbLine
 10
454.771856734
 20
-76.8993023859
 30
0.0
 11
454.771856734
 21
134.9814693116
 31
0.0
  0
LINE
  5
3BB
330
1F
100
AcDbEntity
  8
0
  6
Continuous
 62
     7
370
    25
100
AcDbLine
 10
454.771856734
 20
159.9814693116
 30
0.0
 11
454.771856734
 21
371.862241009
 31
0.0
  0
LINE
  5
3BC
330
1F
100
AcDbEntity
  8
0
  6
Continuous
 62
     7
370
    25
100
AcDbLine
 10
454.771856734
 20
396.862241009
 30
0.0
 11
454.771856734
 21
429.4814693116
 31
0.0
  0
LINE
  5
3BD
330
1F
100
AcDbEntity
  8
0
  6
Continuous
 62
     7
370
    25
100
AcDbLine
 10
208.4560672603
 20
429.4814693115
 30
0.0
 11
208.4560672603
 21
396.862241009
 31
0.0
  0
LINE
  5
3BE
330
1F
100
AcDbEntity
  8
0
  6
Continuous
 62
     7
370
    25
100
AcDbLine
 10
208.4560672603
 20
371.862241009
 30
0.0
 11
208.4560672603
 21
159.9814693116
 31
0.0
  0
LINE
  5
3BF
330
1F
100
AcDbEntity
  8
0
  6
Continuous
 62
     7
370
    25
100
AcDbLine
 10
208.4560672603
 20
134.9814693116
 30
0.0
 11
208.4560672603
 21
-76.8993023859
 31
0.0
  0
LINE
  5
3C0
330
1F
100
AcDbEntity
  8
0
  6
Continuous
 62
     7
370
    25
100
AcDbLine
 10
208.4560672603
 20
-101.8993023859
 30
0.0
 11
208.4560672603
 21
-134.5185306884
 31
0.0
  0
LINE
  5
3C1
330
1F
100
AcDbEntity
  8
0
  6
Continuous
 62
     7
370
    25
100
AcDbLine
 10
595.2981725235
 20
429.4814693115
 30
0.0
 11
595.2981725235
 21
-134.5185306884
 31
0.0
  0
LINE
  5
3C2
330
1F
100
AcDbEntity
  8
0
  6
Continuous
 62
     7
370
    25
100
AcDbLine
 10
-288.9123537923
 20
429.4814693115
 30
0.0
 11
-288.9123537923
 21
-134.5185306884
 31
0.0
  0
LINE
  5
3C3
330
1F
100
AcDbEntity
  8
0
  6
Continuous
 62
     7
370
    25
100
AcDbLine
 10
650.5613304182
 20
429.4814693115
 30
0.0
 11
650.5613304182
 21
-134.5185306884
 31
0.0
  0
LINE
  5
3C4
330
1F
100
AcDbEntity
  8
0
  6
Continuous
 62
     7
370
    25
100
AcDbLine
 10
-97.8597222134
 20
-134.5185306884
 30
0.0
 11
-97.8597222134
 21
429.4814693116
 31
0.0
  0
LINE
  5
3C5
330
1F
100
AcDbEntity
  8
0
  6
Continuous
 62
     7
370
    25
100
AcDbLine
 10
705.824488313
 20
429.4814693115
 30
0.0
 11
705.824488313
 21
-134.5185306884
 31
0.0
  0
LINE
  5
3C6
330
1F
100
AcDbEntity
  8
0
  6
Continuous
 62
     7
370
    25
100
AcDbLine
 10
12.6665935761
 20
-134.5185306884
 30
0.0
 11
12.6665935761
 21
-101.8993023859
 31
0.0
  0
LINE
  5
3C7
330
1F
100
AcDbEntity
  8
0
  6
Continuous
 62
     7
370
    25
100
AcDbLine
 10
12.6665935761
 20
-76.8993023859
 30
0.0
 11
12.6665935761
 21
134.9814693116
 31
0.0
  0
LINE
  5
3C8
330
1F
100
AcDbEntity
  8
0
  6
Continuous
 62
     7
370
    25
100
AcDbLine
 10
12.6665935761
 20
159.9814693116
 30
0.0
 11
12.6665935761
 21
371.862241009
 31
0.0
  0
LINE
  5
3C9
330
1F
100
AcDbEntity
  8
0
  6
Continuous
 62
     7
370
    25
100
AcDbLine
 10
12.6665935761
 20
396.862241009
 30
0.0
 11
12.6665935761
 21
429.4814693116
 31
0.0
  0
LINE
  5
3CA
330
1F
100
AcDbEntity
  8
0
  6
Continuous
 62
     7
370
    25
100
AcDbLine
 10
-12.5965643186
 20
429.4814693115
 30
0.0
 11
-12.5965643186
 21
396.862241009
 31
0.0
  0
LINE
  5
3CB
330
1F
100
AcDbEntity
  8
0
  6
Continuous
 62
     7
370
    25
100
AcDbLine
 10
-12.5965643186
 20
371.862241009
 30
0.0
 11
-12.5965643186
 21
159.9814693116
 31
0.0
  0
LINE
  5
3CC
330
1F
100
AcDbEntity
  8
0
  6
Continuous
 62
     7
370
    25
100
AcDbLine
 10
-12.5965643186
 20
134.9814693116
 30
0.0
 11
-12.5965643186
 21
-76.8993023859
 31
0.0
  0
LINE
  5
3CD
330
1F
100
AcDbEntity
  8
0
  6
Continuous
 62
     7
370
    25
100
AcDbLine
 10
-12.5965643186
 20
-101.8993023859
 30
0.0
 11
-12.5965643186
 21
-134.5185306884
 31
0.0
  0
LINE
  5
3CE
330
1F
100
AcDbEntity
  8
0
  6
Continuous
 62
     7
370
    25
100
AcDbLine
 10
510.0350146288
 20
-134.5185306884
 30
0.0
 11
510.0350146288
 21
-98.9075930714
 31
0.0
  0
LINE
  5
3CF
330
1F
100
AcDbEntity
  8
0
  6
Continuous
 62
     7
370
    25
100
AcDbLine
 10
510.0350146288
 20
-79.8910117005
 30
0.0
 11
510.0350146288
 21
137.9731786261
 31
0.0
  0
LINE
  5
3D0
330
1F
100
AcDbEntity
  8
0
  6
Continuous
 62
     7
370
    25
100
AcDbLine
 10
510.0350146288
 20
156.989759997
 30
0.0
 11
510.0350146288
 21
374.8539503236
 31
0.0
  0
LINE
  5
3D1
330
1F
100
AcDbEntity
  8
0
  6
Continuous
 62
     7
370
    25
100
AcDbLine
 10
510.0350146288
 20
393.8705316945
 30
0.0
 11
510.0350146288
 21
429.4814693116
 31
0.0
  0
LINE
  5
3D2
330
1F
100
AcDbEntity
  8
0
  6
Continuous
 62
     7
370
    25
100
AcDbLine
 10
42.6665935761
 20
429.4814693115
 30
0.0
 11
42.6665935761
 21
396.862241009
 31
0.0
  0
LINE
  5
3D3
330
1F
100
AcDbEntity
  8
0
  6
Continuous
 62
     7
370
    25
100
AcDbLine
 10
42.6665935761
 20
371.862241009
 30
0.0
 11
42.6665935761
 21
159.9814693116
 31
0.0
  0
LINE
  5
3D4
330
1F
100
AcDbEntity
  8
0
  6
Continuous
 62
     7
370
    25
100
AcDbLine
 10
42.6665935761
 20
134.9814693116
 30
0.0
 11
42.6665935761
 21
-76.8993023859
 31
0.0
  0
LINE
  5
3D5
330
1F
100
AcDbEntity
  8
0
  6
Continuous
 62
     7
370
    25
100
AcDbLine
 10
42.6665935761
 20
-101.8993023859
 30
0.0
 11
42.6665935761
 21
-134.5185306884
 31
0.0
  0
LINE
  5
3D6
330
1F
100
AcDbEntity
  8
0
  6
Continuous
 62
     8
370
    25
100
AcDbLine
 10
-292.8590647942
 20
465.0736888471
 30
0.0
 11
-309.9656427904
 21
465.0736888471
 31
0.0
  0
LINE
  5
3D7
330
1F
100
AcDbEntity
  8
0
  6
Continuous
 62
     8
370
    25
100
AcDbLine
 10
752.1409352058
 20
465.0736888471
 30
0.0
 11
735.0343572096
 21
465.0736888471
 31
0.0
  0
LINE
  5
3D8
330
1F
100
AcDbEntity
  8
0
  6
Continuous
 62
     8
370
    25
100
AcDbLine
 10
735.0343572096
 20
-170.110750224
 30
0.0
 11
752.1409352058
 21
-170.110750224
 31
0.0
  0
LINE
  5
3D9
330
1F
100
AcDbEntity
  8
0
  6
Continuous
 62
     8
370
    25
100
AcDbLine
 10
-309.9656427904
 20
-170.110750224
 30
0.0
 11
-292.8590647942
 21
-170.110750224
 31
0.0
  0
LINE
  5
3DA
330
1F
100
AcDbEntity
  8
0
  6
Continuous
 62
     8
370
    25
100
AcDbLine
 10
-264.9656427904
 20
-205.110750224
 30
0.0
 11
-247.8590647942
 21
-205.110750224
 31
0.0
  0
LINE
  5
3DB
330
1F
100
AcDbEntity
  8
0
  6
Continuous
 62
     8
370
    25
100
AcDbLine
 10
707.1409352058
 20
500.0736888471
 30
0.0
 11
690.0343572096
 21
500.0736888471
 31
0.0
  0
LINE
  5
3DC
330
1F
100
AcDbEntity
  8
0
  6
Continuous
 62
     8
370
    25
100
AcDbLine
 10
-247.8590647942
 20
500.0736888471
 30
0.0
 11
-264.9656427904
 21
500.0736888471
 31
0.0
  0
LINE
  5
3DD
330
1F
100
AcDbEntity
  8
0
  6
Continuous
 62
     8
370
    25
100
AcDbLine
 10
797.1409352058
 20
500.0736888471
 30
0.0
 11
780.0343572096
 21
500.0736888471
 31
0.0
  0
LINE
  5
3DE
330
1F
100
AcDbEntity
  8
0
  6
Continuous
 62
     8
370
    25
100
AcDbLine
 10
690.0343572096
 20
-205.110750224
 30
0.0
 11
707.1409352058
 21
-205.110750224
 31
0.0
  0
LINE
  5
3DF
330
1F
100
AcDbEntity
  8
0
  6
Continuous
 62
     8
370
    25
100
AcDbLine
 10
-354.9656427904
 20
-205.110750224
 30
0.0
 11
-337.8590647942
 21
-205.110750224
 31
0.0
  0
LINE
  5
3E0
330
1F
100
AcDbEntity
  8
0
  6
Continuous
 62
     8
370
    25
100
AcDbLine
 10
780.0343572096
 20
-205.110750224
 30
0.0
 11
797.1409352058
 21
-205.110750224
 31
0.0
  0
LINE
  5
3E1
330
1F
100
AcDbEntity
  8
0
  6
Continuous
 62
     8
370
    25
100
AcDbLine
 10
-337.8590647942
 20
500.0736888471
 30
0.0
 11
-354.9656427904
 21
500.0736888471
 31
0.0
  0
LINE
  5
3E2
330
1F
100
AcDbEntity
  8
0
  6
Continuous
 62
     8
370
    25
100
AcDbLine
 10
-335.8973472866
 20
-198.1490327164
 30
0.0
 11
-335.8973472866
 21
-181.0424547202
 31
0.0
  0
LINE
  5
3E3
330
1F
100
AcDbEntity
  8
0
  6
Continuous
 62
     8
370
    25
100
AcDbLine
 10
778.072639702
 20
493.1119713395
 30
0.0
 11
778.072639702
 21
476.0053933433
 31
0.0
  0
LINE
  5
3E4
330
1F
100
AcDbEntity
  8
0
  6
Continuous
 62
     8
370
    25
100
AcDbLine
 10
-335.8973472866
 20
476.0053933433
 30
0.0
 11
-335.8973472866
 21
493.1119713395
 31
0.0
  0
LINE
  5
3E5
330
1F
100
AcDbEntity
  8
0
  6
Continuous
 62
     8
370
    25
100
AcDbLine
 10
778.072639702
 20
-181.0424547202
 30
0.0
 11
778.072639702
 21
-198.1490327164
 31
0.0
  0
LINE
  5
3E6
330
1F
100
AcDbEntity
  8
0
  6
Continuous
 62
     8
370
    25
100
AcDbLine
 10
449.0876462077
 20
496.9814693116
 30
0.0
 11
449.0876462077
 21
494.9814693116
 31
0.0
  0
LINE
  5
3E7
330
1F
100
AcDbEntity
  8
0
  6
Continuous
 62
     8
370
    25
100
AcDbLine
 10
449.0876462077
 20
469.9814693116
 30
0.0
 11
449.0876462077
 21
467.9814693116
 31
0.0
  0
LINE
  5
3E8
330
1F
100
AcDbEntity
  8
0
  6
Continuous
 62
     8
370
    25
100
AcDbLine
 10
478.0876462077
 20
467.9814693116
 30
0.0
 11
478.0876462077
 21
469.9814693116
 31
0.0
  0
LINE
  5
3E9
330
1F
100
AcDbEntity
  8
0
  6
Continuous
 62
     8
370
    25
100
AcDbLine
 10
478.0876462077
 20
494.9814693116
 30
0.0
 11
478.0876462077
 21
496.9814693116
 31
0.0
  0
LINE
  5
3EA
330
1F
100
AcDbEntity
  8
0
  6
Continuous
 62
     8
370
    25
100
AcDbLine
 10
449.0876462077
 20
-173.0185306884
 30
0.0
 11
449.0876462077
 21
-175.0185306884
 31
0.0
  0
LINE
  5
3EB
330
1F
100
AcDbEntity
  8
0
  6
Continuous
 62
     8
370
    25
100
AcDbLine
 10
449.0876462077
 20
-200.0185306884
 30
0.0
 11
449.0876462077
 21
-202.0185306884
 31
0.0
  0
LINE
  5
3EC
330
1F
100
AcDbEntity
  8
0
  6
Continuous
 62
     8
370
    25
100
AcDbLine
 10
478.0876462077
 20
-202.0185306884
 30
0.0
 11
478.0876462077
 21
-200.0185306884
 31
0.0
  0
LINE
  5
3ED
330
1F
100
AcDbEntity
  8
0
  6
Continuous
 62
     8
370
    25
100
AcDbLine
 10
478.0876462077
 20
-175.0185306884
 30
0.0
 11
478.0876462077
 21
-173.0185306884
 31
0.0
  0
LINE
  5
3EE
330
1F
100
AcDbEntity
  8
0
  6
Continuous
 62
     8
370
    25
100
AcDbLine
 10
-35.9123537923
 20
-173.0185306884
 30
0.0
 11
-35.9123537923
 21
-175.0185306884
 31
0.0
  0
LINE
  5
3EF
330
1F
100
AcDbEntity
  8
0
  6
Continuous
 62
     8
370
    25
100
AcDbLine
 10
-35.9123537923
 20
-200.0185306884
 30
0.0
 11
-35.9123537923
 21
-202.0185306884
 31
0.0
  0
LINE
  5
3F0
330
1F
100
AcDbEntity
  8
0
  6
Continuous
 62
     8
370
    25
100
AcDbLine
 10
-6.9123537923
 20
-202.0185306884
 30
0.0
 11
-6.9123537923
 21
-200.0185306884
 31
0.0
  0
LINE
  5
3F1
330
1F
100
AcDbEntity
  8
0
  6
Continuous
 62
     8
370
    25
100
AcDbLine
 10
-6.9123537923
 20
-175.0185306884
 30
0.0
 11
-6.9123537923
 21
-173.0185306884
 31
0.0
  0
LINE
  5
3F2
330
1F
100
AcDbEntity
  8
0
  6
Continuous
 62
     8
370
    25
100
AcDbLine
 10
-35.9123537923
 20
496.9814693116
 30
0.0
 11
-35.9123537923
 21
494.9814693116
 31
0.0
  0
LINE
  5
3F3
330
1F
100
AcDbEntity
  8
0
  6
Continuous
 62
     8
370
    25
100
AcDbLine
 10
-35.9123537923
 20
469.9814693116
 30
0.0
 11
-35.9123537923
 21
467.9814693116
 31
0.0
  0
LINE
  5
3F4
330
1F
100
AcDbEntity
  8
0
  6
Continuous
 62
     8
370
    25
100
AcDbLine
 10
-6.9123537923
 20
467.9814693116
 30
0.0
 11
-6.9123537923
 21
469.9814693116
 31
0.0
  0
LINE
  5
3F5
330
1F
100
AcDbEntity
  8
0
  6
Continuous
 62
     8
370
    25
100
AcDbLine
 10
-6.9123537923
 20
494.9814693116
 30
0.0
 11
-6.9123537923
 21
496.9814693116
 31
0.0
  0
LINE
  5
3F6
330
1F
100
AcDbEntity
  8
0
  6
Continuous
 62
     8
370
    25
100
AcDbLine
 10
497.0876462077
 20
-104.8993023859
 30
0.0
 11
497.0876462077
 21
-73.8993023859
 31
0.0
  0
LINE
  5
3F7
330
1F
100
AcDbEntity
  8
0
  6
Continuous
 62
     8
370
    25
100
AcDbLine
 10
-54.9123537923
 20
399.862241009
 30
0.0
 11
-54.9123537923
 21
368.862241009
 31
0.0
  0
LINE
  5
3F8
330
1F
100
AcDbEntity
  8
0
  6
Continuous
 62
     8
370
    25
100
AcDbLine
 10
-54.9123537923
 20
162.9814693116
 30
0.0
 11
-54.9123537923
 21
131.9814693116
 31
0.0
  0
LINE
  5
3F9
330
1F
100
AcDbEntity
  8
0
  6
Continuous
 62
     8
370
    25
100
AcDbLine
 10
-54.9123537923
 20
-73.8993023859
 30
0.0
 11
-54.9123537923
 21
-104.8993023859
 31
0.0
  0
LINE
  5
3FA
330
1F
100
AcDbEntity
  8
0
  6
Continuous
 62
     8
370
    25
100
AcDbLine
 10
725.0876462077
 20
469.0594325834
 30
0.0
 11
725.0876462077
 21
469.0586823414
 31
0.0
  0
LINE
  5
3FB
330
1F
100
AcDbEntity
  8
0
  6
Continuous
 62
     8
370
    25
100
AcDbLine
 10
725.0876462077
 20
500.0586823414
 30
0.0
 11
725.0876462077
 21
469.0594325834
 31
0.0
  0
LINE
  5
3FC
330
1F
100
AcDbEntity
  8
0
  6
Continuous
 62
     8
370
    25
100
AcDbLine
 10
-334.9123537923
 20
-50.5722960719
 30
0.0
 11
-334.9123537923
 21
-57.5231480428
 31
0.0
  0
LINE
  5
3FD
330
1F
100
AcDbEntity
  8
0
  6
Continuous
 62
     8
370
    25
100
AcDbLine
 10
-334.9123537923
 20
-26.5231480428
 30
0.0
 11
-334.9123537923
 21
-50.5722960719
 31
0.0
  0
LINE
  5
3FE
330
1F
100
AcDbEntity
  8
0
  6
Continuous
 62
     8
370
    25
100
AcDbLine
 10
497.0876462077
 20
466.9814693116
 30
0.0
 11
497.0876462077
 21
497.9814693116
 31
0.0
  0
LINE
  5
3FF
330
1F
100
AcDbEntity
  8
0
  6
Continuous
 62
     8
370
    25
100
AcDbLine
 10
-334.9123537923
 20
349.9152037376
 30
0.0
 11
-334.9123537923
 21
321.4860866767
 31
0.0
  0
LINE
  5
400
330
1F
100
AcDbEntity
  8
0
  6
Continuous
 62
     8
370
    25
100
AcDbLine
 10
-334.9123537923
 20
352.4860866767
 30
0.0
 11
-334.9123537923
 21
349.9152037376
 31
0.0
  0
LINE
  5
401
330
1F
100
AcDbEntity
  8
0
  6
Continuous
 62
     8
370
    25
100
AcDbLine
 10
683.0876462077
 20
-223.0957437183
 30
0.0
 11
714.0876462077
 21
-223.0957437183
 31
0.0
  0
LINE
  5
402
330
1F
100
AcDbEntity
  8
0
  6
Continuous
 62
     8
370
    25
100
AcDbLine
 10
-2.9123537923
 20
-172.0192809305
 30
0.0
 11
-2.9123537923
 21
-172.0185306884
 31
0.0
  0
LINE
  5
403
330
1F
100
AcDbEntity
  8
0
  6
Continuous
 62
     8
370
    25
100
AcDbLine
 10
-2.9123537923
 20
-203.0185306884
 30
0.0
 11
-2.9123537923
 21
-200.0185306884
 31
0.0
  0
LINE
  5
404
330
1F
100
AcDbEntity
  8
0
  6
Continuous
 62
     8
370
    25
100
AcDbLine
 10
-2.9123537923
 20
-175.0185306884
 30
0.0
 11
-2.9123537923
 21
-172.0192809305
 31
0.0
  0
LINE
  5
405
330
1F
100
AcDbEntity
  8
0
  6
Continuous
 62
     8
370
    25
100
AcDbLine
 10
-282.9123537923
 20
-174.0964939603
 30
0.0
 11
-282.9123537923
 21
-174.0957437183
 31
0.0
  0
LINE
  5
406
330
1F
100
AcDbEntity
  8
0
  6
Continuous
 62
     8
370
    25
100
AcDbLine
 10
-282.9123537923
 20
-205.0957437183
 30
0.0
 11
-282.9123537923
 21
-174.0964939603
 31
0.0
  0
LINE
  5
407
330
1F
100
AcDbEntity
  8
0
  6
Continuous
 62
     8
370
    25
100
AcDbLine
 10
777.0876462077
 20
-50.5722960719
 30
0.0
 11
777.0876462077
 21
-26.5231480428
 31
0.0
  0
LINE
  5
408
330
1F
100
AcDbEntity
  8
0
  6
Continuous
 62
     8
370
    25
100
AcDbLine
 10
777.0876462077
 20
-57.5231480428
 30
0.0
 11
777.0876462077
 21
-50.5722960719
 31
0.0
  0
LINE
  5
409
330
1F
100
AcDbEntity
  8
0
  6
Continuous
 62
     8
370
    25
100
AcDbLine
 10
777.0876462077
 20
349.9152037376
 30
0.0
 11
777.0876462077
 21
352.4860866767
 31
0.0
  0
LINE
  5
40A
330
1F
100
AcDbEntity
  8
0
  6
Continuous
 62
     8
370
    25
100
AcDbLine
 10
777.0876462077
 20
321.4860866767
 30
0.0
 11
777.0876462077
 21
349.9152037376
 31
0.0
  0
LINE
  5
40B
330
1F
100
AcDbEntity
  8
0
  6
Continuous
 62
     8
370
    25
100
AcDbLine
 10
-54.9123537923
 20
497.9814693116
 30
0.0
 11
-54.9123537923
 21
466.9814693116
 31
0.0
  0
LINE
  5
40C
330
1F
100
AcDbEntity
  8
0
  6
Continuous
 62
     8
370
    25
100
AcDbLine
 10
445.0876462077
 20
466.9822195536
 30
0.0
 11
445.0876462077
 21
466.9814693116
 31
0.0
  0
LINE
  5
40D
330
1F
100
AcDbEntity
  8
0
  6
Continuous
 62
     8
370
    25
100
AcDbLine
 10
445.0876462077
 20
497.9814693116
 30
0.0
 11
445.0876462077
 21
494.9814693116
 31
0.0
  0
LINE
  5
40E
330
1F
100
AcDbEntity
  8
0
  6
Continuous
 62
     8
370
    25
100
AcDbLine
 10
445.0876462077
 20
469.9814693116
 30
0.0
 11
445.0876462077
 21
466.9822195536
 31
0.0
  0
LINE
  5
40F
330
1F
100
AcDbEntity
  8
0
  6
Continuous
 62
     8
370
    25
100
AcDbLine
 10
497.0876462077
 20
368.862241009
 30
0.0
 11
497.0876462077
 21
399.862241009
 31
0.0
  0
LINE
  5
410
330
1F
100
AcDbEntity
  8
0
  6
Continuous
 62
     8
370
    25
100
AcDbLine
 10
-54.9123537923
 20
-172.0185306884
 30
0.0
 11
-54.9123537923
 21
-203.0185306884
 31
0.0
  0
LINE
  5
411
330
1F
100
AcDbEntity
  8
0
  6
Continuous
 62
     8
370
    25
100
AcDbLine
 10
497.0876462077
 20
131.9814693116
 30
0.0
 11
497.0876462077
 21
162.9814693116
 31
0.0
  0
LINE
  5
412
330
1F
100
AcDbEntity
  8
0
  6
Continuous
 62
     8
370
    25
100
AcDbLine
 10
725.0876462077
 20
-174.0957437183
 30
0.0
 11
725.0876462077
 21
-205.0957437183
 31
0.0
  0
LINE
  5
413
330
1F
100
AcDbEntity
  8
0
  6
Continuous
 62
     8
370
    25
100
AcDbLine
 10
804.0876462077
 20
518.0586823414
 30
0.0
 11
776.0876462077
 21
518.0586823414
 31
0.0
  0
LINE
  5
414
330
1F
100
AcDbEntity
  8
0
  6
Continuous
 62
     8
370
    25
100
AcDbLine
 10
497.0876462077
 20
-203.0185306884
 30
0.0
 11
497.0876462077
 21
-172.0185306884
 31
0.0
  0
LINE
  5
415
330
1F
100
AcDbEntity
  8
0
  6
Continuous
 62
     8
370
    25
100
AcDbLine
 10
-285.9123537923
 20
518.0586823414
 30
0.0
 11
-316.9123537923
 21
518.0586823414
 31
0.0
  0
LINE
  5
416
330
1F
100
AcDbEntity
  8
0
  6
Continuous
 62
     8
370
    25
100
AcDbLine
 10
728.0876462077
 20
-223.0957437183
 30
0.0
 11
759.0876462077
 21
-223.0957437183
 31
0.0
  0
LINE
  5
417
330
1F
100
AcDbEntity
  8
0
  6
Continuous
 62
     8
370
    25
100
AcDbLine
 10
776.0876462077
 20
-223.0957437183
 30
0.0
 11
804.0876462077
 21
-223.0957437183
 31
0.0
  0
LINE
  5
418
330
1F
100
AcDbEntity
  8
0
  6
Continuous
 62
     8
370
    25
100
AcDbLine
 10
445.0876462077
 20
-172.0192809305
 30
0.0
 11
445.0876462077
 21
-175.0185306884
 31
0.0
  0
LINE
  5
419
330
1F
100
AcDbEntity
  8
0
  6
Continuous
 62
     8
370
    25
100
AcDbLine
 10
445.0876462077
 20
-200.0185306884
 30
0.0
 11
445.0876462077
 21
-203.0185306884
 31
0.0
  0
LINE
  5
41A
330
1F
100
AcDbEntity
  8
0
  6
Continuous
 62
     8
370
    25
100
AcDbLine
 10
445.0876462077
 20
-172.0185306884
 30
0.0
 11
445.0876462077
 21
-172.0192809305
 31
0.0
  0
LINE
  5
41B
330
1F
100
AcDbEntity
  8
0
  6
Continuous
 62
     8
370
    25
100
AcDbLine
 10
-361.9123537923
 20
-223.0957437183
 30
0.0
 11
-333.9123537923
 21
-223.0957437183
 31
0.0
  0
LINE
  5
41C
330
1F
100
AcDbEntity
  8
0
  6
Continuous
 62
     8
370
    25
100
AcDbLine
 10
-2.9123537923
 20
466.9822195536
 30
0.0
 11
-2.9123537923
 21
469.9814693116
 31
0.0
  0
LINE
  5
41D
330
1F
100
AcDbEntity
  8
0
  6
Continuous
 62
     8
370
    25
100
AcDbLine
 10
-2.9123537923
 20
494.9814693116
 30
0.0
 11
-2.9123537923
 21
497.9814693116
 31
0.0
  0
LINE
  5
41E
330
1F
100
AcDbEntity
  8
0
  6
Continuous
 62
     8
370
    25
100
AcDbLine
 10
-2.9123537923
 20
466.9814693116
 30
0.0
 11
-2.9123537923
 21
466.9822195536
 31
0.0
  0
LINE
  5
41F
330
1F
100
AcDbEntity
  8
0
  6
Continuous
 62
     8
370
    25
100
AcDbLine
 10
-240.9123537923
 20
518.0586823414
 30
0.0
 11
-271.9123537923
 21
518.0586823414
 31
0.0
  0
LINE
  5
420
330
1F
100
AcDbEntity
  8
0
  6
Continuous
 62
     8
370
    25
100
AcDbLine
 10
-282.9123537923
 20
469.0586823414
 30
0.0
 11
-282.9123537923
 21
500.0586823414
 31
0.0
  0
LINE
  5
421
330
1F
100
AcDbEntity
  8
0
  6
Continuous
 62
     8
370
    25
100
AcDbLine
 10
-316.9123537923
 20
-223.0957437183
 30
0.0
 11
-285.9123537923
 21
-223.0957437183
 31
0.0
  0
LINE
  5
422
330
1F
100
AcDbEntity
  8
0
  6
Continuous
 62
     8
370
    25
100
AcDbLine
 10
-271.9123537923
 20
-223.0957437183
 30
0.0
 11
-240.9123537923
 21
-223.0957437183
 31
0.0
  0
LINE
  5
423
330
1F
100
AcDbEntity
  8
0
  6
Continuous
 62
     8
370
    25
100
AcDbLine
 10
759.0876462077
 20
518.0586823414
 30
0.0
 11
728.0876462077
 21
518.0586823414
 31
0.0
  0
LINE
  5
424
330
1F
100
AcDbEntity
  8
0
  6
Continuous
 62
     8
370
    25
100
AcDbLine
 10
714.0876462077
 20
518.0586823414
 30
0.0
 11
683.0876462077
 21
518.0586823414
 31
0.0
  0
LINE
  5
425
330
1F
100
AcDbEntity
  8
0
  6
Continuous
 62
     8
370
    25
100
AcDbLine
 10
-333.9123537923
 20
518.0586823414
 30
0.0
 11
-361.9123537923
 21
518.0586823414
 31
0.0
  0
LINE
  5
426
330
1F
100
AcDbEntity
  8
0
  6
Continuous
 62
     8
370
    25
100
AcDbLine
 10
-335.6623537923
 20
530.1438323603
 30
0.0
 11
-357.1623537923
 21
530.1438323603
 31
0.0
  0
LINE
  5
427
330
1F
100
AcDbEntity
  8
0
  6
Continuous
 62
     8
370
    25
100
AcDbLine
 10
-336.0544374368
 20
530.7066563018
 30
0.0
 11
-356.7702701478
 21
530.7066563018
 31
0.0
  0
LINE
  5
428
330
1F
100
AcDbEntity
  8
0
  6
Continuous
 62
     8
370
    25
100
AcDbLine
 10
-245.6623537923
 20
530.1438323603
 30
0.0
 11
-267.1623537923
 21
530.1438323603
 31
0.0
  0
LINE
  5
429
330
1F
100
AcDbEntity
  8
0
  6
Continuous
 62
     8
370
    25
100
AcDbLine
 10
-246.0544374368
 20
530.7066563018
 30
0.0
 11
-266.7702701478
 21
530.7066563018
 31
0.0
  0
LINE
  5
42A
330
1F
100
AcDbEntity
  8
0
  6
Continuous
 62
     8
370
    25
100
AcDbLine
 10
-290.6623537923
 20
530.1438323603
 30
0.0
 11
-312.1623537923
 21
530.1438323603
 31
0.0
  0
LINE
  5
42B
330
1F
100
AcDbEntity
  8
0
  6
Continuous
 62
     8
370
    25
100
AcDbLine
 10
-291.0544374368
 20
530.7066563018
 30
0.0
 11
-311.7702701478
 21
530.7066563018
 31
0.0
  0
LINE
  5
42C
330
1F
100
AcDbEntity
  8
0
  6
Continuous
 62
     8
370
    25
100
AcDbLine
 10
509.1727962266
 20
-100.1493023859
 30
0.0
 11
509.1727962266
 21
-78.6493023859
 31
0.0
  0
LINE
  5
42D
330
1F
100
AcDbEntity
  8
0
  6
Continuous
 62
     8
370
    25
100
AcDbLine
 10
509.7356201681
 20
-99.7572187414
 30
0.0
 11
509.7356201681
 21
-79.0413860305
 31
0.0
  0
LINE
  5
42E
330
1F
100
AcDbEntity
  8
0
  6
Continuous
 62
     8
370
    25
100
AcDbLine
 10
709.3376462077
 20
530.1438323603
 30
0.0
 11
687.8376462077
 21
530.1438323603
 31
0.0
  0
LINE
  5
42F
330
1F
100
AcDbEntity
  8
0
  6
Continuous
 62
     8
370
    25
100
AcDbLine
 10
708.9455625632
 20
530.7066563018
 30
0.0
 11
688.2297298522
 21
530.7066563018
 31
0.0
  0
LINE
  5
430
330
1F
100
AcDbEntity
  8
0
  6
Continuous
 62
     8
370
    25
100
AcDbLine
 10
687.8376462077
 20
-235.1808937372
 30
0.0
 11
709.3376462077
 21
-235.1808937372
 31
0.0
  0
LINE
  5
431
330
1F
100
AcDbEntity
  8
0
  6
Continuous
 62
     8
370
    25
100
AcDbLine
 10
688.2297298522
 20
-235.7437176787
 30
0.0
 11
708.9455625632
 21
-235.7437176787
 31
0.0
  0
LINE
  5
432
330
1F
100
AcDbEntity
  8
0
  6
Continuous
 62
     8
370
    25
100
AcDbLine
 10
713.0024961888
 20
473.8092026705
 30
0.0
 11
713.0024961888
 21
473.8086823414
 31
0.0
  0
LINE
  5
433
330
1F
100
AcDbEntity
  8
0
  6
Continuous
 62
     8
370
    25
100
AcDbLine
 10
713.0024961888
 20
495.3086823414
 30
0.0
 11
713.0024961888
 21
473.8092026705
 31
0.0
  0
LINE
  5
434
330
1F
100
AcDbEntity
  8
0
  6
Continuous
 62
     8
370
    25
100
AcDbLine
 10
712.4396722473
 20
494.9165986969
 30
0.0
 11
712.4396722473
 21
474.2012673371
 31
0.0
  0
LINE
  5
435
330
1F
100
AcDbEntity
  8
0
  6
Continuous
 62
     8
370
    25
100
AcDbLine
 10
754.3376462077
 20
530.1438323603
 30
0.0
 11
732.8376462077
 21
530.1438323603
 31
0.0
  0
LINE
  5
436
330
1F
100
AcDbEntity
  8
0
  6
Continuous
 62
     8
370
    25
100
AcDbLine
 10
753.9455625632
 20
530.7066563018
 30
0.0
 11
733.2297298522
 21
530.7066563018
 31
0.0
  0
LINE
  5
437
330
1F
100
AcDbEntity
  8
0
  6
Continuous
 62
     8
370
    25
100
AcDbLine
 10
789.1727962266
 20
-47.9523958695
 30
0.0
 11
789.1727962266
 21
-31.2731480428
 31
0.0
  0
LINE
  5
438
330
1F
100
AcDbEntity
  8
0
  6
Continuous
 62
     8
370
    25
100
AcDbLine
 10
789.1727962266
 20
-52.7731480428
 30
0.0
 11
789.1727962266
 21
-47.9523958695
 31
0.0
  0
LINE
  5
439
330
1F
100
AcDbEntity
  8
0
  6
Continuous
 62
     8
370
    25
100
AcDbLine
 10
789.7356201681
 20
-47.7361390232
 30
0.0
 11
789.7356201681
 21
-31.6652316873
 31
0.0
  0
LINE
  5
43A
330
1F
100
AcDbEntity
  8
0
  6
Continuous
 62
     8
370
    25
100
AcDbLine
 10
789.7356201681
 20
-52.3810643983
 30
0.0
 11
789.7356201681
 21
-47.7361390232
 31
0.0
  0
LINE
  5
43B
330
1F
100
AcDbEntity
  8
0
  6
Continuous
 62
     8
370
    25
100
AcDbLine
 10
-346.9975038112
 20
-47.9523958695
 30
0.0
 11
-346.9975038112
 21
-52.7731480428
 31
0.0
  0
LINE
  5
43C
330
1F
100
AcDbEntity
  8
0
  6
Continuous
 62
     8
370
    25
100
AcDbLine
 10
-346.9975038112
 20
-31.2731480428
 30
0.0
 11
-346.9975038112
 21
-47.9523958695
 31
0.0
  0
LINE
  5
43D
330
1F
100
AcDbEntity
  8
0
  6
Continuous
 62
     8
370
    25
100
AcDbLine
 10
-347.5603277527
 20
-47.7361390232
 30
0.0
 11
-347.5603277527
 21
-52.3810643983
 31
0.0
  0
LINE
  5
43E
330
1F
100
AcDbEntity
  8
0
  6
Continuous
 62
     8
370
    25
100
AcDbLine
 10
-347.5603277527
 20
-31.6652316873
 30
0.0
 11
-347.5603277527
 21
-47.7361390232
 31
0.0
  0
LINE
  5
43F
330
1F
100
AcDbEntity
  8
0
  6
Continuous
 62
     8
370
    25
100
AcDbLine
 10
-346.9975038112
 20
345.9530549609
 30
0.0
 11
-346.9975038112
 21
326.2360866767
 31
0.0
  0
LINE
  5
440
330
1F
100
AcDbEntity
  8
0
  6
Continuous
 62
     8
370
    25
100
AcDbLine
 10
-346.9975038112
 20
347.7360866767
 30
0.0
 11
-346.9975038112
 21
345.9530549609
 31
0.0
  0
LINE
  5
441
330
1F
100
AcDbEntity
  8
0
  6
Continuous
 62
     8
370
    25
100
AcDbLine
 10
-347.5603277527
 20
345.6260036488
 30
0.0
 11
-347.5603277527
 21
326.6281703212
 31
0.0
  0
LINE
  5
442
330
1F
100
AcDbEntity
  8
0
  6
Continuous
 62
     8
370
    25
100
AcDbLine
 10
-347.5603277527
 20
347.3440030322
 30
0.0
 11
-347.5603277527
 21
345.6260036488
 31
0.0
  0
LINE
  5
443
330
1F
100
AcDbEntity
  8
0
  6
Continuous
 62
     8
370
    25
100
AcDbLine
 10
-357.1623537923
 20
-235.1808937372
 30
0.0
 11
-335.6623537923
 21
-235.1808937372
 31
0.0
  0
LINE
  5
444
330
1F
100
AcDbEntity
  8
0
  6
Continuous
 62
     8
370
    25
100
AcDbLine
 10
-356.7702701478
 20
-235.7437176787
 30
0.0
 11
-336.0544374368
 21
-235.7437176787
 31
0.0
  0
LINE
  5
445
330
1F
100
AcDbEntity
  8
0
  6
Continuous
 62
     8
370
    25
100
AcDbLine
 10
777.8376462077
 20
-235.1808937372
 30
0.0
 11
799.3376462077
 21
-235.1808937372
 31
0.0
  0
LINE
  5
446
330
1F
100
AcDbEntity
  8
0
  6
Continuous
 62
     8
370
    25
100
AcDbLine
 10
778.2297298522
 20
-235.7437176787
 30
0.0
 11
798.9455625632
 21
-235.7437176787
 31
0.0
  0
LINE
  5
447
330
1F
100
AcDbEntity
  8
0
  6
Continuous
 62
     8
370
    25
100
AcDbLine
 10
732.8376462077
 20
-235.1808937372
 30
0.0
 11
754.3376462077
 21
-235.1808937372
 31
0.0
  0
LINE
  5
448
330
1F
100
AcDbEntity
  8
0
  6
Continuous
 62
     8
370
    25
100
AcDbLine
 10
733.2297298522
 20
-235.7437176787
 30
0.0
 11
753.9455625632
 21
-235.7437176787
 31
0.0
  0
LINE
  5
449
330
1F
100
AcDbEntity
  8
0
  6
Continuous
 62
     8
370
    25
100
AcDbLine
 10
-267.1623537923
 20
-235.1808937372
 30
0.0
 11
-245.6623537923
 21
-235.1808937372
 31
0.0
  0
LINE
  5
44A
330
1F
100
AcDbEntity
  8
0
  6
Continuous
 62
     8
370
    25
100
AcDbLine
 10
-266.7702701478
 20
-235.7437176787
 30
0.0
 11
-246.0544374368
 21
-235.7437176787
 31
0.0
  0
LINE
  5
44B
330
1F
100
AcDbEntity
  8
0
  6
Continuous
 62
     8
370
    25
100
AcDbLine
 10
-312.1623537923
 20
-235.1808937372
 30
0.0
 11
-290.6623537923
 21
-235.1808937372
 31
0.0
  0
LINE
  5
44C
330
1F
100
AcDbEntity
  8
0
  6
Continuous
 62
     8
370
    25
100
AcDbLine
 10
-311.7702701478
 20
-235.7437176787
 30
0.0
 11
-291.0544374368
 21
-235.7437176787
 31
0.0
  0
LINE
  5
44D
330
1F
100
AcDbEntity
  8
0
  6
Continuous
 62
     8
370
    25
100
AcDbLine
 10
799.3376462077
 20
530.1438323603
 30
0.0
 11
777.8376462077
 21
530.1438323603
 31
0.0
  0
LINE
  5
44E
330
1F
100
AcDbEntity
  8
0
  6
Continuous
 62
     8
370
    25
100
AcDbLine
 10
798.9455625632
 20
530.7066563018
 30
0.0
 11
778.2297298522
 21
530.7066563018
 31
0.0
  0
LINE
  5
44F
330
1F
100
AcDbEntity
  8
0
  6
Continuous
 62
     8
370
    25
100
AcDbLine
 10
713.0024961888
 20
-178.8457437183
 30
0.0
 11
713.0024961888
 21
-200.3457437183
 31
0.0
  0
LINE
  5
450
330
1F
100
AcDbEntity
  8
0
  6
Continuous
 62
     8
370
    25
100
AcDbLine
 10
712.4396722473
 20
-179.238328714
 30
0.0
 11
712.4396722473
 21
-199.9536600738
 31
0.0
  0
LINE
  5
451
330
1F
100
AcDbEntity
  8
0
  6
Continuous
 62
     8
370
    25
100
AcDbLine
 10
-270.8272037734
 20
-178.8462640474
 30
0.0
 11
-270.8272037734
 21
-178.8457437183
 31
0.0
  0
LINE
  5
452
330
1F
100
AcDbEntity
  8
0
  6
Continuous
 62
     8
370
    25
100
AcDbLine
 10
-270.8272037734
 20
-200.3457437183
 30
0.0
 11
-270.8272037734
 21
-178.8462640474
 31
0.0
  0
LINE
  5
453
330
1F
100
AcDbEntity
  8
0
  6
Continuous
 62
     8
370
    25
100
AcDbLine
 10
-270.2643798319
 20
-199.9536600738
 30
0.0
 11
-270.2643798319
 21
-179.238328714
 31
0.0
  0
LINE
  5
454
330
1F
100
AcDbEntity
  8
0
  6
Continuous
 62
     8
370
    25
100
AcDbLine
 10
509.1727962266
 20
-198.2685306884
 30
0.0
 11
509.1727962266
 21
-176.7685306884
 31
0.0
  0
LINE
  5
455
330
1F
100
AcDbEntity
  8
0
  6
Continuous
 62
     8
370
    25
100
AcDbLine
 10
509.7356201681
 20
-197.8764470439
 30
0.0
 11
509.7356201681
 21
-177.160614333
 31
0.0
  0
LINE
  5
456
330
1F
100
AcDbEntity
  8
0
  6
Continuous
 62
     8
370
    25
100
AcDbLine
 10
509.1727962266
 20
136.7314693116
 30
0.0
 11
509.1727962266
 21
158.2314693116
 31
0.0
  0
LINE
  5
457
330
1F
100
AcDbEntity
  8
0
  6
Continuous
 62
     8
370
    25
100
AcDbLine
 10
509.7356201681
 20
137.1235529561
 30
0.0
 11
509.7356201681
 21
157.839385667
 31
0.0
  0
LINE
  5
458
330
1F
100
AcDbEntity
  8
0
  6
Continuous
 62
     8
370
    25
100
AcDbLine
 10
-66.9975038112
 20
-176.7685306884
 30
0.0
 11
-66.9975038112
 21
-198.2685306884
 31
0.0
  0
LINE
  5
459
330
1F
100
AcDbEntity
  8
0
  6
Continuous
 62
     8
370
    25
100
AcDbLine
 10
-67.5603277527
 20
-177.160614333
 30
0.0
 11
-67.5603277527
 21
-197.8764470439
 31
0.0
  0
LINE
  5
45A
330
1F
100
AcDbEntity
  8
0
  6
Continuous
 62
     8
370
    25
100
AcDbLine
 10
509.1727962266
 20
471.7314693116
 30
0.0
 11
509.1727962266
 21
493.2314693116
 31
0.0
  0
LINE
  5
45B
330
1F
100
AcDbEntity
  8
0
  6
Continuous
 62
     8
370
    25
100
AcDbLine
 10
509.7356201681
 20
472.1235529561
 30
0.0
 11
509.7356201681
 21
492.839385667
 31
0.0
  0
LINE
  5
45C
330
1F
100
AcDbEntity
  8
0
  6
Continuous
 62
     8
370
    25
100
AcDbLine
 10
509.1727962266
 20
373.612241009
 30
0.0
 11
509.1727962266
 21
395.112241009
 31
0.0
  0
LINE
  5
45D
330
1F
100
AcDbEntity
  8
0
  6
Continuous
 62
     8
370
    25
100
AcDbLine
 10
509.7356201681
 20
374.0043246536
 30
0.0
 11
509.7356201681
 21
394.7201573645
 31
0.0
  0
LINE
  5
45E
330
1F
100
AcDbEntity
  8
0
  6
Continuous
 62
     8
370
    25
100
AcDbLine
 10
-66.9975038112
 20
395.112241009
 30
0.0
 11
-66.9975038112
 21
373.612241009
 31
0.0
  0
LINE
  5
45F
330
1F
100
AcDbEntity
  8
0
  6
Continuous
 62
     8
370
    25
100
AcDbLine
 10
-67.5603277527
 20
394.7201573645
 30
0.0
 11
-67.5603277527
 21
374.0043246536
 31
0.0
  0
LINE
  5
460
330
1F
100
AcDbEntity
  8
0
  6
Continuous
 62
     8
370
    25
100
AcDbLine
 10
-66.9975038112
 20
158.2314693116
 30
0.0
 11
-66.9975038112
 21
136.7314693116
 31
0.0
  0
LINE
  5
461
330
1F
100
AcDbEntity
  8
0
  6
Continuous
 62
     8
370
    25
100
AcDbLine
 10
-67.5603277527
 20
157.839385667
 30
0.0
 11
-67.5603277527
 21
137.1235529561
 31
0.0
  0
LINE
  5
462
330
1F
100
AcDbEntity
  8
0
  6
Continuous
 62
     8
370
    25
100
AcDbLine
 10
-66.9975038112
 20
-78.6493023859
 30
0.0
 11
-66.9975038112
 21
-100.1493023859
 31
0.0
  0
LINE
  5
463
330
1F
100
AcDbEntity
  8
0
  6
Continuous
 62
     8
370
    25
100
AcDbLine
 10
-67.5603277527
 20
-79.0413860305
 30
0.0
 11
-67.5603277527
 21
-99.7572187414
 31
0.0
  0
LINE
  5
464
330
1F
100
AcDbEntity
  8
0
  6
Continuous
 62
     8
370
    25
100
AcDbLine
 10
789.1727962266
 20
345.9530549609
 30
0.0
 11
789.1727962266
 21
347.7360866767
 31
0.0
  0
LINE
  5
465
330
1F
100
AcDbEntity
  8
0
  6
Continuous
 62
     8
370
    25
100
AcDbLine
 10
789.1727962266
 20
326.2360866767
 30
0.0
 11
789.1727962266
 21
345.9530549609
 31
0.0
  0
LINE
  5
466
330
1F
100
AcDbEntity
  8
0
  6
Continuous
 62
     8
370
    25
100
AcDbLine
 10
789.7356201681
 20
345.6260036488
 30
0.0
 11
789.7356201681
 21
347.3440030322
 31
0.0
  0
LINE
  5
467
330
1F
100
AcDbEntity
  8
0
  6
Continuous
 62
     8
370
    25
100
AcDbLine
 10
789.7356201681
 20
326.6281703212
 30
0.0
 11
789.7356201681
 21
345.6260036488
 31
0.0
  0
LINE
  5
468
330
1F
100
AcDbEntity
  8
0
  6
Continuous
 62
     8
370
    25
100
AcDbLine
 10
-66.9975038112
 20
493.2314693116
 30
0.0
 11
-66.9975038112
 21
471.7314693116
 31
0.0
  0
LINE
  5
469
330
1F
100
AcDbEntity
  8
0
  6
Continuous
 62
     8
370
    25
100
AcDbLine
 10
-67.5603277527
 20
492.839385667
 30
0.0
 11
-67.5603277527
 21
472.1235529561
 31
0.0
  0
LINE
  5
46A
330
1F
100
AcDbEntity
  8
0
  6
Continuous
 62
     8
370
    25
100
AcDbLine
 10
-270.8272037734
 20
473.8086823414
 30
0.0
 11
-270.8272037734
 21
495.3086823414
 31
0.0
  0
LINE
  5
46B
330
1F
100
AcDbEntity
  8
0
  6
Continuous
 62
     8
370
    25
100
AcDbLine
 10
-270.2643798319
 20
474.2012673371
 30
0.0
 11
-270.2643798319
 21
494.9165986969
 31
0.0
  0
LINE
  5
46C
330
1F
100
AcDbEntity
  8
0
  6
Continuous
 62
     8
370
    25
100
AcDbLine
 10
618.5876462077
 20
-219.0957437183
 30
0.0
 11
761.0876462077
 21
-219.0957437183
 31
0.0
  0
LINE
  5
46D
330
1F
100
AcDbEntity
  8
0
  6
Continuous
 62
     8
370
    25
100
AcDbLine
 10
776.0876462077
 20
-219.0957437183
 30
0.0
 11
868.5876462077
 21
-219.0957437183
 31
0.0
  0
LINE
  5
46E
330
1F
100
AcDbEntity
  8
0
  6
Continuous
 62
     8
370
    25
100
AcDbLine
 10
868.5876462077
 20
-210.0957437183
 30
0.0
 11
776.0876462077
 21
-210.0957437183
 31
0.0
  0
LINE
  5
46F
330
1F
100
AcDbEntity
  8
0
  6
Continuous
 62
     8
370
    25
100
AcDbLine
 10
761.0876462077
 20
-210.0957437183
 30
0.0
 11
618.5876462077
 21
-210.0957437183
 31
0.0
  0
LINE
  5
470
330
1F
100
AcDbEntity
  8
0
  6
Continuous
 62
     8
370
    25
100
AcDbLine
 10
-176.4123537923
 20
514.0586823414
 30
0.0
 11
-318.9123537923
 21
514.0586823414
 31
0.0
  0
LINE
  5
471
330
1F
100
AcDbEntity
  8
0
  6
Continuous
 62
     8
370
    25
100
AcDbLine
 10
-333.9123537923
 20
514.0586823414
 30
0.0
 11
-426.4123537923
 21
514.0586823414
 31
0.0
  0
LINE
  5
472
330
1F
100
AcDbEntity
  8
0
  6
Continuous
 62
     8
370
    25
100
AcDbLine
 10
-426.4123537923
 20
505.0586823414
 30
0.0
 11
-333.9123537923
 21
505.0586823414
 31
0.0
  0
LINE
  5
473
330
1F
100
AcDbEntity
  8
0
  6
Continuous
 62
     8
370
    25
100
AcDbLine
 10
-318.9123537923
 20
505.0586823414
 30
0.0
 11
-176.4123537923
 21
505.0586823414
 31
0.0
  0
LINE
  5
474
330
1F
100
AcDbEntity
  8
0
  6
Continuous
 62
     8
370
    25
100
AcDbLine
 10
618.5876462077
 20
505.0586823414
 30
0.0
 11
761.0876462077
 21
505.0586823414
 31
0.0
  0
LINE
  5
475
330
1F
100
AcDbEntity
  8
0
  6
Continuous
 62
     8
370
    25
100
AcDbLine
 10
776.0876462077
 20
505.0586823414
 30
0.0
 11
868.5876462077
 21
505.0586823414
 31
0.0
  0
LINE
  5
476
330
1F
100
AcDbEntity
  8
0
  6
Continuous
 62
     8
370
    25
100
AcDbLine
 10
868.5876462077
 20
514.0586823414
 30
0.0
 11
776.0876462077
 21
514.0586823414
 31
0.0
  0
LINE
  5
477
330
1F
100
AcDbEntity
  8
0
  6
Continuous
 62
     8
370
    25
100
AcDbLine
 10
761.0876462077
 20
514.0586823414
 30
0.0
 11
618.5876462077
 21
514.0586823414
 31
0.0
  0
LINE
  5
478
330
1F
100
AcDbEntity
  8
0
  6
Continuous
 62
     8
370
    25
100
AcDbLine
 10
-176.4123537923
 20
-210.0957437183
 30
0.0
 11
-318.9123537923
 21
-210.0957437183
 31
0.0
  0
LINE
  5
479
330
1F
100
AcDbEntity
  8
0
  6
Continuous
 62
     8
370
    25
100
AcDbLine
 10
-333.9123537923
 20
-210.0957437183
 30
0.0
 11
-426.4123537923
 21
-210.0957437183
 31
0.0
  0
LINE
  5
47A
330
1F
100
AcDbEntity
  8
0
  6
Continuous
 62
     8
370
    25
100
AcDbLine
 10
-426.4123537923
 20
-219.0957437183
 30
0.0
 11
-333.9123537923
 21
-219.0957437183
 31
0.0
  0
LINE
  5
47B
330
1F
100
AcDbEntity
  8
0
  6
Continuous
 62
     8
370
    25
100
AcDbLine
 10
-318.9123537923
 20
-219.0957437183
 30
0.0
 11
-176.4123537923
 21
-219.0957437183
 31
0.0
  0
LINE
  5
47C
330
1F
100
AcDbEntity
  8
0
  6
Continuous
 62
     8
370
    25
100
AcDbLine
 10
773.0876462077
 20
-237.5185306884
 30
0.0
 11
773.0876462077
 21
532.4814693116
 31
0.0
  0
LINE
  5
47D
330
1F
100
AcDbEntity
  8
0
  6
Continuous
 62
     8
370
    25
100
AcDbLine
 10
764.0876462077
 20
532.4814693116
 30
0.0
 11
764.0876462077
 21
-237.5185306884
 31
0.0
  0
LINE
  5
47E
330
1F
100
AcDbEntity
  8
0
  6
Continuous
 62
     8
370
    25
100
AcDbLine
 10
-330.9123537923
 20
532.4814693116
 30
0.0
 11
-330.9123537923
 21
-237.5185306884
 31
0.0
  0
LINE
  5
47F
330
1F
100
AcDbEntity
  8
0
  6
Continuous
 62
     8
370
    25
100
AcDbLine
 10
-321.9123537923
 20
-237.5185306884
 30
0.0
 11
-321.9123537923
 21
532.4814693116
 31
0.0
  0
LINE
  5
480
330
1F
100
AcDbEntity
  8
0
  6
Continuous
 62
     8
370
    25
100
AcDbLine
 10
70.9297514709
 20
432.4814693116
 30
0.0
 11
70.9297514709
 21
396.862241009
 31
0.0
  0
LINE
  5
481
330
1F
100
AcDbEntity
  8
0
  6
Continuous
 62
     8
370
    25
100
AcDbLine
 10
70.9297514709
 20
371.862241009
 30
0.0
 11
70.9297514709
 21
159.9814693116
 31
0.0
  0
LINE
  5
482
330
1F
100
AcDbEntity
  8
0
  6
Continuous
 62
     8
370
    25
100
AcDbLine
 10
70.9297514709
 20
134.9814693116
 30
0.0
 11
70.9297514709
 21
-76.8993023859
 31
0.0
  0
LINE
  5
483
330
1F
100
AcDbEntity
  8
0
  6
Continuous
 62
     8
370
    25
100
AcDbLine
 10
70.9297514709
 20
-101.8993023859
 30
0.0
 11
70.9297514709
 21
-137.5185306884
 31
0.0
  0
LINE
  5
484
330
1F
100
AcDbEntity
  8
0
  6
Continuous
 62
     8
370
    25
100
AcDbLine
 10
94.9297514709
 20
-137.5185306884
 30
0.0
 11
94.9297514709
 21
-101.8993023859
 31
0.0
  0
LINE
  5
485
330
1F
100
AcDbEntity
  8
0
  6
Continuous
 62
     8
370
    25
100
AcDbLine
 10
94.9297514709
 20
-76.8993023859
 30
0.0
 11
94.9297514709
 21
134.9814693116
 31
0.0
  0
LINE
  5
486
330
1F
100
AcDbEntity
  8
0
  6
Continuous
 62
     8
370
    25
100
AcDbLine
 10
94.9297514709
 20
159.9814693116
 30
0.0
 11
94.9297514709
 21
371.862241009
 31
0.0
  0
LINE
  5
487
330
1F
100
AcDbEntity
  8
0
  6
Continuous
 62
     8
370
    25
100
AcDbLine
 10
94.9297514709
 20
396.862241009
 30
0.0
 11
94.9297514709
 21
432.4814693116
 31
0.0
  0
LINE
  5
488
330
1F
100
AcDbEntity
  8
0
  6
Continuous
 62
     8
370
    25
100
AcDbLine
 10
-205.3860380028
 20
432.4814693116
 30
0.0
 11
-205.3860380028
 21
-137.5185306884
 31
0.0
  0
LINE
  5
489
330
1F
100
AcDbEntity
  8
0
  6
Continuous
 62
     8
370
    25
100
AcDbLine
 10
-315.9123537923
 20
432.4814693116
 30
0.0
 11
-315.9123537923
 21
-137.5185306884
 31
0.0
  0
LINE
  5
48A
330
1F
100
AcDbEntity
  8
0
  6
Continuous
 62
     8
370
    25
100
AcDbLine
 10
-291.9123537923
 20
-137.5185306884
 30
0.0
 11
-291.9123537923
 21
432.4814693116
 31
0.0
  0
LINE
  5
48B
330
1F
100
AcDbEntity
  8
0
  6
Continuous
 62
     8
370
    25
100
AcDbLine
 10
315.9823830498
 20
-137.5185306884
 30
0.0
 11
315.9823830498
 21
-101.8993023859
 31
0.0
  0
LINE
  5
48C
330
1F
100
AcDbEntity
  8
0
  6
Continuous
 62
     8
370
    25
100
AcDbLine
 10
315.9823830498
 20
-76.8993023859
 30
0.0
 11
315.9823830498
 21
134.9814693116
 31
0.0
  0
LINE
  5
48D
330
1F
100
AcDbEntity
  8
0
  6
Continuous
 62
     8
370
    25
100
AcDbLine
 10
315.9823830498
 20
159.9814693116
 30
0.0
 11
315.9823830498
 21
371.862241009
 31
0.0
  0
LINE
  5
48E
330
1F
100
AcDbEntity
  8
0
  6
Continuous
 62
     8
370
    25
100
AcDbLine
 10
315.9823830498
 20
396.862241009
 30
0.0
 11
315.9823830498
 21
432.4814693116
 31
0.0
  0
LINE
  5
48F
330
1F
100
AcDbEntity
  8
0
  6
Continuous
 62
     8
370
    25
100
AcDbLine
 10
568.2981725235
 20
432.4814693116
 30
0.0
 11
568.2981725235
 21
-137.5185306884
 31
0.0
  0
LINE
  5
490
330
1F
100
AcDbEntity
  8
0
  6
Continuous
 62
     8
370
    25
100
AcDbLine
 10
592.2981725235
 20
-137.5185306884
 30
0.0
 11
592.2981725235
 21
432.4814693116
 31
0.0
  0
LINE
  5
491
330
1F
100
AcDbEntity
  8
0
  6
Continuous
 62
     8
370
    25
100
AcDbLine
 10
457.771856734
 20
432.4814693116
 30
0.0
 11
457.771856734
 21
396.862241009
 31
0.0
  0
LINE
  5
492
330
1F
100
AcDbEntity
  8
0
  6
Continuous
 62
     8
370
    25
100
AcDbLine
 10
457.771856734
 20
371.862241009
 30
0.0
 11
457.771856734
 21
159.9814693116
 31
0.0
  0
LINE
  5
493
330
1F
100
AcDbEntity
  8
0
  6
Continuous
 62
     8
370
    25
100
AcDbLine
 10
457.771856734
 20
134.9814693116
 30
0.0
 11
457.771856734
 21
-76.8993023859
 31
0.0
  0
LINE
  5
494
330
1F
100
AcDbEntity
  8
0
  6
Continuous
 62
     8
370
    25
100
AcDbLine
 10
457.771856734
 20
-101.8993023859
 30
0.0
 11
457.771856734
 21
-137.5185306884
 31
0.0
  0
LINE
  5
495
330
1F
100
AcDbEntity
  8
0
  6
Continuous
 62
     8
370
    25
100
AcDbLine
 10
513.0350146288
 20
432.4814693116
 30
0.0
 11
513.0350146288
 21
-137.5185306884
 31
0.0
  0
LINE
  5
496
330
1F
100
AcDbEntity
  8
0
  6
Continuous
 62
     8
370
    25
100
AcDbLine
 10
537.0350146288
 20
-137.5185306884
 30
0.0
 11
537.0350146288
 21
432.4814693116
 31
0.0
  0
LINE
  5
497
330
1F
100
AcDbEntity
  8
0
  6
Continuous
 62
     8
370
    25
100
AcDbLine
 10
236.7192251551
 20
432.4814693116
 30
0.0
 11
236.7192251551
 21
396.862241009
 31
0.0
  0
LINE
  5
498
330
1F
100
AcDbEntity
  8
0
  6
Continuous
 62
     8
370
    25
100
AcDbLine
 10
236.7192251551
 20
371.862241009
 30
0.0
 11
236.7192251551
 21
159.9814693116
 31
0.0
  0
LINE
  5
499
330
1F
100
AcDbEntity
  8
0
  6
Continuous
 62
     8
370
    25
100
AcDbLine
 10
236.7192251551
 20
134.9814693116
 30
0.0
 11
236.7192251551
 21
-76.8993023859
 31
0.0
  0
LINE
  5
49A
330
1F
100
AcDbEntity
  8
0
  6
Continuous
 62
     8
370
    25
100
AcDbLine
 10
236.7192251551
 20
-101.8993023859
 30
0.0
 11
236.7192251551
 21
-137.5185306884
 31
0.0
  0
LINE
  5
49B
330
1F
100
AcDbEntity
  8
0
  6
Continuous
 62
     8
370
    25
100
AcDbLine
 10
15.6665935761
 20
432.4814693116
 30
0.0
 11
15.6665935761
 21
396.862241009
 31
0.0
  0
LINE
  5
49C
330
1F
100
AcDbEntity
  8
0
  6
Continuous
 62
     8
370
    25
100
AcDbLine
 10
15.6665935761
 20
371.862241009
 30
0.0
 11
15.6665935761
 21
159.9814693116
 31
0.0
  0
LINE
  5
49D
330
1F
100
AcDbEntity
  8
0
  6
Continuous
 62
     8
370
    25
100
AcDbLine
 10
15.6665935761
 20
134.9814693116
 30
0.0
 11
15.6665935761
 21
-76.8993023859
 31
0.0
  0
LINE
  5
49E
330
1F
100
AcDbEntity
  8
0
  6
Continuous
 62
     8
370
    25
100
AcDbLine
 10
15.6665935761
 20
-101.8993023859
 30
0.0
 11
15.6665935761
 21
-137.5185306884
 31
0.0
  0
LINE
  5
49F
330
1F
100
AcDbEntity
  8
0
  6
Continuous
 62
     8
370
    25
100
AcDbLine
 10
39.6665935761
 20
-137.5185306884
 30
0.0
 11
39.6665935761
 21
-101.8993023859
 31
0.0
  0
LINE
  5
4A0
330
1F
100
AcDbEntity
  8
0
  6
Continuous
 62
     8
370
    25
100
AcDbLine
 10
39.6665935761
 20
-76.8993023859
 30
0.0
 11
39.6665935761
 21
134.9814693116
 31
0.0
  0
LINE
  5
4A1
330
1F
100
AcDbEntity
  8
0
  6
Continuous
 62
     8
370
    25
100
AcDbLine
 10
39.6665935761
 20
159.9814693116
 30
0.0
 11
39.6665935761
 21
371.862241009
 31
0.0
  0
LINE
  5
4A2
330
1F
100
AcDbEntity
  8
0
  6
Continuous
 62
     8
370
    25
100
AcDbLine
 10
39.6665935761
 20
396.862241009
 30
0.0
 11
39.6665935761
 21
432.4814693116
 31
0.0
  0
LINE
  5
4A3
330
1F
100
AcDbEntity
  8
0
  6
Continuous
 62
     8
370
    25
100
AcDbLine
 10
260.7192251551
 20
-137.5185306884
 30
0.0
 11
260.7192251551
 21
-101.8993023859
 31
0.0
  0
LINE
  5
4A4
330
1F
100
AcDbEntity
  8
0
  6
Continuous
 62
     8
370
    25
100
AcDbLine
 10
260.7192251551
 20
-76.8993023859
 30
0.0
 11
260.7192251551
 21
134.9814693116
 31
0.0
  0
LINE
  5
4A5
330
1F
100
AcDbEntity
  8
0
  6
Continuous
 62
     8
370
    25
100
AcDbLine
 10
260.7192251551
 20
159.9814693116
 30
0.0
 11
260.7192251551
 21
371.862241009
 31
0.0
  0
LINE
  5
4A6
330
1F
100
AcDbEntity
  8
0
  6
Continuous
 62
     8
370
    25
100
AcDbLine
 10
260.7192251551
 20
396.862241009
 30
0.0
 11
260.7192251551
 21
432.4814693116
 31
0.0
  0
LINE
  5
4A7
330
1F
100
AcDbEntity
  8
0
  6
Continuous
 62
     8
370
    25
100
AcDbLine
 10
181.4560672603
 20
432.4814693116
 30
0.0
 11
181.4560672603
 21
396.862241009
 31
0.0
  0
LINE
  5
4A8
330
1F
100
AcDbEntity
  8
0
  6
Continuous
 62
     8
370
    25
100
AcDbLine
 10
181.4560672603
 20
371.862241009
 30
0.0
 11
181.4560672603
 21
159.9814693116
 31
0.0
  0
LINE
  5
4A9
330
1F
100
AcDbEntity
  8
0
  6
Continuous
 62
     8
370
    25
100
AcDbLine
 10
181.4560672603
 20
134.9814693116
 30
0.0
 11
181.4560672603
 21
-76.8993023859
 31
0.0
  0
LINE
  5
4AA
330
1F
100
AcDbEntity
  8
0
  6
Continuous
 62
     8
370
    25
100
AcDbLine
 10
181.4560672603
 20
-101.8993023859
 30
0.0
 11
181.4560672603
 21
-137.5185306884
 31
0.0
  0
LINE
  5
4AB
330
1F
100
AcDbEntity
  8
0
  6
Continuous
 62
     8
370
    25
100
AcDbLine
 10
402.5086988393
 20
432.4814693116
 30
0.0
 11
402.5086988393
 21
396.862241009
 31
0.0
  0
LINE
  5
4AC
330
1F
100
AcDbEntity
  8
0
  6
Continuous
 62
     8
370
    25
100
AcDbLine
 10
402.5086988393
 20
371.862241009
 30
0.0
 11
402.5086988393
 21
159.9814693116
 31
0.0
  0
LINE
  5
4AD
330
1F
100
AcDbEntity
  8
0
  6
Continuous
 62
     8
370
    25
100
AcDbLine
 10
402.5086988393
 20
134.9814693116
 30
0.0
 11
402.5086988393
 21
-76.8993023859
 31
0.0
  0
LINE
  5
4AE
330
1F
100
AcDbEntity
  8
0
  6
Continuous
 62
     8
370
    25
100
AcDbLine
 10
402.5086988393
 20
-101.8993023859
 30
0.0
 11
402.5086988393
 21
-137.5185306884
 31
0.0
  0
LINE
  5
4AF
330
1F
100
AcDbEntity
  8
0
  6
Continuous
 62
     8
370
    25
100
AcDbLine
 10
426.5086988393
 20
-137.5185306884
 30
0.0
 11
426.5086988393
 21
-101.8993023859
 31
0.0
  0
LINE
  5
4B0
330
1F
100
AcDbEntity
  8
0
  6
Continuous
 62
     8
370
    25
100
AcDbLine
 10
426.5086988393
 20
-76.8993023859
 30
0.0
 11
426.5086988393
 21
134.9814693116
 31
0.0
  0
LINE
  5
4B1
330
1F
100
AcDbEntity
  8
0
  6
Continuous
 62
     8
370
    25
100
AcDbLine
 10
426.5086988393
 20
159.9814693116
 30
0.0
 11
426.5086988393
 21
371.862241009
 31
0.0
  0
LINE
  5
4B2
330
1F
100
AcDbEntity
  8
0
  6
Continuous
 62
     8
370
    25
100
AcDbLine
 10
426.5086988393
 20
396.862241009
 30
0.0
 11
426.5086988393
 21
432.4814693116
 31
0.0
  0
LINE
  5
4B3
330
1F
100
AcDbEntity
  8
0
  6
Continuous
 62
     8
370
    25
100
AcDbLine
 10
-126.1228801081
 20
-137.5185306884
 30
0.0
 11
-126.1228801081
 21
432.4814693116
 31
0.0
  0
LINE
  5
4B4
330
1F
100
AcDbEntity
  8
0
  6
Continuous
 62
     8
370
    25
100
AcDbLine
 10
347.2455409445
 20
432.4814693116
 30
0.0
 11
347.2455409445
 21
396.862241009
 31
0.0
  0
LINE
  5
4B5
330
1F
100
AcDbEntity
  8
0
  6
Continuous
 62
     8
370
    25
100
AcDbLine
 10
347.2455409445
 20
371.862241009
 30
0.0
 11
347.2455409445
 21
159.9814693116
 31
0.0
  0
LINE
  5
4B6
330
1F
100
AcDbEntity
  8
0
  6
Continuous
 62
     8
370
    25
100
AcDbLine
 10
347.2455409445
 20
134.9814693116
 30
0.0
 11
347.2455409445
 21
-76.8993023859
 31
0.0
  0
LINE
  5
4B7
330
1F
100
AcDbEntity
  8
0
  6
Continuous
 62
     8
370
    25
100
AcDbLine
 10
347.2455409445
 20
-101.8993023859
 30
0.0
 11
347.2455409445
 21
-137.5185306884
 31
0.0
  0
LINE
  5
4B8
330
1F
100
AcDbEntity
  8
0
  6
Continuous
 62
     8
370
    25
100
AcDbLine
 10
371.2455409445
 20
-137.5185306884
 30
0.0
 11
371.2455409445
 21
-101.8993023859
 31
0.0
  0
LINE
  5
4B9
330
1F
100
AcDbEntity
  8
0
  6
Continuous
 62
     8
370
    25
100
AcDbLine
 10
371.2455409445
 20
-76.8993023859
 30
0.0
 11
371.2455409445
 21
134.9814693116
 31
0.0
  0
LINE
  5
4BA
330
1F
100
AcDbEntity
  8
0
  6
Continuous
 62
     8
370
    25
100
AcDbLine
 10
371.2455409445
 20
159.9814693116
 30
0.0
 11
371.2455409445
 21
371.862241009
 31
0.0
  0
LINE
  5
4BB
330
1F
100
AcDbEntity
  8
0
  6
Continuous
 62
     8
370
    25
100
AcDbLine
 10
371.2455409445
 20
396.862241009
 30
0.0
 11
371.2455409445
 21
432.4814693116
 31
0.0
  0
LINE
  5
4BC
330
1F
100
AcDbEntity
  8
0
  6
Continuous
 62
     8
370
    25
100
AcDbLine
 10
291.9823830498
 20
432.4814693116
 30
0.0
 11
291.9823830498
 21
396.862241009
 31
0.0
  0
LINE
  5
4BD
330
1F
100
AcDbEntity
  8
0
  6
Continuous
 62
     8
370
    25
100
AcDbLine
 10
291.9823830498
 20
371.862241009
 30
0.0
 11
291.9823830498
 21
159.9814693116
 31
0.0
  0
LINE
  5
4BE
330
1F
100
AcDbEntity
  8
0
  6
Continuous
 62
     8
370
    25
100
AcDbLine
 10
291.9823830498
 20
134.9814693116
 30
0.0
 11
291.9823830498
 21
-76.8993023859
 31
0.0
  0
LINE
  5
4BF
330
1F
100
AcDbEntity
  8
0
  6
Continuous
 62
     8
370
    25
100
AcDbLine
 10
291.9823830498
 20
-101.8993023859
 30
0.0
 11
291.9823830498
 21
-137.5185306884
 31
0.0
  0
LINE
  5
4C0
330
1F
100
AcDbEntity
  8
0
  6
Continuous
 62
     8
370
    25
100
AcDbLine
 10
-150.1228801081
 20
432.4814693116
 30
0.0
 11
-150.1228801081
 21
-137.5185306884
 31
0.0
  0
LINE
  5
4C1
330
1F
100
AcDbEntity
  8
0
  6
Continuous
 62
     8
370
    25
100
AcDbLine
 10
623.5613304182
 20
432.4814693116
 30
0.0
 11
623.5613304182
 21
-137.5185306884
 31
0.0
  0
LINE
  5
4C2
330
1F
100
AcDbEntity
  8
0
  6
Continuous
 62
     8
370
    25
100
AcDbLine
 10
150.1929093656
 20
-137.5185306884
 30
0.0
 11
150.1929093656
 21
-101.8993023859
 31
0.0
  0
LINE
  5
4C3
330
1F
100
AcDbEntity
  8
0
  6
Continuous
 62
     8
370
    25
100
AcDbLine
 10
150.1929093656
 20
-76.8993023859
 30
0.0
 11
150.1929093656
 21
134.9814693116
 31
0.0
  0
LINE
  5
4C4
330
1F
100
AcDbEntity
  8
0
  6
Continuous
 62
     8
370
    25
100
AcDbLine
 10
150.1929093656
 20
159.9814693116
 30
0.0
 11
150.1929093656
 21
371.862241009
 31
0.0
  0
LINE
  5
4C5
330
1F
100
AcDbEntity
  8
0
  6
Continuous
 62
     8
370
    25
100
AcDbLine
 10
150.1929093656
 20
396.862241009
 30
0.0
 11
150.1929093656
 21
432.4814693116
 31
0.0
  0
LINE
  5
4C6
330
1F
100
AcDbEntity
  8
0
  6
Continuous
 62
     8
370
    25
100
AcDbLine
 10
-181.3860380028
 20
-137.5185306884
 30
0.0
 11
-181.3860380028
 21
432.4814693116
 31
0.0
  0
LINE
  5
4C7
330
1F
100
AcDbEntity
  8
0
  6
Continuous
 62
     8
370
    25
100
AcDbLine
 10
678.824488313
 20
432.4814693116
 30
0.0
 11
678.824488313
 21
-137.5185306884
 31
0.0
  0
LINE
  5
4C8
330
1F
100
AcDbEntity
  8
0
  6
Continuous
 62
     8
370
    25
100
AcDbLine
 10
702.824488313
 20
-137.5185306884
 30
0.0
 11
702.824488313
 21
432.4814693116
 31
0.0
  0
LINE
  5
4C9
330
1F
100
AcDbEntity
  8
0
  6
Continuous
 62
     8
370
    25
100
AcDbLine
 10
-260.6491958976
 20
432.4814693116
 30
0.0
 11
-260.6491958976
 21
-137.5185306884
 31
0.0
  0
LINE
  5
4CA
330
1F
100
AcDbEntity
  8
0
  6
Continuous
 62
     8
370
    25
100
AcDbLine
 10
734.0876462077
 20
432.4814693116
 30
0.0
 11
734.0876462077
 21
-137.5185306884
 31
0.0
  0
LINE
  5
4CB
330
1F
100
AcDbEntity
  8
0
  6
Continuous
 62
     8
370
    25
100
AcDbLine
 10
126.1929093656
 20
432.4814693116
 30
0.0
 11
126.1929093656
 21
396.862241009
 31
0.0
  0
LINE
  5
4CC
330
1F
100
AcDbEntity
  8
0
  6
Continuous
 62
     8
370
    25
100
AcDbLine
 10
126.1929093656
 20
371.862241009
 30
0.0
 11
126.1929093656
 21
159.9814693116
 31
0.0
  0
LINE
  5
4CD
330
1F
100
AcDbEntity
  8
0
  6
Continuous
 62
     8
370
    25
100
AcDbLine
 10
126.1929093656
 20
134.9814693116
 30
0.0
 11
126.1929093656
 21
-76.8993023859
 31
0.0
  0
LINE
  5
4CE
330
1F
100
AcDbEntity
  8
0
  6
Continuous
 62
     8
370
    25
100
AcDbLine
 10
126.1929093656
 20
-101.8993023859
 30
0.0
 11
126.1929093656
 21
-137.5185306884
 31
0.0
  0
LINE
  5
4CF
330
1F
100
AcDbEntity
  8
0
  6
Continuous
 62
     8
370
    25
100
AcDbLine
 10
-15.5965643186
 20
-137.5185306884
 30
0.0
 11
-15.5965643186
 21
-101.8993023859
 31
0.0
  0
LINE
  5
4D0
330
1F
100
AcDbEntity
  8
0
  6
Continuous
 62
     8
370
    25
100
AcDbLine
 10
-15.5965643186
 20
-76.8993023859
 30
0.0
 11
-15.5965643186
 21
134.9814693116
 31
0.0
  0
LINE
  5
4D1
330
1F
100
AcDbEntity
  8
0
  6
Continuous
 62
     8
370
    25
100
AcDbLine
 10
-15.5965643186
 20
159.9814693116
 30
0.0
 11
-15.5965643186
 21
371.862241009
 31
0.0
  0
LINE
  5
4D2
330
1F
100
AcDbEntity
  8
0
  6
Continuous
 62
     8
370
    25
100
AcDbLine
 10
-15.5965643186
 20
396.862241009
 30
0.0
 11
-15.5965643186
 21
432.4814693116
 31
0.0
  0
LINE
  5
4D3
330
1F
100
AcDbEntity
  8
0
  6
Continuous
 62
     8
370
    25
100
AcDbLine
 10
758.0876462077
 20
-137.5185306884
 30
0.0
 11
758.0876462077
 21
432.4814693116
 31
0.0
  0
LINE
  5
4D4
330
1F
100
AcDbEntity
  8
0
  6
Continuous
 62
     8
370
    25
100
AcDbLine
 10
205.4560672603
 20
-137.5185306884
 30
0.0
 11
205.4560672603
 21
-101.8993023859
 31
0.0
  0
LINE
  5
4D5
330
1F
100
AcDbEntity
  8
0
  6
Continuous
 62
     8
370
    25
100
AcDbLine
 10
205.4560672603
 20
-76.8993023859
 30
0.0
 11
205.4560672603
 21
134.9814693116
 31
0.0
  0
LINE
  5
4D6
330
1F
100
AcDbEntity
  8
0
  6
Continuous
 62
     8
370
    25
100
AcDbLine
 10
205.4560672603
 20
159.9814693116
 30
0.0
 11
205.4560672603
 21
371.862241009
 31
0.0
  0
LINE
  5
4D7
330
1F
100
AcDbEntity
  8
0
  6
Continuous
 62
     8
370
    25
100
AcDbLine
 10
205.4560672603
 20
396.862241009
 30
0.0
 11
205.4560672603
 21
432.4814693116
 31
0.0
  0
LINE
  5
4D8
330
1F
100
AcDbEntity
  8
0
  6
Continuous
 62
     8
370
    25
100
AcDbLine
 10
-70.8597222134
 20
-137.5185306884
 30
0.0
 11
-70.8597222134
 21
432.4814693116
 31
0.0
  0
LINE
  5
4D9
330
1F
100
AcDbEntity
  8
0
  6
Continuous
 62
     8
370
    25
100
AcDbLine
 10
-236.6491958976
 20
-137.5185306884
 30
0.0
 11
-236.6491958976
 21
432.4814693116
 31
0.0
  0
LINE
  5
4DA
330
1F
100
AcDbEntity
  8
0
  6
Continuous
 62
     8
370
    25
100
AcDbLine
 10
-94.8597222134
 20
432.4814693116
 30
0.0
 11
-94.8597222134
 21
-137.5185306884
 31
0.0
  0
LINE
  5
4DB
330
1F
100
AcDbEntity
  8
0
  6
Continuous
 62
     8
370
    25
100
AcDbLine
 10
647.5613304182
 20
-137.5185306884
 30
0.0
 11
647.5613304182
 21
432.4814693116
 31
0.0
  0
ENDSEC
  0
SECTION
  2
OBJECTS
  0
DICTIONARY
  5
C
330
0
100
AcDbDictionary
281
     1
  3
ACAD_GROUP
350
D
  3
ACAD_LAYOUT
350
1A
  3
ACAD_MLINESTYLE
350
17
  3
ACAD_PLOTSETTINGS
350
19
  3
ACAD_PLOTSTYLENAME
350
E
  3
ACAD_SCALELIST
350
47
  3
DWGPROPS
350
4DC
  0
DICTIONARY
  5
D
102
{ACAD_REACTORS
330
C
102
}
330
C
100
AcDbDictionary
281
     1
  0
DICTIONARY
  5
1A
102
{ACAD_REACTORS
330
C
102
}
330
C
100
AcDbDictionary
281
     1
  3
Layout1
350
1E
  3
Layout2
350
26
  3
Model
350
22
  0
DICTIONARY
  5
17
102
{ACAD_REACTORS
330
C
102
}
330
C
100
AcDbDictionary
281
     1
  3
Standard
350
18
  0
DICTIONARY
  5
19
102
{ACAD_REACTORS
330
C
102
}
330
C
100
AcDbDictionary
281
     1
  0
ACDBDICTIONARYWDFLT
  5
E
102
{ACAD_REACTORS
330
C
102
}
330
C
100
AcDbDictionary
281
     1
  3
Normal
350
F
100
AcDbDictionaryWithDefault
340
F
  0
DICTIONARY
  5
47
102
{ACAD_REACTORS
330
C
102
}
330
C
100
AcDbDictionary
281
     1
  3
A0
350
48
  3
A1
350
49
  3
A2
350
4A
  3
A3
350
4B
  3
A4
350
4C
  3
A5
350
4D
  3
A6
350
4E
  3
A7
350
4F
  3
A8
350
50
  3
A9
350
51
  3
B0
350
52
  3
B1
350
53
  3
B2
350
54
  3
B3
350
55
  3
B4
350
56
  3
B5
350
57
  3
B6
350
58
  3
B7
350
59
  3
B8
350
5A
  3
B9
350
5B
  3
C0
350
5C
  3
C1
350
5D
  3
C2
350
5E
  3
C3
350
5F
  3
C4
350
60
  3
C5
350
61
  3
C6
350
62
  3
C7
350
63
  3
C8
350
64
  3
C9
350
65
  3
D0
350
66
  3
D1
350
67
  3
D2
350
68
  0
XRECORD
  5
4DC
102
{ACAD_REACTORS
330
C
102
}
330
C
100
AcDbXrecord
280
     1
  1
DWGPROPS COOKIE
  2

  3

  4

  6

  7

  8
Swing
  9

300
=
301
=
302
=
303
=
304
=
305
=
306
=
307
=
308
=
309
=
 40
0.0
 41
2459565.441989386
 42
2459565.441989641
  1

 90
        0
  0
LAYOUT
  5
1E
102
{ACAD_REACTORS
330
1A
102
}
330
1A
100
AcDbPlotSettings
  1

  2
none_device
  4

  6

 40
0.0
 41
0.0
 42
0.0
 43
0.0
 44
0.0
 45
0.0
 46
0.0
 47
0.0
 48
0.0
 49
0.0
140
0.0
141
0.0
142
1.0
143
1.0
 70
   688
 72
     1
 73
     0
 74
     5
  7

 75
    16
147
1.0
148
0.0
149
0.0
100
AcDbLayout
  1
Layout1
 70
     1
 71
     1
 10
0.0
 20
0.0
 11
420.0
 21
297.0
 12
0.0
 22
0.0
 32
0.0
 14
1.0000000000E+20
 24
1.0000000000E+20
 34
1.0000000000E+20
 15
-1.0000000000E+20
 25
-1.0000000000E+20
 35
-1.0000000000E+20
146
0.0
 13
0.0
 23
0.0
 33
0.0
 16
1.0
 26
0.0
 36
0.0
 17
0.0
 27
1.0
 37
0.0
 76
     0
330
1B
  0
LAYOUT
  5
26
102
{ACAD_REACTORS
330
1A
102
}
330
1A
100
AcDbPlotSettings
  1

  2
none_device
  4

  6

 40
0.0
 41
0.0
 42
0.0
 43
0.0
 44
0.0
 45
0.0
 46
0.0
 47
0.0
 48
0.0
 49
0.0
140
0.0
141
0.0
142
1.0
143
1.0
 70
   688
 72
     1
 73
     0
 74
     5
  7

 75
    16
147
1.0
148
0.0
149
0.0
100
AcDbLayout
  1
Layout2
 70
     1
 71
     2
 10
0.0
 20
0.0
 11
0.0
 21
0.0
 12
0.0
 22
0.0
 32
0.0
 14
0.0
 24
0.0
 34
0.0
 15
0.0
 25
0.0
 35
0.0
146
0.0
 13
0.0
 23
0.0
 33
0.0
 16
1.0
 26
0.0
 36
0.0
 17
0.0
 27
1.0
 37
0.0
 76
     0
330
23
  0
LAYOUT
  5
22
102
{ACAD_REACTORS
330
1A
102
}
330
1A
100
AcDbPlotSettings
  1

  2
none_device
  4
Letter_(8.50_x_11.00_Inches)
  6

 40
6.35
 41
6.35
 42
6.35000508
 43
6.35000508
 44
215.9
 45
279.4
 46
0.0
 47
0.0
 48
0.0
 49
0.0
140
0.0
141
0.0
142
1.0
143
1.0
 70
  1712
 72
     1
 73
     0
 74
     0
  7

 75
     0
147
1.0
148
0.0
149
0.0
100
AcDbLayout
  1
Model
 70
     1
 71
     0
 10
0.0
 20
0.0
 11
431.8
 21
279.4
 12
0.0
 22
0.0
 32
0.0
 14
0.0
 24
0.0
 34
0.0
 15
431.8
 25
279.4
 35
0.0
146
0.0
 13
0.0
 23
0.0
 33
0.0
 16
1.0
 26
0.0
 36
0.0
 17
0.0
 27
1.0
 37
0.0
 76
     0
330
1F
331
29
  0
MLINESTYLE
  5
18
102
{ACAD_REACTORS
330
17
102
}
330
17
100
AcDbMlineStyle
  2
Standard
 70
     0
  3

 62
   256
 51
90.0
 52
90.0
 71
     2
 49
0.5
 62
   256
  6
BYLAYER
 49
-0.5
 62
   256
  6
BYLAYER
  0
ACDBPLACEHOLDER
  5
F
102
{ACAD_REACTORS
330
E
102
}
330
E
  0
SCALE
  5
48
102
{ACAD_REACTORS
330
47
102
}
330
47
100
AcDbScale
 70
     0
300
1:1
140
1.0
141
1.0
290
     1
  0
SCALE
  5
49
102
{ACAD_REACTORS
330
47
102
}
330
47
100
AcDbScale
 70
     0
300
1:2
140
1.0
141
2.0
290
     0
  0
SCALE
  5
4A
102
{ACAD_REACTORS
330
47
102
}
330
47
100
AcDbScale
 70
     0
300
1:4
140
1.0
141
4.0
290
     0
  0
SCALE
  5
4B
102
{ACAD_REACTORS
330
47
102
}
330
47
100
AcDbScale
 70
     0
300
1:5
140
1.0
141
5.0
290
     0
  0
SCALE
  5
4C
102
{ACAD_REACTORS
330
47
102
}
330
47
100
AcDbScale
 70
     0
300
1:8
140
1.0
141
8.0
290
     0
  0
SCALE
  5
4D
102
{ACAD_REACTORS
330
47
102
}
330
47
100
AcDbScale
 70
     0
300
1:10
140
1.0
141
10.0
290
     0
  0
SCALE
  5
4E
102
{ACAD_REACTORS
330
47
102
}
330
47
100
AcDbScale
 70
     0
300
1:16
140
1.0
141
16.0
290
     0
  0
SCALE
  5
4F
102
{ACAD_REACTORS
330
47
102
}
330
47
100
AcDbScale
 70
     0
300
1:20
140
1.0
141
20.0
290
     0
  0
SCALE
  5
50
102
{ACAD_REACTORS
330
47
102
}
330
47
100
AcDbScale
 70
     0
300
1:30
140
1.0
141
30.0
290
     0
  0
SCALE
  5
51
102
{ACAD_REACTORS
330
47
102
}
330
47
100
AcDbScale
 70
     0
300
1:40
140
1.0
141
40.0
290
     0
  0
SCALE
  5
52
102
{ACAD_REACTORS
330
47
102
}
330
47
100
AcDbScale
 70
     0
300
1:50
140
1.0
141
50.0
290
     0
  0
SCALE
  5
53
102
{ACAD_REACTORS
330
47
102
}
330
47
100
AcDbScale
 70
     0
300
1:100
140
1.0
141
100.0
290
     0
  0
SCALE
  5
54
102
{ACAD_REACTORS
330
47
102
}
330
47
100
AcDbScale
 70
     0
300
2:1
140
2.0
141
1.0
290
     0
  0
SCALE
  5
55
102
{ACAD_REACTORS
330
47
102
}
330
47
100
AcDbScale
 70
     0
300
4:1
140
4.0
141
1.0
290
     0
  0
SCALE
  5
56
102
{ACAD_REACTORS
330
47
102
}
330
47
100
AcDbScale
 70
     0
300
8:1
140
8.0
141
1.0
290
     0
  0
SCALE
  5
57
102
{ACAD_REACTORS
330
47
102
}
330
47
100
AcDbScale
 70
     0
300
10:1
140
10.0
141
1.0
290
     0
  0
SCALE
  5
58
102
{ACAD_REACTORS
330
47
102
}
330
47
100
AcDbScale
 70
     0
300
100:1
140
100.0
141
1.0
290
     0
  0
SCALE
  5
59
102
{ACAD_REACTORS
330
47
102
}
330
47
100
AcDbScale
 70
     0
300
1/128" = 1'-0"
140
0.0078125
141
12.0
290
     0
  0
SCALE
  5
5A
102
{ACAD_REACTORS
330
47
102
}
330
47
100
AcDbScale
 70
     0
300
1/64" = 1'-0"
140
0.015625
141
12.0
290
     0
  0
SCALE
  5
5B
102
{ACAD_REACTORS
330
47
102
}
330
47
100
AcDbScale
 70
     0
300
1/32" = 1'-0"
140
0.03125
141
12.0
290
     0
  0
SCALE
  5
5C
102
{ACAD_REACTORS
330
47
102
}
330
47
100
AcDbScale
 70
     0
300
1/16" = 1'-0"
140
0.0625
141
12.0
290
     0
  0
SCALE
  5
5D
102
{ACAD_REACTORS
330
47
102
}
330
47
100
AcDbScale
 70
     0
300
3/32" = 1'-0"
140
0.09375
141
12.0
290
     0
  0
SCALE
  5
5E
102
{ACAD_REACTORS
330
47
102
}
330
47
100
AcDbScale
 70
     0
300
1/8" = 1'-0"
140
0.125
141
12.0
290
     0
  0
SCALE
  5
5F
102
{ACAD_REACTORS
330
47
102
}
330
47
100
AcDbScale
 70
     0
300
3/16" = 1'-0"
140
0.1875
141
12.0
290
     0
  0
SCALE
  5
60
102
{ACAD_REACTORS
330
47
102
}
330
47
100
AcDbScale
 70
     0
300
1/4" = 1'-0"
140
0.25
141
12.0
290
     0
  0
SCALE
  5
61
102
{ACAD_REACTORS
330
47
102
}
330
47
100
AcDbScale
 70
     0
300
3/8" = 1'-0"
140
0.375
141
12.0
290
     0
  0
SCALE
  5
62
102
{ACAD_REACTORS
330
47
102
}
330
47
100
AcDbScale
 70
     0
300
1/2" = 1'-0"
140
0.5
141
12.0
290
     0
  0
SCALE
  5
63
102
{ACAD_REACTORS
330
47
102
}
330
47
100
AcDbScale
 70
     0
300
3/4" = 1'-0"
140
0.75
141
12.0
290
     0
  0
SCALE
  5
64
102
{ACAD_REACTORS
330
47
102
}
330
47
100
AcDbScale
 70
     0
300
1" = 1'-0"
140
1.0
141
12.0
290
     0
  0
SCALE
  5
65
102
{ACAD_REACTORS
330
47
102
}
330
47
100
AcDbScale
 70
     0
300
1-1/2" = 1'-0"
140
1.5
141
12.0
290
     0
  0
SCALE
  5
66
102
{ACAD_REACTORS
330
47
102
}
330
47
100
AcDbScale
 70
     0
300
3" = 1'-0"
140
3.0
141
12.0
290
     0
  0
SCALE
  5
67
102
{ACAD_REACTORS
330
47
102
}
330
47
100
AcDbScale
 70
     0
300
6" = 1'-0"
140
6.0
141
12.0
290
     0
  0
SCALE
  5
68
102
{ACAD_REACTORS
330
47
102
}
330
47
100
AcDbScale
 70
     0
300
1'-0" = 1'-0"
140
12.0
141
12.0
290
     0
  0
ENDSEC
  0
EOF
