  0
SECTION
  2
HEADER
  9
$ACADVER
  1
AC1015
  9
$ACADMAINTVER
 70
     6
  9
$DWGCODEPAGE
  3
ANSI_1250
  9
$INSBASE
 10
0.0
 20
0.0
 30
0.0
  9
$EXTMIN
 10
0.0
 20
0.0
 30
0.0
  9
$EXTMAX
 10
431.8
 20
279.4
 30
0.0
  9
$LIMMIN
 10
0.0
 20
0.0
  9
$LIMMAX
 10
431.8
 20
279.4
  9
$ORTHOMODE
 70
     0
  9
$REGENMODE
 70
     1
  9
$FILLMODE
 70
     1
  9
$QTEXTMODE
 70
     0
  9
$MIRRTEXT
 70
     1
  9
$LTSCALE
 40
1.0
  9
$ATTMODE
 70
     1
  9
$TEXTSIZE
 40
3.8805555556
  9
$TRACEWID
 40
1.0
  9
$TEXTSTYLE
  7
Standard
  9
$CLAYER
  8
0
  9
$CELTYPE
  6
ByLayer
  9
$CECOLOR
 62
   256
  9
$CELTSCALE
 40
1.0
  9
$DISPSILH
 70
     0
  9
$DIMSCALE
 40
1.0
  9
$DIMASZ
 40
3.302
  9
$DIMEXO
 40
1.0
  9
$DIMDLI
 40
3.75
  9
$DIMRND
 40
0.0
  9
$DIMDLE
 40
0.0
  9
$DIMEXE
 40
1.0
  9
$DIMTP
 40
0.0
  9
$DIMTM
 40
0.0
  9
$DIMTXT
 40
3.8805555556
  9
$DIMCEN
 40
2.5
  9
$DIMTSZ
 40
0.0
  9
$DIMTOL
 70
     0
  9
$DIMLIM
 70
     0
  9
$DIMTIH
 70
     1
  9
$DIMTOH
 70
     1
  9
$DIMSE1
 70
     0
  9
$DIMSE2
 70
     0
  9
$DIMTAD
 70
     1
  9
$DIMZIN
 70
     0
  9
$DIMBLK
  1

  9
$DIMASO
 70
     1
  9
$DIMSHO
 70
     1
  9
$DIMPOST
  1

  9
$DIMAPOST
  1

  9
$DIMALT
 70
     0
  9
$DIMALTD
 70
     3
  9
$DIMALTF
 40
0.0393700787
  9
$DIMLFAC
 40
1.0
  9
$DIMTOFL
 70
     1
  9
$DIMTVP
 40
0.0
  9
$DIMTIX
 70
     0
  9
$DIMSOXD
 70
     0
  9
$DIMSAH
 70
     0
  9
$DIMBLK1
  1

  9
$DIMBLK2
  1

  9
$DIMSTYLE
  2
ISO-25
  9
$DIMCLRD
 70
     0
  9
$DIMCLRE
 70
     0
  9
$DIMCLRT
 70
     0
  9
$DIMTFAC
 40
1.0
  9
$DIMGAP
 40
1.524
  9
$DIMJUST
 70
     0
  9
$DIMSD1
 70
     0
  9
$DIMSD2
 70
     0
  9
$DIMTOLJ
 70
     0
  9
$DIMTZIN
 70
     0
  9
$DIMALTZ
 70
     0
  9
$DIMALTTZ
 70
     0
  9
$DIMUPT
 70
     0
  9
$DIMDEC
 70
     1
  9
$DIMTDEC
 70
     1
  9
$DIMALTU
 70
     2
  9
$DIMALTTD
 70
     3
  9
$DIMTXSTY
  7
Standard
  9
$DIMAUNIT
 70
     0
  9
$DIMADEC
 70
     1
  9
$DIMALTRND
 40
0.0
  9
$DIMAZIN
 70
     0
  9
$DIMDSEP
 70
    44
  9
$DIMATFIT
 70
     3
  9
$DIMFRAC
 70
     0
  9
$DIMLDRBLK
  1

  9
$DIMLUNIT
 70
     2
  9
$DIMLWD
 70
    -2
  9
$DIMLWE
 70
    -2
  9
$DIMTMOVE
 70
     0
  9
$LUNITS
 70
     2
  9
$LUPREC
 70
     1
  9
$SKETCHINC
 40
1.0
  9
$FILLETRAD
 40
10.0
  9
$AUNITS
 70
     0
  9
$AUPREC
 70
     1
  9
$MENU
  1
.
  9
$ELEVATION
 40
0.0
  9
$PELEVATION
 40
0.0
  9
$THICKNESS
 40
0.0
  9
$LIMCHECK
 70
     0
  9
$CHAMFERA
 40
0.0
  9
$CHAMFERB
 40
0.0
  9
$CHAMFERC
 40
0.0
  9
$CHAMFERD
 40
0.0
  9
$SKPOLY
 70
     0
  9
$TDCREATE
 40
2459565.540329375
  9
$TDUCREATE
 40
2459565.498662708
  9
$TDUPDATE
 40
2459565.540329641
  9
$TDUUPDATE
 40
2459565.498662975
  9
$TDINDWG
 40
0.0000000116
  9
$TDUSRTIMER
 40
0.0000000116
  9
$USRTIMER
 70
     1
  9
$ANGBASE
 50
0.0
  9
$ANGDIR
 70
     0
  9
$PDMODE
 70
     0
  9
$PDSIZE
 40
-1.0
  9
$PLINEWID
 40
0.0
  9
$SPLFRAME
 70
     0
  9
$SPLINETYPE
 70
     6
  9
$SPLINESEGS
 70
     8
  9
$HANDSEED
  5
42C
  9
$SURFTAB1
 70
     6
  9
$SURFTAB2
 70
     6
  9
$SURFTYPE
 70
     6
  9
$SURFU
 70
     6
  9
$SURFV
 70
     6
  9
$UCSBASE
  2

  9
$UCSNAME
  2

  9
$UCSORG
 10
0.0
 20
0.0
 30
0.0
  9
$UCSXDIR
 10
1.0
 20
0.0
 30
0.0
  9
$UCSYDIR
 10
0.0
 20
1.0
 30
0.0
  9
$UCSORTHOREF
  2

  9
$UCSORTHOVIEW
 70
     0
  9
$UCSORGTOP
 10
0.0
 20
0.0
 30
0.0
  9
$UCSORGBOTTOM
 10
0.0
 20
0.0
 30
0.0
  9
$UCSORGLEFT
 10
0.0
 20
0.0
 30
0.0
  9
$UCSORGRIGHT
 10
0.0
 20
0.0
 30
0.0
  9
$UCSORGFRONT
 10
0.0
 20
0.0
 30
0.0
  9
$UCSORGBACK
 10
0.0
 20
0.0
 30
0.0
  9
$PUCSBASE
  2

  9
$PUCSNAME
  2

  9
$PUCSORG
 10
0.0
 20
0.0
 30
0.0
  9
$PUCSXDIR
 10
1.0
 20
0.0
 30
0.0
  9
$PUCSYDIR
 10
0.0
 20
1.0
 30
0.0
  9
$PUCSORTHOREF
  2

  9
$PUCSORTHOVIEW
 70
     0
  9
$PUCSORGTOP
 10
0.0
 20
0.0
 30
0.0
  9
$PUCSORGBOTTOM
 10
0.0
 20
0.0
 30
0.0
  9
$PUCSORGLEFT
 10
0.0
 20
0.0
 30
0.0
  9
$PUCSORGRIGHT
 10
0.0
 20
0.0
 30
0.0
  9
$PUCSORGFRONT
 10
0.0
 20
0.0
 30
0.0
  9
$PUCSORGBACK
 10
0.0
 20
0.0
 30
0.0
  9
$USERI1
 70
     0
  9
$USERI2
 70
     0
  9
$USERI3
 70
     0
  9
$USERI4
 70
     0
  9
$USERI5
 70
     0
  9
$USERR1
 40
0.0
  9
$USERR2
 40
0.0
  9
$USERR3
 40
0.0
  9
$USERR4
 40
0.0
  9
$USERR5
 40
0.0
  9
$WORLDVIEW
 70
     1
  9
$SHADEDGE
 70
     3
  9
$SHADEDIF
 70
    70
  9
$TILEMODE
 70
     1
  9
$MAXACTVP
 70
    64
  9
$PINSBASE
 10
0.0
 20
0.0
 30
0.0
  9
$PLIMCHECK
 70
     0
  9
$PEXTMIN
 10
1.0000000000E+20
 20
1.0000000000E+20
 30
1.0000000000E+20
  9
$PEXTMAX
 10
-1.0000000000E+20
 20
-1.0000000000E+20
 30
-1.0000000000E+20
  9
$PLIMMIN
 10
0.0
 20
0.0
  9
$PLIMMAX
 10
420.0
 20
297.0
  9
$UNITMODE
 70
     0
  9
$VISRETAIN
 70
     1
  9
$PLINEGEN
 70
     0
  9
$PSLTSCALE
 70
     1
  9
$TREEDEPTH
 70
  3020
  9
$CMLSTYLE
  2
Standard
  9
$CMLJUST
 70
     0
  9
$CMLSCALE
 40
20.0
  9
$PROXYGRAPHICS
 70
     1
  9
$MEASUREMENT
 70
     1
  9
$CELWEIGHT
370
    -1
  9
$ENDCAPS
280
     0
  9
$JOINSTYLE
280
     0
  9
$LWDISPLAY
290
     1
  9
$INSUNITS
 70
     4
  9
$HYPERLINKBASE
  1

  9
$STYLESHEET
  1

  9
$XEDIT
290
     1
  9
$CEPSNTYPE
380
     0
  9
$PSTYLEMODE
290
     1
  9
$FINGERPRINTGUID
  2
{f150d732-f108-4222-bcfa-9c6291fca19c}
  9
$VERSIONGUID
  2
{FAEB1C32-E019-11D5-929B-00C0DF256EC4}
  9
$EXTNAMES
290
     1
  9
$PSVPSCALE
 40
0.0
  9
$OLESTARTUP
290
     0
  0
ENDSEC
  0
SECTION
  2
CLASSES
  0
CLASS
  1
ACDBDICTIONARYWDFLT
  2
AcDbDictionaryWithDefault
  3
ObjectDBX Classes
 90
        0
280
     0
281
     0
  0
CLASS
  1
VISUALSTYLE
  2
AcDbVisualStyle
  3
ObjectDBX Classes
 90
     4095
280
     0
281
     0
  0
CLASS
  1
MATERIAL
  2
AcDbMaterial
  3
ObjectDBX Classes
 90
     1153
280
     0
281
     0
  0
CLASS
  1
SCALE
  2
AcDbScale
  3
ObjectDBX Classes
 90
     1153
280
     0
281
     0
  0
CLASS
  1
TABLESTYLE
  2
AcDbTableStyle
  3
ObjectDBX Classes
 90
     4095
280
     0
281
     0
  0
CLASS
  1
MLEADERSTYLE
  2
AcDbMLeaderStyle
  3
ACDB_MLEADERSTYLE_CLASS
 90
     4095
280
     0
281
     0
  0
CLASS
  1
SUN
  2
AcDbSun
  3
SCENEOE
 90
     1153
280
     0
281
     0
  0
CLASS
  1
ACDBPLACEHOLDER
  2
AcDbPlaceHolder
  3
ObjectDBX Classes
 90
        0
280
     0
281
     0
  0
CLASS
  1
LAYOUT
  2
AcDbLayout
  3
ObjectDBX Classes
 90
        0
280
     0
281
     0
  0
ENDSEC
  0
SECTION
  2
TABLES
  0
TABLE
  2
VPORT
  5
8
330
0
100
AcDbSymbolTable
 70
     1
  0
VPORT
  5
29
330
8
100
AcDbSymbolTableRecord
100
AcDbViewportTableRecord
  2
*Active
 70
     0
 10
0.0
 20
0.0
 11
1.0
 21
1.0
 12
215.9
 22
139.7
 13
0.0
 23
0.0
 14
10.0
 24
10.0
 15
10.0
 25
10.0
 16
0.0
 26
0.0
 36
1.0
 17
0.0
 27
0.0
 37
0.0
 40
279.4
 41
1.5454545455
 42
50.0
 43
0.0
 44
0.0
 50
0.0
 51
0.0
 71
     0
 72
  2000
 73
     1
 74
     3
 75
     0
 76
     0
 77
     0
 78
     0
281
     0
 65
     1
110
0.0
120
0.0
130
0.0
111
1.0
121
0.0
131
0.0
112
0.0
122
1.0
132
0.0
 79
     0
146
0.0
  0
ENDTAB
  0
TABLE
  2
LTYPE
  5
5
330
0
100
AcDbSymbolTable
 70
     6
  0
LTYPE
  5
14
330
5
100
AcDbSymbolTableRecord
100
AcDbLinetypeTableRecord
  2
ByBlock
 70
     0
  3

 72
    65
 73
     0
 40
0.0
  0
LTYPE
  5
15
330
5
100
AcDbSymbolTableRecord
100
AcDbLinetypeTableRecord
  2
ByLayer
 70
     0
  3

 72
    65
 73
     0
 40
0.0
  0
LTYPE
  5
16
330
5
100
AcDbSymbolTableRecord
100
AcDbLinetypeTableRecord
  2
Continuous
 70
     0
  3
Solid line
 72
    65
 73
     0
 40
0.0
  0
LTYPE
  5
6E
330
5
100
AcDbSymbolTableRecord
100
AcDbLinetypeTableRecord
  2
HIDDEN
 70
     0
  3
Hidden __ __ __ __ __ __ __ __ __ __ __ __ __ __
 72
    65
 73
     2
 40
1.905
 49
1.27
 74
     0
 49
-0.635
 74
     0
  0
LTYPE
  5
6F
330
5
100
AcDbSymbolTableRecord
100
AcDbLinetypeTableRecord
  2
PHANTOM
 70
     0
  3
Phantom ______  __  __  ______  __  __  ______
 72
    65
 73
     6
 40
12.7
 49
6.35
 74
     0
 49
-1.27
 74
     0
 49
1.27
 74
     0
 49
-1.27
 74
     0
 49
1.27
 74
     0
 49
-1.27
 74
     0
  0
LTYPE
  5
70
330
5
100
AcDbSymbolTableRecord
100
AcDbLinetypeTableRecord
  2
CENTER
 70
     0
  3
Center ____ _ ____ _ ____ _ ____ _ ____ _ ____
 72
    65
 73
     4
 40
10.16
 49
6.35
 74
     0
 49
-1.27
 74
     0
 49
1.27
 74
     0
 49
-1.27
 74
     0
  0
LTYPE
  5
71
330
5
100
AcDbSymbolTableRecord
100
AcDbLinetypeTableRecord
  2
CENTERX2
 70
     0
  3
Center (2x) ________  __  ________  __  _____
 72
    65
 73
     4
 40
20.32
 49
12.7
 74
     0
 49
-2.54
 74
     0
 49
2.54
 74
     0
 49
-2.54
 74
     0
  0
LTYPE
  5
72
330
5
100
AcDbSymbolTableRecord
100
AcDbLinetypeTableRecord
  2
DOT2
 70
     0
  3
Dot (.5x) ........................................
 72
    65
 73
     2
 40
0.635
 49
0.0
 74
     0
 49
-0.635
 74
     0
  0
ENDTAB
  0
TABLE
  2
LAYER
  5
2
330
0
100
AcDbSymbolTable
 70
     3
  0
LAYER
  5
10
330
2
100
AcDbSymbolTableRecord
100
AcDbLayerTableRecord
  2
0
 70
     0
 62
     7
  6
Continuous
370
    -3
390
F
  0
LAYER
  5
73
330
2
100
AcDbSymbolTableRecord
100
AcDbLayerTableRecord
  2
FRAME_&_TABLE
 70
     0
 62
     8
  6
Continuous
370
    50
390
F
  0
LAYER
  5
74
330
2
100
AcDbSymbolTableRecord
100
AcDbLayerTableRecord
  2
DIMENSIONS
 70
     0
 62
     7
  6
Continuous
370
    -3
390
F
  0
ENDTAB
  0
TABLE
  2
STYLE
  5
3
330
0
100
AcDbSymbolTable
 70
     1
  0
STYLE
  5
11
330
3
100
AcDbSymbolTableRecord
100
AcDbTextStyleTableRecord
  2
Standard
 70
     0
 40
0.0
 41
1.0
 50
0.0
 71
     0
 42
3.8805555556
  3
txt
  4

  0
ENDTAB
  0
TABLE
  2
VIEW
  5
6
330
0
100
AcDbSymbolTable
 70
     0
  0
ENDTAB
  0
TABLE
  2
UCS
  5
7
330
0
100
AcDbSymbolTable
 70
     0
  0
ENDTAB
  0
TABLE
  2
APPID
  5
9
330
0
100
AcDbSymbolTable
 70
     1
  0
APPID
  5
12
330
9
100
AcDbSymbolTableRecord
100
AcDbRegAppTableRecord
  2
ACAD
 70
     0
  0
ENDTAB
  0
TABLE
  2
DIMSTYLE
  5
A
330
0
100
AcDbSymbolTable
 70
     1
100
AcDbDimStyleTable
  0
DIMSTYLE
105
27
330
A
100
AcDbSymbolTableRecord
100
AcDbDimStyleTableRecord
  2
ISO-25
 70
     0
 41
2.5
 42
0.625
 43
3.75
 44
1.25
 73
     0
 74
     0
 77
     1
 78
     8
140
2.5
141
2.5
143
0.0393700787
147
0.625
171
     3
172
     1
178
     0
271
     2
272
     2
274
     3
278
    44
283
     0
284
     8
340
11
  0
ENDTAB
  0
TABLE
  2
BLOCK_RECORD
  5
1
330
0
100
AcDbSymbolTable
 70
     1
  0
BLOCK_RECORD
  5
1F
330
1
100
AcDbSymbolTableRecord
100
AcDbBlockTableRecord
  2
*Model_Space
340
22
  0
BLOCK_RECORD
  5
1B
330
1
100
AcDbSymbolTableRecord
100
AcDbBlockTableRecord
  2
*Paper_Space
340
1E
  0
BLOCK_RECORD
  5
23
330
1
100
AcDbSymbolTableRecord
100
AcDbBlockTableRecord
  2
*Paper_Space0
340
26
  0
ENDTAB
  0
ENDSEC
  0
SECTION
  2
BLOCKS
  0
BLOCK
  5
20
330
1F
100
AcDbEntity
  8
0
100
AcDbBlockBegin
  2
*Model_Space
 70
     0
 10
0.0
 20
0.0
 30
0.0
  3
*Model_Space
  1

  0
ENDBLK
  5
21
330
1F
100
AcDbEntity
  8
0
100
AcDbBlockEnd
  0
BLOCK
  5
1C
330
1B
100
AcDbEntity
 67
     1
  8
0
100
AcDbBlockBegin
  2
*Paper_Space
 70
     0
 10
0.0
 20
0.0
 30
0.0
  3
*Paper_Space
  1

  0
ENDBLK
  5
1D
330
1B
100
AcDbEntity
 67
     1
  8
0
100
AcDbBlockEnd
  0
BLOCK
  5
24
330
23
100
AcDbEntity
  8
0
100
AcDbBlockBegin
  2
*Paper_Space0
 70
     0
 10
0.0
 20
0.0
 30
0.0
  3
*Paper_Space0
  1

  0
ENDBLK
  5
25
330
23
100
AcDbEntity
  8
0
100
AcDbBlockEnd
  0
ENDSEC
  0
SECTION
  2
ENTITIES
  0
LINE
  5
75
330
1F
100
AcDbEntity
  8
0
  6
Continuous
 62
     7
370
    25
100
AcDbLine
 10
-1269.528294108
 20
411.1655519253
 30
0.0
 11
-1269.528294108
 21
402.1655519253
 31
0.0
  0
ARC
  5
76
330
1F
100
AcDbEntity
  8
0
  6
Continuous
 62
     7
370
    25
100
AcDbCircle
 10
-1266.528294108
 20
411.1655519253
 30
0.0
 40
3.000000000000227
100
AcDbArc
 50
90.0
 51
180.0
  0
ARC
  5
77
330
1F
100
AcDbEntity
  8
0
  6
Continuous
 62
     7
370
    25
100
AcDbCircle
 10
-1266.528294108
 20
402.1655519253
 30
0.0
 40
3.000000000000227
100
AcDbArc
 50
180.0
 51
270.0
  0
LINE
  5
78
330
1F
100
AcDbEntity
  8
0
  6
Continuous
 62
     7
370
    25
100
AcDbLine
 10
-1233.5120783924
 20
399.1655519253
 30
0.0
 11
-1233.5120783924
 21
-90.8344480747
 31
0.0
  0
ARC
  5
79
330
1F
100
AcDbEntity
  8
0
  6
Continuous
 62
     7
370
    25
100
AcDbCircle
 10
1002.5089004949
 20
426.1655519253
 30
0.0
 40
3.0
100
AcDbArc
 50
0.0
 51
90.0
  0
ARC
  5
7A
330
1F
100
AcDbEntity
  8
0
  6
Continuous
 62
     7
370
    25
100
AcDbCircle
 10
1002.5089004949
 20
417.1655519253
 30
0.0
 40
3.0
100
AcDbArc
 50
270.0
 51
0.0
  0
LINE
  5
7B
330
1F
100
AcDbEntity
  8
0
  6
Continuous
 62
     7
370
    25
100
AcDbLine
 10
1005.5089004949
 20
417.1655519253
 30
0.0
 11
1005.5089004949
 21
426.1655519253
 31
0.0
  0
ARC
  5
7C
330
1F
100
AcDbEntity
  8
0
  6
Continuous
 62
     7
370
    25
100
AcDbCircle
 10
571.6097569994
 20
417.1655519253
 30
0.0
 40
3.0
100
AcDbArc
 50
180.0
 51
270.0
  0
ARC
  5
7D
330
1F
100
AcDbEntity
  8
0
  6
Continuous
 62
     7
370
    25
100
AcDbCircle
 10
571.6097569994
 20
426.1655519253
 30
0.0
 40
3.0
100
AcDbArc
 50
90.0
 51
180.0
  0
LINE
  5
7E
330
1F
100
AcDbEntity
  8
0
  6
Continuous
 62
     7
370
    25
100
AcDbLine
 10
568.6097569994
 20
426.1655519253
 30
0.0
 11
568.6097569994
 21
417.1655519253
 31
0.0
  0
ARC
  5
7F
330
1F
100
AcDbEntity
  8
0
  6
Continuous
 62
     7
370
    25
100
AcDbCircle
 10
1002.5089004949
 20
-117.8344480747
 30
0.0
 40
2.999999999999943
100
AcDbArc
 50
270.0
 51
0.0
  0
ARC
  5
80
330
1F
100
AcDbEntity
  8
0
  6
Continuous
 62
     7
370
    25
100
AcDbCircle
 10
1002.5089004949
 20
-108.8344480747
 30
0.0
 40
3.0
100
AcDbArc
 50
0.0
 51
90.0
  0
LINE
  5
81
330
1F
100
AcDbEntity
  8
0
  6
Continuous
 62
     7
370
    25
100
AcDbLine
 10
1005.5089004949
 20
-117.8344480747
 30
0.0
 11
1005.5089004949
 21
-108.8344480747
 31
0.0
  0
ARC
  5
82
330
1F
100
AcDbEntity
  8
0
  6
Continuous
 62
     7
370
    25
100
AcDbCircle
 10
571.6097569994
 20
-117.8344480747
 30
0.0
 40
3.0
100
AcDbArc
 50
180.0
 51
270.0
  0
ARC
  5
83
330
1F
100
AcDbEntity
  8
0
  6
Continuous
 62
     7
370
    25
100
AcDbCircle
 10
571.6097569994
 20
-108.8344480747
 30
0.0
 40
3.0
100
AcDbArc
 50
90.0
 51
180.0
  0
LINE
  5
84
330
1F
100
AcDbEntity
  8
0
  6
Continuous
 62
     7
370
    25
100
AcDbLine
 10
568.6097569994
 20
-108.8344480747
 30
0.0
 11
568.6097569994
 21
-117.8344480747
 31
0.0
  0
ARC
  5
85
330
1F
100
AcDbEntity
  8
0
  6
Continuous
 62
     7
370
    25
100
AcDbCircle
 10
-1155.8973178891
 20
-107.0844480747
 30
0.0
 40
1.249999999999972
100
AcDbArc
 50
306.8698976458
 51
90.0
  0
ARC
  5
86
330
1F
100
AcDbEntity
  8
0
  6
Continuous
 62
     7
370
    25
100
AcDbCircle
 10
-1175.6973178891
 20
-107.0844480747
 30
0.0
 40
1.249999999999972
100
AcDbArc
 50
90.0
 51
233.1301023542
  0
ARC
  5
87
330
1F
100
AcDbEntity
  8
0
  6
Continuous
 62
     7
370
    25
100
AcDbCircle
 10
-1165.7973178891
 20
-93.8844480747
 30
0.0
 40
17.75000000000007
100
AcDbArc
 50
233.1301023542
 51
306.8698976458
  0
ARC
  5
88
330
1F
100
AcDbEntity
  8
0
  6
Continuous
 62
     7
370
    25
100
AcDbCircle
 10
-1175.6973178891
 20
415.4155519253
 30
0.0
 40
1.25
100
AcDbArc
 50
126.8698976458
 51
270.0
  0
ARC
  5
89
330
1F
100
AcDbEntity
  8
0
  6
Continuous
 62
     7
370
    25
100
AcDbCircle
 10
-1155.8973178891
 20
415.4155519253
 30
0.0
 40
1.25
100
AcDbArc
 50
270.0
 51
53.1301023542
  0
ARC
  5
8A
330
1F
100
AcDbEntity
  8
0
  6
Continuous
 62
     7
370
    25
100
AcDbCircle
 10
-1165.7973178891
 20
402.2155519253
 30
0.0
 40
17.75000000000005
100
AcDbArc
 50
53.1301023542
 51
126.8698976458
  0
LINE
  5
8B
330
1F
100
AcDbEntity
  8
0
  6
Continuous
 62
     7
370
    25
100
AcDbLine
 10
-1143.6419348843
 20
-105.8384553435
 30
0.0
 11
-1143.7419454525
 21
-105.8344480747
 31
0.0
  0
ARC
  5
8C
330
1F
100
AcDbEntity
  8
0
  6
Continuous
 62
     7
370
    25
100
AcDbCircle
 10
-1153.6419454525
 20
-93.8844480747
 30
0.0
 40
17.75000000000007
100
AcDbArc
 50
249.9765411224
 51
304.3390186374
  0
LINE
  5
8D
330
1F
100
AcDbEntity
  8
0
  6
Continuous
 62
     7
370
    25
100
AcDbLine
 10
-1143.7419454525
 20
414.1655519253
 30
0.0
 11
-1143.6419348843
 21
414.1695591941
 31
0.0
  0
ARC
  5
8E
330
1F
100
AcDbEntity
  8
0
  6
Continuous
 62
     7
370
    25
100
AcDbCircle
 10
-1153.6419454525
 20
402.2155519253
 30
0.0
 40
17.74999999999999
100
AcDbArc
 50
55.6609813733
 51
110.0234588777
  0
ARC
  5
8F
330
1F
100
AcDbEntity
  8
0
  6
Continuous
 62
     7
370
    25
100
AcDbCircle
 10
664.9917289497
 20
-89.5844480747
 30
0.0
 40
1.25
100
AcDbArc
 50
126.8698976459
 51
270.0
  0
ARC
  5
90
330
1F
100
AcDbEntity
  8
0
  6
Continuous
 62
     7
370
    25
100
AcDbCircle
 10
684.7917289497
 20
-89.5844480747
 30
0.0
 40
1.250000000000068
100
AcDbArc
 50
270.0
 51
53.1301023541
  0
ARC
  5
91
330
1F
100
AcDbEntity
  8
0
  6
Continuous
 62
     7
370
    25
100
AcDbCircle
 10
674.8917289497
 20
-102.7844480747
 30
0.0
 40
17.75
100
AcDbArc
 50
53.1301023542
 51
126.8698976458
  0
ARC
  5
92
330
1F
100
AcDbEntity
  8
0
  6
Continuous
 62
     7
370
    25
100
AcDbCircle
 10
815.3687320811
 20
-89.5844480747
 30
0.0
 40
1.25
100
AcDbArc
 50
126.8698976459
 51
270.0
  0
ARC
  5
93
330
1F
100
AcDbEntity
  8
0
  6
Continuous
 62
     7
370
    25
100
AcDbCircle
 10
835.1687320811
 20
-89.5844480747
 30
0.0
 40
1.25
100
AcDbArc
 50
270.0
 51
53.1301023541
  0
ARC
  5
94
330
1F
100
AcDbEntity
  8
0
  6
Continuous
 62
     7
370
    25
100
AcDbCircle
 10
825.2687320811
 20
-102.7844480747
 30
0.0
 40
17.75
100
AcDbArc
 50
53.1301023542
 51
126.8698976458
  0
ARC
  5
95
330
1F
100
AcDbEntity
  8
0
  6
Continuous
 62
     7
370
    25
100
AcDbCircle
 10
843.1580058295
 20
397.9155519253
 30
0.0
 40
1.25
100
AcDbArc
 50
306.8698976459
 51
90.0
  0
ARC
  5
96
330
1F
100
AcDbEntity
  8
0
  6
Continuous
 62
     7
370
    25
100
AcDbCircle
 10
833.2580058295
 20
411.1155519253
 30
0.0
 40
17.75000000000005
100
AcDbArc
 50
256.994183714
 51
306.8698976458
  0
ARC
  5
97
330
1F
100
AcDbEntity
  8
0
  6
Continuous
 62
     7
370
    25
100
AcDbCircle
 10
684.7917289497
 20
397.9155519253
 30
0.0
 40
1.250000000000046
100
AcDbArc
 50
306.8698976459
 51
90.0
  0
ARC
  5
98
330
1F
100
AcDbEntity
  8
0
  6
Continuous
 62
     7
370
    25
100
AcDbCircle
 10
664.9917289497
 20
397.9155519253
 30
0.0
 40
1.250000000000046
100
AcDbArc
 50
90.0
 51
233.1301023541
  0
ARC
  5
99
330
1F
100
AcDbEntity
  8
0
  6
Continuous
 62
     7
370
    25
100
AcDbCircle
 10
674.8917289497
 20
411.1155519253
 30
0.0
 40
17.75000000000005
100
AcDbArc
 50
233.1301023542
 51
306.8698976458
  0
ARC
  5
9A
330
1F
100
AcDbEntity
  8
0
  6
Continuous
 62
     7
370
    25
100
AcDbCircle
 10
603.5097569993
 20
397.9155519253
 30
0.0
 40
1.25
100
AcDbArc
 50
306.8698976459
 51
90.0
  0
ARC
  5
9B
330
1F
100
AcDbEntity
  8
0
  6
Continuous
 62
     7
370
    25
100
AcDbCircle
 10
583.7097569993
 20
397.9155519253
 30
0.0
 40
1.25
100
AcDbArc
 50
90.0
 51
233.1301023541
  0
ARC
  5
9C
330
1F
100
AcDbEntity
  8
0
  6
Continuous
 62
     7
370
    25
100
AcDbCircle
 10
593.6097569993
 20
411.1155519253
 30
0.0
 40
17.75000000000005
100
AcDbArc
 50
233.1301023542
 51
306.8698976458
  0
ARC
  5
9D
330
1F
100
AcDbEntity
  8
0
  6
Continuous
 62
     7
370
    25
100
AcDbCircle
 10
835.1687320811
 20
397.9155519253
 30
0.0
 40
1.250000000000023
100
AcDbArc
 50
306.8698976459
 51
90.0
  0
ARC
  5
9E
330
1F
100
AcDbEntity
  8
0
  6
Continuous
 62
     7
370
    25
100
AcDbCircle
 10
815.3687320811
 20
397.9155519253
 30
0.0
 40
1.250000000000023
100
AcDbArc
 50
90.0
 51
233.1301023542
  0
ARC
  5
9F
330
1F
100
AcDbEntity
  8
0
  6
Continuous
 62
     7
370
    25
100
AcDbCircle
 10
825.2687320811
 20
411.1155519253
 30
0.0
 40
17.74999999999995
100
AcDbArc
 50
233.1301023542
 51
306.8698976458
  0
ARC
  5
A0
330
1F
100
AcDbEntity
  8
0
  6
Continuous
 62
     7
370
    25
100
AcDbCircle
 10
843.1580058295
 20
-89.5844480747
 30
0.0
 40
1.25
100
AcDbArc
 50
270.0
 51
53.1301023541
  0
ARC
  5
A1
330
1F
100
AcDbEntity
  8
0
  6
Continuous
 62
     7
370
    25
100
AcDbCircle
 10
833.2580058295
 20
-102.7844480747
 30
0.0
 40
17.75
100
AcDbArc
 50
53.1301023542
 51
103.005816286
  0
ARC
  5
A2
330
1F
100
AcDbEntity
  8
0
  6
Continuous
 62
     7
370
    25
100
AcDbCircle
 10
583.7097569993
 20
-89.5844480747
 30
0.0
 40
1.25
100
AcDbArc
 50
126.8698976459
 51
270.0
  0
ARC
  5
A3
330
1F
100
AcDbEntity
  8
0
  6
Continuous
 62
     7
370
    25
100
AcDbCircle
 10
603.5097569993
 20
-89.5844480747
 30
0.0
 40
1.25
100
AcDbArc
 50
270.0
 51
53.1301023541
  0
ARC
  5
A4
330
1F
100
AcDbEntity
  8
0
  6
Continuous
 62
     7
370
    25
100
AcDbCircle
 10
593.6097569993
 20
-102.7844480747
 30
0.0
 40
17.75
100
AcDbArc
 50
53.1301023542
 51
126.8698976458
  0
LINE
  5
A5
330
1F
100
AcDbEntity
  8
0
  6
Continuous
 62
     7
370
    25
100
AcDbLine
 10
853.2580058295
 20
429.1655519253
 30
0.0
 11
853.2580058295
 21
431.1655519253
 31
0.0
  0
ARC
  5
A6
330
1F
100
AcDbEntity
  8
0
  6
Continuous
 62
     7
370
    25
100
AcDbCircle
 10
833.3856981372
 20
431.1655519253
 30
0.0
 40
19.8723076923078
100
AcDbArc
 50
0.0
 51
46.9233678463
  0
ARC
  5
A7
330
1F
100
AcDbEntity
  8
0
  6
Continuous
 62
     7
370
    25
100
AcDbCircle
 10
-110.4103065462
 20
-107.8344480747
 30
0.0
 40
19.87230769230774
100
AcDbArc
 50
180.0
 51
226.9233678463
  0
ARC
  5
A8
330
1F
100
AcDbEntity
  8
0
  6
Continuous
 62
     7
370
    25
100
AcDbCircle
 10
-110.1549219308
 20
-107.8344480747
 30
0.0
 40
19.87230769230774
100
AcDbArc
 50
313.0766321537
 51
0.0
  0
LINE
  5
A9
330
1F
100
AcDbEntity
  8
0
  6
Continuous
 62
     7
370
    25
100
AcDbLine
 10
-130.2826142385
 20
-105.8344480747
 30
0.0
 11
-130.2826142385
 21
-107.8344480747
 31
0.0
  0
LINE
  5
AA
330
1F
100
AcDbEntity
  8
0
  6
Continuous
 62
     7
370
    25
100
AcDbLine
 10
-90.2826142385
 20
-107.8344480747
 30
0.0
 11
-90.2826142385
 21
-105.8344480747
 31
0.0
  0
ARC
  5
AB
330
1F
100
AcDbEntity
  8
0
  6
Continuous
 62
     7
370
    25
100
AcDbCircle
 10
825.1410397734
 20
-122.8344480747
 30
0.0
 40
19.8723076923078
100
AcDbArc
 50
180.0
 51
226.9233678463
  0
ARC
  5
AC
330
1F
100
AcDbEntity
  8
0
  6
Continuous
 62
     7
370
    25
100
AcDbCircle
 10
825.3964243888
 20
-122.8344480747
 30
0.0
 40
19.8723076923078
100
AcDbArc
 50
313.0766321537
 51
0.0
  0
LINE
  5
AD
330
1F
100
AcDbEntity
  8
0
  6
Continuous
 62
     7
370
    25
100
AcDbLine
 10
805.2687320811
 20
-120.8344480747
 30
0.0
 11
805.2687320811
 21
-122.8344480747
 31
0.0
  0
LINE
  5
AE
330
1F
100
AcDbEntity
  8
0
  6
Continuous
 62
     7
370
    25
100
AcDbLine
 10
845.2687320811
 20
-122.8344480747
 30
0.0
 11
845.2687320811
 21
-120.8344480747
 31
0.0
  0
LINE
  5
AF
330
1F
100
AcDbEntity
  8
0
  6
Continuous
 62
     7
370
    25
100
AcDbLine
 10
845.2687320811
 20
429.1655519253
 30
0.0
 11
845.2687320811
 21
431.1655519253
 31
0.0
  0
LINE
  5
B0
330
1F
100
AcDbEntity
  8
0
  6
Continuous
 62
     7
370
    25
100
AcDbLine
 10
805.2687320811
 20
431.1655519253
 30
0.0
 11
805.2687320811
 21
429.1655519253
 31
0.0
  0
ARC
  5
B1
330
1F
100
AcDbEntity
  8
0
  6
Continuous
 62
     7
370
    25
100
AcDbCircle
 10
825.3964243888
 20
431.1655519253
 30
0.0
 40
19.8723076923078
100
AcDbArc
 50
0.0
 51
46.8577800371
  0
ARC
  5
B2
330
1F
100
AcDbEntity
  8
0
  6
Continuous
 62
     7
370
    25
100
AcDbCircle
 10
825.1410397734
 20
431.1655519253
 30
0.0
 40
19.8723076923078
100
AcDbArc
 50
133.0766321537
 51
180.0
  0
LINE
  5
B3
330
1F
100
AcDbEntity
  8
0
  6
Continuous
 62
     7
370
    25
100
AcDbLine
 10
273.3145573393
 20
414.1655519253
 30
0.0
 11
273.3145573393
 21
416.1655519253
 31
0.0
  0
LINE
  5
B4
330
1F
100
AcDbEntity
  8
0
  6
Continuous
 62
     7
370
    25
100
AcDbLine
 10
233.3145573393
 20
416.1655519253
 30
0.0
 11
233.3145573393
 21
414.1655519253
 31
0.0
  0
ARC
  5
B5
330
1F
100
AcDbEntity
  8
0
  6
Continuous
 62
     7
370
    25
100
AcDbCircle
 10
253.442249647
 20
416.1655519253
 30
0.0
 40
19.87230769230774
100
AcDbArc
 50
0.0
 51
46.9233678463
  0
ARC
  5
B6
330
1F
100
AcDbEntity
  8
0
  6
Continuous
 62
     7
370
    25
100
AcDbCircle
 10
253.1868650316
 20
416.1655519253
 30
0.0
 40
19.87230769230774
100
AcDbArc
 50
133.0766321537
 51
180.0
  0
ARC
  5
B7
330
1F
100
AcDbEntity
  8
0
  6
Continuous
 62
     7
370
    25
100
AcDbCircle
 10
-1220.273374974
 20
416.1655519253
 30
0.0
 40
19.87230769230758
100
AcDbArc
 50
0.0
 51
46.9233678463
  0
ARC
  5
B8
330
1F
100
AcDbEntity
  8
0
  6
Continuous
 62
     7
370
    25
100
AcDbCircle
 10
-1220.5287595893
 20
416.1655519253
 30
0.0
 40
19.87230769230766
100
AcDbArc
 50
133.0766321537
 51
180.0
  0
LINE
  5
B9
330
1F
100
AcDbEntity
  8
0
  6
Continuous
 62
     7
370
    25
100
AcDbLine
 10
-1200.4010672817
 20
414.1655519253
 30
0.0
 11
-1200.4010672817
 21
416.1655519253
 31
0.0
  0
LINE
  5
BA
330
1F
100
AcDbEntity
  8
0
  6
Continuous
 62
     7
370
    25
100
AcDbLine
 10
-1240.4010672817
 20
416.1655519253
 30
0.0
 11
-1240.4010672817
 21
414.1655519253
 31
0.0
  0
LINE
  5
BB
330
1F
100
AcDbEntity
  8
0
  6
Continuous
 62
     7
370
    25
100
AcDbLine
 10
-1240.4010672817
 20
-105.8344480747
 30
0.0
 11
-1240.4010672817
 21
-107.8344480747
 31
0.0
  0
LINE
  5
BC
330
1F
100
AcDbEntity
  8
0
  6
Continuous
 62
     7
370
    25
100
AcDbLine
 10
-1200.4010672817
 20
-107.8344480747
 30
0.0
 11
-1200.4010672817
 21
-105.8344480747
 31
0.0
  0
ARC
  5
BD
330
1F
100
AcDbEntity
  8
0
  6
Continuous
 62
     7
370
    25
100
AcDbCircle
 10
-1220.5287595893
 20
-107.8344480747
 30
0.0
 40
19.87230769230763
100
AcDbArc
 50
180.0
 51
226.9233678463
  0
ARC
  5
BE
330
1F
100
AcDbEntity
  8
0
  6
Continuous
 62
     7
370
    25
100
AcDbCircle
 10
-1220.273374974
 20
-107.8344480747
 30
0.0
 40
19.87230769230767
100
AcDbArc
 50
313.0766321537
 51
0.0
  0
LINE
  5
BF
330
1F
100
AcDbEntity
  8
0
  6
Continuous
 62
     7
370
    25
100
AcDbLine
 10
853.2580058295
 20
-122.8344480747
 30
0.0
 11
853.2580058295
 21
-120.8344480747
 31
0.0
  0
ARC
  5
C0
330
1F
100
AcDbEntity
  8
0
  6
Continuous
 62
     7
370
    25
100
AcDbCircle
 10
833.3856981372
 20
-122.8344480747
 30
0.0
 40
19.8723076923078
100
AcDbArc
 50
313.0766321537
 51
0.0
  0
LINE
  5
C1
330
1F
100
AcDbEntity
  8
0
  6
Continuous
 62
     7
370
    25
100
AcDbLine
 10
-90.2826142385
 20
414.1655519253
 30
0.0
 11
-90.2826142385
 21
416.1655519253
 31
0.0
  0
LINE
  5
C2
330
1F
100
AcDbEntity
  8
0
  6
Continuous
 62
     7
370
    25
100
AcDbLine
 10
-130.2826142385
 20
416.1655519253
 30
0.0
 11
-130.2826142385
 21
414.1655519253
 31
0.0
  0
ARC
  5
C3
330
1F
100
AcDbEntity
  8
0
  6
Continuous
 62
     7
370
    25
100
AcDbCircle
 10
-110.1549219308
 20
416.1655519253
 30
0.0
 40
19.87230769230774
100
AcDbArc
 50
0.0
 51
46.9233678463
  0
ARC
  5
C4
330
1F
100
AcDbEntity
  8
0
  6
Continuous
 62
     7
370
    25
100
AcDbCircle
 10
-110.4103065462
 20
416.1655519253
 30
0.0
 40
19.87230769230774
100
AcDbArc
 50
133.0766321537
 51
180.0
  0
ARC
  5
C5
330
1F
100
AcDbEntity
  8
0
  6
Continuous
 62
     7
370
    25
100
AcDbCircle
 10
-1123.5142425766
 20
416.1655519253
 30
0.0
 40
19.87230769230766
100
AcDbArc
 50
0.0
 51
46.9233678463
  0
ARC
  5
C6
330
1F
100
AcDbEntity
  8
0
  6
Continuous
 62
     7
370
    25
100
AcDbCircle
 10
-1123.769627192
 20
416.1655519253
 30
0.0
 40
19.87230769230766
100
AcDbArc
 50
133.0766321537
 51
180.0
  0
LINE
  5
C7
330
1F
100
AcDbEntity
  8
0
  6
Continuous
 62
     7
370
    25
100
AcDbLine
 10
-1103.6419348843
 20
414.1655519253
 30
0.0
 11
-1103.6419348843
 21
416.1655519253
 31
0.0
  0
LINE
  5
C8
330
1F
100
AcDbEntity
  8
0
  6
Continuous
 62
     7
370
    25
100
AcDbLine
 10
-1143.6419348843
 20
416.1655519253
 30
0.0
 11
-1143.6419348843
 21
414.1655519253
 31
0.0
  0
LINE
  5
C9
330
1F
100
AcDbEntity
  8
0
  6
Continuous
 62
     7
370
    25
100
AcDbLine
 10
233.3145573393
 20
-105.8344480747
 30
0.0
 11
233.3145573393
 21
-107.8344480747
 31
0.0
  0
LINE
  5
CA
330
1F
100
AcDbEntity
  8
0
  6
Continuous
 62
     7
370
    25
100
AcDbLine
 10
273.3145573393
 20
-107.8344480747
 30
0.0
 11
273.3145573393
 21
-105.8344480747
 31
0.0
  0
ARC
  5
CB
330
1F
100
AcDbEntity
  8
0
  6
Continuous
 62
     7
370
    25
100
AcDbCircle
 10
253.1868650316
 20
-107.8344480747
 30
0.0
 40
19.87230769230774
100
AcDbArc
 50
180.0
 51
226.9233678463
  0
ARC
  5
CC
330
1F
100
AcDbEntity
  8
0
  6
Continuous
 62
     7
370
    25
100
AcDbCircle
 10
253.442249647
 20
-107.8344480747
 30
0.0
 40
19.87230769230774
100
AcDbArc
 50
313.0766321537
 51
0.0
  0
ARC
  5
CD
330
1F
100
AcDbEntity
  8
0
  6
Continuous
 62
     7
370
    25
100
AcDbCircle
 10
1343.9780684897
 20
-107.8344480747
 30
0.0
 40
19.87230769230791
100
AcDbArc
 50
180.0
 51
226.9233678463
  0
ARC
  5
CE
330
1F
100
AcDbEntity
  8
0
  6
Continuous
 62
     7
370
    25
100
AcDbCircle
 10
1344.2334531051
 20
-107.8344480747
 30
0.0
 40
19.87230769230774
100
AcDbArc
 50
313.0766321537
 51
0.0
  0
LINE
  5
CF
330
1F
100
AcDbEntity
  8
0
  6
Continuous
 62
     7
370
    25
100
AcDbLine
 10
1324.1057607974
 20
-105.8344480747
 30
0.0
 11
1324.1057607974
 21
-107.8344480747
 31
0.0
  0
LINE
  5
D0
330
1F
100
AcDbEntity
  8
0
  6
Continuous
 62
     7
370
    25
100
AcDbLine
 10
1364.1057607974
 20
-107.8344480747
 30
0.0
 11
1364.1057607974
 21
-105.8344480747
 31
0.0
  0
ARC
  5
D1
330
1F
100
AcDbEntity
  8
0
  6
Continuous
 62
     7
370
    25
100
AcDbCircle
 10
-474.007478124
 20
-107.8344480747
 30
0.0
 40
19.87230769230774
100
AcDbArc
 50
180.0
 51
226.9233678463
  0
ARC
  5
D2
330
1F
100
AcDbEntity
  8
0
  6
Continuous
 62
     7
370
    25
100
AcDbCircle
 10
-473.7520935086
 20
-107.8344480747
 30
0.0
 40
19.87230769230774
100
AcDbArc
 50
313.0766321537
 51
0.0
  0
LINE
  5
D3
330
1F
100
AcDbEntity
  8
0
  6
Continuous
 62
     7
370
    25
100
AcDbLine
 10
-493.8797858163
 20
-105.8344480747
 30
0.0
 11
-493.8797858163
 21
-107.8344480747
 31
0.0
  0
LINE
  5
D4
330
1F
100
AcDbEntity
  8
0
  6
Continuous
 62
     7
370
    25
100
AcDbLine
 10
-453.8797858163
 20
-107.8344480747
 30
0.0
 11
-453.8797858163
 21
-105.8344480747
 31
0.0
  0
ARC
  5
D5
330
1F
100
AcDbEntity
  8
0
  6
Continuous
 62
     7
370
    25
100
AcDbCircle
 10
675.0194212574
 20
431.1655519253
 30
0.0
 40
19.87230769230769
100
AcDbArc
 50
0.0
 51
46.9233678463
  0
ARC
  5
D6
330
1F
100
AcDbEntity
  8
0
  6
Continuous
 62
     7
370
    25
100
AcDbCircle
 10
674.764036642
 20
431.1655519253
 30
0.0
 40
19.87230769230769
100
AcDbArc
 50
133.0766321537
 51
180.0
  0
LINE
  5
D7
330
1F
100
AcDbEntity
  8
0
  6
Continuous
 62
     7
370
    25
100
AcDbLine
 10
694.8917289497
 20
429.1655519253
 30
0.0
 11
694.8917289497
 21
431.1655519253
 31
0.0
  0
LINE
  5
D8
330
1F
100
AcDbEntity
  8
0
  6
Continuous
 62
     7
370
    25
100
AcDbLine
 10
654.8917289497
 20
431.1655519253
 30
0.0
 11
654.8917289497
 21
429.1655519253
 31
0.0
  0
ARC
  5
D9
330
1F
100
AcDbEntity
  8
0
  6
Continuous
 62
     7
370
    25
100
AcDbCircle
 10
593.4820646916
 20
-122.8344480747
 30
0.0
 40
19.8723076923078
100
AcDbArc
 50
180.0
 51
226.9233678463
  0
ARC
  5
DA
330
1F
100
AcDbEntity
  8
0
  6
Continuous
 62
     7
370
    25
100
AcDbCircle
 10
593.737449307
 20
-122.8344480747
 30
0.0
 40
19.87230769230769
100
AcDbArc
 50
313.0766321537
 51
0.0
  0
LINE
  5
DB
330
1F
100
AcDbEntity
  8
0
  6
Continuous
 62
     7
370
    25
100
AcDbLine
 10
573.6097569993
 20
-120.8344480747
 30
0.0
 11
573.6097569993
 21
-122.8344480747
 31
0.0
  0
LINE
  5
DC
330
1F
100
AcDbEntity
  8
0
  6
Continuous
 62
     7
370
    25
100
AcDbLine
 10
613.6097569993
 20
-122.8344480747
 30
0.0
 11
613.6097569993
 21
-120.8344480747
 31
0.0
  0
LINE
  5
DD
330
1F
100
AcDbEntity
  8
0
  6
Continuous
 62
     7
370
    25
100
AcDbLine
 10
1000.5089004949
 20
429.1655519253
 30
0.0
 11
1000.5089004949
 21
431.1655519253
 31
0.0
  0
LINE
  5
DE
330
1F
100
AcDbEntity
  8
0
  6
Continuous
 62
     7
370
    25
100
AcDbLine
 10
960.5089004949
 20
431.1655519253
 30
0.0
 11
960.5089004949
 21
429.1655519253
 31
0.0
  0
ARC
  5
DF
330
1F
100
AcDbEntity
  8
0
  6
Continuous
 62
     7
370
    25
100
AcDbCircle
 10
980.6365928026
 20
431.1655519253
 30
0.0
 40
19.87230769230791
100
AcDbArc
 50
0.0
 51
46.9233678463
  0
ARC
  5
E0
330
1F
100
AcDbEntity
  8
0
  6
Continuous
 62
     7
370
    25
100
AcDbCircle
 10
980.3812081872
 20
431.1655519253
 30
0.0
 40
19.8723076923078
100
AcDbArc
 50
133.0766321537
 51
180.0
  0
ARC
  5
E1
330
1F
100
AcDbEntity
  8
0
  6
Continuous
 62
     7
370
    25
100
AcDbCircle
 10
1344.2334531051
 20
416.1655519253
 30
0.0
 40
19.87230769230773
100
AcDbArc
 50
0.0
 51
46.9233678463
  0
ARC
  5
E2
330
1F
100
AcDbEntity
  8
0
  6
Continuous
 62
     7
370
    25
100
AcDbCircle
 10
1343.9780684897
 20
416.1655519253
 30
0.0
 40
19.87230769230791
100
AcDbArc
 50
133.0766321537
 51
180.0
  0
LINE
  5
E3
330
1F
100
AcDbEntity
  8
0
  6
Continuous
 62
     7
370
    25
100
AcDbLine
 10
1364.1057607974
 20
414.1655519253
 30
0.0
 11
1364.1057607974
 21
416.1655519253
 31
0.0
  0
LINE
  5
E4
330
1F
100
AcDbEntity
  8
0
  6
Continuous
 62
     7
370
    25
100
AcDbLine
 10
1324.1057607974
 20
416.1655519253
 30
0.0
 11
1324.1057607974
 21
414.1655519253
 31
0.0
  0
LINE
  5
E5
330
1F
100
AcDbEntity
  8
0
  6
Continuous
 62
     7
370
    25
100
AcDbLine
 10
-453.8797858163
 20
414.1655519253
 30
0.0
 11
-453.8797858163
 21
416.1655519253
 31
0.0
  0
LINE
  5
E6
330
1F
100
AcDbEntity
  8
0
  6
Continuous
 62
     7
370
    25
100
AcDbLine
 10
-493.8797858163
 20
416.1655519253
 30
0.0
 11
-493.8797858163
 21
414.1655519253
 31
0.0
  0
ARC
  5
E7
330
1F
100
AcDbEntity
  8
0
  6
Continuous
 62
     7
370
    25
100
AcDbCircle
 10
-473.7520935086
 20
416.1655519253
 30
0.0
 40
19.87230769230774
100
AcDbArc
 50
0.0
 51
46.9233678463
  0
ARC
  5
E8
330
1F
100
AcDbEntity
  8
0
  6
Continuous
 62
     7
370
    25
100
AcDbCircle
 10
-474.007478124
 20
416.1655519253
 30
0.0
 40
19.87230769230774
100
AcDbArc
 50
133.0766321537
 51
180.0
  0
ARC
  5
E9
330
1F
100
AcDbEntity
  8
0
  6
Continuous
 62
     7
370
    25
100
AcDbCircle
 10
980.3812081872
 20
-122.8344480747
 30
0.0
 40
19.8723076923078
100
AcDbArc
 50
180.0
 51
226.9233678463
  0
ARC
  5
EA
330
1F
100
AcDbEntity
  8
0
  6
Continuous
 62
     7
370
    25
100
AcDbCircle
 10
980.6365928026
 20
-122.8344480747
 30
0.0
 40
19.87230769230791
100
AcDbArc
 50
313.0766321537
 51
0.0
  0
LINE
  5
EB
330
1F
100
AcDbEntity
  8
0
  6
Continuous
 62
     7
370
    25
100
AcDbLine
 10
960.5089004949
 20
-120.8344480747
 30
0.0
 11
960.5089004949
 21
-122.8344480747
 31
0.0
  0
LINE
  5
EC
330
1F
100
AcDbEntity
  8
0
  6
Continuous
 62
     7
370
    25
100
AcDbLine
 10
1000.5089004949
 20
-122.8344480747
 30
0.0
 11
1000.5089004949
 21
-120.8344480747
 31
0.0
  0
LINE
  5
ED
330
1F
100
AcDbEntity
  8
0
  6
Continuous
 62
     7
370
    25
100
AcDbLine
 10
-1143.6419348843
 20
-105.8344480747
 30
0.0
 11
-1143.6419348843
 21
-107.8344480747
 31
0.0
  0
LINE
  5
EE
330
1F
100
AcDbEntity
  8
0
  6
Continuous
 62
     7
370
    25
100
AcDbLine
 10
-1103.6419348843
 20
-107.8344480747
 30
0.0
 11
-1103.6419348843
 21
-105.8344480747
 31
0.0
  0
ARC
  5
EF
330
1F
100
AcDbEntity
  8
0
  6
Continuous
 62
     7
370
    25
100
AcDbCircle
 10
-1123.769627192
 20
-107.8344480747
 30
0.0
 40
19.87230769230767
100
AcDbArc
 50
180.0
 51
226.9233678463
  0
ARC
  5
F0
330
1F
100
AcDbEntity
  8
0
  6
Continuous
 62
     7
370
    25
100
AcDbCircle
 10
-1123.5142425766
 20
-107.8344480747
 30
0.0
 40
19.87230769230767
100
AcDbArc
 50
313.0766321537
 51
0.0
  0
LINE
  5
F1
330
1F
100
AcDbEntity
  8
0
  6
Continuous
 62
     7
370
    25
100
AcDbLine
 10
-753.5092318768
 20
414.1655519253
 30
0.0
 11
-753.5092318768
 21
416.1655519253
 31
0.0
  0
LINE
  5
F2
330
1F
100
AcDbEntity
  8
0
  6
Continuous
 62
     7
370
    25
100
AcDbLine
 10
-793.5092318768
 20
416.1655519253
 30
0.0
 11
-793.5092318768
 21
414.1655519253
 31
0.0
  0
ARC
  5
F3
330
1F
100
AcDbEntity
  8
0
  6
Continuous
 62
     7
370
    25
100
AcDbCircle
 10
-773.3815395691
 20
416.1655519253
 30
0.0
 40
19.87230769230766
100
AcDbArc
 50
0.0
 51
46.9233678463
  0
ARC
  5
F4
330
1F
100
AcDbEntity
  8
0
  6
Continuous
 62
     7
370
    25
100
AcDbCircle
 10
-773.6369241845
 20
416.1655519253
 30
0.0
 40
19.87230769230774
100
AcDbArc
 50
133.0766321537
 51
180.0
  0
ARC
  5
F5
330
1F
100
AcDbEntity
  8
0
  6
Continuous
 62
     7
370
    25
100
AcDbCircle
 10
-773.6369241845
 20
-107.8344480747
 30
0.0
 40
19.87230769230775
100
AcDbArc
 50
180.0
 51
226.9233678463
  0
ARC
  5
F6
330
1F
100
AcDbEntity
  8
0
  6
Continuous
 62
     7
370
    25
100
AcDbCircle
 10
-773.3815395691
 20
-107.8344480747
 30
0.0
 40
19.87230769230767
100
AcDbArc
 50
313.0766321537
 51
0.0
  0
LINE
  5
F7
330
1F
100
AcDbEntity
  8
0
  6
Continuous
 62
     7
370
    25
100
AcDbLine
 10
-793.5092318768
 20
-105.8344480747
 30
0.0
 11
-793.5092318768
 21
-107.8344480747
 31
0.0
  0
LINE
  5
F8
330
1F
100
AcDbEntity
  8
0
  6
Continuous
 62
     7
370
    25
100
AcDbLine
 10
-753.5092318768
 20
-107.8344480747
 30
0.0
 11
-753.5092318768
 21
-105.8344480747
 31
0.0
  0
ARC
  5
F9
330
1F
100
AcDbEntity
  8
0
  6
Continuous
 62
     7
370
    25
100
AcDbCircle
 10
674.764036642
 20
-122.8344480747
 30
0.0
 40
19.87230769230769
100
AcDbArc
 50
180.0
 51
226.9233678463
  0
ARC
  5
FA
330
1F
100
AcDbEntity
  8
0
  6
Continuous
 62
     7
370
    25
100
AcDbCircle
 10
675.0194212574
 20
-122.8344480747
 30
0.0
 40
19.87230769230769
100
AcDbArc
 50
313.0766321537
 51
0.0
  0
LINE
  5
FB
330
1F
100
AcDbEntity
  8
0
  6
Continuous
 62
     7
370
    25
100
AcDbLine
 10
654.8917289497
 20
-120.8344480747
 30
0.0
 11
654.8917289497
 21
-122.8344480747
 31
0.0
  0
LINE
  5
FC
330
1F
100
AcDbEntity
  8
0
  6
Continuous
 62
     7
370
    25
100
AcDbLine
 10
694.8917289497
 20
-122.8344480747
 30
0.0
 11
694.8917289497
 21
-120.8344480747
 31
0.0
  0
ARC
  5
FD
330
1F
100
AcDbEntity
  8
0
  6
Continuous
 62
     7
370
    25
100
AcDbCircle
 10
617.0394212248
 20
-122.8344480747
 30
0.0
 40
19.87230769230769
100
AcDbArc
 50
313.0766321537
 51
0.0
  0
LINE
  5
FE
330
1F
100
AcDbEntity
  8
0
  6
Continuous
 62
     7
370
    25
100
AcDbLine
 10
636.9117289171
 20
-122.8344480747
 30
0.0
 11
636.9117289171
 21
-120.8344480747
 31
0.0
  0
ARC
  5
FF
330
1F
100
AcDbEntity
  8
0
  6
Continuous
 62
     7
370
    25
100
AcDbCircle
 10
617.0394212248
 20
431.1655519253
 30
0.0
 40
19.87230769230769
100
AcDbArc
 50
0.0
 51
46.9233678463
  0
LINE
  5
100
330
1F
100
AcDbEntity
  8
0
  6
Continuous
 62
     7
370
    25
100
AcDbLine
 10
636.9117289171
 20
429.1655519253
 30
0.0
 11
636.9117289171
 21
431.1655519253
 31
0.0
  0
ARC
  5
101
330
1F
100
AcDbEntity
  8
0
  6
Continuous
 62
     7
370
    25
100
AcDbCircle
 10
593.737449307
 20
431.1655519253
 30
0.0
 40
19.87230769230769
100
AcDbArc
 50
0.0
 51
46.8577800371
  0
ARC
  5
102
330
1F
100
AcDbEntity
  8
0
  6
Continuous
 62
     7
370
    25
100
AcDbCircle
 10
593.4820646916
 20
431.1655519253
 30
0.0
 40
19.8723076923078
100
AcDbArc
 50
133.0766321537
 51
180.0
  0
LINE
  5
103
330
1F
100
AcDbEntity
  8
0
  6
Continuous
 62
     7
370
    25
100
AcDbLine
 10
613.6097569993
 20
429.1655519253
 30
0.0
 11
613.6097569993
 21
431.1655519253
 31
0.0
  0
LINE
  5
104
330
1F
100
AcDbEntity
  8
0
  6
Continuous
 62
     7
370
    25
100
AcDbLine
 10
573.6097569993
 20
431.1655519253
 30
0.0
 11
573.6097569993
 21
429.1655519253
 31
0.0
  0
ARC
  5
105
330
1F
100
AcDbEntity
  8
0
  6
Continuous
 62
     7
370
    25
100
AcDbCircle
 10
-760.4092318768
 20
431.2959432437
 30
0.0
 40
0.6000000000000569
100
AcDbArc
 50
0.0
 51
63.6246146768
  0
ARC
  5
106
330
1F
100
AcDbEntity
  8
0
  6
Continuous
 62
     7
370
    25
100
AcDbCircle
 10
-786.6092318768
 20
431.2959432437
 30
0.0
 40
0.6000000000000064
100
AcDbArc
 50
116.3753853231
 51
180.0
  0
LINE
  5
107
330
1F
100
AcDbEntity
  8
0
  6
Continuous
 62
     7
370
    25
100
AcDbLine
 10
-759.8092318768
 20
430.6810979682
 30
0.0
 11
-759.8092318768
 21
431.2959432437
 31
0.0
  0
LINE
  5
108
330
1F
100
AcDbEntity
  8
0
  6
Continuous
 62
     7
370
    25
100
AcDbLine
 10
-787.2092318768
 20
431.2959432437
 30
0.0
 11
-787.2092318768
 21
430.6810979682
 31
0.0
  0
ARC
  5
109
330
1F
100
AcDbEntity
  8
0
  6
Continuous
 62
     7
370
    25
100
AcDbCircle
 10
-773.5092318768
 20
404.8776731374
 30
0.0
 40
30.08787878787883
100
AcDbArc
 50
63.6246146768
 51
116.3753853232
  0
LINE
  5
10A
330
1F
100
AcDbEntity
  8
0
  6
Continuous
 62
     7
370
    25
100
AcDbLine
 10
607.3097569993
 20
445.6810979682
 30
0.0
 11
607.3097569993
 21
446.2959432437
 31
0.0
  0
LINE
  5
10B
330
1F
100
AcDbEntity
  8
0
  6
Continuous
 62
     7
370
    25
100
AcDbLine
 10
579.9097569993
 20
446.2959432437
 30
0.0
 11
579.9097569993
 21
445.6810979682
 31
0.0
  0
ARC
  5
10C
330
1F
100
AcDbEntity
  8
0
  6
Continuous
 62
     7
370
    25
100
AcDbCircle
 10
606.7097569993
 20
446.2959432437
 30
0.0
 40
0.6000000000000227
100
AcDbArc
 50
0.0
 51
63.6246146768
  0
ARC
  5
10D
330
1F
100
AcDbEntity
  8
0
  6
Continuous
 62
     7
370
    25
100
AcDbCircle
 10
580.5097569993
 20
446.2959432437
 30
0.0
 40
0.6000000000000227
100
AcDbArc
 50
116.3753853232
 51
180.0
  0
ARC
  5
10E
330
1F
100
AcDbEntity
  8
0
  6
Continuous
 62
     7
370
    25
100
AcDbCircle
 10
593.6097569993
 20
419.8776731374
 30
0.0
 40
30.08787878787878
100
AcDbArc
 50
63.6246146768
 51
116.3753853232
  0
ARC
  5
10F
330
1F
100
AcDbEntity
  8
0
  6
Continuous
 62
     7
370
    25
100
AcDbCircle
 10
630.0117289171
 20
-137.9648393931
 30
0.0
 40
0.6000000000000227
100
AcDbArc
 50
296.3753853232
 51
360.0
  0
LINE
  5
110
330
1F
100
AcDbEntity
  8
0
  6
Continuous
 62
     7
370
    25
100
AcDbLine
 10
630.6117289171
 20
-137.9648393931
 30
0.0
 11
630.6117289171
 21
-137.3499941176
 31
0.0
  0
ARC
  5
111
330
1F
100
AcDbEntity
  8
0
  6
Continuous
 62
     7
370
    25
100
AcDbCircle
 10
616.9117289171
 20
-111.5465692868
 30
0.0
 40
30.08787878787879
100
AcDbArc
 50
247.2176316399
 51
296.3753853232
  0
ARC
  5
112
330
1F
100
AcDbEntity
  8
0
  6
Continuous
 62
     7
370
    25
100
AcDbCircle
 10
-786.6092318768
 20
-122.9648393931
 30
0.0
 40
0.5999999999999428
100
AcDbArc
 50
180.0
 51
243.6246146768
  0
ARC
  5
113
330
1F
100
AcDbEntity
  8
0
  6
Continuous
 62
     7
370
    25
100
AcDbCircle
 10
-760.4092318768
 20
-122.9648393931
 30
0.0
 40
0.5999999999999933
100
AcDbArc
 50
296.3753853232
 51
360.0
  0
LINE
  5
114
330
1F
100
AcDbEntity
  8
0
  6
Continuous
 62
     7
370
    25
100
AcDbLine
 10
-787.2092318768
 20
-122.3499941176
 30
0.0
 11
-787.2092318768
 21
-122.9648393931
 31
0.0
  0
LINE
  5
115
330
1F
100
AcDbEntity
  8
0
  6
Continuous
 62
     7
370
    25
100
AcDbLine
 10
-759.8092318768
 20
-122.9648393931
 30
0.0
 11
-759.8092318768
 21
-122.3499941176
 31
0.0
  0
ARC
  5
116
330
1F
100
AcDbEntity
  8
0
  6
Continuous
 62
     7
370
    25
100
AcDbCircle
 10
-773.5092318768
 20
-96.5465692868
 30
0.0
 40
30.08787878787885
100
AcDbArc
 50
243.6246146768
 51
296.3753853232
  0
ARC
  5
117
330
1F
100
AcDbEntity
  8
0
  6
Continuous
 62
     7
370
    25
100
AcDbCircle
 10
-1136.7419348843
 20
-122.9648393931
 30
0.0
 40
0.5999999999999428
100
AcDbArc
 50
180.0
 51
243.6246146768
  0
ARC
  5
118
330
1F
100
AcDbEntity
  8
0
  6
Continuous
 62
     7
370
    25
100
AcDbCircle
 10
-1110.5419348843
 20
-122.9648393931
 30
0.0
 40
0.5999999999999428
100
AcDbArc
 50
296.3753853232
 51
360.0
  0
LINE
  5
119
330
1F
100
AcDbEntity
  8
0
  6
Continuous
 62
     7
370
    25
100
AcDbLine
 10
-1137.3419348843
 20
-122.3499941176
 30
0.0
 11
-1137.3419348843
 21
-122.9648393931
 31
0.0
  0
LINE
  5
11A
330
1F
100
AcDbEntity
  8
0
  6
Continuous
 62
     7
370
    25
100
AcDbLine
 10
-1109.9419348843
 20
-122.9648393931
 30
0.0
 11
-1109.9419348843
 21
-122.3499941176
 31
0.0
  0
ARC
  5
11B
330
1F
100
AcDbEntity
  8
0
  6
Continuous
 62
     7
370
    25
100
AcDbCircle
 10
-1123.6419348843
 20
-96.5465692868
 30
0.0
 40
30.0878787878788
100
AcDbArc
 50
243.6246146768
 51
296.3753853232
  0
LINE
  5
11C
330
1F
100
AcDbEntity
  8
0
  6
Continuous
 62
     7
370
    25
100
AcDbLine
 10
966.8089004949
 20
-137.3499941176
 30
0.0
 11
966.8089004949
 21
-137.9648393931
 31
0.0
  0
LINE
  5
11D
330
1F
100
AcDbEntity
  8
0
  6
Continuous
 62
     7
370
    25
100
AcDbLine
 10
994.2089004949
 20
-137.9648393931
 30
0.0
 11
994.2089004949
 21
-137.3499941176
 31
0.0
  0
ARC
  5
11E
330
1F
100
AcDbEntity
  8
0
  6
Continuous
 62
     7
370
    25
100
AcDbCircle
 10
967.4089004949
 20
-137.9648393931
 30
0.0
 40
0.6000000000000565
100
AcDbArc
 50
180.0
 51
243.6246146768
  0
ARC
  5
11F
330
1F
100
AcDbEntity
  8
0
  6
Continuous
 62
     7
370
    25
100
AcDbCircle
 10
993.6089004949
 20
-137.9648393931
 30
0.0
 40
0.6000000000001364
100
AcDbArc
 50
296.3753853232
 51
360.0
  0
ARC
  5
120
330
1F
100
AcDbEntity
  8
0
  6
Continuous
 62
     7
370
    25
100
AcDbCircle
 10
980.5089004949
 20
-111.5465692868
 30
0.0
 40
30.08787878787885
100
AcDbArc
 50
243.6246146768
 51
296.3753853232
  0
LINE
  5
121
330
1F
100
AcDbEntity
  8
0
  6
Continuous
 62
     7
370
    25
100
AcDbLine
 10
-460.1797858163
 20
430.6810979682
 30
0.0
 11
-460.1797858163
 21
431.2959432437
 31
0.0
  0
LINE
  5
122
330
1F
100
AcDbEntity
  8
0
  6
Continuous
 62
     7
370
    25
100
AcDbLine
 10
-487.5797858163
 20
431.2959432437
 30
0.0
 11
-487.5797858163
 21
430.6810979682
 31
0.0
  0
ARC
  5
123
330
1F
100
AcDbEntity
  8
0
  6
Continuous
 62
     7
370
    25
100
AcDbCircle
 10
-460.7797858163
 20
431.2959432437
 30
0.0
 40
0.6000000000000317
100
AcDbArc
 50
0.0
 51
63.6246146768
  0
ARC
  5
124
330
1F
100
AcDbEntity
  8
0
  6
Continuous
 62
     7
370
    25
100
AcDbCircle
 10
-486.9797858163
 20
431.2959432437
 30
0.0
 40
0.6000000000000569
100
AcDbArc
 50
116.3753853232
 51
180.0
  0
ARC
  5
125
330
1F
100
AcDbEntity
  8
0
  6
Continuous
 62
     7
370
    25
100
AcDbCircle
 10
-473.8797858163
 20
404.8776731374
 30
0.0
 40
30.08787878787881
100
AcDbArc
 50
63.6246146768
 51
116.3753853232
  0
ARC
  5
126
330
1F
100
AcDbEntity
  8
0
  6
Continuous
 62
     7
370
    25
100
AcDbCircle
 10
1357.2057607974
 20
431.2959432437
 30
0.0
 40
0.6000000000000064
100
AcDbArc
 50
0.0
 51
63.6246146769
  0
ARC
  5
127
330
1F
100
AcDbEntity
  8
0
  6
Continuous
 62
     7
370
    25
100
AcDbCircle
 10
1331.0057607974
 20
431.2959432437
 30
0.0
 40
0.6000000000003638
100
AcDbArc
 50
116.3753853232
 51
180.0
  0
LINE
  5
128
330
1F
100
AcDbEntity
  8
0
  6
Continuous
 62
     7
370
    25
100
AcDbLine
 10
1357.8057607974
 20
430.6810979682
 30
0.0
 11
1357.8057607974
 21
431.2959432437
 31
0.0
  0
LINE
  5
129
330
1F
100
AcDbEntity
  8
0
  6
Continuous
 62
     7
370
    25
100
AcDbLine
 10
1330.4057607974
 20
431.2959432437
 30
0.0
 11
1330.4057607974
 21
430.6810979682
 31
0.0
  0
LWPOLYLINE
  5
12A
330
1F
100
AcDbEntity
  8
0
  6
Continuous
 62
     7
370
    25
100
AcDbPolyline
 90
        3
 70
   128
 43
0.0
 10
1357.4723109978
 20
431.8334848613
 10
1354.6497367514
 20
433.0575422116
 10
1354.6299623854
 20
433.0649332187
  0
ARC
  5
12B
330
1F
100
AcDbEntity
  8
0
  6
Continuous
 62
     7
370
    25
100
AcDbCircle
 10
1344.1057607974
 20
404.8776731374
 30
0.0
 40
30.08787878787889
100
AcDbArc
 50
92.8114631547
 51
116.3753853232
  0
ARC
  5
12C
330
1F
100
AcDbEntity
  8
0
  6
Continuous
 62
     7
370
    25
100
AcDbCircle
 10
993.6089004949
 20
446.2959432437
 30
0.0
 40
0.6000000000001364
100
AcDbArc
 50
0.0
 51
63.6246146768
  0
ARC
  5
12D
330
1F
100
AcDbEntity
  8
0
  6
Continuous
 62
     7
370
    25
100
AcDbCircle
 10
967.4089004949
 20
446.2959432437
 30
0.0
 40
0.6000000000000565
100
AcDbArc
 50
116.3753853232
 51
180.0
  0
LINE
  5
12E
330
1F
100
AcDbEntity
  8
0
  6
Continuous
 62
     7
370
    25
100
AcDbLine
 10
994.2089004949
 20
445.6810979682
 30
0.0
 11
994.2089004949
 21
446.2959432437
 31
0.0
  0
LINE
  5
12F
330
1F
100
AcDbEntity
  8
0
  6
Continuous
 62
     7
370
    25
100
AcDbLine
 10
966.8089004949
 20
446.2959432437
 30
0.0
 11
966.8089004949
 21
445.6810979682
 31
0.0
  0
ARC
  5
130
330
1F
100
AcDbEntity
  8
0
  6
Continuous
 62
     7
370
    25
100
AcDbCircle
 10
980.5089004949
 20
419.8776731374
 30
0.0
 40
30.08787878787883
100
AcDbArc
 50
63.6246146768
 51
116.3753853232
  0
ARC
  5
131
330
1F
100
AcDbEntity
  8
0
  6
Continuous
 62
     7
370
    25
100
AcDbCircle
 10
838.3687320811
 20
446.2959432437
 30
0.0
 40
0.6000000000001364
100
AcDbArc
 50
0.0
 51
63.6246146768
  0
ARC
  5
132
330
1F
100
AcDbEntity
  8
0
  6
Continuous
 62
     7
370
    25
100
AcDbCircle
 10
812.1687320811
 20
446.2959432437
 30
0.0
 40
0.6000000000000227
100
AcDbArc
 50
116.3753853232
 51
180.0
  0
LINE
  5
133
330
1F
100
AcDbEntity
  8
0
  6
Continuous
 62
     7
370
    25
100
AcDbLine
 10
838.9687320811
 20
445.6810979682
 30
0.0
 11
838.9687320811
 21
446.2959432437
 31
0.0
  0
LINE
  5
134
330
1F
100
AcDbEntity
  8
0
  6
Continuous
 62
     7
370
    25
100
AcDbLine
 10
811.5687320811
 20
446.2959432437
 30
0.0
 11
811.5687320811
 21
445.6810979682
 31
0.0
  0
ARC
  5
135
330
1F
100
AcDbEntity
  8
0
  6
Continuous
 62
     7
370
    25
100
AcDbCircle
 10
825.2687320811
 20
419.8776731374
 30
0.0
 40
30.08787878787878
100
AcDbArc
 50
63.6246146768
 51
116.3753853232
  0
LINE
  5
136
330
1F
100
AcDbEntity
  8
0
  6
Continuous
 62
     7
370
    25
100
AcDbLine
 10
661.1917289497
 20
-137.3499941176
 30
0.0
 11
661.1917289497
 21
-137.9648393931
 31
0.0
  0
LINE
  5
137
330
1F
100
AcDbEntity
  8
0
  6
Continuous
 62
     7
370
    25
100
AcDbLine
 10
688.5917289497
 20
-137.9648393931
 30
0.0
 11
688.5917289497
 21
-137.3499941176
 31
0.0
  0
ARC
  5
138
330
1F
100
AcDbEntity
  8
0
  6
Continuous
 62
     7
370
    25
100
AcDbCircle
 10
661.7917289497
 20
-137.9648393931
 30
0.0
 40
0.6000000000000227
100
AcDbArc
 50
180.0
 51
243.6246146768
  0
ARC
  5
139
330
1F
100
AcDbEntity
  8
0
  6
Continuous
 62
     7
370
    25
100
AcDbCircle
 10
687.9917289497
 20
-137.9648393931
 30
0.0
 40
0.6000000000000565
100
AcDbArc
 50
296.3753853232
 51
360.0
  0
ARC
  5
13A
330
1F
100
AcDbEntity
  8
0
  6
Continuous
 62
     7
370
    25
100
AcDbCircle
 10
674.8917289497
 20
-111.5465692868
 30
0.0
 40
30.0878787878788
100
AcDbArc
 50
243.6246146768
 51
296.3753853232
  0
LINE
  5
13B
330
1F
100
AcDbEntity
  8
0
  6
Continuous
 62
     7
370
    25
100
AcDbLine
 10
688.5917289497
 20
445.6810979682
 30
0.0
 11
688.5917289497
 21
446.2959432437
 31
0.0
  0
LINE
  5
13C
330
1F
100
AcDbEntity
  8
0
  6
Continuous
 62
     7
370
    25
100
AcDbLine
 10
661.1917289497
 20
446.2959432437
 30
0.0
 11
661.1917289497
 21
445.6810979682
 31
0.0
  0
ARC
  5
13D
330
1F
100
AcDbEntity
  8
0
  6
Continuous
 62
     7
370
    25
100
AcDbCircle
 10
687.9917289497
 20
446.2959432437
 30
0.0
 40
0.6000000000000227
100
AcDbArc
 50
0.0
 51
63.6246146768
  0
ARC
  5
13E
330
1F
100
AcDbEntity
  8
0
  6
Continuous
 62
     7
370
    25
100
AcDbCircle
 10
661.7917289497
 20
446.2959432437
 30
0.0
 40
0.6000000000000227
100
AcDbArc
 50
116.3753853232
 51
180.0
  0
ARC
  5
13F
330
1F
100
AcDbEntity
  8
0
  6
Continuous
 62
     7
370
    25
100
AcDbCircle
 10
674.8917289497
 20
419.8776731374
 30
0.0
 40
30.08787878787878
100
AcDbArc
 50
63.6246146768
 51
116.3753853232
  0
LINE
  5
140
330
1F
100
AcDbEntity
  8
0
  6
Continuous
 62
     7
370
    25
100
AcDbLine
 10
579.9097569993
 20
-137.3499941176
 30
0.0
 11
579.9097569993
 21
-137.9648393931
 31
0.0
  0
LINE
  5
141
330
1F
100
AcDbEntity
  8
0
  6
Continuous
 62
     7
370
    25
100
AcDbLine
 10
607.3097569993
 20
-137.9648393931
 30
0.0
 11
607.3097569993
 21
-137.3499941176
 31
0.0
  0
ARC
  5
142
330
1F
100
AcDbEntity
  8
0
  6
Continuous
 62
     7
370
    25
100
AcDbCircle
 10
580.5097569993
 20
-137.9648393931
 30
0.0
 40
0.6000000000000227
100
AcDbArc
 50
180.0
 51
243.6246146768
  0
ARC
  5
143
330
1F
100
AcDbEntity
  8
0
  6
Continuous
 62
     7
370
    25
100
AcDbCircle
 10
606.7097569993
 20
-137.9648393931
 30
0.0
 40
0.6000000000000565
100
AcDbArc
 50
296.3753853232
 51
360.0
  0
ARC
  5
144
330
1F
100
AcDbEntity
  8
0
  6
Continuous
 62
     7
370
    25
100
AcDbCircle
 10
593.6097569993
 20
-111.5465692868
 30
0.0
 40
30.0878787878788
100
AcDbArc
 50
243.6246146768
 51
296.3753853232
  0
LINE
  5
145
330
1F
100
AcDbEntity
  8
0
  6
Continuous
 62
     7
370
    25
100
AcDbLine
 10
-1109.9419348843
 20
430.6810979682
 30
0.0
 11
-1109.9419348843
 21
431.2959432437
 31
0.0
  0
LINE
  5
146
330
1F
100
AcDbEntity
  8
0
  6
Continuous
 62
     7
370
    25
100
AcDbLine
 10
-1137.3419348843
 20
431.2959432437
 30
0.0
 11
-1137.3419348843
 21
430.6810979682
 31
0.0
  0
ARC
  5
147
330
1F
100
AcDbEntity
  8
0
  6
Continuous
 62
     7
370
    25
100
AcDbCircle
 10
-1110.5419348843
 20
431.2959432437
 30
0.0
 40
0.6000000000000064
100
AcDbArc
 50
0.0
 51
63.6246146769
  0
ARC
  5
148
330
1F
100
AcDbEntity
  8
0
  6
Continuous
 62
     7
370
    25
100
AcDbCircle
 10
-1136.7419348843
 20
431.2959432437
 30
0.0
 40
0.6000000000000064
100
AcDbArc
 50
116.3753853231
 51
180.0
  0
ARC
  5
149
330
1F
100
AcDbEntity
  8
0
  6
Continuous
 62
     7
370
    25
100
AcDbCircle
 10
-1123.6419348843
 20
404.8776731374
 30
0.0
 40
30.08787878787878
100
AcDbArc
 50
63.6246146768
 51
116.3753853232
  0
ARC
  5
14A
330
1F
100
AcDbEntity
  8
0
  6
Continuous
 62
     7
370
    25
100
AcDbCircle
 10
240.2145573393
 20
-122.9648393931
 30
0.0
 40
0.6000000000001364
100
AcDbArc
 50
180.0
 51
243.6246146768
  0
ARC
  5
14B
330
1F
100
AcDbEntity
  8
0
  6
Continuous
 62
     7
370
    25
100
AcDbCircle
 10
266.4145573393
 20
-122.9648393931
 30
0.0
 40
0.6000000000001364
100
AcDbArc
 50
296.3753853232
 51
360.0
  0
LINE
  5
14C
330
1F
100
AcDbEntity
  8
0
  6
Continuous
 62
     7
370
    25
100
AcDbLine
 10
239.6145573393
 20
-122.3499941176
 30
0.0
 11
239.6145573393
 21
-122.9648393931
 31
0.0
  0
LINE
  5
14D
330
1F
100
AcDbEntity
  8
0
  6
Continuous
 62
     7
370
    25
100
AcDbLine
 10
267.0145573393
 20
-122.9648393931
 30
0.0
 11
267.0145573393
 21
-122.3499941176
 31
0.0
  0
ARC
  5
14E
330
1F
100
AcDbEntity
  8
0
  6
Continuous
 62
     7
370
    25
100
AcDbCircle
 10
253.3145573393
 20
-96.5465692868
 30
0.0
 40
30.08787878787882
100
AcDbArc
 50
243.6246146768
 51
296.3753853232
  0
LINE
  5
14F
330
1F
100
AcDbEntity
  8
0
  6
Continuous
 62
     7
370
    25
100
AcDbLine
 10
-487.5797858163
 20
-122.3499941176
 30
0.0
 11
-487.5797858163
 21
-122.9648393931
 31
0.0
  0
LINE
  5
150
330
1F
100
AcDbEntity
  8
0
  6
Continuous
 62
     7
370
    25
100
AcDbLine
 10
-460.1797858163
 20
-122.9648393931
 30
0.0
 11
-460.1797858163
 21
-122.3499941176
 31
0.0
  0
ARC
  5
151
330
1F
100
AcDbEntity
  8
0
  6
Continuous
 62
     7
370
    25
100
AcDbCircle
 10
-486.9797858163
 20
-122.9648393931
 30
0.0
 40
0.5999999999999933
100
AcDbArc
 50
180.0
 51
243.6246146768
  0
ARC
  5
152
330
1F
100
AcDbEntity
  8
0
  6
Continuous
 62
     7
370
    25
100
AcDbCircle
 10
-460.7797858163
 20
-122.9648393931
 30
0.0
 40
0.5999999999999681
100
AcDbArc
 50
296.3753853232
 51
360.0
  0
ARC
  5
153
330
1F
100
AcDbEntity
  8
0
  6
Continuous
 62
     7
370
    25
100
AcDbCircle
 10
-473.8797858163
 20
-96.5465692868
 30
0.0
 40
30.08787878787882
100
AcDbArc
 50
243.6246146768
 51
296.3753853232
  0
ARC
  5
154
330
1F
100
AcDbEntity
  8
0
  6
Continuous
 62
     7
370
    25
100
AcDbCircle
 10
1331.0057607974
 20
-122.9648393931
 30
0.0
 40
0.6000000000003638
100
AcDbArc
 50
180.0
 51
243.6246146768
  0
ARC
  5
155
330
1F
100
AcDbEntity
  8
0
  6
Continuous
 62
     7
370
    25
100
AcDbCircle
 10
1357.2057607974
 20
-122.9648393931
 30
0.0
 40
0.5999999999999428
100
AcDbArc
 50
296.3753853232
 51
360.0
  0
LINE
  5
156
330
1F
100
AcDbEntity
  8
0
  6
Continuous
 62
     7
370
    25
100
AcDbLine
 10
1330.4057607974
 20
-122.3499941176
 30
0.0
 11
1330.4057607974
 21
-122.9648393931
 31
0.0
  0
LINE
  5
157
330
1F
100
AcDbEntity
  8
0
  6
Continuous
 62
     7
370
    25
100
AcDbLine
 10
1357.8057607974
 20
-122.9648393931
 30
0.0
 11
1357.8057607974
 21
-122.3499941176
 31
0.0
  0
ARC
  5
158
330
1F
100
AcDbEntity
  8
0
  6
Continuous
 62
     7
370
    25
100
AcDbCircle
 10
1344.1057607974
 20
-96.5465692868
 30
0.0
 40
30.0878787878789
100
AcDbArc
 50
243.6246146768
 51
267.1885368453
  0
LWPOLYLINE
  5
159
330
1F
100
AcDbEntity
  8
0
  6
Continuous
 62
     7
370
    25
100
AcDbPolyline
 90
        3
 70
   128
 43
0.0
 10
1354.6299623854
 20
-124.7338293681
 10
1354.6497367514
 20
-124.7264383609
 10
1357.4723109978
 20
-123.5023810107
  0
LINE
  5
15A
330
1F
100
AcDbEntity
  8
0
  6
Continuous
 62
     7
370
    25
100
AcDbLine
 10
-96.5826142385
 20
430.6810979682
 30
0.0
 11
-96.5826142385
 21
431.2959432437
 31
0.0
  0
LINE
  5
15B
330
1F
100
AcDbEntity
  8
0
  6
Continuous
 62
     7
370
    25
100
AcDbLine
 10
-123.9826142385
 20
431.2959432437
 30
0.0
 11
-123.9826142385
 21
430.6810979682
 31
0.0
  0
ARC
  5
15C
330
1F
100
AcDbEntity
  8
0
  6
Continuous
 62
     7
370
    25
100
AcDbCircle
 10
-97.1826142385
 20
431.2959432437
 30
0.0
 40
0.6000000000000381
100
AcDbArc
 50
0.0
 51
63.6246146768
  0
ARC
  5
15D
330
1F
100
AcDbEntity
  8
0
  6
Continuous
 62
     7
370
    25
100
AcDbCircle
 10
-123.3826142385
 20
431.2959432437
 30
0.0
 40
0.6000000000000381
100
AcDbArc
 50
116.3753853232
 51
180.0
  0
ARC
  5
15E
330
1F
100
AcDbEntity
  8
0
  6
Continuous
 62
     7
370
    25
100
AcDbCircle
 10
-110.2826142385
 20
404.8776731374
 30
0.0
 40
30.08787878787881
100
AcDbArc
 50
63.6246146768
 51
116.3753853232
  0
LINE
  5
15F
330
1F
100
AcDbEntity
  8
0
  6
Continuous
 62
     7
370
    25
100
AcDbLine
 10
-1234.1010672817
 20
-122.3499941176
 30
0.0
 11
-1234.1010672817
 21
-122.9648393931
 31
0.0
  0
LINE
  5
160
330
1F
100
AcDbEntity
  8
0
  6
Continuous
 62
     7
370
    25
100
AcDbLine
 10
-1206.7010672817
 20
-122.9648393931
 30
0.0
 11
-1206.7010672817
 21
-122.3499941176
 31
0.0
  0
ARC
  5
161
330
1F
100
AcDbEntity
  8
0
  6
Continuous
 62
     7
370
    25
100
AcDbCircle
 10
-1233.5010672817
 20
-122.9648393931
 30
0.0
 40
0.5999999999999428
100
AcDbArc
 50
180.0
 51
243.6246146768
  0
ARC
  5
162
330
1F
100
AcDbEntity
  8
0
  6
Continuous
 62
     7
370
    25
100
AcDbCircle
 10
-1207.3010672817
 20
-122.9648393931
 30
0.0
 40
0.5999999999999428
100
AcDbArc
 50
296.3753853232
 51
0.0
  0
ARC
  5
163
330
1F
100
AcDbEntity
  8
0
  6
Continuous
 62
     7
370
    25
100
AcDbCircle
 10
-1220.4010672817
 20
-96.5465692868
 30
0.0
 40
30.0878787878788
100
AcDbArc
 50
243.6246146768
 51
296.3753853232
  0
ARC
  5
164
330
1F
100
AcDbEntity
  8
0
  6
Continuous
 62
     7
370
    25
100
AcDbCircle
 10
846.3580058295
 20
-137.9648393931
 30
0.0
 40
0.6000000000000565
100
AcDbArc
 50
296.3753853232
 51
360.0
  0
LINE
  5
165
330
1F
100
AcDbEntity
  8
0
  6
Continuous
 62
     7
370
    25
100
AcDbLine
 10
846.9580058295
 20
-137.9648393931
 30
0.0
 11
846.9580058295
 21
-137.3499941176
 31
0.0
  0
ARC
  5
166
330
1F
100
AcDbEntity
  8
0
  6
Continuous
 62
     7
370
    25
100
AcDbCircle
 10
833.2580058295
 20
-111.5465692868
 30
0.0
 40
30.0878787878788
100
AcDbArc
 50
262.3705617948
 51
296.3753853232
  0
ARC
  5
167
330
1F
100
AcDbEntity
  8
0
  6
Continuous
 62
     7
370
    25
100
AcDbCircle
 10
846.3580058295
 20
446.2959432437
 30
0.0
 40
0.6000000000000227
100
AcDbArc
 50
0.0
 51
63.6246146768
  0
LINE
  5
168
330
1F
100
AcDbEntity
  8
0
  6
Continuous
 62
     7
370
    25
100
AcDbLine
 10
846.9580058295
 20
445.6810979682
 30
0.0
 11
846.9580058295
 21
446.2959432437
 31
0.0
  0
ARC
  5
169
330
1F
100
AcDbEntity
  8
0
  6
Continuous
 62
     7
370
    25
100
AcDbCircle
 10
833.2580058295
 20
419.8776731374
 30
0.0
 40
30.08787878787882
100
AcDbArc
 50
63.6246146768
 51
97.6294382052
  0
LINE
  5
16A
330
1F
100
AcDbEntity
  8
0
  6
Continuous
 62
     7
370
    25
100
AcDbLine
 10
-1206.7010672817
 20
430.6810979682
 30
0.0
 11
-1206.7010672817
 21
431.2959432437
 31
0.0
  0
LINE
  5
16B
330
1F
100
AcDbEntity
  8
0
  6
Continuous
 62
     7
370
    25
100
AcDbLine
 10
-1234.1010672817
 20
431.2959432437
 30
0.0
 11
-1234.1010672817
 21
430.6810979682
 31
0.0
  0
ARC
  5
16C
330
1F
100
AcDbEntity
  8
0
  6
Continuous
 62
     7
370
    25
100
AcDbCircle
 10
-1207.3010672817
 20
431.2959432437
 30
0.0
 40
0.599999999999909
100
AcDbArc
 50
0.0
 51
63.6246146768
  0
ARC
  5
16D
330
1F
100
AcDbEntity
  8
0
  6
Continuous
 62
     7
370
    25
100
AcDbCircle
 10
-1233.5010672817
 20
431.2959432437
 30
0.0
 40
0.599999999999909
100
AcDbArc
 50
116.3753853232
 51
180.0
  0
ARC
  5
16E
330
1F
100
AcDbEntity
  8
0
  6
Continuous
 62
     7
370
    25
100
AcDbCircle
 10
-1220.4010672817
 20
404.8776731374
 30
0.0
 40
30.08787878787878
100
AcDbArc
 50
63.6246146768
 51
116.3753853232
  0
ARC
  5
16F
330
1F
100
AcDbEntity
  8
0
  6
Continuous
 62
     7
370
    25
100
AcDbCircle
 10
266.4145573393
 20
431.2959432437
 30
0.0
 40
0.6000000000001364
100
AcDbArc
 50
0.0
 51
63.6246146768
  0
ARC
  5
170
330
1F
100
AcDbEntity
  8
0
  6
Continuous
 62
     7
370
    25
100
AcDbCircle
 10
240.2145573393
 20
431.2959432437
 30
0.0
 40
0.6000000000001364
100
AcDbArc
 50
116.3753853232
 51
180.0
  0
LINE
  5
171
330
1F
100
AcDbEntity
  8
0
  6
Continuous
 62
     7
370
    25
100
AcDbLine
 10
267.0145573393
 20
430.6810979682
 30
0.0
 11
267.0145573393
 21
431.2959432437
 31
0.0
  0
LINE
  5
172
330
1F
100
AcDbEntity
  8
0
  6
Continuous
 62
     7
370
    25
100
AcDbLine
 10
239.6145573393
 20
431.2959432437
 30
0.0
 11
239.6145573393
 21
430.6810979682
 31
0.0
  0
ARC
  5
173
330
1F
100
AcDbEntity
  8
0
  6
Continuous
 62
     7
370
    25
100
AcDbCircle
 10
253.3145573393
 20
404.8776731374
 30
0.0
 40
30.08787878787881
100
AcDbArc
 50
63.6246146768
 51
116.3753853232
  0
ARC
  5
174
330
1F
100
AcDbEntity
  8
0
  6
Continuous
 62
     7
370
    25
100
AcDbCircle
 10
812.1687320811
 20
-137.9648393931
 30
0.0
 40
0.6000000000000565
100
AcDbArc
 50
180.0
 51
243.6246146768
  0
ARC
  5
175
330
1F
100
AcDbEntity
  8
0
  6
Continuous
 62
     7
370
    25
100
AcDbCircle
 10
838.3687320811
 20
-137.9648393931
 30
0.0
 40
0.6000000000001364
100
AcDbArc
 50
296.3753853232
 51
360.0
  0
LINE
  5
176
330
1F
100
AcDbEntity
  8
0
  6
Continuous
 62
     7
370
    25
100
AcDbLine
 10
811.5687320811
 20
-137.3499941176
 30
0.0
 11
811.5687320811
 21
-137.9648393931
 31
0.0
  0
LINE
  5
177
330
1F
100
AcDbEntity
  8
0
  6
Continuous
 62
     7
370
    25
100
AcDbLine
 10
838.9687320811
 20
-137.9648393931
 30
0.0
 11
838.9687320811
 21
-137.3499941176
 31
0.0
  0
ARC
  5
178
330
1F
100
AcDbEntity
  8
0
  6
Continuous
 62
     7
370
    25
100
AcDbCircle
 10
825.2687320811
 20
-111.5465692868
 30
0.0
 40
30.0878787878788
100
AcDbArc
 50
243.6246146768
 51
296.3753853232
  0
ARC
  5
179
330
1F
100
AcDbEntity
  8
0
  6
Continuous
 62
     7
370
    25
100
AcDbCircle
 10
-123.3826142385
 20
-122.9648393931
 30
0.0
 40
0.5999999999999743
100
AcDbArc
 50
180.0
 51
243.6246146768
  0
ARC
  5
17A
330
1F
100
AcDbEntity
  8
0
  6
Continuous
 62
     7
370
    25
100
AcDbCircle
 10
-97.1826142385
 20
-122.9648393931
 30
0.0
 40
0.5999999999999743
100
AcDbArc
 50
296.3753853232
 51
360.0
  0
LINE
  5
17B
330
1F
100
AcDbEntity
  8
0
  6
Continuous
 62
     7
370
    25
100
AcDbLine
 10
-123.9826142385
 20
-122.3499941176
 30
0.0
 11
-123.9826142385
 21
-122.9648393931
 31
0.0
  0
LINE
  5
17C
330
1F
100
AcDbEntity
  8
0
  6
Continuous
 62
     7
370
    25
100
AcDbLine
 10
-96.5826142385
 20
-122.9648393931
 30
0.0
 11
-96.5826142385
 21
-122.3499941176
 31
0.0
  0
ARC
  5
17D
330
1F
100
AcDbEntity
  8
0
  6
Continuous
 62
     7
370
    25
100
AcDbCircle
 10
-110.2826142385
 20
-96.5465692868
 30
0.0
 40
30.08787878787882
100
AcDbArc
 50
243.6246146768
 51
296.3753853232
  0
LINE
  5
17E
330
1F
100
AcDbEntity
  8
0
  6
Continuous
 62
     7
370
    25
100
AcDbLine
 10
630.6117289171
 20
445.6810979682
 30
0.0
 11
630.6117289171
 21
446.2959432437
 31
0.0
  0
ARC
  5
17F
330
1F
100
AcDbEntity
  8
0
  6
Continuous
 62
     7
370
    25
100
AcDbCircle
 10
630.0117289171
 20
446.2959432437
 30
0.0
 40
0.6000000000000227
100
AcDbArc
 50
0.0
 51
63.6246146768
  0
ARC
  5
180
330
1F
100
AcDbEntity
  8
0
  6
Continuous
 62
     7
370
    25
100
AcDbCircle
 10
616.9117289171
 20
419.8776731374
 30
0.0
 40
30.08787878787878
100
AcDbArc
 50
63.6246146768
 51
112.7823683601
  0
LINE
  5
181
330
1F
100
AcDbEntity
  8
0
  6
Continuous
 62
     7
370
    25
100
AcDbLine
 10
-1269.528294108
 20
-93.8344480747
 30
0.0
 11
-1269.528294108
 21
-102.8344480747
 31
0.0
  0
ARC
  5
182
330
1F
100
AcDbEntity
  8
0
  6
Continuous
 62
     7
370
    25
100
AcDbCircle
 10
-1266.528294108
 20
-93.8344480747
 30
0.0
 40
3.000000000000227
100
AcDbArc
 50
90.0
 51
180.0
  0
ARC
  5
183
330
1F
100
AcDbEntity
  8
0
  6
Continuous
 62
     7
370
    25
100
AcDbCircle
 10
-1266.528294108
 20
-102.8344480747
 30
0.0
 40
3.000000000000227
100
AcDbArc
 50
180.0
 51
270.0
  0
LWPOLYLINE
  5
184
330
1F
100
AcDbEntity
  8
0
  6
Continuous
 62
     7
370
    25
100
AcDbPolyline
 90
       10
 70
   128
 43
0.0
 10
1415.5167782168
 20
-140.3983837148
 10
1416.0128159053
 20
-140.0091530175
 10
1416.3375253427
 20
-139.5941459443
 10
1416.6292746684
 20
-138.8408609731
 10
1416.6901748226
 20
-138.1895188891
 10
1416.6971745941
 20
-137.5243323024
 10
1416.6093679381
 20
-136.2449717182
 10
1416.2783054401
 20
-135.3339086901
 10
1415.8974209469
 20
-134.8316623536
 10
1415.307427292
 20
-134.4021609737
  0
LWPOLYLINE
  5
185
330
1F
100
AcDbEntity
  8
0
  6
Continuous
 62
     7
370
    25
100
AcDbPolyline
 90
       10
 70
   128
 43
0.0
 10
1415.307427292
 20
442.7332648244
 10
1415.8292660221
 20
443.0866984403
 10
1416.1816911329
 20
443.4747031404
 10
1416.5232554313
 20
444.1701143232
 10
1416.6259026596
 20
444.7216165651
 10
1416.6778620918
 20
445.3093970866
 10
1416.6856977925
 20
446.6278726528
 10
1416.4246704311
 20
447.651937342
 10
1416.0799320748
 20
448.2328957324
 10
1415.5167782168
 20
448.7294875654
  0
ARC
  5
186
330
1F
100
AcDbEntity
  8
0
  6
Continuous
 62
     7
370
    25
100
AcDbCircle
 10
1381.5391602459
 20
483.1655519253
 30
0.0
 40
1.0
100
AcDbArc
 50
2.0
 51
90.0
  0
ARC
  5
187
330
1F
100
AcDbEntity
  8
0
  6
Continuous
 62
     7
370
    25
100
AcDbCircle
 10
1417.720764525
 20
483.1655519253
 30
0.0
 40
1.0
100
AcDbArc
 50
90.0
 51
178.0
  0
LINE
  5
188
330
1F
100
AcDbEntity
  8
0
  6
Continuous
 62
     7
370
    25
100
AcDbLine
 10
1382.5385510729
 20
483.200451422
 30
0.0
 11
1384.287026982
 21
433.1306524286
 31
0.0
  0
LINE
  5
189
330
1F
100
AcDbEntity
  8
0
  6
Continuous
 62
     7
370
    25
100
AcDbLine
 10
1415.5175959347
 20
448.7287664978
 30
0.0
 11
1416.7213736979
 21
483.200451422
 31
0.0
  0
LINE
  5
18A
330
1F
100
AcDbEntity
  8
0
  6
Continuous
 62
     7
370
    25
100
AcDbLine
 10
1414.9728977888
 20
433.1306524286
 30
0.0
 11
1415.3082478091
 21
442.7338205484
 31
0.0
  0
ARC
  5
18B
330
1F
100
AcDbEntity
  8
0
  6
Continuous
 62
     7
370
    25
100
AcDbCircle
 10
1413.9735069618
 20
433.1655519253
 30
0.0
 40
1.0
100
AcDbArc
 50
270.0
 51
358.0
  0
ARC
  5
18C
330
1F
100
AcDbEntity
  8
0
  6
Continuous
 62
     7
370
    25
100
AcDbCircle
 10
1385.2864178091
 20
433.1655519253
 30
0.0
 40
1.0
100
AcDbArc
 50
182.0
 51
270.0
  0
ARC
  5
18D
330
1F
100
AcDbEntity
  8
0
  6
Continuous
 62
     7
370
    25
100
AcDbCircle
 10
1417.720764525
 20
-174.8344480747
 30
0.0
 40
1.0000000000003
100
AcDbArc
 50
182.0
 51
270.0
  0
ARC
  5
18E
330
1F
100
AcDbEntity
  8
0
  6
Continuous
 62
     7
370
    25
100
AcDbCircle
 10
1381.5391602459
 20
-174.8344480747
 30
0.0
 40
1.0
100
AcDbArc
 50
270.0
 51
358.0
  0
LINE
  5
18F
330
1F
100
AcDbEntity
  8
0
  6
Continuous
 62
     7
370
    25
100
AcDbLine
 10
1415.3082492994
 20
-134.4027593756
 30
0.0
 11
1414.9728977888
 21
-124.799548578
 31
0.0
  0
LINE
  5
190
330
1F
100
AcDbEntity
  8
0
  6
Continuous
 62
     7
370
    25
100
AcDbLine
 10
1416.7213736979
 20
-174.8693475714
 30
0.0
 11
1415.5175986342
 21
-140.3977399499
 31
0.0
  0
LINE
  5
191
330
1F
100
AcDbEntity
  8
0
  6
Continuous
 62
     7
370
    25
100
AcDbLine
 10
1384.287026982
 20
-124.799548578
 30
0.0
 11
1382.5385510729
 21
-174.8693475714
 31
0.0
  0
ARC
  5
192
330
1F
100
AcDbEntity
  8
0
  6
Continuous
 62
     7
370
    25
100
AcDbCircle
 10
1385.2864178091
 20
-124.8344480747
 30
0.0
 40
1.0
100
AcDbArc
 50
90.0
 51
178.0
  0
ARC
  5
193
330
1F
100
AcDbEntity
  8
0
  6
Continuous
 62
     7
370
    25
100
AcDbCircle
 10
1413.9735069618
 20
-124.8344480747
 30
0.0
 40
1.0
100
AcDbArc
 50
2.0
 51
90.0
  0
LINE
  5
194
330
1F
100
AcDbEntity
  8
0
  6
Continuous
 62
     7
370
    25
100
AcDbLine
 10
1412.1299623854
 20
-123.8344480747
 30
0.0
 11
1412.1299623854
 21
432.1655519253
 31
0.0
  0
LINE
  5
195
330
1F
100
AcDbEntity
  8
0
  6
Continuous
 62
     7
370
    25
100
AcDbLine
 10
1387.1299623854
 20
432.1655519253
 30
0.0
 11
1387.1299623854
 21
-123.8344480747
 31
0.0
  0
LINE
  5
196
330
1F
100
AcDbEntity
  8
0
  6
Continuous
 62
     7
370
    25
100
AcDbLine
 10
1342.2028777806
 20
517.1655519253
 30
0.0
 11
1342.6299623854
 21
517.1655519253
 31
0.0
  0
LINE
  5
197
330
1F
100
AcDbEntity
  8
0
  6
Continuous
 62
     7
370
    25
100
AcDbLine
 10
1342.6299623854
 20
525.1655519253
 30
0.0
 11
1342.2028777806
 21
525.1655519253
 31
0.0
  0
LINE
  5
198
330
1F
100
AcDbEntity
  8
0
  6
Continuous
 62
     7
370
    25
100
AcDbLine
 10
1342.2028777806
 20
-216.8344480747
 30
0.0
 11
1342.6299623854
 21
-216.8344480747
 31
0.0
  0
LINE
  5
199
330
1F
100
AcDbEntity
  8
0
  6
Continuous
 62
     7
370
    25
100
AcDbLine
 10
1342.6299623854
 20
-208.8344480747
 30
0.0
 11
1342.2028777806
 21
-208.8344480747
 31
0.0
  0
LINE
  5
19A
330
1F
100
AcDbEntity
  8
0
  6
Continuous
 62
     7
370
    25
100
AcDbLine
 10
1342.6299623854
 20
-197.3344480747
 30
0.0
 11
1342.2028777806
 21
-197.3344480747
 31
0.0
  0
LINE
  5
19B
330
1F
100
AcDbEntity
  8
0
  6
Continuous
 62
     7
370
    25
100
AcDbLine
 10
1342.2028777806
 20
-228.3344480747
 30
0.0
 11
1342.6299623854
 21
-228.3344480747
 31
0.0
  0
ARC
  5
19C
330
1F
100
AcDbEntity
  8
0
  6
Continuous
 62
     7
370
    25
100
AcDbCircle
 10
1341.2028777806
 20
-212.0383954431
 30
0.0
 40
16.2960526315791
100
AcDbArc
 50
225.1144932694
 51
270.0
  0
ARC
  5
19D
330
1F
100
AcDbEntity
  8
0
  6
Continuous
 62
     7
370
    25
100
AcDbCircle
 10
1341.2028777806
 20
-213.6305007062
 30
0.0
 40
16.2960526315791
100
AcDbArc
 50
90.0
 51
134.8855067306
  0
LINE
  5
19E
330
1F
100
AcDbEntity
  8
0
  6
Continuous
 62
     7
370
    25
100
AcDbLine
 10
1342.2028777806
 20
-197.3344480747
 30
0.0
 11
1341.2028777806
 21
-197.3344480747
 31
0.0
  0
LINE
  5
19F
330
1F
100
AcDbEntity
  8
0
  6
Continuous
 62
     7
370
    25
100
AcDbLine
 10
1341.2028777806
 20
-228.3344480747
 30
0.0
 11
1342.2028777806
 21
-228.3344480747
 31
0.0
  0
LINE
  5
1A0
330
1F
100
AcDbEntity
  8
0
  6
Continuous
 62
     7
370
    25
100
AcDbLine
 10
1342.6299623854
 20
536.6655519253
 30
0.0
 11
1342.2028777806
 21
536.6655519253
 31
0.0
  0
LINE
  5
1A1
330
1F
100
AcDbEntity
  8
0
  6
Continuous
 62
     7
370
    25
100
AcDbLine
 10
1342.2028777806
 20
505.6655519253
 30
0.0
 11
1342.6299623854
 21
505.6655519253
 31
0.0
  0
LINE
  5
1A2
330
1F
100
AcDbEntity
  8
0
  6
Continuous
 62
     7
370
    25
100
AcDbLine
 10
1342.2028777806
 20
536.6655519253
 30
0.0
 11
1341.2028777806
 21
536.6655519253
 31
0.0
  0
LINE
  5
1A3
330
1F
100
AcDbEntity
  8
0
  6
Continuous
 62
     7
370
    25
100
AcDbLine
 10
1341.2028777806
 20
505.6655519253
 30
0.0
 11
1342.2028777806
 21
505.6655519253
 31
0.0
  0
ARC
  5
1A4
330
1F
100
AcDbEntity
  8
0
  6
Continuous
 62
     7
370
    25
100
AcDbCircle
 10
1341.2028777806
 20
521.9616045569
 30
0.0
 40
16.29605263157912
100
AcDbArc
 50
225.1144932694
 51
270.0
  0
ARC
  5
1A5
330
1F
100
AcDbEntity
  8
0
  6
Continuous
 62
     7
370
    25
100
AcDbCircle
 10
1341.2028777806
 20
520.3694992937
 30
0.0
 40
16.29605263157912
100
AcDbArc
 50
90.0
 51
134.8855067306
  0
ARC
  5
1A6
330
1F
100
AcDbEntity
  8
0
  6
Continuous
 62
     7
370
    25
100
AcDbCircle
 10
1329.1177277617
 20
531.3155519253
 30
0.0
 40
0.6000000000001364
100
AcDbArc
 50
90.0
 51
159.724946748
  0
ARC
  5
1A7
330
1F
100
AcDbEntity
  8
0
  6
Continuous
 62
     7
370
    25
100
AcDbCircle
 10
1329.1177277617
 20
511.0155519253
 30
0.0
 40
0.599999999999909
100
AcDbArc
 50
200.275053252
 51
270.0
  0
LINE
  5
1A8
330
1F
100
AcDbEntity
  8
0
  6
Continuous
 62
     7
370
    25
100
AcDbLine
 10
1329.7028777806
 20
531.9155519253
 30
0.0
 11
1329.1177277617
 21
531.9155519253
 31
0.0
  0
LINE
  5
1A9
330
1F
100
AcDbEntity
  8
0
  6
Continuous
 62
     7
370
    25
100
AcDbLine
 10
1329.1177277617
 20
510.4155519253
 30
0.0
 11
1329.7028777806
 21
510.4155519253
 31
0.0
  0
ARC
  5
1AA
330
1F
100
AcDbEntity
  8
0
  6
Continuous
 62
     7
370
    25
100
AcDbCircle
 10
1356.5935027806
 20
521.1655519253
 30
0.0
 40
29.89062499999996
100
AcDbArc
 50
159.724946748
 51
200.275053252
  0
ARC
  5
1AB
330
1F
100
AcDbEntity
  8
0
  6
Continuous
 62
     7
370
    25
100
AcDbCircle
 10
1329.1177277617
 20
-202.6844480747
 30
0.0
 40
0.5999999999999659
100
AcDbArc
 50
90.0
 51
159.724946748
  0
ARC
  5
1AC
330
1F
100
AcDbEntity
  8
0
  6
Continuous
 62
     7
370
    25
100
AcDbCircle
 10
1329.1177277617
 20
-222.9844480747
 30
0.0
 40
0.5999999999999943
100
AcDbArc
 50
200.275053252
 51
270.0
  0
LINE
  5
1AD
330
1F
100
AcDbEntity
  8
0
  6
Continuous
 62
     7
370
    25
100
AcDbLine
 10
1329.7028777806
 20
-202.0844480747
 30
0.0
 11
1329.1177277617
 21
-202.0844480747
 31
0.0
  0
LINE
  5
1AE
330
1F
100
AcDbEntity
  8
0
  6
Continuous
 62
     7
370
    25
100
AcDbLine
 10
1329.1177277617
 20
-223.5844480747
 30
0.0
 11
1329.7028777806
 21
-223.5844480747
 31
0.0
  0
ARC
  5
1AF
330
1F
100
AcDbEntity
  8
0
  6
Continuous
 62
     7
370
    25
100
AcDbCircle
 10
1356.5935027806
 20
-212.8344480747
 30
0.0
 40
29.89062499999993
100
AcDbArc
 50
159.724946748
 51
200.275053252
  0
CIRCLE
  5
1B0
330
1F
100
AcDbEntity
  8
0
  6
Continuous
 62
     7
370
    25
100
AcDbCircle
 10
2024.6299623854
 20
379.1655519253
 30
0.0
 40
7.100000000000135
  0
CIRCLE
  5
1B1
330
1F
100
AcDbEntity
  8
0
  6
Continuous
 62
     7
370
    25
100
AcDbCircle
 10
1544.6299623854
 20
-70.8344480747
 30
0.0
 40
7.099999999999908
  0
CIRCLE
  5
1B2
330
1F
100
AcDbEntity
  8
0
  6
Continuous
 62
     7
370
    25
100
AcDbCircle
 10
2024.6299623854
 20
-70.8344480747
 30
0.0
 40
7.099999999999913
  0
CIRCLE
  5
1B3
330
1F
100
AcDbEntity
  8
0
  6
Continuous
 62
     7
370
    25
100
AcDbCircle
 10
1544.6299623854
 20
379.1655519253
 30
0.0
 40
7.100000000000135
  0
CIRCLE
  5
1B4
330
1F
100
AcDbEntity
  8
0
  6
Continuous
 62
     7
370
    25
100
AcDbCircle
 10
2084.6299623854
 20
-155.8344480747
 30
0.0
 40
7.099999999999909
  0
CIRCLE
  5
1B5
330
1F
100
AcDbEntity
  8
0
  6
Continuous
 62
     7
370
    25
100
AcDbCircle
 10
1484.6299623854
 20
464.1655519253
 30
0.0
 40
7.099999999999909
  0
CIRCLE
  5
1B6
330
1F
100
AcDbEntity
  8
0
  6
Continuous
 62
     7
370
    25
100
AcDbCircle
 10
2084.6299623854
 20
464.1655519253
 30
0.0
 40
7.100000000000364
  0
CIRCLE
  5
1B7
330
1F
100
AcDbEntity
  8
0
  6
Continuous
 62
     7
370
    25
100
AcDbCircle
 10
1484.6299623854
 20
-155.8344480747
 30
0.0
 40
7.099999999999682
  0
LINE
  5
1B8
330
1F
100
AcDbEntity
  8
0
  6
Continuous
 62
     7
370
    25
100
AcDbLine
 10
1523.8881632825
 20
2084.1655519253
 30
0.0
 11
2214.6299623854
 21
2084.1655519253
 31
0.0
  0
ARC
  5
1B9
330
1F
100
AcDbEntity
  8
0
  6
Continuous
 62
     7
370
    25
100
AcDbCircle
 10
2214.6299623854
 20
584.1655519253
 30
0.0
 40
1500.0
100
AcDbArc
 50
0.0
 51
90.0
  0
ARC
  5
1BA
330
1F
100
AcDbEntity
  8
0
  6
Continuous
 62
     7
370
    25
100
AcDbCircle
 10
2214.6299623854
 20
-275.8344480747
 30
0.0
 40
1500.0
100
AcDbArc
 50
270.0
 51
0.0
  0
LINE
  5
1BB
330
1F
100
AcDbEntity
  8
0
  6
Continuous
 62
     7
370
    25
100
AcDbLine
 10
2214.6299623854
 20
-1775.8344480747
 30
0.0
 11
1523.8881632825
 21
-1775.8344480747
 31
0.0
  0
LINE
  5
1BC
330
1F
100
AcDbEntity
  8
0
  6
Continuous
 62
     7
370
    25
100
AcDbLine
 10
3714.6299623854
 20
584.1655519253
 30
0.0
 11
3714.6299623854
 21
-275.8344480747
 31
0.0
  0
LWPOLYLINE
  5
1BD
330
1F
100
AcDbEntity
  8
0
  6
Continuous
 62
     7
370
    25
100
AcDbPolyline
 90
       15
 70
   128
 43
0.0
 10
1354.6299623854
 20
2084.1655519253
 10
1330.2328340037
 20
2083.9655602894
 10
1306.0101131645
 20
2083.373853083
 10
1282.0041697972
 20
2082.4028318583
 10
1258.2573738315
 20
2081.0648981673
 10
1234.8120951968
 20
2079.3724535621
 10
1210.970089734
 20
2077.2689879878
 10
1187.4594885388
 20
2074.8181419371
 10
1164.3179138562
 20
2072.0407092281
 10
1141.5829879312
 20
2068.9574836787
 10
1119.292333009
 20
2065.5892591069
 10
1096.5806726577
 20
2061.8022957552
 10
1074.3730075297
 20
2057.7516672423
 10
1052.5907942206
 20
2053.4416175008
 10
1031.3589830219
 20
2048.9166822889
  0
LWPOLYLINE
  5
1BE
330
1F
100
AcDbEntity
  8
0
  6
Continuous
 62
     7
370
    25
100
AcDbPolyline
 90
       15
 70
   128
 43
0.0
 10
1031.3589830219
 20
-1740.5855784382
 10
1051.0893959521
 20
-1744.8002929799
 10
1071.3132064201
 20
-1748.8334322431
 10
1092.0027394284
 20
-1752.6625651094
 10
1113.1303199795
 20
-1756.2652604602
 10
1134.6682730757
 20
-1759.619087177
 10
1157.2256753549
 20
-1762.786856619
 10
1180.2112176248
 20
-1765.6562045011
 10
1203.5861310702
 20
-1768.2072160621
 10
1227.3116468758
 20
-1770.419976541
 10
1251.3489962263
 20
-1772.2745711766
 10
1276.6851918621
 20
-1773.8078254765
 10
1302.318282075
 20
-1774.9219999218
 10
1328.3593239595
 20
-1775.6042418416
 10
1354.6299623854
 20
-1775.8344480747
  0
LINE
  5
1BF
330
1F
100
AcDbEntity
  8
0
  6
Continuous
 62
     7
370
    25
100
AcDbLine
 10
1523.8881632825
 20
2084.1655519253
 30
0.0
 11
1354.6299623854
 21
2084.1655519253
 31
0.0
  0
LINE
  5
1C0
330
1F
100
AcDbEntity
  8
0
  6
Continuous
 62
     7
370
    25
100
AcDbLine
 10
1354.6299623854
 20
-1775.8344480747
 30
0.0
 11
1523.8881632825
 21
-1775.8344480747
 31
0.0
  0
ARC
  5
1C1
330
1F
100
AcDbEntity
  8
0
  6
Continuous
 62
     7
370
    25
100
AcDbCircle
 10
-238.297088528
 20
414.1655519253
 30
0.0
 40
1500.0
100
AcDbArc
 50
90.0
 51
100.7629559047
  0
LINE
  5
1C2
330
1F
100
AcDbEntity
  8
0
  6
Continuous
 62
     7
370
    25
100
AcDbLine
 10
661.016237031
 20
1914.1655519253
 30
0.0
 11
-238.297088528
 21
1914.1655519253
 31
0.0
  0
LINE
  5
1C3
330
1F
100
AcDbEntity
  8
0
  6
Continuous
 62
     7
370
    25
100
AcDbLine
 10
-238.297088528
 20
-1605.8344480747
 30
0.0
 11
661.016237031
 21
-1605.8344480747
 31
0.0
  0
ARC
  5
1C4
330
1F
100
AcDbEntity
  8
0
  6
Continuous
 62
     7
370
    25
100
AcDbCircle
 10
-238.297088528
 20
-105.8344480747
 30
0.0
 40
1500.0
100
AcDbArc
 50
259.2370440953
 51
270.0
  0
ARC
  5
1C5
330
1F
100
AcDbEntity
  8
0
  6
Continuous
 62
     7
370
    25
100
AcDbCircle
 10
1354.6299623854
 20
584.1655519253
 30
0.0
 40
1500.0
100
AcDbArc
 50
102.4456834859
 51
117.5426751545
  0
ARC
  5
1C6
330
1F
100
AcDbEntity
  8
0
  6
Continuous
 62
     7
370
    25
100
AcDbCircle
 10
1354.6299623854
 20
-275.8344480747
 30
0.0
 40
1499.999999999999
100
AcDbArc
 50
242.4573248455
 51
257.5543165141
  0
LWPOLYLINE
  5
1C7
330
1F
100
AcDbEntity
  8
0
  6
Continuous
 62
     7
370
    25
100
AcDbPolyline
 90
       23
 70
   128
 43
0.0
 10
-518.4163676198
 20
1887.7778447219
 10
-538.0584940032
 20
1883.9070097295
 10
-558.1175869526
 20
1879.6715045134
 10
-578.5523287003
 20
1875.062246572
 10
-599.3214014788
 20
1870.0701534041
 10
-620.3834875203
 20
1864.6861425083
 10
-642.3730196173
 20
1858.7131657204
 10
-664.6441920704
 20
1852.2953127966
 10
-687.1478412184
 20
1845.4314270814
 10
-709.8348033998
 20
1838.1203519193
 10
-732.6559149534
 20
1830.360930655
 10
-754.9199658277
 20
1822.3900097212
 10
-777.2820774889
 20
1813.9814766041
 10
-799.6995312699
 20
1805.1424430579
 10
-822.1296085034
 20
1795.8800208366
 10
-844.5295905223
 20
1786.2013216944
 10
-867.491019415
 20
1775.8227384908
 10
-890.3966862442
 20
1765.0006709019
 10
-913.2084036794
 20
1753.7491107654
 10
-935.8879843903
 20
1742.0820499187
 10
-958.3972410462
 20
1730.0134801994
 10
-984.7964172531
 20
1715.2184917448
 10
-1010.9455478803
 20
1699.8616117546
  0
LWPOLYLINE
  5
1C8
330
1F
100
AcDbEntity
  8
0
  6
Continuous
 62
     7
370
    25
100
AcDbPolyline
 90
       23
 70
   128
 43
0.0
 10
-1010.9455478803
 20
-1391.530507904
 10
-988.4898491881
 20
-1404.7594878902
 10
-965.8046598172
 20
-1417.5975625119
 10
-942.9251301503
 20
-1430.0281882899
 10
-919.8864105704
 20
-1442.0348217452
 10
-896.7236514606
 20
-1453.6009193985
 10
-872.8229061197
 20
-1465.014671665
 10
-848.8138771301
 20
-1475.9641978906
 10
-824.7460696289
 20
-1486.4371782747
 10
-800.668988753
 20
-1496.4212930167
 10
-776.6321396395
 20
-1505.9042223162
 10
-753.2495196198
 20
-1514.6703064645
 10
-729.9358897397
 20
-1522.9720281314
 10
-706.7426432416
 20
-1530.806885004
 10
-683.7211733676
 20
-1538.1723747694
 10
-660.92287336
 20
-1545.0659951147
 10
-637.6275163697
 20
-1551.7010378613
 10
-614.6054180041
 20
-1557.8609101094
 10
-591.9109761044
 20
-1563.5539397797
 10
-569.5985885117
 20
-1568.7884547924
 10
-547.7226530672
 20
-1573.5727830682
 10
-532.9620526252
 20
-1576.6072241804
 10
-518.4163676198
 20
-1579.4467408712
  0
LINE
  5
1C9
330
1F
100
AcDbEntity
  8
0
  6
Continuous
 62
     7
370
    25
100
AcDbLine
 10
-2269.5283054422
 20
-1105.8344480747
 30
0.0
 11
-1356.3310772779
 21
-1105.8344480747
 31
0.0
  0
ARC
  5
1CA
330
1F
100
AcDbEntity
  8
0
  6
Continuous
 62
     7
370
    25
100
AcDbCircle
 10
-2269.5283054422
 20
-105.8344480747
 30
0.0
 40
1000.000000000001
100
AcDbArc
 50
180.0
 51
270.0
  0
LINE
  5
1CB
330
1F
100
AcDbEntity
  8
0
  6
Continuous
 62
     7
370
    25
100
AcDbLine
 10
-3269.5283054422
 20
414.1655519253
 30
0.0
 11
-3269.5283054422
 21
-105.8344480747
 31
0.0
  0
ARC
  5
1CC
330
1F
100
AcDbEntity
  8
0
  6
Continuous
 62
     7
370
    25
100
AcDbCircle
 10
-2269.5283054422
 20
414.1655519253
 30
0.0
 40
1000.000000000001
100
AcDbArc
 50
90.0
 51
180.0
  0
LINE
  5
1CD
330
1F
100
AcDbEntity
  8
0
  6
Continuous
 62
     7
370
    25
100
AcDbLine
 10
-1356.3310772779
 20
1414.1655519253
 30
0.0
 11
-2269.5283054422
 21
1414.1655519253
 31
0.0
  0
ARC
  5
1CE
330
1F
100
AcDbEntity
  8
0
  6
Continuous
 62
     7
370
    25
100
AcDbCircle
 10
-238.297088528
 20
414.1655519253
 30
0.0
 40
1500.000000000001
100
AcDbArc
 50
121.0040707017
 51
138.1896851042
  0
ARC
  5
1CF
330
1F
100
AcDbEntity
  8
0
  6
Continuous
 62
     7
370
    25
100
AcDbCircle
 10
-238.297088528
 20
-105.8344480747
 30
0.0
 40
1500.0
100
AcDbArc
 50
221.8103148958
 51
238.9959292983
  0
LWPOLYLINE
  5
1D0
330
1F
100
AcDbEntity
  8
0
  6
Continuous
 62
     7
370
    25
100
AcDbPolyline
 90
        9
 70
   128
 43
0.0
 10
605.2105119641
 20
402.1655519253
 10
605.2460012519
 20
401.5802809593
 10
605.351105282
 20
401.0175016282
 10
605.5217849654
 20
400.4988412263
 10
605.7514811777
 20
400.0442315818
 10
606.0313668221
 20
399.6711430884
 10
606.3506860504
 20
399.3939133278
 10
606.6971676036
 20
399.2231960841
 10
607.05749639
 20
399.1655519253
  0
LWPOLYLINE
  5
1D1
330
1F
100
AcDbEntity
  8
0
  6
Continuous
 62
     7
370
    25
100
AcDbPolyline
 90
        9
 70
   128
 43
0.0
 10
-578.9513548945
 20
402.1655519253
 10
-578.9158656067
 20
401.5802809593
 10
-578.8107615766
 20
401.0175016282
 10
-578.6400818932
 20
400.4988412263
 10
-578.4103856809
 20
400.0442315818
 10
-578.1305000365
 20
399.6711430884
 10
-577.8111808082
 20
399.3939133278
 10
-577.464699255
 20
399.2231960841
 10
-577.1043704686
 20
399.1655519253
  0
LINE
  5
1D2
330
1F
100
AcDbEntity
  8
0
  6
Continuous
 62
     7
370
    25
100
AcDbLine
 10
605.2105119641
 20
402.1655519253
 30
0.0
 11
-578.9513548945
 21
402.1655519253
 31
0.0
  0
LINE
  5
1D3
330
1F
100
AcDbEntity
  8
0
  6
Continuous
 62
     7
370
    25
100
AcDbLine
 10
-577.1043704686
 20
399.1655519253
 30
0.0
 11
607.05749639
 21
399.1655519253
 31
0.0
  0
LINE
  5
1D4
330
1F
100
AcDbEntity
  8
0
  6
Continuous
 62
     7
370
    25
100
AcDbLine
 10
605.2105119641
 20
411.1655519253
 30
0.0
 11
605.2105119641
 21
402.1655519253
 31
0.0
  0
LINE
  5
1D5
330
1F
100
AcDbEntity
  8
0
  6
Continuous
 62
     7
370
    25
100
AcDbLine
 10
-578.9513548945
 20
402.1655519253
 30
0.0
 11
-578.9513548945
 21
411.1655519253
 31
0.0
  0
LINE
  5
1D6
330
1F
100
AcDbEntity
  8
0
  6
Continuous
 62
     7
370
    25
100
AcDbLine
 10
-578.9513548945
 20
411.1655519253
 30
0.0
 11
605.2105119641
 21
411.1655519253
 31
0.0
  0
LWPOLYLINE
  5
1D7
330
1F
100
AcDbEntity
  8
0
  6
Continuous
 62
     7
370
    25
100
AcDbPolyline
 90
        9
 70
   128
 43
0.0
 10
607.05749639
 20
414.1655519253
 10
606.6971676036
 20
414.1079077665
 10
606.3506860504
 20
413.9371905229
 10
606.0313668221
 20
413.6599607622
 10
605.7514811777
 20
413.2868722689
 10
605.5217849654
 20
412.8322626244
 10
605.351105282
 20
412.3136022224
 10
605.2460012519
 20
411.7508228914
 10
605.2105119641
 20
411.1655519253
  0
LWPOLYLINE
  5
1D8
330
1F
100
AcDbEntity
  8
0
  6
Continuous
 62
     7
370
    25
100
AcDbPolyline
 90
        9
 70
   128
 43
0.0
 10
-577.1043704686
 20
414.1655519253
 10
-577.464699255
 20
414.1079077665
 10
-577.8111808082
 20
413.9371905229
 10
-578.1305000365
 20
413.6599607622
 10
-578.4103856809
 20
413.2868722689
 10
-578.6400818932
 20
412.8322626244
 10
-578.8107615766
 20
412.3136022224
 10
-578.9158656067
 20
411.7508228914
 10
-578.9513548945
 20
411.1655519253
  0
LINE
  5
1D9
330
1F
100
AcDbEntity
  8
0
  6
Continuous
 62
     7
370
    25
100
AcDbLine
 10
607.05749639
 20
414.1655519253
 30
0.0
 11
-577.1043704686
 21
414.1655519253
 31
0.0
  0
LINE
  5
1DA
330
1F
100
AcDbEntity
  8
0
  6
Continuous
 62
     7
370
    25
100
AcDbLine
 10
-1122.1330845086
 20
411.1655519253
 30
0.0
 11
-578.9513548945
 21
411.1655519253
 31
0.0
  0
ARC
  5
1DB
330
1F
100
AcDbEntity
  8
0
  6
Continuous
 62
     7
370
    25
100
AcDbCircle
 10
-1115.7042911818
 20
411.9044145484
 30
0.0
 40
6.471112857505767
100
AcDbArc
 50
159.5481455603
 51
186.5562503811
  0
LINE
  5
1DC
330
1F
100
AcDbEntity
  8
0
  6
Continuous
 62
     7
370
    25
100
AcDbLine
 10
-577.1043704686
 20
414.1655519253
 30
0.0
 11
-1121.7675047997
 21
414.1655519253
 31
0.0
  0
ARC
  5
1DD
330
1F
100
AcDbEntity
  8
0
  6
Continuous
 62
     7
370
    25
100
AcDbCircle
 10
-1115.7042911818
 20
401.4266893023
 30
0.0
 40
6.471112857490189
100
AcDbArc
 50
173.4437496188
 51
200.4518544397
  0
LINE
  5
1DE
330
1F
100
AcDbEntity
  8
0
  6
Continuous
 62
     7
370
    25
100
AcDbLine
 10
-578.9513548945
 20
402.1655519253
 30
0.0
 11
-1122.1330845086
 21
402.1655519253
 31
0.0
  0
LINE
  5
1DF
330
1F
100
AcDbEntity
  8
0
  6
Continuous
 62
     7
370
    25
100
AcDbLine
 10
-1121.7675047997
 20
399.1655519253
 30
0.0
 11
-577.1043704686
 21
399.1655519253
 31
0.0
  0
LINE
  5
1E0
330
1F
100
AcDbEntity
  8
0
  6
Continuous
 62
     7
370
    25
100
AcDbLine
 10
-1122.1330845086
 20
402.1655519253
 30
0.0
 11
-1122.1330845086
 21
411.1655519253
 31
0.0
  0
LINE
  5
1E1
330
1F
100
AcDbEntity
  8
0
  6
Continuous
 62
     7
370
    25
100
AcDbLine
 10
-1130.9524264928
 20
411.1655519253
 30
0.0
 11
-1122.1330845086
 21
411.1655519253
 31
0.0
  0
ARC
  5
1E2
330
1F
100
AcDbEntity
  8
0
  6
Continuous
 62
     7
370
    25
100
AcDbCircle
 10
-1124.5236331661
 20
411.9044145484
 30
0.0
 40
6.471112857485267
100
AcDbArc
 50
159.5481455603
 51
186.5562503812
  0
LINE
  5
1E3
330
1F
100
AcDbEntity
  8
0
  6
Continuous
 62
     7
370
    25
100
AcDbLine
 10
-1121.7675047997
 20
414.1655519253
 30
0.0
 11
-1130.586846784
 21
414.1655519253
 31
0.0
  0
LINE
  5
1E4
330
1F
100
AcDbEntity
  8
0
  6
Continuous
 62
     7
370
    25
100
AcDbLine
 10
-1122.1330845086
 20
402.1655519253
 30
0.0
 11
-1130.9524264928
 21
402.1655519253
 31
0.0
  0
LINE
  5
1E5
330
1F
100
AcDbEntity
  8
0
  6
Continuous
 62
     7
370
    25
100
AcDbLine
 10
-1130.9524264928
 20
402.1655519253
 30
0.0
 11
-1130.9524264928
 21
411.1655519253
 31
0.0
  0
ARC
  5
1E6
330
1F
100
AcDbEntity
  8
0
  6
Continuous
 62
     7
370
    25
100
AcDbCircle
 10
-1124.523633166
 20
401.4266893023
 30
0.0
 40
6.471112857504869
100
AcDbArc
 50
173.4437496188
 51
200.4518544397
  0
LINE
  5
1E7
330
1F
100
AcDbEntity
  8
0
  6
Continuous
 62
     7
370
    25
100
AcDbLine
 10
-1130.586846784
 20
399.1655519253
 30
0.0
 11
-1121.7675047997
 21
399.1655519253
 31
0.0
  0
LINE
  5
1E8
330
1F
100
AcDbEntity
  8
0
  6
Continuous
 62
     7
370
    25
100
AcDbLine
 10
-1130.586846784
 20
414.1655519253
 30
0.0
 11
-1266.528294108
 21
414.1655519253
 31
0.0
  0
LINE
  5
1E9
330
1F
100
AcDbEntity
  8
0
  6
Continuous
 62
     7
370
    25
100
AcDbLine
 10
-1266.528294108
 20
399.1655519253
 30
0.0
 11
-1130.586846784
 21
399.1655519253
 31
0.0
  0
LINE
  5
1EA
330
1F
100
AcDbEntity
  8
0
  6
Continuous
 62
     7
370
    25
100
AcDbLine
 10
1299.3257402928
 20
411.1655519253
 30
0.0
 11
1323.9521993058
 21
411.1655519253
 31
0.0
  0
LWPOLYLINE
  5
1EB
330
1F
100
AcDbEntity
  8
0
  6
Continuous
 62
     7
370
    25
100
AcDbPolyline
 90
        9
 70
   128
 43
0.0
 10
1301.1727247188
 20
414.1655519253
 10
1300.8123959323
 20
414.1079077665
 10
1300.4659143791
 20
413.9371905229
 10
1300.1465951508
 20
413.6599607622
 10
1299.8667095064
 20
413.2868722689
 10
1299.6370132942
 20
412.8322626244
 10
1299.4663336107
 20
412.3136022224
 10
1299.3612295806
 20
411.7508228914
 10
1299.3257402928
 20
411.1655519253
  0
LINE
  5
1EC
330
1F
100
AcDbEntity
  8
0
  6
Continuous
 62
     7
370
    25
100
AcDbLine
 10
1323.9521993058
 20
414.1655519253
 30
0.0
 11
1301.1727247188
 21
414.1655519253
 31
0.0
  0
LINE
  5
1ED
330
1F
100
AcDbEntity
  8
0
  6
Continuous
 62
     7
370
    25
100
AcDbLine
 10
1323.9521993058
 20
414.1655519253
 30
0.0
 11
1323.9521993058
 21
411.1655519253
 31
0.0
  0
LINE
  5
1EE
330
1F
100
AcDbEntity
  8
0
  6
Continuous
 62
     7
370
    25
100
AcDbLine
 10
1301.1727247188
 20
399.1655519253
 30
0.0
 11
1323.9521993058
 21
399.1655519253
 31
0.0
  0
LWPOLYLINE
  5
1EF
330
1F
100
AcDbEntity
  8
0
  6
Continuous
 62
     7
370
    25
100
AcDbPolyline
 90
        9
 70
   128
 43
0.0
 10
1299.3257402928
 20
402.1655519253
 10
1299.3612295806
 20
401.5802809593
 10
1299.4663336107
 20
401.0175016282
 10
1299.6370132942
 20
400.4988412263
 10
1299.8667095064
 20
400.0442315818
 10
1300.1465951508
 20
399.6711430884
 10
1300.4659143791
 20
399.3939133278
 10
1300.8123959323
 20
399.2231960841
 10
1301.1727247188
 20
399.1655519253
  0
LINE
  5
1F0
330
1F
100
AcDbEntity
  8
0
  6
Continuous
 62
     7
370
    25
100
AcDbLine
 10
1323.9521993058
 20
402.1655519253
 30
0.0
 11
1299.3257402928
 21
402.1655519253
 31
0.0
  0
LINE
  5
1F1
330
1F
100
AcDbEntity
  8
0
  6
Continuous
 62
     7
370
    25
100
AcDbLine
 10
1323.9521993058
 20
402.1655519253
 30
0.0
 11
1323.9521993058
 21
399.1655519253
 31
0.0
  0
LINE
  5
1F2
330
1F
100
AcDbEntity
  8
0
  6
Continuous
 62
     7
370
    25
100
AcDbLine
 10
1323.9521993058
 20
402.1655519253
 30
0.0
 11
1323.9521993058
 21
411.1655519253
 31
0.0
  0
LINE
  5
1F3
330
1F
100
AcDbEntity
  8
0
  6
Continuous
 62
     7
370
    25
100
AcDbLine
 10
1299.3257402928
 20
402.1655519253
 30
0.0
 11
1299.3257402928
 21
411.1655519253
 31
0.0
  0
LINE
  5
1F4
330
1F
100
AcDbEntity
  8
0
  6
Continuous
 62
     7
370
    25
100
AcDbLine
 10
1323.9521993058
 20
399.1655519253
 30
0.0
 11
1345.6299623854
 21
399.1655519253
 31
0.0
  0
LINE
  5
1F5
330
1F
100
AcDbEntity
  8
0
  6
Continuous
 62
     7
370
    25
100
AcDbLine
 10
1342.6299623854
 20
414.1655519253
 30
0.0
 11
1323.9521993058
 21
414.1655519253
 31
0.0
  0
LINE
  5
1F6
330
1F
100
AcDbEntity
  8
0
  6
Continuous
 62
     7
370
    25
100
AcDbLine
 10
1387.1299623854
 20
414.1655519253
 30
0.0
 11
1354.6299623854
 21
414.1655519253
 31
0.0
  0
LINE
  5
1F7
330
1F
100
AcDbEntity
  8
0
  6
Continuous
 62
     7
370
    25
100
AcDbLine
 10
1351.6299623858
 20
399.1655519253
 30
0.0
 11
1387.1299623854
 21
399.1655519253
 31
0.0
  0
LINE
  5
1F8
330
1F
100
AcDbEntity
  8
0
  6
Continuous
 62
     7
370
    25
100
AcDbLine
 10
605.2105119641
 20
411.1655519253
 30
0.0
 11
1299.3257402928
 21
411.1655519253
 31
0.0
  0
LWPOLYLINE
  5
1F9
330
1F
100
AcDbEntity
  8
0
  6
Continuous
 62
     7
370
    25
100
AcDbPolyline
 90
        9
 70
   128
 43
0.0
 10
607.0574963901
 20
414.1655519253
 10
606.6971676036
 20
414.1079077665
 10
606.3506860504
 20
413.9371905229
 10
606.0313668221
 20
413.6599607622
 10
605.7514811777
 20
413.2868722689
 10
605.5217849655
 20
412.8322626244
 10
605.351105282
 20
412.3136022224
 10
605.2460012519
 20
411.7508228914
 10
605.2105119641
 20
411.1655519253
  0
LINE
  5
1FA
330
1F
100
AcDbEntity
  8
0
  6
Continuous
 62
     7
370
    25
100
AcDbLine
 10
1301.1727247188
 20
414.1655519253
 30
0.0
 11
607.0574963901
 21
414.1655519253
 31
0.0
  0
LINE
  5
1FB
330
1F
100
AcDbEntity
  8
0
  6
Continuous
 62
     7
370
    25
100
AcDbLine
 10
1299.3257402928
 20
402.1655519253
 30
0.0
 11
605.2105119641
 21
402.1655519253
 31
0.0
  0
LWPOLYLINE
  5
1FC
330
1F
100
AcDbEntity
  8
0
  6
Continuous
 62
     7
370
    25
100
AcDbPolyline
 90
        9
 70
   128
 43
0.0
 10
605.2105119641
 20
402.1655519253
 10
605.2460012519
 20
401.5802809593
 10
605.351105282
 20
401.0175016282
 10
605.5217849655
 20
400.4988412263
 10
605.7514811777
 20
400.0442315818
 10
606.0313668221
 20
399.6711430884
 10
606.3506860504
 20
399.3939133278
 10
606.6971676036
 20
399.2231960841
 10
607.0574963901
 20
399.1655519253
  0
LINE
  5
1FD
330
1F
100
AcDbEntity
  8
0
  6
Continuous
 62
     7
370
    25
100
AcDbLine
 10
607.0574963901
 20
399.1655519253
 30
0.0
 11
1301.1727247188
 21
399.1655519253
 31
0.0
  0
LWPOLYLINE
  5
1FE
330
1F
100
AcDbEntity
  8
0
  6
Continuous
 62
     7
370
    25
100
AcDbPolyline
 90
        9
 70
   128
 43
0.0
 10
809.8775076854
 20
417.1655519253
 10
809.9129969732
 20
416.5802809593
 10
810.0181010033
 20
416.0175016282
 10
810.1887806867
 20
415.4988412263
 10
810.418476899
 20
415.0442315818
 10
810.6983625434
 20
414.6711430884
 10
811.0176817717
 20
414.3939133278
 10
811.3641633249
 20
414.2231960841
 10
811.7244921113
 20
414.1655519253
  0
LINE
  5
1FF
330
1F
100
AcDbEntity
  8
0
  6
Continuous
 62
     7
370
    25
100
AcDbLine
 10
809.8775076854
 20
417.1655519253
 30
0.0
 11
834.6342094039
 21
417.1655519253
 31
0.0
  0
LWPOLYLINE
  5
200
330
1F
100
AcDbEntity
  8
0
  6
Continuous
 62
     7
370
    25
100
AcDbPolyline
 90
        9
 70
   128
 43
0.0
 10
833.5103896237
 20
414.1655519253
 10
833.7296359865
 20
414.2231960841
 10
833.9404568345
 20
414.3939133278
 10
834.1347504408
 20
414.6711430884
 10
834.3050502111
 20
415.0442315818
 10
834.4448116206
 20
415.4988412263
 10
834.5486637169
 20
416.0175016282
 10
834.6126155219
 20
416.5802809593
 10
834.6342094039
 20
417.1655519253
  0
LINE
  5
201
330
1F
100
AcDbEntity
  8
0
  6
Continuous
 62
     7
370
    25
100
AcDbLine
 10
834.6342094039
 20
426.1655519253
 30
0.0
 11
809.8775076854
 21
426.1655519253
 31
0.0
  0
LINE
  5
202
330
1F
100
AcDbEntity
  8
0
  6
Continuous
 62
     7
370
    25
100
AcDbLine
 10
834.6342094039
 20
417.1655519253
 30
0.0
 11
834.6342094039
 21
426.1655519253
 31
0.0
  0
LINE
  5
203
330
1F
100
AcDbEntity
  8
0
  6
Continuous
 62
     7
370
    25
100
AcDbLine
 10
809.8775076854
 20
417.1655519253
 30
0.0
 11
809.8775076854
 21
426.1655519253
 31
0.0
  0
LWPOLYLINE
  5
204
330
1F
100
AcDbEntity
  8
0
  6
Continuous
 62
     7
370
    25
100
AcDbPolyline
 90
        9
 70
   128
 43
0.0
 10
811.7244921113
 20
429.1655519253
 10
811.3641633249
 20
429.1079077665
 10
811.0176817717
 20
428.9371905229
 10
810.6983625434
 20
428.6599607622
 10
810.418476899
 20
428.2868722689
 10
810.1887806867
 20
427.8322626244
 10
810.0181010033
 20
427.3136022224
 10
809.9129969732
 20
426.7508228914
 10
809.8775076854
 20
426.1655519253
  0
LINE
  5
205
330
1F
100
AcDbEntity
  8
0
  6
Continuous
 62
     7
370
    25
100
AcDbLine
 10
811.7244921113
 20
429.1655519253
 30
0.0
 11
833.5103896237
 21
429.1655519253
 31
0.0
  0
LWPOLYLINE
  5
206
330
1F
100
AcDbEntity
  8
0
  6
Continuous
 62
     7
370
    25
100
AcDbPolyline
 90
        9
 70
   128
 43
0.0
 10
834.6342094039
 20
426.1655519253
 10
834.6126155219
 20
426.7508228914
 10
834.5486637169
 20
427.3136022224
 10
834.4448116206
 20
427.8322626244
 10
834.3050502111
 20
428.2868722689
 10
834.1347504408
 20
428.6599607622
 10
833.9404568345
 20
428.9371905229
 10
833.7296359865
 20
429.1079077665
 10
833.5103896237
 20
429.1655519253
  0
LINE
  5
207
330
1F
100
AcDbEntity
  8
0
  6
Continuous
 62
     7
370
    25
100
AcDbLine
 10
834.6342094039
 20
417.1655519253
 30
0.0
 11
989.8740653303
 21
417.1655519253
 31
0.0
  0
LWPOLYLINE
  5
208
330
1F
100
AcDbEntity
  8
0
  6
Continuous
 62
     7
370
    25
100
AcDbPolyline
 90
        9
 70
   128
 43
0.0
 10
988.7502455501
 20
414.1655519253
 10
988.9694919129
 20
414.2231960841
 10
989.180312761
 20
414.3939133278
 10
989.3746063673
 20
414.6711430884
 10
989.5449061375
 20
415.0442315818
 10
989.6846675471
 20
415.4988412263
 10
989.7885196433
 20
416.0175016282
 10
989.8524714484
 20
416.5802809593
 10
989.8740653303
 20
417.1655519253
  0
LINE
  5
209
330
1F
100
AcDbEntity
  8
0
  6
Continuous
 62
     7
370
    25
100
AcDbLine
 10
989.8740653303
 20
426.1655519253
 30
0.0
 11
834.6342094039
 21
426.1655519253
 31
0.0
  0
LINE
  5
20A
330
1F
100
AcDbEntity
  8
0
  6
Continuous
 62
     7
370
    25
100
AcDbLine
 10
833.5103896237
 20
429.1655519253
 30
0.0
 11
988.7502455501
 21
429.1655519253
 31
0.0
  0
LWPOLYLINE
  5
20B
330
1F
100
AcDbEntity
  8
0
  6
Continuous
 62
     7
370
    25
100
AcDbPolyline
 90
        9
 70
   128
 43
0.0
 10
989.8740653303
 20
426.1655519253
 10
989.8524714484
 20
426.7508228914
 10
989.7885196433
 20
427.3136022224
 10
989.6846675471
 20
427.8322626244
 10
989.5449061375
 20
428.2868722689
 10
989.3746063673
 20
428.6599607622
 10
989.180312761
 20
428.9371905229
 10
988.9694919129
 20
429.1079077665
 10
988.7502455501
 20
429.1655519253
  0
LINE
  5
20C
330
1F
100
AcDbEntity
  8
0
  6
Continuous
 62
     7
370
    25
100
AcDbLine
 10
989.8740653303
 20
417.1655519253
 30
0.0
 11
989.8740653303
 21
426.1655519253
 31
0.0
  0
LINE
  5
20D
330
1F
100
AcDbEntity
  8
0
  6
Continuous
 62
     7
370
    25
100
AcDbLine
 10
809.8775076854
 20
426.1655519253
 30
0.0
 11
578.2182201162
 21
426.1655519253
 31
0.0
  0
LINE
  5
20E
330
1F
100
AcDbEntity
  8
0
  6
Continuous
 62
     7
370
    25
100
AcDbLine
 10
578.2182201162
 20
417.1655519253
 30
0.0
 11
809.8775076854
 21
417.1655519253
 31
0.0
  0
LINE
  5
20F
330
1F
100
AcDbEntity
  8
0
  6
Continuous
 62
     7
370
    25
100
AcDbLine
 10
578.2182201162
 20
417.1655519253
 30
0.0
 11
578.2182201162
 21
426.1655519253
 31
0.0
  0
LWPOLYLINE
  5
210
330
1F
100
AcDbEntity
  8
0
  6
Continuous
 62
     7
370
    25
100
AcDbPolyline
 90
        9
 70
   128
 43
0.0
 10
580.0652045422
 20
429.1655519253
 10
579.7048757558
 20
429.1079077665
 10
579.3583942025
 20
428.9371905229
 10
579.0390749743
 20
428.6599607622
 10
578.7591893299
 20
428.2868722689
 10
578.5294931176
 20
427.8322626244
 10
578.3588134342
 20
427.3136022224
 10
578.2537094041
 20
426.7508228914
 10
578.2182201162
 20
426.1655519253
  0
LINE
  5
211
330
1F
100
AcDbEntity
  8
0
  6
Continuous
 62
     7
370
    25
100
AcDbLine
 10
580.0652045422
 20
429.1655519253
 30
0.0
 11
811.7244921113
 21
429.1655519253
 31
0.0
  0
LWPOLYLINE
  5
212
330
1F
100
AcDbEntity
  8
0
  6
Continuous
 62
     7
370
    25
100
AcDbPolyline
 90
        9
 70
   128
 43
0.0
 10
578.2182201162
 20
417.1655519253
 10
578.2537094041
 20
416.5802809593
 10
578.3588134342
 20
416.0175016282
 10
578.5294931176
 20
415.4988412263
 10
578.7591893299
 20
415.0442315818
 10
579.0390749743
 20
414.6711430884
 10
579.3583942025
 20
414.3939133278
 10
579.7048757558
 20
414.2231960841
 10
580.0652045422
 20
414.1655519253
  0
LINE
  5
213
330
1F
100
AcDbEntity
  8
0
  6
Continuous
 62
     7
370
    25
100
AcDbLine
 10
811.7244921113
 20
414.1655519253
 30
0.0
 11
580.0652045422
 21
414.1655519253
 31
0.0
  0
LINE
  5
214
330
1F
100
AcDbEntity
  8
0
  6
Continuous
 62
     7
370
    25
100
AcDbLine
 10
988.7502455501
 20
429.1655519253
 30
0.0
 11
1002.5089004949
 21
429.1655519253
 31
0.0
  0
LINE
  5
215
330
1F
100
AcDbEntity
  8
0
  6
Continuous
 62
     7
370
    25
100
AcDbLine
 10
571.6097569994
 20
429.1655519253
 30
0.0
 11
580.0652045422
 21
429.1655519253
 31
0.0
  0
LINE
  5
216
330
1F
100
AcDbEntity
  8
0
  6
Continuous
 62
     7
370
    25
100
AcDbLine
 10
833.5103896237
 20
-120.8344480747
 30
0.0
 11
811.7244921113
 21
-120.8344480747
 31
0.0
  0
LWPOLYLINE
  5
217
330
1F
100
AcDbEntity
  8
0
  6
Continuous
 62
     7
370
    25
100
AcDbPolyline
 90
        9
 70
   128
 43
0.0
 10
809.8775076854
 20
-117.8344480747
 10
809.9129969732
 20
-118.4197190407
 10
810.0181010033
 20
-118.9824983718
 10
810.1887806867
 20
-119.5011587737
 10
810.418476899
 20
-119.9557684182
 10
810.6983625434
 20
-120.3288569116
 10
811.0176817717
 20
-120.6060866722
 10
811.3641633249
 20
-120.7768039159
 10
811.7244921113
 20
-120.8344480747
  0
LINE
  5
218
330
1F
100
AcDbEntity
  8
0
  6
Continuous
 62
     7
370
    25
100
AcDbLine
 10
809.8775076854
 20
-117.8344480747
 30
0.0
 11
834.6342094039
 21
-117.8344480747
 31
0.0
  0
LWPOLYLINE
  5
219
330
1F
100
AcDbEntity
  8
0
  6
Continuous
 62
     7
370
    25
100
AcDbPolyline
 90
        9
 70
   128
 43
0.0
 10
833.5103896237
 20
-120.8344480747
 10
833.7296359865
 20
-120.7768039159
 10
833.9404568345
 20
-120.6060866722
 10
834.1347504408
 20
-120.3288569116
 10
834.3050502111
 20
-119.9557684182
 10
834.4448116206
 20
-119.5011587737
 10
834.5486637169
 20
-118.9824983718
 10
834.6126155219
 20
-118.4197190407
 10
834.6342094039
 20
-117.8344480747
  0
LINE
  5
21A
330
1F
100
AcDbEntity
  8
0
  6
Continuous
 62
     7
370
    25
100
AcDbLine
 10
834.6342094039
 20
-108.8344480747
 30
0.0
 11
809.8775076854
 21
-108.8344480747
 31
0.0
  0
LWPOLYLINE
  5
21B
330
1F
100
AcDbEntity
  8
0
  6
Continuous
 62
     7
370
    25
100
AcDbPolyline
 90
        9
 70
   128
 43
0.0
 10
811.7244921113
 20
-105.8344480747
 10
811.3641633249
 20
-105.8920922335
 10
811.0176817717
 20
-106.0628094771
 10
810.6983625434
 20
-106.3400392378
 10
810.418476899
 20
-106.7131277311
 10
810.1887806867
 20
-107.1677373756
 10
810.0181010033
 20
-107.6863977776
 10
809.9129969732
 20
-108.2491771086
 10
809.8775076854
 20
-108.8344480747
  0
LWPOLYLINE
  5
21C
330
1F
100
AcDbEntity
  8
0
  6
Continuous
 62
     7
370
    25
100
AcDbPolyline
 90
        9
 70
   128
 43
0.0
 10
834.6342094039
 20
-108.8344480747
 10
834.6126155219
 20
-108.2491771086
 10
834.5486637169
 20
-107.6863977776
 10
834.4448116206
 20
-107.1677373756
 10
834.3050502111
 20
-106.7131277311
 10
834.1347504408
 20
-106.3400392378
 10
833.9404568345
 20
-106.0628094771
 10
833.7296359865
 20
-105.8920922335
 10
833.5103896237
 20
-105.8344480747
  0
LINE
  5
21D
330
1F
100
AcDbEntity
  8
0
  6
Continuous
 62
     7
370
    25
100
AcDbLine
 10
834.6342094039
 20
-117.8344480747
 30
0.0
 11
834.6342094039
 21
-108.8344480747
 31
0.0
  0
LINE
  5
21E
330
1F
100
AcDbEntity
  8
0
  6
Continuous
 62
     7
370
    25
100
AcDbLine
 10
809.8775076854
 20
-117.8344480747
 30
0.0
 11
809.8775076854
 21
-108.8344480747
 31
0.0
  0
LINE
  5
21F
330
1F
100
AcDbEntity
  8
0
  6
Continuous
 62
     7
370
    25
100
AcDbLine
 10
988.7502455501
 20
-120.8344480747
 30
0.0
 11
833.5103896237
 21
-120.8344480747
 31
0.0
  0
LINE
  5
220
330
1F
100
AcDbEntity
  8
0
  6
Continuous
 62
     7
370
    25
100
AcDbLine
 10
834.6342094039
 20
-117.8344480747
 30
0.0
 11
989.8740653303
 21
-117.8344480747
 31
0.0
  0
LWPOLYLINE
  5
221
330
1F
100
AcDbEntity
  8
0
  6
Continuous
 62
     7
370
    25
100
AcDbPolyline
 90
        9
 70
   128
 43
0.0
 10
988.7502455501
 20
-120.8344480747
 10
988.9694919129
 20
-120.7768039159
 10
989.180312761
 20
-120.6060866722
 10
989.3746063673
 20
-120.3288569116
 10
989.5449061375
 20
-119.9557684182
 10
989.6846675471
 20
-119.5011587737
 10
989.7885196433
 20
-118.9824983718
 10
989.8524714484
 20
-118.4197190407
 10
989.8740653303
 20
-117.8344480747
  0
LINE
  5
222
330
1F
100
AcDbEntity
  8
0
  6
Continuous
 62
     7
370
    25
100
AcDbLine
 10
989.8740653303
 20
-108.8344480747
 30
0.0
 11
834.6342094039
 21
-108.8344480747
 31
0.0
  0
LWPOLYLINE
  5
223
330
1F
100
AcDbEntity
  8
0
  6
Continuous
 62
     7
370
    25
100
AcDbPolyline
 90
        9
 70
   128
 43
0.0
 10
989.8740653303
 20
-108.8344480747
 10
989.8524714484
 20
-108.2491771086
 10
989.7885196433
 20
-107.6863977776
 10
989.6846675471
 20
-107.1677373756
 10
989.5449061375
 20
-106.7131277311
 10
989.3746063673
 20
-106.3400392378
 10
989.180312761
 20
-106.0628094771
 10
988.9694919129
 20
-105.8920922335
 10
988.7502455501
 20
-105.8344480747
  0
LINE
  5
224
330
1F
100
AcDbEntity
  8
0
  6
Continuous
 62
     7
370
    25
100
AcDbLine
 10
989.8740653303
 20
-117.8344480747
 30
0.0
 11
989.8740653303
 21
-108.8344480747
 31
0.0
  0
LINE
  5
225
330
1F
100
AcDbEntity
  8
0
  6
Continuous
 62
     7
370
    25
100
AcDbLine
 10
809.8775076854
 20
-108.8344480747
 30
0.0
 11
578.2182201162
 21
-108.8344480747
 31
0.0
  0
LWPOLYLINE
  5
226
330
1F
100
AcDbEntity
  8
0
  6
Continuous
 62
     7
370
    25
100
AcDbPolyline
 90
        9
 70
   128
 43
0.0
 10
580.0652045422
 20
-105.8344480747
 10
579.7048757558
 20
-105.8920922335
 10
579.3583942025
 20
-106.0628094771
 10
579.0390749743
 20
-106.3400392378
 10
578.7591893299
 20
-106.7131277311
 10
578.5294931176
 20
-107.1677373756
 10
578.3588134342
 20
-107.6863977776
 10
578.2537094041
 20
-108.2491771086
 10
578.2182201162
 20
-108.8344480747
  0
LINE
  5
227
330
1F
100
AcDbEntity
  8
0
  6
Continuous
 62
     7
370
    25
100
AcDbLine
 10
580.0652045422
 20
-105.8344480747
 30
0.0
 11
811.7244921113
 21
-105.8344480747
 31
0.0
  0
LINE
  5
228
330
1F
100
AcDbEntity
  8
0
  6
Continuous
 62
     7
370
    25
100
AcDbLine
 10
578.2182201162
 20
-117.8344480747
 30
0.0
 11
809.8775076854
 21
-117.8344480747
 31
0.0
  0
LWPOLYLINE
  5
229
330
1F
100
AcDbEntity
  8
0
  6
Continuous
 62
     7
370
    25
100
AcDbPolyline
 90
        9
 70
   128
 43
0.0
 10
578.2182201162
 20
-117.8344480747
 10
578.2537094041
 20
-118.4197190407
 10
578.3588134342
 20
-118.9824983718
 10
578.5294931176
 20
-119.5011587737
 10
578.7591893299
 20
-119.9557684182
 10
579.0390749743
 20
-120.3288569116
 10
579.3583942025
 20
-120.6060866722
 10
579.7048757558
 20
-120.7768039159
 10
580.0652045422
 20
-120.8344480747
  0
LINE
  5
22A
330
1F
100
AcDbEntity
  8
0
  6
Continuous
 62
     7
370
    25
100
AcDbLine
 10
811.7244921113
 20
-120.8344480747
 30
0.0
 11
580.0652045422
 21
-120.8344480747
 31
0.0
  0
LINE
  5
22B
330
1F
100
AcDbEntity
  8
0
  6
Continuous
 62
     7
370
    25
100
AcDbLine
 10
578.2182201162
 20
-117.8344480747
 30
0.0
 11
578.2182201162
 21
-108.8344480747
 31
0.0
  0
LINE
  5
22C
330
1F
100
AcDbEntity
  8
0
  6
Continuous
 62
     7
370
    25
100
AcDbLine
 10
1002.5089004949
 20
-120.8344480747
 30
0.0
 11
988.7502455501
 21
-120.8344480747
 31
0.0
  0
LINE
  5
22D
330
1F
100
AcDbEntity
  8
0
  6
Continuous
 62
     7
370
    25
100
AcDbLine
 10
580.0652045422
 20
-120.8344480747
 30
0.0
 11
571.6097569994
 21
-120.8344480747
 31
0.0
  0
LINE
  5
22E
330
1F
100
AcDbEntity
  8
0
  6
Continuous
 62
     7
370
    25
100
AcDbLine
 10
1323.9521993058
 20
-93.8344480747
 30
0.0
 11
1299.3257402928
 21
-93.8344480747
 31
0.0
  0
LWPOLYLINE
  5
22F
330
1F
100
AcDbEntity
  8
0
  6
Continuous
 62
     7
370
    25
100
AcDbPolyline
 90
        9
 70
   128
 43
0.0
 10
1299.3257402928
 20
-93.8344480747
 10
1299.3612295806
 20
-93.2491771086
 10
1299.4663336107
 20
-92.6863977776
 10
1299.6370132942
 20
-92.1677373756
 10
1299.8667095064
 20
-91.7131277311
 10
1300.1465951508
 20
-91.3400392378
 10
1300.4659143791
 20
-91.0628094771
 10
1300.8123959323
 20
-90.8920922335
 10
1301.1727247188
 20
-90.8344480747
  0
LINE
  5
230
330
1F
100
AcDbEntity
  8
0
  6
Continuous
 62
     7
370
    25
100
AcDbLine
 10
1301.1727247188
 20
-90.8344480747
 30
0.0
 11
1323.9521993058
 21
-90.8344480747
 31
0.0
  0
LINE
  5
231
330
1F
100
AcDbEntity
  8
0
  6
Continuous
 62
     7
370
    25
100
AcDbLine
 10
1323.9521993058
 20
-93.8344480747
 30
0.0
 11
1323.9521993058
 21
-90.8344480747
 31
0.0
  0
LINE
  5
232
330
1F
100
AcDbEntity
  8
0
  6
Continuous
 62
     7
370
    25
100
AcDbLine
 10
1323.9521993058
 20
-105.8344480747
 30
0.0
 11
1301.1727247188
 21
-105.8344480747
 31
0.0
  0
LWPOLYLINE
  5
233
330
1F
100
AcDbEntity
  8
0
  6
Continuous
 62
     7
370
    25
100
AcDbPolyline
 90
        9
 70
   128
 43
0.0
 10
1301.1727247188
 20
-105.8344480747
 10
1300.8123959323
 20
-105.7768039159
 10
1300.4659143791
 20
-105.6060866722
 10
1300.1465951508
 20
-105.3288569116
 10
1299.8667095064
 20
-104.9557684182
 10
1299.6370132942
 20
-104.5011587737
 10
1299.4663336107
 20
-103.9824983718
 10
1299.3612295806
 20
-103.4197190407
 10
1299.3257402928
 20
-102.8344480747
  0
LINE
  5
234
330
1F
100
AcDbEntity
  8
0
  6
Continuous
 62
     7
370
    25
100
AcDbLine
 10
1299.3257402928
 20
-102.8344480747
 30
0.0
 11
1323.9521993058
 21
-102.8344480747
 31
0.0
  0
LINE
  5
235
330
1F
100
AcDbEntity
  8
0
  6
Continuous
 62
     7
370
    25
100
AcDbLine
 10
1323.9521993058
 20
-105.8344480747
 30
0.0
 11
1323.9521993058
 21
-102.8344480747
 31
0.0
  0
LINE
  5
236
330
1F
100
AcDbEntity
  8
0
  6
Continuous
 62
     7
370
    25
100
AcDbLine
 10
1323.9521993058
 20
-93.8344480747
 30
0.0
 11
1323.9521993058
 21
-102.8344480747
 31
0.0
  0
LINE
  5
237
330
1F
100
AcDbEntity
  8
0
  6
Continuous
 62
     7
370
    25
100
AcDbLine
 10
1299.3257402928
 20
-93.8344480747
 30
0.0
 11
1299.3257402928
 21
-102.8344480747
 31
0.0
  0
LINE
  5
238
330
1F
100
AcDbEntity
  8
0
  6
Continuous
 62
     7
370
    25
100
AcDbLine
 10
1342.6299623854
 20
-105.8344480747
 30
0.0
 11
1323.9521993058
 21
-105.8344480747
 31
0.0
  0
LINE
  5
239
330
1F
100
AcDbEntity
  8
0
  6
Continuous
 62
     7
370
    25
100
AcDbLine
 10
1323.9521993058
 20
-90.8344480747
 30
0.0
 11
1345.6299623854
 21
-90.8344480747
 31
0.0
  0
LINE
  5
23A
330
1F
100
AcDbEntity
  8
0
  6
Continuous
 62
     7
370
    25
100
AcDbLine
 10
1387.1299623854
 20
-105.8344480747
 30
0.0
 11
1354.6299623854
 21
-105.8344480747
 31
0.0
  0
LINE
  5
23B
330
1F
100
AcDbEntity
  8
0
  6
Continuous
 62
     7
370
    25
100
AcDbLine
 10
1351.6299623858
 20
-90.8344480747
 30
0.0
 11
1387.1299623854
 21
-90.8344480747
 31
0.0
  0
LINE
  5
23C
330
1F
100
AcDbEntity
  8
0
  6
Continuous
 62
     7
370
    25
100
AcDbLine
 10
1299.3257402928
 20
-93.8344480747
 30
0.0
 11
605.2105119641
 21
-93.8344480747
 31
0.0
  0
LWPOLYLINE
  5
23D
330
1F
100
AcDbEntity
  8
0
  6
Continuous
 62
     7
370
    25
100
AcDbPolyline
 90
        9
 70
   128
 43
0.0
 10
605.2105119641
 20
-93.8344480747
 10
605.2460012519
 20
-93.2491771086
 10
605.351105282
 20
-92.6863977776
 10
605.5217849655
 20
-92.1677373756
 10
605.7514811777
 20
-91.7131277311
 10
606.0313668221
 20
-91.3400392378
 10
606.3506860504
 20
-91.0628094771
 10
606.6971676036
 20
-90.8920922335
 10
607.0574963901
 20
-90.8344480747
  0
LINE
  5
23E
330
1F
100
AcDbEntity
  8
0
  6
Continuous
 62
     7
370
    25
100
AcDbLine
 10
607.0574963901
 20
-90.8344480747
 30
0.0
 11
1301.1727247188
 21
-90.8344480747
 31
0.0
  0
LINE
  5
23F
330
1F
100
AcDbEntity
  8
0
  6
Continuous
 62
     7
370
    25
100
AcDbLine
 10
605.2105119641
 20
-102.8344480747
 30
0.0
 11
1299.3257402928
 21
-102.8344480747
 31
0.0
  0
LINE
  5
240
330
1F
100
AcDbEntity
  8
0
  6
Continuous
 62
     7
370
    25
100
AcDbLine
 10
605.2105119641
 20
-102.8344480747
 30
0.0
 11
605.2105119641
 21
-93.8344480747
 31
0.0
  0
LWPOLYLINE
  5
241
330
1F
100
AcDbEntity
  8
0
  6
Continuous
 62
     7
370
    25
100
AcDbPolyline
 90
        9
 70
   128
 43
0.0
 10
607.0574963901
 20
-105.8344480747
 10
606.6971676036
 20
-105.7768039159
 10
606.3506860504
 20
-105.6060866722
 10
606.0313668221
 20
-105.3288569116
 10
605.7514811777
 20
-104.9557684182
 10
605.5217849655
 20
-104.5011587737
 10
605.351105282
 20
-103.9824983718
 10
605.2460012519
 20
-103.4197190407
 10
605.2105119641
 20
-102.8344480747
  0
LINE
  5
242
330
1F
100
AcDbEntity
  8
0
  6
Continuous
 62
     7
370
    25
100
AcDbLine
 10
1301.1727247188
 20
-105.8344480747
 30
0.0
 11
607.0574963901
 21
-105.8344480747
 31
0.0
  0
LINE
  5
243
330
1F
100
AcDbEntity
  8
0
  6
Continuous
 62
     7
370
    25
100
AcDbLine
 10
-123.7826142385
 20
-122.5344480747
 30
0.0
 11
-96.7826142385
 21
-122.5344480747
 31
0.0
  0
LINE
  5
244
330
1F
100
AcDbEntity
  8
0
  6
Continuous
 62
     7
370
    25
100
AcDbLine
 10
838.7687320811
 20
445.8655519253
 30
0.0
 11
811.7687320811
 21
445.8655519253
 31
0.0
  0
LINE
  5
245
330
1F
100
AcDbEntity
  8
0
  6
Continuous
 62
     7
370
    25
100
AcDbLine
 10
266.8145573393
 20
430.8655519253
 30
0.0
 11
248.1433957304
 21
430.8655519253
 31
0.0
  0
LINE
  5
246
330
1F
100
AcDbEntity
  8
0
  6
Continuous
 62
     7
370
    25
100
AcDbLine
 10
-1206.9010672817
 20
430.8655519253
 30
0.0
 11
-1233.9010672817
 21
430.8655519253
 31
0.0
  0
LINE
  5
247
330
1F
100
AcDbEntity
  8
0
  6
Continuous
 62
     7
370
    25
100
AcDbLine
 10
-1233.9010672817
 20
-122.5344480747
 30
0.0
 11
-1207.0040637083
 21
-122.5344480747
 31
0.0
  0
LINE
  5
248
330
1F
100
AcDbEntity
  8
0
  6
Continuous
 62
     7
370
    25
100
AcDbLine
 10
-96.7826142385
 20
430.8655519253
 30
0.0
 11
-115.4537758474
 21
430.8655519253
 31
0.0
  0
LINE
  5
249
330
1F
100
AcDbEntity
  8
0
  6
Continuous
 62
     7
370
    25
100
AcDbLine
 10
-1110.1419348843
 20
430.8655519253
 30
0.0
 11
-1128.8130964931
 21
430.8655519253
 31
0.0
  0
LINE
  5
24A
330
1F
100
AcDbEntity
  8
0
  6
Continuous
 62
     7
370
    25
100
AcDbLine
 10
239.8145573393
 20
-122.5344480747
 30
0.0
 11
266.8145573393
 21
-122.5344480747
 31
0.0
  0
LINE
  5
24B
330
1F
100
AcDbEntity
  8
0
  6
Continuous
 62
     7
370
    25
100
AcDbLine
 10
-487.3797858163
 20
-122.5344480747
 30
0.0
 11
-460.3797858163
 21
-122.5344480747
 31
0.0
  0
LINE
  5
24C
330
1F
100
AcDbEntity
  8
0
  6
Continuous
 62
     7
370
    25
100
AcDbLine
 10
688.3917289497
 20
445.8655519253
 30
0.0
 11
661.3917289497
 21
445.8655519253
 31
0.0
  0
LINE
  5
24D
330
1F
100
AcDbEntity
  8
0
  6
Continuous
 62
     7
370
    25
100
AcDbLine
 10
994.0089004949
 20
445.8655519253
 30
0.0
 11
975.337738886
 21
445.8655519253
 31
0.0
  0
LINE
  5
24E
330
1F
100
AcDbEntity
  8
0
  6
Continuous
 62
     7
370
    25
100
AcDbLine
 10
1342.6299623854
 20
430.8655519253
 30
0.0
 11
1338.9345991885
 21
430.8655519253
 31
0.0
  0
LINE
  5
24F
330
1F
100
AcDbEntity
  8
0
  6
Continuous
 62
     7
370
    25
100
AcDbLine
 10
-460.3797858163
 20
430.8655519253
 30
0.0
 11
-479.0509474251
 21
430.8655519253
 31
0.0
  0
LINE
  5
250
330
1F
100
AcDbEntity
  8
0
  6
Continuous
 62
     7
370
    25
100
AcDbLine
 10
967.0089004949
 20
-137.5344480747
 30
0.0
 11
994.0089004949
 21
-137.5344480747
 31
0.0
  0
LINE
  5
251
330
1F
100
AcDbEntity
  8
0
  6
Continuous
 62
     7
370
    25
100
AcDbLine
 10
-1137.1419348843
 20
-122.5344480747
 30
0.0
 11
-1110.1419348843
 21
-122.5344480747
 31
0.0
  0
LINE
  5
252
330
1F
100
AcDbEntity
  8
0
  6
Continuous
 62
     7
370
    25
100
AcDbLine
 10
-760.0092318768
 20
430.8655519253
 30
0.0
 11
-778.6803934856
 21
430.8655519253
 31
0.0
  0
LINE
  5
253
330
1F
100
AcDbEntity
  8
0
  6
Continuous
 62
     7
370
    25
100
AcDbLine
 10
-787.0092318768
 20
-122.5344480747
 30
0.0
 11
-760.0092318768
 21
-122.5344480747
 31
0.0
  0
LINE
  5
254
330
1F
100
AcDbEntity
  8
0
  6
Continuous
 62
     7
370
    25
100
AcDbLine
 10
607.3097569993
 20
-137.5344480747
 30
0.0
 11
630.4117289171
 21
-137.5344480747
 31
0.0
  0
LINE
  5
255
330
1F
100
AcDbEntity
  8
0
  6
Continuous
 62
     7
370
    25
100
AcDbLine
 10
611.7405673082
 20
445.8655519253
 30
0.0
 11
607.3097569993
 21
445.8655519253
 31
0.0
  0
LINE
  5
256
330
1F
100
AcDbEntity
  8
0
  6
Continuous
 62
     7
370
    25
100
AcDbLine
 10
630.4117289171
 20
445.8655519253
 30
0.0
 11
611.7405673082
 21
445.8655519253
 31
0.0
  0
LINE
  5
257
330
1F
100
AcDbEntity
  8
0
  6
Continuous
 62
     7
370
    25
100
AcDbLine
 10
607.1097569993
 20
445.8655519253
 30
0.0
 11
580.1097569993
 21
445.8655519253
 31
0.0
  0
LWPOLYLINE
  5
258
330
1F
100
AcDbEntity
  8
0
  6
Continuous
 62
     7
370
    25
100
AcDbPolyline
 90
        9
 70
   128
 43
0.0
 10
-578.9513548945
 20
-93.8344480747
 10
-578.9158656067
 20
-93.2491771086
 10
-578.8107615766
 20
-92.6863977776
 10
-578.6400818932
 20
-92.1677373756
 10
-578.4103856809
 20
-91.7131277311
 10
-578.1305000365
 20
-91.3400392378
 10
-577.8111808082
 20
-91.0628094771
 10
-577.464699255
 20
-90.8920922335
 10
-577.1043704686
 20
-90.8344480747
  0
LWPOLYLINE
  5
259
330
1F
100
AcDbEntity
  8
0
  6
Continuous
 62
     7
370
    25
100
AcDbPolyline
 90
        9
 70
   128
 43
0.0
 10
605.2105119641
 20
-93.8344480747
 10
605.2460012519
 20
-93.2491771086
 10
605.351105282
 20
-92.6863977776
 10
605.5217849654
 20
-92.1677373756
 10
605.7514811777
 20
-91.7131277311
 10
606.0313668221
 20
-91.3400392378
 10
606.3506860504
 20
-91.0628094771
 10
606.6971676036
 20
-90.8920922335
 10
607.05749639
 20
-90.8344480747
  0
LINE
  5
25A
330
1F
100
AcDbEntity
  8
0
  6
Continuous
 62
     7
370
    25
100
AcDbLine
 10
605.2105119641
 20
-93.8344480747
 30
0.0
 11
-578.9513548945
 21
-93.8344480747
 31
0.0
  0
LINE
  5
25B
330
1F
100
AcDbEntity
  8
0
  6
Continuous
 62
     7
370
    25
100
AcDbLine
 10
-577.1043704686
 20
-90.8344480747
 30
0.0
 11
607.05749639
 21
-90.8344480747
 31
0.0
  0
LINE
  5
25C
330
1F
100
AcDbEntity
  8
0
  6
Continuous
 62
     7
370
    25
100
AcDbLine
 10
-578.9513548945
 20
-93.8344480747
 30
0.0
 11
-578.9513548945
 21
-102.8344480747
 31
0.0
  0
LINE
  5
25D
330
1F
100
AcDbEntity
  8
0
  6
Continuous
 62
     7
370
    25
100
AcDbLine
 10
-578.9513548945
 20
-102.8344480747
 30
0.0
 11
605.2105119641
 21
-102.8344480747
 31
0.0
  0
LWPOLYLINE
  5
25E
330
1F
100
AcDbEntity
  8
0
  6
Continuous
 62
     7
370
    25
100
AcDbPolyline
 90
        9
 70
   128
 43
0.0
 10
-577.1043704686
 20
-105.8344480747
 10
-577.464699255
 20
-105.7768039159
 10
-577.8111808082
 20
-105.6060866722
 10
-578.1305000365
 20
-105.3288569116
 10
-578.4103856809
 20
-104.9557684182
 10
-578.6400818932
 20
-104.5011587737
 10
-578.8107615766
 20
-103.9824983718
 10
-578.9158656067
 20
-103.4197190407
 10
-578.9513548945
 20
-102.8344480747
  0
LWPOLYLINE
  5
25F
330
1F
100
AcDbEntity
  8
0
  6
Continuous
 62
     7
370
    25
100
AcDbPolyline
 90
        9
 70
   128
 43
0.0
 10
607.05749639
 20
-105.8344480747
 10
606.6971676036
 20
-105.7768039159
 10
606.3506860504
 20
-105.6060866722
 10
606.0313668221
 20
-105.3288569116
 10
605.7514811777
 20
-104.9557684182
 10
605.5217849654
 20
-104.5011587737
 10
605.351105282
 20
-103.9824983718
 10
605.2460012519
 20
-103.4197190407
 10
605.2105119641
 20
-102.8344480747
  0
LINE
  5
260
330
1F
100
AcDbEntity
  8
0
  6
Continuous
 62
     7
370
    25
100
AcDbLine
 10
607.05749639
 20
-105.8344480747
 30
0.0
 11
-577.1043704686
 21
-105.8344480747
 31
0.0
  0
LINE
  5
261
330
1F
100
AcDbEntity
  8
0
  6
Continuous
 62
     7
370
    25
100
AcDbLine
 10
-578.9513548945
 20
-93.8344480747
 30
0.0
 11
-1122.1330845086
 21
-93.8344480747
 31
0.0
  0
ARC
  5
262
330
1F
100
AcDbEntity
  8
0
  6
Continuous
 62
     7
370
    25
100
AcDbCircle
 10
-1115.7042911818
 20
-93.0955854516
 30
0.0
 40
6.471112857489728
100
AcDbArc
 50
159.5481455603
 51
186.5562503812
  0
LINE
  5
263
330
1F
100
AcDbEntity
  8
0
  6
Continuous
 62
     7
370
    25
100
AcDbLine
 10
-1121.7675047997
 20
-90.8344480747
 30
0.0
 11
-577.1043704686
 21
-90.8344480747
 31
0.0
  0
ARC
  5
264
330
1F
100
AcDbEntity
  8
0
  6
Continuous
 62
     7
370
    25
100
AcDbCircle
 10
-1115.7042911818
 20
-103.5733106977
 30
0.0
 40
6.471112857506436
100
AcDbArc
 50
173.4437496189
 51
200.4518544397
  0
LINE
  5
265
330
1F
100
AcDbEntity
  8
0
  6
Continuous
 62
     7
370
    25
100
AcDbLine
 10
-1122.1330845086
 20
-102.8344480747
 30
0.0
 11
-578.9513548945
 21
-102.8344480747
 31
0.0
  0
LINE
  5
266
330
1F
100
AcDbEntity
  8
0
  6
Continuous
 62
     7
370
    25
100
AcDbLine
 10
-577.1043704686
 20
-105.8344480747
 30
0.0
 11
-1121.7675047997
 21
-105.8344480747
 31
0.0
  0
LINE
  5
267
330
1F
100
AcDbEntity
  8
0
  6
Continuous
 62
     7
370
    25
100
AcDbLine
 10
-1122.1330845086
 20
-93.8344480747
 30
0.0
 11
-1122.1330845086
 21
-102.8344480747
 31
0.0
  0
ARC
  5
268
330
1F
100
AcDbEntity
  8
0
  6
Continuous
 62
     7
370
    25
100
AcDbCircle
 10
-1124.5236331661
 20
-103.5733106977
 30
0.0
 40
6.47111285748571
100
AcDbArc
 50
173.4437496188
 51
200.4518544397
  0
LINE
  5
269
330
1F
100
AcDbEntity
  8
0
  6
Continuous
 62
     7
370
    25
100
AcDbLine
 10
-1130.9524264928
 20
-102.8344480747
 30
0.0
 11
-1122.1330845086
 21
-102.8344480747
 31
0.0
  0
LINE
  5
26A
330
1F
100
AcDbEntity
  8
0
  6
Continuous
 62
     7
370
    25
100
AcDbLine
 10
-1121.7675047997
 20
-105.8344480747
 30
0.0
 11
-1130.586846784
 21
-105.8344480747
 31
0.0
  0
LINE
  5
26B
330
1F
100
AcDbEntity
  8
0
  6
Continuous
 62
     7
370
    25
100
AcDbLine
 10
-1122.1330845086
 20
-93.8344480747
 30
0.0
 11
-1130.9524264928
 21
-93.8344480747
 31
0.0
  0
ARC
  5
26C
330
1F
100
AcDbEntity
  8
0
  6
Continuous
 62
     7
370
    25
100
AcDbCircle
 10
-1124.523633166
 20
-93.0955854516
 30
0.0
 40
6.471112857504861
100
AcDbArc
 50
159.5481455603
 51
186.5562503812
  0
LINE
  5
26D
330
1F
100
AcDbEntity
  8
0
  6
Continuous
 62
     7
370
    25
100
AcDbLine
 10
-1130.586846784
 20
-90.8344480747
 30
0.0
 11
-1121.7675047997
 21
-90.8344480747
 31
0.0
  0
LINE
  5
26E
330
1F
100
AcDbEntity
  8
0
  6
Continuous
 62
     7
370
    25
100
AcDbLine
 10
-1130.9524264928
 20
-93.8344480747
 30
0.0
 11
-1130.9524264928
 21
-102.8344480747
 31
0.0
  0
LINE
  5
26F
330
1F
100
AcDbEntity
  8
0
  6
Continuous
 62
     7
370
    25
100
AcDbLine
 10
-1266.528294108
 20
-90.8344480747
 30
0.0
 11
-1130.586846784
 21
-90.8344480747
 31
0.0
  0
LINE
  5
270
330
1F
100
AcDbEntity
  8
0
  6
Continuous
 62
     7
370
    25
100
AcDbLine
 10
-1130.586846784
 20
-105.8344480747
 30
0.0
 11
-1266.528294108
 21
-105.8344480747
 31
0.0
  0
ARC
  5
271
330
1F
100
AcDbEntity
  8
0
  6
Continuous
 62
     7
370
    25
100
AcDbCircle
 10
1474.2763805253
 20
-134.6102260818
 30
0.0
 40
58.96921691222552
100
AcDbArc
 50
179.7979090289
 51
182.9969396665
  0
ARC
  5
272
330
1F
100
AcDbEntity
  8
0
  6
Continuous
 62
     7
370
    25
100
AcDbCircle
 10
1469.6115505059
 20
-136.4637781031
 30
0.0
 40
54.23767408478911
100
AcDbArc
 50
181.2989483387
 51
184.1601053047
  0
LWPOLYLINE
  5
273
330
1F
100
AcDbEntity
  8
0
  6
Continuous
 62
     7
370
    25
100
AcDbPolyline
 90
       17
 70
   128
 43
0.0
 10
1416.7045868708
 20
-137.4330356313
 10
1416.6940991702
 20
-137.1225920922
 10
1416.6861852604
 20
-136.8475146025
 10
1416.6820499623
 20
-136.6496812166
 10
1416.6823228376
 20
-136.5592102741
 10
1416.6869623436
 20
-136.5898751558
 10
1416.6952621574
 20
-136.7370074115
 10
1416.7059587076
 20
-136.9782074891
 10
1416.7174235416
 20
-137.2767548631
 10
1416.7279112421
 20
-137.5871984023
 10
1416.7358251519
 20
-137.8622758919
 10
1416.73996045
 20
-138.0601092778
 10
1416.7396875747
 20
-138.1505802203
 10
1416.7350480688
 20
-138.1199153386
 10
1416.726748255
 20
-137.9727830829
 10
1416.7160517047
 20
-137.7315830053
 10
1416.7045868708
 20
-137.4330356313
  0
ARC
  5
274
330
1F
100
AcDbEntity
  8
0
  6
Continuous
 62
     7
370
    25
100
AcDbCircle
 10
1504.9167668752
 20
442.6030686261
 30
0.0
 40
89.60938819575311
100
AcDbArc
 50
176.0798854242
 51
179.9167345977
  0
LWPOLYLINE
  5
275
330
1F
100
AcDbEntity
  8
0
  6
Continuous
 62
     7
370
    25
100
AcDbPolyline
 90
       17
 70
   128
 43
0.0
 10
1416.7174235416
 20
445.6078587138
 10
1416.7059587076
 20
445.3093113397
 10
1416.6952621574
 20
445.0681112622
 10
1416.6869623436
 20
444.9209790065
 10
1416.6823228376
 20
444.8903141247
 10
1416.6820499623
 20
444.9807850673
 10
1416.6861852604
 20
445.1786184532
 10
1416.6940991702
 20
445.4536959428
 10
1416.7045868708
 20
445.764139482
 10
1416.7160517047
 20
446.062686856
 10
1416.726748255
 20
446.3038869335
 10
1416.7350480688
 20
446.4510191893
 10
1416.7396875747
 20
446.481684071
 10
1416.73996045
 20
446.3912131285
 10
1416.7358251519
 20
446.1933797426
 10
1416.7279112421
 20
445.9183022529
 10
1416.7174235416
 20
445.6078587138
  0
LINE
  5
276
330
1F
100
AcDbEntity
  8
0
  6
Continuous
 62
     7
370
    25
100
AcDbLine
 10
1419.4112407266
 20
491.6655519253
 30
0.0
 11
1418.8349392742
 21
485.0783961826
 31
0.0
  0
ELLIPSE
  5
277
330
1F
100
AcDbEntity
  8
0
  6
Continuous
 62
     7
370
    25
100
AcDbEllipse
 10
1413.823465226
 20
485.1655519253
 30
0.0
 11
5.011479535987065
 21
-0.08705103151999084
 31
0.0
210
0.0
220
0.0
230
1.0
 40
0.0172806402
 41
4.718775326374509
 42
6.28197545662241
  0
ELLIPSE
  5
278
330
1F
100
AcDbEntity
  8
0
  6
Continuous
 62
     7
370
    25
100
AcDbEllipse
 10
1385.4364595449
 20
485.1655519253
 30
0.0
 11
5.011479535987064
 21
0.08705103152004767
 31
0.0
210
0.0
220
0.0
230
1.0
 40
0.0172806402
 41
3.142802504144018
 42
4.706002634394871
  0
LINE
  5
279
330
1F
100
AcDbEntity
  8
0
  6
Continuous
 62
     7
370
    25
100
AcDbLine
 10
1380.4249854966
 20
485.0783961826
 30
0.0
 11
1379.8486840442
 21
491.6655519253
 31
0.0
  0
LINE
  5
27A
330
1F
100
AcDbEntity
  8
0
  6
Continuous
 62
     7
370
    25
100
AcDbLine
 10
1385.4059589871
 20
485.0783961826
 30
0.0
 11
1413.8539657838
 21
485.0783961826
 31
0.0
  0
ARC
  5
27B
330
1F
100
AcDbEntity
  8
0
  6
Continuous
 62
     7
370
    25
100
AcDbCircle
 10
1417.8387445761
 20
485.1655519253
 30
0.0
 40
1.0
100
AcDbArc
 50
270.0
 51
355.0
  0
LINE
  5
27C
330
1F
100
AcDbEntity
  8
0
  6
Continuous
 62
     7
370
    25
100
AcDbLine
 10
1417.8387445761
 20
484.1655519253
 30
0.0
 11
1413.8539657838
 21
484.1655519253
 31
0.0
  0
LINE
  5
27D
330
1F
100
AcDbEntity
  8
0
  6
Continuous
 62
     7
370
    25
100
AcDbLine
 10
1413.8539657838
 20
485.0783961826
 30
0.0
 11
1413.8539657838
 21
484.1655519253
 31
0.0
  0
LINE
  5
27E
330
1F
100
AcDbEntity
  8
0
  6
Continuous
 62
     7
370
    25
100
AcDbLine
 10
1385.4059589871
 20
484.1655519253
 30
0.0
 11
1381.4211801947
 21
484.1655519253
 31
0.0
  0
ARC
  5
27F
330
1F
100
AcDbEntity
  8
0
  6
Continuous
 62
     7
370
    25
100
AcDbCircle
 10
1381.4211801947
 20
485.1655519253
 30
0.0
 40
1.0
100
AcDbArc
 50
185.0
 51
270.0
  0
LINE
  5
280
330
1F
100
AcDbEntity
  8
0
  6
Continuous
 62
     7
370
    25
100
AcDbLine
 10
1385.4059589871
 20
485.0783961826
 30
0.0
 11
1385.4059589871
 21
484.1655519253
 31
0.0
  0
LINE
  5
281
330
1F
100
AcDbEntity
  8
0
  6
Continuous
 62
     7
370
    25
100
AcDbLine
 10
1413.8539657838
 20
484.1655519253
 30
0.0
 11
1385.4059589871
 21
484.1655519253
 31
0.0
  0
LINE
  5
282
330
1F
100
AcDbEntity
  8
0
  6
Continuous
 62
     7
370
    25
100
AcDbLine
 10
1399.6299623854
 20
432.1655519253
 30
0.0
 11
1385.2864178091
 21
432.1655519253
 31
0.0
  0
LINE
  5
283
330
1F
100
AcDbEntity
  8
0
  6
Continuous
 62
     7
370
    25
100
AcDbLine
 10
1413.9735069618
 20
432.1655519253
 30
0.0
 11
1399.6299623854
 21
432.1655519253
 31
0.0
  0
LINE
  5
284
330
1F
100
AcDbEntity
  8
0
  6
Continuous
 62
     7
370
    25
100
AcDbLine
 10
1379.8486840442
 20
-183.3344480747
 30
0.0
 11
1380.4249854966
 21
-176.7472923319
 31
0.0
  0
ELLIPSE
  5
285
330
1F
100
AcDbEntity
  8
0
  6
Continuous
 62
     7
370
    25
100
AcDbEllipse
 10
1385.4364595449
 20
-176.8344480747
 30
0.0
 11
5.011479535987064
 21
-0.08705103151996241
 31
0.0
210
0.0
220
0.0
230
1.0
 40
0.0172806402
 41
1.577182672784714
 42
3.140382803034089
  0
ELLIPSE
  5
286
330
1F
100
AcDbEntity
  8
0
  6
Continuous
 62
     7
370
    25
100
AcDbEllipse
 10
1413.823465226
 20
-176.8344480747
 30
0.0
 11
5.011479535987064
 21
0.08705103151996241
 31
0.0
210
0.0
220
0.0
230
1.0
 40
0.0172806402
 41
0.0012098505589819
 42
1.56440998080508
  0
LINE
  5
287
330
1F
100
AcDbEntity
  8
0
  6
Continuous
 62
     7
370
    25
100
AcDbLine
 10
1418.8349392742
 20
-176.7472923319
 30
0.0
 11
1419.4112407266
 21
-183.3344480747
 31
0.0
  0
LINE
  5
288
330
1F
100
AcDbEntity
  8
0
  6
Continuous
 62
     7
370
    25
100
AcDbLine
 10
1413.8539657838
 20
-176.7472923319
 30
0.0
 11
1385.4059589871
 21
-176.7472923319
 31
0.0
  0
LINE
  5
289
330
1F
100
AcDbEntity
  8
0
  6
Continuous
 62
     7
370
    25
100
AcDbLine
 10
1381.4211801947
 20
-175.8344480747
 30
0.0
 11
1385.4059589871
 21
-175.8344480747
 31
0.0
  0
LINE
  5
28A
330
1F
100
AcDbEntity
  8
0
  6
Continuous
 62
     7
370
    25
100
AcDbLine
 10
1385.4059589871
 20
-175.8344480747
 30
0.0
 11
1385.4059589871
 21
-176.7472923319
 31
0.0
  0
ARC
  5
28B
330
1F
100
AcDbEntity
  8
0
  6
Continuous
 62
     7
370
    25
100
AcDbCircle
 10
1381.4211801947
 20
-176.8344480747
 30
0.0
 40
1.0
100
AcDbArc
 50
90.0
 51
175.0
  0
LINE
  5
28C
330
1F
100
AcDbEntity
  8
0
  6
Continuous
 62
     7
370
    25
100
AcDbLine
 10
1385.4059589871
 20
-175.8344480747
 30
0.0
 11
1413.8539657838
 21
-175.8344480747
 31
0.0
  0
LINE
  5
28D
330
1F
100
AcDbEntity
  8
0
  6
Continuous
 62
     7
370
    25
100
AcDbLine
 10
1413.8539657838
 20
-175.8344480747
 30
0.0
 11
1413.8539657838
 21
-176.7472923319
 31
0.0
  0
LINE
  5
28E
330
1F
100
AcDbEntity
  8
0
  6
Continuous
 62
     7
370
    25
100
AcDbLine
 10
1413.8539657838
 20
-175.8344480747
 30
0.0
 11
1417.8387445761
 21
-175.8344480747
 31
0.0
  0
ARC
  5
28F
330
1F
100
AcDbEntity
  8
0
  6
Continuous
 62
     7
370
    25
100
AcDbCircle
 10
1417.8387445761
 20
-176.8344480747
 30
0.0
 40
1.0
100
AcDbArc
 50
5.0
 51
90.0
  0
ARC
  5
290
330
1F
100
AcDbEntity
  8
0
  6
Continuous
 62
     7
370
    25
100
AcDbCircle
 10
1428.8510709555
 20
-136.9347629063
 30
0.0
 40
13.56612915149487
100
AcDbArc
 50
175.3894439639
 51
187.6111969523
  0
LINE
  5
291
330
1F
100
AcDbEntity
  8
0
  6
Continuous
 62
     7
370
    25
100
AcDbLine
 10
1385.2864178091
 20
-123.8344480747
 30
0.0
 11
1413.9735069618
 21
-123.8344480747
 31
0.0
  0
LINE
  5
292
330
1F
100
AcDbEntity
  8
0
  6
Continuous
 62
     7
370
    25
100
AcDbLine
 10
1351.6299623854
 20
515.692588372
 30
0.0
 11
1351.6299623854
 21
539.1655519253
 31
0.0
  0
LINE
  5
293
330
1F
100
AcDbEntity
  8
0
  6
Continuous
 62
     7
370
    25
100
AcDbLine
 10
1352.1299623854
 20
539.1235918169
 30
0.0
 11
1351.6299623854
 21
539.1655519253
 31
0.0
  0
LINE
  5
294
330
1F
100
AcDbEntity
  8
0
  6
Continuous
 62
     7
370
    25
100
AcDbLine
 10
1345.6299623854
 20
539.1655519253
 30
0.0
 11
1345.6299623854
 21
515.692588372
 31
0.0
  0
LINE
  5
295
330
1F
100
AcDbEntity
  8
0
  6
Continuous
 62
     7
370
    25
100
AcDbLine
 10
1345.6299623854
 20
539.1655519253
 30
0.0
 11
1351.6299623854
 21
539.1655519253
 31
0.0
  0
LINE
  5
296
330
1F
100
AcDbEntity
  8
0
  6
Continuous
 62
     7
370
    25
100
AcDbLine
 10
1345.6299623854
 20
515.692588372
 30
0.0
 11
1351.6299623854
 21
515.692588372
 31
0.0
  0
ARC
  5
297
330
1F
100
AcDbEntity
  8
0
  6
Continuous
 62
     7
370
    25
100
AcDbCircle
 10
1344.9025776526
 20
520.4023746341
 30
0.0
 40
4.765624322603386
100
AcDbArc
 50
241.5183868198
 51
278.7794609471
  0
LINE
  5
298
330
1F
100
AcDbEntity
  8
0
  6
Continuous
 62
     7
370
    25
100
AcDbLine
 10
1342.6299623854
 20
516.213532905
 30
0.0
 11
1342.6299623854
 21
536.1655519253
 31
0.0
  0
ARC
  5
299
330
1F
100
AcDbEntity
  8
0
  6
Continuous
 62
     7
370
    25
100
AcDbCircle
 10
1345.6299623854
 20
536.1655519253
 30
0.0
 40
3.000000000002274
100
AcDbArc
 50
90.0
 51
180.0
  0
LINE
  5
29A
330
1F
100
AcDbEntity
  8
0
  6
Continuous
 62
     7
370
    25
100
AcDbLine
 10
1345.6299623854
 20
515.692588372
 30
0.0
 11
1345.6299623854
 21
418.171643839
 31
0.0
  0
LINE
  5
29B
330
1F
100
AcDbEntity
  8
0
  6
Continuous
 62
     7
370
    25
100
AcDbLine
 10
1351.6299623854
 20
418.171643839
 30
0.0
 11
1351.6299623854
 21
515.692588372
 31
0.0
  0
LINE
  5
29C
330
1F
100
AcDbEntity
  8
0
  6
Continuous
 62
     7
370
    25
100
AcDbLine
 10
1345.6299623854
 20
418.171643839
 30
0.0
 11
1351.6299623854
 21
418.171643839
 31
0.0
  0
LINE
  5
29D
330
1F
100
AcDbEntity
  8
0
  6
Continuous
 62
     7
370
    25
100
AcDbLine
 10
1354.6299623854
 20
492.6209788752
 30
0.0
 11
1354.6299623854
 21
418.692588372
 31
0.0
  0
ARC
  5
29E
330
1F
100
AcDbEntity
  8
0
  6
Continuous
 62
     7
370
    25
100
AcDbCircle
 10
1352.3573471182
 20
422.8814301011
 30
0.0
 40
4.765624322609003
100
AcDbArc
 50
261.2205390529
 51
298.4816131802
  0
ARC
  5
29F
330
1F
100
AcDbEntity
  8
0
  6
Continuous
 62
     7
370
    25
100
AcDbCircle
 10
1344.9025776526
 20
422.8814301011
 30
0.0
 40
4.765624322610112
100
AcDbArc
 50
241.5183868198
 51
278.7794609471
  0
LINE
  5
2A0
330
1F
100
AcDbEntity
  8
0
  6
Continuous
 62
     7
370
    25
100
AcDbLine
 10
1342.6299623854
 20
418.692588372
 30
0.0
 11
1342.6299623854
 21
516.213532905
 31
0.0
  0
LINE
  5
2A1
330
1F
100
AcDbEntity
  8
0
  6
Continuous
 62
     7
370
    25
100
AcDbLine
 10
1345.6299623854
 20
418.171643839
 30
0.0
 11
1345.6299623854
 21
399.1655519253
 31
0.0
  0
LINE
  5
2A2
330
1F
100
AcDbEntity
  8
0
  6
Continuous
 62
     7
370
    25
100
AcDbLine
 10
1351.6299623854
 20
399.1655519253
 30
0.0
 11
1351.6299623854
 21
418.171643839
 31
0.0
  0
LINE
  5
2A3
330
1F
100
AcDbEntity
  8
0
  6
Continuous
 62
     7
370
    25
100
AcDbLine
 10
1351.6299623854
 20
399.1655519253
 30
0.0
 11
1345.6299623854
 21
399.1655519253
 31
0.0
  0
ARC
  5
2A4
330
1F
100
AcDbEntity
  8
0
  6
Continuous
 62
     7
370
    25
100
AcDbCircle
 10
1345.6299623854
 20
402.1655519253
 30
0.0
 40
3.0
100
AcDbArc
 50
180.0
 51
270.0
  0
LINE
  5
2A5
330
1F
100
AcDbEntity
  8
0
  6
Continuous
 62
     7
370
    25
100
AcDbLine
 10
1342.6299623854
 20
402.1655519253
 30
0.0
 11
1342.6299623854
 21
418.692588372
 31
0.0
  0
ARC
  5
2A6
330
1F
100
AcDbEntity
  8
0
  6
Continuous
 62
     7
370
    25
100
AcDbCircle
 10
1351.6299623854
 20
402.1655519253
 30
0.0
 40
3.000000000000227
100
AcDbArc
 50
270.0
 51
0.0
  0
LINE
  5
2A7
330
1F
100
AcDbEntity
  8
0
  6
Continuous
 62
     7
370
    25
100
AcDbLine
 10
1354.6299623854
 20
418.692588372
 30
0.0
 11
1354.6299623854
 21
402.1655519253
 31
0.0
  0
LINE
  5
2A8
330
1F
100
AcDbEntity
  8
0
  6
Continuous
 62
     7
370
    25
100
AcDbLine
 10
1342.6299623854
 20
-227.8344480747
 30
0.0
 11
1342.6299623854
 21
-207.8824290543
 31
0.0
  0
ARC
  5
2A9
330
1F
100
AcDbEntity
  8
0
  6
Continuous
 62
     7
370
    25
100
AcDbCircle
 10
1344.9025776526
 20
-212.0712707835
 30
0.0
 40
4.765624322619822
100
AcDbArc
 50
81.220539053
 51
118.4816131802
  0
LINE
  5
2AA
330
1F
100
AcDbEntity
  8
0
  6
Continuous
 62
     7
370
    25
100
AcDbLine
 10
1345.6299623854
 20
-207.3614845213
 30
0.0
 11
1345.6299623854
 21
-230.8344480747
 31
0.0
  0
ARC
  5
2AB
330
1F
100
AcDbEntity
  8
0
  6
Continuous
 62
     7
370
    25
100
AcDbCircle
 10
1345.6299623854
 20
-227.8344480747
 30
0.0
 40
3.000000000002217
100
AcDbArc
 50
180.0
 51
270.0
  0
LINE
  5
2AC
330
1F
100
AcDbEntity
  8
0
  6
Continuous
 62
     7
370
    25
100
AcDbLine
 10
1351.6299623854
 20
-230.8344480747
 30
0.0
 11
1351.6299623854
 21
-207.3614845213
 31
0.0
  0
LINE
  5
2AD
330
1F
100
AcDbEntity
  8
0
  6
Continuous
 62
     7
370
    25
100
AcDbLine
 10
1351.6299623854
 20
-230.8344480747
 30
0.0
 11
1352.1299623854
 21
-230.7924879662
 31
0.0
  0
LINE
  5
2AE
330
1F
100
AcDbEntity
  8
0
  6
Continuous
 62
     7
370
    25
100
AcDbLine
 10
1351.6299623854
 20
-230.8344480747
 30
0.0
 11
1345.6299623854
 21
-230.8344480747
 31
0.0
  0
LINE
  5
2AF
330
1F
100
AcDbEntity
  8
0
  6
Continuous
 62
     7
370
    25
100
AcDbLine
 10
1351.6299623854
 20
-207.3614845213
 30
0.0
 11
1345.6299623854
 21
-207.3614845213
 31
0.0
  0
LINE
  5
2B0
330
1F
100
AcDbEntity
  8
0
  6
Continuous
 62
     7
370
    25
100
AcDbLine
 10
1351.6299623854
 20
-207.3614845213
 30
0.0
 11
1351.6299623854
 21
-109.8405399883
 31
0.0
  0
LINE
  5
2B1
330
1F
100
AcDbEntity
  8
0
  6
Continuous
 62
     7
370
    25
100
AcDbLine
 10
1345.6299623854
 20
-109.8405399883
 30
0.0
 11
1345.6299623854
 21
-207.3614845213
 31
0.0
  0
LINE
  5
2B2
330
1F
100
AcDbEntity
  8
0
  6
Continuous
 62
     7
370
    25
100
AcDbLine
 10
1351.6299623854
 20
-109.8405399883
 30
0.0
 11
1345.6299623854
 21
-109.8405399883
 31
0.0
  0
LINE
  5
2B3
330
1F
100
AcDbEntity
  8
0
  6
Continuous
 62
     7
370
    25
100
AcDbLine
 10
1342.6299623854
 20
-207.8824290543
 30
0.0
 11
1342.6299623854
 21
-110.3614845213
 31
0.0
  0
ARC
  5
2B4
330
1F
100
AcDbEntity
  8
0
  6
Continuous
 62
     7
370
    25
100
AcDbCircle
 10
1344.9025776526
 20
-114.5503262504
 30
0.0
 40
4.765624322608921
100
AcDbArc
 50
81.2205390529
 51
118.4816131802
  0
ARC
  5
2B5
330
1F
100
AcDbEntity
  8
0
  6
Continuous
 62
     7
370
    25
100
AcDbCircle
 10
1352.3573471182
 20
-114.5503262505
 30
0.0
 40
4.765624322612791
100
AcDbArc
 50
61.5183868198
 51
98.779460947
  0
LINE
  5
2B6
330
1F
100
AcDbEntity
  8
0
  6
Continuous
 62
     7
370
    25
100
AcDbLine
 10
1354.6299623854
 20
-110.3614845213
 30
0.0
 11
1354.6299623854
 21
-184.2323723465
 31
0.0
  0
ARC
  5
2B7
330
1F
100
AcDbEntity
  8
0
  6
Continuous
 62
     7
370
    25
100
AcDbCircle
 10
1345.6299623854
 20
-93.8344480747
 30
0.0
 40
3.0
100
AcDbArc
 50
90.0
 51
180.0
  0
LINE
  5
2B8
330
1F
100
AcDbEntity
  8
0
  6
Continuous
 62
     7
370
    25
100
AcDbLine
 10
1345.6299623854
 20
-90.8344480747
 30
0.0
 11
1345.6299623854
 21
-109.8405399883
 31
0.0
  0
LINE
  5
2B9
330
1F
100
AcDbEntity
  8
0
  6
Continuous
 62
     7
370
    25
100
AcDbLine
 10
1342.6299623854
 20
-110.3614845213
 30
0.0
 11
1342.6299623854
 21
-93.8344480747
 31
0.0
  0
LINE
  5
2BA
330
1F
100
AcDbEntity
  8
0
  6
Continuous
 62
     7
370
    25
100
AcDbLine
 10
1351.6299623854
 20
-109.8405399883
 30
0.0
 11
1351.6299623854
 21
-90.8344480747
 31
0.0
  0
LINE
  5
2BB
330
1F
100
AcDbEntity
  8
0
  6
Continuous
 62
     7
370
    25
100
AcDbLine
 10
1345.6299623854
 20
-90.8344480747
 30
0.0
 11
1351.6299623854
 21
-90.8344480747
 31
0.0
  0
ARC
  5
2BC
330
1F
100
AcDbEntity
  8
0
  6
Continuous
 62
     7
370
    25
100
AcDbCircle
 10
1351.6299623854
 20
-93.8344480747
 30
0.0
 40
3.000000000000227
100
AcDbArc
 50
0.0
 51
90.0
  0
LINE
  5
2BD
330
1F
100
AcDbEntity
  8
0
  6
Continuous
 62
     7
370
    25
100
AcDbLine
 10
1354.6299623854
 20
-93.8344480747
 30
0.0
 11
1354.6299623854
 21
-110.3614845213
 31
0.0
  0
LINE
  5
2BE
330
1F
100
AcDbEntity
  8
0
  6
Continuous
 62
     7
370
    25
100
AcDbLine
 10
1342.6299623854
 20
-227.8344480747
 30
0.0
 11
1342.6299623854
 21
-228.3344480747
 31
0.0
  0
LINE
  5
2BF
330
1F
100
AcDbEntity
  8
0
  6
Continuous
 62
     7
370
    25
100
AcDbLine
 10
1329.7028777806
 20
-202.0844480747
 30
0.0
 11
1329.7028777806
 21
-223.5844480747
 31
0.0
  0
LINE
  5
2C0
330
1F
100
AcDbEntity
  8
0
  6
Continuous
 62
     7
370
    25
100
AcDbLine
 10
1342.2028777806
 20
-197.3344480747
 30
0.0
 11
1342.2028777806
 21
-228.3344480747
 31
0.0
  0
LINE
  5
2C1
330
1F
100
AcDbEntity
  8
0
  6
Continuous
 62
     7
370
    25
100
AcDbLine
 10
1342.6299623854
 20
536.6655519253
 30
0.0
 11
1342.6299623854
 21
536.1655519253
 31
0.0
  0
LINE
  5
2C2
330
1F
100
AcDbEntity
  8
0
  6
Continuous
 62
     7
370
    25
100
AcDbLine
 10
1342.2028777806
 20
517.8860439932
 30
0.0
 11
1342.2028777806
 21
505.6655519253
 31
0.0
  0
LINE
  5
2C3
330
1F
100
AcDbEntity
  8
0
  6
Continuous
 62
     7
370
    25
100
AcDbLine
 10
1342.2028777806
 20
536.6655519253
 30
0.0
 11
1342.2028777806
 21
517.8860439932
 31
0.0
  0
LINE
  5
2C4
330
1F
100
AcDbEntity
  8
0
  6
Continuous
 62
     7
370
    25
100
AcDbLine
 10
1329.7028777806
 20
518.8910544885
 30
0.0
 11
1329.7028777806
 21
510.4155519253
 31
0.0
  0
LINE
  5
2C5
330
1F
100
AcDbEntity
  8
0
  6
Continuous
 62
     7
370
    25
100
AcDbLine
 10
1329.7028777806
 20
531.9155519253
 30
0.0
 11
1329.7028777806
 21
518.8910544885
 31
0.0
  0
CIRCLE
  5
2C6
330
1F
100
AcDbEntity
  8
0
  6
Continuous
 62
     7
370
    25
100
AcDbCircle
 10
2024.6299623854
 20
379.1655519253
 30
0.0
 40
6.6379214000616
  0
CIRCLE
  5
2C7
330
1F
100
AcDbEntity
  8
0
  6
Continuous
 62
     7
370
    25
100
AcDbCircle
 10
1544.6299623854
 20
-70.8344480747
 30
0.0
 40
6.637921400060959
  0
CIRCLE
  5
2C8
330
1F
100
AcDbEntity
  8
0
  6
Continuous
 62
     7
370
    25
100
AcDbCircle
 10
2024.6299623854
 20
-70.8344480747
 30
0.0
 40
6.637921400060959
  0
CIRCLE
  5
2C9
330
1F
100
AcDbEntity
  8
0
  6
Continuous
 62
     7
370
    25
100
AcDbCircle
 10
1544.6299623854
 20
379.1655519253
 30
0.0
 40
6.637921400061615
  0
CIRCLE
  5
2CA
330
1F
100
AcDbEntity
  8
0
  6
Continuous
 62
     7
370
    25
100
AcDbCircle
 10
2084.6299623854
 20
-155.8344480747
 30
0.0
 40
6.637921400061714
  0
CIRCLE
  5
2CB
330
1F
100
AcDbEntity
  8
0
  6
Continuous
 62
     7
370
    25
100
AcDbCircle
 10
1484.6299623854
 20
464.1655519253
 30
0.0
 40
6.637921400061714
  0
CIRCLE
  5
2CC
330
1F
100
AcDbEntity
  8
0
  6
Continuous
 62
     7
370
    25
100
AcDbCircle
 10
2084.6299623854
 20
464.1655519253
 30
0.0
 40
6.637921400060804
  0
CIRCLE
  5
2CD
330
1F
100
AcDbEntity
  8
0
  6
Continuous
 62
     7
370
    25
100
AcDbCircle
 10
1484.6299623854
 20
-155.8344480747
 30
0.0
 40
6.637921400061032
  0
LINE
  5
2CE
330
1F
100
AcDbEntity
  8
0
  6
Continuous
 62
     7
370
    25
100
AcDbLine
 10
2204.6299623854
 20
491.1655519253
 30
0.0
 11
2201.6299623854
 21
491.1655519253
 31
0.0
  0
LINE
  5
2CF
330
1F
100
AcDbEntity
  8
0
  6
Continuous
 62
     7
370
    25
100
AcDbLine
 10
2204.588002277
 20
491.6655519253
 30
0.0
 11
2204.6299623854
 21
491.1655519253
 31
0.0
  0
LINE
  5
2D0
330
1F
100
AcDbEntity
  8
0
  6
Continuous
 62
     7
370
    25
100
AcDbLine
 10
2204.6299623854
 20
491.1655519253
 30
0.0
 11
2204.6299623854
 21
-182.8344480747
 31
0.0
  0
LINE
  5
2D1
330
1F
100
AcDbEntity
  8
0
  6
Continuous
 62
     7
370
    25
100
AcDbLine
 10
2204.6299623854
 20
-182.8344480747
 30
0.0
 11
2201.6299623854
 21
-182.8344480747
 31
0.0
  0
LINE
  5
2D2
330
1F
100
AcDbEntity
  8
0
  6
Continuous
 62
     7
370
    25
100
AcDbLine
 10
2201.6299623854
 20
-182.8344480747
 30
0.0
 11
2201.6299623854
 21
491.1655519253
 31
0.0
  0
ARC
  5
2D3
330
1F
100
AcDbEntity
  8
0
  6
Continuous
 62
     7
370
    25
100
AcDbCircle
 10
1441.6299623854
 20
497.1655519253
 30
0.0
 40
6.0
100
AcDbArc
 50
270.0
 51
0.0
  0
LINE
  5
2D4
330
1F
100
AcDbEntity
  8
0
  6
Continuous
 62
     7
370
    25
100
AcDbLine
 10
2204.6299623854
 20
-182.8344480747
 30
0.0
 11
2204.588002277
 21
-183.3344480747
 31
0.0
  0
LINE
  5
2D5
330
1F
100
AcDbEntity
  8
0
  6
Continuous
 62
     7
370
    25
100
AcDbLine
 10
1447.6299623854
 20
-265.8344480747
 30
0.0
 11
1447.6299623854
 21
-262.8344480747
 31
0.0
  0
LINE
  5
2D6
330
1F
100
AcDbEntity
  8
0
  6
Continuous
 62
     7
370
    25
100
AcDbLine
 10
1447.6299623854
 20
-265.8344480747
 30
0.0
 11
1447.1299623854
 21
-265.7924879662
 31
0.0
  0
LINE
  5
2D7
330
1F
100
AcDbEntity
  8
0
  6
Continuous
 62
     7
370
    25
100
AcDbLine
 10
2121.6299623854
 20
-262.8344480747
 30
0.0
 11
2121.6299623854
 21
-188.8344480747
 31
0.0
  0
LINE
  5
2D8
330
1F
100
AcDbEntity
  8
0
  6
Continuous
 62
     7
370
    25
100
AcDbLine
 10
1447.6299623854
 20
571.1655519253
 30
0.0
 11
1447.6299623854
 21
497.1655519253
 31
0.0
  0
ARC
  5
2D9
330
1F
100
AcDbEntity
  8
0
  6
Continuous
 62
     7
370
    25
100
AcDbCircle
 10
2127.6299623854
 20
497.1655519253
 30
0.0
 40
6.000000000000455
100
AcDbArc
 50
180.0
 51
270.0
  0
LINE
  5
2DA
330
1F
100
AcDbEntity
  8
0
  6
Continuous
 62
     7
370
    25
100
AcDbLine
 10
2121.6299623854
 20
-265.8344480747
 30
0.0
 11
1447.6299623854
 21
-265.8344480747
 31
0.0
  0
LINE
  5
2DB
330
1F
100
AcDbEntity
  8
0
  6
Continuous
 62
     7
370
    25
100
AcDbLine
 10
1447.6299623854
 20
-262.8344480747
 30
0.0
 11
2121.6299623854
 21
-262.8344480747
 31
0.0
  0
LINE
  5
2DC
330
1F
100
AcDbEntity
  8
0
  6
Continuous
 62
     7
370
    25
100
AcDbLine
 10
2121.6299623854
 20
-265.8344480747
 30
0.0
 11
2121.6299623854
 21
-262.8344480747
 31
0.0
  0
LINE
  5
2DD
330
1F
100
AcDbEntity
  8
0
  6
Continuous
 62
     7
370
    25
100
AcDbLine
 10
1367.6299623854
 20
491.1655519253
 30
0.0
 11
1364.6299623854
 21
491.1655519253
 31
0.0
  0
LINE
  5
2DE
330
1F
100
AcDbEntity
  8
0
  6
Continuous
 62
     7
370
    25
100
AcDbLine
 10
1364.6299623854
 20
491.1655519253
 30
0.0
 11
1364.6719224939
 21
491.6655519253
 31
0.0
  0
ARC
  5
2DF
330
1F
100
AcDbEntity
  8
0
  6
Continuous
 62
     7
370
    25
100
AcDbCircle
 10
2127.6299623854
 20
-188.8344480747
 30
0.0
 40
6.000000000000455
100
AcDbArc
 50
90.0
 51
180.0
  0
LINE
  5
2E0
330
1F
100
AcDbEntity
  8
0
  6
Continuous
 62
     7
370
    25
100
AcDbLine
 10
2122.1299623854
 20
-265.7924879662
 30
0.0
 11
2121.6299623854
 21
-265.8344480747
 31
0.0
  0
ARC
  5
2E1
330
1F
100
AcDbEntity
  8
0
  6
Continuous
 62
     7
370
    25
100
AcDbCircle
 10
1441.6299623854
 20
-188.8344480747
 30
0.0
 40
6.0
100
AcDbArc
 50
0.0
 51
90.0
  0
LINE
  5
2E2
330
1F
100
AcDbEntity
  8
0
  6
Continuous
 62
     7
370
    25
100
AcDbLine
 10
1447.6299623854
 20
-188.8344480747
 30
0.0
 11
1447.6299623854
 21
-262.8344480747
 31
0.0
  0
LINE
  5
2E3
330
1F
100
AcDbEntity
  8
0
  6
Continuous
 62
     7
370
    25
100
AcDbLine
 10
1367.6299623854
 20
-182.8344480747
 30
0.0
 11
1364.6299623854
 21
-182.8344480747
 31
0.0
  0
LINE
  5
2E4
330
1F
100
AcDbEntity
  8
0
  6
Continuous
 62
     7
370
    25
100
AcDbLine
 10
1364.6299623854
 20
-182.8344480747
 30
0.0
 11
1364.6299623854
 21
-105.8344480747
 31
0.0
  0
LINE
  5
2E5
330
1F
100
AcDbEntity
  8
0
  6
Continuous
 62
     7
370
    25
100
AcDbLine
 10
1364.6299623854
 20
414.1655519253
 30
0.0
 11
1364.6299623854
 21
491.1655519253
 31
0.0
  0
LINE
  5
2E6
330
1F
100
AcDbEntity
  8
0
  6
Continuous
 62
     7
370
    25
100
AcDbLine
 10
2201.6299623854
 20
491.1655519253
 30
0.0
 11
2127.6299623854
 21
491.1655519253
 31
0.0
  0
LINE
  5
2E7
330
1F
100
AcDbEntity
  8
0
  6
Continuous
 62
     7
370
    25
100
AcDbLine
 10
2121.6299623854
 20
571.1655519253
 30
0.0
 11
1447.6299623854
 21
571.1655519253
 31
0.0
  0
LINE
  5
2E8
330
1F
100
AcDbEntity
  8
0
  6
Continuous
 62
     7
370
    25
100
AcDbLine
 10
2121.6299623854
 20
497.1655519253
 30
0.0
 11
2121.6299623854
 21
571.1655519253
 31
0.0
  0
LINE
  5
2E9
330
1F
100
AcDbEntity
  8
0
  6
Continuous
 62
     7
370
    25
100
AcDbLine
 10
2127.6299623854
 20
-182.8344480747
 30
0.0
 11
2201.6299623854
 21
-182.8344480747
 31
0.0
  0
LINE
  5
2EA
330
1F
100
AcDbEntity
  8
0
  6
Continuous
 62
     7
370
    25
100
AcDbLine
 10
2121.6299623854
 20
571.1655519253
 30
0.0
 11
2121.6299623854
 21
574.1655519253
 31
0.0
  0
LINE
  5
2EB
330
1F
100
AcDbEntity
  8
0
  6
Continuous
 62
     7
370
    25
100
AcDbLine
 10
2121.6299623854
 20
574.1655519253
 30
0.0
 11
2122.1299623854
 21
574.1235918169
 31
0.0
  0
LINE
  5
2EC
330
1F
100
AcDbEntity
  8
0
  6
Continuous
 62
     7
370
    25
100
AcDbLine
 10
1447.1299623854
 20
574.1235918169
 30
0.0
 11
1447.6299623854
 21
574.1655519253
 31
0.0
  0
LINE
  5
2ED
330
1F
100
AcDbEntity
  8
0
  6
Continuous
 62
     7
370
    25
100
AcDbLine
 10
1447.6299623854
 20
571.1655519253
 30
0.0
 11
1447.6299623854
 21
574.1655519253
 31
0.0
  0
LINE
  5
2EE
330
1F
100
AcDbEntity
  8
0
  6
Continuous
 62
     7
370
    25
100
AcDbLine
 10
1364.6719224939
 20
-183.3344480747
 30
0.0
 11
1364.6299623854
 21
-182.8344480747
 31
0.0
  0
LINE
  5
2EF
330
1F
100
AcDbEntity
  8
0
  6
Continuous
 62
     7
370
    25
100
AcDbLine
 10
1447.6299623854
 20
574.1655519253
 30
0.0
 11
2121.6299623854
 21
574.1655519253
 31
0.0
  0
LINE
  5
2F0
330
1F
100
AcDbEntity
  8
0
  6
Continuous
 62
     7
370
    25
100
AcDbLine
 10
1364.6299623854
 20
-182.8344480747
 30
0.0
 11
1364.6299623854
 21
-183.3344480747
 31
0.0
  0
LINE
  5
2F1
330
1F
100
AcDbEntity
  8
0
  6
Continuous
 62
     7
370
    25
100
AcDbLine
 10
2204.6299623854
 20
-182.8344480747
 30
0.0
 11
2204.6299623854
 21
-183.3344480747
 31
0.0
  0
LINE
  5
2F2
330
1F
100
AcDbEntity
  8
0
  6
Continuous
 62
     7
370
    25
100
AcDbLine
 10
1364.6299623854
 20
491.1655519253
 30
0.0
 11
1364.6299623854
 21
491.6655519253
 31
0.0
  0
LINE
  5
2F3
330
1F
100
AcDbEntity
  8
0
  6
Continuous
 62
     7
370
    25
100
AcDbLine
 10
2204.6299623854
 20
491.1655519253
 30
0.0
 11
2204.6299623854
 21
491.6655519253
 31
0.0
  0
ARC
  5
2F4
330
1F
100
AcDbEntity
  8
0
  6
Continuous
 62
     7
370
    25
100
AcDbCircle
 10
1442.2603871034
 20
-273.4648727926
 30
0.0
 40
2.740527303296631
100
AcDbArc
 50
270.0
 51
0.0
  0
LINE
  5
2F5
330
1F
100
AcDbEntity
  8
0
  6
Continuous
 62
     7
370
    25
100
AcDbLine
 10
1356.9995376675
 20
-276.2054000959
 30
0.0
 11
1442.2603871034
 21
-276.2054000959
 31
0.0
  0
ARC
  5
2F6
330
1F
100
AcDbEntity
  8
0
  6
Continuous
 62
     7
370
    25
100
AcDbCircle
 10
1356.9995376675
 20
-273.4648727926
 30
0.0
 40
2.740527303297313
100
AcDbArc
 50
180.0
 51
270.0
  0
LINE
  5
2F7
330
1F
100
AcDbEntity
  8
0
  6
Continuous
 62
     7
370
    25
100
AcDbLine
 10
1354.2590103642
 20
-188.2040233567
 30
0.0
 11
1354.2590103642
 21
-273.4648727926
 31
0.0
  0
ARC
  5
2F8
330
1F
100
AcDbEntity
  8
0
  6
Continuous
 62
     7
370
    25
100
AcDbCircle
 10
1356.9995376675
 20
-188.2040233567
 30
0.0
 40
2.740527303297995
100
AcDbArc
 50
90.0
 51
180.0
  0
LINE
  5
2F9
330
1F
100
AcDbEntity
  8
0
  6
Continuous
 62
     7
370
    25
100
AcDbLine
 10
1442.2603871034
 20
-185.4634960534
 30
0.0
 11
1356.9995376675
 21
-185.4634960534
 31
0.0
  0
ARC
  5
2FA
330
1F
100
AcDbEntity
  8
0
  6
Continuous
 62
     7
370
    25
100
AcDbCircle
 10
1442.2603871034
 20
-188.2040233567
 30
0.0
 40
2.740527303297
100
AcDbArc
 50
0.0
 51
90.0
  0
LINE
  5
2FB
330
1F
100
AcDbEntity
  8
0
  6
Continuous
 62
     7
370
    25
100
AcDbLine
 10
1445.0009144067
 20
-273.4648727926
 30
0.0
 11
1445.0009144067
 21
-188.2040233567
 31
0.0
  0
ARC
  5
2FC
330
1F
100
AcDbEntity
  8
0
  6
Continuous
 62
     7
370
    25
100
AcDbCircle
 10
1445.3918328894
 20
-190.7941123212
 30
0.0
 40
2.619423238804391
100
AcDbArc
 50
48.4284910907
 51
98.5827922009
  0
LINE
  5
2FD
330
1F
100
AcDbEntity
  8
0
  6
Continuous
 62
     7
370
    25
100
AcDbLine
 10
1447.1299623854
 20
-188.8344480747
 30
0.0
 11
1447.1299623854
 21
-272.8344480747
 31
0.0
  0
ARC
  5
2FE
330
1F
100
AcDbEntity
  8
0
  6
Continuous
 62
     7
370
    25
100
AcDbCircle
 10
1445.3918328894
 20
-270.8747838282
 30
0.0
 40
2.61942323880394
100
AcDbArc
 50
261.4172077991
 51
311.5715089093
  0
LINE
  5
2FF
330
1F
100
AcDbEntity
  8
0
  6
Continuous
 62
     7
370
    25
100
AcDbLine
 10
1357.6299623854
 20
-183.3344480747
 30
0.0
 11
1441.6299623854
 21
-183.3344480747
 31
0.0
  0
ARC
  5
300
330
1F
100
AcDbEntity
  8
0
  6
Continuous
 62
     7
370
    25
100
AcDbCircle
 10
1439.6702981389
 20
-185.0725775707
 30
0.0
 40
2.619423238806086
100
AcDbArc
 50
351.4172077991
 51
41.5715089092
  0
ARC
  5
301
330
1F
100
AcDbEntity
  8
0
  6
Continuous
 62
     7
370
    25
100
AcDbCircle
 10
1359.5896266319
 20
-185.0725775707
 30
0.0
 40
2.619423238798994
100
AcDbArc
 50
138.4284910907
 51
188.5827922009
  0
ARC
  5
302
330
1F
100
AcDbEntity
  8
0
  6
Continuous
 62
     7
370
    25
100
AcDbCircle
 10
1439.6702981389
 20
-276.5963185787
 30
0.0
 40
2.619423238808901
100
AcDbArc
 50
318.4284910908
 51
8.5827922008
  0
LINE
  5
303
330
1F
100
AcDbEntity
  8
0
  6
Continuous
 62
     7
370
    25
100
AcDbLine
 10
1441.6299623854
 20
-278.3344480747
 30
0.0
 11
1357.6299623854
 21
-278.3344480747
 31
0.0
  0
ARC
  5
304
330
1F
100
AcDbEntity
  8
0
  6
Continuous
 62
     7
370
    25
100
AcDbCircle
 10
1359.5896266319
 20
-276.5963185787
 30
0.0
 40
2.619423238800532
100
AcDbArc
 50
171.4172077991
 51
221.5715089093
  0
LINE
  5
305
330
1F
100
AcDbEntity
  8
0
  6
Continuous
 62
     7
370
    25
100
AcDbLine
 10
1352.1299623854
 20
-272.8344480747
 30
0.0
 11
1352.1299623854
 21
-188.8344480747
 31
0.0
  0
ARC
  5
306
330
1F
100
AcDbEntity
  8
0
  6
Continuous
 62
     7
370
    25
100
AcDbCircle
 10
1353.8680918814
 20
-190.7941123212
 30
0.0
 40
2.61942323880147
100
AcDbArc
 50
81.4172077991
 51
131.5715089093
  0
ARC
  5
307
330
1F
100
AcDbEntity
  8
0
  6
Continuous
 62
     7
370
    25
100
AcDbCircle
 10
1353.8680918814
 20
-270.8747838282
 30
0.0
 40
2.619423238801321
100
AcDbArc
 50
228.4284910907
 51
278.5827922009
  0
ARC
  5
308
330
1F
100
AcDbEntity
  8
0
  6
Continuous
 62
     7
370
    25
100
AcDbCircle
 10
1357.6299623854
 20
-272.8344480747
 30
0.0
 40
5.500000000000455
100
AcDbArc
 50
180.0
 51
270.0
  0
ARC
  5
309
330
1F
100
AcDbEntity
  8
0
  6
Continuous
 62
     7
370
    25
100
AcDbCircle
 10
1357.6299623854
 20
-188.8344480747
 30
0.0
 40
5.5
100
AcDbArc
 50
90.0
 51
180.0
  0
ARC
  5
30A
330
1F
100
AcDbEntity
  8
0
  6
Continuous
 62
     7
370
    25
100
AcDbCircle
 10
1441.6299623854
 20
-188.8344480747
 30
0.0
 40
5.499999999999289
100
AcDbArc
 50
360.0
 51
90.0
  0
ARC
  5
30B
330
1F
100
AcDbEntity
  8
0
  6
Continuous
 62
     7
370
    25
100
AcDbCircle
 10
1441.6299623854
 20
-272.8344480747
 30
0.0
 40
5.499999999999773
100
AcDbArc
 50
270.0
 51
0.0
  0
ARC
  5
30C
330
1F
100
AcDbEntity
  8
0
  6
Continuous
 62
     7
370
    25
100
AcDbCircle
 10
1442.2603871034
 20
496.5351272074
 30
0.0
 40
2.740527303296972
100
AcDbArc
 50
270.0
 51
360.0
  0
LINE
  5
30D
330
1F
100
AcDbEntity
  8
0
  6
Continuous
 62
     7
370
    25
100
AcDbLine
 10
1356.9995376675
 20
493.7945999041
 30
0.0
 11
1442.2603871034
 21
493.7945999041
 31
0.0
  0
ARC
  5
30E
330
1F
100
AcDbEntity
  8
0
  6
Continuous
 62
     7
370
    25
100
AcDbCircle
 10
1356.9995376675
 20
496.5351272074
 30
0.0
 40
2.740527303296858
100
AcDbArc
 50
180.0
 51
270.0
  0
LINE
  5
30F
330
1F
100
AcDbEntity
  8
0
  6
Continuous
 62
     7
370
    25
100
AcDbLine
 10
1354.2590103642
 20
581.7959766433
 30
0.0
 11
1354.2590103642
 21
496.5351272074
 31
0.0
  0
ARC
  5
310
330
1F
100
AcDbEntity
  8
0
  6
Continuous
 62
     7
370
    25
100
AcDbCircle
 10
1356.9995376675
 20
581.7959766433
 30
0.0
 40
2.740527303297085
100
AcDbArc
 50
90.0
 51
180.0
  0
LINE
  5
311
330
1F
100
AcDbEntity
  8
0
  6
Continuous
 62
     7
370
    25
100
AcDbLine
 10
1442.2603871034
 20
584.5365039466
 30
0.0
 11
1356.9995376675
 21
584.5365039466
 31
0.0
  0
ARC
  5
312
330
1F
100
AcDbEntity
  8
0
  6
Continuous
 62
     7
370
    25
100
AcDbCircle
 10
1442.2603871034
 20
581.7959766433
 30
0.0
 40
2.74052730329754
100
AcDbArc
 50
0.0
 51
90.0
  0
LINE
  5
313
330
1F
100
AcDbEntity
  8
0
  6
Continuous
 62
     7
370
    25
100
AcDbLine
 10
1445.0009144067
 20
496.5351272074
 30
0.0
 11
1445.0009144067
 21
581.7959766433
 31
0.0
  0
ARC
  5
314
330
1F
100
AcDbEntity
  8
0
  6
Continuous
 62
     7
370
    25
100
AcDbCircle
 10
1445.3918328894
 20
579.2058876788
 30
0.0
 40
2.619423238804389
100
AcDbArc
 50
48.4284910908
 51
98.5827922009
  0
LINE
  5
315
330
1F
100
AcDbEntity
  8
0
  6
Continuous
 62
     7
370
    25
100
AcDbLine
 10
1447.1299623854
 20
581.1655519253
 30
0.0
 11
1447.1299623854
 21
497.1655519253
 31
0.0
  0
ARC
  5
316
330
1F
100
AcDbEntity
  8
0
  6
Continuous
 62
     7
370
    25
100
AcDbCircle
 10
1445.3918328894
 20
499.1252161718
 30
0.0
 40
2.619423238803659
100
AcDbArc
 50
261.4172077991
 51
311.5715089093
  0
ARC
  5
317
330
1F
100
AcDbEntity
  8
0
  6
Continuous
 62
     7
370
    25
100
AcDbCircle
 10
1439.6702981389
 20
493.4036814213
 30
0.0
 40
2.619423238803741
100
AcDbArc
 50
318.4284910907
 51
8.5827922009
  0
LINE
  5
318
330
1F
100
AcDbEntity
  8
0
  6
Continuous
 62
     7
370
    25
100
AcDbLine
 10
1441.6299623854
 20
491.6655519253
 30
0.0
 11
1357.6299623854
 21
491.6655519253
 31
0.0
  0
ARC
  5
319
330
1F
100
AcDbEntity
  8
0
  6
Continuous
 62
     7
370
    25
100
AcDbCircle
 10
1359.5896266319
 20
493.4036814213
 30
0.0
 40
2.619423238805437
100
AcDbArc
 50
171.4172077991
 51
221.5715089092
  0
LINE
  5
31A
330
1F
100
AcDbEntity
  8
0
  6
Continuous
 62
     7
370
    25
100
AcDbLine
 10
1357.6299623854
 20
586.6655519253
 30
0.0
 11
1441.6299623854
 21
586.6655519253
 31
0.0
  0
ARC
  5
31B
330
1F
100
AcDbEntity
  8
0
  6
Continuous
 62
     7
370
    25
100
AcDbCircle
 10
1439.6702981389
 20
584.9274224293
 30
0.0
 40
2.619423238801569
100
AcDbArc
 50
351.4172077991
 51
41.5715089093
  0
ARC
  5
31C
330
1F
100
AcDbEntity
  8
0
  6
Continuous
 62
     7
370
    25
100
AcDbCircle
 10
1359.5896266319
 20
584.9274224293
 30
0.0
 40
2.61942323880349
100
AcDbArc
 50
138.4284910907
 51
188.5827922009
  0
LINE
  5
31D
330
1F
100
AcDbEntity
  8
0
  6
Continuous
 62
     7
370
    25
100
AcDbLine
 10
1352.1299623854
 20
497.1655519253
 30
0.0
 11
1352.1299623854
 21
581.1655519253
 31
0.0
  0
ARC
  5
31E
330
1F
100
AcDbEntity
  8
0
  6
Continuous
 62
     7
370
    25
100
AcDbCircle
 10
1353.8680918814
 20
579.2058876788
 30
0.0
 40
2.619423238800957
100
AcDbArc
 50
81.4172077991
 51
131.5715089093
  0
ARC
  5
31F
330
1F
100
AcDbEntity
  8
0
  6
Continuous
 62
     7
370
    25
100
AcDbCircle
 10
1353.8680918814
 20
499.1252161718
 30
0.0
 40
2.61942323880083
100
AcDbArc
 50
228.4284910907
 51
278.5827922009
  0
ARC
  5
320
330
1F
100
AcDbEntity
  8
0
  6
Continuous
 62
     7
370
    25
100
AcDbCircle
 10
1357.6299623854
 20
497.1655519253
 30
0.0
 40
5.499999999999773
100
AcDbArc
 50
180.0
 51
270.0
  0
ARC
  5
321
330
1F
100
AcDbEntity
  8
0
  6
Continuous
 62
     7
370
    25
100
AcDbCircle
 10
1441.6299623854
 20
497.1655519253
 30
0.0
 40
5.5
100
AcDbArc
 50
270.0
 51
0.0
  0
ARC
  5
322
330
1F
100
AcDbEntity
  8
0
  6
Continuous
 62
     7
370
    25
100
AcDbCircle
 10
1441.6299623854
 20
581.1655519253
 30
0.0
 40
5.500000000000227
100
AcDbArc
 50
0.0
 51
90.0
  0
ARC
  5
323
330
1F
100
AcDbEntity
  8
0
  6
Continuous
 62
     7
370
    25
100
AcDbCircle
 10
1357.6299623854
 20
581.1655519253
 30
0.0
 40
5.5
100
AcDbArc
 50
90.0
 51
180.0
  0
ARC
  5
324
330
1F
100
AcDbEntity
  8
0
  6
Continuous
 62
     7
370
    25
100
AcDbCircle
 10
2212.2603871034
 20
-273.4648727926
 30
0.0
 40
2.740527303296403
100
AcDbArc
 50
270.0
 51
0.0
  0
LINE
  5
325
330
1F
100
AcDbEntity
  8
0
  6
Continuous
 62
     7
370
    25
100
AcDbLine
 10
2126.9995376675
 20
-276.2054000959
 30
0.0
 11
2212.2603871034
 21
-276.2054000959
 31
0.0
  0
ARC
  5
326
330
1F
100
AcDbEntity
  8
0
  6
Continuous
 62
     7
370
    25
100
AcDbCircle
 10
2126.9995376675
 20
-273.4648727926
 30
0.0
 40
2.740527303296517
100
AcDbArc
 50
180.0
 51
270.0
  0
LINE
  5
327
330
1F
100
AcDbEntity
  8
0
  6
Continuous
 62
     7
370
    25
100
AcDbLine
 10
2124.2590103642
 20
-188.2040233567
 30
0.0
 11
2124.2590103642
 21
-273.4648727926
 31
0.0
  0
ARC
  5
328
330
1F
100
AcDbEntity
  8
0
  6
Continuous
 62
     7
370
    25
100
AcDbCircle
 10
2126.9995376675
 20
-188.2040233567
 30
0.0
 40
2.740527303297114
100
AcDbArc
 50
90.0
 51
180.0
  0
LINE
  5
329
330
1F
100
AcDbEntity
  8
0
  6
Continuous
 62
     7
370
    25
100
AcDbLine
 10
2212.2603871034
 20
-185.4634960534
 30
0.0
 11
2126.9995376675
 21
-185.4634960534
 31
0.0
  0
ARC
  5
32A
330
1F
100
AcDbEntity
  8
0
  6
Continuous
 62
     7
370
    25
100
AcDbCircle
 10
2212.2603871034
 20
-188.2040233567
 30
0.0
 40
2.740527303296659
100
AcDbArc
 50
360.0
 51
90.0
  0
LINE
  5
32B
330
1F
100
AcDbEntity
  8
0
  6
Continuous
 62
     7
370
    25
100
AcDbLine
 10
2215.0009144067
 20
-273.4648727926
 30
0.0
 11
2215.0009144067
 21
-188.2040233567
 31
0.0
  0
LINE
  5
32C
330
1F
100
AcDbEntity
  8
0
  6
Continuous
 62
     7
370
    25
100
AcDbLine
 10
2127.6299623854
 20
-183.3344480747
 30
0.0
 11
2211.6299623854
 21
-183.3344480747
 31
0.0
  0
ARC
  5
32D
330
1F
100
AcDbEntity
  8
0
  6
Continuous
 62
     7
370
    25
100
AcDbCircle
 10
2209.6702981389
 20
-185.0725775707
 30
0.0
 40
2.619423238802884
100
AcDbArc
 50
351.4172077991
 51
41.5715089093
  0
ARC
  5
32E
330
1F
100
AcDbEntity
  8
0
  6
Continuous
 62
     7
370
    25
100
AcDbCircle
 10
2129.5896266319
 20
-185.0725775707
 30
0.0
 40
2.619423238800248
100
AcDbArc
 50
138.4284910907
 51
188.5827922009
  0
ARC
  5
32F
330
1F
100
AcDbEntity
  8
0
  6
Continuous
 62
     7
370
    25
100
AcDbCircle
 10
2215.3918328894
 20
-190.7941123212
 30
0.0
 40
2.619423238802794
100
AcDbArc
 50
48.4284910907
 51
98.5827922009
  0
LINE
  5
330
330
1F
100
AcDbEntity
  8
0
  6
Continuous
 62
     7
370
    25
100
AcDbLine
 10
2217.1299623854
 20
-188.8344480747
 30
0.0
 11
2217.1299623854
 21
-272.8344480747
 31
0.0
  0
ARC
  5
331
330
1F
100
AcDbEntity
  8
0
  6
Continuous
 62
     7
370
    25
100
AcDbCircle
 10
2215.3918328894
 20
-270.8747838282
 30
0.0
 40
2.619423238802152
100
AcDbArc
 50
261.4172077991
 51
311.5715089093
  0
LINE
  5
332
330
1F
100
AcDbEntity
  8
0
  6
Continuous
 62
     7
370
    25
100
AcDbLine
 10
2122.1299623854
 20
-272.8344480747
 30
0.0
 11
2122.1299623854
 21
-188.8344480747
 31
0.0
  0
ARC
  5
333
330
1F
100
AcDbEntity
  8
0
  6
Continuous
 62
     7
370
    25
100
AcDbCircle
 10
2123.8680918814
 20
-190.7941123212
 30
0.0
 40
2.619423238800721
100
AcDbArc
 50
81.4172077991
 51
131.5715089093
  0
ARC
  5
334
330
1F
100
AcDbEntity
  8
0
  6
Continuous
 62
     7
370
    25
100
AcDbCircle
 10
2123.8680918814
 20
-270.8747838282
 30
0.0
 40
2.619423238800574
100
AcDbArc
 50
228.4284910907
 51
278.5827922009
  0
ARC
  5
335
330
1F
100
AcDbEntity
  8
0
  6
Continuous
 62
     7
370
    25
100
AcDbCircle
 10
2209.6702981389
 20
-276.5963185787
 30
0.0
 40
2.619423238804688
100
AcDbArc
 50
318.4284910908
 51
8.5827922009
  0
LINE
  5
336
330
1F
100
AcDbEntity
  8
0
  6
Continuous
 62
     7
370
    25
100
AcDbLine
 10
2211.6299623854
 20
-278.3344480747
 30
0.0
 11
2127.6299623854
 21
-278.3344480747
 31
0.0
  0
ARC
  5
337
330
1F
100
AcDbEntity
  8
0
  6
Continuous
 62
     7
370
    25
100
AcDbCircle
 10
2129.5896266319
 20
-276.5963185787
 30
0.0
 40
2.619423238802005
100
AcDbArc
 50
171.4172077991
 51
221.5715089093
  0
ARC
  5
338
330
1F
100
AcDbEntity
  8
0
  6
Continuous
 62
     7
370
    25
100
AcDbCircle
 10
2127.6299623854
 20
-272.8344480747
 30
0.0
 40
5.500000000000455
100
AcDbArc
 50
180.0
 51
270.0
  0
ARC
  5
339
330
1F
100
AcDbEntity
  8
0
  6
Continuous
 62
     7
370
    25
100
AcDbCircle
 10
2211.6299623854
 20
-188.8344480747
 30
0.0
 40
5.499999999999545
100
AcDbArc
 50
360.0
 51
90.0
  0
ARC
  5
33A
330
1F
100
AcDbEntity
  8
0
  6
Continuous
 62
     7
370
    25
100
AcDbCircle
 10
2211.6299623854
 20
-272.8344480747
 30
0.0
 40
5.499999999999432
100
AcDbArc
 50
270.0
 51
0.0
  0
ARC
  5
33B
330
1F
100
AcDbEntity
  8
0
  6
Continuous
 62
     7
370
    25
100
AcDbCircle
 10
2127.6299623854
 20
-188.8344480747
 30
0.0
 40
5.5
100
AcDbArc
 50
90.0
 51
180.0
  0
ARC
  5
33C
330
1F
100
AcDbEntity
  8
0
  6
Continuous
 62
     7
370
    25
100
AcDbCircle
 10
2212.2603871034
 20
496.5351272074
 30
0.0
 40
2.740527303296858
100
AcDbArc
 50
270.0
 51
0.0
  0
LINE
  5
33D
330
1F
100
AcDbEntity
  8
0
  6
Continuous
 62
     7
370
    25
100
AcDbLine
 10
2126.9995376675
 20
493.7945999041
 30
0.0
 11
2212.2603871034
 21
493.7945999041
 31
0.0
  0
ARC
  5
33E
330
1F
100
AcDbEntity
  8
0
  6
Continuous
 62
     7
370
    25
100
AcDbCircle
 10
2126.9995376675
 20
496.5351272074
 30
0.0
 40
2.740527303296119
100
AcDbArc
 50
180.0
 51
270.0
  0
LINE
  5
33F
330
1F
100
AcDbEntity
  8
0
  6
Continuous
 62
     7
370
    25
100
AcDbLine
 10
2124.2590103642
 20
581.7959766433
 30
0.0
 11
2124.2590103642
 21
496.5351272074
 31
0.0
  0
ARC
  5
340
330
1F
100
AcDbEntity
  8
0
  6
Continuous
 62
     7
370
    25
100
AcDbCircle
 10
2126.9995376675
 20
581.7959766433
 30
0.0
 40
2.740527303296403
100
AcDbArc
 50
90.0
 51
180.0
  0
LINE
  5
341
330
1F
100
AcDbEntity
  8
0
  6
Continuous
 62
     7
370
    25
100
AcDbLine
 10
2212.2603871034
 20
584.5365039466
 30
0.0
 11
2126.9995376675
 21
584.5365039466
 31
0.0
  0
ARC
  5
342
330
1F
100
AcDbEntity
  8
0
  6
Continuous
 62
     7
370
    25
100
AcDbCircle
 10
2212.2603871034
 20
581.7959766433
 30
0.0
 40
2.740527303297313
100
AcDbArc
 50
0.0
 51
90.0
  0
LINE
  5
343
330
1F
100
AcDbEntity
  8
0
  6
Continuous
 62
     7
370
    25
100
AcDbLine
 10
2215.0009144067
 20
496.5351272074
 30
0.0
 11
2215.0009144067
 21
581.7959766433
 31
0.0
  0
LINE
  5
344
330
1F
100
AcDbEntity
  8
0
  6
Continuous
 62
     7
370
    25
100
AcDbLine
 10
2127.6299623854
 20
586.6655519253
 30
0.0
 11
2211.6299623854
 21
586.6655519253
 31
0.0
  0
ARC
  5
345
330
1F
100
AcDbEntity
  8
0
  6
Continuous
 62
     7
370
    25
100
AcDbCircle
 10
2209.6702981389
 20
584.9274224293
 30
0.0
 40
2.619423238798591
100
AcDbArc
 50
351.4172077991
 51
41.5715089093
  0
ARC
  5
346
330
1F
100
AcDbEntity
  8
0
  6
Continuous
 62
     7
370
    25
100
AcDbCircle
 10
2129.5896266319
 20
584.9274224293
 30
0.0
 40
2.61942323880465
100
AcDbArc
 50
138.4284910907
 51
188.5827922009
  0
ARC
  5
347
330
1F
100
AcDbEntity
  8
0
  6
Continuous
 62
     7
370
    25
100
AcDbCircle
 10
2209.6702981389
 20
493.4036814213
 30
0.0
 40
2.619423238800381
100
AcDbArc
 50
318.4284910907
 51
8.5827922009
  0
LINE
  5
348
330
1F
100
AcDbEntity
  8
0
  6
Continuous
 62
     7
370
    25
100
AcDbLine
 10
2211.6299623854
 20
491.6655519253
 30
0.0
 11
2127.6299623854
 21
491.6655519253
 31
0.0
  0
ARC
  5
349
330
1F
100
AcDbEntity
  8
0
  6
Continuous
 62
     7
370
    25
100
AcDbCircle
 10
2129.5896266319
 20
493.4036814213
 30
0.0
 40
2.619423238807151
100
AcDbArc
 50
171.4172077991
 51
221.5715089092
  0
LINE
  5
34A
330
1F
100
AcDbEntity
  8
0
  6
Continuous
 62
     7
370
    25
100
AcDbLine
 10
2122.1299623854
 20
497.1655519253
 30
0.0
 11
2122.1299623854
 21
581.1655519253
 31
0.0
  0
ARC
  5
34B
330
1F
100
AcDbEntity
  8
0
  6
Continuous
 62
     7
370
    25
100
AcDbCircle
 10
2123.8680918814
 20
579.2058876788
 30
0.0
 40
2.619423238799568
100
AcDbArc
 50
81.4172077991
 51
131.5715089093
  0
ARC
  5
34C
330
1F
100
AcDbEntity
  8
0
  6
Continuous
 62
     7
370
    25
100
AcDbCircle
 10
2123.8680918814
 20
499.1252161718
 30
0.0
 40
2.619423238799568
100
AcDbArc
 50
228.4284910907
 51
278.5827922009
  0
ARC
  5
34D
330
1F
100
AcDbEntity
  8
0
  6
Continuous
 62
     7
370
    25
100
AcDbCircle
 10
2215.3918328894
 20
579.2058876788
 30
0.0
 40
2.619423238802836
100
AcDbArc
 50
48.4284910907
 51
98.5827922009
  0
LINE
  5
34E
330
1F
100
AcDbEntity
  8
0
  6
Continuous
 62
     7
370
    25
100
AcDbLine
 10
2217.1299623854
 20
581.1655519253
 30
0.0
 11
2217.1299623854
 21
497.1655519253
 31
0.0
  0
ARC
  5
34F
330
1F
100
AcDbEntity
  8
0
  6
Continuous
 62
     7
370
    25
100
AcDbCircle
 10
2215.3918328894
 20
499.1252161718
 30
0.0
 40
2.61942323880185
100
AcDbArc
 50
261.4172077991
 51
311.5715089093
  0
ARC
  5
350
330
1F
100
AcDbEntity
  8
0
  6
Continuous
 62
     7
370
    25
100
AcDbCircle
 10
2211.6299623854
 20
581.1655519253
 30
0.0
 40
5.5
100
AcDbArc
 50
0.0
 51
90.0
  0
ARC
  5
351
330
1F
100
AcDbEntity
  8
0
  6
Continuous
 62
     7
370
    25
100
AcDbCircle
 10
2127.6299623854
 20
497.1655519253
 30
0.0
 40
5.499999999999318
100
AcDbArc
 50
180.0
 51
270.0
  0
ARC
  5
352
330
1F
100
AcDbEntity
  8
0
  6
Continuous
 62
     7
370
    25
100
AcDbCircle
 10
2127.6299623854
 20
581.1655519253
 30
0.0
 40
5.499999999999091
100
AcDbArc
 50
90.0
 51
180.0
  0
ARC
  5
353
330
1F
100
AcDbEntity
  8
0
  6
Continuous
 62
     7
370
    25
100
AcDbCircle
 10
2211.6299623854
 20
497.1655519253
 30
0.0
 40
5.499999999999545
100
AcDbArc
 50
270.0
 51
0.0
  0
CIRCLE
  5
354
330
1F
100
AcDbEntity
  8
0
  6
Continuous
 62
     7
370
    25
100
AcDbCircle
 10
1399.6299623854
 20
-230.8344480747
 30
0.0
 40
8.599999999999909
  0
CIRCLE
  5
355
330
1F
100
AcDbEntity
  8
0
  6
Continuous
 62
     7
370
    25
100
AcDbCircle
 10
1399.6299623854
 20
-230.8344480747
 30
0.0
 40
11.09999999999991
  0
CIRCLE
  5
356
330
1F
100
AcDbEntity
  8
0
  6
Continuous
 62
     7
370
    25
100
AcDbCircle
 10
2169.6299623854
 20
-230.8344480747
 30
0.0
 40
8.599999999999909
  0
CIRCLE
  5
357
330
1F
100
AcDbEntity
  8
0
  6
Continuous
 62
     7
370
    25
100
AcDbCircle
 10
2169.6299623854
 20
-230.8344480747
 30
0.0
 40
11.09999999999991
  0
CIRCLE
  5
358
330
1F
100
AcDbEntity
  8
0
  6
Continuous
 62
     7
370
    25
100
AcDbCircle
 10
1399.6299623854
 20
539.1655519253
 30
0.0
 40
8.599999999999909
  0
CIRCLE
  5
359
330
1F
100
AcDbEntity
  8
0
  6
Continuous
 62
     7
370
    25
100
AcDbCircle
 10
1399.6299623854
 20
539.1655519253
 30
0.0
 40
11.09999999999991
  0
CIRCLE
  5
35A
330
1F
100
AcDbEntity
  8
0
  6
Continuous
 62
     7
370
    25
100
AcDbCircle
 10
2169.6299623854
 20
539.1655519253
 30
0.0
 40
8.599999999999909
  0
CIRCLE
  5
35B
330
1F
100
AcDbEntity
  8
0
  6
Continuous
 62
     7
370
    25
100
AcDbCircle
 10
2169.6299623854
 20
539.1655519253
 30
0.0
 40
11.09999999999991
  0
LINE
  5
35C
330
1F
100
AcDbEntity
  8
0
  6
Continuous
 62
     8
370
    25
100
AcDbLine
 10
1523.8881632825
 20
2084.1655519253
 30
0.0
 11
1523.8881632825
 21
574.1655519253
 31
0.0
  0
LINE
  5
35D
330
1F
100
AcDbEntity
  8
0
  6
Continuous
 62
     8
370
    25
100
AcDbLine
 10
1523.8881632825
 20
-265.8344480747
 30
0.0
 11
1523.8881632825
 21
-1775.8344480747
 31
0.0
  0
LINE
  5
35E
330
1F
100
AcDbEntity
  8
0
  6
Continuous
 62
     8
370
    25
100
AcDbLine
 10
1031.3589830219
 20
2048.9166822889
 30
0.0
 11
1031.3589830219
 21
414.1655519253
 31
0.0
  0
LINE
  5
35F
330
1F
100
AcDbEntity
  8
0
  6
Continuous
 62
     8
370
    25
100
AcDbLine
 10
1031.3589830219
 20
-105.8344480747
 30
0.0
 11
1031.3589830219
 21
-1740.5855784382
 31
0.0
  0
LINE
  5
360
330
1F
100
AcDbEntity
  8
0
  6
Continuous
 62
     8
370
    25
100
AcDbLine
 10
-518.4163676198
 20
1887.7778447219
 30
0.0
 11
-518.4163676198
 21
414.1655519253
 31
0.0
  0
LINE
  5
361
330
1F
100
AcDbEntity
  8
0
  6
Continuous
 62
     8
370
    25
100
AcDbLine
 10
-518.4163676198
 20
-105.8344480747
 30
0.0
 11
-518.4163676198
 21
-1579.4467408712
 31
0.0
  0
LINE
  5
362
330
1F
100
AcDbEntity
  8
0
  6
Continuous
 62
     8
370
    25
100
AcDbLine
 10
-1010.9455478803
 20
1699.8616117546
 30
0.0
 11
-1010.9455478803
 21
414.1655519253
 31
0.0
  0
LINE
  5
363
330
1F
100
AcDbEntity
  8
0
  6
Continuous
 62
     8
370
    25
100
AcDbLine
 10
-1010.9455478803
 20
-105.8344480747
 30
0.0
 11
-1010.9455478803
 21
-1391.530507904
 31
0.0
  0
LINE
  5
364
330
1F
100
AcDbEntity
  8
0
  6
Continuous
 62
     8
370
    25
100
AcDbLine
 10
-1269.528294108
 20
411.1655519253
 30
0.0
 11
-1130.9524264928
 21
411.1655519253
 31
0.0
  0
LINE
  5
365
330
1F
100
AcDbEntity
  8
0
  6
Continuous
 62
     8
370
    25
100
AcDbLine
 10
-1130.9524264928
 20
402.1655519253
 30
0.0
 11
-1269.528294108
 21
402.1655519253
 31
0.0
  0
LINE
  5
366
330
1F
100
AcDbEntity
  8
0
  6
Continuous
 62
     8
370
    25
100
AcDbLine
 10
1342.6299623854
 20
402.1655519253
 30
0.0
 11
1323.9521993058
 21
402.1655519253
 31
0.0
  0
LINE
  5
367
330
1F
100
AcDbEntity
  8
0
  6
Continuous
 62
     8
370
    25
100
AcDbLine
 10
1323.9521993058
 20
411.1655519253
 30
0.0
 11
1342.6299623854
 21
411.1655519253
 31
0.0
  0
LINE
  5
368
330
1F
100
AcDbEntity
  8
0
  6
Continuous
 62
     8
370
    25
100
AcDbLine
 10
1354.6299623854
 20
411.1655519253
 30
0.0
 11
1387.1299623854
 21
411.1655519253
 31
0.0
  0
LINE
  5
369
330
1F
100
AcDbEntity
  8
0
  6
Continuous
 62
     8
370
    25
100
AcDbLine
 10
1387.1299623854
 20
402.1655519253
 30
0.0
 11
1354.6299623854
 21
402.1655519253
 31
0.0
  0
LINE
  5
36A
330
1F
100
AcDbEntity
  8
0
  6
Continuous
 62
     8
370
    25
100
AcDbLine
 10
1363.0072097635
 20
399.1655519253
 30
0.0
 11
1363.0072097635
 21
-90.8344480747
 31
0.0
  0
LINE
  5
36B
330
1F
100
AcDbEntity
  8
0
  6
Continuous
 62
     8
370
    25
100
AcDbLine
 10
1364.238533428
 20
399.1655519253
 30
0.0
 11
1364.238533428
 21
-90.8344480747
 31
0.0
  0
LINE
  5
36C
330
1F
100
AcDbEntity
  8
0
  6
Continuous
 62
     8
370
    25
100
AcDbLine
 10
-483.1147079462
 20
399.1655519253
 30
0.0
 11
-483.1147079462
 21
-90.8344480747
 31
0.0
  0
LINE
  5
36D
330
1F
100
AcDbEntity
  8
0
  6
Continuous
 62
     8
370
    25
100
AcDbLine
 10
-775.3371304211
 20
399.1655519253
 30
0.0
 11
-775.3371304211
 21
-90.8344480747
 31
0.0
  0
LINE
  5
36E
330
1F
100
AcDbEntity
  8
0
  6
Continuous
 62
     8
370
    25
100
AcDbLine
 10
-1125.0617764066
 20
399.1655519253
 30
0.0
 11
-1125.0617764066
 21
-90.8344480747
 31
0.0
  0
LINE
  5
36F
330
1F
100
AcDbEntity
  8
0
  6
Continuous
 62
     8
370
    25
100
AcDbLine
 10
1005.5089004949
 20
426.1655519253
 30
0.0
 11
989.8740653303
 21
426.1655519253
 31
0.0
  0
LINE
  5
370
330
1F
100
AcDbEntity
  8
0
  6
Continuous
 62
     8
370
    25
100
AcDbLine
 10
989.8740653303
 20
417.1655519253
 30
0.0
 11
1005.5089004949
 21
417.1655519253
 31
0.0
  0
LINE
  5
371
330
1F
100
AcDbEntity
  8
0
  6
Continuous
 62
     8
370
    25
100
AcDbLine
 10
568.6097569994
 20
417.1655519253
 30
0.0
 11
578.2182201162
 21
417.1655519253
 31
0.0
  0
LINE
  5
372
330
1F
100
AcDbEntity
  8
0
  6
Continuous
 62
     8
370
    25
100
AcDbLine
 10
578.2182201162
 20
426.1655519253
 30
0.0
 11
568.6097569994
 21
426.1655519253
 31
0.0
  0
LINE
  5
373
330
1F
100
AcDbEntity
  8
0
  6
Continuous
 62
     8
370
    25
100
AcDbLine
 10
989.8740653303
 20
-117.8344480747
 30
0.0
 11
1005.5089004949
 21
-117.8344480747
 31
0.0
  0
LINE
  5
374
330
1F
100
AcDbEntity
  8
0
  6
Continuous
 62
     8
370
    25
100
AcDbLine
 10
1005.5089004949
 20
-108.8344480747
 30
0.0
 11
989.8740653303
 21
-108.8344480747
 31
0.0
  0
LINE
  5
375
330
1F
100
AcDbEntity
  8
0
  6
Continuous
 62
     8
370
    25
100
AcDbLine
 10
568.6097569994
 20
-117.8344480747
 30
0.0
 11
578.2182201162
 21
-117.8344480747
 31
0.0
  0
LINE
  5
376
330
1F
100
AcDbEntity
  8
0
  6
Continuous
 62
     8
370
    25
100
AcDbLine
 10
578.2182201162
 20
-108.8344480747
 30
0.0
 11
568.6097569994
 21
-108.8344480747
 31
0.0
  0
LINE
  5
377
330
1F
100
AcDbEntity
  8
0
  6
Continuous
 62
     8
370
    25
100
AcDbLine
 10
1323.9521993058
 20
-102.8344480747
 30
0.0
 11
1342.6299623854
 21
-102.8344480747
 31
0.0
  0
LINE
  5
378
330
1F
100
AcDbEntity
  8
0
  6
Continuous
 62
     8
370
    25
100
AcDbLine
 10
1342.6299623854
 20
-93.8344480747
 30
0.0
 11
1323.9521993058
 21
-93.8344480747
 31
0.0
  0
LINE
  5
379
330
1F
100
AcDbEntity
  8
0
  6
Continuous
 62
     8
370
    25
100
AcDbLine
 10
1354.6299623854
 20
-102.8344480747
 30
0.0
 11
1387.1299623854
 21
-102.8344480747
 31
0.0
  0
LINE
  5
37A
330
1F
100
AcDbEntity
  8
0
  6
Continuous
 62
     8
370
    25
100
AcDbLine
 10
1387.1299623854
 20
-93.8344480747
 30
0.0
 11
1354.6299623854
 21
-93.8344480747
 31
0.0
  0
LINE
  5
37B
330
1F
100
AcDbEntity
  8
0
  6
Continuous
 62
     8
370
    25
100
AcDbLine
 10
-1155.1473178891
 20
-108.0844480747
 30
0.0
 11
-1176.4473178891
 21
-108.0844480747
 31
0.0
  0
LINE
  5
37C
330
1F
100
AcDbEntity
  8
0
  6
Continuous
 62
     8
370
    25
100
AcDbLine
 10
-1176.4473178891
 20
416.4155519253
 30
0.0
 11
-1155.1473178891
 21
416.4155519253
 31
0.0
  0
LINE
  5
37D
330
1F
100
AcDbEntity
  8
0
  6
Continuous
 62
     8
370
    25
100
AcDbLine
 10
-1143.640362282
 20
-108.0844480747
 30
0.0
 11
-1155.1473178891
 21
-108.0844480747
 31
0.0
  0
LINE
  5
37E
330
1F
100
AcDbEntity
  8
0
  6
Continuous
 62
     8
370
    25
100
AcDbLine
 10
-1155.1473178891
 20
416.4155519253
 30
0.0
 11
-1143.640362282
 21
416.4155519253
 31
0.0
  0
LINE
  5
37F
330
1F
100
AcDbEntity
  8
0
  6
Continuous
 62
     8
370
    25
100
AcDbLine
 10
664.2417289497
 20
-88.5844480747
 30
0.0
 11
685.5417289497
 21
-88.5844480747
 31
0.0
  0
LINE
  5
380
330
1F
100
AcDbEntity
  8
0
  6
Continuous
 62
     8
370
    25
100
AcDbLine
 10
814.6187320811
 20
-88.5844480747
 30
0.0
 11
835.9187320811
 21
-88.5844480747
 31
0.0
  0
LINE
  5
381
330
1F
100
AcDbEntity
  8
0
  6
Continuous
 62
     8
370
    25
100
AcDbLine
 10
843.9080058295
 20
396.9155519253
 30
0.0
 11
835.9187320811
 21
396.9155519253
 31
0.0
  0
LINE
  5
382
330
1F
100
AcDbEntity
  8
0
  6
Continuous
 62
     8
370
    25
100
AcDbLine
 10
685.5417289497
 20
396.9155519253
 30
0.0
 11
664.2417289497
 21
396.9155519253
 31
0.0
  0
LINE
  5
383
330
1F
100
AcDbEntity
  8
0
  6
Continuous
 62
     8
370
    25
100
AcDbLine
 10
604.2597569993
 20
396.9155519253
 30
0.0
 11
582.9597569993
 21
396.9155519253
 31
0.0
  0
LINE
  5
384
330
1F
100
AcDbEntity
  8
0
  6
Continuous
 62
     8
370
    25
100
AcDbLine
 10
835.9187320811
 20
396.9155519253
 30
0.0
 11
814.6187320811
 21
396.9155519253
 31
0.0
  0
LINE
  5
385
330
1F
100
AcDbEntity
  8
0
  6
Continuous
 62
     8
370
    25
100
AcDbLine
 10
835.9187320811
 20
-88.5844480747
 30
0.0
 11
843.9080058295
 21
-88.5844480747
 31
0.0
  0
LINE
  5
386
330
1F
100
AcDbEntity
  8
0
  6
Continuous
 62
     8
370
    25
100
AcDbLine
 10
582.9597569993
 20
-88.5844480747
 30
0.0
 11
604.2597569993
 21
-88.5844480747
 31
0.0
  0
LINE
  5
387
330
1F
100
AcDbEntity
  8
0
  6
Continuous
 62
     8
370
    25
100
AcDbLine
 10
853.2580058295
 20
431.1655519253
 30
0.0
 11
845.2687320811
 21
431.1655519253
 31
0.0
  0
LINE
  5
388
330
1F
100
AcDbEntity
  8
0
  6
Continuous
 62
     8
370
    25
100
AcDbLine
 10
-130.2826142385
 20
-107.8344480747
 30
0.0
 11
-90.2826142385
 21
-107.8344480747
 31
0.0
  0
LINE
  5
389
330
1F
100
AcDbEntity
  8
0
  6
Continuous
 62
     8
370
    25
100
AcDbLine
 10
825.2687320811
 20
-122.8344480747
 30
0.0
 11
845.2687320811
 21
-122.8344480747
 31
0.0
  0
LINE
  5
38A
330
1F
100
AcDbEntity
  8
0
  6
Continuous
 62
     8
370
    25
100
AcDbLine
 10
805.2687320811
 20
-122.8344480747
 30
0.0
 11
825.2687320811
 21
-122.8344480747
 31
0.0
  0
LINE
  5
38B
330
1F
100
AcDbEntity
  8
0
  6
Continuous
 62
     8
370
    25
100
AcDbLine
 10
845.2687320811
 20
431.1655519253
 30
0.0
 11
805.2687320811
 21
431.1655519253
 31
0.0
  0
LINE
  5
38C
330
1F
100
AcDbEntity
  8
0
  6
Continuous
 62
     8
370
    25
100
AcDbLine
 10
245.653577178
 20
416.1655519253
 30
0.0
 11
233.3145573393
 21
416.1655519253
 31
0.0
  0
LINE
  5
38D
330
1F
100
AcDbEntity
  8
0
  6
Continuous
 62
     8
370
    25
100
AcDbLine
 10
273.3145573393
 20
416.1655519253
 30
0.0
 11
245.653577178
 21
416.1655519253
 31
0.0
  0
LINE
  5
38E
330
1F
100
AcDbEntity
  8
0
  6
Continuous
 62
     8
370
    25
100
AcDbLine
 10
-1200.4010672817
 20
416.1655519253
 30
0.0
 11
-1240.4010672817
 21
416.1655519253
 31
0.0
  0
LINE
  5
38F
330
1F
100
AcDbEntity
  8
0
  6
Continuous
 62
     8
370
    25
100
AcDbLine
 10
-1200.5536545804
 20
-107.8344480747
 30
0.0
 11
-1200.4010672817
 21
-107.8344480747
 31
0.0
  0
LINE
  5
390
330
1F
100
AcDbEntity
  8
0
  6
Continuous
 62
     8
370
    25
100
AcDbLine
 10
-1240.4010672817
 20
-107.8344480747
 30
0.0
 11
-1200.5536545804
 21
-107.8344480747
 31
0.0
  0
LINE
  5
391
330
1F
100
AcDbEntity
  8
0
  6
Continuous
 62
     8
370
    25
100
AcDbLine
 10
845.2687320811
 20
-122.8344480747
 30
0.0
 11
853.2580058295
 21
-122.8344480747
 31
0.0
  0
LINE
  5
392
330
1F
100
AcDbEntity
  8
0
  6
Continuous
 62
     8
370
    25
100
AcDbLine
 10
-117.9435943998
 20
416.1655519253
 30
0.0
 11
-130.2826142385
 21
416.1655519253
 31
0.0
  0
LINE
  5
393
330
1F
100
AcDbEntity
  8
0
  6
Continuous
 62
     8
370
    25
100
AcDbLine
 10
-90.2826142385
 20
416.1655519253
 30
0.0
 11
-117.9435943998
 21
416.1655519253
 31
0.0
  0
LINE
  5
394
330
1F
100
AcDbEntity
  8
0
  6
Continuous
 62
     8
370
    25
100
AcDbLine
 10
-1131.3029150455
 20
416.1655519253
 30
0.0
 11
-1143.6419348843
 21
416.1655519253
 31
0.0
  0
LINE
  5
395
330
1F
100
AcDbEntity
  8
0
  6
Continuous
 62
     8
370
    25
100
AcDbLine
 10
-1103.6419348843
 20
416.1655519253
 30
0.0
 11
-1131.3029150455
 21
416.1655519253
 31
0.0
  0
LINE
  5
396
330
1F
100
AcDbEntity
  8
0
  6
Continuous
 62
     8
370
    25
100
AcDbLine
 10
233.3145573393
 20
-107.8344480747
 30
0.0
 11
273.3145573393
 21
-107.8344480747
 31
0.0
  0
LINE
  5
397
330
1F
100
AcDbEntity
  8
0
  6
Continuous
 62
     8
370
    25
100
AcDbLine
 10
1324.1057607974
 20
-107.8344480747
 30
0.0
 11
1342.6299623854
 21
-107.8344480747
 31
0.0
  0
LINE
  5
398
330
1F
100
AcDbEntity
  8
0
  6
Continuous
 62
     8
370
    25
100
AcDbLine
 10
1354.6299623854
 20
-107.8344480747
 30
0.0
 11
1364.1057607974
 21
-107.8344480747
 31
0.0
  0
LINE
  5
399
330
1F
100
AcDbEntity
  8
0
  6
Continuous
 62
     8
370
    25
100
AcDbLine
 10
-493.8797858163
 20
-107.8344480747
 30
0.0
 11
-453.8797858163
 21
-107.8344480747
 31
0.0
  0
LINE
  5
39A
330
1F
100
AcDbEntity
  8
0
  6
Continuous
 62
     8
370
    25
100
AcDbLine
 10
694.8917289497
 20
431.1655519253
 30
0.0
 11
654.8917289497
 21
431.1655519253
 31
0.0
  0
LINE
  5
39B
330
1F
100
AcDbEntity
  8
0
  6
Continuous
 62
     8
370
    25
100
AcDbLine
 10
593.6097569993
 20
-122.8344480747
 30
0.0
 11
613.6097569993
 21
-122.8344480747
 31
0.0
  0
LINE
  5
39C
330
1F
100
AcDbEntity
  8
0
  6
Continuous
 62
     8
370
    25
100
AcDbLine
 10
573.6097569993
 20
-122.8344480747
 30
0.0
 11
593.6097569993
 21
-122.8344480747
 31
0.0
  0
LINE
  5
39D
330
1F
100
AcDbEntity
  8
0
  6
Continuous
 62
     8
370
    25
100
AcDbLine
 10
972.8479203336
 20
431.1655519253
 30
0.0
 11
960.5089004949
 21
431.1655519253
 31
0.0
  0
LINE
  5
39E
330
1F
100
AcDbEntity
  8
0
  6
Continuous
 62
     8
370
    25
100
AcDbLine
 10
1000.5089004949
 20
431.1655519253
 30
0.0
 11
972.8479203336
 21
431.1655519253
 31
0.0
  0
LINE
  5
39F
330
1F
100
AcDbEntity
  8
0
  6
Continuous
 62
     8
370
    25
100
AcDbLine
 10
1336.4447806361
 20
416.1655519253
 30
0.0
 11
1324.1057607974
 21
416.1655519253
 31
0.0
  0
LINE
  5
3A0
330
1F
100
AcDbEntity
  8
0
  6
Continuous
 62
     8
370
    25
100
AcDbLine
 10
1364.1057607974
 20
416.1655519253
 30
0.0
 11
1354.6299623854
 21
416.1655519253
 31
0.0
  0
LINE
  5
3A1
330
1F
100
AcDbEntity
  8
0
  6
Continuous
 62
     8
370
    25
100
AcDbLine
 10
1342.6299623854
 20
416.1655519253
 30
0.0
 11
1336.4447806361
 21
416.1655519253
 31
0.0
  0
LINE
  5
3A2
330
1F
100
AcDbEntity
  8
0
  6
Continuous
 62
     8
370
    25
100
AcDbLine
 10
-481.5407659776
 20
416.1655519253
 30
0.0
 11
-493.8797858163
 21
416.1655519253
 31
0.0
  0
LINE
  5
3A3
330
1F
100
AcDbEntity
  8
0
  6
Continuous
 62
     8
370
    25
100
AcDbLine
 10
-453.8797858163
 20
416.1655519253
 30
0.0
 11
-481.5407659776
 21
416.1655519253
 31
0.0
  0
LINE
  5
3A4
330
1F
100
AcDbEntity
  8
0
  6
Continuous
 62
     8
370
    25
100
AcDbLine
 10
960.5089004949
 20
-122.8344480747
 30
0.0
 11
1000.5089004949
 21
-122.8344480747
 31
0.0
  0
LINE
  5
3A5
330
1F
100
AcDbEntity
  8
0
  6
Continuous
 62
     8
370
    25
100
AcDbLine
 10
-1143.6419348843
 20
-107.8344480747
 30
0.0
 11
-1103.6419348843
 21
-107.8344480747
 31
0.0
  0
LINE
  5
3A6
330
1F
100
AcDbEntity
  8
0
  6
Continuous
 62
     8
370
    25
100
AcDbLine
 10
-781.170212038
 20
416.1655519253
 30
0.0
 11
-793.5092318768
 21
416.1655519253
 31
0.0
  0
LINE
  5
3A7
330
1F
100
AcDbEntity
  8
0
  6
Continuous
 62
     8
370
    25
100
AcDbLine
 10
-753.5092318768
 20
416.1655519253
 30
0.0
 11
-781.170212038
 21
416.1655519253
 31
0.0
  0
LINE
  5
3A8
330
1F
100
AcDbEntity
  8
0
  6
Continuous
 62
     8
370
    25
100
AcDbLine
 10
-793.5092318768
 20
-107.8344480747
 30
0.0
 11
-753.5092318768
 21
-107.8344480747
 31
0.0
  0
LINE
  5
3A9
330
1F
100
AcDbEntity
  8
0
  6
Continuous
 62
     8
370
    25
100
AcDbLine
 10
674.8917289497
 20
-122.8344480747
 30
0.0
 11
694.8917289497
 21
-122.8344480747
 31
0.0
  0
LINE
  5
3AA
330
1F
100
AcDbEntity
  8
0
  6
Continuous
 62
     8
370
    25
100
AcDbLine
 10
654.8917289497
 20
-122.8344480747
 30
0.0
 11
674.8917289497
 21
-122.8344480747
 31
0.0
  0
LINE
  5
3AB
330
1F
100
AcDbEntity
  8
0
  6
Continuous
 62
     8
370
    25
100
AcDbLine
 10
613.6097569993
 20
-122.8344480747
 30
0.0
 11
636.9117289171
 21
-122.8344480747
 31
0.0
  0
LINE
  5
3AC
330
1F
100
AcDbEntity
  8
0
  6
Continuous
 62
     8
370
    25
100
AcDbLine
 10
636.9117289171
 20
431.1655519253
 30
0.0
 11
613.6097569993
 21
431.1655519253
 31
0.0
  0
LINE
  5
3AD
330
1F
100
AcDbEntity
  8
0
  6
Continuous
 62
     8
370
    25
100
AcDbLine
 10
613.6097569993
 20
431.1655519253
 30
0.0
 11
573.6097569993
 21
431.1655519253
 31
0.0
  0
LINE
  5
3AE
330
1F
100
AcDbEntity
  8
0
  6
Continuous
 62
     8
370
    25
100
AcDbLine
 10
-778.7570032873
 20
431.2959432437
 30
0.0
 11
-787.2092318768
 21
431.2959432437
 31
0.0
  0
LINE
  5
3AF
330
1F
100
AcDbEntity
  8
0
  6
Continuous
 62
     8
370
    25
100
AcDbLine
 10
-759.8092318768
 20
431.2959432437
 30
0.0
 11
-778.7570032873
 21
431.2959432437
 31
0.0
  0
LINE
  5
3B0
330
1F
100
AcDbEntity
  8
0
  6
Continuous
 62
     8
370
    25
100
AcDbLine
 10
-778.6292756723
 20
431.8334848613
 30
0.0
 11
-786.8757820772
 21
431.8334848613
 31
0.0
  0
LINE
  5
3B1
330
1F
100
AcDbEntity
  8
0
  6
Continuous
 62
     8
370
    25
100
AcDbLine
 10
-760.1426816764
 20
431.8334848613
 30
0.0
 11
-778.6292756723
 21
431.8334848613
 31
0.0
  0
LINE
  5
3B2
330
1F
100
AcDbEntity
  8
0
  6
Continuous
 62
     8
370
    25
100
AcDbLine
 10
607.3097569993
 20
446.2959432437
 30
0.0
 11
579.9097569993
 21
446.2959432437
 31
0.0
  0
LINE
  5
3B3
330
1F
100
AcDbEntity
  8
0
  6
Continuous
 62
     8
370
    25
100
AcDbLine
 10
606.9763071997
 20
446.8334848613
 30
0.0
 11
580.2432067989
 21
446.8334848613
 31
0.0
  0
LINE
  5
3B4
330
1F
100
AcDbEntity
  8
0
  6
Continuous
 62
     8
370
    25
100
AcDbLine
 10
607.3097569993
 20
-137.9648393931
 30
0.0
 11
630.6117289171
 21
-137.9648393931
 31
0.0
  0
LINE
  5
3B5
330
1F
100
AcDbEntity
  8
0
  6
Continuous
 62
     8
370
    25
100
AcDbLine
 10
606.9763071997
 20
-138.5023810107
 30
0.0
 11
630.2782791175
 21
-138.5023810107
 31
0.0
  0
LINE
  5
3B6
330
1F
100
AcDbEntity
  8
0
  6
Continuous
 62
     8
370
    25
100
AcDbLine
 10
-787.2092318768
 20
-122.9648393931
 30
0.0
 11
-759.8092318768
 21
-122.9648393931
 31
0.0
  0
LINE
  5
3B7
330
1F
100
AcDbEntity
  8
0
  6
Continuous
 62
     8
370
    25
100
AcDbLine
 10
-786.8757820772
 20
-123.5023810107
 30
0.0
 11
-760.1426816764
 21
-123.5023810107
 31
0.0
  0
LINE
  5
3B8
330
1F
100
AcDbEntity
  8
0
  6
Continuous
 62
     8
370
    25
100
AcDbLine
 10
-1137.3419348843
 20
-122.9648393931
 30
0.0
 11
-1109.9419348843
 21
-122.9648393931
 31
0.0
  0
LINE
  5
3B9
330
1F
100
AcDbEntity
  8
0
  6
Continuous
 62
     8
370
    25
100
AcDbLine
 10
-1137.0084850847
 20
-123.5023810107
 30
0.0
 11
-1110.2753846839
 21
-123.5023810107
 31
0.0
  0
LINE
  5
3BA
330
1F
100
AcDbEntity
  8
0
  6
Continuous
 62
     8
370
    25
100
AcDbLine
 10
966.8089004949
 20
-137.9648393931
 30
0.0
 11
994.2089004949
 21
-137.9648393931
 31
0.0
  0
LINE
  5
3BB
330
1F
100
AcDbEntity
  8
0
  6
Continuous
 62
     8
370
    25
100
AcDbLine
 10
967.1423502945
 20
-138.5023810107
 30
0.0
 11
993.8754506953
 21
-138.5023810107
 31
0.0
  0
LINE
  5
3BC
330
1F
100
AcDbEntity
  8
0
  6
Continuous
 62
     8
370
    25
100
AcDbLine
 10
-479.1275572268
 20
431.2959432437
 30
0.0
 11
-487.5797858163
 21
431.2959432437
 31
0.0
  0
LINE
  5
3BD
330
1F
100
AcDbEntity
  8
0
  6
Continuous
 62
     8
370
    25
100
AcDbLine
 10
-460.1797858163
 20
431.2959432437
 30
0.0
 11
-479.1275572268
 21
431.2959432437
 31
0.0
  0
LINE
  5
3BE
330
1F
100
AcDbEntity
  8
0
  6
Continuous
 62
     8
370
    25
100
AcDbLine
 10
-478.9998296118
 20
431.8334848613
 30
0.0
 11
-487.2463360167
 21
431.8334848613
 31
0.0
  0
LINE
  5
3BF
330
1F
100
AcDbEntity
  8
0
  6
Continuous
 62
     8
370
    25
100
AcDbLine
 10
-460.5132356159
 20
431.8334848613
 30
0.0
 11
-478.9998296118
 21
431.8334848613
 31
0.0
  0
LINE
  5
3C0
330
1F
100
AcDbEntity
  8
0
  6
Continuous
 62
     8
370
    25
100
AcDbLine
 10
1338.8579893869
 20
431.2959432437
 30
0.0
 11
1330.4057607974
 21
431.2959432437
 31
0.0
  0
LINE
  5
3C1
330
1F
100
AcDbEntity
  8
0
  6
Continuous
 62
     8
370
    25
100
AcDbLine
 10
1357.8057607974
 20
431.2959432437
 30
0.0
 11
1354.6299623854
 21
431.2959432437
 31
0.0
  0
LINE
  5
3C2
330
1F
100
AcDbEntity
  8
0
  6
Continuous
 62
     8
370
    25
100
AcDbLine
 10
1342.6299623854
 20
431.2959432437
 30
0.0
 11
1338.8579893869
 21
431.2959432437
 31
0.0
  0
LINE
  5
3C3
330
1F
100
AcDbEntity
  8
0
  6
Continuous
 62
     8
370
    25
100
AcDbLine
 10
1338.9857170019
 20
431.8334848613
 30
0.0
 11
1330.739210597
 21
431.8334848613
 31
0.0
  0
LINE
  5
3C4
330
1F
100
AcDbEntity
  8
0
  6
Continuous
 62
     8
370
    25
100
AcDbLine
 10
1357.4723109978
 20
431.8334848613
 30
0.0
 11
1354.6299623854
 21
431.8334848613
 31
0.0
  0
LINE
  5
3C5
330
1F
100
AcDbEntity
  8
0
  6
Continuous
 62
     8
370
    25
100
AcDbLine
 10
1342.6299623854
 20
431.8334848613
 30
0.0
 11
1338.9857170019
 21
431.8334848613
 31
0.0
  0
LINE
  5
3C6
330
1F
100
AcDbEntity
  8
0
  6
Continuous
 62
     8
370
    25
100
AcDbLine
 10
975.2611290844
 20
446.2959432437
 30
0.0
 11
966.8089004949
 21
446.2959432437
 31
0.0
  0
LINE
  5
3C7
330
1F
100
AcDbEntity
  8
0
  6
Continuous
 62
     8
370
    25
100
AcDbLine
 10
994.2089004949
 20
446.2959432437
 30
0.0
 11
975.2611290844
 21
446.2959432437
 31
0.0
  0
LINE
  5
3C8
330
1F
100
AcDbEntity
  8
0
  6
Continuous
 62
     8
370
    25
100
AcDbLine
 10
975.3888566994
 20
446.8334848613
 30
0.0
 11
967.1423502945
 21
446.8334848613
 31
0.0
  0
LINE
  5
3C9
330
1F
100
AcDbEntity
  8
0
  6
Continuous
 62
     8
370
    25
100
AcDbLine
 10
993.8754506953
 20
446.8334848613
 30
0.0
 11
975.3888566994
 21
446.8334848613
 31
0.0
  0
LINE
  5
3CA
330
1F
100
AcDbEntity
  8
0
  6
Continuous
 62
     8
370
    25
100
AcDbLine
 10
838.9687320811
 20
446.2959432437
 30
0.0
 11
811.5687320811
 21
446.2959432437
 31
0.0
  0
LINE
  5
3CB
330
1F
100
AcDbEntity
  8
0
  6
Continuous
 62
     8
370
    25
100
AcDbLine
 10
838.6352822815
 20
446.8334848613
 30
0.0
 11
811.9021818807
 21
446.8334848613
 31
0.0
  0
LINE
  5
3CC
330
1F
100
AcDbEntity
  8
0
  6
Continuous
 62
     8
370
    25
100
AcDbLine
 10
674.8917289497
 20
-137.9648393931
 30
0.0
 11
688.5917289497
 21
-137.9648393931
 31
0.0
  0
LINE
  5
3CD
330
1F
100
AcDbEntity
  8
0
  6
Continuous
 62
     8
370
    25
100
AcDbLine
 10
661.1917289497
 20
-137.9648393931
 30
0.0
 11
674.8917289497
 21
-137.9648393931
 31
0.0
  0
LINE
  5
3CE
330
1F
100
AcDbEntity
  8
0
  6
Continuous
 62
     8
370
    25
100
AcDbLine
 10
674.8917289497
 20
-138.5023810107
 30
0.0
 11
688.2582791501
 21
-138.5023810107
 31
0.0
  0
LINE
  5
3CF
330
1F
100
AcDbEntity
  8
0
  6
Continuous
 62
     8
370
    25
100
AcDbLine
 10
661.5251787493
 20
-138.5023810107
 30
0.0
 11
674.8917289497
 21
-138.5023810107
 31
0.0
  0
LINE
  5
3D0
330
1F
100
AcDbEntity
  8
0
  6
Continuous
 62
     8
370
    25
100
AcDbLine
 10
688.5917289497
 20
446.2959432437
 30
0.0
 11
661.1917289497
 21
446.2959432437
 31
0.0
  0
LINE
  5
3D1
330
1F
100
AcDbEntity
  8
0
  6
Continuous
 62
     8
370
    25
100
AcDbLine
 10
688.2582791501
 20
446.8334848613
 30
0.0
 11
661.5251787493
 21
446.8334848613
 31
0.0
  0
LINE
  5
3D2
330
1F
100
AcDbEntity
  8
0
  6
Continuous
 62
     8
370
    25
100
AcDbLine
 10
593.6097569993
 20
-137.9648393931
 30
0.0
 11
607.3097569993
 21
-137.9648393931
 31
0.0
  0
LINE
  5
3D3
330
1F
100
AcDbEntity
  8
0
  6
Continuous
 62
     8
370
    25
100
AcDbLine
 10
579.9097569993
 20
-137.9648393931
 30
0.0
 11
593.6097569993
 21
-137.9648393931
 31
0.0
  0
LINE
  5
3D4
330
1F
100
AcDbEntity
  8
0
  6
Continuous
 62
     8
370
    25
100
AcDbLine
 10
593.6097569993
 20
-138.5023810107
 30
0.0
 11
606.9763071997
 21
-138.5023810107
 31
0.0
  0
LINE
  5
3D5
330
1F
100
AcDbEntity
  8
0
  6
Continuous
 62
     8
370
    25
100
AcDbLine
 10
580.2432067989
 20
-138.5023810107
 30
0.0
 11
593.6097569993
 21
-138.5023810107
 31
0.0
  0
LINE
  5
3D6
330
1F
100
AcDbEntity
  8
0
  6
Continuous
 62
     8
370
    25
100
AcDbLine
 10
-1128.8897062947
 20
431.2959432437
 30
0.0
 11
-1137.3419348843
 21
431.2959432437
 31
0.0
  0
LINE
  5
3D7
330
1F
100
AcDbEntity
  8
0
  6
Continuous
 62
     8
370
    25
100
AcDbLine
 10
-1109.9419348843
 20
431.2959432437
 30
0.0
 11
-1128.8897062947
 21
431.2959432437
 31
0.0
  0
LINE
  5
3D8
330
1F
100
AcDbEntity
  8
0
  6
Continuous
 62
     8
370
    25
100
AcDbLine
 10
-1128.7619786798
 20
431.8334848613
 30
0.0
 11
-1137.0084850847
 21
431.8334848613
 31
0.0
  0
LINE
  5
3D9
330
1F
100
AcDbEntity
  8
0
  6
Continuous
 62
     8
370
    25
100
AcDbLine
 10
-1110.2753846839
 20
431.8334848613
 30
0.0
 11
-1128.7619786798
 21
431.8334848613
 31
0.0
  0
LINE
  5
3DA
330
1F
100
AcDbEntity
  8
0
  6
Continuous
 62
     8
370
    25
100
AcDbLine
 10
239.6145573393
 20
-122.9648393931
 30
0.0
 11
267.0145573393
 21
-122.9648393931
 31
0.0
  0
LINE
  5
3DB
330
1F
100
AcDbEntity
  8
0
  6
Continuous
 62
     8
370
    25
100
AcDbLine
 10
239.9480071389
 20
-123.5023810107
 30
0.0
 11
266.6811075397
 21
-123.5023810107
 31
0.0
  0
LINE
  5
3DC
330
1F
100
AcDbEntity
  8
0
  6
Continuous
 62
     8
370
    25
100
AcDbLine
 10
-487.5797858163
 20
-122.9648393931
 30
0.0
 11
-460.1797858163
 21
-122.9648393931
 31
0.0
  0
LINE
  5
3DD
330
1F
100
AcDbEntity
  8
0
  6
Continuous
 62
     8
370
    25
100
AcDbLine
 10
-487.2463360167
 20
-123.5023810107
 30
0.0
 11
-460.5132356159
 21
-123.5023810107
 31
0.0
  0
LINE
  5
3DE
330
1F
100
AcDbEntity
  8
0
  6
Continuous
 62
     8
370
    25
100
AcDbLine
 10
1330.4057607974
 20
-122.9648393931
 30
0.0
 11
1342.6299623854
 21
-122.9648393931
 31
0.0
  0
LINE
  5
3DF
330
1F
100
AcDbEntity
  8
0
  6
Continuous
 62
     8
370
    25
100
AcDbLine
 10
1354.6299623854
 20
-122.9648393931
 30
0.0
 11
1357.8057607974
 21
-122.9648393931
 31
0.0
  0
LINE
  5
3E0
330
1F
100
AcDbEntity
  8
0
  6
Continuous
 62
     8
370
    25
100
AcDbLine
 10
1330.739210597
 20
-123.5023810107
 30
0.0
 11
1342.6299623854
 21
-123.5023810107
 31
0.0
  0
LINE
  5
3E1
330
1F
100
AcDbEntity
  8
0
  6
Continuous
 62
     8
370
    25
100
AcDbLine
 10
1354.6299623854
 20
-123.5023810107
 30
0.0
 11
1357.4723109978
 21
-123.5023810107
 31
0.0
  0
LINE
  5
3E2
330
1F
100
AcDbEntity
  8
0
  6
Continuous
 62
     8
370
    25
100
AcDbLine
 10
-115.530385649
 20
431.2959432437
 30
0.0
 11
-123.9826142385
 21
431.2959432437
 31
0.0
  0
LINE
  5
3E3
330
1F
100
AcDbEntity
  8
0
  6
Continuous
 62
     8
370
    25
100
AcDbLine
 10
-96.5826142385
 20
431.2959432437
 30
0.0
 11
-115.530385649
 21
431.2959432437
 31
0.0
  0
LINE
  5
3E4
330
1F
100
AcDbEntity
  8
0
  6
Continuous
 62
     8
370
    25
100
AcDbLine
 10
-115.402658034
 20
431.8334848613
 30
0.0
 11
-123.6491644389
 21
431.8334848613
 31
0.0
  0
LINE
  5
3E5
330
1F
100
AcDbEntity
  8
0
  6
Continuous
 62
     8
370
    25
100
AcDbLine
 10
-96.9160640381
 20
431.8334848613
 30
0.0
 11
-115.402658034
 21
431.8334848613
 31
0.0
  0
LINE
  5
3E6
330
1F
100
AcDbEntity
  8
0
  6
Continuous
 62
     8
370
    25
100
AcDbLine
 10
-1206.8055895813
 20
-122.9648393931
 30
0.0
 11
-1206.7010672817
 21
-122.9648393931
 31
0.0
  0
LINE
  5
3E7
330
1F
100
AcDbEntity
  8
0
  6
Continuous
 62
     8
370
    25
100
AcDbLine
 10
-1234.1010672817
 20
-122.9648393931
 30
0.0
 11
-1206.8055895813
 21
-122.9648393931
 31
0.0
  0
LINE
  5
3E8
330
1F
100
AcDbEntity
  8
0
  6
Continuous
 62
     8
370
    25
100
AcDbLine
 10
-1207.1364953707
 20
-123.5023810107
 30
0.0
 11
-1207.0345170813
 21
-123.5023810107
 31
0.0
  0
LINE
  5
3E9
330
1F
100
AcDbEntity
  8
0
  6
Continuous
 62
     8
370
    25
100
AcDbLine
 10
-1233.767617482
 20
-123.5023810107
 30
0.0
 11
-1207.1364953707
 21
-123.5023810107
 31
0.0
  0
LINE
  5
3EA
330
1F
100
AcDbEntity
  8
0
  6
Continuous
 62
     8
370
    25
100
AcDbLine
 10
838.9687320811
 20
-137.9648393931
 30
0.0
 11
846.9580058295
 21
-137.9648393931
 31
0.0
  0
LINE
  5
3EB
330
1F
100
AcDbEntity
  8
0
  6
Continuous
 62
     8
370
    25
100
AcDbLine
 10
838.6352822815
 20
-138.5023810107
 30
0.0
 11
846.6245560299
 21
-138.5023810107
 31
0.0
  0
LINE
  5
3EC
330
1F
100
AcDbEntity
  8
0
  6
Continuous
 62
     8
370
    25
100
AcDbLine
 10
846.9580058295
 20
446.2959432437
 30
0.0
 11
838.9687320811
 21
446.2959432437
 31
0.0
  0
LINE
  5
3ED
330
1F
100
AcDbEntity
  8
0
  6
Continuous
 62
     8
370
    25
100
AcDbLine
 10
846.6245560299
 20
446.8334848613
 30
0.0
 11
838.6352822815
 21
446.8334848613
 31
0.0
  0
LINE
  5
3EE
330
1F
100
AcDbEntity
  8
0
  6
Continuous
 62
     8
370
    25
100
AcDbLine
 10
-1206.7010672817
 20
431.2959432437
 30
0.0
 11
-1234.1010672817
 21
431.2959432437
 31
0.0
  0
LINE
  5
3EF
330
1F
100
AcDbEntity
  8
0
  6
Continuous
 62
     8
370
    25
100
AcDbLine
 10
-1207.0345170813
 20
431.8334848613
 30
0.0
 11
-1233.767617482
 21
431.8334848613
 31
0.0
  0
LINE
  5
3F0
330
1F
100
AcDbEntity
  8
0
  6
Continuous
 62
     8
370
    25
100
AcDbLine
 10
248.0667859288
 20
431.2959432437
 30
0.0
 11
239.6145573393
 21
431.2959432437
 31
0.0
  0
LINE
  5
3F1
330
1F
100
AcDbEntity
  8
0
  6
Continuous
 62
     8
370
    25
100
AcDbLine
 10
267.0145573393
 20
431.2959432437
 30
0.0
 11
248.0667859288
 21
431.2959432437
 31
0.0
  0
LINE
  5
3F2
330
1F
100
AcDbEntity
  8
0
  6
Continuous
 62
     8
370
    25
100
AcDbLine
 10
248.1945135438
 20
431.8334848613
 30
0.0
 11
239.9480071389
 21
431.8334848613
 31
0.0
  0
LINE
  5
3F3
330
1F
100
AcDbEntity
  8
0
  6
Continuous
 62
     8
370
    25
100
AcDbLine
 10
266.6811075397
 20
431.8334848613
 30
0.0
 11
248.1945135438
 21
431.8334848613
 31
0.0
  0
LINE
  5
3F4
330
1F
100
AcDbEntity
  8
0
  6
Continuous
 62
     8
370
    25
100
AcDbLine
 10
825.2687320811
 20
-137.9648393931
 30
0.0
 11
838.9687320811
 21
-137.9648393931
 31
0.0
  0
LINE
  5
3F5
330
1F
100
AcDbEntity
  8
0
  6
Continuous
 62
     8
370
    25
100
AcDbLine
 10
811.5687320811
 20
-137.9648393931
 30
0.0
 11
825.2687320811
 21
-137.9648393931
 31
0.0
  0
LINE
  5
3F6
330
1F
100
AcDbEntity
  8
0
  6
Continuous
 62
     8
370
    25
100
AcDbLine
 10
825.2687320811
 20
-138.5023810107
 30
0.0
 11
838.6352822815
 21
-138.5023810107
 31
0.0
  0
LINE
  5
3F7
330
1F
100
AcDbEntity
  8
0
  6
Continuous
 62
     8
370
    25
100
AcDbLine
 10
811.9021818807
 20
-138.5023810107
 30
0.0
 11
825.2687320811
 21
-138.5023810107
 31
0.0
  0
LINE
  5
3F8
330
1F
100
AcDbEntity
  8
0
  6
Continuous
 62
     8
370
    25
100
AcDbLine
 10
-123.9826142385
 20
-122.9648393931
 30
0.0
 11
-96.5826142385
 21
-122.9648393931
 31
0.0
  0
LINE
  5
3F9
330
1F
100
AcDbEntity
  8
0
  6
Continuous
 62
     8
370
    25
100
AcDbLine
 10
-123.6491644389
 20
-123.5023810107
 30
0.0
 11
-96.9160640381
 21
-123.5023810107
 31
0.0
  0
LINE
  5
3FA
330
1F
100
AcDbEntity
  8
0
  6
Continuous
 62
     8
370
    25
100
AcDbLine
 10
611.6639575066
 20
446.2959432437
 30
0.0
 11
607.3097569993
 21
446.2959432437
 31
0.0
  0
LINE
  5
3FB
330
1F
100
AcDbEntity
  8
0
  6
Continuous
 62
     8
370
    25
100
AcDbLine
 10
630.6117289171
 20
446.2959432437
 30
0.0
 11
611.6639575066
 21
446.2959432437
 31
0.0
  0
LINE
  5
3FC
330
1F
100
AcDbEntity
  8
0
  6
Continuous
 62
     8
370
    25
100
AcDbLine
 10
611.7916851216
 20
446.8334848613
 30
0.0
 11
606.9763071997
 21
446.8334848613
 31
0.0
  0
LINE
  5
3FD
330
1F
100
AcDbEntity
  8
0
  6
Continuous
 62
     8
370
    25
100
AcDbLine
 10
630.2782791175
 20
446.8334848613
 30
0.0
 11
611.7916851216
 21
446.8334848613
 31
0.0
  0
LINE
  5
3FE
330
1F
100
AcDbEntity
  8
0
  6
Continuous
 62
     8
370
    25
100
AcDbLine
 10
-1130.9524264928
 20
-93.8344480747
 30
0.0
 11
-1269.528294108
 21
-93.8344480747
 31
0.0
  0
LINE
  5
3FF
330
1F
100
AcDbEntity
  8
0
  6
Continuous
 62
     8
370
    25
100
AcDbLine
 10
-1269.528294108
 20
-102.8344480747
 30
0.0
 11
-1130.9524264928
 21
-102.8344480747
 31
0.0
  0
LINE
  5
400
330
1F
100
AcDbEntity
  8
0
  6
Continuous
 62
     8
370
    25
100
AcDbLine
 10
1413.8539657838
 20
485.0783961826
 30
0.0
 11
1414.4302672361
 21
491.6655519253
 31
0.0
  0
LINE
  5
401
330
1F
100
AcDbEntity
  8
0
  6
Continuous
 62
     8
370
    25
100
AcDbLine
 10
1384.8296575347
 20
491.6655519253
 30
0.0
 11
1385.4059589871
 21
485.0783961826
 31
0.0
  0
LINE
  5
402
330
1F
100
AcDbEntity
  8
0
  6
Continuous
 62
     8
370
    25
100
AcDbLine
 10
1416.7213736979
 20
483.200451422
 30
0.0
 11
1382.5385510729
 21
483.200451422
 31
0.0
  0
LINE
  5
403
330
1F
100
AcDbEntity
  8
0
  6
Continuous
 62
     8
370
    25
100
AcDbLine
 10
1384.287026982
 20
433.1306524286
 30
0.0
 11
1414.9728977888
 21
433.1306524286
 31
0.0
  0
LINE
  5
404
330
1F
100
AcDbEntity
  8
0
  6
Continuous
 62
     8
370
    25
100
AcDbLine
 10
1385.4059589871
 20
-176.7472923319
 30
0.0
 11
1384.8296575347
 21
-183.3344480747
 31
0.0
  0
LINE
  5
405
330
1F
100
AcDbEntity
  8
0
  6
Continuous
 62
     8
370
    25
100
AcDbLine
 10
1414.4302672361
 20
-183.3344480747
 30
0.0
 11
1413.8539657838
 21
-176.7472923319
 31
0.0
  0
LINE
  5
406
330
1F
100
AcDbEntity
  8
0
  6
Continuous
 62
     8
370
    25
100
AcDbLine
 10
1399.6299623854
 20
-174.8693475714
 30
0.0
 11
1416.7213736979
 21
-174.8693475714
 31
0.0
  0
LINE
  5
407
330
1F
100
AcDbEntity
  8
0
  6
Continuous
 62
     8
370
    25
100
AcDbLine
 10
1382.5385510729
 20
-174.8693475714
 30
0.0
 11
1399.6299623854
 21
-174.8693475714
 31
0.0
  0
LINE
  5
408
330
1F
100
AcDbEntity
  8
0
  6
Continuous
 62
     8
370
    25
100
AcDbLine
 10
1399.6299623854
 20
-124.799548578
 30
0.0
 11
1384.287026982
 21
-124.799548578
 31
0.0
  0
LINE
  5
409
330
1F
100
AcDbEntity
  8
0
  6
Continuous
 62
     8
370
    25
100
AcDbLine
 10
1414.9728977888
 20
-124.799548578
 30
0.0
 11
1399.6299623854
 21
-124.799548578
 31
0.0
  0
LINE
  5
40A
330
1F
100
AcDbEntity
  8
0
  6
Continuous
 62
     8
370
    25
100
AcDbLine
 10
1352.1299623854
 20
515.6998746683
 30
0.0
 11
1351.6299623854
 21
515.692588372
 31
0.0
  0
LINE
  5
40B
330
1F
100
AcDbEntity
  8
0
  6
Continuous
 62
     8
370
    25
100
AcDbLine
 10
1351.6299623854
 20
-207.3614845213
 30
0.0
 11
1352.1299623854
 21
-207.3687708177
 31
0.0
  0
LINE
  5
40C
330
1F
100
AcDbEntity
  8
0
  6
Continuous
 62
     8
370
    25
100
AcDbLine
 10
1341.2028777806
 20
-197.3344480747
 30
0.0
 11
1341.2028777806
 21
-228.3344480747
 31
0.0
  0
LINE
  5
40D
330
1F
100
AcDbEntity
  8
0
  6
Continuous
 62
     8
370
    25
100
AcDbLine
 10
1341.2028777806
 20
517.8860439932
 30
0.0
 11
1341.2028777806
 21
505.6655519253
 31
0.0
  0
LINE
  5
40E
330
1F
100
AcDbEntity
  8
0
  6
Continuous
 62
     8
370
    25
100
AcDbLine
 10
1341.2028777806
 20
536.6655519253
 30
0.0
 11
1341.2028777806
 21
517.8860439932
 31
0.0
  0
LINE
  5
40F
330
1F
100
AcDbEntity
  8
0
  6
Continuous
 62
     8
370
    25
100
AcDbLine
 10
1329.1177277617
 20
518.8910544885
 30
0.0
 11
1329.1177277617
 21
510.4155519253
 31
0.0
  0
LINE
  5
410
330
1F
100
AcDbEntity
  8
0
  6
Continuous
 62
     8
370
    25
100
AcDbLine
 10
1329.1177277617
 20
531.9155519253
 30
0.0
 11
1329.1177277617
 21
518.8910544885
 31
0.0
  0
LINE
  5
411
330
1F
100
AcDbEntity
  8
0
  6
Continuous
 62
     8
370
    25
100
AcDbLine
 10
1328.5549038202
 20
518.9740119996
 30
0.0
 11
1328.5549038202
 21
510.8076355698
 31
0.0
  0
LINE
  5
412
330
1F
100
AcDbEntity
  8
0
  6
Continuous
 62
     8
370
    25
100
AcDbLine
 10
1328.5549038202
 20
531.5234682808
 30
0.0
 11
1328.5549038202
 21
518.9740119996
 31
0.0
  0
LINE
  5
413
330
1F
100
AcDbEntity
  8
0
  6
Continuous
 62
     8
370
    25
100
AcDbLine
 10
1329.1177277617
 20
-202.0844480747
 30
0.0
 11
1329.1177277617
 21
-223.5844480747
 31
0.0
  0
LINE
  5
414
330
1F
100
AcDbEntity
  8
0
  6
Continuous
 62
     8
370
    25
100
AcDbLine
 10
1328.5549038202
 20
-202.4765317192
 30
0.0
 11
1328.5549038202
 21
-223.1923644302
 31
0.0
  0
LINE
  5
415
330
1F
100
AcDbEntity
  8
0
  6
Continuous
 62
     8
370
    25
100
AcDbLine
 10
2201.6299623854
 20
491.6655519253
 30
0.0
 11
2201.6299623854
 21
491.1655519253
 31
0.0
  0
LINE
  5
416
330
1F
100
AcDbEntity
  8
0
  6
Continuous
 62
     8
370
    25
100
AcDbLine
 10
1441.6299623854
 20
491.1655519253
 30
0.0
 11
1419.3674963948
 21
491.1655519253
 31
0.0
  0
LINE
  5
417
330
1F
100
AcDbEntity
  8
0
  6
Continuous
 62
     8
370
    25
100
AcDbLine
 10
1379.892428376
 20
491.1655519253
 30
0.0
 11
1367.6299623854
 21
491.1655519253
 31
0.0
  0
LINE
  5
418
330
1F
100
AcDbEntity
  8
0
  6
Continuous
 62
     8
370
    25
100
AcDbLine
 10
1367.6299623854
 20
491.1655519253
 30
0.0
 11
1367.6299623854
 21
491.6655519253
 31
0.0
  0
LINE
  5
419
330
1F
100
AcDbEntity
  8
0
  6
Continuous
 62
     8
370
    25
100
AcDbLine
 10
1441.6299623854
 20
491.1655519253
 30
0.0
 11
1441.6299623854
 21
491.676679119
 31
0.0
  0
LINE
  5
41A
330
1F
100
AcDbEntity
  8
0
  6
Continuous
 62
     8
370
    25
100
AcDbLine
 10
1447.6299623854
 20
497.1655519253
 30
0.0
 11
1447.1188351918
 21
497.1655519253
 31
0.0
  0
LINE
  5
41B
330
1F
100
AcDbEntity
  8
0
  6
Continuous
 62
     8
370
    25
100
AcDbLine
 10
2201.6299623854
 20
-183.3344480747
 30
0.0
 11
2201.6299623854
 21
-182.8344480747
 31
0.0
  0
LINE
  5
41C
330
1F
100
AcDbEntity
  8
0
  6
Continuous
 62
     8
370
    25
100
AcDbLine
 10
1447.6299623854
 20
-262.8344480747
 30
0.0
 11
1447.1299623854
 21
-262.8344480747
 31
0.0
  0
LINE
  5
41D
330
1F
100
AcDbEntity
  8
0
  6
Continuous
 62
     8
370
    25
100
AcDbLine
 10
2122.1299623854
 20
-262.8344480747
 30
0.0
 11
2121.6299623854
 21
-262.8344480747
 31
0.0
  0
LINE
  5
41E
330
1F
100
AcDbEntity
  8
0
  6
Continuous
 62
     8
370
    25
100
AcDbLine
 10
2122.1390036318
 20
-188.8344480747
 30
0.0
 11
2121.6299623854
 21
-188.8344480747
 31
0.0
  0
LINE
  5
41F
330
1F
100
AcDbEntity
  8
0
  6
Continuous
 62
     8
370
    25
100
AcDbLine
 10
1447.6299623854
 20
571.1655519253
 30
0.0
 11
1447.1299623854
 21
571.1655519253
 31
0.0
  0
LINE
  5
420
330
1F
100
AcDbEntity
  8
0
  6
Continuous
 62
     8
370
    25
100
AcDbLine
 10
2127.6299623854
 20
491.6745931718
 30
0.0
 11
2127.6299623854
 21
491.1655519253
 31
0.0
  0
LINE
  5
421
330
1F
100
AcDbEntity
  8
0
  6
Continuous
 62
     8
370
    25
100
AcDbLine
 10
2122.1390036318
 20
497.1655519253
 30
0.0
 11
2121.6299623854
 21
497.1655519253
 31
0.0
  0
LINE
  5
422
330
1F
100
AcDbEntity
  8
0
  6
Continuous
 62
     8
370
    25
100
AcDbLine
 10
2127.6299623854
 20
-183.3434893211
 30
0.0
 11
2127.6299623854
 21
-182.8344480747
 31
0.0
  0
LINE
  5
423
330
1F
100
AcDbEntity
  8
0
  6
Continuous
 62
     8
370
    25
100
AcDbLine
 10
1447.6299623854
 20
-188.8344480747
 30
0.0
 11
1447.1188351918
 21
-188.8344480747
 31
0.0
  0
LINE
  5
424
330
1F
100
AcDbEntity
  8
0
  6
Continuous
 62
     8
370
    25
100
AcDbLine
 10
1441.6299623854
 20
-182.8344480747
 30
0.0
 11
1441.6299623854
 21
-183.3455752683
 31
0.0
  0
LINE
  5
425
330
1F
100
AcDbEntity
  8
0
  6
Continuous
 62
     8
370
    25
100
AcDbLine
 10
1367.6299623854
 20
491.1655519253
 30
0.0
 11
1367.6299623854
 21
414.1655519253
 31
0.0
  0
LINE
  5
426
330
1F
100
AcDbEntity
  8
0
  6
Continuous
 62
     8
370
    25
100
AcDbLine
 10
1367.6299623854
 20
-105.8344480747
 30
0.0
 11
1367.6299623854
 21
-182.8344480747
 31
0.0
  0
LINE
  5
427
330
1F
100
AcDbEntity
  8
0
  6
Continuous
 62
     8
370
    25
100
AcDbLine
 10
1367.6299623854
 20
-182.8344480747
 30
0.0
 11
1379.892428376
 21
-182.8344480747
 31
0.0
  0
LINE
  5
428
330
1F
100
AcDbEntity
  8
0
  6
Continuous
 62
     8
370
    25
100
AcDbLine
 10
1419.3674963948
 20
-182.8344480747
 30
0.0
 11
1441.6299623854
 21
-182.8344480747
 31
0.0
  0
LINE
  5
429
330
1F
100
AcDbEntity
  8
0
  6
Continuous
 62
     8
370
    25
100
AcDbLine
 10
2122.1299623854
 20
571.1655519253
 30
0.0
 11
2121.6299623854
 21
571.1655519253
 31
0.0
  0
LINE
  5
42A
330
1F
100
AcDbEntity
  8
0
  6
Continuous
 62
     8
370
    25
100
AcDbLine
 10
1367.6299623854
 20
-182.8344480747
 30
0.0
 11
1367.6299623854
 21
-183.3344480747
 31
0.0
  0
ENDSEC
  0
SECTION
  2
OBJECTS
  0
DICTIONARY
  5
C
330
0
100
AcDbDictionary
281
     1
  3
ACAD_GROUP
350
D
  3
ACAD_LAYOUT
350
1A
  3
ACAD_MLINESTYLE
350
17
  3
ACAD_PLOTSETTINGS
350
19
  3
ACAD_PLOTSTYLENAME
350
E
  3
ACAD_SCALELIST
350
47
  3
DWGPROPS
350
42B
  0
DICTIONARY
  5
D
102
{ACAD_REACTORS
330
C
102
}
330
C
100
AcDbDictionary
281
     1
  0
DICTIONARY
  5
1A
102
{ACAD_REACTORS
330
C
102
}
330
C
100
AcDbDictionary
281
     1
  3
Layout1
350
1E
  3
Layout2
350
26
  3
Model
350
22
  0
DICTIONARY
  5
17
102
{ACAD_REACTORS
330
C
102
}
330
C
100
AcDbDictionary
281
     1
  3
Standard
350
18
  0
DICTIONARY
  5
19
102
{ACAD_REACTORS
330
C
102
}
330
C
100
AcDbDictionary
281
     1
  0
ACDBDICTIONARYWDFLT
  5
E
102
{ACAD_REACTORS
330
C
102
}
330
C
100
AcDbDictionary
281
     1
  3
Normal
350
F
100
AcDbDictionaryWithDefault
340
F
  0
DICTIONARY
  5
47
102
{ACAD_REACTORS
330
C
102
}
330
C
100
AcDbDictionary
281
     1
  3
A0
350
48
  3
A1
350
49
  3
A2
350
4A
  3
A3
350
4B
  3
A4
350
4C
  3
A5
350
4D
  3
A6
350
4E
  3
A7
350
4F
  3
A8
350
50
  3
A9
350
51
  3
B0
350
52
  3
B1
350
53
  3
B2
350
54
  3
B3
350
55
  3
B4
350
56
  3
B5
350
57
  3
B6
350
58
  3
B7
350
59
  3
B8
350
5A
  3
B9
350
5B
  3
C0
350
5C
  3
C1
350
5D
  3
C2
350
5E
  3
C3
350
5F
  3
C4
350
60
  3
C5
350
61
  3
C6
350
62
  3
C7
350
63
  3
C8
350
64
  3
C9
350
65
  3
D0
350
66
  3
D1
350
67
  3
D2
350
68
  0
XRECORD
  5
42B
102
{ACAD_REACTORS
330
C
102
}
330
C
100
AcDbXrecord
280
     1
  1
DWGPROPS COOKIE
  2

  3

  4

  6

  7

  8
Swing
  9

300
=
301
=
302
=
303
=
304
=
305
=
306
=
307
=
308
=
309
=
 40
0.0
 41
2459565.498662708
 42
2459565.498662975
  1

 90
        0
  0
LAYOUT
  5
1E
102
{ACAD_REACTORS
330
1A
102
}
330
1A
100
AcDbPlotSettings
  1

  2
none_device
  4

  6

 40
0.0
 41
0.0
 42
0.0
 43
0.0
 44
0.0
 45
0.0
 46
0.0
 47
0.0
 48
0.0
 49
0.0
140
0.0
141
0.0
142
1.0
143
1.0
 70
   688
 72
     1
 73
     0
 74
     5
  7

 75
    16
147
1.0
148
0.0
149
0.0
100
AcDbLayout
  1
Layout1
 70
     1
 71
     1
 10
0.0
 20
0.0
 11
420.0
 21
297.0
 12
0.0
 22
0.0
 32
0.0
 14
1.0000000000E+20
 24
1.0000000000E+20
 34
1.0000000000E+20
 15
-1.0000000000E+20
 25
-1.0000000000E+20
 35
-1.0000000000E+20
146
0.0
 13
0.0
 23
0.0
 33
0.0
 16
1.0
 26
0.0
 36
0.0
 17
0.0
 27
1.0
 37
0.0
 76
     0
330
1B
  0
LAYOUT
  5
26
102
{ACAD_REACTORS
330
1A
102
}
330
1A
100
AcDbPlotSettings
  1

  2
none_device
  4

  6

 40
0.0
 41
0.0
 42
0.0
 43
0.0
 44
0.0
 45
0.0
 46
0.0
 47
0.0
 48
0.0
 49
0.0
140
0.0
141
0.0
142
1.0
143
1.0
 70
   688
 72
     1
 73
     0
 74
     5
  7

 75
    16
147
1.0
148
0.0
149
0.0
100
AcDbLayout
  1
Layout2
 70
     1
 71
     2
 10
0.0
 20
0.0
 11
0.0
 21
0.0
 12
0.0
 22
0.0
 32
0.0
 14
0.0
 24
0.0
 34
0.0
 15
0.0
 25
0.0
 35
0.0
146
0.0
 13
0.0
 23
0.0
 33
0.0
 16
1.0
 26
0.0
 36
0.0
 17
0.0
 27
1.0
 37
0.0
 76
     0
330
23
  0
LAYOUT
  5
22
102
{ACAD_REACTORS
330
1A
102
}
330
1A
100
AcDbPlotSettings
  1

  2
none_device
  4
Letter_(8.50_x_11.00_Inches)
  6

 40
6.35
 41
6.35
 42
6.35000508
 43
6.35000508
 44
215.9
 45
279.4
 46
0.0
 47
0.0
 48
0.0
 49
0.0
140
0.0
141
0.0
142
1.0
143
1.0
 70
  1712
 72
     1
 73
     0
 74
     0
  7

 75
     0
147
1.0
148
0.0
149
0.0
100
AcDbLayout
  1
Model
 70
     1
 71
     0
 10
0.0
 20
0.0
 11
431.8
 21
279.4
 12
0.0
 22
0.0
 32
0.0
 14
0.0
 24
0.0
 34
0.0
 15
431.8
 25
279.4
 35
0.0
146
0.0
 13
0.0
 23
0.0
 33
0.0
 16
1.0
 26
0.0
 36
0.0
 17
0.0
 27
1.0
 37
0.0
 76
     0
330
1F
331
29
  0
MLINESTYLE
  5
18
102
{ACAD_REACTORS
330
17
102
}
330
17
100
AcDbMlineStyle
  2
Standard
 70
     0
  3

 62
   256
 51
90.0
 52
90.0
 71
     2
 49
0.5
 62
   256
  6
BYLAYER
 49
-0.5
 62
   256
  6
BYLAYER
  0
ACDBPLACEHOLDER
  5
F
102
{ACAD_REACTORS
330
E
102
}
330
E
  0
SCALE
  5
48
102
{ACAD_REACTORS
330
47
102
}
330
47
100
AcDbScale
 70
     0
300
1:1
140
1.0
141
1.0
290
     1
  0
SCALE
  5
49
102
{ACAD_REACTORS
330
47
102
}
330
47
100
AcDbScale
 70
     0
300
1:2
140
1.0
141
2.0
290
     0
  0
SCALE
  5
4A
102
{ACAD_REACTORS
330
47
102
}
330
47
100
AcDbScale
 70
     0
300
1:4
140
1.0
141
4.0
290
     0
  0
SCALE
  5
4B
102
{ACAD_REACTORS
330
47
102
}
330
47
100
AcDbScale
 70
     0
300
1:5
140
1.0
141
5.0
290
     0
  0
SCALE
  5
4C
102
{ACAD_REACTORS
330
47
102
}
330
47
100
AcDbScale
 70
     0
300
1:8
140
1.0
141
8.0
290
     0
  0
SCALE
  5
4D
102
{ACAD_REACTORS
330
47
102
}
330
47
100
AcDbScale
 70
     0
300
1:10
140
1.0
141
10.0
290
     0
  0
SCALE
  5
4E
102
{ACAD_REACTORS
330
47
102
}
330
47
100
AcDbScale
 70
     0
300
1:16
140
1.0
141
16.0
290
     0
  0
SCALE
  5
4F
102
{ACAD_REACTORS
330
47
102
}
330
47
100
AcDbScale
 70
     0
300
1:20
140
1.0
141
20.0
290
     0
  0
SCALE
  5
50
102
{ACAD_REACTORS
330
47
102
}
330
47
100
AcDbScale
 70
     0
300
1:30
140
1.0
141
30.0
290
     0
  0
SCALE
  5
51
102
{ACAD_REACTORS
330
47
102
}
330
47
100
AcDbScale
 70
     0
300
1:40
140
1.0
141
40.0
290
     0
  0
SCALE
  5
52
102
{ACAD_REACTORS
330
47
102
}
330
47
100
AcDbScale
 70
     0
300
1:50
140
1.0
141
50.0
290
     0
  0
SCALE
  5
53
102
{ACAD_REACTORS
330
47
102
}
330
47
100
AcDbScale
 70
     0
300
1:100
140
1.0
141
100.0
290
     0
  0
SCALE
  5
54
102
{ACAD_REACTORS
330
47
102
}
330
47
100
AcDbScale
 70
     0
300
2:1
140
2.0
141
1.0
290
     0
  0
SCALE
  5
55
102
{ACAD_REACTORS
330
47
102
}
330
47
100
AcDbScale
 70
     0
300
4:1
140
4.0
141
1.0
290
     0
  0
SCALE
  5
56
102
{ACAD_REACTORS
330
47
102
}
330
47
100
AcDbScale
 70
     0
300
8:1
140
8.0
141
1.0
290
     0
  0
SCALE
  5
57
102
{ACAD_REACTORS
330
47
102
}
330
47
100
AcDbScale
 70
     0
300
10:1
140
10.0
141
1.0
290
     0
  0
SCALE
  5
58
102
{ACAD_REACTORS
330
47
102
}
330
47
100
AcDbScale
 70
     0
300
100:1
140
100.0
141
1.0
290
     0
  0
SCALE
  5
59
102
{ACAD_REACTORS
330
47
102
}
330
47
100
AcDbScale
 70
     0
300
1/128" = 1'-0"
140
0.0078125
141
12.0
290
     0
  0
SCALE
  5
5A
102
{ACAD_REACTORS
330
47
102
}
330
47
100
AcDbScale
 70
     0
300
1/64" = 1'-0"
140
0.015625
141
12.0
290
     0
  0
SCALE
  5
5B
102
{ACAD_REACTORS
330
47
102
}
330
47
100
AcDbScale
 70
     0
300
1/32" = 1'-0"
140
0.03125
141
12.0
290
     0
  0
SCALE
  5
5C
102
{ACAD_REACTORS
330
47
102
}
330
47
100
AcDbScale
 70
     0
300
1/16" = 1'-0"
140
0.0625
141
12.0
290
     0
  0
SCALE
  5
5D
102
{ACAD_REACTORS
330
47
102
}
330
47
100
AcDbScale
 70
     0
300
3/32" = 1'-0"
140
0.09375
141
12.0
290
     0
  0
SCALE
  5
5E
102
{ACAD_REACTORS
330
47
102
}
330
47
100
AcDbScale
 70
     0
300
1/8" = 1'-0"
140
0.125
141
12.0
290
     0
  0
SCALE
  5
5F
102
{ACAD_REACTORS
330
47
102
}
330
47
100
AcDbScale
 70
     0
300
3/16" = 1'-0"
140
0.1875
141
12.0
290
     0
  0
SCALE
  5
60
102
{ACAD_REACTORS
330
47
102
}
330
47
100
AcDbScale
 70
     0
300
1/4" = 1'-0"
140
0.25
141
12.0
290
     0
  0
SCALE
  5
61
102
{ACAD_REACTORS
330
47
102
}
330
47
100
AcDbScale
 70
     0
300
3/8" = 1'-0"
140
0.375
141
12.0
290
     0
  0
SCALE
  5
62
102
{ACAD_REACTORS
330
47
102
}
330
47
100
AcDbScale
 70
     0
300
1/2" = 1'-0"
140
0.5
141
12.0
290
     0
  0
SCALE
  5
63
102
{ACAD_REACTORS
330
47
102
}
330
47
100
AcDbScale
 70
     0
300
3/4" = 1'-0"
140
0.75
141
12.0
290
     0
  0
SCALE
  5
64
102
{ACAD_REACTORS
330
47
102
}
330
47
100
AcDbScale
 70
     0
300
1" = 1'-0"
140
1.0
141
12.0
290
     0
  0
SCALE
  5
65
102
{ACAD_REACTORS
330
47
102
}
330
47
100
AcDbScale
 70
     0
300
1-1/2" = 1'-0"
140
1.5
141
12.0
290
     0
  0
SCALE
  5
66
102
{ACAD_REACTORS
330
47
102
}
330
47
100
AcDbScale
 70
     0
300
3" = 1'-0"
140
3.0
141
12.0
290
     0
  0
SCALE
  5
67
102
{ACAD_REACTORS
330
47
102
}
330
47
100
AcDbScale
 70
     0
300
6" = 1'-0"
140
6.0
141
12.0
290
     0
  0
SCALE
  5
68
102
{ACAD_REACTORS
330
47
102
}
330
47
100
AcDbScale
 70
     0
300
1'-0" = 1'-0"
140
12.0
141
12.0
290
     0
  0
ENDSEC
  0
EOF
