  0
SECTION
  2
HEADER
  9
$ACADVER
  1
AC1015
  9
$ACADMAINTVER
 70
     6
  9
$DWGCODEPAGE
  3
ANSI_1250
  9
$INSBASE
 10
0.0
 20
0.0
 30
0.0
  9
$EXTMIN
 10
0.0
 20
0.0
 30
0.0
  9
$EXTMAX
 10
431.8
 20
279.4
 30
0.0
  9
$LIMMIN
 10
0.0
 20
0.0
  9
$LIMMAX
 10
431.8
 20
279.4
  9
$ORTHOMODE
 70
     0
  9
$REGENMODE
 70
     1
  9
$FILLMODE
 70
     1
  9
$QTEXTMODE
 70
     0
  9
$MIRRTEXT
 70
     1
  9
$LTSCALE
 40
1.0
  9
$ATTMODE
 70
     1
  9
$TEXTSIZE
 40
3.8805555556
  9
$TRACEWID
 40
1.0
  9
$TEXTSTYLE
  7
Standard
  9
$CLAYER
  8
0
  9
$CELTYPE
  6
ByLayer
  9
$CECOLOR
 62
   256
  9
$CELTSCALE
 40
1.0
  9
$DISPSILH
 70
     0
  9
$DIMSCALE
 40
1.0
  9
$DIMASZ
 40
3.302
  9
$DIMEXO
 40
1.0
  9
$DIMDLI
 40
3.75
  9
$DIMRND
 40
0.0
  9
$DIMDLE
 40
0.0
  9
$DIMEXE
 40
1.0
  9
$DIMTP
 40
0.0
  9
$DIMTM
 40
0.0
  9
$DIMTXT
 40
3.8805555556
  9
$DIMCEN
 40
2.5
  9
$DIMTSZ
 40
0.0
  9
$DIMTOL
 70
     0
  9
$DIMLIM
 70
     0
  9
$DIMTIH
 70
     1
  9
$DIMTOH
 70
     1
  9
$DIMSE1
 70
     0
  9
$DIMSE2
 70
     0
  9
$DIMTAD
 70
     1
  9
$DIMZIN
 70
     0
  9
$DIMBLK
  1

  9
$DIMASO
 70
     1
  9
$DIMSHO
 70
     1
  9
$DIMPOST
  1

  9
$DIMAPOST
  1

  9
$DIMALT
 70
     0
  9
$DIMALTD
 70
     3
  9
$DIMALTF
 40
0.0393700787
  9
$DIMLFAC
 40
1.0
  9
$DIMTOFL
 70
     1
  9
$DIMTVP
 40
0.0
  9
$DIMTIX
 70
     0
  9
$DIMSOXD
 70
     0
  9
$DIMSAH
 70
     0
  9
$DIMBLK1
  1

  9
$DIMBLK2
  1

  9
$DIMSTYLE
  2
ISO-25
  9
$DIMCLRD
 70
     0
  9
$DIMCLRE
 70
     0
  9
$DIMCLRT
 70
     0
  9
$DIMTFAC
 40
1.0
  9
$DIMGAP
 40
1.524
  9
$DIMJUST
 70
     0
  9
$DIMSD1
 70
     0
  9
$DIMSD2
 70
     0
  9
$DIMTOLJ
 70
     0
  9
$DIMTZIN
 70
     0
  9
$DIMALTZ
 70
     0
  9
$DIMALTTZ
 70
     0
  9
$DIMUPT
 70
     0
  9
$DIMDEC
 70
     1
  9
$DIMTDEC
 70
     1
  9
$DIMALTU
 70
     2
  9
$DIMALTTD
 70
     3
  9
$DIMTXSTY
  7
Standard
  9
$DIMAUNIT
 70
     0
  9
$DIMADEC
 70
     1
  9
$DIMALTRND
 40
0.0
  9
$DIMAZIN
 70
     0
  9
$DIMDSEP
 70
    44
  9
$DIMATFIT
 70
     3
  9
$DIMFRAC
 70
     0
  9
$DIMLDRBLK
  1

  9
$DIMLUNIT
 70
     2
  9
$DIMLWD
 70
    -2
  9
$DIMLWE
 70
    -2
  9
$DIMTMOVE
 70
     0
  9
$LUNITS
 70
     2
  9
$LUPREC
 70
     1
  9
$SKETCHINC
 40
1.0
  9
$FILLETRAD
 40
10.0
  9
$AUNITS
 70
     0
  9
$AUPREC
 70
     1
  9
$MENU
  1
.
  9
$ELEVATION
 40
0.0
  9
$PELEVATION
 40
0.0
  9
$THICKNESS
 40
0.0
  9
$LIMCHECK
 70
     0
  9
$CHAMFERA
 40
0.0
  9
$CHAMFERB
 40
0.0
  9
$CHAMFERC
 40
0.0
  9
$CHAMFERD
 40
0.0
  9
$SKPOLY
 70
     0
  9
$TDCREATE
 40
2459565.563109977
  9
$TDUCREATE
 40
2459565.52144331
  9
$TDUPDATE
 40
2459565.563110359
  9
$TDUUPDATE
 40
2459565.521443692
  9
$TDINDWG
 40
0.0000000116
  9
$TDUSRTIMER
 40
0.0000000116
  9
$USRTIMER
 70
     1
  9
$ANGBASE
 50
0.0
  9
$ANGDIR
 70
     0
  9
$PDMODE
 70
     0
  9
$PDSIZE
 40
-1.0
  9
$PLINEWID
 40
0.0
  9
$SPLFRAME
 70
     0
  9
$SPLINETYPE
 70
     6
  9
$SPLINESEGS
 70
     8
  9
$HANDSEED
  5
67E
  9
$SURFTAB1
 70
     6
  9
$SURFTAB2
 70
     6
  9
$SURFTYPE
 70
     6
  9
$SURFU
 70
     6
  9
$SURFV
 70
     6
  9
$UCSBASE
  2

  9
$UCSNAME
  2

  9
$UCSORG
 10
0.0
 20
0.0
 30
0.0
  9
$UCSXDIR
 10
1.0
 20
0.0
 30
0.0
  9
$UCSYDIR
 10
0.0
 20
1.0
 30
0.0
  9
$UCSORTHOREF
  2

  9
$UCSORTHOVIEW
 70
     0
  9
$UCSORGTOP
 10
0.0
 20
0.0
 30
0.0
  9
$UCSORGBOTTOM
 10
0.0
 20
0.0
 30
0.0
  9
$UCSORGLEFT
 10
0.0
 20
0.0
 30
0.0
  9
$UCSORGRIGHT
 10
0.0
 20
0.0
 30
0.0
  9
$UCSORGFRONT
 10
0.0
 20
0.0
 30
0.0
  9
$UCSORGBACK
 10
0.0
 20
0.0
 30
0.0
  9
$PUCSBASE
  2

  9
$PUCSNAME
  2

  9
$PUCSORG
 10
0.0
 20
0.0
 30
0.0
  9
$PUCSXDIR
 10
1.0
 20
0.0
 30
0.0
  9
$PUCSYDIR
 10
0.0
 20
1.0
 30
0.0
  9
$PUCSORTHOREF
  2

  9
$PUCSORTHOVIEW
 70
     0
  9
$PUCSORGTOP
 10
0.0
 20
0.0
 30
0.0
  9
$PUCSORGBOTTOM
 10
0.0
 20
0.0
 30
0.0
  9
$PUCSORGLEFT
 10
0.0
 20
0.0
 30
0.0
  9
$PUCSORGRIGHT
 10
0.0
 20
0.0
 30
0.0
  9
$PUCSORGFRONT
 10
0.0
 20
0.0
 30
0.0
  9
$PUCSORGBACK
 10
0.0
 20
0.0
 30
0.0
  9
$USERI1
 70
     0
  9
$USERI2
 70
     0
  9
$USERI3
 70
     0
  9
$USERI4
 70
     0
  9
$USERI5
 70
     0
  9
$USERR1
 40
0.0
  9
$USERR2
 40
0.0
  9
$USERR3
 40
0.0
  9
$USERR4
 40
0.0
  9
$USERR5
 40
0.0
  9
$WORLDVIEW
 70
     1
  9
$SHADEDGE
 70
     3
  9
$SHADEDIF
 70
    70
  9
$TILEMODE
 70
     1
  9
$MAXACTVP
 70
    64
  9
$PINSBASE
 10
0.0
 20
0.0
 30
0.0
  9
$PLIMCHECK
 70
     0
  9
$PEXTMIN
 10
1.0000000000E+20
 20
1.0000000000E+20
 30
1.0000000000E+20
  9
$PEXTMAX
 10
-1.0000000000E+20
 20
-1.0000000000E+20
 30
-1.0000000000E+20
  9
$PLIMMIN
 10
0.0
 20
0.0
  9
$PLIMMAX
 10
420.0
 20
297.0
  9
$UNITMODE
 70
     0
  9
$VISRETAIN
 70
     1
  9
$PLINEGEN
 70
     0
  9
$PSLTSCALE
 70
     1
  9
$TREEDEPTH
 70
  3020
  9
$CMLSTYLE
  2
Standard
  9
$CMLJUST
 70
     0
  9
$CMLSCALE
 40
20.0
  9
$PROXYGRAPHICS
 70
     1
  9
$MEASUREMENT
 70
     1
  9
$CELWEIGHT
370
    -1
  9
$ENDCAPS
280
     0
  9
$JOINSTYLE
280
     0
  9
$LWDISPLAY
290
     1
  9
$INSUNITS
 70
     4
  9
$HYPERLINKBASE
  1

  9
$STYLESHEET
  1

  9
$XEDIT
290
     1
  9
$CEPSNTYPE
380
     0
  9
$PSTYLEMODE
290
     1
  9
$FINGERPRINTGUID
  2
{d4f94df3-a15c-4883-8f61-22042804c6c9}
  9
$VERSIONGUID
  2
{FAEB1C32-E019-11D5-929B-00C0DF256EC4}
  9
$EXTNAMES
290
     1
  9
$PSVPSCALE
 40
0.0
  9
$OLESTARTUP
290
     0
  0
ENDSEC
  0
SECTION
  2
CLASSES
  0
CLASS
  1
ACDBDICTIONARYWDFLT
  2
AcDbDictionaryWithDefault
  3
ObjectDBX Classes
 90
        0
280
     0
281
     0
  0
CLASS
  1
VISUALSTYLE
  2
AcDbVisualStyle
  3
ObjectDBX Classes
 90
     4095
280
     0
281
     0
  0
CLASS
  1
MATERIAL
  2
AcDbMaterial
  3
ObjectDBX Classes
 90
     1153
280
     0
281
     0
  0
CLASS
  1
SCALE
  2
AcDbScale
  3
ObjectDBX Classes
 90
     1153
280
     0
281
     0
  0
CLASS
  1
TABLESTYLE
  2
AcDbTableStyle
  3
ObjectDBX Classes
 90
     4095
280
     0
281
     0
  0
CLASS
  1
MLEADERSTYLE
  2
AcDbMLeaderStyle
  3
ACDB_MLEADERSTYLE_CLASS
 90
     4095
280
     0
281
     0
  0
CLASS
  1
SUN
  2
AcDbSun
  3
SCENEOE
 90
     1153
280
     0
281
     0
  0
CLASS
  1
ACDBPLACEHOLDER
  2
AcDbPlaceHolder
  3
ObjectDBX Classes
 90
        0
280
     0
281
     0
  0
CLASS
  1
LAYOUT
  2
AcDbLayout
  3
ObjectDBX Classes
 90
        0
280
     0
281
     0
  0
ENDSEC
  0
SECTION
  2
TABLES
  0
TABLE
  2
VPORT
  5
8
330
0
100
AcDbSymbolTable
 70
     1
  0
VPORT
  5
29
330
8
100
AcDbSymbolTableRecord
100
AcDbViewportTableRecord
  2
*Active
 70
     0
 10
0.0
 20
0.0
 11
1.0
 21
1.0
 12
215.9
 22
139.7
 13
0.0
 23
0.0
 14
10.0
 24
10.0
 15
10.0
 25
10.0
 16
0.0
 26
0.0
 36
1.0
 17
0.0
 27
0.0
 37
0.0
 40
279.4
 41
1.5454545455
 42
50.0
 43
0.0
 44
0.0
 50
0.0
 51
0.0
 71
     0
 72
  2000
 73
     1
 74
     3
 75
     0
 76
     0
 77
     0
 78
     0
281
     0
 65
     1
110
0.0
120
0.0
130
0.0
111
1.0
121
0.0
131
0.0
112
0.0
122
1.0
132
0.0
 79
     0
146
0.0
  0
ENDTAB
  0
TABLE
  2
LTYPE
  5
5
330
0
100
AcDbSymbolTable
 70
     6
  0
LTYPE
  5
14
330
5
100
AcDbSymbolTableRecord
100
AcDbLinetypeTableRecord
  2
ByBlock
 70
     0
  3

 72
    65
 73
     0
 40
0.0
  0
LTYPE
  5
15
330
5
100
AcDbSymbolTableRecord
100
AcDbLinetypeTableRecord
  2
ByLayer
 70
     0
  3

 72
    65
 73
     0
 40
0.0
  0
LTYPE
  5
16
330
5
100
AcDbSymbolTableRecord
100
AcDbLinetypeTableRecord
  2
Continuous
 70
     0
  3
Solid line
 72
    65
 73
     0
 40
0.0
  0
LTYPE
  5
6E
330
5
100
AcDbSymbolTableRecord
100
AcDbLinetypeTableRecord
  2
HIDDEN
 70
     0
  3
Hidden __ __ __ __ __ __ __ __ __ __ __ __ __ __
 72
    65
 73
     2
 40
1.905
 49
1.27
 74
     0
 49
-0.635
 74
     0
  0
LTYPE
  5
6F
330
5
100
AcDbSymbolTableRecord
100
AcDbLinetypeTableRecord
  2
PHANTOM
 70
     0
  3
Phantom ______  __  __  ______  __  __  ______
 72
    65
 73
     6
 40
12.7
 49
6.35
 74
     0
 49
-1.27
 74
     0
 49
1.27
 74
     0
 49
-1.27
 74
     0
 49
1.27
 74
     0
 49
-1.27
 74
     0
  0
LTYPE
  5
70
330
5
100
AcDbSymbolTableRecord
100
AcDbLinetypeTableRecord
  2
CENTER
 70
     0
  3
Center ____ _ ____ _ ____ _ ____ _ ____ _ ____
 72
    65
 73
     4
 40
10.16
 49
6.35
 74
     0
 49
-1.27
 74
     0
 49
1.27
 74
     0
 49
-1.27
 74
     0
  0
LTYPE
  5
71
330
5
100
AcDbSymbolTableRecord
100
AcDbLinetypeTableRecord
  2
CENTERX2
 70
     0
  3
Center (2x) ________  __  ________  __  _____
 72
    65
 73
     4
 40
20.32
 49
12.7
 74
     0
 49
-2.54
 74
     0
 49
2.54
 74
     0
 49
-2.54
 74
     0
  0
LTYPE
  5
72
330
5
100
AcDbSymbolTableRecord
100
AcDbLinetypeTableRecord
  2
DOT2
 70
     0
  3
Dot (.5x) ........................................
 72
    65
 73
     2
 40
0.635
 49
0.0
 74
     0
 49
-0.635
 74
     0
  0
ENDTAB
  0
TABLE
  2
LAYER
  5
2
330
0
100
AcDbSymbolTable
 70
     3
  0
LAYER
  5
10
330
2
100
AcDbSymbolTableRecord
100
AcDbLayerTableRecord
  2
0
 70
     0
 62
     7
  6
Continuous
370
    -3
390
F
  0
LAYER
  5
73
330
2
100
AcDbSymbolTableRecord
100
AcDbLayerTableRecord
  2
FRAME_&_TABLE
 70
     0
 62
     8
  6
Continuous
370
    50
390
F
  0
LAYER
  5
74
330
2
100
AcDbSymbolTableRecord
100
AcDbLayerTableRecord
  2
DIMENSIONS
 70
     0
 62
     7
  6
Continuous
370
    -3
390
F
  0
ENDTAB
  0
TABLE
  2
STYLE
  5
3
330
0
100
AcDbSymbolTable
 70
     1
  0
STYLE
  5
11
330
3
100
AcDbSymbolTableRecord
100
AcDbTextStyleTableRecord
  2
Standard
 70
     0
 40
0.0
 41
1.0
 50
0.0
 71
     0
 42
3.8805555556
  3
txt
  4

  0
ENDTAB
  0
TABLE
  2
VIEW
  5
6
330
0
100
AcDbSymbolTable
 70
     0
  0
ENDTAB
  0
TABLE
  2
UCS
  5
7
330
0
100
AcDbSymbolTable
 70
     0
  0
ENDTAB
  0
TABLE
  2
APPID
  5
9
330
0
100
AcDbSymbolTable
 70
     1
  0
APPID
  5
12
330
9
100
AcDbSymbolTableRecord
100
AcDbRegAppTableRecord
  2
ACAD
 70
     0
  0
ENDTAB
  0
TABLE
  2
DIMSTYLE
  5
A
330
0
100
AcDbSymbolTable
 70
     1
100
AcDbDimStyleTable
  0
DIMSTYLE
105
27
330
A
100
AcDbSymbolTableRecord
100
AcDbDimStyleTableRecord
  2
ISO-25
 70
     0
 41
2.5
 42
0.625
 43
3.75
 44
1.25
 73
     0
 74
     0
 77
     1
 78
     8
140
2.5
141
2.5
143
0.0393700787
147
0.625
171
     3
172
     1
178
     0
271
     2
272
     2
274
     3
278
    44
283
     0
284
     8
340
11
  0
ENDTAB
  0
TABLE
  2
BLOCK_RECORD
  5
1
330
0
100
AcDbSymbolTable
 70
     1
  0
BLOCK_RECORD
  5
1F
330
1
100
AcDbSymbolTableRecord
100
AcDbBlockTableRecord
  2
*Model_Space
340
22
  0
BLOCK_RECORD
  5
1B
330
1
100
AcDbSymbolTableRecord
100
AcDbBlockTableRecord
  2
*Paper_Space
340
1E
  0
BLOCK_RECORD
  5
23
330
1
100
AcDbSymbolTableRecord
100
AcDbBlockTableRecord
  2
*Paper_Space0
340
26
  0
ENDTAB
  0
ENDSEC
  0
SECTION
  2
BLOCKS
  0
BLOCK
  5
20
330
1F
100
AcDbEntity
  8
0
100
AcDbBlockBegin
  2
*Model_Space
 70
     0
 10
0.0
 20
0.0
 30
0.0
  3
*Model_Space
  1

  0
ENDBLK
  5
21
330
1F
100
AcDbEntity
  8
0
100
AcDbBlockEnd
  0
BLOCK
  5
1C
330
1B
100
AcDbEntity
 67
     1
  8
0
100
AcDbBlockBegin
  2
*Paper_Space
 70
     0
 10
0.0
 20
0.0
 30
0.0
  3
*Paper_Space
  1

  0
ENDBLK
  5
1D
330
1B
100
AcDbEntity
 67
     1
  8
0
100
AcDbBlockEnd
  0
BLOCK
  5
24
330
23
100
AcDbEntity
  8
0
100
AcDbBlockBegin
  2
*Paper_Space0
 70
     0
 10
0.0
 20
0.0
 30
0.0
  3
*Paper_Space0
  1

  0
ENDBLK
  5
25
330
23
100
AcDbEntity
  8
0
100
AcDbBlockEnd
  0
ENDSEC
  0
SECTION
  2
ENTITIES
  0
ARC
  5
75
330
1F
100
AcDbEntity
  8
0
  6
Continuous
 62
     7
370
    25
100
AcDbCircle
 10
-2670.564994268
 20
-108.5853787345
 30
0.0
 40
3.0
100
AcDbArc
 50
180.0
 51
270.0
  0
LINE
  5
76
330
1F
100
AcDbEntity
  8
0
  6
Continuous
 62
     7
370
    25
100
AcDbLine
 10
-2673.564994268
 20
-99.5853787345
 30
0.0
 11
-2673.564994268
 21
-108.5853787345
 31
0.0
  0
ARC
  5
77
330
1F
100
AcDbEntity
  8
0
  6
Continuous
 62
     7
370
    25
100
AcDbCircle
 10
-2670.564994268
 20
-99.5853787345
 30
0.0
 40
3.0
100
AcDbArc
 50
90.0
 51
180.0
  0
ARC
  5
78
330
1F
100
AcDbEntity
  8
0
  6
Continuous
 62
     7
370
    25
100
AcDbCircle
 10
-2564.12188764
 20
-112.8353787345
 30
0.0
 40
1.250000000000028
100
AcDbArc
 50
90.0
 51
233.1301023542
  0
ARC
  5
79
330
1F
100
AcDbEntity
  8
0
  6
Continuous
 62
     7
370
    25
100
AcDbCircle
 10
-2554.22188764
 20
-99.6353787345
 30
0.0
 40
17.75000000000004
100
AcDbArc
 50
233.1301023542
 51
297.2670341193
  0
ARC
  5
7A
330
1F
100
AcDbEntity
  8
0
  6
Continuous
 62
     7
370
    25
100
AcDbCircle
 10
-2564.12188764
 20
409.6646212655
 30
0.0
 40
1.25
100
AcDbArc
 50
126.8698976458
 51
270.0
  0
ARC
  5
7B
330
1F
100
AcDbEntity
  8
0
  6
Continuous
 62
     7
370
    25
100
AcDbCircle
 10
-2554.22188764
 20
396.4646212655
 30
0.0
 40
17.75000000000005
100
AcDbArc
 50
62.7329658807
 51
126.8698976458
  0
LINE
  5
7C
330
1F
100
AcDbEntity
  8
0
  6
Continuous
 62
     7
370
    25
100
AcDbLine
 10
659.289562031
 20
-126.5853787345
 30
0.0
 11
659.289562031
 21
-128.5853787345
 31
0.0
  0
LINE
  5
7D
330
1F
100
AcDbEntity
  8
0
  6
Continuous
 62
     7
370
    25
100
AcDbLine
 10
699.289562031
 20
-128.5853787345
 30
0.0
 11
699.289562031
 21
-126.5853787345
 31
0.0
  0
ARC
  5
7E
330
1F
100
AcDbEntity
  8
0
  6
Continuous
 62
     7
370
    25
100
AcDbCircle
 10
679.1618697233
 20
-128.5853787345
 30
0.0
 40
19.87230769230774
100
AcDbArc
 50
180.0
 51
226.9233678463
  0
ARC
  5
7F
330
1F
100
AcDbEntity
  8
0
  6
Continuous
 62
     7
370
    25
100
AcDbCircle
 10
679.4172543387
 20
-128.5853787345
 30
0.0
 40
19.87230769230766
100
AcDbArc
 50
313.0766321537
 51
0.0
  0
ARC
  5
80
330
1F
100
AcDbEntity
  8
0
  6
Continuous
 62
     7
370
    25
100
AcDbCircle
 10
-1424.7460243271
 20
-113.5853787345
 30
0.0
 40
19.87230769230769
100
AcDbArc
 50
180.0
 51
226.9233678463
  0
ARC
  5
81
330
1F
100
AcDbEntity
  8
0
  6
Continuous
 62
     7
370
    25
100
AcDbCircle
 10
-1424.4906397117
 20
-113.5853787345
 30
0.0
 40
19.8723076923078
100
AcDbArc
 50
313.0766321537
 51
0.0
  0
LINE
  5
82
330
1F
100
AcDbEntity
  8
0
  6
Continuous
 62
     7
370
    25
100
AcDbLine
 10
-1444.6183320194
 20
-111.5853787345
 30
0.0
 11
-1444.6183320194
 21
-113.5853787345
 31
0.0
  0
LINE
  5
83
330
1F
100
AcDbEntity
  8
0
  6
Continuous
 62
     7
370
    25
100
AcDbLine
 10
-1404.6183320194
 20
-113.5853787345
 30
0.0
 11
-1404.6183320194
 21
-111.5853787345
 31
0.0
  0
ARC
  5
84
330
1F
100
AcDbEntity
  8
0
  6
Continuous
 62
     7
370
    25
100
AcDbCircle
 10
-2600.6231467716
 20
-113.5853787345
 30
0.0
 40
19.87230769230749
100
AcDbArc
 50
180.0
 51
226.9233678463
  0
ARC
  5
85
330
1F
100
AcDbEntity
  8
0
  6
Continuous
 62
     7
370
    25
100
AcDbCircle
 10
-2600.3677621562
 20
-113.5853787345
 30
0.0
 40
19.8723076923078
100
AcDbArc
 50
313.0766321537
 51
0.0
  0
LINE
  5
86
330
1F
100
AcDbEntity
  8
0
  6
Continuous
 62
     7
370
    25
100
AcDbLine
 10
-2620.4954544639
 20
-111.5853787345
 30
0.0
 11
-2620.4954544639
 21
-113.5853787345
 31
0.0
  0
LINE
  5
87
330
1F
100
AcDbEntity
  8
0
  6
Continuous
 62
     7
370
    25
100
AcDbLine
 10
-2580.4954544639
 20
-113.5853787345
 30
0.0
 11
-2580.4954544639
 21
-111.5853787345
 31
0.0
  0
ARC
  5
88
330
1F
100
AcDbEntity
  8
0
  6
Continuous
 62
     7
370
    25
100
AcDbCircle
 10
2302.0517394307
 20
410.4146212655
 30
0.0
 40
19.87230769230773
100
AcDbArc
 50
0.0
 51
46.9233678463
  0
ARC
  5
89
330
1F
100
AcDbEntity
  8
0
  6
Continuous
 62
     7
370
    25
100
AcDbCircle
 10
2301.7963548153
 20
410.4146212655
 30
0.0
 40
19.87230769230791
100
AcDbArc
 50
133.0766321537
 51
180.0
  0
LINE
  5
8A
330
1F
100
AcDbEntity
  8
0
  6
Continuous
 62
     7
370
    25
100
AcDbLine
 10
2321.924047123
 20
408.4146212655
 30
0.0
 11
2321.924047123
 21
410.4146212655
 31
0.0
  0
LINE
  5
8B
330
1F
100
AcDbEntity
  8
0
  6
Continuous
 62
     7
370
    25
100
AcDbLine
 10
2281.924047123
 20
410.4146212655
 30
0.0
 11
2281.924047123
 21
408.4146212655
 31
0.0
  0
ARC
  5
8C
330
1F
100
AcDbEntity
  8
0
  6
Continuous
 62
     7
370
    25
100
AcDbCircle
 10
2301.7963548153
 20
-113.5853787345
 30
0.0
 40
19.87230769230791
100
AcDbArc
 50
180.0
 51
226.9233678463
  0
ARC
  5
8D
330
1F
100
AcDbEntity
  8
0
  6
Continuous
 62
     7
370
    25
100
AcDbCircle
 10
2302.0517394307
 20
-113.5853787345
 30
0.0
 40
19.87230769230773
100
AcDbArc
 50
313.0766321537
 51
0.0
  0
LINE
  5
8E
330
1F
100
AcDbEntity
  8
0
  6
Continuous
 62
     7
370
    25
100
AcDbLine
 10
2281.924047123
 20
-111.5853787345
 30
0.0
 11
2281.924047123
 21
-113.5853787345
 31
0.0
  0
LINE
  5
8F
330
1F
100
AcDbEntity
  8
0
  6
Continuous
 62
     7
370
    25
100
AcDbLine
 10
2321.924047123
 20
-113.5853787345
 30
0.0
 11
2321.924047123
 21
-111.5853787345
 31
0.0
  0
LINE
  5
90
330
1F
100
AcDbEntity
  8
0
  6
Continuous
 62
     7
370
    25
100
AcDbLine
 10
-2580.4954544639
 20
408.4146212655
 30
0.0
 11
-2580.4954544639
 21
410.4146212655
 31
0.0
  0
LINE
  5
91
330
1F
100
AcDbEntity
  8
0
  6
Continuous
 62
     7
370
    25
100
AcDbLine
 10
-2620.4954544639
 20
410.4146212655
 30
0.0
 11
-2620.4954544639
 21
408.4146212655
 31
0.0
  0
ARC
  5
92
330
1F
100
AcDbEntity
  8
0
  6
Continuous
 62
     7
370
    25
100
AcDbCircle
 10
-2600.3677621562
 20
410.4146212655
 30
0.0
 40
19.87230769230779
100
AcDbArc
 50
0.0
 51
46.9233678463
  0
ARC
  5
93
330
1F
100
AcDbEntity
  8
0
  6
Continuous
 62
     7
370
    25
100
AcDbCircle
 10
-2600.6231467716
 20
410.4146212655
 30
0.0
 40
19.87230769230748
100
AcDbArc
 50
133.0766321537
 51
180.0
  0
ARC
  5
94
330
1F
100
AcDbEntity
  8
0
  6
Continuous
 62
     7
370
    25
100
AcDbCircle
 10
-1838.5509040608
 20
410.4146212655
 30
0.0
 40
19.87230769230764
100
AcDbArc
 50
0.0
 51
46.9233678463
  0
ARC
  5
95
330
1F
100
AcDbEntity
  8
0
  6
Continuous
 62
     7
370
    25
100
AcDbCircle
 10
-1838.8062886762
 20
410.4146212655
 30
0.0
 40
19.87230769230764
100
AcDbArc
 50
133.0766321537
 51
180.0
  0
LINE
  5
96
330
1F
100
AcDbEntity
  8
0
  6
Continuous
 62
     7
370
    25
100
AcDbLine
 10
-1818.6785963685
 20
408.4146212655
 30
0.0
 11
-1818.6785963685
 21
410.4146212655
 31
0.0
  0
LINE
  5
97
330
1F
100
AcDbEntity
  8
0
  6
Continuous
 62
     7
370
    25
100
AcDbLine
 10
-1858.6785963685
 20
410.4146212655
 30
0.0
 11
-1858.6785963685
 21
408.4146212655
 31
0.0
  0
LINE
  5
98
330
1F
100
AcDbEntity
  8
0
  6
Continuous
 62
     7
370
    25
100
AcDbLine
 10
-576.4978033211
 20
423.4146212655
 30
0.0
 11
-576.4978033211
 21
425.4146212655
 31
0.0
  0
LINE
  5
99
330
1F
100
AcDbEntity
  8
0
  6
Continuous
 62
     7
370
    25
100
AcDbLine
 10
-616.4978033211
 20
425.4146212655
 30
0.0
 11
-616.4978033211
 21
423.4146212655
 31
0.0
  0
ARC
  5
9A
330
1F
100
AcDbEntity
  8
0
  6
Continuous
 62
     7
370
    25
100
AcDbCircle
 10
-596.3701110134
 20
425.4146212655
 30
0.0
 40
19.87230769230766
100
AcDbArc
 50
0.0
 51
46.9233678463
  0
ARC
  5
9B
330
1F
100
AcDbEntity
  8
0
  6
Continuous
 62
     7
370
    25
100
AcDbCircle
 10
-596.6254956288
 20
425.4146212655
 30
0.0
 40
19.87230769230766
100
AcDbArc
 50
133.0766321537
 51
180.0
  0
LINE
  5
9C
330
1F
100
AcDbEntity
  8
0
  6
Continuous
 62
     7
370
    25
100
AcDbLine
 10
1453.8035184247
 20
-111.5853787345
 30
0.0
 11
1453.8035184247
 21
-113.5853787345
 31
0.0
  0
LINE
  5
9D
330
1F
100
AcDbEntity
  8
0
  6
Continuous
 62
     7
370
    25
100
AcDbLine
 10
1493.8035184247
 20
-113.5853787345
 30
0.0
 11
1493.8035184247
 21
-111.5853787345
 31
0.0
  0
ARC
  5
9E
330
1F
100
AcDbEntity
  8
0
  6
Continuous
 62
     7
370
    25
100
AcDbCircle
 10
1473.675826117
 20
-113.5853787345
 30
0.0
 40
19.87230769230752
100
AcDbArc
 50
180.0
 51
226.9233678463
  0
ARC
  5
9F
330
1F
100
AcDbEntity
  8
0
  6
Continuous
 62
     7
370
    25
100
AcDbCircle
 10
1473.9312107324
 20
-113.5853787345
 30
0.0
 40
19.87230769230791
100
AcDbArc
 50
313.0766321537
 51
0.0
  0
LINE
  5
A0
330
1F
100
AcDbEntity
  8
0
  6
Continuous
 62
     7
370
    25
100
AcDbLine
 10
-2106.974567199
 20
408.4146212655
 30
0.0
 11
-2106.974567199
 21
410.4146212655
 31
0.0
  0
LINE
  5
A1
330
1F
100
AcDbEntity
  8
0
  6
Continuous
 62
     7
370
    25
100
AcDbLine
 10
-2146.974567199
 20
410.4146212655
 30
0.0
 11
-2146.974567199
 21
408.4146212655
 31
0.0
  0
ARC
  5
A2
330
1F
100
AcDbEntity
  8
0
  6
Continuous
 62
     7
370
    25
100
AcDbCircle
 10
-2126.8468748913
 20
410.4146212655
 30
0.0
 40
19.87230769230779
100
AcDbArc
 50
0.0
 51
46.9233678463
  0
ARC
  5
A3
330
1F
100
AcDbEntity
  8
0
  6
Continuous
 62
     7
370
    25
100
AcDbCircle
 10
-2127.1022595067
 20
410.4146212655
 30
0.0
 40
19.87230769230748
100
AcDbArc
 50
133.0766321537
 51
180.0
  0
ARC
  5
A4
330
1F
100
AcDbEntity
  8
0
  6
Continuous
 62
     7
370
    25
100
AcDbCircle
 10
2716.1120037798
 20
410.4146212655
 30
0.0
 40
19.87230769230791
100
AcDbArc
 50
0.0
 51
39.691264089
  0
ARC
  5
A5
330
1F
100
AcDbEntity
  8
0
  6
Continuous
 62
     7
370
    25
100
AcDbCircle
 10
2715.8566191644
 20
410.4146212655
 30
0.0
 40
19.87230769230791
100
AcDbArc
 50
133.0766321537
 51
180.0
  0
LINE
  5
A6
330
1F
100
AcDbEntity
  8
0
  6
Continuous
 62
     7
370
    25
100
AcDbLine
 10
2735.9843114721
 20
408.4146212655
 30
0.0
 11
2735.9843114721
 21
410.4146212655
 31
0.0
  0
LINE
  5
A7
330
1F
100
AcDbEntity
  8
0
  6
Continuous
 62
     7
370
    25
100
AcDbLine
 10
2695.9843114721
 20
410.4146212655
 30
0.0
 11
2695.9843114721
 21
408.4146212655
 31
0.0
  0
LINE
  5
A8
330
1F
100
AcDbEntity
  8
0
  6
Continuous
 62
     7
370
    25
100
AcDbLine
 10
-1404.6183320194
 20
408.4146212655
 30
0.0
 11
-1404.6183320194
 21
410.4146212655
 31
0.0
  0
LINE
  5
A9
330
1F
100
AcDbEntity
  8
0
  6
Continuous
 62
     7
370
    25
100
AcDbLine
 10
-1444.6183320194
 20
410.4146212655
 30
0.0
 11
-1444.6183320194
 21
408.4146212655
 31
0.0
  0
ARC
  5
AA
330
1F
100
AcDbEntity
  8
0
  6
Continuous
 62
     7
370
    25
100
AcDbCircle
 10
-1424.4906397117
 20
410.4146212655
 30
0.0
 40
19.87230769230779
100
AcDbArc
 50
0.0
 51
46.9233678463
  0
ARC
  5
AB
330
1F
100
AcDbEntity
  8
0
  6
Continuous
 62
     7
370
    25
100
AcDbCircle
 10
-1424.7460243271
 20
410.4146212655
 30
0.0
 40
19.87230769230769
100
AcDbArc
 50
133.0766321537
 51
180.0
  0
ARC
  5
AC
330
1F
100
AcDbEntity
  8
0
  6
Continuous
 62
     7
370
    25
100
AcDbCircle
 10
-1097.5821821845
 20
425.4146212655
 30
0.0
 40
19.8723076923077
100
AcDbArc
 50
0.0
 51
46.9233678463
  0
ARC
  5
AD
330
1F
100
AcDbEntity
  8
0
  6
Continuous
 62
     7
370
    25
100
AcDbCircle
 10
-1097.8375667999
 20
425.4146212655
 30
0.0
 40
19.8723076923077
100
AcDbArc
 50
133.0766321537
 51
180.0
  0
LINE
  5
AE
330
1F
100
AcDbEntity
  8
0
  6
Continuous
 62
     7
370
    25
100
AcDbLine
 10
-1077.7098744922
 20
423.4146212655
 30
0.0
 11
-1077.7098744922
 21
425.4146212655
 31
0.0
  0
LINE
  5
AF
330
1F
100
AcDbEntity
  8
0
  6
Continuous
 62
     7
370
    25
100
AcDbLine
 10
-1117.7098744922
 20
425.4146212655
 30
0.0
 11
-1117.7098744922
 21
423.4146212655
 31
0.0
  0
ARC
  5
B0
330
1F
100
AcDbEntity
  8
0
  6
Continuous
 62
     7
370
    25
100
AcDbCircle
 10
972.7191395613
 20
425.4146212655
 30
0.0
 40
19.87230769230769
100
AcDbArc
 50
0.0
 51
46.9233678463
  0
ARC
  5
B1
330
1F
100
AcDbEntity
  8
0
  6
Continuous
 62
     7
370
    25
100
AcDbCircle
 10
972.4637549459
 20
425.4146212655
 30
0.0
 40
19.8723076923078
100
AcDbArc
 50
133.0766321537
 51
180.0
  0
LINE
  5
B2
330
1F
100
AcDbEntity
  8
0
  6
Continuous
 62
     7
370
    25
100
AcDbLine
 10
992.5914472536
 20
423.4146212655
 30
0.0
 11
992.5914472536
 21
425.4146212655
 31
0.0
  0
LINE
  5
B3
330
1F
100
AcDbEntity
  8
0
  6
Continuous
 62
     7
370
    25
100
AcDbLine
 10
952.5914472536
 20
425.4146212655
 30
0.0
 11
952.5914472536
 21
423.4146212655
 31
0.0
  0
ARC
  5
B4
330
1F
100
AcDbEntity
  8
0
  6
Continuous
 62
     7
370
    25
100
AcDbCircle
 10
558.4034905968
 20
-128.5853787345
 30
0.0
 40
19.87230769230766
100
AcDbArc
 50
180.0
 51
226.9233678463
  0
ARC
  5
B5
330
1F
100
AcDbEntity
  8
0
  6
Continuous
 62
     7
370
    25
100
AcDbCircle
 10
558.6588752121
 20
-128.5853787345
 30
0.0
 40
19.87230769230774
100
AcDbArc
 50
313.0766321537
 51
0.0
  0
LINE
  5
B6
330
1F
100
AcDbEntity
  8
0
  6
Continuous
 62
     7
370
    25
100
AcDbLine
 10
538.5311829045
 20
-126.5853787345
 30
0.0
 11
538.5311829045
 21
-128.5853787345
 31
0.0
  0
LINE
  5
B7
330
1F
100
AcDbEntity
  8
0
  6
Continuous
 62
     7
370
    25
100
AcDbLine
 10
578.5311829045
 20
-128.5853787345
 30
0.0
 11
578.5311829045
 21
-126.5853787345
 31
0.0
  0
LINE
  5
B8
330
1F
100
AcDbEntity
  8
0
  6
Continuous
 62
     7
370
    25
100
AcDbLine
 10
-616.4978033211
 20
-126.5853787345
 30
0.0
 11
-616.4978033211
 21
-128.5853787345
 31
0.0
  0
LINE
  5
B9
330
1F
100
AcDbEntity
  8
0
  6
Continuous
 62
     7
370
    25
100
AcDbLine
 10
-576.4978033211
 20
-128.5853787345
 30
0.0
 11
-576.4978033211
 21
-126.5853787345
 31
0.0
  0
ARC
  5
BA
330
1F
100
AcDbEntity
  8
0
  6
Continuous
 62
     7
370
    25
100
AcDbCircle
 10
-596.6254956288
 20
-128.5853787345
 30
0.0
 40
19.87230769230768
100
AcDbArc
 50
180.0
 51
226.9233678463
  0
ARC
  5
BB
330
1F
100
AcDbEntity
  8
0
  6
Continuous
 62
     7
370
    25
100
AcDbCircle
 10
-596.3701110134
 20
-128.5853787345
 30
0.0
 40
19.87230769230768
100
AcDbArc
 50
313.0766321537
 51
0.0
  0
LINE
  5
BC
330
1F
100
AcDbEntity
  8
0
  6
Continuous
 62
     7
370
    25
100
AcDbLine
 10
-703.649610143
 20
-126.5853787345
 30
0.0
 11
-703.649610143
 21
-128.5853787345
 31
0.0
  0
LINE
  5
BD
330
1F
100
AcDbEntity
  8
0
  6
Continuous
 62
     7
370
    25
100
AcDbLine
 10
-663.649610143
 20
-128.5853787345
 30
0.0
 11
-663.649610143
 21
-126.5853787345
 31
0.0
  0
ARC
  5
BE
330
1F
100
AcDbEntity
  8
0
  6
Continuous
 62
     7
370
    25
100
AcDbCircle
 10
-683.7773024507
 20
-128.5853787345
 30
0.0
 40
19.87230769230776
100
AcDbArc
 50
180.0
 51
226.9233678463
  0
ARC
  5
BF
330
1F
100
AcDbEntity
  8
0
  6
Continuous
 62
     7
370
    25
100
AcDbCircle
 10
-683.5219178353
 20
-128.5853787345
 30
0.0
 40
19.87230769230768
100
AcDbArc
 50
313.0766321537
 51
0.0
  0
ARC
  5
C0
330
1F
100
AcDbEntity
  8
0
  6
Continuous
 62
     7
370
    25
100
AcDbCircle
 10
938.8571826413
 20
-128.5853787345
 30
0.0
 40
19.8723076923078
100
AcDbArc
 50
180.0
 51
226.9233678463
  0
ARC
  5
C1
330
1F
100
AcDbEntity
  8
0
  6
Continuous
 62
     7
370
    25
100
AcDbCircle
 10
939.1125672567
 20
-128.5853787345
 30
0.0
 40
19.87230769230765
100
AcDbArc
 50
313.0766321537
 51
327.0491283262
  0
LINE
  5
C2
330
1F
100
AcDbEntity
  8
0
  6
Continuous
 62
     7
370
    25
100
AcDbLine
 10
918.984874949
 20
-126.5853787345
 30
0.0
 11
918.984874949
 21
-128.5853787345
 31
0.0
  0
ARC
  5
C3
330
1F
100
AcDbEntity
  8
0
  6
Continuous
 62
     7
370
    25
100
AcDbCircle
 10
1059.8709463832
 20
425.4146212655
 30
0.0
 40
19.87230769230791
100
AcDbArc
 50
0.0
 51
46.9233678463
  0
ARC
  5
C4
330
1F
100
AcDbEntity
  8
0
  6
Continuous
 62
     7
370
    25
100
AcDbCircle
 10
1059.6155617678
 20
425.4146212655
 30
0.0
 40
19.87230769230749
100
AcDbArc
 50
133.0766321537
 51
180.0
  0
LINE
  5
C5
330
1F
100
AcDbEntity
  8
0
  6
Continuous
 62
     7
370
    25
100
AcDbLine
 10
1079.7432540755
 20
423.4146212655
 30
0.0
 11
1079.7432540755
 21
425.4146212655
 31
0.0
  0
LINE
  5
C6
330
1F
100
AcDbEntity
  8
0
  6
Continuous
 62
     7
370
    25
100
AcDbLine
 10
1039.7432540755
 20
425.4146212655
 30
0.0
 11
1039.7432540755
 21
423.4146212655
 31
0.0
  0
ARC
  5
C7
330
1F
100
AcDbEntity
  8
0
  6
Continuous
 62
     7
370
    25
100
AcDbCircle
 10
-2526.3018483923
 20
-113.5853787345
 30
0.0
 40
19.8723076923078
100
AcDbArc
 50
180.0
 51
226.9233678463
  0
ARC
  5
C8
330
1F
100
AcDbEntity
  8
0
  6
Continuous
 62
     7
370
    25
100
AcDbCircle
 10
-2526.0464637769
 20
-113.5853787345
 30
0.0
 40
19.87230769230749
100
AcDbArc
 50
313.0766321537
 51
0.0
  0
LINE
  5
C9
330
1F
100
AcDbEntity
  8
0
  6
Continuous
 62
     7
370
    25
100
AcDbLine
 10
-2546.1741560846
 20
-111.5853787345
 30
0.0
 11
-2546.1741560846
 21
-113.5853787345
 31
0.0
  0
LINE
  5
CA
330
1F
100
AcDbEntity
  8
0
  6
Continuous
 62
     7
370
    25
100
AcDbLine
 10
-2506.1741560846
 20
-113.5853787345
 30
0.0
 11
-2506.1741560846
 21
-111.5853787345
 31
0.0
  0
LINE
  5
CB
330
1F
100
AcDbEntity
  8
0
  6
Continuous
 62
     7
370
    25
100
AcDbLine
 10
-162.4375389719
 20
408.4146212655
 30
0.0
 11
-162.4375389719
 21
410.4146212655
 31
0.0
  0
LINE
  5
CC
330
1F
100
AcDbEntity
  8
0
  6
Continuous
 62
     7
370
    25
100
AcDbLine
 10
-202.4375389719
 20
410.4146212655
 30
0.0
 11
-202.4375389719
 21
408.4146212655
 31
0.0
  0
ARC
  5
CD
330
1F
100
AcDbEntity
  8
0
  6
Continuous
 62
     7
370
    25
100
AcDbCircle
 10
-182.3098466642
 20
410.4146212655
 30
0.0
 40
19.8723076923077
100
AcDbArc
 50
0.0
 51
46.9233678463
  0
ARC
  5
CE
330
1F
100
AcDbEntity
  8
0
  6
Continuous
 62
     7
370
    25
100
AcDbCircle
 10
-182.5652312796
 20
410.4146212655
 30
0.0
 40
19.87230769230768
100
AcDbArc
 50
133.0766321537
 51
180.0
  0
ARC
  5
CF
330
1F
100
AcDbEntity
  8
0
  6
Continuous
 62
     7
370
    25
100
AcDbCircle
 10
1473.9312107324
 20
410.4146212655
 30
0.0
 40
19.87230769230791
100
AcDbArc
 50
0.0
 51
46.9233678463
  0
ARC
  5
D0
330
1F
100
AcDbEntity
  8
0
  6
Continuous
 62
     7
370
    25
100
AcDbCircle
 10
1473.675826117
 20
410.4146212655
 30
0.0
 40
19.87230769230749
100
AcDbArc
 50
133.0766321537
 51
180.0
  0
LINE
  5
D1
330
1F
100
AcDbEntity
  8
0
  6
Continuous
 62
     7
370
    25
100
AcDbLine
 10
1493.8035184247
 20
408.4146212655
 30
0.0
 11
1493.8035184247
 21
410.4146212655
 31
0.0
  0
LINE
  5
D2
330
1F
100
AcDbEntity
  8
0
  6
Continuous
 62
     7
370
    25
100
AcDbLine
 10
1453.8035184247
 20
410.4146212655
 30
0.0
 11
1453.8035184247
 21
408.4146212655
 31
0.0
  0
ARC
  5
D3
330
1F
100
AcDbEntity
  8
0
  6
Continuous
 62
     7
370
    25
100
AcDbCircle
 10
1059.6155617678
 20
-128.5853787345
 30
0.0
 40
19.87230769230752
100
AcDbArc
 50
180.0
 51
226.9233678463
  0
ARC
  5
D4
330
1F
100
AcDbEntity
  8
0
  6
Continuous
 62
     7
370
    25
100
AcDbCircle
 10
1059.8709463832
 20
-128.5853787345
 30
0.0
 40
19.87230769230791
100
AcDbArc
 50
313.0766321537
 51
0.0
  0
LINE
  5
D5
330
1F
100
AcDbEntity
  8
0
  6
Continuous
 62
     7
370
    25
100
AcDbLine
 10
1039.7432540755
 20
-126.5853787345
 30
0.0
 11
1039.7432540755
 21
-128.5853787345
 31
0.0
  0
LINE
  5
D6
330
1F
100
AcDbEntity
  8
0
  6
Continuous
 62
     7
370
    25
100
AcDbLine
 10
1079.7432540755
 20
-128.5853787345
 30
0.0
 11
1079.7432540755
 21
-126.5853787345
 31
0.0
  0
ARC
  5
D7
330
1F
100
AcDbEntity
  8
0
  6
Continuous
 62
     7
370
    25
100
AcDbCircle
 10
2715.8566191644
 20
-113.5853787345
 30
0.0
 40
19.87230769230791
100
AcDbArc
 50
180.0
 51
226.9233678463
  0
ARC
  5
D8
330
1F
100
AcDbEntity
  8
0
  6
Continuous
 62
     7
370
    25
100
AcDbCircle
 10
2716.1120037798
 20
-113.5853787345
 30
0.0
 40
19.87230769230791
100
AcDbArc
 50
320.308735911
 51
0.0
  0
LINE
  5
D9
330
1F
100
AcDbEntity
  8
0
  6
Continuous
 62
     7
370
    25
100
AcDbLine
 10
2695.9843114721
 20
-111.5853787345
 30
0.0
 11
2695.9843114721
 21
-113.5853787345
 31
0.0
  0
LINE
  5
DA
330
1F
100
AcDbEntity
  8
0
  6
Continuous
 62
     7
370
    25
100
AcDbLine
 10
2735.9843114721
 20
-113.5853787345
 30
0.0
 11
2735.9843114721
 21
-111.5853787345
 31
0.0
  0
LINE
  5
DB
330
1F
100
AcDbEntity
  8
0
  6
Continuous
 62
     7
370
    25
100
AcDbLine
 10
871.805574749
 20
-126.5853787345
 30
0.0
 11
871.805574749
 21
-128.5853787345
 31
0.0
  0
LINE
  5
DC
330
1F
100
AcDbEntity
  8
0
  6
Continuous
 62
     7
370
    25
100
AcDbLine
 10
911.805574749
 20
-128.5853787345
 30
0.0
 11
911.805574749
 21
-126.5853787345
 31
0.0
  0
ARC
  5
DD
330
1F
100
AcDbEntity
  8
0
  6
Continuous
 62
     7
370
    25
100
AcDbCircle
 10
891.6778824413
 20
-128.5853787345
 30
0.0
 40
19.87230769230769
100
AcDbArc
 50
180.0
 51
226.9233678463
  0
ARC
  5
DE
330
1F
100
AcDbEntity
  8
0
  6
Continuous
 62
     7
370
    25
100
AcDbCircle
 10
891.9332670567
 20
-128.5853787345
 30
0.0
 40
19.8723076923078
100
AcDbArc
 50
313.0766321537
 51
0.0
  0
LINE
  5
DF
330
1F
100
AcDbEntity
  8
0
  6
Continuous
 62
     7
370
    25
100
AcDbLine
 10
918.984874949
 20
425.4146212655
 30
0.0
 11
918.984874949
 21
423.4146212655
 31
0.0
  0
ARC
  5
E0
330
1F
100
AcDbEntity
  8
0
  6
Continuous
 62
     7
370
    25
100
AcDbCircle
 10
939.1125672567
 20
425.4146212655
 30
0.0
 40
19.87230769230769
100
AcDbArc
 50
32.9508716738
 51
46.9233678463
  0
ARC
  5
E1
330
1F
100
AcDbEntity
  8
0
  6
Continuous
 62
     7
370
    25
100
AcDbCircle
 10
938.8571826413
 20
425.4146212655
 30
0.0
 40
19.8723076923078
100
AcDbArc
 50
133.0766321537
 51
180.0
  0
LINE
  5
E2
330
1F
100
AcDbEntity
  8
0
  6
Continuous
 62
     7
370
    25
100
AcDbLine
 10
-1858.6785963685
 20
-111.5853787345
 30
0.0
 11
-1858.6785963685
 21
-113.5853787345
 31
0.0
  0
LINE
  5
E3
330
1F
100
AcDbEntity
  8
0
  6
Continuous
 62
     7
370
    25
100
AcDbLine
 10
-1818.6785963685
 20
-113.5853787345
 30
0.0
 11
-1818.6785963685
 21
-111.5853787345
 31
0.0
  0
ARC
  5
E4
330
1F
100
AcDbEntity
  8
0
  6
Continuous
 62
     7
370
    25
100
AcDbCircle
 10
-1838.8062886762
 20
-113.5853787345
 30
0.0
 40
19.87230769230765
100
AcDbArc
 50
180.0
 51
226.9233678463
  0
ARC
  5
E5
330
1F
100
AcDbEntity
  8
0
  6
Continuous
 62
     7
370
    25
100
AcDbCircle
 10
-1838.5509040608
 20
-113.5853787345
 30
0.0
 40
19.87230769230765
100
AcDbArc
 50
313.0766321537
 51
0.0
  0
LINE
  5
E6
330
1F
100
AcDbEntity
  8
0
  6
Continuous
 62
     7
370
    25
100
AcDbLine
 10
746.468862231
 20
423.4146212655
 30
0.0
 11
746.468862231
 21
425.4146212655
 31
0.0
  0
LINE
  5
E7
330
1F
100
AcDbEntity
  8
0
  6
Continuous
 62
     7
370
    25
100
AcDbLine
 10
706.468862231
 20
425.4146212655
 30
0.0
 11
706.468862231
 21
423.4146212655
 31
0.0
  0
ARC
  5
E8
330
1F
100
AcDbEntity
  8
0
  6
Continuous
 62
     7
370
    25
100
AcDbCircle
 10
726.5965545387
 20
425.4146212655
 30
0.0
 40
19.87230769230766
100
AcDbArc
 50
0.0
 51
46.9233678463
  0
ARC
  5
E9
330
1F
100
AcDbEntity
  8
0
  6
Continuous
 62
     7
370
    25
100
AcDbCircle
 10
726.3411699233
 20
425.4146212655
 30
0.0
 40
19.87230769230774
100
AcDbArc
 50
133.0766321537
 51
180.0
  0
ARC
  5
EA
330
1F
100
AcDbEntity
  8
0
  6
Continuous
 62
     7
370
    25
100
AcDbCircle
 10
726.3411699233
 20
-128.5853787345
 30
0.0
 40
19.87230769230774
100
AcDbArc
 50
180.0
 51
226.9233678463
  0
ARC
  5
EB
330
1F
100
AcDbEntity
  8
0
  6
Continuous
 62
     7
370
    25
100
AcDbCircle
 10
726.5965545387
 20
-128.5853787345
 30
0.0
 40
19.87230769230766
100
AcDbArc
 50
313.0766321537
 51
0.0
  0
LINE
  5
EC
330
1F
100
AcDbEntity
  8
0
  6
Continuous
 62
     7
370
    25
100
AcDbLine
 10
706.468862231
 20
-126.5853787345
 30
0.0
 11
706.468862231
 21
-128.5853787345
 31
0.0
  0
LINE
  5
ED
330
1F
100
AcDbEntity
  8
0
  6
Continuous
 62
     7
370
    25
100
AcDbLine
 10
746.468862231
 20
-128.5853787345
 30
0.0
 11
746.468862231
 21
-126.5853787345
 31
0.0
  0
ARC
  5
EE
330
1F
100
AcDbEntity
  8
0
  6
Continuous
 62
     7
370
    25
100
AcDbCircle
 10
645.8106820341
 20
425.4146212655
 30
0.0
 40
19.87230769230774
100
AcDbArc
 50
32.9508716736
 51
46.9233678463
  0
ARC
  5
EF
330
1F
100
AcDbEntity
  8
0
  6
Continuous
 62
     7
370
    25
100
AcDbCircle
 10
645.5552974187
 20
425.4146212655
 30
0.0
 40
19.87230769230766
100
AcDbArc
 50
133.0766321537
 51
180.0
  0
LINE
  5
F0
330
1F
100
AcDbEntity
  8
0
  6
Continuous
 62
     7
370
    25
100
AcDbLine
 10
625.6829897264
 20
425.4146212655
 30
0.0
 11
625.6829897264
 21
423.4146212655
 31
0.0
  0
ARC
  5
F1
330
1F
100
AcDbEntity
  8
0
  6
Continuous
 62
     7
370
    25
100
AcDbCircle
 10
679.4172543387
 20
425.4146212655
 30
0.0
 40
19.87230769230766
100
AcDbArc
 50
0.0
 51
46.9233678463
  0
ARC
  5
F2
330
1F
100
AcDbEntity
  8
0
  6
Continuous
 62
     7
370
    25
100
AcDbCircle
 10
679.1618697233
 20
425.4146212655
 30
0.0
 40
19.87230769230774
100
AcDbArc
 50
133.0766321537
 51
180.0
  0
LINE
  5
F3
330
1F
100
AcDbEntity
  8
0
  6
Continuous
 62
     7
370
    25
100
AcDbLine
 10
699.289562031
 20
423.4146212655
 30
0.0
 11
699.289562031
 21
425.4146212655
 31
0.0
  0
LINE
  5
F4
330
1F
100
AcDbEntity
  8
0
  6
Continuous
 62
     7
370
    25
100
AcDbLine
 10
659.289562031
 20
425.4146212655
 30
0.0
 11
659.289562031
 21
423.4146212655
 31
0.0
  0
ARC
  5
F5
330
1F
100
AcDbEntity
  8
0
  6
Continuous
 62
     7
370
    25
100
AcDbCircle
 10
558.6588752121
 20
425.4146212655
 30
0.0
 40
19.87230769230778
100
AcDbArc
 50
0.0
 51
46.9233678463
  0
ARC
  5
F6
330
1F
100
AcDbEntity
  8
0
  6
Continuous
 62
     7
370
    25
100
AcDbCircle
 10
558.4034905968
 20
425.4146212655
 30
0.0
 40
19.8723076923077
100
AcDbArc
 50
133.0766321537
 51
180.0
  0
LINE
  5
F7
330
1F
100
AcDbEntity
  8
0
  6
Continuous
 62
     7
370
    25
100
AcDbLine
 10
578.5311829045
 20
423.4146212655
 30
0.0
 11
578.5311829045
 21
425.4146212655
 31
0.0
  0
LINE
  5
F8
330
1F
100
AcDbEntity
  8
0
  6
Continuous
 62
     7
370
    25
100
AcDbLine
 10
538.5311829045
 20
425.4146212655
 30
0.0
 11
538.5311829045
 21
423.4146212655
 31
0.0
  0
LINE
  5
F9
330
1F
100
AcDbEntity
  8
0
  6
Continuous
 62
     7
370
    25
100
AcDbLine
 10
-956.9514953656
 20
423.4146212655
 30
0.0
 11
-956.9514953656
 21
425.4146212655
 31
0.0
  0
LINE
  5
FA
330
1F
100
AcDbEntity
  8
0
  6
Continuous
 62
     7
370
    25
100
AcDbLine
 10
-996.9514953656
 20
425.4146212655
 30
0.0
 11
-996.9514953656
 21
423.4146212655
 31
0.0
  0
ARC
  5
FB
330
1F
100
AcDbEntity
  8
0
  6
Continuous
 62
     7
370
    25
100
AcDbCircle
 10
-976.8238030579
 20
425.4146212655
 30
0.0
 40
19.8723076923077
100
AcDbArc
 50
0.0
 51
46.9233678463
  0
ARC
  5
FC
330
1F
100
AcDbEntity
  8
0
  6
Continuous
 62
     7
370
    25
100
AcDbCircle
 10
-977.0791876733
 20
425.4146212655
 30
0.0
 40
19.87230769230778
100
AcDbArc
 50
133.0766321537
 51
180.0
  0
ARC
  5
FD
330
1F
100
AcDbEntity
  8
0
  6
Continuous
 62
     7
370
    25
100
AcDbCircle
 10
645.5552974187
 20
-128.5853787345
 30
0.0
 40
19.87230769230768
100
AcDbArc
 50
180.0
 51
226.9233678463
  0
ARC
  5
FE
330
1F
100
AcDbEntity
  8
0
  6
Continuous
 62
     7
370
    25
100
AcDbCircle
 10
645.8106820341
 20
-128.5853787345
 30
0.0
 40
19.87230769230788
100
AcDbArc
 50
313.0766321537
 51
327.0491283264
  0
LINE
  5
FF
330
1F
100
AcDbEntity
  8
0
  6
Continuous
 62
     7
370
    25
100
AcDbLine
 10
625.6829897264
 20
-126.5853787345
 30
0.0
 11
625.6829897264
 21
-128.5853787345
 31
0.0
  0
ARC
  5
100
330
1F
100
AcDbEntity
  8
0
  6
Continuous
 62
     7
370
    25
100
AcDbCircle
 10
891.9332670567
 20
425.4146212655
 30
0.0
 40
19.8723076923078
100
AcDbArc
 50
0.0
 51
46.9233678463
  0
ARC
  5
101
330
1F
100
AcDbEntity
  8
0
  6
Continuous
 62
     7
370
    25
100
AcDbCircle
 10
891.6778824413
 20
425.4146212655
 30
0.0
 40
19.87230769230769
100
AcDbArc
 50
133.0766321537
 51
180.0
  0
LINE
  5
102
330
1F
100
AcDbEntity
  8
0
  6
Continuous
 62
     7
370
    25
100
AcDbLine
 10
911.805574749
 20
423.4146212655
 30
0.0
 11
911.805574749
 21
425.4146212655
 31
0.0
  0
LINE
  5
103
330
1F
100
AcDbEntity
  8
0
  6
Continuous
 62
     7
370
    25
100
AcDbLine
 10
871.805574749
 20
425.4146212655
 30
0.0
 11
871.805574749
 21
423.4146212655
 31
0.0
  0
LINE
  5
104
330
1F
100
AcDbEntity
  8
0
  6
Continuous
 62
     7
370
    25
100
AcDbLine
 10
-2346.567953109
 20
-111.5853787345
 30
0.0
 11
-2346.567953109
 21
-113.5853787345
 31
0.0
  0
LINE
  5
105
330
1F
100
AcDbEntity
  8
0
  6
Continuous
 62
     7
370
    25
100
AcDbLine
 10
-2306.567953109
 20
-113.5853787345
 30
0.0
 11
-2306.567953109
 21
-111.5853787345
 31
0.0
  0
ARC
  5
106
330
1F
100
AcDbEntity
  8
0
  6
Continuous
 62
     7
370
    25
100
AcDbCircle
 10
-2326.6956454167
 20
-113.5853787345
 30
0.0
 40
19.8723076923078
100
AcDbArc
 50
180.0
 51
226.9233678463
  0
ARC
  5
107
330
1F
100
AcDbEntity
  8
0
  6
Continuous
 62
     7
370
    25
100
AcDbCircle
 10
-2326.4402608013
 20
-113.5853787345
 30
0.0
 40
19.87230769230749
100
AcDbArc
 50
313.0766321537
 51
0.0
  0
LINE
  5
108
330
1F
100
AcDbEntity
  8
0
  6
Continuous
 62
     7
370
    25
100
AcDbLine
 10
-909.7721951656
 20
423.4146212655
 30
0.0
 11
-909.7721951656
 21
425.4146212655
 31
0.0
  0
LINE
  5
109
330
1F
100
AcDbEntity
  8
0
  6
Continuous
 62
     7
370
    25
100
AcDbLine
 10
-949.7721951656
 20
425.4146212655
 30
0.0
 11
-949.7721951656
 21
423.4146212655
 31
0.0
  0
ARC
  5
10A
330
1F
100
AcDbEntity
  8
0
  6
Continuous
 62
     7
370
    25
100
AcDbCircle
 10
-929.6445028579
 20
425.4146212655
 30
0.0
 40
19.8723076923077
100
AcDbArc
 50
0.0
 51
46.9233678463
  0
ARC
  5
10B
330
1F
100
AcDbEntity
  8
0
  6
Continuous
 62
     7
370
    25
100
AcDbCircle
 10
-929.8998874733
 20
425.4146212655
 30
0.0
 40
19.87230769230778
100
AcDbArc
 50
133.0766321537
 51
180.0
  0
ARC
  5
10C
330
1F
100
AcDbEntity
  8
0
  6
Continuous
 62
     7
370
    25
100
AcDbCircle
 10
1887.7360904661
 20
-113.5853787345
 30
0.0
 40
19.87230769230752
100
AcDbArc
 50
180.0
 51
226.9233678463
  0
ARC
  5
10D
330
1F
100
AcDbEntity
  8
0
  6
Continuous
 62
     7
370
    25
100
AcDbCircle
 10
1887.9914750815
 20
-113.5853787345
 30
0.0
 40
19.87230769230791
100
AcDbArc
 50
313.0766321537
 51
0.0
  0
LINE
  5
10E
330
1F
100
AcDbEntity
  8
0
  6
Continuous
 62
     7
370
    25
100
AcDbLine
 10
1867.8637827738
 20
-111.5853787345
 30
0.0
 11
1867.8637827738
 21
-113.5853787345
 31
0.0
  0
LINE
  5
10F
330
1F
100
AcDbEntity
  8
0
  6
Continuous
 62
     7
370
    25
100
AcDbLine
 10
1907.8637827738
 20
-113.5853787345
 30
0.0
 11
1907.8637827738
 21
-111.5853787345
 31
0.0
  0
ARC
  5
110
330
1F
100
AcDbEntity
  8
0
  6
Continuous
 62
     7
370
    25
100
AcDbCircle
 10
-2127.1022595067
 20
-113.5853787345
 30
0.0
 40
19.87230769230749
100
AcDbArc
 50
180.0
 51
226.9233678463
  0
ARC
  5
111
330
1F
100
AcDbEntity
  8
0
  6
Continuous
 62
     7
370
    25
100
AcDbCircle
 10
-2126.8468748913
 20
-113.5853787345
 30
0.0
 40
19.8723076923078
100
AcDbArc
 50
313.0766321537
 51
0.0
  0
LINE
  5
112
330
1F
100
AcDbEntity
  8
0
  6
Continuous
 62
     7
370
    25
100
AcDbLine
 10
-2146.974567199
 20
-111.5853787345
 30
0.0
 11
-2146.974567199
 21
-113.5853787345
 31
0.0
  0
LINE
  5
113
330
1F
100
AcDbEntity
  8
0
  6
Continuous
 62
     7
370
    25
100
AcDbLine
 10
-2106.974567199
 20
-113.5853787345
 30
0.0
 11
-2106.974567199
 21
-111.5853787345
 31
0.0
  0
LINE
  5
114
330
1F
100
AcDbEntity
  8
0
  6
Continuous
 62
     7
370
    25
100
AcDbLine
 10
-2506.1741560846
 20
408.4146212655
 30
0.0
 11
-2506.1741560846
 21
410.4146212655
 31
0.0
  0
LINE
  5
115
330
1F
100
AcDbEntity
  8
0
  6
Continuous
 62
     7
370
    25
100
AcDbLine
 10
-2546.1741560846
 20
410.4146212655
 30
0.0
 11
-2546.1741560846
 21
408.4146212655
 31
0.0
  0
ARC
  5
116
330
1F
100
AcDbEntity
  8
0
  6
Continuous
 62
     7
370
    25
100
AcDbCircle
 10
-2526.0464637769
 20
410.4146212655
 30
0.0
 40
19.87230769230748
100
AcDbArc
 50
0.0
 51
46.9233678463
  0
ARC
  5
117
330
1F
100
AcDbEntity
  8
0
  6
Continuous
 62
     7
370
    25
100
AcDbCircle
 10
-2526.3018483923
 20
410.4146212655
 30
0.0
 40
19.87230769230779
100
AcDbArc
 50
133.0766321537
 51
180.0
  0
LINE
  5
118
330
1F
100
AcDbEntity
  8
0
  6
Continuous
 62
     7
370
    25
100
AcDbLine
 10
-949.7721951656
 20
-126.5853787345
 30
0.0
 11
-949.7721951656
 21
-128.5853787345
 31
0.0
  0
LINE
  5
119
330
1F
100
AcDbEntity
  8
0
  6
Continuous
 62
     7
370
    25
100
AcDbLine
 10
-909.7721951656
 20
-128.5853787345
 30
0.0
 11
-909.7721951656
 21
-126.5853787345
 31
0.0
  0
ARC
  5
11A
330
1F
100
AcDbEntity
  8
0
  6
Continuous
 62
     7
370
    25
100
AcDbCircle
 10
-929.8998874733
 20
-128.5853787345
 30
0.0
 40
19.87230769230776
100
AcDbArc
 50
180.0
 51
226.9233678463
  0
ARC
  5
11B
330
1F
100
AcDbEntity
  8
0
  6
Continuous
 62
     7
370
    25
100
AcDbCircle
 10
-929.6445028579
 20
-128.5853787345
 30
0.0
 40
19.87230769230768
100
AcDbArc
 50
313.0766321537
 51
0.0
  0
ARC
  5
11C
330
1F
100
AcDbEntity
  8
0
  6
Continuous
 62
     7
370
    25
100
AcDbCircle
 10
-1010.4303753625
 20
425.4146212655
 30
0.0
 40
19.87230769230769
100
AcDbArc
 50
32.9508716737
 51
46.9233678463
  0
ARC
  5
11D
330
1F
100
AcDbEntity
  8
0
  6
Continuous
 62
     7
370
    25
100
AcDbCircle
 10
-1010.6857599779
 20
425.4146212655
 30
0.0
 40
19.87230769230774
100
AcDbArc
 50
133.0766321537
 51
180.0
  0
LINE
  5
11E
330
1F
100
AcDbEntity
  8
0
  6
Continuous
 62
     7
370
    25
100
AcDbLine
 10
-1030.5580676702
 20
425.4146212655
 30
0.0
 11
-1030.5580676702
 21
423.4146212655
 31
0.0
  0
ARC
  5
11F
330
1F
100
AcDbEntity
  8
0
  6
Continuous
 62
     7
370
    25
100
AcDbCircle
 10
-182.5652312796
 20
-113.5853787345
 30
0.0
 40
19.87230769230768
100
AcDbArc
 50
180.0
 51
226.9233678463
  0
ARC
  5
120
330
1F
100
AcDbEntity
  8
0
  6
Continuous
 62
     7
370
    25
100
AcDbCircle
 10
-182.3098466642
 20
-113.5853787345
 30
0.0
 40
19.8723076923077
100
AcDbArc
 50
313.0766321537
 51
0.0
  0
LINE
  5
121
330
1F
100
AcDbEntity
  8
0
  6
Continuous
 62
     7
370
    25
100
AcDbLine
 10
-202.4375389719
 20
-111.5853787345
 30
0.0
 11
-202.4375389719
 21
-113.5853787345
 31
0.0
  0
LINE
  5
122
330
1F
100
AcDbEntity
  8
0
  6
Continuous
 62
     7
370
    25
100
AcDbLine
 10
-162.4375389719
 20
-113.5853787345
 30
0.0
 11
-162.4375389719
 21
-111.5853787345
 31
0.0
  0
ARC
  5
123
330
1F
100
AcDbEntity
  8
0
  6
Continuous
 62
     7
370
    25
100
AcDbCircle
 10
-2326.4402608013
 20
410.4146212655
 30
0.0
 40
19.87230769230748
100
AcDbArc
 50
0.0
 51
46.9233678463
  0
ARC
  5
124
330
1F
100
AcDbEntity
  8
0
  6
Continuous
 62
     7
370
    25
100
AcDbCircle
 10
-2326.6956454167
 20
410.4146212655
 30
0.0
 40
19.87230769230779
100
AcDbArc
 50
133.0766321537
 51
180.0
  0
LINE
  5
125
330
1F
100
AcDbEntity
  8
0
  6
Continuous
 62
     7
370
    25
100
AcDbLine
 10
-2306.567953109
 20
408.4146212655
 30
0.0
 11
-2306.567953109
 21
410.4146212655
 31
0.0
  0
LINE
  5
126
330
1F
100
AcDbEntity
  8
0
  6
Continuous
 62
     7
370
    25
100
AcDbLine
 10
-2346.567953109
 20
410.4146212655
 30
0.0
 11
-2346.567953109
 21
408.4146212655
 31
0.0
  0
LINE
  5
127
330
1F
100
AcDbEntity
  8
0
  6
Continuous
 62
     7
370
    25
100
AcDbLine
 10
-1117.7098744922
 20
-126.5853787345
 30
0.0
 11
-1117.7098744922
 21
-128.5853787345
 31
0.0
  0
LINE
  5
128
330
1F
100
AcDbEntity
  8
0
  6
Continuous
 62
     7
370
    25
100
AcDbLine
 10
-1077.7098744922
 20
-128.5853787345
 30
0.0
 11
-1077.7098744922
 21
-126.5853787345
 31
0.0
  0
ARC
  5
129
330
1F
100
AcDbEntity
  8
0
  6
Continuous
 62
     7
370
    25
100
AcDbCircle
 10
-1097.8375667999
 20
-128.5853787345
 30
0.0
 40
19.87230769230768
100
AcDbArc
 50
180.0
 51
226.9233678463
  0
ARC
  5
12A
330
1F
100
AcDbEntity
  8
0
  6
Continuous
 62
     7
370
    25
100
AcDbCircle
 10
-1097.5821821845
 20
-128.5853787345
 30
0.0
 40
19.87230769230768
100
AcDbArc
 50
313.0766321537
 51
0.0
  0
LINE
  5
12B
330
1F
100
AcDbEntity
  8
0
  6
Continuous
 62
     7
370
    25
100
AcDbLine
 10
-1030.5580676702
 20
-126.5853787345
 30
0.0
 11
-1030.5580676702
 21
-128.5853787345
 31
0.0
  0
ARC
  5
12C
330
1F
100
AcDbEntity
  8
0
  6
Continuous
 62
     7
370
    25
100
AcDbCircle
 10
-1010.6857599779
 20
-128.5853787345
 30
0.0
 40
19.87230769230776
100
AcDbArc
 50
180.0
 51
226.9233678463
  0
ARC
  5
12D
330
1F
100
AcDbEntity
  8
0
  6
Continuous
 62
     7
370
    25
100
AcDbCircle
 10
-1010.4303753625
 20
-128.5853787345
 30
0.0
 40
19.87230769230768
100
AcDbArc
 50
313.0766321537
 51
327.0491283263
  0
LINE
  5
12E
330
1F
100
AcDbEntity
  8
0
  6
Continuous
 62
     7
370
    25
100
AcDbLine
 10
-996.9514953656
 20
-126.5853787345
 30
0.0
 11
-996.9514953656
 21
-128.5853787345
 31
0.0
  0
LINE
  5
12F
330
1F
100
AcDbEntity
  8
0
  6
Continuous
 62
     7
370
    25
100
AcDbLine
 10
-956.9514953656
 20
-128.5853787345
 30
0.0
 11
-956.9514953656
 21
-126.5853787345
 31
0.0
  0
ARC
  5
130
330
1F
100
AcDbEntity
  8
0
  6
Continuous
 62
     7
370
    25
100
AcDbCircle
 10
-977.0791876733
 20
-128.5853787345
 30
0.0
 40
19.87230769230776
100
AcDbArc
 50
180.0
 51
226.9233678463
  0
ARC
  5
131
330
1F
100
AcDbEntity
  8
0
  6
Continuous
 62
     7
370
    25
100
AcDbCircle
 10
-976.8238030579
 20
-128.5853787345
 30
0.0
 40
19.87230769230768
100
AcDbArc
 50
313.0766321537
 51
0.0
  0
LINE
  5
132
330
1F
100
AcDbEntity
  8
0
  6
Continuous
 62
     7
370
    25
100
AcDbLine
 10
-737.2561824476
 20
425.4146212655
 30
0.0
 11
-737.2561824476
 21
423.4146212655
 31
0.0
  0
ARC
  5
133
330
1F
100
AcDbEntity
  8
0
  6
Continuous
 62
     7
370
    25
100
AcDbCircle
 10
-717.1284901399
 20
425.4146212655
 30
0.0
 40
19.8723076923077
100
AcDbArc
 50
32.9508716738
 51
46.9233678463
  0
ARC
  5
134
330
1F
100
AcDbEntity
  8
0
  6
Continuous
 62
     7
370
    25
100
AcDbCircle
 10
-717.3838747553
 20
425.4146212655
 30
0.0
 40
19.87230769230778
100
AcDbArc
 50
133.0766321537
 51
180.0
  0
LINE
  5
135
330
1F
100
AcDbEntity
  8
0
  6
Continuous
 62
     7
370
    25
100
AcDbLine
 10
-784.4354826476
 20
-126.5853787345
 30
0.0
 11
-784.4354826476
 21
-128.5853787345
 31
0.0
  0
LINE
  5
136
330
1F
100
AcDbEntity
  8
0
  6
Continuous
 62
     7
370
    25
100
AcDbLine
 10
-744.4354826476
 20
-128.5853787345
 30
0.0
 11
-744.4354826476
 21
-126.5853787345
 31
0.0
  0
ARC
  5
137
330
1F
100
AcDbEntity
  8
0
  6
Continuous
 62
     7
370
    25
100
AcDbCircle
 10
-764.5631749553
 20
-128.5853787345
 30
0.0
 40
19.87230769230768
100
AcDbArc
 50
180.0
 51
226.9233678463
  0
ARC
  5
138
330
1F
100
AcDbEntity
  8
0
  6
Continuous
 62
     7
370
    25
100
AcDbCircle
 10
-764.3077903399
 20
-128.5853787345
 30
0.0
 40
19.87230769230768
100
AcDbArc
 50
313.0766321537
 51
0.0
  0
ARC
  5
139
330
1F
100
AcDbEntity
  8
0
  6
Continuous
 62
     7
370
    25
100
AcDbCircle
 10
231.7504176849
 20
410.4146212655
 30
0.0
 40
19.8723076923077
100
AcDbArc
 50
0.0
 51
46.9233678463
  0
ARC
  5
13A
330
1F
100
AcDbEntity
  8
0
  6
Continuous
 62
     7
370
    25
100
AcDbCircle
 10
231.4950330695
 20
410.4146212655
 30
0.0
 40
19.87230769230768
100
AcDbArc
 50
133.0766321537
 51
180.0
  0
LINE
  5
13B
330
1F
100
AcDbEntity
  8
0
  6
Continuous
 62
     7
370
    25
100
AcDbLine
 10
251.6227253772
 20
408.4146212655
 30
0.0
 11
251.6227253772
 21
410.4146212655
 31
0.0
  0
LINE
  5
13C
330
1F
100
AcDbEntity
  8
0
  6
Continuous
 62
     7
370
    25
100
AcDbLine
 10
211.6227253772
 20
410.4146212655
 30
0.0
 11
211.6227253772
 21
408.4146212655
 31
0.0
  0
LINE
  5
13D
330
1F
100
AcDbEntity
  8
0
  6
Continuous
 62
     7
370
    25
100
AcDbLine
 10
-744.4354826476
 20
423.4146212655
 30
0.0
 11
-744.4354826476
 21
425.4146212655
 31
0.0
  0
LINE
  5
13E
330
1F
100
AcDbEntity
  8
0
  6
Continuous
 62
     7
370
    25
100
AcDbLine
 10
-784.4354826476
 20
425.4146212655
 30
0.0
 11
-784.4354826476
 21
423.4146212655
 31
0.0
  0
ARC
  5
13F
330
1F
100
AcDbEntity
  8
0
  6
Continuous
 62
     7
370
    25
100
AcDbCircle
 10
-764.3077903399
 20
425.4146212655
 30
0.0
 40
19.8723076923077
100
AcDbArc
 50
0.0
 51
46.9233678463
  0
ARC
  5
140
330
1F
100
AcDbEntity
  8
0
  6
Continuous
 62
     7
370
    25
100
AcDbCircle
 10
-764.5631749553
 20
425.4146212655
 30
0.0
 40
19.8723076923077
100
AcDbArc
 50
133.0766321537
 51
180.0
  0
LINE
  5
141
330
1F
100
AcDbEntity
  8
0
  6
Continuous
 62
     7
370
    25
100
AcDbLine
 10
952.5914472536
 20
-126.5853787345
 30
0.0
 11
952.5914472536
 21
-128.5853787345
 31
0.0
  0
LINE
  5
142
330
1F
100
AcDbEntity
  8
0
  6
Continuous
 62
     7
370
    25
100
AcDbLine
 10
992.5914472536
 20
-128.5853787345
 30
0.0
 11
992.5914472536
 21
-126.5853787345
 31
0.0
  0
ARC
  5
143
330
1F
100
AcDbEntity
  8
0
  6
Continuous
 62
     7
370
    25
100
AcDbCircle
 10
972.4637549459
 20
-128.5853787345
 30
0.0
 40
19.8723076923078
100
AcDbArc
 50
180.0
 51
226.9233678463
  0
ARC
  5
144
330
1F
100
AcDbEntity
  8
0
  6
Continuous
 62
     7
370
    25
100
AcDbCircle
 10
972.7191395613
 20
-128.5853787345
 30
0.0
 40
19.87230769230769
100
AcDbArc
 50
313.0766321537
 51
0.0
  0
LINE
  5
145
330
1F
100
AcDbEntity
  8
0
  6
Continuous
 62
     7
370
    25
100
AcDbLine
 10
-663.649610143
 20
423.4146212655
 30
0.0
 11
-663.649610143
 21
425.4146212655
 31
0.0
  0
LINE
  5
146
330
1F
100
AcDbEntity
  8
0
  6
Continuous
 62
     7
370
    25
100
AcDbLine
 10
-703.649610143
 20
425.4146212655
 30
0.0
 11
-703.649610143
 21
423.4146212655
 31
0.0
  0
ARC
  5
147
330
1F
100
AcDbEntity
  8
0
  6
Continuous
 62
     7
370
    25
100
AcDbCircle
 10
-683.5219178353
 20
425.4146212655
 30
0.0
 40
19.8723076923077
100
AcDbArc
 50
0.0
 51
46.9233678463
  0
ARC
  5
148
330
1F
100
AcDbEntity
  8
0
  6
Continuous
 62
     7
370
    25
100
AcDbCircle
 10
-683.7773024507
 20
425.4146212655
 30
0.0
 40
19.87230769230778
100
AcDbArc
 50
133.0766321537
 51
180.0
  0
LINE
  5
149
330
1F
100
AcDbEntity
  8
0
  6
Continuous
 62
     7
370
    25
100
AcDbLine
 10
211.6227253772
 20
-111.5853787345
 30
0.0
 11
211.6227253772
 21
-113.5853787345
 31
0.0
  0
LINE
  5
14A
330
1F
100
AcDbEntity
  8
0
  6
Continuous
 62
     7
370
    25
100
AcDbLine
 10
251.6227253772
 20
-113.5853787345
 30
0.0
 11
251.6227253772
 21
-111.5853787345
 31
0.0
  0
ARC
  5
14B
330
1F
100
AcDbEntity
  8
0
  6
Continuous
 62
     7
370
    25
100
AcDbCircle
 10
231.4950330695
 20
-113.5853787345
 30
0.0
 40
19.87230769230768
100
AcDbArc
 50
180.0
 51
226.9233678463
  0
ARC
  5
14C
330
1F
100
AcDbEntity
  8
0
  6
Continuous
 62
     7
370
    25
100
AcDbCircle
 10
231.7504176849
 20
-113.5853787345
 30
0.0
 40
19.8723076923077
100
AcDbArc
 50
313.0766321537
 51
0.0
  0
LINE
  5
14D
330
1F
100
AcDbEntity
  8
0
  6
Continuous
 62
     7
370
    25
100
AcDbLine
 10
1907.8637827738
 20
408.4146212655
 30
0.0
 11
1907.8637827738
 21
410.4146212655
 31
0.0
  0
LINE
  5
14E
330
1F
100
AcDbEntity
  8
0
  6
Continuous
 62
     7
370
    25
100
AcDbLine
 10
1867.8637827738
 20
410.4146212655
 30
0.0
 11
1867.8637827738
 21
408.4146212655
 31
0.0
  0
ARC
  5
14F
330
1F
100
AcDbEntity
  8
0
  6
Continuous
 62
     7
370
    25
100
AcDbCircle
 10
1887.9914750815
 20
410.4146212655
 30
0.0
 40
19.87230769230791
100
AcDbArc
 50
0.0
 51
46.9233678463
  0
ARC
  5
150
330
1F
100
AcDbEntity
  8
0
  6
Continuous
 62
     7
370
    25
100
AcDbCircle
 10
1887.7360904661
 20
410.4146212655
 30
0.0
 40
19.87230769230749
100
AcDbArc
 50
133.0766321537
 51
180.0
  0
ARC
  5
151
330
1F
100
AcDbEntity
  8
0
  6
Continuous
 62
     7
370
    25
100
AcDbCircle
 10
-717.3838747553
 20
-128.5853787345
 30
0.0
 40
19.87230769230776
100
AcDbArc
 50
180.0
 51
226.9233678463
  0
ARC
  5
152
330
1F
100
AcDbEntity
  8
0
  6
Continuous
 62
     7
370
    25
100
AcDbCircle
 10
-717.1284901399
 20
-128.5853787345
 30
0.0
 40
19.87230769230768
100
AcDbArc
 50
313.0766321537
 51
327.0491283262
  0
LINE
  5
153
330
1F
100
AcDbEntity
  8
0
  6
Continuous
 62
     7
370
    25
100
AcDbLine
 10
-737.2561824476
 20
-126.5853787345
 30
0.0
 11
-737.2561824476
 21
-128.5853787345
 31
0.0
  0
LINE
  5
154
330
1F
100
AcDbEntity
  8
0
  6
Continuous
 62
     7
370
    25
100
AcDbLine
 10
-1438.3183320194
 20
-128.1009247774
 30
0.0
 11
-1438.3183320194
 21
-128.7157700529
 31
0.0
  0
LINE
  5
155
330
1F
100
AcDbEntity
  8
0
  6
Continuous
 62
     7
370
    25
100
AcDbLine
 10
-1410.9183320194
 20
-128.7157700529
 30
0.0
 11
-1410.9183320194
 21
-128.1009247774
 31
0.0
  0
ARC
  5
156
330
1F
100
AcDbEntity
  8
0
  6
Continuous
 62
     7
370
    25
100
AcDbCircle
 10
-1437.7183320194
 20
-128.7157700529
 30
0.0
 40
0.6000000000003638
100
AcDbArc
 50
180.0
 51
243.6246146768
  0
ARC
  5
157
330
1F
100
AcDbEntity
  8
0
  6
Continuous
 62
     7
370
    25
100
AcDbCircle
 10
-1411.5183320194
 20
-128.7157700529
 30
0.0
 40
0.6000000000003638
100
AcDbArc
 50
296.3753853232
 51
0.0
  0
ARC
  5
158
330
1F
100
AcDbEntity
  8
0
  6
Continuous
 62
     7
370
    25
100
AcDbCircle
 10
-1424.6183320194
 20
-102.2974999467
 30
0.0
 40
30.0878787878789
100
AcDbArc
 50
243.6246146768
 51
296.3753853232
  0
ARC
  5
159
330
1F
100
AcDbEntity
  8
0
  6
Continuous
 62
     7
370
    25
100
AcDbCircle
 10
-670.549610143
 20
440.5450125839
 30
0.0
 40
0.5999999999999551
100
AcDbArc
 50
0.0
 51
63.6246146768
  0
ARC
  5
15A
330
1F
100
AcDbEntity
  8
0
  6
Continuous
 62
     7
370
    25
100
AcDbCircle
 10
-696.749610143
 20
440.5450125839
 30
0.0
 40
0.6000000000000227
100
AcDbArc
 50
116.3753853232
 51
180.0
  0
LINE
  5
15B
330
1F
100
AcDbEntity
  8
0
  6
Continuous
 62
     7
370
    25
100
AcDbLine
 10
-669.949610143
 20
439.9301673083
 30
0.0
 11
-669.949610143
 21
440.5450125839
 31
0.0
  0
LINE
  5
15C
330
1F
100
AcDbEntity
  8
0
  6
Continuous
 62
     7
370
    25
100
AcDbLine
 10
-697.349610143
 20
440.5450125839
 30
0.0
 11
-697.349610143
 21
439.9301673083
 31
0.0
  0
ARC
  5
15D
330
1F
100
AcDbEntity
  8
0
  6
Continuous
 62
     7
370
    25
100
AcDbCircle
 10
-683.649610143
 20
414.1267424776
 30
0.0
 40
30.08787878787883
100
AcDbArc
 50
63.6246146768
 51
116.3753853232
  0
ARC
  5
15E
330
1F
100
AcDbEntity
  8
0
  6
Continuous
 62
     7
370
    25
100
AcDbCircle
 10
-751.3354826476
 20
440.5450125839
 30
0.0
 40
0.6000000000000064
100
AcDbArc
 50
0.0
 51
63.6246146769
  0
ARC
  5
15F
330
1F
100
AcDbEntity
  8
0
  6
Continuous
 62
     7
370
    25
100
AcDbCircle
 10
-777.5354826476
 20
440.5450125839
 30
0.0
 40
0.6000000000000569
100
AcDbArc
 50
116.3753853232
 51
180.0
  0
LINE
  5
160
330
1F
100
AcDbEntity
  8
0
  6
Continuous
 62
     7
370
    25
100
AcDbLine
 10
-750.7354826476
 20
439.9301673083
 30
0.0
 11
-750.7354826476
 21
440.5450125839
 31
0.0
  0
LINE
  5
161
330
1F
100
AcDbEntity
  8
0
  6
Continuous
 62
     7
370
    25
100
AcDbLine
 10
-778.1354826476
 20
440.5450125839
 30
0.0
 11
-778.1354826476
 21
439.9301673083
 31
0.0
  0
ARC
  5
162
330
1F
100
AcDbEntity
  8
0
  6
Continuous
 62
     7
370
    25
100
AcDbCircle
 10
-764.4354826476
 20
414.1267424776
 30
0.0
 40
30.08787878787883
100
AcDbArc
 50
63.6246146768
 51
116.3753853232
  0
LINE
  5
163
330
1F
100
AcDbEntity
  8
0
  6
Continuous
 62
     7
370
    25
100
AcDbLine
 10
245.3227253772
 20
424.9301673083
 30
0.0
 11
245.3227253772
 21
425.5450125839
 31
0.0
  0
LINE
  5
164
330
1F
100
AcDbEntity
  8
0
  6
Continuous
 62
     7
370
    25
100
AcDbLine
 10
217.9227253772
 20
425.5450125839
 30
0.0
 11
217.9227253772
 21
424.9301673083
 31
0.0
  0
ARC
  5
165
330
1F
100
AcDbEntity
  8
0
  6
Continuous
 62
     7
370
    25
100
AcDbCircle
 10
244.7227253772
 20
425.5450125839
 30
0.0
 40
0.6000000000000317
100
AcDbArc
 50
0.0
 51
63.6246146768
  0
ARC
  5
166
330
1F
100
AcDbEntity
  8
0
  6
Continuous
 62
     7
370
    25
100
AcDbCircle
 10
218.5227253772
 20
425.5450125839
 30
0.0
 40
0.6000000000000443
100
AcDbArc
 50
116.3753853232
 51
180.0
  0
ARC
  5
167
330
1F
100
AcDbEntity
  8
0
  6
Continuous
 62
     7
370
    25
100
AcDbCircle
 10
231.6227253772
 20
399.1267424776
 30
0.0
 40
30.08787878787886
100
AcDbArc
 50
63.6246146768
 51
116.3753853232
  0
ARC
  5
168
330
1F
100
AcDbEntity
  8
0
  6
Continuous
 62
     7
370
    25
100
AcDbCircle
 10
-777.5354826476
 20
-143.7157700529
 30
0.0
 40
0.5999999999999805
100
AcDbArc
 50
180.0
 51
243.6246146768
  0
ARC
  5
169
330
1F
100
AcDbEntity
  8
0
  6
Continuous
 62
     7
370
    25
100
AcDbCircle
 10
-751.3354826476
 20
-143.7157700529
 30
0.0
 40
0.5999999999999301
100
AcDbArc
 50
296.3753853232
 51
0.0
  0
LINE
  5
16A
330
1F
100
AcDbEntity
  8
0
  6
Continuous
 62
     7
370
    25
100
AcDbLine
 10
-778.1354826476
 20
-143.1009247774
 30
0.0
 11
-778.1354826476
 21
-143.7157700529
 31
0.0
  0
LINE
  5
16B
330
1F
100
AcDbEntity
  8
0
  6
Continuous
 62
     7
370
    25
100
AcDbLine
 10
-750.7354826476
 20
-143.7157700529
 30
0.0
 11
-750.7354826476
 21
-143.1009247774
 31
0.0
  0
ARC
  5
16C
330
1F
100
AcDbEntity
  8
0
  6
Continuous
 62
     7
370
    25
100
AcDbCircle
 10
-764.4354826476
 20
-117.2974999467
 30
0.0
 40
30.08787878787883
100
AcDbArc
 50
243.6246146768
 51
296.3753853232
  0
LINE
  5
16D
330
1F
100
AcDbEntity
  8
0
  6
Continuous
 62
     7
370
    25
100
AcDbLine
 10
958.8914472536
 20
-143.1009247774
 30
0.0
 11
958.8914472536
 21
-143.7157700529
 31
0.0
  0
LINE
  5
16E
330
1F
100
AcDbEntity
  8
0
  6
Continuous
 62
     7
370
    25
100
AcDbLine
 10
986.2914472536
 20
-143.7157700529
 30
0.0
 11
986.2914472536
 21
-143.1009247774
 31
0.0
  0
ARC
  5
16F
330
1F
100
AcDbEntity
  8
0
  6
Continuous
 62
     7
370
    25
100
AcDbCircle
 10
959.4914472536
 20
-143.7157700529
 30
0.0
 40
0.6000000000001364
100
AcDbArc
 50
180.0
 51
243.6246146768
  0
ARC
  5
170
330
1F
100
AcDbEntity
  8
0
  6
Continuous
 62
     7
370
    25
100
AcDbCircle
 10
985.6914472536
 20
-143.7157700529
 30
0.0
 40
0.600000000000006
100
AcDbArc
 50
296.3753853232
 51
0.0
  0
ARC
  5
171
330
1F
100
AcDbEntity
  8
0
  6
Continuous
 62
     7
370
    25
100
AcDbCircle
 10
972.5914472536
 20
-117.2974999467
 30
0.0
 40
30.08787878787886
100
AcDbArc
 50
243.6246146768
 51
296.3753853232
  0
ARC
  5
172
330
1F
100
AcDbEntity
  8
0
  6
Continuous
 62
     7
370
    25
100
AcDbCircle
 10
1900.9637827738
 20
425.5450125839
 30
0.0
 40
0.5999999999999556
100
AcDbArc
 50
0.0
 51
63.6246146768
  0
ARC
  5
173
330
1F
100
AcDbEntity
  8
0
  6
Continuous
 62
     7
370
    25
100
AcDbCircle
 10
1874.7637827738
 20
425.5450125839
 30
0.0
 40
0.5999999999999556
100
AcDbArc
 50
116.3753853232
 51
180.0
  0
LINE
  5
174
330
1F
100
AcDbEntity
  8
0
  6
Continuous
 62
     7
370
    25
100
AcDbLine
 10
1901.5637827738
 20
424.9301673083
 30
0.0
 11
1901.5637827738
 21
425.5450125839
 31
0.0
  0
LINE
  5
175
330
1F
100
AcDbEntity
  8
0
  6
Continuous
 62
     7
370
    25
100
AcDbLine
 10
1874.1637827738
 20
425.5450125839
 30
0.0
 11
1874.1637827738
 21
424.9301673083
 31
0.0
  0
ARC
  5
176
330
1F
100
AcDbEntity
  8
0
  6
Continuous
 62
     7
370
    25
100
AcDbCircle
 10
1887.8637827738
 20
399.1267424776
 30
0.0
 40
30.08787878787878
100
AcDbArc
 50
63.6246146768
 51
116.3753853232
  0
ARC
  5
177
330
1F
100
AcDbEntity
  8
0
  6
Continuous
 62
     7
370
    25
100
AcDbCircle
 10
-704.1561824476
 20
440.5450125839
 30
0.0
 40
0.5999999999999551
100
AcDbArc
 50
0.0
 51
63.6246146768
  0
ARC
  5
178
330
1F
100
AcDbEntity
  8
0
  6
Continuous
 62
     7
370
    25
100
AcDbCircle
 10
-730.3561824476
 20
440.5450125839
 30
0.0
 40
0.599999999999909
100
AcDbArc
 50
116.3753853232
 51
180.0
  0
LINE
  5
179
330
1F
100
AcDbEntity
  8
0
  6
Continuous
 62
     7
370
    25
100
AcDbLine
 10
-703.5561824476
 20
439.9301673083
 30
0.0
 11
-703.5561824476
 21
440.5450125839
 31
0.0
  0
LINE
  5
17A
330
1F
100
AcDbEntity
  8
0
  6
Continuous
 62
     7
370
    25
100
AcDbLine
 10
-730.9561824476
 20
440.5450125839
 30
0.0
 11
-730.9561824476
 21
439.9301673083
 31
0.0
  0
ARC
  5
17B
330
1F
100
AcDbEntity
  8
0
  6
Continuous
 62
     7
370
    25
100
AcDbCircle
 10
-717.2561824476
 20
414.1267424776
 30
0.0
 40
30.08787878787883
100
AcDbArc
 50
63.6246146768
 51
116.3753853232
  0
ARC
  5
17C
330
1F
100
AcDbEntity
  8
0
  6
Continuous
 62
     7
370
    25
100
AcDbCircle
 10
-730.3561824476
 20
-143.7157700529
 30
0.0
 40
0.5999999999999301
100
AcDbArc
 50
180.0
 51
243.6246146768
  0
ARC
  5
17D
330
1F
100
AcDbEntity
  8
0
  6
Continuous
 62
     7
370
    25
100
AcDbCircle
 10
-704.1561824476
 20
-143.7157700529
 30
0.0
 40
0.5999999999999805
100
AcDbArc
 50
296.3753853232
 51
0.0
  0
LINE
  5
17E
330
1F
100
AcDbEntity
  8
0
  6
Continuous
 62
     7
370
    25
100
AcDbLine
 10
-730.9561824476
 20
-143.1009247774
 30
0.0
 11
-730.9561824476
 21
-143.7157700529
 31
0.0
  0
LINE
  5
17F
330
1F
100
AcDbEntity
  8
0
  6
Continuous
 62
     7
370
    25
100
AcDbLine
 10
-703.5561824476
 20
-143.7157700529
 30
0.0
 11
-703.5561824476
 21
-143.1009247774
 31
0.0
  0
ARC
  5
180
330
1F
100
AcDbEntity
  8
0
  6
Continuous
 62
     7
370
    25
100
AcDbCircle
 10
-717.2561824476
 20
-117.2974999467
 30
0.0
 40
30.08787878787883
100
AcDbArc
 50
243.6246146768
 51
296.3753853232
  0
ARC
  5
181
330
1F
100
AcDbEntity
  8
0
  6
Continuous
 62
     7
370
    25
100
AcDbCircle
 10
-195.5375389719
 20
-128.7157700529
 30
0.0
 40
0.5999999999999934
100
AcDbArc
 50
180.0
 51
243.6246146768
  0
ARC
  5
182
330
1F
100
AcDbEntity
  8
0
  6
Continuous
 62
     7
370
    25
100
AcDbCircle
 10
-169.3375389719
 20
-128.7157700529
 30
0.0
 40
0.5999999999999808
100
AcDbArc
 50
296.3753853232
 51
0.0
  0
LINE
  5
183
330
1F
100
AcDbEntity
  8
0
  6
Continuous
 62
     7
370
    25
100
AcDbLine
 10
-196.1375389719
 20
-128.1009247774
 30
0.0
 11
-196.1375389719
 21
-128.7157700529
 31
0.0
  0
LINE
  5
184
330
1F
100
AcDbEntity
  8
0
  6
Continuous
 62
     7
370
    25
100
AcDbLine
 10
-168.7375389719
 20
-128.7157700529
 30
0.0
 11
-168.7375389719
 21
-128.1009247774
 31
0.0
  0
ARC
  5
185
330
1F
100
AcDbEntity
  8
0
  6
Continuous
 62
     7
370
    25
100
AcDbCircle
 10
-182.4375389719
 20
-102.2974999467
 30
0.0
 40
30.08787878787882
100
AcDbArc
 50
243.6246146768
 51
296.3753853232
  0
ARC
  5
186
330
1F
100
AcDbEntity
  8
0
  6
Continuous
 62
     7
370
    25
100
AcDbCircle
 10
-990.0514953656
 20
-143.7157700529
 30
0.0
 40
0.6000000000000227
100
AcDbArc
 50
180.0
 51
243.6246146768
  0
ARC
  5
187
330
1F
100
AcDbEntity
  8
0
  6
Continuous
 62
     7
370
    25
100
AcDbCircle
 10
-963.8514953656
 20
-143.7157700529
 30
0.0
 40
0.5999999999999805
100
AcDbArc
 50
296.3753853232
 51
0.0
  0
LINE
  5
188
330
1F
100
AcDbEntity
  8
0
  6
Continuous
 62
     7
370
    25
100
AcDbLine
 10
-990.6514953656
 20
-143.1009247774
 30
0.0
 11
-990.6514953656
 21
-143.7157700529
 31
0.0
  0
LINE
  5
189
330
1F
100
AcDbEntity
  8
0
  6
Continuous
 62
     7
370
    25
100
AcDbLine
 10
-963.2514953656
 20
-143.7157700529
 30
0.0
 11
-963.2514953656
 21
-143.1009247774
 31
0.0
  0
ARC
  5
18A
330
1F
100
AcDbEntity
  8
0
  6
Continuous
 62
     7
370
    25
100
AcDbCircle
 10
-976.9514953656
 20
-117.2974999467
 30
0.0
 40
30.08787878787883
100
AcDbArc
 50
243.6246146768
 51
296.3753853232
  0
ARC
  5
18B
330
1F
100
AcDbEntity
  8
0
  6
Continuous
 62
     7
370
    25
100
AcDbCircle
 10
-1023.6580676702
 20
-143.7157700529
 30
0.0
 40
0.6000000000000227
100
AcDbArc
 50
180.0
 51
243.6246146768
  0
ARC
  5
18C
330
1F
100
AcDbEntity
  8
0
  6
Continuous
 62
     7
370
    25
100
AcDbCircle
 10
-997.4580676702
 20
-143.7157700529
 30
0.0
 40
0.5999999999999301
100
AcDbArc
 50
296.3753853232
 51
0.0
  0
LINE
  5
18D
330
1F
100
AcDbEntity
  8
0
  6
Continuous
 62
     7
370
    25
100
AcDbLine
 10
-1024.2580676702
 20
-143.1009247774
 30
0.0
 11
-1024.2580676702
 21
-143.7157700529
 31
0.0
  0
LINE
  5
18E
330
1F
100
AcDbEntity
  8
0
  6
Continuous
 62
     7
370
    25
100
AcDbLine
 10
-996.8580676702
 20
-143.7157700529
 30
0.0
 11
-996.8580676702
 21
-143.1009247774
 31
0.0
  0
ARC
  5
18F
330
1F
100
AcDbEntity
  8
0
  6
Continuous
 62
     7
370
    25
100
AcDbCircle
 10
-1010.5580676702
 20
-117.2974999467
 30
0.0
 40
30.08787878787883
100
AcDbArc
 50
243.6246146768
 51
296.3753853232
  0
LINE
  5
190
330
1F
100
AcDbEntity
  8
0
  6
Continuous
 62
     7
370
    25
100
AcDbLine
 10
-943.4721951656
 20
-143.1009247774
 30
0.0
 11
-943.4721951656
 21
-143.7157700529
 31
0.0
  0
LINE
  5
191
330
1F
100
AcDbEntity
  8
0
  6
Continuous
 62
     7
370
    25
100
AcDbLine
 10
-916.0721951656
 20
-143.7157700529
 30
0.0
 11
-916.0721951656
 21
-143.1009247774
 31
0.0
  0
ARC
  5
192
330
1F
100
AcDbEntity
  8
0
  6
Continuous
 62
     7
370
    25
100
AcDbCircle
 10
-942.8721951656
 20
-143.7157700529
 30
0.0
 40
0.5999999999999301
100
AcDbArc
 50
180.0
 51
243.6246146768
  0
ARC
  5
193
330
1F
100
AcDbEntity
  8
0
  6
Continuous
 62
     7
370
    25
100
AcDbCircle
 10
-916.6721951656
 20
-143.7157700529
 30
0.0
 40
0.5999999999999805
100
AcDbArc
 50
296.3753853232
 51
0.0
  0
ARC
  5
194
330
1F
100
AcDbEntity
  8
0
  6
Continuous
 62
     7
370
    25
100
AcDbCircle
 10
-929.7721951656
 20
-117.2974999467
 30
0.0
 40
30.08787878787883
100
AcDbArc
 50
243.6246146768
 51
296.3753853232
  0
LINE
  5
195
330
1F
100
AcDbEntity
  8
0
  6
Continuous
 62
     7
370
    25
100
AcDbLine
 10
-996.8580676702
 20
439.9301673083
 30
0.0
 11
-996.8580676702
 21
440.5450125839
 31
0.0
  0
LINE
  5
196
330
1F
100
AcDbEntity
  8
0
  6
Continuous
 62
     7
370
    25
100
AcDbLine
 10
-1024.2580676702
 20
440.5450125839
 30
0.0
 11
-1024.2580676702
 21
439.9301673083
 31
0.0
  0
ARC
  5
197
330
1F
100
AcDbEntity
  8
0
  6
Continuous
 62
     7
370
    25
100
AcDbCircle
 10
-997.4580676702
 20
440.5450125839
 30
0.0
 40
0.6000000000000064
100
AcDbArc
 50
0.0
 51
63.6246146769
  0
ARC
  5
198
330
1F
100
AcDbEntity
  8
0
  6
Continuous
 62
     7
370
    25
100
AcDbCircle
 10
-1023.6580676702
 20
440.5450125839
 30
0.0
 40
0.6000000000000569
100
AcDbArc
 50
116.3753853232
 51
180.0
  0
ARC
  5
199
330
1F
100
AcDbEntity
  8
0
  6
Continuous
 62
     7
370
    25
100
AcDbCircle
 10
-1010.5580676702
 20
414.1267424776
 30
0.0
 40
30.08787878787883
100
AcDbArc
 50
63.6246146768
 51
116.3753853232
  0
LINE
  5
19A
330
1F
100
AcDbEntity
  8
0
  6
Continuous
 62
     7
370
    25
100
AcDbLine
 10
-2140.674567199
 20
-128.1009247774
 30
0.0
 11
-2140.674567199
 21
-128.7157700529
 31
0.0
  0
LINE
  5
19B
330
1F
100
AcDbEntity
  8
0
  6
Continuous
 62
     7
370
    25
100
AcDbLine
 10
-2113.274567199
 20
-128.7157700529
 30
0.0
 11
-2113.274567199
 21
-128.1009247774
 31
0.0
  0
ARC
  5
19C
330
1F
100
AcDbEntity
  8
0
  6
Continuous
 62
     7
370
    25
100
AcDbCircle
 10
-2140.074567199
 20
-128.7157700529
 30
0.0
 40
0.6000000000003638
100
AcDbArc
 50
180.0
 51
243.6246146768
  0
ARC
  5
19D
330
1F
100
AcDbEntity
  8
0
  6
Continuous
 62
     7
370
    25
100
AcDbCircle
 10
-2113.874567199
 20
-128.7157700529
 30
0.0
 40
0.6000000000003638
100
AcDbArc
 50
296.3753853232
 51
0.0
  0
ARC
  5
19E
330
1F
100
AcDbEntity
  8
0
  6
Continuous
 62
     7
370
    25
100
AcDbCircle
 10
-2126.974567199
 20
-102.2974999467
 30
0.0
 40
30.0878787878788
100
AcDbArc
 50
243.6246146768
 51
296.3753853232
  0
LINE
  5
19F
330
1F
100
AcDbEntity
  8
0
  6
Continuous
 62
     7
370
    25
100
AcDbLine
 10
-2312.867953109
 20
424.9301673083
 30
0.0
 11
-2312.867953109
 21
425.5450125839
 31
0.0
  0
LINE
  5
1A0
330
1F
100
AcDbEntity
  8
0
  6
Continuous
 62
     7
370
    25
100
AcDbLine
 10
-2340.267953109
 20
425.5450125839
 30
0.0
 11
-2340.267953109
 21
424.9301673083
 31
0.0
  0
ARC
  5
1A1
330
1F
100
AcDbEntity
  8
0
  6
Continuous
 62
     7
370
    25
100
AcDbCircle
 10
-2313.467953109
 20
425.5450125839
 30
0.0
 40
0.6000000000003638
100
AcDbArc
 50
0.0
 51
63.6246146768
  0
ARC
  5
1A2
330
1F
100
AcDbEntity
  8
0
  6
Continuous
 62
     7
370
    25
100
AcDbCircle
 10
-2339.667953109
 20
425.5450125839
 30
0.0
 40
0.6000000000003638
100
AcDbArc
 50
116.3753853232
 51
180.0
  0
ARC
  5
1A3
330
1F
100
AcDbEntity
  8
0
  6
Continuous
 62
     7
370
    25
100
AcDbCircle
 10
-2326.567953109
 20
399.1267424776
 30
0.0
 40
30.08787878787884
100
AcDbArc
 50
63.6246146768
 51
116.3753853232
  0
ARC
  5
1A4
330
1F
100
AcDbEntity
  8
0
  6
Continuous
 62
     7
370
    25
100
AcDbCircle
 10
1874.7637827738
 20
-128.7157700529
 30
0.0
 40
0.5999999999999556
100
AcDbArc
 50
180.0
 51
243.6246146768
  0
ARC
  5
1A5
330
1F
100
AcDbEntity
  8
0
  6
Continuous
 62
     7
370
    25
100
AcDbCircle
 10
1900.9637827738
 20
-128.7157700529
 30
0.0
 40
0.5999999999999556
100
AcDbArc
 50
296.3753853232
 51
0.0
  0
LINE
  5
1A6
330
1F
100
AcDbEntity
  8
0
  6
Continuous
 62
     7
370
    25
100
AcDbLine
 10
1874.1637827738
 20
-128.1009247774
 30
0.0
 11
1874.1637827738
 21
-128.7157700529
 31
0.0
  0
LINE
  5
1A7
330
1F
100
AcDbEntity
  8
0
  6
Continuous
 62
     7
370
    25
100
AcDbLine
 10
1901.5637827738
 20
-128.7157700529
 30
0.0
 11
1901.5637827738
 21
-128.1009247774
 31
0.0
  0
ARC
  5
1A8
330
1F
100
AcDbEntity
  8
0
  6
Continuous
 62
     7
370
    25
100
AcDbCircle
 10
1887.8637827738
 20
-102.2974999467
 30
0.0
 40
30.0878787878788
100
AcDbArc
 50
243.6246146768
 51
296.3753853232
  0
ARC
  5
1A9
330
1F
100
AcDbEntity
  8
0
  6
Continuous
 62
     7
370
    25
100
AcDbCircle
 10
-916.6721951656
 20
440.5450125839
 30
0.0
 40
0.6000000000000569
100
AcDbArc
 50
0.0
 51
63.6246146768
  0
ARC
  5
1AA
330
1F
100
AcDbEntity
  8
0
  6
Continuous
 62
     7
370
    25
100
AcDbCircle
 10
-942.8721951656
 20
440.5450125839
 30
0.0
 40
0.6000000000000064
100
AcDbArc
 50
116.3753853231
 51
180.0
  0
LINE
  5
1AB
330
1F
100
AcDbEntity
  8
0
  6
Continuous
 62
     7
370
    25
100
AcDbLine
 10
-916.0721951656
 20
439.9301673083
 30
0.0
 11
-916.0721951656
 21
440.5450125839
 31
0.0
  0
LINE
  5
1AC
330
1F
100
AcDbEntity
  8
0
  6
Continuous
 62
     7
370
    25
100
AcDbLine
 10
-943.4721951656
 20
440.5450125839
 30
0.0
 11
-943.4721951656
 21
439.9301673083
 31
0.0
  0
ARC
  5
1AD
330
1F
100
AcDbEntity
  8
0
  6
Continuous
 62
     7
370
    25
100
AcDbCircle
 10
-929.7721951656
 20
414.1267424776
 30
0.0
 40
30.08787878787883
100
AcDbArc
 50
63.6246146768
 51
116.3753853232
  0
LINE
  5
1AE
330
1F
100
AcDbEntity
  8
0
  6
Continuous
 62
     7
370
    25
100
AcDbLine
 10
631.9829897264
 20
-143.1009247774
 30
0.0
 11
631.9829897264
 21
-143.7157700529
 31
0.0
  0
LINE
  5
1AF
330
1F
100
AcDbEntity
  8
0
  6
Continuous
 62
     7
370
    25
100
AcDbLine
 10
659.3829897264
 20
-143.7157700529
 30
0.0
 11
659.3829897264
 21
-143.1009247774
 31
0.0
  0
ARC
  5
1B0
330
1F
100
AcDbEntity
  8
0
  6
Continuous
 62
     7
370
    25
100
AcDbCircle
 10
632.5829897264
 20
-143.7157700529
 30
0.0
 40
0.5999999999999805
100
AcDbArc
 50
180.0
 51
243.6246146768
  0
ARC
  5
1B1
330
1F
100
AcDbEntity
  8
0
  6
Continuous
 62
     7
370
    25
100
AcDbCircle
 10
658.7829897264
 20
-143.7157700529
 30
0.0
 40
0.6000000000000227
100
AcDbArc
 50
296.3753853232
 51
0.0
  0
ARC
  5
1B2
330
1F
100
AcDbEntity
  8
0
  6
Continuous
 62
     7
370
    25
100
AcDbCircle
 10
645.6829897264
 20
-117.2974999467
 30
0.0
 40
30.08787878787883
100
AcDbArc
 50
243.6246146768
 51
296.3753853232
  0
LINE
  5
1B3
330
1F
100
AcDbEntity
  8
0
  6
Continuous
 62
     7
370
    25
100
AcDbLine
 10
905.505574749
 20
439.9301673083
 30
0.0
 11
905.505574749
 21
440.5450125839
 31
0.0
  0
LINE
  5
1B4
330
1F
100
AcDbEntity
  8
0
  6
Continuous
 62
     7
370
    25
100
AcDbLine
 10
878.105574749
 20
440.5450125839
 30
0.0
 11
878.105574749
 21
439.9301673083
 31
0.0
  0
ARC
  5
1B5
330
1F
100
AcDbEntity
  8
0
  6
Continuous
 62
     7
370
    25
100
AcDbCircle
 10
904.905574749
 20
440.5450125839
 30
0.0
 40
0.6000000000001364
100
AcDbArc
 50
0.0
 51
63.6246146768
  0
ARC
  5
1B6
330
1F
100
AcDbEntity
  8
0
  6
Continuous
 62
     7
370
    25
100
AcDbCircle
 10
878.705574749
 20
440.5450125839
 30
0.0
 40
0.5999999999999551
100
AcDbArc
 50
116.3753853232
 51
180.0
  0
ARC
  5
1B7
330
1F
100
AcDbEntity
  8
0
  6
Continuous
 62
     7
370
    25
100
AcDbCircle
 10
891.805574749
 20
414.1267424776
 30
0.0
 40
30.08787878787883
100
AcDbArc
 50
63.6246146768
 51
116.3753853232
  0
ARC
  5
1B8
330
1F
100
AcDbEntity
  8
0
  6
Continuous
 62
     7
370
    25
100
AcDbCircle
 10
-2339.667953109
 20
-128.7157700529
 30
0.0
 40
0.6000000000003638
100
AcDbArc
 50
180.0
 51
243.6246146768
  0
ARC
  5
1B9
330
1F
100
AcDbEntity
  8
0
  6
Continuous
 62
     7
370
    25
100
AcDbCircle
 10
-2313.467953109
 20
-128.7157700529
 30
0.0
 40
0.6000000000003638
100
AcDbArc
 50
296.3753853232
 51
0.0
  0
LINE
  5
1BA
330
1F
100
AcDbEntity
  8
0
  6
Continuous
 62
     7
370
    25
100
AcDbLine
 10
-2340.267953109
 20
-128.1009247774
 30
0.0
 11
-2340.267953109
 21
-128.7157700529
 31
0.0
  0
LINE
  5
1BB
330
1F
100
AcDbEntity
  8
0
  6
Continuous
 62
     7
370
    25
100
AcDbLine
 10
-2312.867953109
 20
-128.7157700529
 30
0.0
 11
-2312.867953109
 21
-128.1009247774
 31
0.0
  0
ARC
  5
1BC
330
1F
100
AcDbEntity
  8
0
  6
Continuous
 62
     7
370
    25
100
AcDbCircle
 10
-2326.567953109
 20
-102.2974999467
 30
0.0
 40
30.0878787878788
100
AcDbArc
 50
243.6246146768
 51
296.3753853232
  0
ARC
  5
1BD
330
1F
100
AcDbEntity
  8
0
  6
Continuous
 62
     7
370
    25
100
AcDbCircle
 10
571.6311829045
 20
440.5450125839
 30
0.0
 40
0.6000000000000569
100
AcDbArc
 50
0.0
 51
63.6246146768
  0
ARC
  5
1BE
330
1F
100
AcDbEntity
  8
0
  6
Continuous
 62
     7
370
    25
100
AcDbCircle
 10
545.4311829045
 20
440.5450125839
 30
0.0
 40
0.6000000000000569
100
AcDbArc
 50
116.3753853232
 51
180.0
  0
LINE
  5
1BF
330
1F
100
AcDbEntity
  8
0
  6
Continuous
 62
     7
370
    25
100
AcDbLine
 10
572.2311829045
 20
439.9301673083
 30
0.0
 11
572.2311829045
 21
440.5450125839
 31
0.0
  0
LINE
  5
1C0
330
1F
100
AcDbEntity
  8
0
  6
Continuous
 62
     7
370
    25
100
AcDbLine
 10
544.8311829045
 20
440.5450125839
 30
0.0
 11
544.8311829045
 21
439.9301673083
 31
0.0
  0
ARC
  5
1C1
330
1F
100
AcDbEntity
  8
0
  6
Continuous
 62
     7
370
    25
100
AcDbCircle
 10
558.5311829045
 20
414.1267424776
 30
0.0
 40
30.08787878787883
100
AcDbArc
 50
63.6246146768
 51
116.3753853232
  0
ARC
  5
1C2
330
1F
100
AcDbEntity
  8
0
  6
Continuous
 62
     7
370
    25
100
AcDbCircle
 10
658.7829897264
 20
440.5450125839
 30
0.0
 40
0.6000000000000569
100
AcDbArc
 50
0.0
 51
63.6246146768
  0
ARC
  5
1C3
330
1F
100
AcDbEntity
  8
0
  6
Continuous
 62
     7
370
    25
100
AcDbCircle
 10
632.5829897264
 20
440.5450125839
 30
0.0
 40
0.6000000000000569
100
AcDbArc
 50
116.3753853232
 51
180.0
  0
LINE
  5
1C4
330
1F
100
AcDbEntity
  8
0
  6
Continuous
 62
     7
370
    25
100
AcDbLine
 10
659.3829897264
 20
439.9301673083
 30
0.0
 11
659.3829897264
 21
440.5450125839
 31
0.0
  0
LINE
  5
1C5
330
1F
100
AcDbEntity
  8
0
  6
Continuous
 62
     7
370
    25
100
AcDbLine
 10
631.9829897264
 20
440.5450125839
 30
0.0
 11
631.9829897264
 21
439.9301673083
 31
0.0
  0
ARC
  5
1C6
330
1F
100
AcDbEntity
  8
0
  6
Continuous
 62
     7
370
    25
100
AcDbCircle
 10
645.6829897264
 20
414.1267424776
 30
0.0
 40
30.08787878787883
100
AcDbArc
 50
63.6246146768
 51
116.3753853232
  0
LINE
  5
1C7
330
1F
100
AcDbEntity
  8
0
  6
Continuous
 62
     7
370
    25
100
AcDbLine
 10
692.989562031
 20
439.9301673083
 30
0.0
 11
692.989562031
 21
440.5450125839
 31
0.0
  0
LINE
  5
1C8
330
1F
100
AcDbEntity
  8
0
  6
Continuous
 62
     7
370
    25
100
AcDbLine
 10
665.589562031
 20
440.5450125839
 30
0.0
 11
665.589562031
 21
439.9301673083
 31
0.0
  0
ARC
  5
1C9
330
1F
100
AcDbEntity
  8
0
  6
Continuous
 62
     7
370
    25
100
AcDbCircle
 10
692.389562031
 20
440.5450125839
 30
0.0
 40
0.5999999999999551
100
AcDbArc
 50
0.0
 51
63.6246146768
  0
ARC
  5
1CA
330
1F
100
AcDbEntity
  8
0
  6
Continuous
 62
     7
370
    25
100
AcDbCircle
 10
666.189562031
 20
440.5450125839
 30
0.0
 40
0.6000000000000227
100
AcDbArc
 50
116.3753853232
 51
180.0
  0
ARC
  5
1CB
330
1F
100
AcDbEntity
  8
0
  6
Continuous
 62
     7
370
    25
100
AcDbCircle
 10
679.289562031
 20
414.1267424776
 30
0.0
 40
30.08787878787883
100
AcDbArc
 50
63.6246146768
 51
116.3753853232
  0
ARC
  5
1CC
330
1F
100
AcDbEntity
  8
0
  6
Continuous
 62
     7
370
    25
100
AcDbCircle
 10
713.368862231
 20
-143.7157700529
 30
0.0
 40
0.5999999999999556
100
AcDbArc
 50
180.0
 51
243.6246146768
  0
ARC
  5
1CD
330
1F
100
AcDbEntity
  8
0
  6
Continuous
 62
     7
370
    25
100
AcDbCircle
 10
739.568862231
 20
-143.7157700529
 30
0.0
 40
0.600000000000006
100
AcDbArc
 50
296.3753853232
 51
0.0
  0
LINE
  5
1CE
330
1F
100
AcDbEntity
  8
0
  6
Continuous
 62
     7
370
    25
100
AcDbLine
 10
712.768862231
 20
-143.1009247774
 30
0.0
 11
712.768862231
 21
-143.7157700529
 31
0.0
  0
LINE
  5
1CF
330
1F
100
AcDbEntity
  8
0
  6
Continuous
 62
     7
370
    25
100
AcDbLine
 10
740.168862231
 20
-143.7157700529
 30
0.0
 11
740.168862231
 21
-143.1009247774
 31
0.0
  0
ARC
  5
1D0
330
1F
100
AcDbEntity
  8
0
  6
Continuous
 62
     7
370
    25
100
AcDbCircle
 10
726.468862231
 20
-117.2974999467
 30
0.0
 40
30.08787878787886
100
AcDbArc
 50
243.6246146768
 51
296.3753853232
  0
ARC
  5
1D1
330
1F
100
AcDbEntity
  8
0
  6
Continuous
 62
     7
370
    25
100
AcDbCircle
 10
739.568862231
 20
440.5450125839
 30
0.0
 40
0.5999999999999551
100
AcDbArc
 50
0.0
 51
63.6246146768
  0
ARC
  5
1D2
330
1F
100
AcDbEntity
  8
0
  6
Continuous
 62
     7
370
    25
100
AcDbCircle
 10
713.368862231
 20
440.5450125839
 30
0.0
 40
0.599999999999909
100
AcDbArc
 50
116.3753853232
 51
180.0
  0
LINE
  5
1D3
330
1F
100
AcDbEntity
  8
0
  6
Continuous
 62
     7
370
    25
100
AcDbLine
 10
740.168862231
 20
439.9301673083
 30
0.0
 11
740.168862231
 21
440.5450125839
 31
0.0
  0
LINE
  5
1D4
330
1F
100
AcDbEntity
  8
0
  6
Continuous
 62
     7
370
    25
100
AcDbLine
 10
712.768862231
 20
440.5450125839
 30
0.0
 11
712.768862231
 21
439.9301673083
 31
0.0
  0
ARC
  5
1D5
330
1F
100
AcDbEntity
  8
0
  6
Continuous
 62
     7
370
    25
100
AcDbCircle
 10
726.468862231
 20
414.1267424776
 30
0.0
 40
30.08787878787883
100
AcDbArc
 50
63.6246146768
 51
116.3753853232
  0
ARC
  5
1D6
330
1F
100
AcDbEntity
  8
0
  6
Continuous
 62
     7
370
    25
100
AcDbCircle
 10
-963.8514953656
 20
440.5450125839
 30
0.0
 40
0.6000000000000569
100
AcDbArc
 50
0.0
 51
63.6246146768
  0
ARC
  5
1D7
330
1F
100
AcDbEntity
  8
0
  6
Continuous
 62
     7
370
    25
100
AcDbCircle
 10
-990.0514953656
 20
440.5450125839
 30
0.0
 40
0.6000000000000569
100
AcDbArc
 50
116.3753853232
 51
180.0
  0
LINE
  5
1D8
330
1F
100
AcDbEntity
  8
0
  6
Continuous
 62
     7
370
    25
100
AcDbLine
 10
-963.2514953656
 20
439.9301673083
 30
0.0
 11
-963.2514953656
 21
440.5450125839
 31
0.0
  0
LINE
  5
1D9
330
1F
100
AcDbEntity
  8
0
  6
Continuous
 62
     7
370
    25
100
AcDbLine
 10
-990.6514953656
 20
440.5450125839
 30
0.0
 11
-990.6514953656
 21
439.9301673083
 31
0.0
  0
ARC
  5
1DA
330
1F
100
AcDbEntity
  8
0
  6
Continuous
 62
     7
370
    25
100
AcDbCircle
 10
-976.9514953656
 20
414.1267424776
 30
0.0
 40
30.08787878787883
100
AcDbArc
 50
63.6246146768
 51
116.3753853232
  0
ARC
  5
1DB
330
1F
100
AcDbEntity
  8
0
  6
Continuous
 62
     7
370
    25
100
AcDbCircle
 10
952.084874949
 20
440.5450125839
 30
0.0
 40
0.6000000000001364
100
AcDbArc
 50
0.0
 51
63.6246146768
  0
ARC
  5
1DC
330
1F
100
AcDbEntity
  8
0
  6
Continuous
 62
     7
370
    25
100
AcDbCircle
 10
925.884874949
 20
440.5450125839
 30
0.0
 40
0.599999999999909
100
AcDbArc
 50
116.3753853232
 51
180.0
  0
LINE
  5
1DD
330
1F
100
AcDbEntity
  8
0
  6
Continuous
 62
     7
370
    25
100
AcDbLine
 10
952.684874949
 20
439.9301673083
 30
0.0
 11
952.684874949
 21
440.5450125839
 31
0.0
  0
LINE
  5
1DE
330
1F
100
AcDbEntity
  8
0
  6
Continuous
 62
     7
370
    25
100
AcDbLine
 10
925.284874949
 20
440.5450125839
 30
0.0
 11
925.284874949
 21
439.9301673083
 31
0.0
  0
ARC
  5
1DF
330
1F
100
AcDbEntity
  8
0
  6
Continuous
 62
     7
370
    25
100
AcDbCircle
 10
938.984874949
 20
414.1267424776
 30
0.0
 40
30.08787878787883
100
AcDbArc
 50
63.6246146768
 51
116.3753853232
  0
LINE
  5
1E0
330
1F
100
AcDbEntity
  8
0
  6
Continuous
 62
     7
370
    25
100
AcDbLine
 10
-2512.4741560846
 20
424.9301673083
 30
0.0
 11
-2512.4741560846
 21
425.5450125839
 31
0.0
  0
LINE
  5
1E1
330
1F
100
AcDbEntity
  8
0
  6
Continuous
 62
     7
370
    25
100
AcDbLine
 10
-2539.8741560846
 20
425.5450125839
 30
0.0
 11
-2539.8741560846
 21
424.9301673083
 31
0.0
  0
ARC
  5
1E2
330
1F
100
AcDbEntity
  8
0
  6
Continuous
 62
     7
370
    25
100
AcDbCircle
 10
-2513.0741560846
 20
425.5450125839
 30
0.0
 40
0.6000000000003638
100
AcDbArc
 50
0.0
 51
63.6246146768
  0
ARC
  5
1E3
330
1F
100
AcDbEntity
  8
0
  6
Continuous
 62
     7
370
    25
100
AcDbCircle
 10
-2539.2741560846
 20
425.5450125839
 30
0.0
 40
0.6000000000003638
100
AcDbArc
 50
116.3753853232
 51
180.0
  0
ARC
  5
1E4
330
1F
100
AcDbEntity
  8
0
  6
Continuous
 62
     7
370
    25
100
AcDbCircle
 10
-2526.1741560846
 20
399.1267424776
 30
0.0
 40
30.08787878787884
100
AcDbArc
 50
63.6246146768
 51
116.3753853232
  0
LINE
  5
1E5
330
1F
100
AcDbEntity
  8
0
  6
Continuous
 62
     7
370
    25
100
AcDbLine
 10
-168.7375389719
 20
424.9301673083
 30
0.0
 11
-168.7375389719
 21
425.5450125839
 31
0.0
  0
LINE
  5
1E6
330
1F
100
AcDbEntity
  8
0
  6
Continuous
 62
     7
370
    25
100
AcDbLine
 10
-196.1375389719
 20
425.5450125839
 30
0.0
 11
-196.1375389719
 21
424.9301673083
 31
0.0
  0
ARC
  5
1E7
330
1F
100
AcDbEntity
  8
0
  6
Continuous
 62
     7
370
    25
100
AcDbCircle
 10
-169.3375389719
 20
425.5450125839
 30
0.0
 40
0.5999999999999375
100
AcDbArc
 50
0.0
 51
63.6246146768
  0
ARC
  5
1E8
330
1F
100
AcDbEntity
  8
0
  6
Continuous
 62
     7
370
    25
100
AcDbCircle
 10
-195.5375389719
 20
425.5450125839
 30
0.0
 40
0.5999999999999425
100
AcDbArc
 50
116.3753853232
 51
180.0
  0
ARC
  5
1E9
330
1F
100
AcDbEntity
  8
0
  6
Continuous
 62
     7
370
    25
100
AcDbCircle
 10
-182.4375389719
 20
399.1267424776
 30
0.0
 40
30.08787878787886
100
AcDbArc
 50
63.6246146768
 51
116.3753853232
  0
ARC
  5
1EA
330
1F
100
AcDbEntity
  8
0
  6
Continuous
 62
     7
370
    25
100
AcDbCircle
 10
2702.8843114721
 20
-128.7157700529
 30
0.0
 40
0.6000000000000565
100
AcDbArc
 50
180.0
 51
243.6246146768
  0
LINE
  5
1EB
330
1F
100
AcDbEntity
  8
0
  6
Continuous
 62
     7
370
    25
100
AcDbLine
 10
2702.2843114721
 20
-128.1009247774
 30
0.0
 11
2702.2843114721
 21
-128.7157700529
 31
0.0
  0
ARC
  5
1EC
330
1F
100
AcDbEntity
  8
0
  6
Continuous
 62
     7
370
    25
100
AcDbCircle
 10
2715.9843114721
 20
-102.2974999467
 30
0.0
 40
30.0878787878788
100
AcDbArc
 50
243.6246146768
 51
276.5255444974
  0
ARC
  5
1ED
330
1F
100
AcDbEntity
  8
0
  6
Continuous
 62
     7
370
    25
100
AcDbCircle
 10
1046.6432540755
 20
-143.7157700529
 30
0.0
 40
0.5999999999999301
100
AcDbArc
 50
180.0
 51
243.6246146768
  0
ARC
  5
1EE
330
1F
100
AcDbEntity
  8
0
  6
Continuous
 62
     7
370
    25
100
AcDbCircle
 10
1072.8432540755
 20
-143.7157700529
 30
0.0
 40
0.5999999999999301
100
AcDbArc
 50
296.3753853232
 51
0.0
  0
LINE
  5
1EF
330
1F
100
AcDbEntity
  8
0
  6
Continuous
 62
     7
370
    25
100
AcDbLine
 10
1046.0432540755
 20
-143.1009247774
 30
0.0
 11
1046.0432540755
 21
-143.7157700529
 31
0.0
  0
LINE
  5
1F0
330
1F
100
AcDbEntity
  8
0
  6
Continuous
 62
     7
370
    25
100
AcDbLine
 10
1073.4432540755
 20
-143.7157700529
 30
0.0
 11
1073.4432540755
 21
-143.1009247774
 31
0.0
  0
ARC
  5
1F1
330
1F
100
AcDbEntity
  8
0
  6
Continuous
 62
     7
370
    25
100
AcDbCircle
 10
1059.7432540755
 20
-117.2974999467
 30
0.0
 40
30.08787878787878
100
AcDbArc
 50
243.6246146768
 51
296.3753853232
  0
ARC
  5
1F2
330
1F
100
AcDbEntity
  8
0
  6
Continuous
 62
     7
370
    25
100
AcDbCircle
 10
878.705574749
 20
-143.7157700529
 30
0.0
 40
0.6000000000001364
100
AcDbArc
 50
180.0
 51
243.6246146768
  0
ARC
  5
1F3
330
1F
100
AcDbEntity
  8
0
  6
Continuous
 62
     7
370
    25
100
AcDbCircle
 10
904.905574749
 20
-143.7157700529
 30
0.0
 40
0.5999999999999556
100
AcDbArc
 50
296.3753853232
 51
0.0
  0
LINE
  5
1F4
330
1F
100
AcDbEntity
  8
0
  6
Continuous
 62
     7
370
    25
100
AcDbLine
 10
878.105574749
 20
-143.1009247774
 30
0.0
 11
878.105574749
 21
-143.7157700529
 31
0.0
  0
LINE
  5
1F5
330
1F
100
AcDbEntity
  8
0
  6
Continuous
 62
     7
370
    25
100
AcDbLine
 10
905.505574749
 20
-143.7157700529
 30
0.0
 11
905.505574749
 21
-143.1009247774
 31
0.0
  0
ARC
  5
1F6
330
1F
100
AcDbEntity
  8
0
  6
Continuous
 62
     7
370
    25
100
AcDbCircle
 10
891.805574749
 20
-117.2974999467
 30
0.0
 40
30.08787878787886
100
AcDbArc
 50
243.6246146768
 51
296.3753853232
  0
LINE
  5
1F7
330
1F
100
AcDbEntity
  8
0
  6
Continuous
 62
     7
370
    25
100
AcDbLine
 10
1073.4432540755
 20
439.9301673083
 30
0.0
 11
1073.4432540755
 21
440.5450125839
 31
0.0
  0
LINE
  5
1F8
330
1F
100
AcDbEntity
  8
0
  6
Continuous
 62
     7
370
    25
100
AcDbLine
 10
1046.0432540755
 20
440.5450125839
 30
0.0
 11
1046.0432540755
 21
439.9301673083
 31
0.0
  0
ARC
  5
1F9
330
1F
100
AcDbEntity
  8
0
  6
Continuous
 62
     7
370
    25
100
AcDbCircle
 10
1072.8432540755
 20
440.5450125839
 30
0.0
 40
0.599999999999909
100
AcDbArc
 50
0.0
 51
63.6246146768
  0
ARC
  5
1FA
330
1F
100
AcDbEntity
  8
0
  6
Continuous
 62
     7
370
    25
100
AcDbCircle
 10
1046.6432540755
 20
440.5450125839
 30
0.0
 40
0.599999999999909
100
AcDbArc
 50
116.3753853232
 51
180.0
  0
ARC
  5
1FB
330
1F
100
AcDbEntity
  8
0
  6
Continuous
 62
     7
370
    25
100
AcDbCircle
 10
1059.7432540755
 20
414.1267424776
 30
0.0
 40
30.08787878787878
100
AcDbArc
 50
63.6246146768
 51
116.3753853232
  0
LINE
  5
1FC
330
1F
100
AcDbEntity
  8
0
  6
Continuous
 62
     7
370
    25
100
AcDbLine
 10
-610.1978033211
 20
-143.1009247774
 30
0.0
 11
-610.1978033211
 21
-143.7157700529
 31
0.0
  0
LINE
  5
1FD
330
1F
100
AcDbEntity
  8
0
  6
Continuous
 62
     7
370
    25
100
AcDbLine
 10
-582.7978033211
 20
-143.7157700529
 30
0.0
 11
-582.7978033211
 21
-143.1009247774
 31
0.0
  0
ARC
  5
1FE
330
1F
100
AcDbEntity
  8
0
  6
Continuous
 62
     7
370
    25
100
AcDbCircle
 10
-609.5978033211
 20
-143.7157700529
 30
0.0
 40
0.5999999999999805
100
AcDbArc
 50
180.0
 51
243.6246146768
  0
ARC
  5
1FF
330
1F
100
AcDbEntity
  8
0
  6
Continuous
 62
     7
370
    25
100
AcDbCircle
 10
-583.3978033211
 20
-143.7157700529
 30
0.0
 40
0.5999999999999301
100
AcDbArc
 50
296.3753853232
 51
0.0
  0
ARC
  5
200
330
1F
100
AcDbEntity
  8
0
  6
Continuous
 62
     7
370
    25
100
AcDbCircle
 10
-596.4978033211
 20
-117.2974999467
 30
0.0
 40
30.08787878787883
100
AcDbArc
 50
243.6246146768
 51
296.3753853232
  0
LINE
  5
201
330
1F
100
AcDbEntity
  8
0
  6
Continuous
 62
     7
370
    25
100
AcDbLine
 10
925.284874949
 20
-143.1009247774
 30
0.0
 11
925.284874949
 21
-143.7157700529
 31
0.0
  0
LINE
  5
202
330
1F
100
AcDbEntity
  8
0
  6
Continuous
 62
     7
370
    25
100
AcDbLine
 10
952.684874949
 20
-143.7157700529
 30
0.0
 11
952.684874949
 21
-143.1009247774
 31
0.0
  0
ARC
  5
203
330
1F
100
AcDbEntity
  8
0
  6
Continuous
 62
     7
370
    25
100
AcDbCircle
 10
925.884874949
 20
-143.7157700529
 30
0.0
 40
0.6000000000001364
100
AcDbArc
 50
180.0
 51
243.6246146768
  0
ARC
  5
204
330
1F
100
AcDbEntity
  8
0
  6
Continuous
 62
     7
370
    25
100
AcDbCircle
 10
952.084874949
 20
-143.7157700529
 30
0.0
 40
0.600000000000006
100
AcDbArc
 50
296.3753853232
 51
0.0
  0
ARC
  5
205
330
1F
100
AcDbEntity
  8
0
  6
Continuous
 62
     7
370
    25
100
AcDbCircle
 10
938.984874949
 20
-117.2974999467
 30
0.0
 40
30.08787878787886
100
AcDbArc
 50
243.6246146768
 51
296.3753853232
  0
ARC
  5
206
330
1F
100
AcDbEntity
  8
0
  6
Continuous
 62
     7
370
    25
100
AcDbCircle
 10
1486.9035184247
 20
425.5450125839
 30
0.0
 40
0.5999999999999556
100
AcDbArc
 50
0.0
 51
63.6246146768
  0
ARC
  5
207
330
1F
100
AcDbEntity
  8
0
  6
Continuous
 62
     7
370
    25
100
AcDbCircle
 10
1460.7035184247
 20
425.5450125839
 30
0.0
 40
0.5999999999999556
100
AcDbArc
 50
116.3753853232
 51
180.0
  0
LINE
  5
208
330
1F
100
AcDbEntity
  8
0
  6
Continuous
 62
     7
370
    25
100
AcDbLine
 10
1487.5035184247
 20
424.9301673083
 30
0.0
 11
1487.5035184247
 21
425.5450125839
 31
0.0
  0
LINE
  5
209
330
1F
100
AcDbEntity
  8
0
  6
Continuous
 62
     7
370
    25
100
AcDbLine
 10
1460.1035184247
 20
425.5450125839
 30
0.0
 11
1460.1035184247
 21
424.9301673083
 31
0.0
  0
ARC
  5
20A
330
1F
100
AcDbEntity
  8
0
  6
Continuous
 62
     7
370
    25
100
AcDbCircle
 10
1473.8035184247
 20
399.1267424776
 30
0.0
 40
30.08787878787878
100
AcDbArc
 50
63.6246146768
 51
116.3753853232
  0
ARC
  5
20B
330
1F
100
AcDbEntity
  8
0
  6
Continuous
 62
     7
370
    25
100
AcDbCircle
 10
-696.749610143
 20
-143.7157700529
 30
0.0
 40
0.6000000000000227
100
AcDbArc
 50
180.0
 51
243.6246146768
  0
ARC
  5
20C
330
1F
100
AcDbEntity
  8
0
  6
Continuous
 62
     7
370
    25
100
AcDbCircle
 10
-670.549610143
 20
-143.7157700529
 30
0.0
 40
0.5999999999999805
100
AcDbArc
 50
296.3753853232
 51
0.0
  0
LINE
  5
20D
330
1F
100
AcDbEntity
  8
0
  6
Continuous
 62
     7
370
    25
100
AcDbLine
 10
-697.349610143
 20
-143.1009247774
 30
0.0
 11
-697.349610143
 21
-143.7157700529
 31
0.0
  0
LINE
  5
20E
330
1F
100
AcDbEntity
  8
0
  6
Continuous
 62
     7
370
    25
100
AcDbLine
 10
-669.949610143
 20
-143.7157700529
 30
0.0
 11
-669.949610143
 21
-143.1009247774
 31
0.0
  0
ARC
  5
20F
330
1F
100
AcDbEntity
  8
0
  6
Continuous
 62
     7
370
    25
100
AcDbCircle
 10
-683.649610143
 20
-117.2974999467
 30
0.0
 40
30.08787878787883
100
AcDbArc
 50
243.6246146768
 51
296.3753853232
  0
LINE
  5
210
330
1F
100
AcDbEntity
  8
0
  6
Continuous
 62
     7
370
    25
100
AcDbLine
 10
-2539.8741560846
 20
-128.1009247774
 30
0.0
 11
-2539.8741560846
 21
-128.7157700529
 31
0.0
  0
LINE
  5
211
330
1F
100
AcDbEntity
  8
0
  6
Continuous
 62
     7
370
    25
100
AcDbLine
 10
-2512.4741560846
 20
-128.7157700529
 30
0.0
 11
-2512.4741560846
 21
-128.1009247774
 31
0.0
  0
ARC
  5
212
330
1F
100
AcDbEntity
  8
0
  6
Continuous
 62
     7
370
    25
100
AcDbCircle
 10
-2539.2741560846
 20
-128.7157700529
 30
0.0
 40
0.6000000000003638
100
AcDbArc
 50
180.0
 51
243.6246146768
  0
ARC
  5
213
330
1F
100
AcDbEntity
  8
0
  6
Continuous
 62
     7
370
    25
100
AcDbCircle
 10
-2513.0741560846
 20
-128.7157700529
 30
0.0
 40
0.6000000000003638
100
AcDbArc
 50
296.3753853232
 51
0.0
  0
ARC
  5
214
330
1F
100
AcDbEntity
  8
0
  6
Continuous
 62
     7
370
    25
100
AcDbCircle
 10
-2526.1741560846
 20
-102.2974999467
 30
0.0
 40
30.0878787878788
100
AcDbArc
 50
243.6246146768
 51
296.3753853232
  0
ARC
  5
215
330
1F
100
AcDbEntity
  8
0
  6
Continuous
 62
     7
370
    25
100
AcDbCircle
 10
-583.3978033211
 20
440.5450125839
 30
0.0
 40
0.599999999999909
100
AcDbArc
 50
0.0
 51
63.6246146768
  0
ARC
  5
216
330
1F
100
AcDbEntity
  8
0
  6
Continuous
 62
     7
370
    25
100
AcDbCircle
 10
-609.5978033211
 20
440.5450125839
 30
0.0
 40
0.5999999999999551
100
AcDbArc
 50
116.3753853232
 51
180.0
  0
LINE
  5
217
330
1F
100
AcDbEntity
  8
0
  6
Continuous
 62
     7
370
    25
100
AcDbLine
 10
-582.7978033211
 20
439.9301673083
 30
0.0
 11
-582.7978033211
 21
440.5450125839
 31
0.0
  0
LINE
  5
218
330
1F
100
AcDbEntity
  8
0
  6
Continuous
 62
     7
370
    25
100
AcDbLine
 10
-610.1978033211
 20
440.5450125839
 30
0.0
 11
-610.1978033211
 21
439.9301673083
 31
0.0
  0
ARC
  5
219
330
1F
100
AcDbEntity
  8
0
  6
Continuous
 62
     7
370
    25
100
AcDbCircle
 10
-596.4978033211
 20
414.1267424776
 30
0.0
 40
30.08787878787883
100
AcDbArc
 50
63.6246146768
 51
116.3753853232
  0
LINE
  5
21A
330
1F
100
AcDbEntity
  8
0
  6
Continuous
 62
     7
370
    25
100
AcDbLine
 10
544.8311829045
 20
-143.1009247774
 30
0.0
 11
544.8311829045
 21
-143.7157700529
 31
0.0
  0
LINE
  5
21B
330
1F
100
AcDbEntity
  8
0
  6
Continuous
 62
     7
370
    25
100
AcDbLine
 10
572.2311829045
 20
-143.7157700529
 30
0.0
 11
572.2311829045
 21
-143.1009247774
 31
0.0
  0
ARC
  5
21C
330
1F
100
AcDbEntity
  8
0
  6
Continuous
 62
     7
370
    25
100
AcDbCircle
 10
545.4311829045
 20
-143.7157700529
 30
0.0
 40
0.600000000000006
100
AcDbArc
 50
180.0
 51
243.6246146768
  0
ARC
  5
21D
330
1F
100
AcDbEntity
  8
0
  6
Continuous
 62
     7
370
    25
100
AcDbCircle
 10
571.6311829045
 20
-143.7157700529
 30
0.0
 40
0.6000000000000227
100
AcDbArc
 50
296.3753853232
 51
0.0
  0
ARC
  5
21E
330
1F
100
AcDbEntity
  8
0
  6
Continuous
 62
     7
370
    25
100
AcDbCircle
 10
558.5311829045
 20
-117.2974999467
 30
0.0
 40
30.08787878787886
100
AcDbArc
 50
243.6246146768
 51
296.3753853232
  0
LINE
  5
21F
330
1F
100
AcDbEntity
  8
0
  6
Continuous
 62
     7
370
    25
100
AcDbLine
 10
-2113.274567199
 20
424.9301673083
 30
0.0
 11
-2113.274567199
 21
425.5450125839
 31
0.0
  0
LINE
  5
220
330
1F
100
AcDbEntity
  8
0
  6
Continuous
 62
     7
370
    25
100
AcDbLine
 10
-2140.674567199
 20
425.5450125839
 30
0.0
 11
-2140.674567199
 21
424.9301673083
 31
0.0
  0
ARC
  5
221
330
1F
100
AcDbEntity
  8
0
  6
Continuous
 62
     7
370
    25
100
AcDbCircle
 10
-2113.874567199
 20
425.5450125839
 30
0.0
 40
0.6000000000003638
100
AcDbArc
 50
0.0
 51
63.6246146768
  0
ARC
  5
222
330
1F
100
AcDbEntity
  8
0
  6
Continuous
 62
     7
370
    25
100
AcDbCircle
 10
-2140.074567199
 20
425.5450125839
 30
0.0
 40
0.6000000000003638
100
AcDbArc
 50
116.3753853232
 51
180.0
  0
ARC
  5
223
330
1F
100
AcDbEntity
  8
0
  6
Continuous
 62
     7
370
    25
100
AcDbCircle
 10
-2126.974567199
 20
399.1267424776
 30
0.0
 40
30.08787878787884
100
AcDbArc
 50
63.6246146768
 51
116.3753853232
  0
LINE
  5
224
330
1F
100
AcDbEntity
  8
0
  6
Continuous
 62
     7
370
    25
100
AcDbLine
 10
-1084.0098744922
 20
439.9301673083
 30
0.0
 11
-1084.0098744922
 21
440.5450125839
 31
0.0
  0
LINE
  5
225
330
1F
100
AcDbEntity
  8
0
  6
Continuous
 62
     7
370
    25
100
AcDbLine
 10
-1111.4098744922
 20
440.5450125839
 30
0.0
 11
-1111.4098744922
 21
439.9301673083
 31
0.0
  0
ARC
  5
226
330
1F
100
AcDbEntity
  8
0
  6
Continuous
 62
     7
370
    25
100
AcDbCircle
 10
-1084.6098744922
 20
440.5450125839
 30
0.0
 40
0.6000000000000064
100
AcDbArc
 50
0.0
 51
63.6246146769
  0
ARC
  5
227
330
1F
100
AcDbEntity
  8
0
  6
Continuous
 62
     7
370
    25
100
AcDbCircle
 10
-1110.8098744922
 20
440.5450125839
 30
0.0
 40
0.6000000000000064
100
AcDbArc
 50
116.3753853231
 51
180.0
  0
ARC
  5
228
330
1F
100
AcDbEntity
  8
0
  6
Continuous
 62
     7
370
    25
100
AcDbCircle
 10
-1097.7098744922
 20
414.1267424776
 30
0.0
 40
30.08787878787878
100
AcDbArc
 50
63.6246146768
 51
116.3753853232
  0
ARC
  5
229
330
1F
100
AcDbEntity
  8
0
  6
Continuous
 62
     7
370
    25
100
AcDbCircle
 10
985.6914472536
 20
440.5450125839
 30
0.0
 40
0.6000000000001364
100
AcDbArc
 50
0.0
 51
63.6246146768
  0
ARC
  5
22A
330
1F
100
AcDbEntity
  8
0
  6
Continuous
 62
     7
370
    25
100
AcDbCircle
 10
959.4914472536
 20
440.5450125839
 30
0.0
 40
0.599999999999909
100
AcDbArc
 50
116.3753853232
 51
180.0
  0
LINE
  5
22B
330
1F
100
AcDbEntity
  8
0
  6
Continuous
 62
     7
370
    25
100
AcDbLine
 10
986.2914472536
 20
439.9301673083
 30
0.0
 11
986.2914472536
 21
440.5450125839
 31
0.0
  0
LINE
  5
22C
330
1F
100
AcDbEntity
  8
0
  6
Continuous
 62
     7
370
    25
100
AcDbLine
 10
958.8914472536
 20
440.5450125839
 30
0.0
 11
958.8914472536
 21
439.9301673083
 31
0.0
  0
ARC
  5
22D
330
1F
100
AcDbEntity
  8
0
  6
Continuous
 62
     7
370
    25
100
AcDbCircle
 10
972.5914472536
 20
414.1267424776
 30
0.0
 40
30.08787878787883
100
AcDbArc
 50
63.6246146768
 51
116.3753853232
  0
LINE
  5
22E
330
1F
100
AcDbEntity
  8
0
  6
Continuous
 62
     7
370
    25
100
AcDbLine
 10
2702.2843114721
 20
425.5450125839
 30
0.0
 11
2702.2843114721
 21
424.9301673083
 31
0.0
  0
ARC
  5
22F
330
1F
100
AcDbEntity
  8
0
  6
Continuous
 62
     7
370
    25
100
AcDbCircle
 10
2702.8843114721
 20
425.5450125839
 30
0.0
 40
0.5999999999999547
100
AcDbArc
 50
116.3753853232
 51
180.0
  0
ARC
  5
230
330
1F
100
AcDbEntity
  8
0
  6
Continuous
 62
     7
370
    25
100
AcDbCircle
 10
2715.9843114721
 20
399.1267424776
 30
0.0
 40
30.08787878787882
100
AcDbArc
 50
83.4744555026
 51
116.3753853232
  0
ARC
  5
231
330
1F
100
AcDbEntity
  8
0
  6
Continuous
 62
     7
370
    25
100
AcDbCircle
 10
-1411.5183320194
 20
425.5450125839
 30
0.0
 40
0.6000000000003638
100
AcDbArc
 50
0.0
 51
63.6246146768
  0
ARC
  5
232
330
1F
100
AcDbEntity
  8
0
  6
Continuous
 62
     7
370
    25
100
AcDbCircle
 10
-1437.7183320194
 20
425.5450125839
 30
0.0
 40
0.6000000000003638
100
AcDbArc
 50
116.3753853232
 51
180.0
  0
LINE
  5
233
330
1F
100
AcDbEntity
  8
0
  6
Continuous
 62
     7
370
    25
100
AcDbLine
 10
-1410.9183320194
 20
424.9301673083
 30
0.0
 11
-1410.9183320194
 21
425.5450125839
 31
0.0
  0
LINE
  5
234
330
1F
100
AcDbEntity
  8
0
  6
Continuous
 62
     7
370
    25
100
AcDbLine
 10
-1438.3183320194
 20
425.5450125839
 30
0.0
 11
-1438.3183320194
 21
424.9301673083
 31
0.0
  0
ARC
  5
235
330
1F
100
AcDbEntity
  8
0
  6
Continuous
 62
     7
370
    25
100
AcDbCircle
 10
-1424.6183320194
 20
399.1267424776
 30
0.0
 40
30.08787878787894
100
AcDbArc
 50
63.6246146768
 51
116.3753853232
  0
LINE
  5
236
330
1F
100
AcDbEntity
  8
0
  6
Continuous
 62
     7
370
    25
100
AcDbLine
 10
1460.1035184247
 20
-128.1009247774
 30
0.0
 11
1460.1035184247
 21
-128.7157700529
 31
0.0
  0
LINE
  5
237
330
1F
100
AcDbEntity
  8
0
  6
Continuous
 62
     7
370
    25
100
AcDbLine
 10
1487.5035184247
 20
-128.7157700529
 30
0.0
 11
1487.5035184247
 21
-128.1009247774
 31
0.0
  0
ARC
  5
238
330
1F
100
AcDbEntity
  8
0
  6
Continuous
 62
     7
370
    25
100
AcDbCircle
 10
1460.7035184247
 20
-128.7157700529
 30
0.0
 40
0.5999999999999556
100
AcDbArc
 50
180.0
 51
243.6246146768
  0
ARC
  5
239
330
1F
100
AcDbEntity
  8
0
  6
Continuous
 62
     7
370
    25
100
AcDbCircle
 10
1486.9035184247
 20
-128.7157700529
 30
0.0
 40
0.5999999999999556
100
AcDbArc
 50
296.3753853232
 51
0.0
  0
ARC
  5
23A
330
1F
100
AcDbEntity
  8
0
  6
Continuous
 62
     7
370
    25
100
AcDbCircle
 10
1473.8035184247
 20
-102.2974999467
 30
0.0
 40
30.0878787878788
100
AcDbArc
 50
243.6246146768
 51
296.3753853232
  0
ARC
  5
23B
330
1F
100
AcDbEntity
  8
0
  6
Continuous
 62
     7
370
    25
100
AcDbCircle
 10
-1110.8098744922
 20
-143.7157700529
 30
0.0
 40
0.5999999999999301
100
AcDbArc
 50
180.0
 51
243.6246146768
  0
ARC
  5
23C
330
1F
100
AcDbEntity
  8
0
  6
Continuous
 62
     7
370
    25
100
AcDbCircle
 10
-1084.6098744922
 20
-143.7157700529
 30
0.0
 40
0.5999999999999301
100
AcDbArc
 50
296.3753853232
 51
0.0
  0
LINE
  5
23D
330
1F
100
AcDbEntity
  8
0
  6
Continuous
 62
     7
370
    25
100
AcDbLine
 10
-1111.4098744922
 20
-143.1009247774
 30
0.0
 11
-1111.4098744922
 21
-143.7157700529
 31
0.0
  0
LINE
  5
23E
330
1F
100
AcDbEntity
  8
0
  6
Continuous
 62
     7
370
    25
100
AcDbLine
 10
-1084.0098744922
 20
-143.7157700529
 30
0.0
 11
-1084.0098744922
 21
-143.1009247774
 31
0.0
  0
ARC
  5
23F
330
1F
100
AcDbEntity
  8
0
  6
Continuous
 62
     7
370
    25
100
AcDbCircle
 10
-1097.7098744922
 20
-117.2974999467
 30
0.0
 40
30.08787878787878
100
AcDbArc
 50
243.6246146768
 51
296.3753853232
  0
LINE
  5
240
330
1F
100
AcDbEntity
  8
0
  6
Continuous
 62
     7
370
    25
100
AcDbLine
 10
-1824.9785963685
 20
424.9301673083
 30
0.0
 11
-1824.9785963685
 21
425.5450125839
 31
0.0
  0
LINE
  5
241
330
1F
100
AcDbEntity
  8
0
  6
Continuous
 62
     7
370
    25
100
AcDbLine
 10
-1852.3785963685
 20
425.5450125839
 30
0.0
 11
-1852.3785963685
 21
424.9301673083
 31
0.0
  0
ARC
  5
242
330
1F
100
AcDbEntity
  8
0
  6
Continuous
 62
     7
370
    25
100
AcDbCircle
 10
-1825.5785963685
 20
425.5450125839
 30
0.0
 40
0.6000000000003638
100
AcDbArc
 50
0.0
 51
63.6246146768
  0
ARC
  5
243
330
1F
100
AcDbEntity
  8
0
  6
Continuous
 62
     7
370
    25
100
AcDbCircle
 10
-1851.7785963685
 20
425.5450125839
 30
0.0
 40
0.6000000000003638
100
AcDbArc
 50
116.3753853232
 51
180.0
  0
ARC
  5
244
330
1F
100
AcDbEntity
  8
0
  6
Continuous
 62
     7
370
    25
100
AcDbCircle
 10
-1838.6785963685
 20
399.1267424776
 30
0.0
 40
30.08787878787884
100
AcDbArc
 50
63.6246146768
 51
116.3753853232
  0
LINE
  5
245
330
1F
100
AcDbEntity
  8
0
  6
Continuous
 62
     7
370
    25
100
AcDbLine
 10
-1852.3785963685
 20
-128.1009247774
 30
0.0
 11
-1852.3785963685
 21
-128.7157700529
 31
0.0
  0
LINE
  5
246
330
1F
100
AcDbEntity
  8
0
  6
Continuous
 62
     7
370
    25
100
AcDbLine
 10
-1824.9785963685
 20
-128.7157700529
 30
0.0
 11
-1824.9785963685
 21
-128.1009247774
 31
0.0
  0
ARC
  5
247
330
1F
100
AcDbEntity
  8
0
  6
Continuous
 62
     7
370
    25
100
AcDbCircle
 10
-1851.7785963685
 20
-128.7157700529
 30
0.0
 40
0.6000000000003638
100
AcDbArc
 50
180.0
 51
243.6246146768
  0
ARC
  5
248
330
1F
100
AcDbEntity
  8
0
  6
Continuous
 62
     7
370
    25
100
AcDbCircle
 10
-1825.5785963685
 20
-128.7157700529
 30
0.0
 40
0.6000000000003638
100
AcDbArc
 50
296.3753853232
 51
0.0
  0
ARC
  5
249
330
1F
100
AcDbEntity
  8
0
  6
Continuous
 62
     7
370
    25
100
AcDbCircle
 10
-1838.6785963685
 20
-102.2974999467
 30
0.0
 40
30.0878787878788
100
AcDbArc
 50
243.6246146768
 51
296.3753853232
  0
LINE
  5
24A
330
1F
100
AcDbEntity
  8
0
  6
Continuous
 62
     7
370
    25
100
AcDbLine
 10
2288.224047123
 20
-128.1009247774
 30
0.0
 11
2288.224047123
 21
-128.7157700529
 31
0.0
  0
LINE
  5
24B
330
1F
100
AcDbEntity
  8
0
  6
Continuous
 62
     7
370
    25
100
AcDbLine
 10
2315.624047123
 20
-128.7157700529
 30
0.0
 11
2315.624047123
 21
-128.1009247774
 31
0.0
  0
ARC
  5
24C
330
1F
100
AcDbEntity
  8
0
  6
Continuous
 62
     7
370
    25
100
AcDbCircle
 10
2288.824047123
 20
-128.7157700529
 30
0.0
 40
0.6000000000000565
100
AcDbArc
 50
180.0
 51
243.6246146768
  0
ARC
  5
24D
330
1F
100
AcDbEntity
  8
0
  6
Continuous
 62
     7
370
    25
100
AcDbCircle
 10
2315.024047123
 20
-128.7157700529
 30
0.0
 40
0.6000000000000565
100
AcDbArc
 50
296.3753853232
 51
0.0
  0
ARC
  5
24E
330
1F
100
AcDbEntity
  8
0
  6
Continuous
 62
     7
370
    25
100
AcDbCircle
 10
2301.924047123
 20
-102.2974999467
 30
0.0
 40
30.087878787879
100
AcDbArc
 50
243.6246146768
 51
296.3753853232
  0
ARC
  5
24F
330
1F
100
AcDbEntity
  8
0
  6
Continuous
 62
     7
370
    25
100
AcDbCircle
 10
-2587.3954544639
 20
425.5450125839
 30
0.0
 40
0.6000000000003638
100
AcDbArc
 50
0.0
 51
63.6246146768
  0
ARC
  5
250
330
1F
100
AcDbEntity
  8
0
  6
Continuous
 62
     7
370
    25
100
AcDbCircle
 10
-2613.5954544639
 20
425.5450125839
 30
0.0
 40
0.6000000000003638
100
AcDbArc
 50
116.3753853232
 51
180.0
  0
LINE
  5
251
330
1F
100
AcDbEntity
  8
0
  6
Continuous
 62
     7
370
    25
100
AcDbLine
 10
-2586.7954544639
 20
424.9301673083
 30
0.0
 11
-2586.7954544639
 21
425.5450125839
 31
0.0
  0
LINE
  5
252
330
1F
100
AcDbEntity
  8
0
  6
Continuous
 62
     7
370
    25
100
AcDbLine
 10
-2614.1954544639
 20
425.5450125839
 30
0.0
 11
-2614.1954544639
 21
424.9301673083
 31
0.0
  0
ARC
  5
253
330
1F
100
AcDbEntity
  8
0
  6
Continuous
 62
     7
370
    25
100
AcDbCircle
 10
-2600.4954544639
 20
399.1267424776
 30
0.0
 40
30.08787878787884
100
AcDbArc
 50
63.6246146768
 51
116.3753853232
  0
LINE
  5
254
330
1F
100
AcDbEntity
  8
0
  6
Continuous
 62
     7
370
    25
100
AcDbLine
 10
665.589562031
 20
-143.1009247774
 30
0.0
 11
665.589562031
 21
-143.7157700529
 31
0.0
  0
LINE
  5
255
330
1F
100
AcDbEntity
  8
0
  6
Continuous
 62
     7
370
    25
100
AcDbLine
 10
692.989562031
 20
-143.7157700529
 30
0.0
 11
692.989562031
 21
-143.1009247774
 31
0.0
  0
ARC
  5
256
330
1F
100
AcDbEntity
  8
0
  6
Continuous
 62
     7
370
    25
100
AcDbCircle
 10
666.189562031
 20
-143.7157700529
 30
0.0
 40
0.6000000000000227
100
AcDbArc
 50
180.0
 51
243.6246146768
  0
ARC
  5
257
330
1F
100
AcDbEntity
  8
0
  6
Continuous
 62
     7
370
    25
100
AcDbCircle
 10
692.389562031
 20
-143.7157700529
 30
0.0
 40
0.600000000000006
100
AcDbArc
 50
296.3753853232
 51
0.0
  0
ARC
  5
258
330
1F
100
AcDbEntity
  8
0
  6
Continuous
 62
     7
370
    25
100
AcDbCircle
 10
679.289562031
 20
-117.2974999467
 30
0.0
 40
30.08787878787886
100
AcDbArc
 50
243.6246146768
 51
296.3753853232
  0
ARC
  5
259
330
1F
100
AcDbEntity
  8
0
  6
Continuous
 62
     7
370
    25
100
AcDbCircle
 10
2315.024047123
 20
425.5450125839
 30
0.0
 40
0.5999999999999547
100
AcDbArc
 50
0.0
 51
63.6246146768
  0
ARC
  5
25A
330
1F
100
AcDbEntity
  8
0
  6
Continuous
 62
     7
370
    25
100
AcDbCircle
 10
2288.824047123
 20
425.5450125839
 30
0.0
 40
0.5999999999999547
100
AcDbArc
 50
116.3753853232
 51
180.0
  0
LINE
  5
25B
330
1F
100
AcDbEntity
  8
0
  6
Continuous
 62
     7
370
    25
100
AcDbLine
 10
2315.624047123
 20
424.9301673083
 30
0.0
 11
2315.624047123
 21
425.5450125839
 31
0.0
  0
LINE
  5
25C
330
1F
100
AcDbEntity
  8
0
  6
Continuous
 62
     7
370
    25
100
AcDbLine
 10
2288.224047123
 20
425.5450125839
 30
0.0
 11
2288.224047123
 21
424.9301673083
 31
0.0
  0
ARC
  5
25D
330
1F
100
AcDbEntity
  8
0
  6
Continuous
 62
     7
370
    25
100
AcDbCircle
 10
2301.924047123
 20
399.1267424776
 30
0.0
 40
30.08787878787899
100
AcDbArc
 50
63.6246146768
 51
116.3753853232
  0
LINE
  5
25E
330
1F
100
AcDbEntity
  8
0
  6
Continuous
 62
     7
370
    25
100
AcDbLine
 10
-2614.1954544639
 20
-128.1009247774
 30
0.0
 11
-2614.1954544639
 21
-128.7157700529
 31
0.0
  0
LINE
  5
25F
330
1F
100
AcDbEntity
  8
0
  6
Continuous
 62
     7
370
    25
100
AcDbLine
 10
-2586.7954544639
 20
-128.7157700529
 30
0.0
 11
-2586.7954544639
 21
-128.1009247774
 31
0.0
  0
ARC
  5
260
330
1F
100
AcDbEntity
  8
0
  6
Continuous
 62
     7
370
    25
100
AcDbCircle
 10
-2613.5954544639
 20
-128.7157700529
 30
0.0
 40
0.6000000000003638
100
AcDbArc
 50
180.0
 51
243.6246146768
  0
ARC
  5
261
330
1F
100
AcDbEntity
  8
0
  6
Continuous
 62
     7
370
    25
100
AcDbCircle
 10
-2587.3954544639
 20
-128.7157700529
 30
0.0
 40
0.6000000000003638
100
AcDbArc
 50
296.3753853232
 51
0.0
  0
ARC
  5
262
330
1F
100
AcDbEntity
  8
0
  6
Continuous
 62
     7
370
    25
100
AcDbCircle
 10
-2600.4954544639
 20
-102.2974999467
 30
0.0
 40
30.0878787878788
100
AcDbArc
 50
243.6246146768
 51
296.3753853232
  0
LINE
  5
263
330
1F
100
AcDbEntity
  8
0
  6
Continuous
 62
     7
370
    25
100
AcDbLine
 10
217.9227253772
 20
-128.1009247774
 30
0.0
 11
217.9227253772
 21
-128.7157700529
 31
0.0
  0
LINE
  5
264
330
1F
100
AcDbEntity
  8
0
  6
Continuous
 62
     7
370
    25
100
AcDbLine
 10
245.3227253772
 20
-128.7157700529
 30
0.0
 11
245.3227253772
 21
-128.1009247774
 31
0.0
  0
ARC
  5
265
330
1F
100
AcDbEntity
  8
0
  6
Continuous
 62
     7
370
    25
100
AcDbCircle
 10
218.5227253772
 20
-128.7157700529
 30
0.0
 40
0.5999999999999934
100
AcDbArc
 50
180.0
 51
243.6246146768
  0
ARC
  5
266
330
1F
100
AcDbEntity
  8
0
  6
Continuous
 62
     7
370
    25
100
AcDbCircle
 10
244.7227253772
 20
-128.7157700529
 30
0.0
 40
0.5999999999999808
100
AcDbArc
 50
296.3753853232
 51
0.0
  0
ARC
  5
267
330
1F
100
AcDbEntity
  8
0
  6
Continuous
 62
     7
370
    25
100
AcDbCircle
 10
231.6227253772
 20
-102.2974999467
 30
0.0
 40
30.08787878787882
100
AcDbArc
 50
243.6246146768
 51
296.3753853232
  0
ARC
  5
268
330
1F
100
AcDbEntity
  8
0
  6
Continuous
 62
     7
370
    25
100
AcDbCircle
 10
-693.549610143
 20
-95.3353787345
 30
0.0
 40
1.25
100
AcDbArc
 50
126.8698976458
 51
270.0
  0
ARC
  5
269
330
1F
100
AcDbEntity
  8
0
  6
Continuous
 62
     7
370
    25
100
AcDbCircle
 10
-673.749610143
 20
-95.3353787345
 30
0.0
 40
1.25
100
AcDbArc
 50
270.0
 51
53.1301023542
  0
ARC
  5
26A
330
1F
100
AcDbEntity
  8
0
  6
Continuous
 62
     7
370
    25
100
AcDbCircle
 10
-683.649610143
 20
-108.5353787345
 30
0.0
 40
17.75000000000007
100
AcDbArc
 50
53.1301023542
 51
126.8698976458
  0
ARC
  5
26B
330
1F
100
AcDbEntity
  8
0
  6
Continuous
 62
     7
370
    25
100
AcDbCircle
 10
-727.1561824476
 20
-95.3353787345
 30
0.0
 40
1.25
100
AcDbArc
 50
126.8698976458
 51
270.0
  0
ARC
  5
26C
330
1F
100
AcDbEntity
  8
0
  6
Continuous
 62
     7
370
    25
100
AcDbCircle
 10
-707.3561824476
 20
-95.3353787345
 30
0.0
 40
1.25
100
AcDbArc
 50
270.0
 51
53.1301023542
  0
ARC
  5
26D
330
1F
100
AcDbEntity
  8
0
  6
Continuous
 62
     7
370
    25
100
AcDbCircle
 10
-717.2561824476
 20
-108.5353787345
 30
0.0
 40
17.75000000000007
100
AcDbArc
 50
53.1301023542
 51
126.8698976458
  0
ARC
  5
26E
330
1F
100
AcDbEntity
  8
0
  6
Continuous
 62
     7
370
    25
100
AcDbCircle
 10
929.084874949
 20
-95.3353787345
 30
0.0
 40
1.250000000000014
100
AcDbArc
 50
126.8698976458
 51
270.0
  0
ARC
  5
26F
330
1F
100
AcDbEntity
  8
0
  6
Continuous
 62
     7
370
    25
100
AcDbCircle
 10
948.884874949
 20
-95.3353787345
 30
0.0
 40
1.250000000000014
100
AcDbArc
 50
270.0
 51
53.1301023542
  0
ARC
  5
270
330
1F
100
AcDbEntity
  8
0
  6
Continuous
 62
     7
370
    25
100
AcDbCircle
 10
938.984874949
 20
-108.5353787345
 30
0.0
 40
17.75000000000007
100
AcDbArc
 50
53.1301023542
 51
126.8698976458
  0
ARC
  5
271
330
1F
100
AcDbEntity
  8
0
  6
Continuous
 62
     7
370
    25
100
AcDbCircle
 10
881.905574749
 20
-95.3353787345
 30
0.0
 40
1.250000000000068
100
AcDbArc
 50
126.8698976458
 51
270.0
  0
ARC
  5
272
330
1F
100
AcDbEntity
  8
0
  6
Continuous
 62
     7
370
    25
100
AcDbCircle
 10
901.705574749
 20
-95.3353787345
 30
0.0
 40
1.250000000000068
100
AcDbArc
 50
270.0
 51
53.1301023542
  0
ARC
  5
273
330
1F
100
AcDbEntity
  8
0
  6
Continuous
 62
     7
370
    25
100
AcDbCircle
 10
891.805574749
 20
-108.5353787345
 30
0.0
 40
17.75000000000007
100
AcDbArc
 50
53.1301023542
 51
126.8698976458
  0
ARC
  5
274
330
1F
100
AcDbEntity
  8
0
  6
Continuous
 62
     7
370
    25
100
AcDbCircle
 10
716.568862231
 20
-95.3353787345
 30
0.0
 40
1.250000000000014
100
AcDbArc
 50
126.8698976458
 51
270.0
  0
ARC
  5
275
330
1F
100
AcDbEntity
  8
0
  6
Continuous
 62
     7
370
    25
100
AcDbCircle
 10
736.368862231
 20
-95.3353787345
 30
0.0
 40
1.250000000000014
100
AcDbArc
 50
270.0
 51
53.1301023542
  0
ARC
  5
276
330
1F
100
AcDbEntity
  8
0
  6
Continuous
 62
     7
370
    25
100
AcDbCircle
 10
726.468862231
 20
-108.5353787345
 30
0.0
 40
17.75000000000007
100
AcDbArc
 50
53.1301023542
 51
126.8698976458
  0
ARC
  5
277
330
1F
100
AcDbEntity
  8
0
  6
Continuous
 62
     7
370
    25
100
AcDbCircle
 10
669.389562031
 20
-95.3353787345
 30
0.0
 40
1.250000000000014
100
AcDbArc
 50
126.8698976458
 51
270.0
  0
ARC
  5
278
330
1F
100
AcDbEntity
  8
0
  6
Continuous
 62
     7
370
    25
100
AcDbCircle
 10
689.189562031
 20
-95.3353787345
 30
0.0
 40
1.250000000000014
100
AcDbArc
 50
270.0
 51
53.1301023542
  0
ARC
  5
279
330
1F
100
AcDbEntity
  8
0
  6
Continuous
 62
     7
370
    25
100
AcDbCircle
 10
679.289562031
 20
-108.5353787345
 30
0.0
 40
17.75000000000007
100
AcDbArc
 50
53.1301023542
 51
126.8698976458
  0
ARC
  5
27A
330
1F
100
AcDbEntity
  8
0
  6
Continuous
 62
     7
370
    25
100
AcDbCircle
 10
-1107.6098744922
 20
-95.3353787345
 30
0.0
 40
1.25
100
AcDbArc
 50
126.8698976458
 51
270.0
  0
ARC
  5
27B
330
1F
100
AcDbEntity
  8
0
  6
Continuous
 62
     7
370
    25
100
AcDbCircle
 10
-1087.8098744922
 20
-95.3353787345
 30
0.0
 40
1.25
100
AcDbArc
 50
270.0
 51
53.1301023542
  0
ARC
  5
27C
330
1F
100
AcDbEntity
  8
0
  6
Continuous
 62
     7
370
    25
100
AcDbCircle
 10
-1097.7098744922
 20
-108.5353787345
 30
0.0
 40
17.75000000000007
100
AcDbArc
 50
53.1301023542
 51
126.8698976458
  0
ARC
  5
27D
330
1F
100
AcDbEntity
  8
0
  6
Continuous
 62
     7
370
    25
100
AcDbCircle
 10
-986.8514953656
 20
-95.3353787345
 30
0.0
 40
1.25
100
AcDbArc
 50
126.8698976458
 51
270.0
  0
ARC
  5
27E
330
1F
100
AcDbEntity
  8
0
  6
Continuous
 62
     7
370
    25
100
AcDbCircle
 10
-967.0514953656
 20
-95.3353787345
 30
0.0
 40
1.25
100
AcDbArc
 50
270.0
 51
53.1301023542
  0
ARC
  5
27F
330
1F
100
AcDbEntity
  8
0
  6
Continuous
 62
     7
370
    25
100
AcDbCircle
 10
-976.9514953656
 20
-108.5353787345
 30
0.0
 40
17.75000000000007
100
AcDbArc
 50
53.1301023542
 51
126.8698976458
  0
ARC
  5
280
330
1F
100
AcDbEntity
  8
0
  6
Continuous
 62
     7
370
    25
100
AcDbCircle
 10
901.705574749
 20
392.1646212655
 30
0.0
 40
1.250000000000068
100
AcDbArc
 50
306.8698976458
 51
90.0
  0
ARC
  5
281
330
1F
100
AcDbEntity
  8
0
  6
Continuous
 62
     7
370
    25
100
AcDbCircle
 10
881.905574749
 20
392.1646212655
 30
0.0
 40
1.250000000000068
100
AcDbArc
 50
90.0
 51
233.1301023542
  0
ARC
  5
282
330
1F
100
AcDbEntity
  8
0
  6
Continuous
 62
     7
370
    25
100
AcDbCircle
 10
891.805574749
 20
405.3646212655
 30
0.0
 40
17.75000000000005
100
AcDbArc
 50
233.1301023542
 51
306.8698976458
  0
ARC
  5
283
330
1F
100
AcDbEntity
  8
0
  6
Continuous
 62
     7
370
    25
100
AcDbCircle
 10
736.368862231
 20
392.1646212655
 30
0.0
 40
1.250000000000057
100
AcDbArc
 50
306.8698976458
 51
90.0
  0
ARC
  5
284
330
1F
100
AcDbEntity
  8
0
  6
Continuous
 62
     7
370
    25
100
AcDbCircle
 10
716.568862231
 20
392.1646212655
 30
0.0
 40
1.250000000000057
100
AcDbArc
 50
90.0
 51
233.1301023542
  0
ARC
  5
285
330
1F
100
AcDbEntity
  8
0
  6
Continuous
 62
     7
370
    25
100
AcDbCircle
 10
726.468862231
 20
405.3646212655
 30
0.0
 40
17.75
100
AcDbArc
 50
233.1301023542
 51
306.8698976458
  0
ARC
  5
286
330
1F
100
AcDbEntity
  8
0
  6
Continuous
 62
     7
370
    25
100
AcDbCircle
 10
948.884874949
 20
392.1646212655
 30
0.0
 40
1.25
100
AcDbArc
 50
306.8698976458
 51
90.0
  0
ARC
  5
287
330
1F
100
AcDbEntity
  8
0
  6
Continuous
 62
     7
370
    25
100
AcDbCircle
 10
929.084874949
 20
392.1646212655
 30
0.0
 40
1.25
100
AcDbArc
 50
90.0
 51
233.1301023542
  0
ARC
  5
288
330
1F
100
AcDbEntity
  8
0
  6
Continuous
 62
     7
370
    25
100
AcDbCircle
 10
938.984874949
 20
405.3646212655
 30
0.0
 40
17.75000000000005
100
AcDbArc
 50
233.1301023542
 51
306.8698976458
  0
ARC
  5
289
330
1F
100
AcDbEntity
  8
0
  6
Continuous
 62
     7
370
    25
100
AcDbCircle
 10
-919.8721951656
 20
392.1646212655
 30
0.0
 40
1.250000000000057
100
AcDbArc
 50
306.8698976458
 51
90.0
  0
ARC
  5
28A
330
1F
100
AcDbEntity
  8
0
  6
Continuous
 62
     7
370
    25
100
AcDbCircle
 10
-939.6721951656
 20
392.1646212655
 30
0.0
 40
1.250000000000057
100
AcDbArc
 50
90.0
 51
233.1301023542
  0
ARC
  5
28B
330
1F
100
AcDbEntity
  8
0
  6
Continuous
 62
     7
370
    25
100
AcDbCircle
 10
-929.7721951656
 20
405.3646212655
 30
0.0
 40
17.75000000000005
100
AcDbArc
 50
233.1301023542
 51
306.8698976458
  0
ARC
  5
28C
330
1F
100
AcDbEntity
  8
0
  6
Continuous
 62
     7
370
    25
100
AcDbCircle
 10
962.6914472536
 20
-95.3353787345
 30
0.0
 40
1.250000000000014
100
AcDbArc
 50
126.8698976458
 51
270.0
  0
ARC
  5
28D
330
1F
100
AcDbEntity
  8
0
  6
Continuous
 62
     7
370
    25
100
AcDbCircle
 10
982.4914472536
 20
-95.3353787345
 30
0.0
 40
1.250000000000014
100
AcDbArc
 50
270.0
 51
53.1301023542
  0
ARC
  5
28E
330
1F
100
AcDbEntity
  8
0
  6
Continuous
 62
     7
370
    25
100
AcDbCircle
 10
972.5914472536
 20
-108.5353787345
 30
0.0
 40
17.75000000000007
100
AcDbArc
 50
53.1301023542
 51
126.8698976458
  0
ARC
  5
28F
330
1F
100
AcDbEntity
  8
0
  6
Continuous
 62
     7
370
    25
100
AcDbCircle
 10
982.4914472536
 20
392.1646212655
 30
0.0
 40
1.25
100
AcDbArc
 50
306.8698976458
 51
90.0
  0
ARC
  5
290
330
1F
100
AcDbEntity
  8
0
  6
Continuous
 62
     7
370
    25
100
AcDbCircle
 10
962.6914472536
 20
392.1646212655
 30
0.0
 40
1.25
100
AcDbArc
 50
90.0
 51
233.1301023542
  0
ARC
  5
291
330
1F
100
AcDbEntity
  8
0
  6
Continuous
 62
     7
370
    25
100
AcDbCircle
 10
972.5914472536
 20
405.3646212655
 30
0.0
 40
17.75000000000005
100
AcDbArc
 50
233.1301023542
 51
306.8698976458
  0
ARC
  5
292
330
1F
100
AcDbEntity
  8
0
  6
Continuous
 62
     7
370
    25
100
AcDbCircle
 10
689.189562031
 20
392.1646212655
 30
0.0
 40
1.250000000000057
100
AcDbArc
 50
306.8698976458
 51
90.0
  0
ARC
  5
293
330
1F
100
AcDbEntity
  8
0
  6
Continuous
 62
     7
370
    25
100
AcDbCircle
 10
669.389562031
 20
392.1646212655
 30
0.0
 40
1.250000000000057
100
AcDbArc
 50
90.0
 51
233.1301023542
  0
ARC
  5
294
330
1F
100
AcDbEntity
  8
0
  6
Continuous
 62
     7
370
    25
100
AcDbCircle
 10
679.289562031
 20
405.3646212655
 30
0.0
 40
17.75
100
AcDbArc
 50
233.1301023542
 51
306.8698976458
  0
ARC
  5
295
330
1F
100
AcDbEntity
  8
0
  6
Continuous
 62
     7
370
    25
100
AcDbCircle
 10
-673.749610143
 20
392.1646212655
 30
0.0
 40
1.250000000000057
100
AcDbArc
 50
306.8698976458
 51
90.0
  0
ARC
  5
296
330
1F
100
AcDbEntity
  8
0
  6
Continuous
 62
     7
370
    25
100
AcDbCircle
 10
-693.549610143
 20
392.1646212655
 30
0.0
 40
1.250000000000057
100
AcDbArc
 50
90.0
 51
233.1301023542
  0
ARC
  5
297
330
1F
100
AcDbEntity
  8
0
  6
Continuous
 62
     7
370
    25
100
AcDbCircle
 10
-683.649610143
 20
405.3646212655
 30
0.0
 40
17.75
100
AcDbArc
 50
233.1301023542
 51
306.8698976458
  0
ARC
  5
298
330
1F
100
AcDbEntity
  8
0
  6
Continuous
 62
     7
370
    25
100
AcDbCircle
 10
-754.5354826477
 20
392.1646212655
 30
0.0
 40
1.250000000000068
100
AcDbArc
 50
306.8698976458
 51
90.0
  0
ARC
  5
299
330
1F
100
AcDbEntity
  8
0
  6
Continuous
 62
     7
370
    25
100
AcDbCircle
 10
-774.3354826477
 20
392.1646212655
 30
0.0
 40
1.250000000000068
100
AcDbArc
 50
90.0
 51
233.1301023542
  0
ARC
  5
29A
330
1F
100
AcDbEntity
  8
0
  6
Continuous
 62
     7
370
    25
100
AcDbCircle
 10
-764.4354826477
 20
405.3646212655
 30
0.0
 40
17.75
100
AcDbArc
 50
233.1301023542
 51
306.8698976458
  0
ARC
  5
29B
330
1F
100
AcDbEntity
  8
0
  6
Continuous
 62
     7
370
    25
100
AcDbCircle
 10
548.6311829044
 20
-95.3353787345
 30
0.0
 40
1.250000000000014
100
AcDbArc
 50
126.8698976458
 51
270.0
  0
ARC
  5
29C
330
1F
100
AcDbEntity
  8
0
  6
Continuous
 62
     7
370
    25
100
AcDbCircle
 10
568.4311829044
 20
-95.3353787345
 30
0.0
 40
1.250000000000014
100
AcDbArc
 50
270.0
 51
53.1301023542
  0
ARC
  5
29D
330
1F
100
AcDbEntity
  8
0
  6
Continuous
 62
     7
370
    25
100
AcDbCircle
 10
558.5311829044
 20
-108.5353787345
 30
0.0
 40
17.75000000000007
100
AcDbArc
 50
53.1301023542
 51
126.8698976458
  0
ARC
  5
29E
330
1F
100
AcDbEntity
  8
0
  6
Continuous
 62
     7
370
    25
100
AcDbCircle
 10
-774.3354826477
 20
-95.3353787345
 30
0.0
 40
1.250000000000068
100
AcDbArc
 50
126.8698976458
 51
270.0
  0
ARC
  5
29F
330
1F
100
AcDbEntity
  8
0
  6
Continuous
 62
     7
370
    25
100
AcDbCircle
 10
-754.5354826477
 20
-95.3353787345
 30
0.0
 40
1.250000000000068
100
AcDbArc
 50
270.0
 51
53.1301023542
  0
ARC
  5
2A0
330
1F
100
AcDbEntity
  8
0
  6
Continuous
 62
     7
370
    25
100
AcDbCircle
 10
-764.4354826477
 20
-108.5353787345
 30
0.0
 40
17.75000000000007
100
AcDbArc
 50
53.1301023542
 51
126.8698976458
  0
ARC
  5
2A1
330
1F
100
AcDbEntity
  8
0
  6
Continuous
 62
     7
370
    25
100
AcDbCircle
 10
568.4311829044
 20
392.1646212655
 30
0.0
 40
1.250000000000057
100
AcDbArc
 50
306.8698976458
 51
90.0
  0
ARC
  5
2A2
330
1F
100
AcDbEntity
  8
0
  6
Continuous
 62
     7
370
    25
100
AcDbCircle
 10
548.6311829044
 20
392.1646212655
 30
0.0
 40
1.250000000000057
100
AcDbArc
 50
90.0
 51
233.1301023542
  0
ARC
  5
2A3
330
1F
100
AcDbEntity
  8
0
  6
Continuous
 62
     7
370
    25
100
AcDbCircle
 10
558.5311829044
 20
405.3646212655
 30
0.0
 40
17.75
100
AcDbArc
 50
233.1301023542
 51
306.8698976458
  0
ARC
  5
2A4
330
1F
100
AcDbEntity
  8
0
  6
Continuous
 62
     7
370
    25
100
AcDbCircle
 10
-967.0514953656
 20
392.1646212655
 30
0.0
 40
1.250000000000057
100
AcDbArc
 50
306.8698976458
 51
90.0
  0
ARC
  5
2A5
330
1F
100
AcDbEntity
  8
0
  6
Continuous
 62
     7
370
    25
100
AcDbCircle
 10
-986.8514953656
 20
392.1646212655
 30
0.0
 40
1.250000000000057
100
AcDbArc
 50
90.0
 51
233.1301023542
  0
ARC
  5
2A6
330
1F
100
AcDbEntity
  8
0
  6
Continuous
 62
     7
370
    25
100
AcDbCircle
 10
-976.9514953656
 20
405.3646212655
 30
0.0
 40
17.75000000000005
100
AcDbArc
 50
233.1301023542
 51
306.8698976458
  0
ARC
  5
2A7
330
1F
100
AcDbEntity
  8
0
  6
Continuous
 62
     7
370
    25
100
AcDbCircle
 10
-939.6721951656
 20
-95.3353787345
 30
0.0
 40
1.25
100
AcDbArc
 50
126.8698976458
 51
270.0
  0
ARC
  5
2A8
330
1F
100
AcDbEntity
  8
0
  6
Continuous
 62
     7
370
    25
100
AcDbCircle
 10
-919.8721951656
 20
-95.3353787345
 30
0.0
 40
1.25
100
AcDbArc
 50
270.0
 51
53.1301023542
  0
ARC
  5
2A9
330
1F
100
AcDbEntity
  8
0
  6
Continuous
 62
     7
370
    25
100
AcDbCircle
 10
-929.7721951656
 20
-108.5353787345
 30
0.0
 40
17.75000000000007
100
AcDbArc
 50
53.1301023542
 51
126.8698976458
  0
ARC
  5
2AA
330
1F
100
AcDbEntity
  8
0
  6
Continuous
 62
     7
370
    25
100
AcDbCircle
 10
-1087.8098744922
 20
392.1646212655
 30
0.0
 40
1.250000000000057
100
AcDbArc
 50
306.8698976458
 51
90.0
  0
ARC
  5
2AB
330
1F
100
AcDbEntity
  8
0
  6
Continuous
 62
     7
370
    25
100
AcDbCircle
 10
-1107.6098744922
 20
392.1646212655
 30
0.0
 40
1.250000000000057
100
AcDbArc
 50
90.0
 51
233.1301023542
  0
ARC
  5
2AC
330
1F
100
AcDbEntity
  8
0
  6
Continuous
 62
     7
370
    25
100
AcDbCircle
 10
-1097.7098744922
 20
405.3646212655
 30
0.0
 40
17.75000000000005
100
AcDbArc
 50
233.1301023542
 51
306.8698976458
  0
ARC
  5
2AD
330
1F
100
AcDbEntity
  8
0
  6
Continuous
 62
     7
370
    25
100
AcDbCircle
 10
-707.3561824476
 20
392.1646212655
 30
0.0
 40
1.250000000000057
100
AcDbArc
 50
306.8698976458
 51
90.0
  0
ARC
  5
2AE
330
1F
100
AcDbEntity
  8
0
  6
Continuous
 62
     7
370
    25
100
AcDbCircle
 10
-727.1561824476
 20
392.1646212655
 30
0.0
 40
1.250000000000057
100
AcDbArc
 50
90.0
 51
233.1301023542
  0
ARC
  5
2AF
330
1F
100
AcDbEntity
  8
0
  6
Continuous
 62
     7
370
    25
100
AcDbCircle
 10
-717.2561824476
 20
405.3646212655
 30
0.0
 40
17.75
100
AcDbArc
 50
233.1301023542
 51
306.8698976458
  0
ARC
  5
2B0
330
1F
100
AcDbEntity
  8
0
  6
Continuous
 62
     7
370
    25
100
AcDbCircle
 10
-2670.564994268
 20
396.4146212655
 30
0.0
 40
3.0
100
AcDbArc
 50
180.0
 51
270.0
  0
ARC
  5
2B1
330
1F
100
AcDbEntity
  8
0
  6
Continuous
 62
     7
370
    25
100
AcDbCircle
 10
-2670.564994268
 20
405.4146212655
 30
0.0
 40
3.0
100
AcDbArc
 50
90.0
 51
180.0
  0
LINE
  5
2B2
330
1F
100
AcDbEntity
  8
0
  6
Continuous
 62
     7
370
    25
100
AcDbLine
 10
-2673.564994268
 20
405.4146212655
 30
0.0
 11
-2673.564994268
 21
396.4146212655
 31
0.0
  0
ARC
  5
2B3
330
1F
100
AcDbEntity
  8
0
  6
Continuous
 62
     7
370
    25
100
AcDbCircle
 10
1097.1386380646
 20
-114.5853787345
 30
0.0
 40
3.0
100
AcDbArc
 50
0.0
 51
90.0
  0
LINE
  5
2B4
330
1F
100
AcDbEntity
  8
0
  6
Continuous
 62
     7
370
    25
100
AcDbLine
 10
1100.1386380646
 20
-123.5853787345
 30
0.0
 11
1100.1386380646
 21
-114.5853787345
 31
0.0
  0
ARC
  5
2B5
330
1F
100
AcDbEntity
  8
0
  6
Continuous
 62
     7
370
    25
100
AcDbCircle
 10
1097.1386380646
 20
-123.5853787345
 30
0.0
 40
3.0
100
AcDbArc
 50
270.0
 51
0.0
  0
ARC
  5
2B6
330
1F
100
AcDbEntity
  8
0
  6
Continuous
 62
     7
370
    25
100
AcDbCircle
 10
521.1357989154
 20
-114.5853787345
 30
0.0
 40
3.0
100
AcDbArc
 50
90.0
 51
180.0
  0
ARC
  5
2B7
330
1F
100
AcDbEntity
  8
0
  6
Continuous
 62
     7
370
    25
100
AcDbCircle
 10
521.1357989154
 20
-123.5853787345
 30
0.0
 40
3.0
100
AcDbArc
 50
180.0
 51
270.0
  0
LINE
  5
2B8
330
1F
100
AcDbEntity
  8
0
  6
Continuous
 62
     7
370
    25
100
AcDbLine
 10
518.1357989154
 20
-114.5853787345
 30
0.0
 11
518.1357989154
 21
-123.5853787345
 31
0.0
  0
ARC
  5
2B9
330
1F
100
AcDbEntity
  8
0
  6
Continuous
 62
     7
370
    25
100
AcDbCircle
 10
1097.1386380646
 20
420.4146212655
 30
0.0
 40
3.0
100
AcDbArc
 50
0.0
 51
90.0
  0
LINE
  5
2BA
330
1F
100
AcDbEntity
  8
0
  6
Continuous
 62
     7
370
    25
100
AcDbLine
 10
1100.1386380646
 20
411.4146212655
 30
0.0
 11
1100.1386380646
 21
420.4146212655
 31
0.0
  0
ARC
  5
2BB
330
1F
100
AcDbEntity
  8
0
  6
Continuous
 62
     7
370
    25
100
AcDbCircle
 10
1097.1386380646
 20
411.4146212655
 30
0.0
 40
3.0
100
AcDbArc
 50
270.0
 51
0.0
  0
LINE
  5
2BC
330
1F
100
AcDbEntity
  8
0
  6
Continuous
 62
     7
370
    25
100
AcDbLine
 10
518.1357989154
 20
420.4146212655
 30
0.0
 11
518.1357989154
 21
411.4146212655
 31
0.0
  0
ARC
  5
2BD
330
1F
100
AcDbEntity
  8
0
  6
Continuous
 62
     7
370
    25
100
AcDbCircle
 10
521.1357989154
 20
420.4146212655
 30
0.0
 40
3.000000000000114
100
AcDbArc
 50
90.0
 51
180.0
  0
ARC
  5
2BE
330
1F
100
AcDbEntity
  8
0
  6
Continuous
 62
     7
370
    25
100
AcDbCircle
 10
521.1357989154
 20
411.4146212655
 30
0.0
 40
3.000000000000114
100
AcDbArc
 50
180.0
 51
270.0
  0
ARC
  5
2BF
330
1F
100
AcDbEntity
  8
0
  6
Continuous
 62
     7
370
    25
100
AcDbCircle
 10
-559.1024193321
 20
-123.5853787345
 30
0.0
 40
3.0
100
AcDbArc
 50
270.0
 51
0.0
  0
LINE
  5
2C0
330
1F
100
AcDbEntity
  8
0
  6
Continuous
 62
     7
370
    25
100
AcDbLine
 10
-556.1024193321
 20
-123.5853787345
 30
0.0
 11
-556.1024193321
 21
-114.5853787345
 31
0.0
  0
ARC
  5
2C1
330
1F
100
AcDbEntity
  8
0
  6
Continuous
 62
     7
370
    25
100
AcDbCircle
 10
-559.1024193321
 20
-114.5853787345
 30
0.0
 40
3.000000000000014
100
AcDbArc
 50
0.0
 51
90.0
  0
LINE
  5
2C2
330
1F
100
AcDbEntity
  8
0
  6
Continuous
 62
     7
370
    25
100
AcDbLine
 10
-1138.1052584812
 20
-114.5853787345
 30
0.0
 11
-1138.1052584812
 21
-123.5853787345
 31
0.0
  0
ARC
  5
2C3
330
1F
100
AcDbEntity
  8
0
  6
Continuous
 62
     7
370
    25
100
AcDbCircle
 10
-1135.1052584812
 20
-114.5853787345
 30
0.0
 40
3.000000000000014
100
AcDbArc
 50
90.0
 51
180.0
  0
ARC
  5
2C4
330
1F
100
AcDbEntity
  8
0
  6
Continuous
 62
     7
370
    25
100
AcDbCircle
 10
-1135.1052584812
 20
-123.5853787345
 30
0.0
 40
3.0
100
AcDbArc
 50
180.0
 51
270.0
  0
LINE
  5
2C5
330
1F
100
AcDbEntity
  8
0
  6
Continuous
 62
     7
370
    25
100
AcDbLine
 10
-556.1024193321
 20
411.4146212655
 30
0.0
 11
-556.1024193321
 21
420.4146212655
 31
0.0
  0
ARC
  5
2C6
330
1F
100
AcDbEntity
  8
0
  6
Continuous
 62
     7
370
    25
100
AcDbCircle
 10
-559.1024193321
 20
411.4146212655
 30
0.0
 40
3.000000000000114
100
AcDbArc
 50
270.0
 51
0.0
  0
ARC
  5
2C7
330
1F
100
AcDbEntity
  8
0
  6
Continuous
 62
     7
370
    25
100
AcDbCircle
 10
-559.1024193321
 20
420.4146212655
 30
0.0
 40
3.000000000000114
100
AcDbArc
 50
0.0
 51
90.0
  0
ARC
  5
2C8
330
1F
100
AcDbEntity
  8
0
  6
Continuous
 62
     7
370
    25
100
AcDbCircle
 10
-1135.1052584812
 20
411.4146212655
 30
0.0
 40
3.0
100
AcDbArc
 50
180.0
 51
270.0
  0
LINE
  5
2C9
330
1F
100
AcDbEntity
  8
0
  6
Continuous
 62
     7
370
    25
100
AcDbLine
 10
-1138.1052584812
 20
420.4146212655
 30
0.0
 11
-1138.1052584812
 21
411.4146212655
 31
0.0
  0
ARC
  5
2CA
330
1F
100
AcDbEntity
  8
0
  6
Continuous
 62
     7
370
    25
100
AcDbCircle
 10
-1135.1052584812
 20
420.4146212655
 30
0.0
 40
3.0
100
AcDbArc
 50
90.0
 51
180.0
  0
LINE
  5
2CB
330
1F
100
AcDbEntity
  8
0
  6
Continuous
 62
     7
370
    25
100
AcDbLine
 10
-2617.9034569883
 20
393.4146212655
 30
0.0
 11
-2617.9034569883
 21
-96.5853787345
 31
0.0
  0
LWPOLYLINE
  5
2CC
330
1F
100
AcDbEntity
  8
0
  6
Continuous
 62
     7
370
    25
100
AcDbPolyline
 90
       10
 70
   128
 43
0.0
 10
2792.0811486323
 20
436.9823341645
 10
2792.6029873624
 20
437.3357677804
 10
2792.9554124733
 20
437.7237724806
 10
2793.2969767716
 20
438.4191836633
 10
2793.399624
 20
438.9706859052
 10
2793.4515834321
 20
439.5584664267
 10
2793.4594191329
 20
440.8769419929
 10
2793.1983917714
 20
441.9010066821
 10
2792.8536534151
 20
442.4819650725
 10
2792.2904995572
 20
442.9785569055
  0
LWPOLYLINE
  5
2CD
330
1F
100
AcDbEntity
  8
0
  6
Continuous
 62
     7
370
    25
100
AcDbPolyline
 90
       10
 70
   128
 43
0.0
 10
2792.2904995572
 20
-146.1493143746
 10
2792.7865372457
 20
-145.7600836774
 10
2793.1112466831
 20
-145.3450766042
 10
2793.4029960088
 20
-144.5917916329
 10
2793.463896163
 20
-143.940449549
 10
2793.4708959345
 20
-143.2752629623
 10
2793.3830892784
 20
-141.995902378
 10
2793.0520267804
 20
-141.08483935
 10
2792.6711422873
 20
-140.5825930135
 10
2792.0811486324
 20
-140.1530916336
  0
ARC
  5
2CE
330
1F
100
AcDbEntity
  8
0
  6
Continuous
 62
     7
370
    25
100
AcDbCircle
 10
2794.4944858653
 20
-180.5853787345
 30
0.0
 40
1.0000000000003
100
AcDbArc
 50
182.0
 51
270.0
  0
ARC
  5
2CF
330
1F
100
AcDbEntity
  8
0
  6
Continuous
 62
     7
370
    25
100
AcDbCircle
 10
2758.3128815862
 20
-180.5853787345
 30
0.0
 40
1.0
100
AcDbArc
 50
270.0
 51
358.0
  0
LINE
  5
2D0
330
1F
100
AcDbEntity
  8
0
  6
Continuous
 62
     7
370
    25
100
AcDbLine
 10
2792.0819706398
 20
-140.1536900355
 30
0.0
 11
2791.7466191292
 21
-130.5504792378
 31
0.0
  0
LINE
  5
2D1
330
1F
100
AcDbEntity
  8
0
  6
Continuous
 62
     7
370
    25
100
AcDbLine
 10
2793.4950950383
 20
-180.6202782312
 30
0.0
 11
2792.2913199745
 21
-146.1486706098
 31
0.0
  0
LINE
  5
2D2
330
1F
100
AcDbEntity
  8
0
  6
Continuous
 62
     7
370
    25
100
AcDbLine
 10
2761.0607483224
 20
-130.5504792378
 30
0.0
 11
2759.3122724132
 21
-180.6202782312
 31
0.0
  0
ARC
  5
2D3
330
1F
100
AcDbEntity
  8
0
  6
Continuous
 62
     7
370
    25
100
AcDbCircle
 10
2762.0601391494
 20
-130.5853787345
 30
0.0
 40
1.0
100
AcDbArc
 50
90.0
 51
178.0
  0
ARC
  5
2D4
330
1F
100
AcDbEntity
  8
0
  6
Continuous
 62
     7
370
    25
100
AcDbCircle
 10
2790.7472283021
 20
-130.5853787345
 30
0.0
 40
1.0
100
AcDbArc
 50
2.0
 51
90.0
  0
ARC
  5
2D5
330
1F
100
AcDbEntity
  8
0
  6
Continuous
 62
     7
370
    25
100
AcDbCircle
 10
2758.3128815862
 20
477.4146212655
 30
0.0
 40
1.000000000000303
100
AcDbArc
 50
2.0
 51
90.0
  0
ARC
  5
2D6
330
1F
100
AcDbEntity
  8
0
  6
Continuous
 62
     7
370
    25
100
AcDbCircle
 10
2794.4944858653
 20
477.4146212655
 30
0.0
 40
1.0
100
AcDbArc
 50
90.0
 51
178.0
  0
LINE
  5
2D7
330
1F
100
AcDbEntity
  8
0
  6
Continuous
 62
     7
370
    25
100
AcDbLine
 10
2759.3122724132
 20
477.4495207622
 30
0.0
 11
2761.0607483224
 21
427.3797217688
 31
0.0
  0
LINE
  5
2D8
330
1F
100
AcDbEntity
  8
0
  6
Continuous
 62
     7
370
    25
100
AcDbLine
 10
2792.2913172751
 20
442.9778358379
 30
0.0
 11
2793.4950950383
 21
477.4495207622
 31
0.0
  0
LINE
  5
2D9
330
1F
100
AcDbEntity
  8
0
  6
Continuous
 62
     7
370
    25
100
AcDbLine
 10
2791.7466191292
 20
427.3797217688
 30
0.0
 11
2792.0819691495
 21
436.9828898885
 31
0.0
  0
ARC
  5
2DA
330
1F
100
AcDbEntity
  8
0
  6
Continuous
 62
     7
370
    25
100
AcDbCircle
 10
2790.7472283021
 20
427.4146212655
 30
0.0
 40
1.0
100
AcDbArc
 50
270.0
 51
358.0
  0
ARC
  5
2DB
330
1F
100
AcDbEntity
  8
0
  6
Continuous
 62
     7
370
    25
100
AcDbCircle
 10
2762.0601391494
 20
427.4146212655
 30
0.0
 40
1.0
100
AcDbArc
 50
182.0
 51
270.0
  0
LINE
  5
2DC
330
1F
100
AcDbEntity
  8
0
  6
Continuous
 62
     7
370
    25
100
AcDbLine
 10
2788.9036837258
 20
-129.5853787345
 30
0.0
 11
2788.9036837258
 21
426.4146212655
 31
0.0
  0
LINE
  5
2DD
330
1F
100
AcDbEntity
  8
0
  6
Continuous
 62
     7
370
    25
100
AcDbLine
 10
2763.9036837258
 20
426.4146212655
 30
0.0
 11
2763.9036837258
 21
-129.5853787345
 31
0.0
  0
LINE
  5
2DE
330
1F
100
AcDbEntity
  8
0
  6
Continuous
 62
     7
370
    25
100
AcDbLine
 10
2718.9765991209
 20
511.4146212655
 30
0.0
 11
2719.4036837258
 21
511.4146212655
 31
0.0
  0
LINE
  5
2DF
330
1F
100
AcDbEntity
  8
0
  6
Continuous
 62
     7
370
    25
100
AcDbLine
 10
2719.4036837258
 20
519.4146212655
 30
0.0
 11
2718.9765991209
 21
519.4146212655
 31
0.0
  0
LINE
  5
2E0
330
1F
100
AcDbEntity
  8
0
  6
Continuous
 62
     7
370
    25
100
AcDbLine
 10
2718.9765991209
 20
-222.5853787345
 30
0.0
 11
2719.4036837258
 21
-222.5853787345
 31
0.0
  0
LINE
  5
2E1
330
1F
100
AcDbEntity
  8
0
  6
Continuous
 62
     7
370
    25
100
AcDbLine
 10
2719.4036837258
 20
-214.5853787345
 30
0.0
 11
2718.9765991209
 21
-214.5853787345
 31
0.0
  0
ARC
  5
2E2
330
1F
100
AcDbEntity
  8
0
  6
Continuous
 62
     7
370
    25
100
AcDbCircle
 10
2717.9765991209
 20
516.210673897
 30
0.0
 40
16.29605263157896
100
AcDbArc
 50
225.1144932694
 51
270.0
  0
ARC
  5
2E3
330
1F
100
AcDbEntity
  8
0
  6
Continuous
 62
     7
370
    25
100
AcDbCircle
 10
2717.9765991209
 20
514.6185686339
 30
0.0
 40
16.29605263157896
100
AcDbArc
 50
90.0
 51
134.8855067306
  0
LINE
  5
2E4
330
1F
100
AcDbEntity
  8
0
  6
Continuous
 62
     7
370
    25
100
AcDbLine
 10
2718.9765991209
 20
530.9146212655
 30
0.0
 11
2717.9765991209
 21
530.9146212655
 31
0.0
  0
LINE
  5
2E5
330
1F
100
AcDbEntity
  8
0
  6
Continuous
 62
     7
370
    25
100
AcDbLine
 10
2717.9765991209
 20
499.9146212655
 30
0.0
 11
2718.9765991209
 21
499.9146212655
 31
0.0
  0
LINE
  5
2E6
330
1F
100
AcDbEntity
  8
0
  6
Continuous
 62
     7
370
    25
100
AcDbLine
 10
2718.9765991209
 20
-203.0853787345
 30
0.0
 11
2717.9765991209
 21
-203.0853787345
 31
0.0
  0
LINE
  5
2E7
330
1F
100
AcDbEntity
  8
0
  6
Continuous
 62
     7
370
    25
100
AcDbLine
 10
2717.9765991209
 20
-234.0853787345
 30
0.0
 11
2718.9765991209
 21
-234.0853787345
 31
0.0
  0
ARC
  5
2E8
330
1F
100
AcDbEntity
  8
0
  6
Continuous
 62
     7
370
    25
100
AcDbCircle
 10
2717.9765991209
 20
-217.789326103
 30
0.0
 40
16.29605263157896
100
AcDbArc
 50
225.1144932694
 51
270.0
  0
ARC
  5
2E9
330
1F
100
AcDbEntity
  8
0
  6
Continuous
 62
     7
370
    25
100
AcDbCircle
 10
2717.9765991209
 20
-219.3814313661
 30
0.0
 40
16.29605263157896
100
AcDbArc
 50
90.0
 51
134.8855067306
  0
LINE
  5
2EA
330
1F
100
AcDbEntity
  8
0
  6
Continuous
 62
     7
370
    25
100
AcDbLine
 10
2719.4036837258
 20
530.9146212655
 30
0.0
 11
2718.9765991209
 21
530.9146212655
 31
0.0
  0
LINE
  5
2EB
330
1F
100
AcDbEntity
  8
0
  6
Continuous
 62
     7
370
    25
100
AcDbLine
 10
2718.9765991209
 20
499.9146212655
 30
0.0
 11
2719.4036837258
 21
499.9146212655
 31
0.0
  0
LINE
  5
2EC
330
1F
100
AcDbEntity
  8
0
  6
Continuous
 62
     7
370
    25
100
AcDbLine
 10
2719.4036837258
 20
-203.0853787345
 30
0.0
 11
2718.9765991209
 21
-203.0853787345
 31
0.0
  0
LINE
  5
2ED
330
1F
100
AcDbEntity
  8
0
  6
Continuous
 62
     7
370
    25
100
AcDbLine
 10
2718.9765991209
 20
-234.0853787345
 30
0.0
 11
2719.4036837258
 21
-234.0853787345
 31
0.0
  0
ARC
  5
2EE
330
1F
100
AcDbEntity
  8
0
  6
Continuous
 62
     7
370
    25
100
AcDbCircle
 10
2705.891449102
 20
-208.4353787345
 30
0.0
 40
0.6000000000003409
100
AcDbArc
 50
90.0
 51
159.724946748
  0
ARC
  5
2EF
330
1F
100
AcDbEntity
  8
0
  6
Continuous
 62
     7
370
    25
100
AcDbCircle
 10
2705.891449102
 20
-228.7353787345
 30
0.0
 40
0.6000000000003409
100
AcDbArc
 50
200.275053252
 51
270.0
  0
LINE
  5
2F0
330
1F
100
AcDbEntity
  8
0
  6
Continuous
 62
     7
370
    25
100
AcDbLine
 10
2706.4765991209
 20
-207.8353787345
 30
0.0
 11
2705.891449102
 21
-207.8353787345
 31
0.0
  0
LINE
  5
2F1
330
1F
100
AcDbEntity
  8
0
  6
Continuous
 62
     7
370
    25
100
AcDbLine
 10
2705.891449102
 20
-229.3353787345
 30
0.0
 11
2706.4765991209
 21
-229.3353787345
 31
0.0
  0
ARC
  5
2F2
330
1F
100
AcDbEntity
  8
0
  6
Continuous
 62
     7
370
    25
100
AcDbCircle
 10
2733.3672241209
 20
-218.5853787345
 30
0.0
 40
29.89062499999973
100
AcDbArc
 50
159.724946748
 51
200.275053252
  0
ARC
  5
2F3
330
1F
100
AcDbEntity
  8
0
  6
Continuous
 62
     7
370
    25
100
AcDbCircle
 10
2705.891449102
 20
525.5646212655
 30
0.0
 40
0.600000000000331
100
AcDbArc
 50
90.0
 51
159.724946748
  0
ARC
  5
2F4
330
1F
100
AcDbEntity
  8
0
  6
Continuous
 62
     7
370
    25
100
AcDbCircle
 10
2705.891449102
 20
505.2646212655
 30
0.0
 40
0.600000000000331
100
AcDbArc
 50
200.275053252
 51
270.0
  0
LINE
  5
2F5
330
1F
100
AcDbEntity
  8
0
  6
Continuous
 62
     7
370
    25
100
AcDbLine
 10
2706.4765991209
 20
526.1646212655
 30
0.0
 11
2705.891449102
 21
526.1646212655
 31
0.0
  0
LINE
  5
2F6
330
1F
100
AcDbEntity
  8
0
  6
Continuous
 62
     7
370
    25
100
AcDbLine
 10
2705.891449102
 20
504.6646212655
 30
0.0
 11
2706.4765991209
 21
504.6646212655
 31
0.0
  0
ARC
  5
2F7
330
1F
100
AcDbEntity
  8
0
  6
Continuous
 62
     7
370
    25
100
AcDbCircle
 10
2733.3672241209
 20
515.4146212655
 30
0.0
 40
29.89062499999975
100
AcDbArc
 50
159.724946748
 51
200.275053252
  0
CIRCLE
  5
2F8
330
1F
100
AcDbEntity
  8
0
  6
Continuous
 62
     7
370
    25
100
AcDbCircle
 10
3401.4036837258
 20
373.4146212655
 30
0.0
 40
7.100000000000135
  0
CIRCLE
  5
2F9
330
1F
100
AcDbEntity
  8
0
  6
Continuous
 62
     7
370
    25
100
AcDbCircle
 10
2921.4036837258
 20
373.4146212655
 30
0.0
 40
7.100000000000119
  0
CIRCLE
  5
2FA
330
1F
100
AcDbEntity
  8
0
  6
Continuous
 62
     7
370
    25
100
AcDbCircle
 10
2921.4036837258
 20
-76.5853787345
 30
0.0
 40
7.100000000000127
  0
CIRCLE
  5
2FB
330
1F
100
AcDbEntity
  8
0
  6
Continuous
 62
     7
370
    25
100
AcDbCircle
 10
3401.4036837258
 20
-76.5853787345
 30
0.0
 40
7.100000000000127
  0
CIRCLE
  5
2FC
330
1F
100
AcDbEntity
  8
0
  6
Continuous
 62
     7
370
    25
100
AcDbCircle
 10
3461.4036837258
 20
-161.5853787345
 30
0.0
 40
7.099999999999909
  0
CIRCLE
  5
2FD
330
1F
100
AcDbEntity
  8
0
  6
Continuous
 62
     7
370
    25
100
AcDbCircle
 10
3461.4036837258
 20
458.4146212655
 30
0.0
 40
7.099999999999909
  0
CIRCLE
  5
2FE
330
1F
100
AcDbEntity
  8
0
  6
Continuous
 62
     7
370
    25
100
AcDbCircle
 10
2861.4036837258
 20
-161.5853787345
 30
0.0
 40
7.099999999999909
  0
CIRCLE
  5
2FF
330
1F
100
AcDbEntity
  8
0
  6
Continuous
 62
     7
370
    25
100
AcDbCircle
 10
2861.4036837258
 20
458.4146212655
 30
0.0
 40
7.099999999999909
  0
LINE
  5
300
330
1F
100
AcDbEntity
  8
0
  6
Continuous
 62
     7
370
    25
100
AcDbLine
 10
3591.4036837258
 20
2078.4146212655
 30
0.0
 11
2900.6618846228
 21
2078.4146212655
 31
0.0
  0
ARC
  5
301
330
1F
100
AcDbEntity
  8
0
  6
Continuous
 62
     7
370
    25
100
AcDbCircle
 10
3591.4036837258
 20
578.4146212655
 30
0.0
 40
1500.0
100
AcDbArc
 50
0.0
 51
90.0
  0
LINE
  5
302
330
1F
100
AcDbEntity
  8
0
  6
Continuous
 62
     7
370
    25
100
AcDbLine
 10
5091.4036837258
 20
-281.5853787345
 30
0.0
 11
5091.4036837258
 21
578.4146212655
 31
0.0
  0
ARC
  5
303
330
1F
100
AcDbEntity
  8
0
  6
Continuous
 62
     7
370
    25
100
AcDbCircle
 10
3591.4036837258
 20
-281.5853787345
 30
0.0
 40
1500.0
100
AcDbArc
 50
270.0
 51
0.0
  0
LINE
  5
304
330
1F
100
AcDbEntity
  8
0
  6
Continuous
 62
     7
370
    25
100
AcDbLine
 10
3591.4036837258
 20
-1781.5853787345
 30
0.0
 11
2900.6618846228
 21
-1781.5853787345
 31
0.0
  0
LWPOLYLINE
  5
305
330
1F
100
AcDbEntity
  8
0
  6
Continuous
 62
     7
370
    25
100
AcDbPolyline
 90
       14
 70
   128
 43
0.0
 10
2408.1327043623
 20
-1746.3365090981
 10
2432.8738949449
 20
-1751.5774073535
 10
2458.3752086344
 20
-1756.5258320806
 10
2484.5825927014
 20
-1761.1379725012
 10
2511.4419944161
 20
-1765.3700178369
 10
2533.9993966952
 20
-1768.5377872788
 10
2556.9849389651
 20
-1771.4071351609
 10
2580.3598524105
 20
-1773.958146722
 10
2604.0853682161
 20
-1776.1709072009
 10
2628.1227175667
 20
-1778.0255018364
 10
2653.4589132024
 20
-1779.5587561363
 10
2679.0920034154
 20
-1780.6729305817
 10
2705.1330452998
 20
-1781.3551725015
 10
2731.4036837258
 20
-1781.5853787345
  0
LWPOLYLINE
  5
306
330
1F
100
AcDbEntity
  8
0
  6
Continuous
 62
     7
370
    25
100
AcDbPolyline
 90
       14
 70
   128
 43
0.0
 10
2731.4036837258
 20
2078.4146212655
 10
2700.9328693517
 20
2078.1029417271
 10
2670.7511175166
 20
2077.1840509661
 10
2640.9411819888
 20
2075.682170764
 10
2611.5858165371
 20
2073.6215229023
 10
2587.7438110744
 20
2071.5180573279
 10
2564.2332098791
 20
2069.0672112772
 10
2541.0916351965
 20
2066.2897785682
 10
2518.3567092716
 20
2063.2065530188
 10
2496.0660543494
 20
2059.838328447
 10
2473.354393998
 20
2056.0513650954
 10
2451.14672887
 20
2052.0007365824
 10
2429.3645155609
 20
2047.6906868409
 10
2408.1327043623
 20
2043.165751629
  0
LINE
  5
307
330
1F
100
AcDbEntity
  8
0
  6
Continuous
 62
     7
370
    25
100
AcDbLine
 10
2900.6618846228
 20
2078.4146212655
 30
0.0
 11
2731.4036837258
 21
2078.4146212655
 31
0.0
  0
LINE
  5
308
330
1F
100
AcDbEntity
  8
0
  6
Continuous
 62
     7
370
    25
100
AcDbLine
 10
2900.6618846228
 20
-1781.5853787345
 30
0.0
 11
2731.4036837258
 21
-1781.5853787345
 31
0.0
  0
LINE
  5
309
330
1F
100
AcDbEntity
  8
0
  6
Continuous
 62
     7
370
    25
100
AcDbLine
 10
-1614.654848436
 20
-1611.5853787345
 30
0.0
 11
2037.7899583714
 21
-1611.5853787345
 31
0.0
  0
ARC
  5
30A
330
1F
100
AcDbEntity
  8
0
  6
Continuous
 62
     7
370
    25
100
AcDbCircle
 10
-1614.654848436
 20
-111.5853787345
 30
0.0
 40
1500.000000000001
100
AcDbArc
 50
259.285912691
 51
270.0
  0
ARC
  5
30B
330
1F
100
AcDbEntity
  8
0
  6
Continuous
 62
     7
370
    25
100
AcDbCircle
 10
-1614.654848436
 20
408.4146212655
 30
0.0
 40
1500.0
100
AcDbArc
 50
90.0
 51
100.714087309
  0
LINE
  5
30C
330
1F
100
AcDbEntity
  8
0
  6
Continuous
 62
     7
370
    25
100
AcDbLine
 10
2037.7899583714
 20
1908.4146212655
 30
0.0
 11
-1614.654848436
 21
1908.4146212655
 31
0.0
  0
ARC
  5
30D
330
1F
100
AcDbEntity
  8
0
  6
Continuous
 62
     7
370
    25
100
AcDbCircle
 10
2731.4036837258
 20
578.4146212655
 30
0.0
 40
1500.0
100
AcDbArc
 50
102.4456834859
 51
117.5426751545
  0
ARC
  5
30E
330
1F
100
AcDbEntity
  8
0
  6
Continuous
 62
     7
370
    25
100
AcDbCircle
 10
2731.4036837258
 20
-281.5853787345
 30
0.0
 40
1500.0
100
AcDbArc
 50
242.4573248455
 51
257.5543165141
  0
LWPOLYLINE
  5
30F
330
1F
100
AcDbEntity
  8
0
  6
Continuous
 62
     7
370
    25
100
AcDbPolyline
 90
       20
 70
   128
 43
0.0
 10
-1893.5171554946
 20
1882.2652967757
 10
-1918.1345133081
 20
1877.3924176308
 10
-1943.3875731269
 20
1871.9469951195
 10
-1969.1957232041
 20
1865.9112211321
 10
-1995.478351793
 20
1859.2672875589
 10
-2017.4674733921
 20
1853.3150193233
 10
-2039.7386528013
 20
1846.918299149
 10
-2062.2427557007
 20
1840.0759216753
 10
-2084.9306477705
 20
1832.7866815418
 10
-2107.7531946908
 20
1825.0493733878
 10
-2135.6030011646
 20
1815.044136568
 10
-2163.5901461233
 20
1804.3582340812
 10
-2191.6311890765
 20
1793.0054750468
 10
-2219.6426895337
 20
1780.9996685845
 10
-2248.3437574269
 20
1767.9851058314
 10
-2276.943617521
 20
1754.2831433598
 10
-2305.3676283347
 20
1739.9210526936
 10
-2333.5411483866
 20
1724.9261053564
 10
-2359.918149173
 20
1710.1759713503
 10
-2386.0463357551
 20
1694.8652317794
  0
LWPOLYLINE
  5
310
330
1F
100
AcDbEntity
  8
0
  6
Continuous
 62
     7
370
    25
100
AcDbPolyline
 90
       22
 70
   128
 43
0.0
 10
-2386.0463357551
 20
-1398.0359892485
 10
-2357.9364817363
 20
-1414.4768361451
 10
-2329.4827226528
 20
-1430.3006540872
 10
-2300.7537346007
 20
-1445.4752020307
 10
-2271.8181936759
 20
-1459.9682389316
 10
-2247.917942567
 20
-1471.3543861252
 10
-2223.9100628717
 20
-1482.2765834631
 10
-2199.8440387318
 20
-1492.7225667699
 10
-2175.769354289
 20
-1502.6800718706
 10
-2151.735493685
 20
-1512.13683459
 10
-2128.3565790359
 20
-1520.8777628089
 10
-2105.0471616402
 20
-1529.1547888459
 10
-2081.8585748882
 20
-1536.9654625429
 10
-2058.8421521701
 20
-1544.3073337417
 10
-2036.0492268763
 20
-1551.1779522841
 10
-2012.7601811542
 20
-1557.7897700485
 10
-1989.7446359161
 20
-1563.9271022588
 10
-1967.0568933317
 20
-1569.5983148144
 10
-1944.7512555706
 20
-1574.8117736144
 10
-1922.8820248025
 20
-1579.5758445582
 10
-1908.0916556101
 20
-1582.603679163
 10
-1893.5171554946
 20
-1585.4360542448
  0
LINE
  5
311
330
1F
100
AcDbEntity
  8
0
  6
Continuous
 62
     7
370
    25
100
AcDbLine
 10
-3673.564994268
 20
-1111.5853787345
 30
0.0
 11
-2732.6888371859
 21
-1111.5853787345
 31
0.0
  0
ARC
  5
312
330
1F
100
AcDbEntity
  8
0
  6
Continuous
 62
     7
370
    25
100
AcDbCircle
 10
-3673.564994268
 20
-111.5853787345
 30
0.0
 40
1000.0
100
AcDbArc
 50
180.0
 51
270.0
  0
LINE
  5
313
330
1F
100
AcDbEntity
  8
0
  6
Continuous
 62
     7
370
    25
100
AcDbLine
 10
-4673.564994268
 20
408.4146212655
 30
0.0
 11
-4673.564994268
 21
-111.5853787345
 31
0.0
  0
ARC
  5
314
330
1F
100
AcDbEntity
  8
0
  6
Continuous
 62
     7
370
    25
100
AcDbCircle
 10
-3673.564994268
 20
408.4146212655
 30
0.0
 40
1000.0
100
AcDbArc
 50
90.0
 51
180.0
  0
LINE
  5
315
330
1F
100
AcDbEntity
  8
0
  6
Continuous
 62
     7
370
    25
100
AcDbLine
 10
-2732.6888371859
 20
1408.4146212655
 30
0.0
 11
-3673.564994268
 21
1408.4146212655
 31
0.0
  0
ARC
  5
316
330
1F
100
AcDbEntity
  8
0
  6
Continuous
 62
     7
370
    25
100
AcDbCircle
 10
-1614.654848436
 20
408.4146212655
 30
0.0
 40
1500.0
100
AcDbArc
 50
120.9480714171
 51
138.1896851042
  0
ARC
  5
317
330
1F
100
AcDbEntity
  8
0
  6
Continuous
 62
     7
370
    25
100
AcDbCircle
 10
-1614.654848436
 20
-111.5853787345
 30
0.0
 40
1500.0
100
AcDbArc
 50
221.8103148958
 51
239.0519285829
  0
LWPOLYLINE
  5
318
330
1F
100
AcDbEntity
  8
0
  6
Continuous
 62
     7
370
    25
100
AcDbPolyline
 90
        9
 70
   128
 43
0.0
 10
-1048.968206563
 20
-108.5853787345
 10
-1048.9327172771
 20
-109.1706497006
 10
-1048.8276132528
 20
-109.7334290316
 10
-1048.6569335787
 20
-110.2520894336
 10
-1048.4272373791
 20
-110.7066990781
 10
-1048.14735175
 20
-111.0797875715
 10
-1047.8280325393
 20
-111.3570173321
 10
-1047.481551005
 20
-111.5277345758
 10
-1047.1212222384
 20
-111.5853787345
  0
LWPOLYLINE
  5
319
330
1F
100
AcDbEntity
  8
0
  6
Continuous
 62
     7
370
    25
100
AcDbPolyline
 90
        9
 70
   128
 43
0.0
 10
-1890.5343494576
 20
-111.5853787345
 10
-1890.8946782242
 20
-111.5277345758
 10
-1891.2411597585
 20
-111.3570173321
 10
-1891.5604789692
 20
-111.0797875715
 10
-1891.8403645983
 20
-110.7066990781
 10
-1892.0700607979
 20
-110.2520894336
 10
-1892.240740472
 20
-109.7334290316
 10
-1892.3458444963
 20
-109.1706497006
 10
-1892.3813337822
 20
-108.5853787345
  0
LINE
  5
31A
330
1F
100
AcDbEntity
  8
0
  6
Continuous
 62
     7
370
    25
100
AcDbLine
 10
-1048.968206563
 20
-108.5853787345
 30
0.0
 11
-1892.3813337822
 21
-108.5853787345
 31
0.0
  0
LINE
  5
31B
330
1F
100
AcDbEntity
  8
0
  6
Continuous
 62
     7
370
    25
100
AcDbLine
 10
-1890.5343494576
 20
-111.5853787345
 30
0.0
 11
-1047.1212222384
 21
-111.5853787345
 31
0.0
  0
LINE
  5
31C
330
1F
100
AcDbEntity
  8
0
  6
Continuous
 62
     7
370
    25
100
AcDbLine
 10
-1048.968206563
 20
-99.5853787345
 30
0.0
 11
-1048.968206563
 21
-108.5853787345
 31
0.0
  0
LWPOLYLINE
  5
31D
330
1F
100
AcDbEntity
  8
0
  6
Continuous
 62
     7
370
    25
100
AcDbPolyline
 90
        9
 70
   128
 43
0.0
 10
-1047.1212222384
 20
-96.5853787345
 10
-1047.481551005
 20
-96.6430228933
 10
-1047.8280325393
 20
-96.813740137
 10
-1048.14735175
 20
-97.0909698976
 10
-1048.4272373791
 20
-97.464058391
 10
-1048.6569335787
 20
-97.9186680355
 10
-1048.8276132528
 20
-98.4373284374
 10
-1048.9327172771
 20
-99.0001077685
 10
-1048.968206563
 20
-99.5853787345
  0
LINE
  5
31E
330
1F
100
AcDbEntity
  8
0
  6
Continuous
 62
     7
370
    25
100
AcDbLine
 10
-1892.3813337822
 20
-99.5853787345
 30
0.0
 11
-1892.3813337822
 21
-108.5853787345
 31
0.0
  0
LINE
  5
31F
330
1F
100
AcDbEntity
  8
0
  6
Continuous
 62
     7
370
    25
100
AcDbLine
 10
-1892.3813337822
 20
-99.5853787345
 30
0.0
 11
-1048.968206563
 21
-99.5853787345
 31
0.0
  0
LWPOLYLINE
  5
320
330
1F
100
AcDbEntity
  8
0
  6
Continuous
 62
     7
370
    25
100
AcDbPolyline
 90
        9
 70
   128
 43
0.0
 10
-1892.3813337822
 20
-99.5853787345
 10
-1892.3458450818
 20
-99.0001077685
 10
-1892.2407414925
 20
-98.4373284374
 10
-1892.0700620863
 20
-97.9186680355
 10
-1891.8403659772
 20
-97.464058391
 10
-1891.5604802576
 20
-97.0909698976
 10
-1891.241160779
 20
-96.813740137
 10
-1890.8946788097
 20
-96.6430228933
 10
-1890.5343494576
 20
-96.5853787345
  0
LINE
  5
321
330
1F
100
AcDbEntity
  8
0
  6
Continuous
 62
     7
370
    25
100
AcDbLine
 10
-1047.1212222384
 20
-96.5853787345
 30
0.0
 11
-1890.5343494576
 21
-96.5853787345
 31
0.0
  0
LINE
  5
322
330
1F
100
AcDbEntity
  8
0
  6
Continuous
 62
     7
370
    25
100
AcDbLine
 10
-2209.4394542717
 20
-99.5853787345
 30
0.0
 11
-1892.3813337822
 21
-99.5853787345
 31
0.0
  0
LWPOLYLINE
  5
323
330
1F
100
AcDbEntity
  8
0
  6
Continuous
 62
     7
370
    25
100
AcDbPolyline
 90
        9
 70
   128
 43
0.0
 10
-2209.4394542717
 20
-99.5853787345
 10
-2209.4221144251
 20
-99.0001077685
 10
-2209.3707612433
 20
-98.4373284374
 10
-2209.2873682004
 20
-97.9186680355
 10
-2209.1751400442
 20
-97.464058391
 10
-2209.0383896399
 20
-97.0909698976
 10
-2208.8823722287
 20
-96.813740137
 10
-2208.7130834723
 20
-96.6430228933
 10
-2208.5370290427
 20
-96.5853787345
  0
LINE
  5
324
330
1F
100
AcDbEntity
  8
0
  6
Continuous
 62
     7
370
    25
100
AcDbLine
 10
-1890.5343494576
 20
-96.5853787345
 30
0.0
 11
-2208.5370290427
 21
-96.5853787345
 31
0.0
  0
LINE
  5
325
330
1F
100
AcDbEntity
  8
0
  6
Continuous
 62
     7
370
    25
100
AcDbLine
 10
-1892.3813337822
 20
-108.5853787345
 30
0.0
 11
-2209.4394542717
 21
-108.5853787345
 31
0.0
  0
LWPOLYLINE
  5
326
330
1F
100
AcDbEntity
  8
0
  6
Continuous
 62
     7
370
    25
100
AcDbPolyline
 90
        9
 70
   128
 43
0.0
 10
-2208.5370290427
 20
-111.5853787345
 10
-2208.7130834712
 20
-111.5277345758
 10
-2208.8823722268
 20
-111.3570173321
 10
-2209.0383896375
 20
-111.0797875715
 10
-2209.1751400417
 20
-110.7066990781
 10
-2209.287368198
 20
-110.2520894336
 10
-2209.3707612414
 20
-109.7334290316
 10
-2209.422114424
 20
-109.1706497006
 10
-2209.4394542717
 20
-108.5853787345
  0
LINE
  5
327
330
1F
100
AcDbEntity
  8
0
  6
Continuous
 62
     7
370
    25
100
AcDbLine
 10
-2208.5370290427
 20
-111.5853787345
 30
0.0
 11
-1890.5343494576
 21
-111.5853787345
 31
0.0
  0
LINE
  5
328
330
1F
100
AcDbEntity
  8
0
  6
Continuous
 62
     7
370
    25
100
AcDbLine
 10
-2209.4394542717
 20
-99.5853787345
 30
0.0
 11
-2209.4394542717
 21
-108.5853787345
 31
0.0
  0
LINE
  5
329
330
1F
100
AcDbEntity
  8
0
  6
Continuous
 62
     7
370
    25
100
AcDbLine
 10
-2209.4394542717
 20
-108.5853787345
 30
0.0
 11
-2620.8545407795
 21
-108.5853787345
 31
0.0
  0
LWPOLYLINE
  5
32A
330
1F
100
AcDbEntity
  8
0
  6
Continuous
 62
     7
370
    25
100
AcDbPolyline
 90
        9
 70
   128
 43
0.0
 10
-2619.9521155442
 20
-111.5853787345
 10
-2620.128169974
 20
-111.5277345758
 10
-2620.2974587307
 20
-111.3570173321
 10
-2620.4534761425
 20
-111.0797875715
 10
-2620.5902265476
 20
-110.7066990781
 10
-2620.7024547047
 20
-110.2520894336
 10
-2620.7858477487
 20
-109.7334290316
 10
-2620.8372009316
 20
-109.1706497006
 10
-2620.8545407795
 20
-108.5853787345
  0
LINE
  5
32B
330
1F
100
AcDbEntity
  8
0
  6
Continuous
 62
     7
370
    25
100
AcDbLine
 10
-2619.9521155442
 20
-111.5853787345
 30
0.0
 11
-2208.5370290427
 21
-111.5853787345
 31
0.0
  0
LINE
  5
32C
330
1F
100
AcDbEntity
  8
0
  6
Continuous
 62
     7
370
    25
100
AcDbLine
 10
-2620.8545407795
 20
-99.5853787345
 30
0.0
 11
-2209.4394542717
 21
-99.5853787345
 31
0.0
  0
LWPOLYLINE
  5
32D
330
1F
100
AcDbEntity
  8
0
  6
Continuous
 62
     7
370
    25
100
AcDbPolyline
 90
        9
 70
   128
 43
0.0
 10
-2620.8545407795
 20
-99.5853787345
 10
-2620.8372009431
 20
-99.0001077685
 10
-2620.7858477686
 20
-98.4373284374
 10
-2620.7024547298
 20
-97.9186680355
 10
-2620.5902265745
 20
-97.464058391
 10
-2620.4534761676
 20
-97.0909698976
 10
-2620.2974587506
 20
-96.813740137
 10
-2620.1281699854
 20
-96.6430228933
 10
-2619.9521155442
 20
-96.5853787345
  0
LINE
  5
32E
330
1F
100
AcDbEntity
  8
0
  6
Continuous
 62
     7
370
    25
100
AcDbLine
 10
-2208.5370290427
 20
-96.5853787345
 30
0.0
 11
-2619.9521155442
 21
-96.5853787345
 31
0.0
  0
LINE
  5
32F
330
1F
100
AcDbEntity
  8
0
  6
Continuous
 62
     7
370
    25
100
AcDbLine
 10
-2620.8545407795
 20
-99.5853787345
 30
0.0
 11
-2620.8545407795
 21
-108.5853787345
 31
0.0
  0
LINE
  5
330
330
1F
100
AcDbEntity
  8
0
  6
Continuous
 62
     7
370
    25
100
AcDbLine
 10
-2625.3481087082
 20
-99.5853787345
 30
0.0
 11
-2620.8545407795
 21
-99.5853787345
 31
0.0
  0
LWPOLYLINE
  5
331
330
1F
100
AcDbEntity
  8
0
  6
Continuous
 62
     7
370
    25
100
AcDbPolyline
 90
        9
 70
   128
 43
0.0
 10
-2625.3481087082
 20
-99.5853787345
 10
-2625.3195067727
 20
-99.0001077685
 10
-2625.2348001269
 20
-98.4373284374
 10
-2625.0972439997
 20
-97.9186680355
 10
-2624.9121245958
 20
-97.464058391
 10
-2624.6865559503
 20
-97.0909698976
 10
-2624.4292065395
 20
-96.813740137
 10
-2624.1499661572
 20
-96.6430228933
 10
-2623.8595658544
 20
-96.5853787345
  0
LINE
  5
332
330
1F
100
AcDbEntity
  8
0
  6
Continuous
 62
     7
370
    25
100
AcDbLine
 10
-2619.9521155442
 20
-96.5853787345
 30
0.0
 11
-2623.8595658544
 21
-96.5853787345
 31
0.0
  0
LINE
  5
333
330
1F
100
AcDbEntity
  8
0
  6
Continuous
 62
     7
370
    25
100
AcDbLine
 10
-2620.8545407795
 20
-108.5853787345
 30
0.0
 11
-2625.3481087082
 21
-108.5853787345
 31
0.0
  0
LINE
  5
334
330
1F
100
AcDbEntity
  8
0
  6
Continuous
 62
     7
370
    25
100
AcDbLine
 10
-2625.3481087082
 20
-99.5853787345
 30
0.0
 11
-2625.3481087082
 21
-108.5853787345
 31
0.0
  0
LWPOLYLINE
  5
335
330
1F
100
AcDbEntity
  8
0
  6
Continuous
 62
     7
370
    25
100
AcDbPolyline
 90
        9
 70
   128
 43
0.0
 10
-2623.8595658544
 20
-111.5853787345
 10
-2624.1499661591
 20
-111.5277345758
 10
-2624.4292065429
 20
-111.3570173321
 10
-2624.6865559545
 20
-111.0797875715
 10
-2624.9121246004
 20
-110.7066990781
 10
-2625.0972440039
 20
-110.2520894336
 10
-2625.2348001303
 20
-109.7334290316
 10
-2625.3195067746
 20
-109.1706497006
 10
-2625.3481087082
 20
-108.5853787345
  0
LINE
  5
336
330
1F
100
AcDbEntity
  8
0
  6
Continuous
 62
     7
370
    25
100
AcDbLine
 10
-2623.8595658544
 20
-111.5853787345
 30
0.0
 11
-2619.9521155442
 21
-111.5853787345
 31
0.0
  0
LINE
  5
337
330
1F
100
AcDbEntity
  8
0
  6
Continuous
 62
     7
370
    25
100
AcDbLine
 10
-2670.564994268
 20
-111.5853787345
 30
0.0
 11
-2623.8595658544
 21
-111.5853787345
 31
0.0
  0
LINE
  5
338
330
1F
100
AcDbEntity
  8
0
  6
Continuous
 62
     7
370
    25
100
AcDbLine
 10
-2623.8595658544
 20
-96.5853787345
 30
0.0
 11
-2670.564994268
 21
-96.5853787345
 31
0.0
  0
LWPOLYLINE
  5
339
330
1F
100
AcDbEntity
  8
0
  6
Continuous
 62
     7
370
    25
100
AcDbPolyline
 90
        9
 70
   128
 43
0.0
 10
609.1195608619
 20
-96.5853787345
 10
608.7592320952
 20
-96.6430228933
 10
608.412750561
 20
-96.813740137
 10
608.0934313502
 20
-97.0909698976
 10
607.8135457212
 20
-97.464058391
 10
607.5838495215
 20
-97.9186680355
 10
607.4131698475
 20
-98.4373284374
 10
607.3080658231
 20
-99.0001077685
 10
607.2725765372
 20
-99.5853787345
  0
LINE
  5
33A
330
1F
100
AcDbEntity
  8
0
  6
Continuous
 62
     7
370
    25
100
AcDbLine
 10
-1048.968206563
 20
-99.5853787345
 30
0.0
 11
607.2725765372
 21
-99.5853787345
 31
0.0
  0
LWPOLYLINE
  5
33B
330
1F
100
AcDbEntity
  8
0
  6
Continuous
 62
     7
370
    25
100
AcDbPolyline
 90
        9
 70
   128
 43
0.0
 10
-1047.1212222384
 20
-96.5853787345
 10
-1047.481551005
 20
-96.6430228933
 10
-1047.8280325393
 20
-96.813740137
 10
-1048.14735175
 20
-97.0909698976
 10
-1048.4272373791
 20
-97.464058391
 10
-1048.6569335787
 20
-97.9186680355
 10
-1048.8276132528
 20
-98.4373284374
 10
-1048.9327172771
 20
-99.0001077685
 10
-1048.968206563
 20
-99.5853787345
  0
LINE
  5
33C
330
1F
100
AcDbEntity
  8
0
  6
Continuous
 62
     7
370
    25
100
AcDbLine
 10
609.1195608619
 20
-96.5853787345
 30
0.0
 11
-1047.1212222384
 21
-96.5853787345
 31
0.0
  0
LWPOLYLINE
  5
33D
330
1F
100
AcDbEntity
  8
0
  6
Continuous
 62
     7
370
    25
100
AcDbPolyline
 90
        9
 70
   128
 43
0.0
 10
607.2725765372
 20
-108.5853787345
 10
607.3080658231
 20
-109.1706497006
 10
607.4131698475
 20
-109.7334290316
 10
607.5838495215
 20
-110.2520894336
 10
607.8135457212
 20
-110.7066990781
 10
608.0934313502
 20
-111.0797875715
 10
608.412750561
 20
-111.3570173321
 10
608.7592320952
 20
-111.5277345758
 10
609.1195608619
 20
-111.5853787345
  0
LINE
  5
33E
330
1F
100
AcDbEntity
  8
0
  6
Continuous
 62
     7
370
    25
100
AcDbLine
 10
607.2725765372
 20
-99.5853787345
 30
0.0
 11
607.2725765372
 21
-108.5853787345
 31
0.0
  0
LINE
  5
33F
330
1F
100
AcDbEntity
  8
0
  6
Continuous
 62
     7
370
    25
100
AcDbLine
 10
607.2725765372
 20
-108.5853787345
 30
0.0
 11
-1048.968206563
 21
-108.5853787345
 31
0.0
  0
LWPOLYLINE
  5
340
330
1F
100
AcDbEntity
  8
0
  6
Continuous
 62
     7
370
    25
100
AcDbPolyline
 90
        9
 70
   128
 43
0.0
 10
-1048.968206563
 20
-108.5853787345
 10
-1048.9327172771
 20
-109.1706497006
 10
-1048.8276132528
 20
-109.7334290316
 10
-1048.6569335787
 20
-110.2520894336
 10
-1048.4272373791
 20
-110.7066990781
 10
-1048.14735175
 20
-111.0797875715
 10
-1047.8280325393
 20
-111.3570173321
 10
-1047.481551005
 20
-111.5277345758
 10
-1047.1212222384
 20
-111.5853787345
  0
LINE
  5
341
330
1F
100
AcDbEntity
  8
0
  6
Continuous
 62
     7
370
    25
100
AcDbLine
 10
-1047.1212222384
 20
-111.5853787345
 30
0.0
 11
609.1195608619
 21
-111.5853787345
 31
0.0
  0
LINE
  5
342
330
1F
100
AcDbEntity
  8
0
  6
Continuous
 62
     7
370
    25
100
AcDbLine
 10
2705.054105835
 20
-99.5853787345
 30
0.0
 11
2705.054105835
 21
-108.5853787345
 31
0.0
  0
LINE
  5
343
330
1F
100
AcDbEntity
  8
0
  6
Continuous
 62
     7
370
    25
100
AcDbLine
 10
2743.2485359274
 20
-99.5853787345
 30
0.0
 11
2743.2485359274
 21
-108.5853787345
 31
0.0
  0
LWPOLYLINE
  5
344
330
1F
100
AcDbEntity
  8
0
  6
Continuous
 62
     7
370
    25
100
AcDbPolyline
 90
        9
 70
   128
 43
0.0
 10
2743.2485359274
 20
-99.5853787345
 10
2743.2485360079
 20
-99.0001077685
 10
2743.248536214
 20
-98.4373284374
 10
2743.2485365379
 20
-97.9186680355
 10
2743.248536967
 20
-97.464058391
 10
2743.2485374849
 20
-97.0909698976
 10
2743.2485380717
 20
-96.813740137
 10
2743.2485387049
 20
-96.6430228933
 10
2743.2485393601
 20
-96.5853787345
  0
LWPOLYLINE
  5
345
330
1F
100
AcDbEntity
  8
0
  6
Continuous
 62
     7
370
    25
100
AcDbPolyline
 90
        9
 70
   128
 43
0.0
 10
2705.054105835
 20
-99.5853787345
 10
2705.0541059015
 20
-99.0001077685
 10
2705.0541060937
 20
-98.4373284374
 10
2705.0541064043
 20
-97.9186680355
 10
2705.0541068213
 20
-97.464058391
 10
2705.0541073286
 20
-97.0909698976
 10
2705.0541079068
 20
-96.813740137
 10
2705.0541085337
 20
-96.6430228933
 10
2705.0541091852
 20
-96.5853787345
  0
LINE
  5
346
330
1F
100
AcDbEntity
  8
0
  6
Continuous
 62
     7
370
    25
100
AcDbLine
 10
2743.2485393601
 20
-96.5853787345
 30
0.0
 11
2728.4036837258
 21
-96.5853787345
 31
0.0
  0
LINE
  5
347
330
1F
100
AcDbEntity
  8
0
  6
Continuous
 62
     7
370
    25
100
AcDbLine
 10
2722.4036837258
 20
-96.5853787345
 30
0.0
 11
2705.0541091852
 21
-96.5853787345
 31
0.0
  0
LWPOLYLINE
  5
348
330
1F
100
AcDbEntity
  8
0
  6
Continuous
 62
     7
370
    25
100
AcDbPolyline
 90
        9
 70
   128
 43
0.0
 10
2743.2485393601
 20
-111.5853787345
 10
2743.2485386904
 20
-111.5277345758
 10
2743.2485380464
 20
-111.3570173321
 10
2743.248537453
 20
-111.0797875715
 10
2743.2485369328
 20
-110.7066990781
 10
2743.2485365059
 20
-110.2520894336
 10
2743.2485361887
 20
-109.7334290316
 10
2743.2485359934
 20
-109.1706497006
 10
2743.2485359274
 20
-108.5853787345
  0
LWPOLYLINE
  5
349
330
1F
100
AcDbEntity
  8
0
  6
Continuous
 62
     7
370
    25
100
AcDbPolyline
 90
        9
 70
   128
 43
0.0
 10
2705.0541091852
 20
-111.5853787345
 10
2705.0541085316
 20
-111.5277345758
 10
2705.0541079031
 20
-111.3570173321
 10
2705.0541073239
 20
-111.0797875715
 10
2705.0541068163
 20
-110.7066990781
 10
2705.0541063996
 20
-110.2520894336
 10
2705.05410609
 20
-109.7334290316
 10
2705.0541058994
 20
-109.1706497006
 10
2705.054105835
 20
-108.5853787345
  0
LINE
  5
34A
330
1F
100
AcDbEntity
  8
0
  6
Continuous
 62
     7
370
    25
100
AcDbLine
 10
2705.0541091852
 20
-111.5853787345
 30
0.0
 11
2719.4036837258
 21
-111.5853787345
 31
0.0
  0
LINE
  5
34B
330
1F
100
AcDbEntity
  8
0
  6
Continuous
 62
     7
370
    25
100
AcDbLine
 10
2731.4036837258
 20
-111.5853787345
 30
0.0
 11
2743.2485393601
 21
-111.5853787345
 31
0.0
  0
LINE
  5
34C
330
1F
100
AcDbEntity
  8
0
  6
Continuous
 62
     7
370
    25
100
AcDbLine
 10
2763.9036837258
 20
-96.5853787345
 30
0.0
 11
2743.2485393601
 21
-96.5853787345
 31
0.0
  0
LINE
  5
34D
330
1F
100
AcDbEntity
  8
0
  6
Continuous
 62
     7
370
    25
100
AcDbLine
 10
2743.2485393601
 20
-111.5853787345
 30
0.0
 11
2763.9036837258
 21
-111.5853787345
 31
0.0
  0
LINE
  5
34E
330
1F
100
AcDbEntity
  8
0
  6
Continuous
 62
     7
370
    25
100
AcDbLine
 10
2689.4274566426
 20
-99.5853787345
 30
0.0
 11
2705.054105835
 21
-99.5853787345
 31
0.0
  0
LWPOLYLINE
  5
34F
330
1F
100
AcDbEntity
  8
0
  6
Continuous
 62
     7
370
    25
100
AcDbPolyline
 90
        7
 70
   128
 43
0.0
 10
2689.4274566426
 20
-99.5853787345
 10
2689.5323708552
 20
-98.5923755693
 10
2689.8352993611
 20
-97.7113260543
 10
2690.3021322233
 20
-97.0415531887
 10
2690.880297088
 20
-96.6585653987
 10
2691.2289335279
 20
-96.5869435854
 10
2691.2890692102
 20
-96.5853787345
  0
LINE
  5
350
330
1F
100
AcDbEntity
  8
0
  6
Continuous
 62
     7
370
    25
100
AcDbLine
 10
2705.0541091852
 20
-96.5853787345
 30
0.0
 11
2691.2890692102
 21
-96.5853787345
 31
0.0
  0
LINE
  5
351
330
1F
100
AcDbEntity
  8
0
  6
Continuous
 62
     7
370
    25
100
AcDbLine
 10
2705.054105835
 20
-108.5853787345
 30
0.0
 11
2689.4274566426
 21
-108.5853787345
 31
0.0
  0
LWPOLYLINE
  5
352
330
1F
100
AcDbEntity
  8
0
  6
Continuous
 62
     7
370
    25
100
AcDbPolyline
 90
        7
 70
   128
 43
0.0
 10
2691.2890692102
 20
-111.5853787345
 10
2691.2289335279
 20
-111.5838138837
 10
2690.880297088
 20
-111.5121920704
 10
2690.3021322233
 20
-111.1292042804
 10
2689.8352993611
 20
-110.4594314148
 10
2689.5323708552
 20
-109.5783818998
 10
2689.4274566426
 20
-108.5853787345
  0
LINE
  5
353
330
1F
100
AcDbEntity
  8
0
  6
Continuous
 62
     7
370
    25
100
AcDbLine
 10
2691.2890692102
 20
-111.5853787345
 30
0.0
 11
2705.0541091852
 21
-111.5853787345
 31
0.0
  0
LINE
  5
354
330
1F
100
AcDbEntity
  8
0
  6
Continuous
 62
     7
370
    25
100
AcDbLine
 10
2689.4274566426
 20
-99.5853787345
 30
0.0
 11
2689.4274566426
 21
-108.5853787345
 31
0.0
  0
LINE
  5
355
330
1F
100
AcDbEntity
  8
0
  6
Continuous
 62
     7
370
    25
100
AcDbLine
 10
2689.4274566426
 20
-108.5853787345
 30
0.0
 11
607.2725765372
 21
-108.5853787345
 31
0.0
  0
LWPOLYLINE
  5
356
330
1F
100
AcDbEntity
  8
0
  6
Continuous
 62
     7
370
    25
100
AcDbPolyline
 90
        9
 70
   128
 43
0.0
 10
607.2725765372
 20
-108.5853787345
 10
607.3080658231
 20
-109.1706497006
 10
607.4131698474
 20
-109.7334290316
 10
607.5838495215
 20
-110.2520894336
 10
607.8135457211
 20
-110.7066990781
 10
608.0934313502
 20
-111.0797875715
 10
608.412750561
 20
-111.3570173321
 10
608.7592320952
 20
-111.5277345758
 10
609.1195608618
 20
-111.5853787345
  0
LINE
  5
357
330
1F
100
AcDbEntity
  8
0
  6
Continuous
 62
     7
370
    25
100
AcDbLine
 10
609.1195608618
 20
-111.5853787345
 30
0.0
 11
2691.2890692102
 21
-111.5853787345
 31
0.0
  0
LINE
  5
358
330
1F
100
AcDbEntity
  8
0
  6
Continuous
 62
     7
370
    25
100
AcDbLine
 10
607.2725765372
 20
-99.5853787345
 30
0.0
 11
2689.4274566426
 21
-99.5853787345
 31
0.0
  0
LWPOLYLINE
  5
359
330
1F
100
AcDbEntity
  8
0
  6
Continuous
 62
     7
370
    25
100
AcDbPolyline
 90
        9
 70
   128
 43
0.0
 10
609.1195608618
 20
-96.5853787345
 10
608.7592320952
 20
-96.6430228933
 10
608.412750561
 20
-96.813740137
 10
608.0934313502
 20
-97.0909698976
 10
607.8135457211
 20
-97.464058391
 10
607.5838495215
 20
-97.9186680355
 10
607.4131698474
 20
-98.4373284374
 10
607.3080658231
 20
-99.0001077685
 10
607.2725765372
 20
-99.5853787345
  0
LINE
  5
35A
330
1F
100
AcDbEntity
  8
0
  6
Continuous
 62
     7
370
    25
100
AcDbLine
 10
2691.2890692102
 20
-96.5853787345
 30
0.0
 11
609.1195608618
 21
-96.5853787345
 31
0.0
  0
LINE
  5
35B
330
1F
100
AcDbEntity
  8
0
  6
Continuous
 62
     7
370
    25
100
AcDbLine
 10
679.289562031
 20
-143.2853787345
 30
0.0
 11
692.789562031
 21
-143.2853787345
 31
0.0
  0
LINE
  5
35C
330
1F
100
AcDbEntity
  8
0
  6
Continuous
 62
     7
370
    25
100
AcDbLine
 10
665.789562031
 20
-143.2853787345
 30
0.0
 11
679.289562031
 21
-143.2853787345
 31
0.0
  0
LINE
  5
35D
330
1F
100
AcDbEntity
  8
0
  6
Continuous
 62
     7
370
    25
100
AcDbLine
 10
-1438.1183320194
 20
-128.2853787345
 30
0.0
 11
-1411.1183320194
 21
-128.2853787345
 31
0.0
  0
LINE
  5
35E
330
1F
100
AcDbEntity
  8
0
  6
Continuous
 62
     7
370
    25
100
AcDbLine
 10
-2613.9954544639
 20
-128.2853787345
 30
0.0
 11
-2586.9954544639
 21
-128.2853787345
 31
0.0
  0
LINE
  5
35F
330
1F
100
AcDbEntity
  8
0
  6
Continuous
 62
     7
370
    25
100
AcDbLine
 10
2315.424047123
 20
425.1146212655
 30
0.0
 11
2296.7528855141
 21
425.1146212655
 31
0.0
  0
LINE
  5
360
330
1F
100
AcDbEntity
  8
0
  6
Continuous
 62
     7
370
    25
100
AcDbLine
 10
2288.424047123
 20
-128.2853787345
 30
0.0
 11
2315.424047123
 21
-128.2853787345
 31
0.0
  0
LINE
  5
361
330
1F
100
AcDbEntity
  8
0
  6
Continuous
 62
     7
370
    25
100
AcDbLine
 10
-2586.9954544639
 20
425.1146212655
 30
0.0
 11
-2602.1967303924
 21
425.1146212655
 31
0.0
  0
LINE
  5
362
330
1F
100
AcDbEntity
  8
0
  6
Continuous
 62
     7
370
    25
100
AcDbLine
 10
-1825.1785963685
 20
425.1146212655
 30
0.0
 11
-1843.8497579774
 21
425.1146212655
 31
0.0
  0
LINE
  5
363
330
1F
100
AcDbEntity
  8
0
  6
Continuous
 62
     7
370
    25
100
AcDbLine
 10
-582.9978033211
 20
440.1146212655
 30
0.0
 11
-601.6689649299
 21
440.1146212655
 31
0.0
  0
LINE
  5
364
330
1F
100
AcDbEntity
  8
0
  6
Continuous
 62
     7
370
    25
100
AcDbLine
 10
1460.3035184247
 20
-128.2853787345
 30
0.0
 11
1487.3035184247
 21
-128.2853787345
 31
0.0
  0
LINE
  5
365
330
1F
100
AcDbEntity
  8
0
  6
Continuous
 62
     7
370
    25
100
AcDbLine
 10
-2113.474567199
 20
425.1146212655
 30
0.0
 11
-2132.1457288078
 21
425.1146212655
 31
0.0
  0
LINE
  5
366
330
1F
100
AcDbEntity
  8
0
  6
Continuous
 62
     7
370
    25
100
AcDbLine
 10
2719.4036837258
 20
425.1146212655
 30
0.0
 11
2710.8131498633
 21
425.1146212655
 31
0.0
  0
LINE
  5
367
330
1F
100
AcDbEntity
  8
0
  6
Continuous
 62
     7
370
    25
100
AcDbLine
 10
-1411.1183320194
 20
425.1146212655
 30
0.0
 11
-1429.7894936282
 21
425.1146212655
 31
0.0
  0
LINE
  5
368
330
1F
100
AcDbEntity
  8
0
  6
Continuous
 62
     7
370
    25
100
AcDbLine
 10
-1084.2098744922
 20
440.1146212655
 30
0.0
 11
-1111.2098744922
 21
440.1146212655
 31
0.0
  0
LINE
  5
369
330
1F
100
AcDbEntity
  8
0
  6
Continuous
 62
     7
370
    25
100
AcDbLine
 10
-1107.268507092
 20
423.4146212655
 30
0.0
 11
-1116.2317240676
 21
423.4146212655
 31
0.0
  0
LINE
  5
36A
330
1F
100
AcDbEntity
  8
0
  6
Continuous
 62
     7
370
    25
100
AcDbLine
 10
986.0914472536
 20
440.1146212655
 30
0.0
 11
959.0914472536
 21
440.1146212655
 31
0.0
  0
LINE
  5
36B
330
1F
100
AcDbEntity
  8
0
  6
Continuous
 62
     7
370
    25
100
AcDbLine
 10
969.7505044326
 20
423.4146212655
 30
0.0
 11
957.8577930844
 21
423.4146212655
 31
0.0
  0
LINE
  5
36C
330
1F
100
AcDbEntity
  8
0
  6
Continuous
 62
     7
370
    25
100
AcDbLine
 10
558.5311829045
 20
-143.2853787345
 30
0.0
 11
572.0311829045
 21
-143.2853787345
 31
0.0
  0
LINE
  5
36D
330
1F
100
AcDbEntity
  8
0
  6
Continuous
 62
     7
370
    25
100
AcDbLine
 10
545.0311829045
 20
-143.2853787345
 30
0.0
 11
558.5311829045
 21
-143.2853787345
 31
0.0
  0
LINE
  5
36E
330
1F
100
AcDbEntity
  8
0
  6
Continuous
 62
     7
370
    25
100
AcDbLine
 10
540.009333329
 20
-126.5853787345
 30
0.0
 11
548.9725503046
 21
-126.5853787345
 31
0.0
  0
LINE
  5
36F
330
1F
100
AcDbEntity
  8
0
  6
Continuous
 62
     7
370
    25
100
AcDbLine
 10
-609.9978033211
 20
-143.2853787345
 30
0.0
 11
-582.9978033211
 21
-143.2853787345
 31
0.0
  0
LINE
  5
370
330
1F
100
AcDbEntity
  8
0
  6
Continuous
 62
     7
370
    25
100
AcDbLine
 10
-698.3832643122
 20
-126.5853787345
 30
0.0
 11
-686.490552964
 21
-126.5853787345
 31
0.0
  0
LINE
  5
371
330
1F
100
AcDbEntity
  8
0
  6
Continuous
 62
     7
370
    25
100
AcDbLine
 10
-683.649610143
 20
-143.2853787345
 30
0.0
 11
-670.149610143
 21
-143.2853787345
 31
0.0
  0
LINE
  5
372
330
1F
100
AcDbEntity
  8
0
  6
Continuous
 62
     7
370
    25
100
AcDbLine
 10
-697.149610143
 20
-143.2853787345
 30
0.0
 11
-683.649610143
 21
-143.2853787345
 31
0.0
  0
LINE
  5
373
330
1F
100
AcDbEntity
  8
0
  6
Continuous
 62
     7
370
    25
100
AcDbLine
 10
938.984874949
 20
-143.2853787345
 30
0.0
 11
952.484874949
 21
-143.2853787345
 31
0.0
  0
LINE
  5
374
330
1F
100
AcDbEntity
  8
0
  6
Continuous
 62
     7
370
    25
100
AcDbLine
 10
925.484874949
 20
-143.2853787345
 30
0.0
 11
938.984874949
 21
-143.2853787345
 31
0.0
  0
LINE
  5
375
330
1F
100
AcDbEntity
  8
0
  6
Continuous
 62
     7
370
    25
100
AcDbLine
 10
1073.2432540755
 20
440.1146212655
 30
0.0
 11
1054.5720924667
 21
440.1146212655
 31
0.0
  0
LINE
  5
376
330
1F
100
AcDbEntity
  8
0
  6
Continuous
 62
     7
370
    25
100
AcDbLine
 10
-2539.6741560846
 20
-128.2853787345
 30
0.0
 11
-2512.6741560846
 21
-128.2853787345
 31
0.0
  0
LINE
  5
377
330
1F
100
AcDbEntity
  8
0
  6
Continuous
 62
     7
370
    25
100
AcDbLine
 10
-168.9375389719
 20
425.1146212655
 30
0.0
 11
-187.6087005808
 21
425.1146212655
 31
0.0
  0
LINE
  5
378
330
1F
100
AcDbEntity
  8
0
  6
Continuous
 62
     7
370
    25
100
AcDbLine
 10
1487.3035184247
 20
425.1146212655
 30
0.0
 11
1468.6323568158
 21
425.1146212655
 31
0.0
  0
LINE
  5
379
330
1F
100
AcDbEntity
  8
0
  6
Continuous
 62
     7
370
    25
100
AcDbLine
 10
1046.2432540755
 20
-143.2853787345
 30
0.0
 11
1073.2432540755
 21
-143.2853787345
 31
0.0
  0
LINE
  5
37A
330
1F
100
AcDbEntity
  8
0
  6
Continuous
 62
     7
370
    25
100
AcDbLine
 10
2702.4843114721
 20
-128.2853787345
 30
0.0
 11
2719.4036837258
 21
-128.2853787345
 31
0.0
  0
LINE
  5
37B
330
1F
100
AcDbEntity
  8
0
  6
Continuous
 62
     7
370
    25
100
AcDbLine
 10
891.805574749
 20
-143.2853787345
 30
0.0
 11
905.305574749
 21
-143.2853787345
 31
0.0
  0
LINE
  5
37C
330
1F
100
AcDbEntity
  8
0
  6
Continuous
 62
     7
370
    25
100
AcDbLine
 10
878.305574749
 20
-143.2853787345
 30
0.0
 11
891.805574749
 21
-143.2853787345
 31
0.0
  0
LINE
  5
37D
330
1F
100
AcDbEntity
  8
0
  6
Continuous
 62
     7
370
    25
100
AcDbLine
 10
952.484874949
 20
440.1146212655
 30
0.0
 11
925.484874949
 21
440.1146212655
 31
0.0
  0
LINE
  5
37E
330
1F
100
AcDbEntity
  8
0
  6
Continuous
 62
     7
370
    25
100
AcDbLine
 10
-1852.1785963685
 20
-128.2853787345
 30
0.0
 11
-1825.1785963685
 21
-128.2853787345
 31
0.0
  0
LINE
  5
37F
330
1F
100
AcDbEntity
  8
0
  6
Continuous
 62
     7
370
    25
100
AcDbLine
 10
739.968862231
 20
440.1146212655
 30
0.0
 11
712.968862231
 21
440.1146212655
 31
0.0
  0
LINE
  5
380
330
1F
100
AcDbEntity
  8
0
  6
Continuous
 62
     7
370
    25
100
AcDbLine
 10
726.468862231
 20
-143.2853787345
 30
0.0
 11
739.968862231
 21
-143.2853787345
 31
0.0
  0
LINE
  5
381
330
1F
100
AcDbEntity
  8
0
  6
Continuous
 62
     7
370
    25
100
AcDbLine
 10
712.968862231
 20
-143.2853787345
 30
0.0
 11
726.468862231
 21
-143.2853787345
 31
0.0
  0
LINE
  5
382
330
1F
100
AcDbEntity
  8
0
  6
Continuous
 62
     7
370
    25
100
AcDbLine
 10
659.1829897264
 20
440.1146212655
 30
0.0
 11
640.5118281175
 21
440.1146212655
 31
0.0
  0
LINE
  5
383
330
1F
100
AcDbEntity
  8
0
  6
Continuous
 62
     7
370
    25
100
AcDbLine
 10
692.789562031
 20
440.1146212655
 30
0.0
 11
665.789562031
 21
440.1146212655
 31
0.0
  0
LINE
  5
384
330
1F
100
AcDbEntity
  8
0
  6
Continuous
 62
     7
370
    25
100
AcDbLine
 10
572.0311829045
 20
440.1146212655
 30
0.0
 11
545.0311829045
 21
440.1146212655
 31
0.0
  0
LINE
  5
385
330
1F
100
AcDbEntity
  8
0
  6
Continuous
 62
     7
370
    25
100
AcDbLine
 10
548.9725503046
 20
423.4146212655
 30
0.0
 11
540.009333329
 21
423.4146212655
 31
0.0
  0
LINE
  5
386
330
1F
100
AcDbEntity
  8
0
  6
Continuous
 62
     7
370
    25
100
AcDbLine
 10
-963.4514953656
 20
440.1146212655
 30
0.0
 11
-990.4514953656
 21
440.1146212655
 31
0.0
  0
LINE
  5
387
330
1F
100
AcDbEntity
  8
0
  6
Continuous
 62
     7
370
    25
100
AcDbLine
 10
632.1829897264
 20
-143.2853787345
 30
0.0
 11
659.1829897264
 21
-143.2853787345
 31
0.0
  0
LINE
  5
388
330
1F
100
AcDbEntity
  8
0
  6
Continuous
 62
     7
370
    25
100
AcDbLine
 10
905.305574749
 20
440.1146212655
 30
0.0
 11
878.305574749
 21
440.1146212655
 31
0.0
  0
LINE
  5
389
330
1F
100
AcDbEntity
  8
0
  6
Continuous
 62
     7
370
    25
100
AcDbLine
 10
-2340.067953109
 20
-128.2853787345
 30
0.0
 11
-2313.067953109
 21
-128.2853787345
 31
0.0
  0
LINE
  5
38A
330
1F
100
AcDbEntity
  8
0
  6
Continuous
 62
     7
370
    25
100
AcDbLine
 10
-916.2721951656
 20
440.1146212655
 30
0.0
 11
-943.2721951656
 21
440.1146212655
 31
0.0
  0
LINE
  5
38B
330
1F
100
AcDbEntity
  8
0
  6
Continuous
 62
     7
370
    25
100
AcDbLine
 10
1874.3637827738
 20
-128.2853787345
 30
0.0
 11
1901.3637827738
 21
-128.2853787345
 31
0.0
  0
LINE
  5
38C
330
1F
100
AcDbEntity
  8
0
  6
Continuous
 62
     7
370
    25
100
AcDbLine
 10
-2140.474567199
 20
-128.2853787345
 30
0.0
 11
-2113.474567199
 21
-128.2853787345
 31
0.0
  0
LINE
  5
38D
330
1F
100
AcDbEntity
  8
0
  6
Continuous
 62
     7
370
    25
100
AcDbLine
 10
-2512.6741560846
 20
425.1146212655
 30
0.0
 11
-2531.3453176934
 21
425.1146212655
 31
0.0
  0
LINE
  5
38E
330
1F
100
AcDbEntity
  8
0
  6
Continuous
 62
     7
370
    25
100
AcDbLine
 10
-929.7721951656
 20
-143.2853787345
 30
0.0
 11
-916.2721951656
 21
-143.2853787345
 31
0.0
  0
LINE
  5
38F
330
1F
100
AcDbEntity
  8
0
  6
Continuous
 62
     7
370
    25
100
AcDbLine
 10
-943.2721951656
 20
-143.2853787345
 30
0.0
 11
-929.7721951656
 21
-143.2853787345
 31
0.0
  0
LINE
  5
390
330
1F
100
AcDbEntity
  8
0
  6
Continuous
 62
     7
370
    25
100
AcDbLine
 10
-997.0580676702
 20
440.1146212655
 30
0.0
 11
-1015.7292292791
 21
440.1146212655
 31
0.0
  0
LINE
  5
391
330
1F
100
AcDbEntity
  8
0
  6
Continuous
 62
     7
370
    25
100
AcDbLine
 10
-195.9375389719
 20
-128.2853787345
 30
0.0
 11
-168.9375389719
 21
-128.2853787345
 31
0.0
  0
LINE
  5
392
330
1F
100
AcDbEntity
  8
0
  6
Continuous
 62
     7
370
    25
100
AcDbLine
 10
-2313.067953109
 20
425.1146212655
 30
0.0
 11
-2331.7391147179
 21
425.1146212655
 31
0.0
  0
LINE
  5
393
330
1F
100
AcDbEntity
  8
0
  6
Continuous
 62
     7
370
    25
100
AcDbLine
 10
-1116.2317240676
 20
-126.5853787345
 30
0.0
 11
-1107.268507092
 21
-126.5853787345
 31
0.0
  0
LINE
  5
394
330
1F
100
AcDbEntity
  8
0
  6
Continuous
 62
     7
370
    25
100
AcDbLine
 10
-1097.7098744922
 20
-143.2853787345
 30
0.0
 11
-1084.2098744922
 21
-143.2853787345
 31
0.0
  0
LINE
  5
395
330
1F
100
AcDbEntity
  8
0
  6
Continuous
 62
     7
370
    25
100
AcDbLine
 10
-1111.2098744922
 20
-143.2853787345
 30
0.0
 11
-1097.7098744922
 21
-143.2853787345
 31
0.0
  0
LINE
  5
396
330
1F
100
AcDbEntity
  8
0
  6
Continuous
 62
     7
370
    25
100
AcDbLine
 10
-1024.0580676702
 20
-143.2853787345
 30
0.0
 11
-997.0580676702
 21
-143.2853787345
 31
0.0
  0
LINE
  5
397
330
1F
100
AcDbEntity
  8
0
  6
Continuous
 62
     7
370
    25
100
AcDbLine
 10
-976.9514953656
 20
-143.2853787345
 30
0.0
 11
-963.4514953656
 21
-143.2853787345
 31
0.0
  0
LINE
  5
398
330
1F
100
AcDbEntity
  8
0
  6
Continuous
 62
     7
370
    25
100
AcDbLine
 10
-990.4514953656
 20
-143.2853787345
 30
0.0
 11
-976.9514953656
 21
-143.2853787345
 31
0.0
  0
LINE
  5
399
330
1F
100
AcDbEntity
  8
0
  6
Continuous
 62
     7
370
    25
100
AcDbLine
 10
-703.7561824476
 20
440.1146212655
 30
0.0
 11
-730.7561824476
 21
440.1146212655
 31
0.0
  0
LINE
  5
39A
330
1F
100
AcDbEntity
  8
0
  6
Continuous
 62
     7
370
    25
100
AcDbLine
 10
-764.4354826476
 20
-143.2853787345
 30
0.0
 11
-750.9354826476
 21
-143.2853787345
 31
0.0
  0
LINE
  5
39B
330
1F
100
AcDbEntity
  8
0
  6
Continuous
 62
     7
370
    25
100
AcDbLine
 10
-777.9354826476
 20
-143.2853787345
 30
0.0
 11
-764.4354826476
 21
-143.2853787345
 31
0.0
  0
LINE
  5
39C
330
1F
100
AcDbEntity
  8
0
  6
Continuous
 62
     7
370
    25
100
AcDbLine
 10
245.1227253772
 20
425.1146212655
 30
0.0
 11
226.4515637684
 21
425.1146212655
 31
0.0
  0
LINE
  5
39D
330
1F
100
AcDbEntity
  8
0
  6
Continuous
 62
     7
370
    25
100
AcDbLine
 10
-750.9354826476
 20
440.1146212655
 30
0.0
 11
-777.9354826476
 21
440.1146212655
 31
0.0
  0
LINE
  5
39E
330
1F
100
AcDbEntity
  8
0
  6
Continuous
 62
     7
370
    25
100
AcDbLine
 10
957.8577930844
 20
-126.5853787345
 30
0.0
 11
969.7505044326
 21
-126.5853787345
 31
0.0
  0
LINE
  5
39F
330
1F
100
AcDbEntity
  8
0
  6
Continuous
 62
     7
370
    25
100
AcDbLine
 10
972.5914472536
 20
-143.2853787345
 30
0.0
 11
986.0914472536
 21
-143.2853787345
 31
0.0
  0
LINE
  5
3A0
330
1F
100
AcDbEntity
  8
0
  6
Continuous
 62
     7
370
    25
100
AcDbLine
 10
959.0914472536
 20
-143.2853787345
 30
0.0
 11
972.5914472536
 21
-143.2853787345
 31
0.0
  0
LINE
  5
3A1
330
1F
100
AcDbEntity
  8
0
  6
Continuous
 62
     7
370
    25
100
AcDbLine
 10
-686.490552964
 20
423.4146212655
 30
0.0
 11
-698.3832643122
 21
423.4146212655
 31
0.0
  0
LINE
  5
3A2
330
1F
100
AcDbEntity
  8
0
  6
Continuous
 62
     7
370
    25
100
AcDbLine
 10
-670.149610143
 20
440.1146212655
 30
0.0
 11
-697.149610143
 21
440.1146212655
 31
0.0
  0
LINE
  5
3A3
330
1F
100
AcDbEntity
  8
0
  6
Continuous
 62
     7
370
    25
100
AcDbLine
 10
218.1227253772
 20
-128.2853787345
 30
0.0
 11
245.1227253772
 21
-128.2853787345
 31
0.0
  0
LINE
  5
3A4
330
1F
100
AcDbEntity
  8
0
  6
Continuous
 62
     7
370
    25
100
AcDbLine
 10
1901.3637827738
 20
425.1146212655
 30
0.0
 11
1882.692621165
 21
425.1146212655
 31
0.0
  0
LINE
  5
3A5
330
1F
100
AcDbEntity
  8
0
  6
Continuous
 62
     7
370
    25
100
AcDbLine
 10
-717.2561824476
 20
-143.2853787345
 30
0.0
 11
-703.7561824476
 21
-143.2853787345
 31
0.0
  0
LINE
  5
3A6
330
1F
100
AcDbEntity
  8
0
  6
Continuous
 62
     7
370
    25
100
AcDbLine
 10
-730.7561824476
 20
-143.2853787345
 30
0.0
 11
-717.2561824476
 21
-143.2853787345
 31
0.0
  0
LINE
  5
3A7
330
1F
100
AcDbEntity
  8
0
  6
Continuous
 62
     7
370
    25
100
AcDbLine
 10
-1892.3813337822
 20
396.4146212655
 30
0.0
 11
-1892.3813337822
 21
405.4146212655
 31
0.0
  0
LINE
  5
3A8
330
1F
100
AcDbEntity
  8
0
  6
Continuous
 62
     7
370
    25
100
AcDbLine
 10
-1048.968206563
 20
405.4146212655
 30
0.0
 11
-1892.3813337822
 21
405.4146212655
 31
0.0
  0
LINE
  5
3A9
330
1F
100
AcDbEntity
  8
0
  6
Continuous
 62
     7
370
    25
100
AcDbLine
 10
-1048.968206563
 20
396.4146212655
 30
0.0
 11
-1048.968206563
 21
405.4146212655
 31
0.0
  0
LINE
  5
3AA
330
1F
100
AcDbEntity
  8
0
  6
Continuous
 62
     7
370
    25
100
AcDbLine
 10
-1892.3813337822
 20
396.4146212655
 30
0.0
 11
-1048.968206563
 21
396.4146212655
 31
0.0
  0
LWPOLYLINE
  5
3AB
330
1F
100
AcDbEntity
  8
0
  6
Continuous
 62
     7
370
    25
100
AcDbPolyline
 90
        9
 70
   128
 43
0.0
 10
-1892.3813337822
 20
396.4146212655
 10
-1892.3458450818
 20
395.8293502994
 10
-1892.2407414925
 20
395.2665709684
 10
-1892.0700620863
 20
394.7479105664
 10
-1891.8403659772
 20
394.2933009219
 10
-1891.5604802576
 20
393.9202124286
 10
-1891.241160779
 20
393.6429826679
 10
-1890.8946788097
 20
393.4722654243
 10
-1890.5343494576
 20
393.4146212655
  0
LWPOLYLINE
  5
3AC
330
1F
100
AcDbEntity
  8
0
  6
Continuous
 62
     7
370
    25
100
AcDbPolyline
 90
        9
 70
   128
 43
0.0
 10
-1047.1212222384
 20
393.4146212655
 10
-1047.481551005
 20
393.4722654242
 10
-1047.8280325393
 20
393.6429826679
 10
-1048.14735175
 20
393.9202124285
 10
-1048.4272373791
 20
394.2933009219
 10
-1048.6569335787
 20
394.7479105664
 10
-1048.8276132528
 20
395.2665709684
 10
-1048.9327172771
 20
395.8293502994
 10
-1048.968206563
 20
396.4146212655
  0
LINE
  5
3AD
330
1F
100
AcDbEntity
  8
0
  6
Continuous
 62
     7
370
    25
100
AcDbLine
 10
-1047.1212222384
 20
393.4146212655
 30
0.0
 11
-1890.5343494576
 21
393.4146212655
 31
0.0
  0
LWPOLYLINE
  5
3AE
330
1F
100
AcDbEntity
  8
0
  6
Continuous
 62
     7
370
    25
100
AcDbPolyline
 90
        9
 70
   128
 43
0.0
 10
-1890.5343494576
 20
408.4146212655
 10
-1890.8946782242
 20
408.3569771067
 10
-1891.2411597585
 20
408.186259863
 10
-1891.5604789692
 20
407.9090301024
 10
-1891.8403645983
 20
407.535941609
 10
-1892.0700607979
 20
407.0813319645
 10
-1892.240740472
 20
406.5626715626
 10
-1892.3458444963
 20
405.9998922315
 10
-1892.3813337822
 20
405.4146212655
  0
LWPOLYLINE
  5
3AF
330
1F
100
AcDbEntity
  8
0
  6
Continuous
 62
     7
370
    25
100
AcDbPolyline
 90
        9
 70
   128
 43
0.0
 10
-1048.968206563
 20
405.4146212655
 10
-1048.9327172771
 20
405.9998922315
 10
-1048.8276132528
 20
406.5626715626
 10
-1048.6569335787
 20
407.0813319645
 10
-1048.4272373791
 20
407.535941609
 10
-1048.14735175
 20
407.9090301024
 10
-1047.8280325393
 20
408.186259863
 10
-1047.481551005
 20
408.3569771067
 10
-1047.1212222384
 20
408.4146212655
  0
LINE
  5
3B0
330
1F
100
AcDbEntity
  8
0
  6
Continuous
 62
     7
370
    25
100
AcDbLine
 10
-1890.5343494576
 20
408.4146212655
 30
0.0
 11
-1047.1212222384
 21
408.4146212655
 31
0.0
  0
LINE
  5
3B1
330
1F
100
AcDbEntity
  8
0
  6
Continuous
 62
     7
370
    25
100
AcDbLine
 10
-1892.3813337822
 20
405.4146212655
 30
0.0
 11
-2209.4394542717
 21
405.4146212655
 31
0.0
  0
LINE
  5
3B2
330
1F
100
AcDbEntity
  8
0
  6
Continuous
 62
     7
370
    25
100
AcDbLine
 10
-2209.4394542717
 20
396.4146212655
 30
0.0
 11
-1892.3813337822
 21
396.4146212655
 31
0.0
  0
LINE
  5
3B3
330
1F
100
AcDbEntity
  8
0
  6
Continuous
 62
     7
370
    25
100
AcDbLine
 10
-2209.4394542717
 20
396.4146212655
 30
0.0
 11
-2209.4394542717
 21
405.4146212655
 31
0.0
  0
LWPOLYLINE
  5
3B4
330
1F
100
AcDbEntity
  8
0
  6
Continuous
 62
     7
370
    25
100
AcDbPolyline
 90
        9
 70
   128
 43
0.0
 10
-2208.5370290427
 20
408.4146212655
 10
-2208.7130834712
 20
408.3569771067
 10
-2208.8823722268
 20
408.186259863
 10
-2209.0383896375
 20
407.9090301024
 10
-2209.1751400417
 20
407.535941609
 10
-2209.287368198
 20
407.0813319645
 10
-2209.3707612414
 20
406.5626715626
 10
-2209.422114424
 20
405.9998922315
 10
-2209.4394542717
 20
405.4146212655
  0
LINE
  5
3B5
330
1F
100
AcDbEntity
  8
0
  6
Continuous
 62
     7
370
    25
100
AcDbLine
 10
-2208.5370290427
 20
408.4146212655
 30
0.0
 11
-1890.5343494576
 21
408.4146212655
 31
0.0
  0
LWPOLYLINE
  5
3B6
330
1F
100
AcDbEntity
  8
0
  6
Continuous
 62
     7
370
    25
100
AcDbPolyline
 90
        9
 70
   128
 43
0.0
 10
-2209.4394542717
 20
396.4146212655
 10
-2209.4221144251
 20
395.8293502994
 10
-2209.3707612433
 20
395.2665709684
 10
-2209.2873682004
 20
394.7479105664
 10
-2209.1751400442
 20
394.2933009219
 10
-2209.0383896399
 20
393.9202124285
 10
-2208.8823722287
 20
393.6429826679
 10
-2208.7130834723
 20
393.4722654242
 10
-2208.5370290427
 20
393.4146212655
  0
LINE
  5
3B7
330
1F
100
AcDbEntity
  8
0
  6
Continuous
 62
     7
370
    25
100
AcDbLine
 10
-1890.5343494576
 20
393.4146212655
 30
0.0
 11
-2208.5370290427
 21
393.4146212655
 31
0.0
  0
LINE
  5
3B8
330
1F
100
AcDbEntity
  8
0
  6
Continuous
 62
     7
370
    25
100
AcDbLine
 10
-2620.8545407795
 20
396.4146212655
 30
0.0
 11
-2209.4394542717
 21
396.4146212655
 31
0.0
  0
LWPOLYLINE
  5
3B9
330
1F
100
AcDbEntity
  8
0
  6
Continuous
 62
     7
370
    25
100
AcDbPolyline
 90
        9
 70
   128
 43
0.0
 10
-2620.8545407795
 20
396.4146212655
 10
-2620.8372009431
 20
395.8293502994
 10
-2620.7858477686
 20
395.2665709684
 10
-2620.7024547298
 20
394.7479105664
 10
-2620.5902265745
 20
394.2933009219
 10
-2620.4534761676
 20
393.9202124285
 10
-2620.2974587506
 20
393.6429826679
 10
-2620.1281699854
 20
393.4722654242
 10
-2619.9521155442
 20
393.4146212655
  0
LINE
  5
3BA
330
1F
100
AcDbEntity
  8
0
  6
Continuous
 62
     7
370
    25
100
AcDbLine
 10
-2208.5370290427
 20
393.4146212655
 30
0.0
 11
-2619.9521155442
 21
393.4146212655
 31
0.0
  0
LINE
  5
3BB
330
1F
100
AcDbEntity
  8
0
  6
Continuous
 62
     7
370
    25
100
AcDbLine
 10
-2209.4394542717
 20
405.4146212655
 30
0.0
 11
-2620.8545407795
 21
405.4146212655
 31
0.0
  0
LINE
  5
3BC
330
1F
100
AcDbEntity
  8
0
  6
Continuous
 62
     7
370
    25
100
AcDbLine
 10
-2620.8545407795
 20
396.4146212655
 30
0.0
 11
-2620.8545407795
 21
405.4146212655
 31
0.0
  0
LWPOLYLINE
  5
3BD
330
1F
100
AcDbEntity
  8
0
  6
Continuous
 62
     7
370
    25
100
AcDbPolyline
 90
        9
 70
   128
 43
0.0
 10
-2619.9521155442
 20
408.4146212655
 10
-2620.128169974
 20
408.3569771067
 10
-2620.2974587307
 20
408.186259863
 10
-2620.4534761425
 20
407.9090301024
 10
-2620.5902265476
 20
407.535941609
 10
-2620.7024547047
 20
407.0813319645
 10
-2620.7858477487
 20
406.5626715626
 10
-2620.8372009316
 20
405.9998922315
 10
-2620.8545407795
 20
405.4146212655
  0
LINE
  5
3BE
330
1F
100
AcDbEntity
  8
0
  6
Continuous
 62
     7
370
    25
100
AcDbLine
 10
-2619.9521155442
 20
408.4146212655
 30
0.0
 11
-2208.5370290427
 21
408.4146212655
 31
0.0
  0
LINE
  5
3BF
330
1F
100
AcDbEntity
  8
0
  6
Continuous
 62
     7
370
    25
100
AcDbLine
 10
-2620.8545407795
 20
405.4146212655
 30
0.0
 11
-2625.3481087082
 21
405.4146212655
 31
0.0
  0
LWPOLYLINE
  5
3C0
330
1F
100
AcDbEntity
  8
0
  6
Continuous
 62
     7
370
    25
100
AcDbPolyline
 90
        9
 70
   128
 43
0.0
 10
-2623.8595658544
 20
408.4146212655
 10
-2624.1499661591
 20
408.3569771067
 10
-2624.4292065429
 20
408.186259863
 10
-2624.6865559545
 20
407.9090301024
 10
-2624.9121246004
 20
407.535941609
 10
-2625.0972440039
 20
407.0813319645
 10
-2625.2348001303
 20
406.5626715626
 10
-2625.3195067746
 20
405.9998922315
 10
-2625.3481087082
 20
405.4146212655
  0
LINE
  5
3C1
330
1F
100
AcDbEntity
  8
0
  6
Continuous
 62
     7
370
    25
100
AcDbLine
 10
-2623.8595658544
 20
408.4146212655
 30
0.0
 11
-2619.9521155442
 21
408.4146212655
 31
0.0
  0
LINE
  5
3C2
330
1F
100
AcDbEntity
  8
0
  6
Continuous
 62
     7
370
    25
100
AcDbLine
 10
-2625.3481087082
 20
396.4146212655
 30
0.0
 11
-2620.8545407795
 21
396.4146212655
 31
0.0
  0
LWPOLYLINE
  5
3C3
330
1F
100
AcDbEntity
  8
0
  6
Continuous
 62
     7
370
    25
100
AcDbPolyline
 90
        9
 70
   128
 43
0.0
 10
-2625.3481087082
 20
396.4146212655
 10
-2625.3195067727
 20
395.8293502994
 10
-2625.2348001269
 20
395.2665709684
 10
-2625.0972439997
 20
394.7479105664
 10
-2624.9121245958
 20
394.2933009219
 10
-2624.6865559503
 20
393.9202124285
 10
-2624.4292065395
 20
393.6429826679
 10
-2624.1499661572
 20
393.4722654242
 10
-2623.8595658544
 20
393.4146212655
  0
LINE
  5
3C4
330
1F
100
AcDbEntity
  8
0
  6
Continuous
 62
     7
370
    25
100
AcDbLine
 10
-2619.9521155442
 20
393.4146212655
 30
0.0
 11
-2623.8595658544
 21
393.4146212655
 31
0.0
  0
LINE
  5
3C5
330
1F
100
AcDbEntity
  8
0
  6
Continuous
 62
     7
370
    25
100
AcDbLine
 10
-2625.3481087082
 20
396.4146212655
 30
0.0
 11
-2625.3481087082
 21
405.4146212655
 31
0.0
  0
LINE
  5
3C6
330
1F
100
AcDbEntity
  8
0
  6
Continuous
 62
     7
370
    25
100
AcDbLine
 10
-2623.8595658544
 20
393.4146212655
 30
0.0
 11
-2670.564994268
 21
393.4146212655
 31
0.0
  0
LINE
  5
3C7
330
1F
100
AcDbEntity
  8
0
  6
Continuous
 62
     7
370
    25
100
AcDbLine
 10
-2670.564994268
 20
408.4146212655
 30
0.0
 11
-2623.8595658544
 21
408.4146212655
 31
0.0
  0
LWPOLYLINE
  5
3C8
330
1F
100
AcDbEntity
  8
0
  6
Continuous
 62
     7
370
    25
100
AcDbPolyline
 90
        9
 70
   128
 43
0.0
 10
948.2685232133
 20
-114.5853787345
 10
948.3040124992
 20
-114.0001077685
 10
948.4091165235
 20
-113.4373284374
 10
948.5797961976
 20
-112.9186680355
 10
948.8094923972
 20
-112.464058391
 10
949.0893780263
 20
-112.0909698976
 10
949.4086972371
 20
-111.813740137
 10
949.7551787713
 20
-111.6430228933
 10
950.1155075379
 20
-111.5853787345
  0
LINE
  5
3C9
330
1F
100
AcDbEntity
  8
0
  6
Continuous
 62
     7
370
    25
100
AcDbLine
 10
948.2685232133
 20
-114.5853787345
 30
0.0
 11
948.2685232133
 21
-123.5853787345
 31
0.0
  0
LINE
  5
3CA
330
1F
100
AcDbEntity
  8
0
  6
Continuous
 62
     7
370
    25
100
AcDbLine
 10
1097.1386380646
 20
-126.5853787345
 30
0.0
 11
969.7505044326
 21
-126.5853787345
 31
0.0
  0
LINE
  5
3CB
330
1F
100
AcDbEntity
  8
0
  6
Continuous
 62
     7
370
    25
100
AcDbLine
 10
957.8577930844
 20
-126.5853787345
 30
0.0
 11
950.1155075379
 21
-126.5853787345
 31
0.0
  0
LWPOLYLINE
  5
3CC
330
1F
100
AcDbEntity
  8
0
  6
Continuous
 62
     7
370
    25
100
AcDbPolyline
 90
        9
 70
   128
 43
0.0
 10
950.1155075379
 20
-126.5853787345
 10
949.7551787713
 20
-126.5277345758
 10
949.4086972371
 20
-126.3570173321
 10
949.0893780263
 20
-126.0797875714
 10
948.8094923972
 20
-125.7066990781
 10
948.5797961976
 20
-125.2520894336
 10
948.4091165235
 20
-124.7334290316
 10
948.3040124992
 20
-124.1706497006
 10
948.2685232133
 20
-123.5853787345
  0
LINE
  5
3CD
330
1F
100
AcDbEntity
  8
0
  6
Continuous
 62
     7
370
    25
100
AcDbLine
 10
554.263133215
 20
-123.5853787345
 30
0.0
 11
948.2685232133
 21
-123.5853787345
 31
0.0
  0
LINE
  5
3CE
330
1F
100
AcDbEntity
  8
0
  6
Continuous
 62
     7
370
    25
100
AcDbLine
 10
554.263133215
 20
-114.5853787345
 30
0.0
 11
554.263133215
 21
-123.5853787345
 31
0.0
  0
LINE
  5
3CF
330
1F
100
AcDbEntity
  8
0
  6
Continuous
 62
     7
370
    25
100
AcDbLine
 10
948.2685232133
 20
-114.5853787345
 30
0.0
 11
554.263133215
 21
-114.5853787345
 31
0.0
  0
LWPOLYLINE
  5
3D0
330
1F
100
AcDbEntity
  8
0
  6
Continuous
 62
     7
370
    25
100
AcDbPolyline
 90
        9
 70
   128
 43
0.0
 10
556.1101175397
 20
-126.5853787345
 10
555.749788773
 20
-126.5277345758
 10
555.4033072388
 20
-126.3570173321
 10
555.0839880281
 20
-126.0797875715
 10
554.804102399
 20
-125.7066990781
 10
554.5744061993
 20
-125.2520894336
 10
554.4037265253
 20
-124.7334290316
 10
554.2986225009
 20
-124.1706497006
 10
554.263133215
 20
-123.5853787345
  0
LINE
  5
3D1
330
1F
100
AcDbEntity
  8
0
  6
Continuous
 62
     7
370
    25
100
AcDbLine
 10
950.1155075379
 20
-126.5853787345
 30
0.0
 11
556.1101175397
 21
-126.5853787345
 31
0.0
  0
LWPOLYLINE
  5
3D2
330
1F
100
AcDbEntity
  8
0
  6
Continuous
 62
     7
370
    25
100
AcDbPolyline
 90
        9
 70
   128
 43
0.0
 10
554.263133215
 20
-114.5853787345
 10
554.2986225009
 20
-114.0001077685
 10
554.4037265253
 20
-113.4373284374
 10
554.5744061993
 20
-112.9186680355
 10
554.804102399
 20
-112.464058391
 10
555.0839880281
 20
-112.0909698976
 10
555.4033072388
 20
-111.813740137
 10
555.749788773
 20
-111.6430228933
 10
556.1101175397
 20
-111.5853787345
  0
LINE
  5
3D3
330
1F
100
AcDbEntity
  8
0
  6
Continuous
 62
     7
370
    25
100
AcDbLine
 10
556.1101175397
 20
-111.5853787345
 30
0.0
 11
950.1155075379
 21
-111.5853787345
 31
0.0
  0
LINE
  5
3D4
330
1F
100
AcDbEntity
  8
0
  6
Continuous
 62
     7
370
    25
100
AcDbLine
 10
556.1101175397
 20
-126.5853787345
 30
0.0
 11
548.9725503046
 21
-126.5853787345
 31
0.0
  0
LINE
  5
3D5
330
1F
100
AcDbEntity
  8
0
  6
Continuous
 62
     7
370
    25
100
AcDbLine
 10
540.009333329
 20
-126.5853787345
 30
0.0
 11
521.1357989154
 21
-126.5853787345
 31
0.0
  0
LINE
  5
3D6
330
1F
100
AcDbEntity
  8
0
  6
Continuous
 62
     7
370
    25
100
AcDbLine
 10
950.1155075379
 20
423.4146212655
 30
0.0
 11
957.8577930844
 21
423.4146212655
 31
0.0
  0
LINE
  5
3D7
330
1F
100
AcDbEntity
  8
0
  6
Continuous
 62
     7
370
    25
100
AcDbLine
 10
969.7505044326
 20
423.4146212655
 30
0.0
 11
1097.1386380646
 21
423.4146212655
 31
0.0
  0
LWPOLYLINE
  5
3D8
330
1F
100
AcDbEntity
  8
0
  6
Continuous
 62
     7
370
    25
100
AcDbPolyline
 90
        9
 70
   128
 43
0.0
 10
948.2685232133
 20
420.4146212655
 10
948.3040124992
 20
420.9998922315
 10
948.4091165235
 20
421.5626715626
 10
948.5797961976
 20
422.0813319645
 10
948.8094923972
 20
422.535941609
 10
949.0893780263
 20
422.9090301024
 10
949.4086972371
 20
423.186259863
 10
949.7551787713
 20
423.3569771067
 10
950.1155075379
 20
423.4146212655
  0
LINE
  5
3D9
330
1F
100
AcDbEntity
  8
0
  6
Continuous
 62
     7
370
    25
100
AcDbLine
 10
948.2685232133
 20
420.4146212655
 30
0.0
 11
948.2685232133
 21
411.4146212655
 31
0.0
  0
LWPOLYLINE
  5
3DA
330
1F
100
AcDbEntity
  8
0
  6
Continuous
 62
     7
370
    25
100
AcDbPolyline
 90
        9
 70
   128
 43
0.0
 10
950.1155075379
 20
408.4146212655
 10
949.7551787713
 20
408.4722654242
 10
949.4086972371
 20
408.6429826679
 10
949.0893780263
 20
408.9202124285
 10
948.8094923972
 20
409.2933009219
 10
948.5797961976
 20
409.7479105664
 10
948.4091165235
 20
410.2665709684
 10
948.3040124992
 20
410.8293502994
 10
948.2685232133
 20
411.4146212655
  0
LINE
  5
3DB
330
1F
100
AcDbEntity
  8
0
  6
Continuous
 62
     7
370
    25
100
AcDbLine
 10
554.263133215
 20
411.4146212655
 30
0.0
 11
948.2685232133
 21
411.4146212655
 31
0.0
  0
LINE
  5
3DC
330
1F
100
AcDbEntity
  8
0
  6
Continuous
 62
     7
370
    25
100
AcDbLine
 10
554.263133215
 20
420.4146212655
 30
0.0
 11
554.263133215
 21
411.4146212655
 31
0.0
  0
LINE
  5
3DD
330
1F
100
AcDbEntity
  8
0
  6
Continuous
 62
     7
370
    25
100
AcDbLine
 10
948.2685232133
 20
420.4146212655
 30
0.0
 11
554.263133215
 21
420.4146212655
 31
0.0
  0
LWPOLYLINE
  5
3DE
330
1F
100
AcDbEntity
  8
0
  6
Continuous
 62
     7
370
    25
100
AcDbPolyline
 90
        9
 70
   128
 43
0.0
 10
556.1101175397
 20
408.4146212655
 10
555.749788773
 20
408.4722654242
 10
555.4033072388
 20
408.6429826679
 10
555.0839880281
 20
408.9202124285
 10
554.804102399
 20
409.2933009219
 10
554.5744061993
 20
409.7479105664
 10
554.4037265253
 20
410.2665709684
 10
554.2986225009
 20
410.8293502994
 10
554.263133215
 20
411.4146212655
  0
LINE
  5
3DF
330
1F
100
AcDbEntity
  8
0
  6
Continuous
 62
     7
370
    25
100
AcDbLine
 10
950.1155075379
 20
408.4146212655
 30
0.0
 11
556.1101175397
 21
408.4146212655
 31
0.0
  0
LWPOLYLINE
  5
3E0
330
1F
100
AcDbEntity
  8
0
  6
Continuous
 62
     7
370
    25
100
AcDbPolyline
 90
        9
 70
   128
 43
0.0
 10
554.263133215
 20
420.4146212655
 10
554.2986225009
 20
420.9998922315
 10
554.4037265253
 20
421.5626715626
 10
554.5744061993
 20
422.0813319645
 10
554.804102399
 20
422.535941609
 10
555.0839880281
 20
422.9090301024
 10
555.4033072388
 20
423.186259863
 10
555.749788773
 20
423.3569771067
 10
556.1101175397
 20
423.4146212655
  0
LINE
  5
3E1
330
1F
100
AcDbEntity
  8
0
  6
Continuous
 62
     7
370
    25
100
AcDbLine
 10
556.1101175397
 20
423.4146212655
 30
0.0
 11
950.1155075379
 21
423.4146212655
 31
0.0
  0
LINE
  5
3E2
330
1F
100
AcDbEntity
  8
0
  6
Continuous
 62
     7
370
    25
100
AcDbLine
 10
521.1357989154
 20
423.4146212655
 30
0.0
 11
540.009333329
 21
423.4146212655
 31
0.0
  0
LINE
  5
3E3
330
1F
100
AcDbEntity
  8
0
  6
Continuous
 62
     7
370
    25
100
AcDbLine
 10
548.9725503046
 20
423.4146212655
 30
0.0
 11
556.1101175397
 21
423.4146212655
 31
0.0
  0
LINE
  5
3E4
330
1F
100
AcDbEntity
  8
0
  6
Continuous
 62
     7
370
    25
100
AcDbLine
 10
-559.1024193321
 20
-126.5853787345
 30
0.0
 11
-686.490552964
 21
-126.5853787345
 31
0.0
  0
LINE
  5
3E5
330
1F
100
AcDbEntity
  8
0
  6
Continuous
 62
     7
370
    25
100
AcDbLine
 10
-698.3832643122
 20
-126.5853787345
 30
0.0
 11
-706.1255498587
 21
-126.5853787345
 31
0.0
  0
LWPOLYLINE
  5
3E6
330
1F
100
AcDbEntity
  8
0
  6
Continuous
 62
     7
370
    25
100
AcDbPolyline
 90
        9
 70
   128
 43
0.0
 10
-706.1255498587
 20
-126.5853787345
 10
-706.4858786253
 20
-126.5277345758
 10
-706.8323601596
 20
-126.3570173321
 10
-707.1516793703
 20
-126.0797875715
 10
-707.4315649994
 20
-125.7066990781
 10
-707.661261199
 20
-125.2520894336
 10
-707.8319408731
 20
-124.7334290316
 10
-707.9370448974
 20
-124.1706497006
 10
-707.9725341833
 20
-123.5853787345
  0
LINE
  5
3E7
330
1F
100
AcDbEntity
  8
0
  6
Continuous
 62
     7
370
    25
100
AcDbLine
 10
-707.9725341833
 20
-114.5853787345
 30
0.0
 11
-707.9725341833
 21
-123.5853787345
 31
0.0
  0
LWPOLYLINE
  5
3E8
330
1F
100
AcDbEntity
  8
0
  6
Continuous
 62
     7
370
    25
100
AcDbPolyline
 90
        9
 70
   128
 43
0.0
 10
-707.9725341833
 20
-114.5853787345
 10
-707.9370448974
 20
-114.0001077685
 10
-707.8319408731
 20
-113.4373284374
 10
-707.661261199
 20
-112.9186680355
 10
-707.4315649994
 20
-112.464058391
 10
-707.1516793703
 20
-112.0909698976
 10
-706.8323601596
 20
-111.813740137
 10
-706.4858786253
 20
-111.6430228933
 10
-706.1255498587
 20
-111.5853787345
  0
LWPOLYLINE
  5
3E9
330
1F
100
AcDbEntity
  8
0
  6
Continuous
 62
     7
370
    25
100
AcDbPolyline
 90
        9
 70
   128
 43
0.0
 10
-1100.1309398569
 20
-126.5853787345
 10
-1100.4912686236
 20
-126.5277345758
 10
-1100.8377501578
 20
-126.3570173321
 10
-1101.1570693686
 20
-126.0797875715
 10
-1101.4369549976
 20
-125.7066990781
 10
-1101.6666511973
 20
-125.2520894336
 10
-1101.8373308713
 20
-124.7334290316
 10
-1101.9424348957
 20
-124.1706497006
 10
-1101.9779241816
 20
-123.5853787345
  0
LINE
  5
3EA
330
1F
100
AcDbEntity
  8
0
  6
Continuous
 62
     7
370
    25
100
AcDbLine
 10
-1101.9779241816
 20
-123.5853787345
 30
0.0
 11
-707.9725341833
 21
-123.5853787345
 31
0.0
  0
LINE
  5
3EB
330
1F
100
AcDbEntity
  8
0
  6
Continuous
 62
     7
370
    25
100
AcDbLine
 10
-706.1255498587
 20
-126.5853787345
 30
0.0
 11
-1100.1309398569
 21
-126.5853787345
 31
0.0
  0
LINE
  5
3EC
330
1F
100
AcDbEntity
  8
0
  6
Continuous
 62
     7
370
    25
100
AcDbLine
 10
-1101.9779241816
 20
-114.5853787345
 30
0.0
 11
-1101.9779241816
 21
-123.5853787345
 31
0.0
  0
LINE
  5
3ED
330
1F
100
AcDbEntity
  8
0
  6
Continuous
 62
     7
370
    25
100
AcDbLine
 10
-707.9725341833
 20
-114.5853787345
 30
0.0
 11
-1101.9779241816
 21
-114.5853787345
 31
0.0
  0
LWPOLYLINE
  5
3EE
330
1F
100
AcDbEntity
  8
0
  6
Continuous
 62
     7
370
    25
100
AcDbPolyline
 90
        9
 70
   128
 43
0.0
 10
-1101.9779241816
 20
-114.5853787345
 10
-1101.9424348957
 20
-114.0001077685
 10
-1101.8373308713
 20
-113.4373284374
 10
-1101.6666511973
 20
-112.9186680355
 10
-1101.4369549976
 20
-112.464058391
 10
-1101.1570693686
 20
-112.0909698976
 10
-1100.8377501578
 20
-111.813740137
 10
-1100.4912686236
 20
-111.6430228933
 10
-1100.1309398569
 20
-111.5853787345
  0
LINE
  5
3EF
330
1F
100
AcDbEntity
  8
0
  6
Continuous
 62
     7
370
    25
100
AcDbLine
 10
-1100.1309398569
 20
-111.5853787345
 30
0.0
 11
-706.1255498587
 21
-111.5853787345
 31
0.0
  0
LINE
  5
3F0
330
1F
100
AcDbEntity
  8
0
  6
Continuous
 62
     7
370
    25
100
AcDbLine
 10
-1100.1309398569
 20
-126.5853787345
 30
0.0
 11
-1107.268507092
 21
-126.5853787345
 31
0.0
  0
LINE
  5
3F1
330
1F
100
AcDbEntity
  8
0
  6
Continuous
 62
     7
370
    25
100
AcDbLine
 10
-1116.2317240676
 20
-126.5853787345
 30
0.0
 11
-1135.1052584812
 21
-126.5853787345
 31
0.0
  0
LINE
  5
3F2
330
1F
100
AcDbEntity
  8
0
  6
Continuous
 62
     7
370
    25
100
AcDbLine
 10
-707.9725341833
 20
420.4146212655
 30
0.0
 11
-707.9725341833
 21
411.4146212655
 31
0.0
  0
LWPOLYLINE
  5
3F3
330
1F
100
AcDbEntity
  8
0
  6
Continuous
 62
     7
370
    25
100
AcDbPolyline
 90
        9
 70
   128
 43
0.0
 10
-706.1255498587
 20
408.4146212655
 10
-706.4858786253
 20
408.4722654242
 10
-706.8323601596
 20
408.6429826679
 10
-707.1516793703
 20
408.9202124285
 10
-707.4315649994
 20
409.2933009219
 10
-707.661261199
 20
409.7479105664
 10
-707.8319408731
 20
410.2665709684
 10
-707.9370448974
 20
410.8293502994
 10
-707.9725341833
 20
411.4146212655
  0
LINE
  5
3F4
330
1F
100
AcDbEntity
  8
0
  6
Continuous
 62
     7
370
    25
100
AcDbLine
 10
-706.1255498587
 20
423.4146212655
 30
0.0
 11
-698.3832643122
 21
423.4146212655
 31
0.0
  0
LINE
  5
3F5
330
1F
100
AcDbEntity
  8
0
  6
Continuous
 62
     7
370
    25
100
AcDbLine
 10
-686.490552964
 20
423.4146212655
 30
0.0
 11
-559.1024193321
 21
423.4146212655
 31
0.0
  0
LWPOLYLINE
  5
3F6
330
1F
100
AcDbEntity
  8
0
  6
Continuous
 62
     7
370
    25
100
AcDbPolyline
 90
        9
 70
   128
 43
0.0
 10
-707.9725341833
 20
420.4146212655
 10
-707.9370448974
 20
420.9998922315
 10
-707.8319408731
 20
421.5626715626
 10
-707.661261199
 20
422.0813319645
 10
-707.4315649994
 20
422.535941609
 10
-707.1516793703
 20
422.9090301024
 10
-706.8323601596
 20
423.186259863
 10
-706.4858786253
 20
423.3569771067
 10
-706.1255498587
 20
423.4146212655
  0
LINE
  5
3F7
330
1F
100
AcDbEntity
  8
0
  6
Continuous
 62
     7
370
    25
100
AcDbLine
 10
-1101.9779241816
 20
411.4146212655
 30
0.0
 11
-707.9725341833
 21
411.4146212655
 31
0.0
  0
LINE
  5
3F8
330
1F
100
AcDbEntity
  8
0
  6
Continuous
 62
     7
370
    25
100
AcDbLine
 10
-1101.9779241816
 20
420.4146212655
 30
0.0
 11
-1101.9779241816
 21
411.4146212655
 31
0.0
  0
LINE
  5
3F9
330
1F
100
AcDbEntity
  8
0
  6
Continuous
 62
     7
370
    25
100
AcDbLine
 10
-707.9725341833
 20
420.4146212655
 30
0.0
 11
-1101.9779241816
 21
420.4146212655
 31
0.0
  0
LWPOLYLINE
  5
3FA
330
1F
100
AcDbEntity
  8
0
  6
Continuous
 62
     7
370
    25
100
AcDbPolyline
 90
        9
 70
   128
 43
0.0
 10
-1100.1309398569
 20
408.4146212655
 10
-1100.4912686236
 20
408.4722654242
 10
-1100.8377501578
 20
408.6429826679
 10
-1101.1570693686
 20
408.9202124285
 10
-1101.4369549976
 20
409.2933009219
 10
-1101.6666511973
 20
409.7479105664
 10
-1101.8373308713
 20
410.2665709684
 10
-1101.9424348957
 20
410.8293502994
 10
-1101.9779241816
 20
411.4146212655
  0
LINE
  5
3FB
330
1F
100
AcDbEntity
  8
0
  6
Continuous
 62
     7
370
    25
100
AcDbLine
 10
-706.1255498587
 20
408.4146212655
 30
0.0
 11
-1100.1309398569
 21
408.4146212655
 31
0.0
  0
LWPOLYLINE
  5
3FC
330
1F
100
AcDbEntity
  8
0
  6
Continuous
 62
     7
370
    25
100
AcDbPolyline
 90
        9
 70
   128
 43
0.0
 10
-1101.9779241816
 20
420.4146212655
 10
-1101.9424348957
 20
420.9998922315
 10
-1101.8373308713
 20
421.5626715626
 10
-1101.6666511973
 20
422.0813319645
 10
-1101.4369549976
 20
422.535941609
 10
-1101.1570693686
 20
422.9090301024
 10
-1100.8377501578
 20
423.186259863
 10
-1100.4912686236
 20
423.3569771067
 10
-1100.1309398569
 20
423.4146212655
  0
LINE
  5
3FD
330
1F
100
AcDbEntity
  8
0
  6
Continuous
 62
     7
370
    25
100
AcDbLine
 10
-1100.1309398569
 20
423.4146212655
 30
0.0
 11
-706.1255498587
 21
423.4146212655
 31
0.0
  0
LINE
  5
3FE
330
1F
100
AcDbEntity
  8
0
  6
Continuous
 62
     7
370
    25
100
AcDbLine
 10
-1135.1052584812
 20
423.4146212655
 30
0.0
 11
-1116.2317240676
 21
423.4146212655
 31
0.0
  0
LINE
  5
3FF
330
1F
100
AcDbEntity
  8
0
  6
Continuous
 62
     7
370
    25
100
AcDbLine
 10
-1107.268507092
 20
423.4146212655
 30
0.0
 11
-1100.1309398569
 21
423.4146212655
 31
0.0
  0
LWPOLYLINE
  5
400
330
1F
100
AcDbEntity
  8
0
  6
Continuous
 62
     7
370
    25
100
AcDbPolyline
 90
        9
 70
   128
 43
0.0
 10
607.2725765372
 20
405.4146212655
 10
607.3080658231
 20
405.9998922315
 10
607.4131698475
 20
406.5626715626
 10
607.5838495215
 20
407.0813319645
 10
607.8135457212
 20
407.535941609
 10
608.0934313502
 20
407.9090301024
 10
608.412750561
 20
408.186259863
 10
608.7592320952
 20
408.3569771067
 10
609.1195608619
 20
408.4146212655
  0
LINE
  5
401
330
1F
100
AcDbEntity
  8
0
  6
Continuous
 62
     7
370
    25
100
AcDbLine
 10
607.2725765372
 20
405.4146212655
 30
0.0
 11
-1048.968206563
 21
405.4146212655
 31
0.0
  0
LWPOLYLINE
  5
402
330
1F
100
AcDbEntity
  8
0
  6
Continuous
 62
     7
370
    25
100
AcDbPolyline
 90
        9
 70
   128
 43
0.0
 10
-1048.968206563
 20
405.4146212655
 10
-1048.9327172771
 20
405.9998922315
 10
-1048.8276132528
 20
406.5626715626
 10
-1048.6569335787
 20
407.0813319645
 10
-1048.4272373791
 20
407.535941609
 10
-1048.14735175
 20
407.9090301024
 10
-1047.8280325393
 20
408.186259863
 10
-1047.481551005
 20
408.3569771067
 10
-1047.1212222384
 20
408.4146212655
  0
LINE
  5
403
330
1F
100
AcDbEntity
  8
0
  6
Continuous
 62
     7
370
    25
100
AcDbLine
 10
-1047.1212222384
 20
408.4146212655
 30
0.0
 11
609.1195608619
 21
408.4146212655
 31
0.0
  0
LINE
  5
404
330
1F
100
AcDbEntity
  8
0
  6
Continuous
 62
     7
370
    25
100
AcDbLine
 10
-1048.968206563
 20
396.4146212655
 30
0.0
 11
607.2725765372
 21
396.4146212655
 31
0.0
  0
LWPOLYLINE
  5
405
330
1F
100
AcDbEntity
  8
0
  6
Continuous
 62
     7
370
    25
100
AcDbPolyline
 90
        9
 70
   128
 43
0.0
 10
609.1195608619
 20
393.4146212655
 10
608.7592320952
 20
393.4722654242
 10
608.412750561
 20
393.6429826679
 10
608.0934313502
 20
393.9202124285
 10
607.8135457212
 20
394.2933009219
 10
607.5838495215
 20
394.7479105664
 10
607.4131698475
 20
395.2665709684
 10
607.3080658231
 20
395.8293502994
 10
607.2725765372
 20
396.4146212655
  0
LWPOLYLINE
  5
406
330
1F
100
AcDbEntity
  8
0
  6
Continuous
 62
     7
370
    25
100
AcDbPolyline
 90
        9
 70
   128
 43
0.0
 10
-1047.1212222384
 20
393.4146212655
 10
-1047.481551005
 20
393.4722654242
 10
-1047.8280325393
 20
393.6429826679
 10
-1048.14735175
 20
393.9202124285
 10
-1048.4272373791
 20
394.2933009219
 10
-1048.6569335787
 20
394.7479105664
 10
-1048.8276132528
 20
395.2665709684
 10
-1048.9327172771
 20
395.8293502994
 10
-1048.968206563
 20
396.4146212655
  0
LINE
  5
407
330
1F
100
AcDbEntity
  8
0
  6
Continuous
 62
     7
370
    25
100
AcDbLine
 10
609.1195608619
 20
393.4146212655
 30
0.0
 11
-1047.1212222384
 21
393.4146212655
 31
0.0
  0
LINE
  5
408
330
1F
100
AcDbEntity
  8
0
  6
Continuous
 62
     7
370
    25
100
AcDbLine
 10
607.2725765372
 20
396.4146212655
 30
0.0
 11
607.2725765372
 21
405.4146212655
 31
0.0
  0
LWPOLYLINE
  5
409
330
1F
100
AcDbEntity
  8
0
  6
Continuous
 62
     7
370
    25
100
AcDbPolyline
 90
        9
 70
   128
 43
0.0
 10
2743.2485393601
 20
408.4146212655
 10
2743.2485386904
 20
408.3569771067
 10
2743.2485380464
 20
408.186259863
 10
2743.248537453
 20
407.9090301024
 10
2743.2485369328
 20
407.535941609
 10
2743.2485365059
 20
407.0813319645
 10
2743.2485361887
 20
406.5626715626
 10
2743.2485359934
 20
405.9998922315
 10
2743.2485359274
 20
405.4146212655
  0
LWPOLYLINE
  5
40A
330
1F
100
AcDbEntity
  8
0
  6
Continuous
 62
     7
370
    25
100
AcDbPolyline
 90
        9
 70
   128
 43
0.0
 10
2705.0541091852
 20
408.4146212655
 10
2705.0541085316
 20
408.3569771067
 10
2705.0541079031
 20
408.186259863
 10
2705.0541073239
 20
407.9090301024
 10
2705.0541068163
 20
407.535941609
 10
2705.0541063996
 20
407.0813319645
 10
2705.05410609
 20
406.5626715626
 10
2705.0541058994
 20
405.9998922315
 10
2705.054105835
 20
405.4146212655
  0
LINE
  5
40B
330
1F
100
AcDbEntity
  8
0
  6
Continuous
 62
     7
370
    25
100
AcDbLine
 10
2705.0541091852
 20
408.4146212655
 30
0.0
 11
2719.4036837258
 21
408.4146212655
 31
0.0
  0
LINE
  5
40C
330
1F
100
AcDbEntity
  8
0
  6
Continuous
 62
     7
370
    25
100
AcDbLine
 10
2731.4036837258
 20
408.4146212655
 30
0.0
 11
2743.2485393601
 21
408.4146212655
 31
0.0
  0
LWPOLYLINE
  5
40D
330
1F
100
AcDbEntity
  8
0
  6
Continuous
 62
     7
370
    25
100
AcDbPolyline
 90
        9
 70
   128
 43
0.0
 10
2743.2485359274
 20
396.4146212655
 10
2743.2485360079
 20
395.8293502994
 10
2743.248536214
 20
395.2665709684
 10
2743.2485365379
 20
394.7479105664
 10
2743.248536967
 20
394.2933009219
 10
2743.2485374849
 20
393.9202124286
 10
2743.2485380717
 20
393.6429826679
 10
2743.2485387049
 20
393.4722654242
 10
2743.2485393601
 20
393.4146212655
  0
LWPOLYLINE
  5
40E
330
1F
100
AcDbEntity
  8
0
  6
Continuous
 62
     7
370
    25
100
AcDbPolyline
 90
        9
 70
   128
 43
0.0
 10
2705.054105835
 20
396.4146212655
 10
2705.0541059015
 20
395.8293502994
 10
2705.0541060937
 20
395.2665709684
 10
2705.0541064043
 20
394.7479105664
 10
2705.0541068213
 20
394.2933009219
 10
2705.0541073286
 20
393.9202124286
 10
2705.0541079068
 20
393.6429826679
 10
2705.0541085337
 20
393.4722654242
 10
2705.0541091852
 20
393.4146212655
  0
LINE
  5
40F
330
1F
100
AcDbEntity
  8
0
  6
Continuous
 62
     7
370
    25
100
AcDbLine
 10
2743.2485393601
 20
393.4146212655
 30
0.0
 11
2728.4036837258
 21
393.4146212655
 31
0.0
  0
LINE
  5
410
330
1F
100
AcDbEntity
  8
0
  6
Continuous
 62
     7
370
    25
100
AcDbLine
 10
2722.4036837258
 20
393.4146212655
 30
0.0
 11
2705.0541091852
 21
393.4146212655
 31
0.0
  0
LINE
  5
411
330
1F
100
AcDbEntity
  8
0
  6
Continuous
 62
     7
370
    25
100
AcDbLine
 10
2705.054105835
 20
396.4146212655
 30
0.0
 11
2705.054105835
 21
405.4146212655
 31
0.0
  0
LINE
  5
412
330
1F
100
AcDbEntity
  8
0
  6
Continuous
 62
     7
370
    25
100
AcDbLine
 10
2743.2485359274
 20
396.4146212655
 30
0.0
 11
2743.2485359274
 21
405.4146212655
 31
0.0
  0
LINE
  5
413
330
1F
100
AcDbEntity
  8
0
  6
Continuous
 62
     7
370
    25
100
AcDbLine
 10
2743.2485393601
 20
408.4146212655
 30
0.0
 11
2763.9036837258
 21
408.4146212655
 31
0.0
  0
LINE
  5
414
330
1F
100
AcDbEntity
  8
0
  6
Continuous
 62
     7
370
    25
100
AcDbLine
 10
2763.9036837258
 20
393.4146212655
 30
0.0
 11
2743.2485393601
 21
393.4146212655
 31
0.0
  0
LINE
  5
415
330
1F
100
AcDbEntity
  8
0
  6
Continuous
 62
     7
370
    25
100
AcDbLine
 10
2705.054105835
 20
405.4146212655
 30
0.0
 11
2689.4274566426
 21
405.4146212655
 31
0.0
  0
LWPOLYLINE
  5
416
330
1F
100
AcDbEntity
  8
0
  6
Continuous
 62
     7
370
    25
100
AcDbPolyline
 90
        7
 70
   128
 43
0.0
 10
2691.2890692102
 20
408.4146212655
 10
2691.2289335279
 20
408.4130564146
 10
2690.880297088
 20
408.3414346013
 10
2690.3021322233
 20
407.9584468113
 10
2689.8352993611
 20
407.2886739457
 10
2689.5323708552
 20
406.4076244307
 10
2689.4274566426
 20
405.4146212655
  0
LINE
  5
417
330
1F
100
AcDbEntity
  8
0
  6
Continuous
 62
     7
370
    25
100
AcDbLine
 10
2691.2890692102
 20
408.4146212655
 30
0.0
 11
2705.0541091852
 21
408.4146212655
 31
0.0
  0
LINE
  5
418
330
1F
100
AcDbEntity
  8
0
  6
Continuous
 62
     7
370
    25
100
AcDbLine
 10
2689.4274566426
 20
396.4146212655
 30
0.0
 11
2705.054105835
 21
396.4146212655
 31
0.0
  0
LWPOLYLINE
  5
419
330
1F
100
AcDbEntity
  8
0
  6
Continuous
 62
     7
370
    25
100
AcDbPolyline
 90
        7
 70
   128
 43
0.0
 10
2689.4274566426
 20
396.4146212655
 10
2689.5323708552
 20
395.4216181002
 10
2689.8352993611
 20
394.5405685852
 10
2690.3021322233
 20
393.8707957196
 10
2690.880297088
 20
393.4878079296
 10
2691.2289335279
 20
393.4161861163
 10
2691.2890692102
 20
393.4146212655
  0
LINE
  5
41A
330
1F
100
AcDbEntity
  8
0
  6
Continuous
 62
     7
370
    25
100
AcDbLine
 10
2705.0541091852
 20
393.4146212655
 30
0.0
 11
2691.2890692102
 21
393.4146212655
 31
0.0
  0
LINE
  5
41B
330
1F
100
AcDbEntity
  8
0
  6
Continuous
 62
     7
370
    25
100
AcDbLine
 10
2689.4274566426
 20
396.4146212655
 30
0.0
 11
2689.4274566426
 21
405.4146212655
 31
0.0
  0
LINE
  5
41C
330
1F
100
AcDbEntity
  8
0
  6
Continuous
 62
     7
370
    25
100
AcDbLine
 10
2689.4274566426
 20
405.4146212655
 30
0.0
 11
607.2725765372
 21
405.4146212655
 31
0.0
  0
LWPOLYLINE
  5
41D
330
1F
100
AcDbEntity
  8
0
  6
Continuous
 62
     7
370
    25
100
AcDbPolyline
 90
        9
 70
   128
 43
0.0
 10
607.2725765372
 20
405.4146212655
 10
607.3080658231
 20
405.9998922315
 10
607.4131698474
 20
406.5626715626
 10
607.5838495215
 20
407.0813319645
 10
607.8135457211
 20
407.535941609
 10
608.0934313502
 20
407.9090301024
 10
608.412750561
 20
408.186259863
 10
608.7592320952
 20
408.3569771067
 10
609.1195608618
 20
408.4146212655
  0
LINE
  5
41E
330
1F
100
AcDbEntity
  8
0
  6
Continuous
 62
     7
370
    25
100
AcDbLine
 10
609.1195608618
 20
408.4146212655
 30
0.0
 11
2691.2890692102
 21
408.4146212655
 31
0.0
  0
LINE
  5
41F
330
1F
100
AcDbEntity
  8
0
  6
Continuous
 62
     7
370
    25
100
AcDbLine
 10
607.2725765372
 20
396.4146212655
 30
0.0
 11
2689.4274566426
 21
396.4146212655
 31
0.0
  0
LWPOLYLINE
  5
420
330
1F
100
AcDbEntity
  8
0
  6
Continuous
 62
     7
370
    25
100
AcDbPolyline
 90
        9
 70
   128
 43
0.0
 10
609.1195608618
 20
393.4146212655
 10
608.7592320952
 20
393.4722654242
 10
608.412750561
 20
393.6429826679
 10
608.0934313502
 20
393.9202124285
 10
607.8135457211
 20
394.2933009219
 10
607.5838495215
 20
394.7479105664
 10
607.4131698474
 20
395.2665709684
 10
607.3080658231
 20
395.8293502994
 10
607.2725765372
 20
396.4146212655
  0
LINE
  5
421
330
1F
100
AcDbEntity
  8
0
  6
Continuous
 62
     7
370
    25
100
AcDbLine
 10
2691.2890692102
 20
393.4146212655
 30
0.0
 11
609.1195608618
 21
393.4146212655
 31
0.0
  0
ARC
  5
422
330
1F
100
AcDbEntity
  8
0
  6
Continuous
 62
     7
370
    25
100
AcDbCircle
 10
2877.366293323
 20
437.0032698809
 30
0.0
 40
85.2851012404081
100
AcDbArc
 50
175.9825746409
 51
180.014045381
  0
LWPOLYLINE
  5
423
330
1F
100
AcDbEntity
  8
0
  6
Continuous
 62
     7
370
    25
100
AcDbPolyline
 90
       17
 70
   128
 43
0.0
 10
2793.4911448819
 20
439.8569280539
 10
2793.479680048
 20
439.5583806799
 10
2793.4689834977
 20
439.3171806023
 10
2793.4606836839
 20
439.1700483466
 10
2793.456044178
 20
439.1393834649
 10
2793.4557713027
 20
439.2298544074
 10
2793.4599066008
 20
439.4276877933
 10
2793.4678205106
 20
439.7027652829
 10
2793.4783082111
 20
440.0132088221
 10
2793.489773045
 20
440.3117561961
 10
2793.5004695953
 20
440.5529562737
 10
2793.5087694091
 20
440.7000885294
 10
2793.513408915
 20
440.7307534111
 10
2793.5136817903
 20
440.6402824686
 10
2793.5095464923
 20
440.4424490827
 10
2793.5016325824
 20
440.167371593
 10
2793.4911448819
 20
439.8569280539
  0
ARC
  5
424
330
1F
100
AcDbEntity
  8
0
  6
Continuous
 62
     7
370
    25
100
AcDbCircle
 10
2855.6006469805
 20
-140.2501485
 30
0.0
 40
63.51946925575898
100
AcDbArc
 50
179.9125178456
 51
182.8823308498
  0
ARC
  5
425
330
1F
100
AcDbEntity
  8
0
  6
Continuous
 62
     7
370
    25
100
AcDbCircle
 10
2843.1995595404
 20
-142.3665885587
 30
0.0
 40
51.04939956138159
100
AcDbArc
 50
181.2095816522
 51
184.2494719912
  0
LWPOLYLINE
  5
426
330
1F
100
AcDbEntity
  8
0
  6
Continuous
 62
     7
370
    25
100
AcDbPolyline
 90
       17
 70
   128
 43
0.0
 10
2793.4783082111
 20
-143.1839662912
 10
2793.4678205106
 20
-142.873522752
 10
2793.4599066008
 20
-142.5984452624
 10
2793.4557713027
 20
-142.4006118765
 10
2793.456044178
 20
-142.310140934
 10
2793.4606836839
 20
-142.3408058157
 10
2793.4689834977
 20
-142.4879380714
 10
2793.479680048
 20
-142.7291381489
 10
2793.4911448819
 20
-143.027685523
 10
2793.5016325824
 20
-143.3381290621
 10
2793.5095464923
 20
-143.6132065518
 10
2793.5136817903
 20
-143.8110399377
 10
2793.513408915
 20
-143.9015108802
 10
2793.5087694091
 20
-143.8708459985
 10
2793.5004695953
 20
-143.7237137428
 10
2793.489773045
 20
-143.4825136652
 10
2793.4783082111
 20
-143.1839662912
  0
ELLIPSE
  5
427
330
1F
100
AcDbEntity
  8
0
  6
Continuous
 62
     7
370
    25
100
AcDbEllipse
 10
2790.5971865663
 20
-182.5853787345
 30
0.0
 11
5.011479535987291
 21
0.08705103151996241
 31
0.0
210
0.0
220
0.0
230
1.0
 40
0.0172806402
 41
0.0012098505570131
 42
1.564409980805167
  0
LINE
  5
428
330
1F
100
AcDbEntity
  8
0
  6
Continuous
 62
     7
370
    25
100
AcDbLine
 10
2795.6086606146
 20
-182.4982229918
 30
0.0
 11
2796.184962067
 21
-189.0853787345
 31
0.0
  0
LINE
  5
429
330
1F
100
AcDbEntity
  8
0
  6
Continuous
 62
     7
370
    25
100
AcDbLine
 10
2756.6224053846
 20
-189.0853787345
 30
0.0
 11
2757.198706837
 21
-182.4982229918
 31
0.0
  0
ELLIPSE
  5
42A
330
1F
100
AcDbEntity
  8
0
  6
Continuous
 62
     7
370
    25
100
AcDbEllipse
 10
2762.2101808852
 20
-182.5853787345
 30
0.0
 11
5.011479535986837
 21
-0.08705103151996241
 31
0.0
210
0.0
220
0.0
230
1.0
 40
0.0172806402
 41
1.577182672784718
 42
3.140382803032882
  0
LINE
  5
42B
330
1F
100
AcDbEntity
  8
0
  6
Continuous
 62
     7
370
    25
100
AcDbLine
 10
2790.6276871241
 20
-182.4982229918
 30
0.0
 11
2762.1796803274
 21
-182.4982229918
 31
0.0
  0
LINE
  5
42C
330
1F
100
AcDbEntity
  8
0
  6
Continuous
 62
     7
370
    25
100
AcDbLine
 10
2790.6276871241
 20
-181.5853787345
 30
0.0
 11
2794.6124659165
 21
-181.5853787345
 31
0.0
  0
ARC
  5
42D
330
1F
100
AcDbEntity
  8
0
  6
Continuous
 62
     7
370
    25
100
AcDbCircle
 10
2794.6124659165
 20
-182.5853787345
 30
0.0
 40
1.000000000000293
100
AcDbArc
 50
5.0
 51
90.0
  0
LINE
  5
42E
330
1F
100
AcDbEntity
  8
0
  6
Continuous
 62
     7
370
    25
100
AcDbLine
 10
2790.6276871241
 20
-181.5853787345
 30
0.0
 11
2790.6276871241
 21
-182.4982229918
 31
0.0
  0
LINE
  5
42F
330
1F
100
AcDbEntity
  8
0
  6
Continuous
 62
     7
370
    25
100
AcDbLine
 10
2762.1796803274
 20
-181.5853787345
 30
0.0
 11
2790.6276871241
 21
-181.5853787345
 31
0.0
  0
LINE
  5
430
330
1F
100
AcDbEntity
  8
0
  6
Continuous
 62
     7
370
    25
100
AcDbLine
 10
2762.1796803274
 20
-181.5853787345
 30
0.0
 11
2762.1796803274
 21
-182.4982229918
 31
0.0
  0
LINE
  5
431
330
1F
100
AcDbEntity
  8
0
  6
Continuous
 62
     7
370
    25
100
AcDbLine
 10
2758.194901535
 20
-181.5853787345
 30
0.0
 11
2762.1796803274
 21
-181.5853787345
 31
0.0
  0
ARC
  5
432
330
1F
100
AcDbEntity
  8
0
  6
Continuous
 62
     7
370
    25
100
AcDbCircle
 10
2758.194901535
 20
-182.5853787345
 30
0.0
 40
1.0
100
AcDbArc
 50
90.0
 51
175.0
  0
ARC
  5
433
330
1F
100
AcDbEntity
  8
0
  6
Continuous
 62
     7
370
    25
100
AcDbCircle
 10
2805.6247922958
 20
-142.6856935662
 30
0.0
 40
13.56612915147114
100
AcDbArc
 50
175.3894439639
 51
187.6111969523
  0
LINE
  5
434
330
1F
100
AcDbEntity
  8
0
  6
Continuous
 62
     7
370
    25
100
AcDbLine
 10
2762.0601391494
 20
-129.5853787345
 30
0.0
 11
2790.7472283021
 21
-129.5853787345
 31
0.0
  0
LINE
  5
435
330
1F
100
AcDbEntity
  8
0
  6
Continuous
 62
     7
370
    25
100
AcDbLine
 10
2762.1796803274
 20
479.3274655227
 30
0.0
 11
2790.6276871241
 21
479.3274655227
 31
0.0
  0
ELLIPSE
  5
436
330
1F
100
AcDbEntity
  8
0
  6
Continuous
 62
     7
370
    25
100
AcDbEllipse
 10
2762.2101808852
 20
479.4146212655
 30
0.0
 11
5.011479535986837
 21
0.08705103152004767
 31
0.0
210
0.0
220
0.0
230
1.0
 40
0.0172806402
 41
3.142802504146639
 42
4.706002634394961
  0
LINE
  5
437
330
1F
100
AcDbEntity
  8
0
  6
Continuous
 62
     7
370
    25
100
AcDbLine
 10
2757.198706837
 20
479.3274655227
 30
0.0
 11
2756.6224053846
 21
485.9146212655
 31
0.0
  0
LINE
  5
438
330
1F
100
AcDbEntity
  8
0
  6
Continuous
 62
     7
370
    25
100
AcDbLine
 10
2796.184962067
 20
485.9146212655
 30
0.0
 11
2795.6086606146
 21
479.3274655227
 31
0.0
  0
ELLIPSE
  5
439
330
1F
100
AcDbEntity
  8
0
  6
Continuous
 62
     7
370
    25
100
AcDbEllipse
 10
2790.5971865663
 20
479.4146212655
 30
0.0
 11
5.011479535987291
 21
-0.08705103151993399
 31
0.0
210
0.0
220
0.0
230
1.0
 40
0.0172806402
 41
4.718775326374509
 42
6.281975456623078
  0
LINE
  5
43A
330
1F
100
AcDbEntity
  8
0
  6
Continuous
 62
     7
370
    25
100
AcDbLine
 10
2762.1796803274
 20
478.4146212655
 30
0.0
 11
2758.194901535
 21
478.4146212655
 31
0.0
  0
ARC
  5
43B
330
1F
100
AcDbEntity
  8
0
  6
Continuous
 62
     7
370
    25
100
AcDbCircle
 10
2758.194901535
 20
479.4146212655
 30
0.0
 40
1.0
100
AcDbArc
 50
185.0
 51
270.0
  0
LINE
  5
43C
330
1F
100
AcDbEntity
  8
0
  6
Continuous
 62
     7
370
    25
100
AcDbLine
 10
2762.1796803274
 20
479.3274655227
 30
0.0
 11
2762.1796803274
 21
478.4146212655
 31
0.0
  0
ARC
  5
43D
330
1F
100
AcDbEntity
  8
0
  6
Continuous
 62
     7
370
    25
100
AcDbCircle
 10
2794.6124659165
 20
479.4146212655
 30
0.0
 40
1.0
100
AcDbArc
 50
270.0
 51
355.0
  0
LINE
  5
43E
330
1F
100
AcDbEntity
  8
0
  6
Continuous
 62
     7
370
    25
100
AcDbLine
 10
2794.6124659165
 20
478.4146212655
 30
0.0
 11
2790.6276871241
 21
478.4146212655
 31
0.0
  0
LINE
  5
43F
330
1F
100
AcDbEntity
  8
0
  6
Continuous
 62
     7
370
    25
100
AcDbLine
 10
2790.6276871241
 20
479.3274655227
 30
0.0
 11
2790.6276871241
 21
478.4146212655
 31
0.0
  0
LINE
  5
440
330
1F
100
AcDbEntity
  8
0
  6
Continuous
 62
     7
370
    25
100
AcDbLine
 10
2790.6276871241
 20
478.4146212655
 30
0.0
 11
2762.1796803274
 21
478.4146212655
 31
0.0
  0
LINE
  5
441
330
1F
100
AcDbEntity
  8
0
  6
Continuous
 62
     7
370
    25
100
AcDbLine
 10
2776.4036837258
 20
426.4146212655
 30
0.0
 11
2762.0601391494
 21
426.4146212655
 31
0.0
  0
LINE
  5
442
330
1F
100
AcDbEntity
  8
0
  6
Continuous
 62
     7
370
    25
100
AcDbLine
 10
2790.7472283021
 20
426.4146212655
 30
0.0
 11
2776.4036837258
 21
426.4146212655
 31
0.0
  0
LINE
  5
443
330
1F
100
AcDbEntity
  8
0
  6
Continuous
 62
     7
370
    25
100
AcDbLine
 10
2728.4036837258
 20
-236.5853787345
 30
0.0
 11
2728.4036837258
 21
-213.1124151812
 31
0.0
  0
LINE
  5
444
330
1F
100
AcDbEntity
  8
0
  6
Continuous
 62
     7
370
    25
100
AcDbLine
 10
2728.4036837258
 20
-236.5853787345
 30
0.0
 11
2728.9036837258
 21
-236.5434186261
 31
0.0
  0
LINE
  5
445
330
1F
100
AcDbEntity
  8
0
  6
Continuous
 62
     7
370
    25
100
AcDbLine
 10
2719.4036837258
 20
-233.5853787345
 30
0.0
 11
2719.4036837258
 21
-213.6333597142
 31
0.0
  0
ARC
  5
446
330
1F
100
AcDbEntity
  8
0
  6
Continuous
 62
     7
370
    25
100
AcDbCircle
 10
2721.676298993
 20
-217.8222014433
 30
0.0
 40
4.765624322621045
100
AcDbArc
 50
81.220539053
 51
118.4816131802
  0
LINE
  5
447
330
1F
100
AcDbEntity
  8
0
  6
Continuous
 62
     7
370
    25
100
AcDbLine
 10
2722.4036837258
 20
-213.1124151812
 30
0.0
 11
2722.4036837258
 21
-236.5853787345
 31
0.0
  0
ARC
  5
448
330
1F
100
AcDbEntity
  8
0
  6
Continuous
 62
     7
370
    25
100
AcDbCircle
 10
2722.4036837258
 20
-233.5853787345
 30
0.0
 40
3.000000000002274
100
AcDbArc
 50
180.0
 51
270.0
  0
LINE
  5
449
330
1F
100
AcDbEntity
  8
0
  6
Continuous
 62
     7
370
    25
100
AcDbLine
 10
2728.4036837258
 20
-236.5853787345
 30
0.0
 11
2722.4036837258
 21
-236.5853787345
 31
0.0
  0
LINE
  5
44A
330
1F
100
AcDbEntity
  8
0
  6
Continuous
 62
     7
370
    25
100
AcDbLine
 10
2728.4036837258
 20
-213.1124151812
 30
0.0
 11
2722.4036837258
 21
-213.1124151812
 31
0.0
  0
LINE
  5
44B
330
1F
100
AcDbEntity
  8
0
  6
Continuous
 62
     7
370
    25
100
AcDbLine
 10
2719.4036837258
 20
-213.6333597142
 30
0.0
 11
2719.4036837258
 21
-116.1124151812
 31
0.0
  0
ARC
  5
44C
330
1F
100
AcDbEntity
  8
0
  6
Continuous
 62
     7
370
    25
100
AcDbCircle
 10
2721.676298993
 20
-120.3012569103
 30
0.0
 40
4.765624322608653
100
AcDbArc
 50
81.2205390529
 51
118.4816131802
  0
LINE
  5
44D
330
1F
100
AcDbEntity
  8
0
  6
Continuous
 62
     7
370
    25
100
AcDbLine
 10
2722.4036837258
 20
-115.5914706482
 30
0.0
 11
2722.4036837258
 21
-213.1124151812
 31
0.0
  0
LINE
  5
44E
330
1F
100
AcDbEntity
  8
0
  6
Continuous
 62
     7
370
    25
100
AcDbLine
 10
2728.4036837258
 20
-213.1124151812
 30
0.0
 11
2728.4036837258
 21
-115.5914706482
 31
0.0
  0
LINE
  5
44F
330
1F
100
AcDbEntity
  8
0
  6
Continuous
 62
     7
370
    25
100
AcDbLine
 10
2728.4036837258
 20
-115.5914706482
 30
0.0
 11
2722.4036837258
 21
-115.5914706482
 31
0.0
  0
ARC
  5
450
330
1F
100
AcDbEntity
  8
0
  6
Continuous
 62
     7
370
    25
100
AcDbCircle
 10
2729.1310684586
 20
-120.3012569103
 30
0.0
 40
4.76562432260982
100
AcDbArc
 50
61.5183868198
 51
98.7794609471
  0
LINE
  5
451
330
1F
100
AcDbEntity
  8
0
  6
Continuous
 62
     7
370
    25
100
AcDbLine
 10
2731.4036837258
 20
-116.1124151812
 30
0.0
 11
2731.4036837258
 21
-189.9833030064
 31
0.0
  0
LINE
  5
452
330
1F
100
AcDbEntity
  8
0
  6
Continuous
 62
     7
370
    25
100
AcDbLine
 10
2728.4036837258
 20
-115.5914706482
 30
0.0
 11
2728.4036837258
 21
-96.5853787345
 31
0.0
  0
LINE
  5
453
330
1F
100
AcDbEntity
  8
0
  6
Continuous
 62
     7
370
    25
100
AcDbLine
 10
2722.4036837258
 20
-96.5853787345
 30
0.0
 11
2722.4036837258
 21
-115.5914706482
 31
0.0
  0
LINE
  5
454
330
1F
100
AcDbEntity
  8
0
  6
Continuous
 62
     7
370
    25
100
AcDbLine
 10
2722.4036837258
 20
-96.5853787345
 30
0.0
 11
2728.4036837258
 21
-96.5853787345
 31
0.0
  0
ARC
  5
455
330
1F
100
AcDbEntity
  8
0
  6
Continuous
 62
     7
370
    25
100
AcDbCircle
 10
2722.4036837258
 20
-99.5853787345
 30
0.0
 40
3.0
100
AcDbArc
 50
90.0
 51
180.0
  0
LINE
  5
456
330
1F
100
AcDbEntity
  8
0
  6
Continuous
 62
     7
370
    25
100
AcDbLine
 10
2719.4036837258
 20
-116.1124151812
 30
0.0
 11
2719.4036837258
 21
-99.5853787345
 31
0.0
  0
ARC
  5
457
330
1F
100
AcDbEntity
  8
0
  6
Continuous
 62
     7
370
    25
100
AcDbCircle
 10
2728.4036837258
 20
-99.5853787345
 30
0.0
 40
3.0
100
AcDbArc
 50
0.0
 51
90.0
  0
LINE
  5
458
330
1F
100
AcDbEntity
  8
0
  6
Continuous
 62
     7
370
    25
100
AcDbLine
 10
2731.4036837258
 20
-99.5853787345
 30
0.0
 11
2731.4036837258
 21
-116.1124151812
 31
0.0
  0
LINE
  5
459
330
1F
100
AcDbEntity
  8
0
  6
Continuous
 62
     7
370
    25
100
AcDbLine
 10
2722.4036837258
 20
533.4146212655
 30
0.0
 11
2722.4036837258
 21
509.9416577121
 31
0.0
  0
LINE
  5
45A
330
1F
100
AcDbEntity
  8
0
  6
Continuous
 62
     7
370
    25
100
AcDbLine
 10
2722.4036837258
 20
533.4146212655
 30
0.0
 11
2728.4036837258
 21
533.4146212655
 31
0.0
  0
LINE
  5
45B
330
1F
100
AcDbEntity
  8
0
  6
Continuous
 62
     7
370
    25
100
AcDbLine
 10
2728.4036837258
 20
509.9416577121
 30
0.0
 11
2728.4036837258
 21
533.4146212655
 31
0.0
  0
LINE
  5
45C
330
1F
100
AcDbEntity
  8
0
  6
Continuous
 62
     7
370
    25
100
AcDbLine
 10
2722.4036837258
 20
509.9416577121
 30
0.0
 11
2728.4036837258
 21
509.9416577121
 31
0.0
  0
LINE
  5
45D
330
1F
100
AcDbEntity
  8
0
  6
Continuous
 62
     7
370
    25
100
AcDbLine
 10
2728.9036837258
 20
533.372661157
 30
0.0
 11
2728.4036837258
 21
533.4146212655
 31
0.0
  0
ARC
  5
45E
330
1F
100
AcDbEntity
  8
0
  6
Continuous
 62
     7
370
    25
100
AcDbCircle
 10
2721.676298993
 20
514.6514439742
 30
0.0
 40
4.765624322603274
100
AcDbArc
 50
241.5183868198
 51
278.7794609471
  0
LINE
  5
45F
330
1F
100
AcDbEntity
  8
0
  6
Continuous
 62
     7
370
    25
100
AcDbLine
 10
2719.4036837258
 20
510.4626022451
 30
0.0
 11
2719.4036837258
 21
530.4146212655
 31
0.0
  0
ARC
  5
460
330
1F
100
AcDbEntity
  8
0
  6
Continuous
 62
     7
370
    25
100
AcDbCircle
 10
2722.4036837258
 20
530.4146212655
 30
0.0
 40
3.000000000002274
100
AcDbArc
 50
90.0
 51
180.0
  0
LINE
  5
461
330
1F
100
AcDbEntity
  8
0
  6
Continuous
 62
     7
370
    25
100
AcDbLine
 10
2731.4036837258
 20
486.8700482154
 30
0.0
 11
2731.4036837258
 21
412.9416577121
 31
0.0
  0
ARC
  5
462
330
1F
100
AcDbEntity
  8
0
  6
Continuous
 62
     7
370
    25
100
AcDbCircle
 10
2729.1310684586
 20
417.1304994412
 30
0.0
 40
4.76562432260746
100
AcDbArc
 50
261.2205390529
 51
298.4816131802
  0
LINE
  5
463
330
1F
100
AcDbEntity
  8
0
  6
Continuous
 62
     7
370
    25
100
AcDbLine
 10
2728.4036837258
 20
412.4207131791
 30
0.0
 11
2728.4036837258
 21
509.9416577121
 31
0.0
  0
LINE
  5
464
330
1F
100
AcDbEntity
  8
0
  6
Continuous
 62
     7
370
    25
100
AcDbLine
 10
2722.4036837258
 20
509.9416577121
 30
0.0
 11
2722.4036837258
 21
412.4207131791
 31
0.0
  0
LINE
  5
465
330
1F
100
AcDbEntity
  8
0
  6
Continuous
 62
     7
370
    25
100
AcDbLine
 10
2722.4036837258
 20
412.4207131791
 30
0.0
 11
2728.4036837258
 21
412.4207131791
 31
0.0
  0
ARC
  5
466
330
1F
100
AcDbEntity
  8
0
  6
Continuous
 62
     7
370
    25
100
AcDbCircle
 10
2721.676298993
 20
417.1304994412
 30
0.0
 40
4.765624322609304
100
AcDbArc
 50
241.5183868198
 51
278.7794609471
  0
LINE
  5
467
330
1F
100
AcDbEntity
  8
0
  6
Continuous
 62
     7
370
    25
100
AcDbLine
 10
2719.4036837258
 20
412.9416577121
 30
0.0
 11
2719.4036837258
 21
510.4626022451
 31
0.0
  0
LINE
  5
468
330
1F
100
AcDbEntity
  8
0
  6
Continuous
 62
     7
370
    25
100
AcDbLine
 10
2722.4036837258
 20
412.4207131791
 30
0.0
 11
2722.4036837258
 21
393.4146212655
 31
0.0
  0
ARC
  5
469
330
1F
100
AcDbEntity
  8
0
  6
Continuous
 62
     7
370
    25
100
AcDbCircle
 10
2722.4036837258
 20
396.4146212655
 30
0.0
 40
3.000000000000057
100
AcDbArc
 50
180.0
 51
270.0
  0
LINE
  5
46A
330
1F
100
AcDbEntity
  8
0
  6
Continuous
 62
     7
370
    25
100
AcDbLine
 10
2719.4036837258
 20
396.4146212655
 30
0.0
 11
2719.4036837258
 21
412.9416577121
 31
0.0
  0
ARC
  5
46B
330
1F
100
AcDbEntity
  8
0
  6
Continuous
 62
     7
370
    25
100
AcDbCircle
 10
2728.4036837258
 20
396.4146212655
 30
0.0
 40
3.000000000000057
100
AcDbArc
 50
270.0
 51
0.0
  0
LINE
  5
46C
330
1F
100
AcDbEntity
  8
0
  6
Continuous
 62
     7
370
    25
100
AcDbLine
 10
2728.4036837258
 20
393.4146212655
 30
0.0
 11
2728.4036837258
 21
412.4207131791
 31
0.0
  0
LINE
  5
46D
330
1F
100
AcDbEntity
  8
0
  6
Continuous
 62
     7
370
    25
100
AcDbLine
 10
2731.4036837258
 20
412.9416577121
 30
0.0
 11
2731.4036837258
 21
396.4146212655
 31
0.0
  0
LINE
  5
46E
330
1F
100
AcDbEntity
  8
0
  6
Continuous
 62
     7
370
    25
100
AcDbLine
 10
2728.4036837258
 20
393.4146212655
 30
0.0
 11
2722.4036837258
 21
393.4146212655
 31
0.0
  0
LINE
  5
46F
330
1F
100
AcDbEntity
  8
0
  6
Continuous
 62
     7
370
    25
100
AcDbLine
 10
2706.4765991209
 20
513.1401238286
 30
0.0
 11
2706.4765991209
 21
504.6646212655
 31
0.0
  0
LINE
  5
470
330
1F
100
AcDbEntity
  8
0
  6
Continuous
 62
     7
370
    25
100
AcDbLine
 10
2706.4765991209
 20
526.1646212655
 30
0.0
 11
2706.4765991209
 21
513.1401238286
 31
0.0
  0
LINE
  5
471
330
1F
100
AcDbEntity
  8
0
  6
Continuous
 62
     7
370
    25
100
AcDbLine
 10
2718.9765991209
 20
512.1351133333
 30
0.0
 11
2718.9765991209
 21
499.9146212655
 31
0.0
  0
LINE
  5
472
330
1F
100
AcDbEntity
  8
0
  6
Continuous
 62
     7
370
    25
100
AcDbLine
 10
2718.9765991209
 20
530.9146212655
 30
0.0
 11
2718.9765991209
 21
512.1351133333
 31
0.0
  0
LINE
  5
473
330
1F
100
AcDbEntity
  8
0
  6
Continuous
 62
     7
370
    25
100
AcDbLine
 10
2718.9765991209
 20
-203.0853787345
 30
0.0
 11
2718.9765991209
 21
-234.0853787345
 31
0.0
  0
LINE
  5
474
330
1F
100
AcDbEntity
  8
0
  6
Continuous
 62
     7
370
    25
100
AcDbLine
 10
2706.4765991209
 20
-207.8353787345
 30
0.0
 11
2706.4765991209
 21
-229.3353787345
 31
0.0
  0
LINE
  5
475
330
1F
100
AcDbEntity
  8
0
  6
Continuous
 62
     7
370
    25
100
AcDbLine
 10
2719.4036837258
 20
530.9146212655
 30
0.0
 11
2719.4036837258
 21
530.4146212655
 31
0.0
  0
LINE
  5
476
330
1F
100
AcDbEntity
  8
0
  6
Continuous
 62
     7
370
    25
100
AcDbLine
 10
2719.4036837258
 20
-233.5853787345
 30
0.0
 11
2719.4036837258
 21
-234.0853787345
 31
0.0
  0
CIRCLE
  5
477
330
1F
100
AcDbEntity
  8
0
  6
Continuous
 62
     7
370
    25
100
AcDbCircle
 10
3401.4036837258
 20
373.4146212655
 30
0.0
 40
6.637921400061615
  0
CIRCLE
  5
478
330
1F
100
AcDbEntity
  8
0
  6
Continuous
 62
     7
370
    25
100
AcDbCircle
 10
2921.4036837258
 20
373.4146212655
 30
0.0
 40
6.6379214000616
  0
CIRCLE
  5
479
330
1F
100
AcDbEntity
  8
0
  6
Continuous
 62
     7
370
    25
100
AcDbCircle
 10
2921.4036837258
 20
-76.5853787345
 30
0.0
 40
6.63792140006162
  0
CIRCLE
  5
47A
330
1F
100
AcDbEntity
  8
0
  6
Continuous
 62
     7
370
    25
100
AcDbCircle
 10
3401.4036837258
 20
-76.5853787345
 30
0.0
 40
6.637921400061182
  0
CIRCLE
  5
47B
330
1F
100
AcDbEntity
  8
0
  6
Continuous
 62
     7
370
    25
100
AcDbCircle
 10
3461.4036837258
 20
-161.5853787345
 30
0.0
 40
6.637921400061714
  0
CIRCLE
  5
47C
330
1F
100
AcDbEntity
  8
0
  6
Continuous
 62
     7
370
    25
100
AcDbCircle
 10
3461.4036837258
 20
458.4146212655
 30
0.0
 40
6.637921400061259
  0
CIRCLE
  5
47D
330
1F
100
AcDbEntity
  8
0
  6
Continuous
 62
     7
370
    25
100
AcDbCircle
 10
2861.4036837258
 20
-161.5853787345
 30
0.0
 40
6.637921400061259
  0
CIRCLE
  5
47E
330
1F
100
AcDbEntity
  8
0
  6
Continuous
 62
     7
370
    25
100
AcDbCircle
 10
2861.4036837258
 20
458.4146212655
 30
0.0
 40
6.637921400061714
  0
LINE
  5
47F
330
1F
100
AcDbEntity
  8
0
  6
Continuous
 62
     7
370
    25
100
AcDbLine
 10
2741.4456438342
 20
-189.0853787345
 30
0.0
 11
2741.4036837258
 21
-188.5853787345
 31
0.0
  0
LINE
  5
480
330
1F
100
AcDbEntity
  8
0
  6
Continuous
 62
     7
370
    25
100
AcDbLine
 10
2744.4036837258
 20
-188.5853787345
 30
0.0
 11
2741.4036837258
 21
-188.5853787345
 31
0.0
  0
LINE
  5
481
330
1F
100
AcDbEntity
  8
0
  6
Continuous
 62
     7
370
    25
100
AcDbLine
 10
3581.4036837258
 20
-188.5853787345
 30
0.0
 11
3578.4036837258
 21
-188.5853787345
 31
0.0
  0
LINE
  5
482
330
1F
100
AcDbEntity
  8
0
  6
Continuous
 62
     7
370
    25
100
AcDbLine
 10
3581.4036837258
 20
-188.5853787345
 30
0.0
 11
3581.3617236173
 21
-189.0853787345
 31
0.0
  0
LINE
  5
483
330
1F
100
AcDbEntity
  8
0
  6
Continuous
 62
     7
370
    25
100
AcDbLine
 10
2824.4036837258
 20
565.4146212655
 30
0.0
 11
2824.4036837258
 21
491.4146212655
 31
0.0
  0
LINE
  5
484
330
1F
100
AcDbEntity
  8
0
  6
Continuous
 62
     7
370
    25
100
AcDbLine
 10
2744.4036837258
 20
485.4146212655
 30
0.0
 11
2741.4036837258
 21
485.4146212655
 31
0.0
  0
LINE
  5
485
330
1F
100
AcDbEntity
  8
0
  6
Continuous
 62
     7
370
    25
100
AcDbLine
 10
2741.4036837258
 20
485.4146212655
 30
0.0
 11
2741.4456438342
 21
485.9146212655
 31
0.0
  0
LINE
  5
486
330
1F
100
AcDbEntity
  8
0
  6
Continuous
 62
     7
370
    25
100
AcDbLine
 10
3498.4036837258
 20
565.4146212655
 30
0.0
 11
3498.4036837258
 21
568.4146212655
 31
0.0
  0
LINE
  5
487
330
1F
100
AcDbEntity
  8
0
  6
Continuous
 62
     7
370
    25
100
AcDbLine
 10
3498.4036837258
 20
568.4146212655
 30
0.0
 11
3498.9036837258
 21
568.372661157
 31
0.0
  0
LINE
  5
488
330
1F
100
AcDbEntity
  8
0
  6
Continuous
 62
     7
370
    25
100
AcDbLine
 10
3498.4036837258
 20
-271.5853787345
 30
0.0
 11
2824.4036837258
 21
-271.5853787345
 31
0.0
  0
LINE
  5
489
330
1F
100
AcDbEntity
  8
0
  6
Continuous
 62
     7
370
    25
100
AcDbLine
 10
2824.4036837258
 20
-271.5853787345
 30
0.0
 11
2824.4036837258
 21
-268.5853787345
 31
0.0
  0
LINE
  5
48A
330
1F
100
AcDbEntity
  8
0
  6
Continuous
 62
     7
370
    25
100
AcDbLine
 10
2824.4036837258
 20
-268.5853787345
 30
0.0
 11
3498.4036837258
 21
-268.5853787345
 31
0.0
  0
LINE
  5
48B
330
1F
100
AcDbEntity
  8
0
  6
Continuous
 62
     7
370
    25
100
AcDbLine
 10
3498.4036837258
 20
-271.5853787345
 30
0.0
 11
3498.4036837258
 21
-268.5853787345
 31
0.0
  0
LINE
  5
48C
330
1F
100
AcDbEntity
  8
0
  6
Continuous
 62
     7
370
    25
100
AcDbLine
 10
3504.4036837258
 20
-188.5853787345
 30
0.0
 11
3578.4036837258
 21
-188.5853787345
 31
0.0
  0
LINE
  5
48D
330
1F
100
AcDbEntity
  8
0
  6
Continuous
 62
     7
370
    25
100
AcDbLine
 10
3581.4036837258
 20
485.4146212655
 30
0.0
 11
3581.4036837258
 21
-188.5853787345
 31
0.0
  0
LINE
  5
48E
330
1F
100
AcDbEntity
  8
0
  6
Continuous
 62
     7
370
    25
100
AcDbLine
 10
3578.4036837258
 20
-188.5853787345
 30
0.0
 11
3578.4036837258
 21
485.4146212655
 31
0.0
  0
LINE
  5
48F
330
1F
100
AcDbEntity
  8
0
  6
Continuous
 62
     7
370
    25
100
AcDbLine
 10
3581.4036837258
 20
485.4146212655
 30
0.0
 11
3578.4036837258
 21
485.4146212655
 31
0.0
  0
LINE
  5
490
330
1F
100
AcDbEntity
  8
0
  6
Continuous
 62
     7
370
    25
100
AcDbLine
 10
3498.4036837258
 20
-268.5853787345
 30
0.0
 11
3498.4036837258
 21
-194.5853787345
 31
0.0
  0
LINE
  5
491
330
1F
100
AcDbEntity
  8
0
  6
Continuous
 62
     7
370
    25
100
AcDbLine
 10
2824.4036837258
 20
-271.5853787345
 30
0.0
 11
2823.9036837258
 21
-271.5434186261
 31
0.0
  0
ARC
  5
492
330
1F
100
AcDbEntity
  8
0
  6
Continuous
 62
     7
370
    25
100
AcDbCircle
 10
3504.4036837258
 20
-194.5853787345
 30
0.0
 40
6.0
100
AcDbArc
 50
90.0
 51
180.0
  0
ARC
  5
493
330
1F
100
AcDbEntity
  8
0
  6
Continuous
 62
     7
370
    25
100
AcDbCircle
 10
2818.4036837258
 20
491.4146212655
 30
0.0
 40
6.0
100
AcDbArc
 50
270.0
 51
0.0
  0
ARC
  5
494
330
1F
100
AcDbEntity
  8
0
  6
Continuous
 62
     7
370
    25
100
AcDbCircle
 10
3504.4036837258
 20
491.4146212655
 30
0.0
 40
6.0
100
AcDbArc
 50
180.0
 51
270.0
  0
LINE
  5
495
330
1F
100
AcDbEntity
  8
0
  6
Continuous
 62
     7
370
    25
100
AcDbLine
 10
3498.4036837258
 20
565.4146212655
 30
0.0
 11
2824.4036837258
 21
565.4146212655
 31
0.0
  0
LINE
  5
496
330
1F
100
AcDbEntity
  8
0
  6
Continuous
 62
     7
370
    25
100
AcDbLine
 10
3498.4036837258
 20
491.4146212655
 30
0.0
 11
3498.4036837258
 21
565.4146212655
 31
0.0
  0
LINE
  5
497
330
1F
100
AcDbEntity
  8
0
  6
Continuous
 62
     7
370
    25
100
AcDbLine
 10
3578.4036837258
 20
485.4146212655
 30
0.0
 11
3504.4036837258
 21
485.4146212655
 31
0.0
  0
LINE
  5
498
330
1F
100
AcDbEntity
  8
0
  6
Continuous
 62
     7
370
    25
100
AcDbLine
 10
2824.4036837258
 20
-194.5853787345
 30
0.0
 11
2824.4036837258
 21
-268.5853787345
 31
0.0
  0
ARC
  5
499
330
1F
100
AcDbEntity
  8
0
  6
Continuous
 62
     7
370
    25
100
AcDbCircle
 10
2818.4036837258
 20
-194.5853787345
 30
0.0
 40
6.0
100
AcDbArc
 50
0.0
 51
90.0
  0
LINE
  5
49A
330
1F
100
AcDbEntity
  8
0
  6
Continuous
 62
     7
370
    25
100
AcDbLine
 10
2823.9036837258
 20
568.372661157
 30
0.0
 11
2824.4036837258
 21
568.4146212655
 31
0.0
  0
LINE
  5
49B
330
1F
100
AcDbEntity
  8
0
  6
Continuous
 62
     7
370
    25
100
AcDbLine
 10
2824.4036837258
 20
565.4146212655
 30
0.0
 11
2824.4036837258
 21
568.4146212655
 31
0.0
  0
LINE
  5
49C
330
1F
100
AcDbEntity
  8
0
  6
Continuous
 62
     7
370
    25
100
AcDbLine
 10
2824.4036837258
 20
568.4146212655
 30
0.0
 11
3498.4036837258
 21
568.4146212655
 31
0.0
  0
LINE
  5
49D
330
1F
100
AcDbEntity
  8
0
  6
Continuous
 62
     7
370
    25
100
AcDbLine
 10
3581.3617236173
 20
485.9146212655
 30
0.0
 11
3581.4036837258
 21
485.4146212655
 31
0.0
  0
LINE
  5
49E
330
1F
100
AcDbEntity
  8
0
  6
Continuous
 62
     7
370
    25
100
AcDbLine
 10
2741.4036837258
 20
-188.5853787345
 30
0.0
 11
2741.4036837258
 21
-111.5853787345
 31
0.0
  0
LINE
  5
49F
330
1F
100
AcDbEntity
  8
0
  6
Continuous
 62
     7
370
    25
100
AcDbLine
 10
2741.4036837258
 20
408.4146212655
 30
0.0
 11
2741.4036837258
 21
485.4146212655
 31
0.0
  0
LINE
  5
4A0
330
1F
100
AcDbEntity
  8
0
  6
Continuous
 62
     7
370
    25
100
AcDbLine
 10
3498.9036837258
 20
-271.5434186261
 30
0.0
 11
3498.4036837258
 21
-271.5853787345
 31
0.0
  0
LINE
  5
4A1
330
1F
100
AcDbEntity
  8
0
  6
Continuous
 62
     7
370
    25
100
AcDbLine
 10
3581.4036837258
 20
-188.5853787345
 30
0.0
 11
3581.4036837258
 21
-189.0853787345
 31
0.0
  0
LINE
  5
4A2
330
1F
100
AcDbEntity
  8
0
  6
Continuous
 62
     7
370
    25
100
AcDbLine
 10
2741.4036837258
 20
-188.5853787345
 30
0.0
 11
2741.4036837258
 21
-189.0853787345
 31
0.0
  0
LINE
  5
4A3
330
1F
100
AcDbEntity
  8
0
  6
Continuous
 62
     7
370
    25
100
AcDbLine
 10
3581.4036837258
 20
485.4146212655
 30
0.0
 11
3581.4036837258
 21
485.9146212655
 31
0.0
  0
LINE
  5
4A4
330
1F
100
AcDbEntity
  8
0
  6
Continuous
 62
     7
370
    25
100
AcDbLine
 10
2741.4036837258
 20
485.4146212655
 30
0.0
 11
2741.4036837258
 21
485.9146212655
 31
0.0
  0
ARC
  5
4A5
330
1F
100
AcDbEntity
  8
0
  6
Continuous
 62
     7
370
    25
100
AcDbCircle
 10
2819.0341084437
 20
490.7841965475
 30
0.0
 40
2.740527303297768
100
AcDbArc
 50
270.0
 51
360.0
  0
LINE
  5
4A6
330
1F
100
AcDbEntity
  8
0
  6
Continuous
 62
     7
370
    25
100
AcDbLine
 10
2733.7732590078
 20
488.0436692442
 30
0.0
 11
2819.0341084437
 21
488.0436692442
 31
0.0
  0
ARC
  5
4A7
330
1F
100
AcDbEntity
  8
0
  6
Continuous
 62
     7
370
    25
100
AcDbCircle
 10
2733.7732590078
 20
490.7841965475
 30
0.0
 40
2.740527303297313
100
AcDbArc
 50
180.0
 51
270.0
  0
LINE
  5
4A8
330
1F
100
AcDbEntity
  8
0
  6
Continuous
 62
     7
370
    25
100
AcDbLine
 10
2731.0327317045
 20
576.0450459834
 30
0.0
 11
2731.0327317045
 21
490.7841965475
 31
0.0
  0
ARC
  5
4A9
330
1F
100
AcDbEntity
  8
0
  6
Continuous
 62
     7
370
    25
100
AcDbCircle
 10
2733.7732590078
 20
576.0450459834
 30
0.0
 40
2.740527303297654
100
AcDbArc
 50
90.0
 51
180.0
  0
LINE
  5
4AA
330
1F
100
AcDbEntity
  8
0
  6
Continuous
 62
     7
370
    25
100
AcDbLine
 10
2819.0341084437
 20
578.7855732867
 30
0.0
 11
2733.7732590078
 21
578.7855732867
 31
0.0
  0
ARC
  5
4AB
330
1F
100
AcDbEntity
  8
0
  6
Continuous
 62
     7
370
    25
100
AcDbCircle
 10
2819.0341084437
 20
576.0450459834
 30
0.0
 40
2.740527303297768
100
AcDbArc
 50
0.0
 51
90.0
  0
LINE
  5
4AC
330
1F
100
AcDbEntity
  8
0
  6
Continuous
 62
     7
370
    25
100
AcDbLine
 10
2821.774635747
 20
490.7841965475
 30
0.0
 11
2821.774635747
 21
576.0450459834
 31
0.0
  0
ARC
  5
4AD
330
1F
100
AcDbEntity
  8
0
  6
Continuous
 62
     7
370
    25
100
AcDbCircle
 10
2822.1655542298
 20
573.4549570189
 30
0.0
 40
2.619423238805264
100
AcDbArc
 50
48.4284910908
 51
98.5827922009
  0
LINE
  5
4AE
330
1F
100
AcDbEntity
  8
0
  6
Continuous
 62
     7
370
    25
100
AcDbLine
 10
2823.9036837258
 20
575.4146212655
 30
0.0
 11
2823.9036837258
 21
491.4146212655
 31
0.0
  0
ARC
  5
4AF
330
1F
100
AcDbEntity
  8
0
  6
Continuous
 62
     7
370
    25
100
AcDbCircle
 10
2822.1655542298
 20
493.374285512
 30
0.0
 40
2.619423238804797
100
AcDbArc
 50
261.4172077991
 51
311.5715089093
  0
ARC
  5
4B0
330
1F
100
AcDbEntity
  8
0
  6
Continuous
 62
     7
370
    25
100
AcDbCircle
 10
2816.4440194793
 20
487.6527507615
 30
0.0
 40
2.619423238808013
100
AcDbArc
 50
318.4284910908
 51
8.5827922008
  0
LINE
  5
4B1
330
1F
100
AcDbEntity
  8
0
  6
Continuous
 62
     7
370
    25
100
AcDbLine
 10
2818.4036837258
 20
485.9146212655
 30
0.0
 11
2734.4036837258
 21
485.9146212655
 31
0.0
  0
ARC
  5
4B2
330
1F
100
AcDbEntity
  8
0
  6
Continuous
 62
     7
370
    25
100
AcDbCircle
 10
2736.3633479723
 20
487.6527507615
 30
0.0
 40
2.619423238808013
100
AcDbArc
 50
171.4172077992
 51
221.5715089092
  0
LINE
  5
4B3
330
1F
100
AcDbEntity
  8
0
  6
Continuous
 62
     7
370
    25
100
AcDbLine
 10
2734.4036837258
 20
580.9146212655
 30
0.0
 11
2818.4036837258
 21
580.9146212655
 31
0.0
  0
ARC
  5
4B4
330
1F
100
AcDbEntity
  8
0
  6
Continuous
 62
     7
370
    25
100
AcDbCircle
 10
2816.4440194793
 20
579.1764917694
 30
0.0
 40
2.619423238806086
100
AcDbArc
 50
351.4172077991
 51
41.5715089092
  0
ARC
  5
4B5
330
1F
100
AcDbEntity
  8
0
  6
Continuous
 62
     7
370
    25
100
AcDbCircle
 10
2736.3633479723
 20
579.1764917694
 30
0.0
 40
2.619423238805811
100
AcDbArc
 50
138.4284910908
 51
188.5827922009
  0
LINE
  5
4B6
330
1F
100
AcDbEntity
  8
0
  6
Continuous
 62
     7
370
    25
100
AcDbLine
 10
2728.9036837258
 20
491.4146212655
 30
0.0
 11
2728.9036837258
 21
575.4146212655
 31
0.0
  0
ARC
  5
4B7
330
1F
100
AcDbEntity
  8
0
  6
Continuous
 62
     7
370
    25
100
AcDbCircle
 10
2730.6418132218
 20
573.4549570189
 30
0.0
 40
2.61942323880245
100
AcDbArc
 50
81.4172077991
 51
131.5715089093
  0
ARC
  5
4B8
330
1F
100
AcDbEntity
  8
0
  6
Continuous
 62
     7
370
    25
100
AcDbCircle
 10
2730.6418132218
 20
493.374285512
 30
0.0
 40
2.619423238802569
100
AcDbArc
 50
228.4284910907
 51
278.5827922009
  0
ARC
  5
4B9
330
1F
100
AcDbEntity
  8
0
  6
Continuous
 62
     7
370
    25
100
AcDbCircle
 10
2818.4036837258
 20
491.4146212655
 30
0.0
 40
5.500000000000227
100
AcDbArc
 50
270.0
 51
360.0
  0
ARC
  5
4BA
330
1F
100
AcDbEntity
  8
0
  6
Continuous
 62
     7
370
    25
100
AcDbCircle
 10
2734.4036837258
 20
491.4146212655
 30
0.0
 40
5.500000000000909
100
AcDbArc
 50
180.0
 51
270.0
  0
ARC
  5
4BB
330
1F
100
AcDbEntity
  8
0
  6
Continuous
 62
     7
370
    25
100
AcDbCircle
 10
2734.4036837258
 20
575.4146212655
 30
0.0
 40
5.500000000000227
100
AcDbArc
 50
90.0
 51
180.0
  0
ARC
  5
4BC
330
1F
100
AcDbEntity
  8
0
  6
Continuous
 62
     7
370
    25
100
AcDbCircle
 10
2818.4036837258
 20
575.4146212655
 30
0.0
 40
5.500000000000341
100
AcDbArc
 50
0.0
 51
90.0
  0
ARC
  5
4BD
330
1F
100
AcDbEntity
  8
0
  6
Continuous
 62
     7
370
    25
100
AcDbCircle
 10
3589.0341084437
 20
490.7841965475
 30
0.0
 40
2.740527303296972
100
AcDbArc
 50
270.0
 51
360.0
  0
LINE
  5
4BE
330
1F
100
AcDbEntity
  8
0
  6
Continuous
 62
     7
370
    25
100
AcDbLine
 10
3503.7732590078
 20
488.0436692442
 30
0.0
 11
3589.0341084437
 21
488.0436692442
 31
0.0
  0
ARC
  5
4BF
330
1F
100
AcDbEntity
  8
0
  6
Continuous
 62
     7
370
    25
100
AcDbCircle
 10
3503.7732590078
 20
490.7841965475
 30
0.0
 40
2.740527303297768
100
AcDbArc
 50
180.0
 51
270.0
  0
LINE
  5
4C0
330
1F
100
AcDbEntity
  8
0
  6
Continuous
 62
     7
370
    25
100
AcDbLine
 10
3501.0327317045
 20
576.0450459834
 30
0.0
 11
3501.0327317045
 21
490.7841965475
 31
0.0
  0
ARC
  5
4C1
330
1F
100
AcDbEntity
  8
0
  6
Continuous
 62
     7
370
    25
100
AcDbCircle
 10
3503.7732590078
 20
576.0450459834
 30
0.0
 40
2.740527303297768
100
AcDbArc
 50
90.0
 51
180.0
  0
LINE
  5
4C2
330
1F
100
AcDbEntity
  8
0
  6
Continuous
 62
     7
370
    25
100
AcDbLine
 10
3589.0341084437
 20
578.7855732867
 30
0.0
 11
3503.7732590078
 21
578.7855732867
 31
0.0
  0
ARC
  5
4C3
330
1F
100
AcDbEntity
  8
0
  6
Continuous
 62
     7
370
    25
100
AcDbCircle
 10
3589.0341084437
 20
576.0450459834
 30
0.0
 40
2.74052730329845
100
AcDbArc
 50
0.0
 51
90.0
  0
LINE
  5
4C4
330
1F
100
AcDbEntity
  8
0
  6
Continuous
 62
     7
370
    25
100
AcDbLine
 10
3591.774635747
 20
490.7841965475
 30
0.0
 11
3591.774635747
 21
576.0450459834
 31
0.0
  0
ARC
  5
4C5
330
1F
100
AcDbEntity
  8
0
  6
Continuous
 62
     7
370
    25
100
AcDbCircle
 10
3586.4440194793
 20
487.6527507615
 30
0.0
 40
2.619423238807712
100
AcDbArc
 50
318.4284910908
 51
8.5827922009
  0
LINE
  5
4C6
330
1F
100
AcDbEntity
  8
0
  6
Continuous
 62
     7
370
    25
100
AcDbLine
 10
3588.4036837258
 20
485.9146212655
 30
0.0
 11
3504.4036837258
 21
485.9146212655
 31
0.0
  0
ARC
  5
4C7
330
1F
100
AcDbEntity
  8
0
  6
Continuous
 62
     7
370
    25
100
AcDbCircle
 10
3506.3633479723
 20
487.6527507615
 30
0.0
 40
2.619423238807712
100
AcDbArc
 50
171.4172077991
 51
221.5715089092
  0
LINE
  5
4C8
330
1F
100
AcDbEntity
  8
0
  6
Continuous
 62
     7
370
    25
100
AcDbLine
 10
3504.4036837258
 20
580.9146212655
 30
0.0
 11
3588.4036837258
 21
580.9146212655
 31
0.0
  0
ARC
  5
4C9
330
1F
100
AcDbEntity
  8
0
  6
Continuous
 62
     7
370
    25
100
AcDbCircle
 10
3586.4440194793
 20
579.1764917694
 30
0.0
 40
2.619423238805823
100
AcDbArc
 50
351.4172077991
 51
41.5715089092
  0
ARC
  5
4CA
330
1F
100
AcDbEntity
  8
0
  6
Continuous
 62
     7
370
    25
100
AcDbCircle
 10
3506.3633479723
 20
579.1764917694
 30
0.0
 40
2.619423238806413
100
AcDbArc
 50
138.4284910908
 51
188.5827922009
  0
ARC
  5
4CB
330
1F
100
AcDbEntity
  8
0
  6
Continuous
 62
     7
370
    25
100
AcDbCircle
 10
3592.1655542298
 20
573.4549570189
 30
0.0
 40
2.61942323880535
100
AcDbArc
 50
48.4284910908
 51
98.5827922009
  0
LINE
  5
4CC
330
1F
100
AcDbEntity
  8
0
  6
Continuous
 62
     7
370
    25
100
AcDbLine
 10
3593.9036837258
 20
575.4146212655
 30
0.0
 11
3593.9036837258
 21
491.4146212655
 31
0.0
  0
ARC
  5
4CD
330
1F
100
AcDbEntity
  8
0
  6
Continuous
 62
     7
370
    25
100
AcDbCircle
 10
3592.1655542298
 20
493.374285512
 30
0.0
 40
2.619423238804754
100
AcDbArc
 50
261.4172077991
 51
311.5715089093
  0
LINE
  5
4CE
330
1F
100
AcDbEntity
  8
0
  6
Continuous
 62
     7
370
    25
100
AcDbLine
 10
3498.9036837258
 20
491.4146212655
 30
0.0
 11
3498.9036837258
 21
575.4146212655
 31
0.0
  0
ARC
  5
4CF
330
1F
100
AcDbEntity
  8
0
  6
Continuous
 62
     7
370
    25
100
AcDbCircle
 10
3500.6418132218
 20
573.4549570189
 30
0.0
 40
2.619423238802365
100
AcDbArc
 50
81.4172077991
 51
131.5715089093
  0
ARC
  5
4D0
330
1F
100
AcDbEntity
  8
0
  6
Continuous
 62
     7
370
    25
100
AcDbCircle
 10
3500.6418132218
 20
493.374285512
 30
0.0
 40
2.619423238802322
100
AcDbArc
 50
228.4284910907
 51
278.5827922009
  0
ARC
  5
4D1
330
1F
100
AcDbEntity
  8
0
  6
Continuous
 62
     7
370
    25
100
AcDbCircle
 10
3504.4036837258
 20
491.4146212655
 30
0.0
 40
5.500000000000114
100
AcDbArc
 50
180.0
 51
270.0
  0
ARC
  5
4D2
330
1F
100
AcDbEntity
  8
0
  6
Continuous
 62
     7
370
    25
100
AcDbCircle
 10
3588.4036837258
 20
575.4146212655
 30
0.0
 40
5.499999999999659
100
AcDbArc
 50
360.0
 51
90.0
  0
ARC
  5
4D3
330
1F
100
AcDbEntity
  8
0
  6
Continuous
 62
     7
370
    25
100
AcDbCircle
 10
3588.4036837258
 20
491.4146212655
 30
0.0
 40
5.500000000000398
100
AcDbArc
 50
270.0
 51
360.0
  0
ARC
  5
4D4
330
1F
100
AcDbEntity
  8
0
  6
Continuous
 62
     7
370
    25
100
AcDbCircle
 10
3504.4036837258
 20
575.4146212655
 30
0.0
 40
5.500000000000909
100
AcDbArc
 50
90.0
 51
180.0
  0
ARC
  5
4D5
330
1F
100
AcDbEntity
  8
0
  6
Continuous
 62
     7
370
    25
100
AcDbCircle
 10
2819.0341084437
 20
-279.2158034525
 30
0.0
 40
2.740527303296858
100
AcDbArc
 50
270.0
 51
0.0
  0
LINE
  5
4D6
330
1F
100
AcDbEntity
  8
0
  6
Continuous
 62
     7
370
    25
100
AcDbLine
 10
2733.7732590078
 20
-281.9563307558
 30
0.0
 11
2819.0341084437
 21
-281.9563307558
 31
0.0
  0
ARC
  5
4D7
330
1F
100
AcDbEntity
  8
0
  6
Continuous
 62
     7
370
    25
100
AcDbCircle
 10
2733.7732590078
 20
-279.2158034525
 30
0.0
 40
2.740527303297085
100
AcDbArc
 50
180.0
 51
270.0
  0
LINE
  5
4D8
330
1F
100
AcDbEntity
  8
0
  6
Continuous
 62
     7
370
    25
100
AcDbLine
 10
2731.0327317045
 20
-193.9549540166
 30
0.0
 11
2731.0327317045
 21
-279.2158034525
 31
0.0
  0
ARC
  5
4D9
330
1F
100
AcDbEntity
  8
0
  6
Continuous
 62
     7
370
    25
100
AcDbCircle
 10
2733.7732590078
 20
-193.9549540166
 30
0.0
 40
2.740527303296858
100
AcDbArc
 50
90.0
 51
180.0
  0
LINE
  5
4DA
330
1F
100
AcDbEntity
  8
0
  6
Continuous
 62
     7
370
    25
100
AcDbLine
 10
2819.0341084437
 20
-191.2144267133
 30
0.0
 11
2733.7732590078
 21
-191.2144267133
 31
0.0
  0
ARC
  5
4DB
330
1F
100
AcDbEntity
  8
0
  6
Continuous
 62
     7
370
    25
100
AcDbCircle
 10
2819.0341084437
 20
-193.9549540166
 30
0.0
 40
2.740527303297341
100
AcDbArc
 50
0.0
 51
90.0
  0
LINE
  5
4DC
330
1F
100
AcDbEntity
  8
0
  6
Continuous
 62
     7
370
    25
100
AcDbLine
 10
2821.774635747
 20
-279.2158034525
 30
0.0
 11
2821.774635747
 21
-193.9549540166
 31
0.0
  0
LINE
  5
4DD
330
1F
100
AcDbEntity
  8
0
  6
Continuous
 62
     7
370
    25
100
AcDbLine
 10
2728.9036837258
 20
-278.5853787345
 30
0.0
 11
2728.9036837258
 21
-194.5853787345
 31
0.0
  0
ARC
  5
4DE
330
1F
100
AcDbEntity
  8
0
  6
Continuous
 62
     7
370
    25
100
AcDbCircle
 10
2730.6418132218
 20
-196.5450429811
 30
0.0
 40
2.619423238803142
100
AcDbArc
 50
81.4172077991
 51
131.5715089093
  0
ARC
  5
4DF
330
1F
100
AcDbEntity
  8
0
  6
Continuous
 62
     7
370
    25
100
AcDbCircle
 10
2730.6418132218
 20
-276.625714488
 30
0.0
 40
2.619423238802637
100
AcDbArc
 50
228.4284910907
 51
278.5827922009
  0
ARC
  5
4E0
330
1F
100
AcDbEntity
  8
0
  6
Continuous
 62
     7
370
    25
100
AcDbCircle
 10
2822.1655542298
 20
-196.5450429811
 30
0.0
 40
2.619423238806438
100
AcDbArc
 50
48.4284910908
 51
98.5827922009
  0
LINE
  5
4E1
330
1F
100
AcDbEntity
  8
0
  6
Continuous
 62
     7
370
    25
100
AcDbLine
 10
2823.9036837258
 20
-194.5853787345
 30
0.0
 11
2823.9036837258
 21
-278.5853787345
 31
0.0
  0
ARC
  5
4E2
330
1F
100
AcDbEntity
  8
0
  6
Continuous
 62
     7
370
    25
100
AcDbCircle
 10
2822.1655542298
 20
-276.625714488
 30
0.0
 40
2.619423238805949
100
AcDbArc
 50
261.4172077991
 51
311.5715089092
  0
LINE
  5
4E3
330
1F
100
AcDbEntity
  8
0
  6
Continuous
 62
     7
370
    25
100
AcDbLine
 10
2734.4036837258
 20
-189.0853787345
 30
0.0
 11
2818.4036837258
 21
-189.0853787345
 31
0.0
  0
ARC
  5
4E4
330
1F
100
AcDbEntity
  8
0
  6
Continuous
 62
     7
370
    25
100
AcDbCircle
 10
2816.4440194793
 20
-190.8235082306
 30
0.0
 40
2.619423238807598
100
AcDbArc
 50
351.4172077991
 51
41.5715089092
  0
ARC
  5
4E5
330
1F
100
AcDbEntity
  8
0
  6
Continuous
 62
     7
370
    25
100
AcDbCircle
 10
2736.3633479723
 20
-190.8235082306
 30
0.0
 40
2.619423238802894
100
AcDbArc
 50
138.4284910907
 51
188.5827922009
  0
ARC
  5
4E6
330
1F
100
AcDbEntity
  8
0
  6
Continuous
 62
     7
370
    25
100
AcDbCircle
 10
2816.4440194793
 20
-282.3472492385
 30
0.0
 40
2.619423238809411
100
AcDbArc
 50
318.4284910908
 51
8.5827922008
  0
LINE
  5
4E7
330
1F
100
AcDbEntity
  8
0
  6
Continuous
 62
     7
370
    25
100
AcDbLine
 10
2818.4036837258
 20
-284.0853787345
 30
0.0
 11
2734.4036837258
 21
-284.0853787345
 31
0.0
  0
ARC
  5
4E8
330
1F
100
AcDbEntity
  8
0
  6
Continuous
 62
     7
370
    25
100
AcDbCircle
 10
2736.3633479723
 20
-282.3472492385
 30
0.0
 40
2.619423238805056
100
AcDbArc
 50
171.4172077991
 51
221.5715089092
  0
ARC
  5
4E9
330
1F
100
AcDbEntity
  8
0
  6
Continuous
 62
     7
370
    25
100
AcDbCircle
 10
2734.4036837258
 20
-278.5853787345
 30
0.0
 40
5.500000000000909
100
AcDbArc
 50
180.0
 51
270.0
  0
ARC
  5
4EA
330
1F
100
AcDbEntity
  8
0
  6
Continuous
 62
     7
370
    25
100
AcDbCircle
 10
2818.4036837258
 20
-278.5853787345
 30
0.0
 40
5.50000000000108
100
AcDbArc
 50
270.0
 51
360.0
  0
ARC
  5
4EB
330
1F
100
AcDbEntity
  8
0
  6
Continuous
 62
     7
370
    25
100
AcDbCircle
 10
2734.4036837258
 20
-194.5853787345
 30
0.0
 40
5.500000000000909
100
AcDbArc
 50
90.0
 51
180.0
  0
ARC
  5
4EC
330
1F
100
AcDbEntity
  8
0
  6
Continuous
 62
     7
370
    25
100
AcDbCircle
 10
2818.4036837258
 20
-194.5853787345
 30
0.0
 40
5.500000000000682
100
AcDbArc
 50
0.0
 51
90.0
  0
ARC
  5
4ED
330
1F
100
AcDbEntity
  8
0
  6
Continuous
 62
     7
370
    25
100
AcDbCircle
 10
3589.0341084437
 20
-279.2158034525
 30
0.0
 40
2.740527303297029
100
AcDbArc
 50
270.0
 51
360.0
  0
LINE
  5
4EE
330
1F
100
AcDbEntity
  8
0
  6
Continuous
 62
     7
370
    25
100
AcDbLine
 10
3503.7732590078
 20
-281.9563307558
 30
0.0
 11
3589.0341084437
 21
-281.9563307558
 31
0.0
  0
ARC
  5
4EF
330
1F
100
AcDbEntity
  8
0
  6
Continuous
 62
     7
370
    25
100
AcDbCircle
 10
3503.7732590078
 20
-279.2158034525
 30
0.0
 40
2.740527303297824
100
AcDbArc
 50
180.0
 51
270.0
  0
LINE
  5
4F0
330
1F
100
AcDbEntity
  8
0
  6
Continuous
 62
     7
370
    25
100
AcDbLine
 10
3501.0327317045
 20
-193.9549540166
 30
0.0
 11
3501.0327317045
 21
-279.2158034525
 31
0.0
  0
ARC
  5
4F1
330
1F
100
AcDbEntity
  8
0
  6
Continuous
 62
     7
370
    25
100
AcDbCircle
 10
3503.7732590078
 20
-193.9549540166
 30
0.0
 40
2.740527303298165
100
AcDbArc
 50
90.0
 51
180.0
  0
LINE
  5
4F2
330
1F
100
AcDbEntity
  8
0
  6
Continuous
 62
     7
370
    25
100
AcDbLine
 10
3589.0341084437
 20
-191.2144267133
 30
0.0
 11
3503.7732590078
 21
-191.2144267133
 31
0.0
  0
ARC
  5
4F3
330
1F
100
AcDbEntity
  8
0
  6
Continuous
 62
     7
370
    25
100
AcDbCircle
 10
3589.0341084437
 20
-193.9549540166
 30
0.0
 40
2.740527303297313
100
AcDbArc
 50
0.0
 51
90.0
  0
LINE
  5
4F4
330
1F
100
AcDbEntity
  8
0
  6
Continuous
 62
     7
370
    25
100
AcDbLine
 10
3591.774635747
 20
-279.2158034525
 30
0.0
 11
3591.774635747
 21
-193.9549540166
 31
0.0
  0
ARC
  5
4F5
330
1F
100
AcDbEntity
  8
0
  6
Continuous
 62
     7
370
    25
100
AcDbCircle
 10
3592.1655542298
 20
-196.5450429811
 30
0.0
 40
2.619423238804271
100
AcDbArc
 50
48.4284910908
 51
98.5827922009
  0
LINE
  5
4F6
330
1F
100
AcDbEntity
  8
0
  6
Continuous
 62
     7
370
    25
100
AcDbLine
 10
3593.9036837258
 20
-194.5853787345
 30
0.0
 11
3593.9036837258
 21
-278.5853787345
 31
0.0
  0
ARC
  5
4F7
330
1F
100
AcDbEntity
  8
0
  6
Continuous
 62
     7
370
    25
100
AcDbCircle
 10
3592.1655542298
 20
-276.625714488
 30
0.0
 40
2.61942323880373
100
AcDbArc
 50
261.4172077991
 51
311.5715089093
  0
LINE
  5
4F8
330
1F
100
AcDbEntity
  8
0
  6
Continuous
 62
     7
370
    25
100
AcDbLine
 10
3498.9036837258
 20
-278.5853787345
 30
0.0
 11
3498.9036837258
 21
-194.5853787345
 31
0.0
  0
ARC
  5
4F9
330
1F
100
AcDbEntity
  8
0
  6
Continuous
 62
     7
370
    25
100
AcDbCircle
 10
3500.6418132218
 20
-196.5450429811
 30
0.0
 40
2.619423238802878
100
AcDbArc
 50
81.4172077991
 51
131.5715089093
  0
ARC
  5
4FA
330
1F
100
AcDbEntity
  8
0
  6
Continuous
 62
     7
370
    25
100
AcDbCircle
 10
3500.6418132218
 20
-276.625714488
 30
0.0
 40
2.619423238802625
100
AcDbArc
 50
228.4284910907
 51
278.5827922009
  0
ARC
  5
4FB
330
1F
100
AcDbEntity
  8
0
  6
Continuous
 62
     7
370
    25
100
AcDbCircle
 10
3586.4440194793
 20
-282.3472492385
 30
0.0
 40
2.619423238809411
100
AcDbArc
 50
318.4284910908
 51
8.5827922008
  0
LINE
  5
4FC
330
1F
100
AcDbEntity
  8
0
  6
Continuous
 62
     7
370
    25
100
AcDbLine
 10
3588.4036837258
 20
-284.0853787345
 30
0.0
 11
3504.4036837258
 21
-284.0853787345
 31
0.0
  0
ARC
  5
4FD
330
1F
100
AcDbEntity
  8
0
  6
Continuous
 62
     7
370
    25
100
AcDbCircle
 10
3506.3633479723
 20
-282.3472492385
 30
0.0
 40
2.619423238805056
100
AcDbArc
 50
171.4172077991
 51
221.5715089092
  0
LINE
  5
4FE
330
1F
100
AcDbEntity
  8
0
  6
Continuous
 62
     7
370
    25
100
AcDbLine
 10
3504.4036837258
 20
-189.0853787345
 30
0.0
 11
3588.4036837258
 21
-189.0853787345
 31
0.0
  0
ARC
  5
4FF
330
1F
100
AcDbEntity
  8
0
  6
Continuous
 62
     7
370
    25
100
AcDbCircle
 10
3586.4440194793
 20
-190.8235082306
 30
0.0
 40
2.619423238807598
100
AcDbArc
 50
351.4172077991
 51
41.5715089092
  0
ARC
  5
500
330
1F
100
AcDbEntity
  8
0
  6
Continuous
 62
     7
370
    25
100
AcDbCircle
 10
3506.3633479723
 20
-190.8235082306
 30
0.0
 40
2.61942323880288
100
AcDbArc
 50
138.4284910907
 51
188.5827922009
  0
ARC
  5
501
330
1F
100
AcDbEntity
  8
0
  6
Continuous
 62
     7
370
    25
100
AcDbCircle
 10
3504.4036837258
 20
-278.5853787345
 30
0.0
 40
5.500000000000909
100
AcDbArc
 50
180.0
 51
270.0
  0
ARC
  5
502
330
1F
100
AcDbEntity
  8
0
  6
Continuous
 62
     7
370
    25
100
AcDbCircle
 10
3588.4036837258
 20
-194.5853787345
 30
0.0
 40
5.499999999999801
100
AcDbArc
 50
360.0
 51
90.0
  0
ARC
  5
503
330
1F
100
AcDbEntity
  8
0
  6
Continuous
 62
     7
370
    25
100
AcDbCircle
 10
3504.4036837258
 20
-194.5853787345
 30
0.0
 40
5.500000000000909
100
AcDbArc
 50
90.0
 51
180.0
  0
ARC
  5
504
330
1F
100
AcDbEntity
  8
0
  6
Continuous
 62
     7
370
    25
100
AcDbCircle
 10
3588.4036837258
 20
-278.5853787345
 30
0.0
 40
5.500000000000341
100
AcDbArc
 50
270.0
 51
360.0
  0
CIRCLE
  5
505
330
1F
100
AcDbEntity
  8
0
  6
Continuous
 62
     7
370
    25
100
AcDbCircle
 10
2776.4036837258
 20
533.4146212655
 30
0.0
 40
8.599999999999909
  0
CIRCLE
  5
506
330
1F
100
AcDbEntity
  8
0
  6
Continuous
 62
     7
370
    25
100
AcDbCircle
 10
2776.4036837258
 20
533.4146212655
 30
0.0
 40
11.09999999999991
  0
CIRCLE
  5
507
330
1F
100
AcDbEntity
  8
0
  6
Continuous
 62
     7
370
    25
100
AcDbCircle
 10
3546.4036837258
 20
-236.5853787345
 30
0.0
 40
8.599999999999909
  0
CIRCLE
  5
508
330
1F
100
AcDbEntity
  8
0
  6
Continuous
 62
     7
370
    25
100
AcDbCircle
 10
3546.4036837258
 20
-236.5853787345
 30
0.0
 40
11.10000000000036
  0
CIRCLE
  5
509
330
1F
100
AcDbEntity
  8
0
  6
Continuous
 62
     7
370
    25
100
AcDbCircle
 10
2776.4036837258
 20
-236.5853787345
 30
0.0
 40
8.599999999999909
  0
CIRCLE
  5
50A
330
1F
100
AcDbEntity
  8
0
  6
Continuous
 62
     7
370
    25
100
AcDbCircle
 10
2776.4036837258
 20
-236.5853787345
 30
0.0
 40
11.10000000000036
  0
CIRCLE
  5
50B
330
1F
100
AcDbEntity
  8
0
  6
Continuous
 62
     7
370
    25
100
AcDbCircle
 10
3546.4036837258
 20
533.4146212655
 30
0.0
 40
8.599999999999909
  0
CIRCLE
  5
50C
330
1F
100
AcDbEntity
  8
0
  6
Continuous
 62
     7
370
    25
100
AcDbCircle
 10
3546.4036837258
 20
533.4146212655
 30
0.0
 40
11.09999999999991
  0
LINE
  5
50D
330
1F
100
AcDbEntity
  8
0
  6
Continuous
 62
     8
370
    25
100
AcDbLine
 10
2900.6618846228
 20
2078.4146212655
 30
0.0
 11
2900.6618846228
 21
568.4146212655
 31
0.0
  0
LINE
  5
50E
330
1F
100
AcDbEntity
  8
0
  6
Continuous
 62
     8
370
    25
100
AcDbLine
 10
2900.6618846228
 20
-271.5853787345
 30
0.0
 11
2900.6618846228
 21
-1781.5853787345
 31
0.0
  0
LINE
  5
50F
330
1F
100
AcDbEntity
  8
0
  6
Continuous
 62
     8
370
    25
100
AcDbLine
 10
2408.1327043623
 20
2043.165751629
 30
0.0
 11
2408.1327043623
 21
408.4146212655
 31
0.0
  0
LINE
  5
510
330
1F
100
AcDbEntity
  8
0
  6
Continuous
 62
     8
370
    25
100
AcDbLine
 10
2408.1327043623
 20
-111.5853787345
 30
0.0
 11
2408.1327043623
 21
-1746.3365090981
 31
0.0
  0
LINE
  5
511
330
1F
100
AcDbEntity
  8
0
  6
Continuous
 62
     8
370
    25
100
AcDbLine
 10
-1893.5171554946
 20
1882.2652967757
 30
0.0
 11
-1893.5171554946
 21
408.4146212655
 31
0.0
  0
LINE
  5
512
330
1F
100
AcDbEntity
  8
0
  6
Continuous
 62
     8
370
    25
100
AcDbLine
 10
-1893.5171554946
 20
-111.5853787345
 30
0.0
 11
-1893.5171554946
 21
-1585.4360542448
 31
0.0
  0
LINE
  5
513
330
1F
100
AcDbEntity
  8
0
  6
Continuous
 62
     8
370
    25
100
AcDbLine
 10
-2386.0463357551
 20
1694.8652317794
 30
0.0
 11
-2386.0463357551
 21
408.4146212655
 31
0.0
  0
LINE
  5
514
330
1F
100
AcDbEntity
  8
0
  6
Continuous
 62
     8
370
    25
100
AcDbLine
 10
-2386.0463357551
 20
-111.5853787345
 30
0.0
 11
-2386.0463357551
 21
-1398.0359892485
 31
0.0
  0
LINE
  5
515
330
1F
100
AcDbEntity
  8
0
  6
Continuous
 62
     8
370
    25
100
AcDbLine
 10
-2625.3481087082
 20
-108.5853787345
 30
0.0
 11
-2673.564994268
 21
-108.5853787345
 31
0.0
  0
LINE
  5
516
330
1F
100
AcDbEntity
  8
0
  6
Continuous
 62
     8
370
    25
100
AcDbLine
 10
-2673.564994268
 20
-99.5853787345
 30
0.0
 11
-2625.3481087082
 21
-99.5853787345
 31
0.0
  0
LINE
  5
517
330
1F
100
AcDbEntity
  8
0
  6
Continuous
 62
     8
370
    25
100
AcDbLine
 10
2743.2485359274
 20
-108.5853787345
 30
0.0
 11
2731.4036837258
 21
-108.5853787345
 31
0.0
  0
LINE
  5
518
330
1F
100
AcDbEntity
  8
0
  6
Continuous
 62
     8
370
    25
100
AcDbLine
 10
2719.4036837258
 20
-108.5853787345
 30
0.0
 11
2705.054105835
 21
-108.5853787345
 31
0.0
  0
LINE
  5
519
330
1F
100
AcDbEntity
  8
0
  6
Continuous
 62
     8
370
    25
100
AcDbLine
 10
2705.054105835
 20
-99.5853787345
 30
0.0
 11
2719.4036837258
 21
-99.5853787345
 31
0.0
  0
LINE
  5
51A
330
1F
100
AcDbEntity
  8
0
  6
Continuous
 62
     8
370
    25
100
AcDbLine
 10
2731.4036837258
 20
-99.5853787345
 30
0.0
 11
2743.2485359274
 21
-99.5853787345
 31
0.0
  0
LINE
  5
51B
330
1F
100
AcDbEntity
  8
0
  6
Continuous
 62
     8
370
    25
100
AcDbLine
 10
2743.2485359274
 20
-99.5853787345
 30
0.0
 11
2763.9036837258
 21
-99.5853787345
 31
0.0
  0
LINE
  5
51C
330
1F
100
AcDbEntity
  8
0
  6
Continuous
 62
     8
370
    25
100
AcDbLine
 10
2763.9036837258
 20
-108.5853787345
 30
0.0
 11
2743.2485359274
 21
-108.5853787345
 31
0.0
  0
LINE
  5
51D
330
1F
100
AcDbEntity
  8
0
  6
Continuous
 62
     8
370
    25
100
AcDbLine
 10
-2546.1725834823
 20
-113.8353787345
 30
0.0
 11
-2564.87188764
 21
-113.8353787345
 31
0.0
  0
LINE
  5
51E
330
1F
100
AcDbEntity
  8
0
  6
Continuous
 62
     8
370
    25
100
AcDbLine
 10
-2564.87188764
 20
410.6646212655
 30
0.0
 11
-2546.1725834823
 21
410.6646212655
 31
0.0
  0
LINE
  5
51F
330
1F
100
AcDbEntity
  8
0
  6
Continuous
 62
     8
370
    25
100
AcDbLine
 10
679.289562031
 20
-128.5853787345
 30
0.0
 11
699.289562031
 21
-128.5853787345
 31
0.0
  0
LINE
  5
520
330
1F
100
AcDbEntity
  8
0
  6
Continuous
 62
     8
370
    25
100
AcDbLine
 10
659.289562031
 20
-128.5853787345
 30
0.0
 11
679.289562031
 21
-128.5853787345
 31
0.0
  0
LINE
  5
521
330
1F
100
AcDbEntity
  8
0
  6
Continuous
 62
     8
370
    25
100
AcDbLine
 10
-1444.6183320194
 20
-113.5853787345
 30
0.0
 11
-1404.6183320194
 21
-113.5853787345
 31
0.0
  0
LINE
  5
522
330
1F
100
AcDbEntity
  8
0
  6
Continuous
 62
     8
370
    25
100
AcDbLine
 10
-2620.4954544639
 20
-113.5853787345
 30
0.0
 11
-2580.4954544639
 21
-113.5853787345
 31
0.0
  0
LINE
  5
523
330
1F
100
AcDbEntity
  8
0
  6
Continuous
 62
     8
370
    25
100
AcDbLine
 10
2294.2630669617
 20
410.4146212655
 30
0.0
 11
2281.924047123
 21
410.4146212655
 31
0.0
  0
LINE
  5
524
330
1F
100
AcDbEntity
  8
0
  6
Continuous
 62
     8
370
    25
100
AcDbLine
 10
2321.924047123
 20
410.4146212655
 30
0.0
 11
2294.2630669617
 21
410.4146212655
 31
0.0
  0
LINE
  5
525
330
1F
100
AcDbEntity
  8
0
  6
Continuous
 62
     8
370
    25
100
AcDbLine
 10
2281.924047123
 20
-113.5853787345
 30
0.0
 11
2321.924047123
 21
-113.5853787345
 31
0.0
  0
LINE
  5
526
330
1F
100
AcDbEntity
  8
0
  6
Continuous
 62
     8
370
    25
100
AcDbLine
 10
-2603.0158632468
 20
410.4146212655
 30
0.0
 11
-2620.4954544639
 21
410.4146212655
 31
0.0
  0
LINE
  5
527
330
1F
100
AcDbEntity
  8
0
  6
Continuous
 62
     8
370
    25
100
AcDbLine
 10
-2580.4954544639
 20
410.4146212655
 30
0.0
 11
-2603.0158632468
 21
410.4146212655
 31
0.0
  0
LINE
  5
528
330
1F
100
AcDbEntity
  8
0
  6
Continuous
 62
     8
370
    25
100
AcDbLine
 10
-1846.3395765298
 20
410.4146212655
 30
0.0
 11
-1858.6785963685
 21
410.4146212655
 31
0.0
  0
LINE
  5
529
330
1F
100
AcDbEntity
  8
0
  6
Continuous
 62
     8
370
    25
100
AcDbLine
 10
-1818.6785963685
 20
410.4146212655
 30
0.0
 11
-1846.3395765298
 21
410.4146212655
 31
0.0
  0
LINE
  5
52A
330
1F
100
AcDbEntity
  8
0
  6
Continuous
 62
     8
370
    25
100
AcDbLine
 10
-604.1587834823
 20
425.4146212655
 30
0.0
 11
-616.4978033211
 21
425.4146212655
 31
0.0
  0
LINE
  5
52B
330
1F
100
AcDbEntity
  8
0
  6
Continuous
 62
     8
370
    25
100
AcDbLine
 10
-576.4978033211
 20
425.4146212655
 30
0.0
 11
-604.1587834823
 21
425.4146212655
 31
0.0
  0
LINE
  5
52C
330
1F
100
AcDbEntity
  8
0
  6
Continuous
 62
     8
370
    25
100
AcDbLine
 10
1453.8035184247
 20
-113.5853787345
 30
0.0
 11
1493.8035184247
 21
-113.5853787345
 31
0.0
  0
LINE
  5
52D
330
1F
100
AcDbEntity
  8
0
  6
Continuous
 62
     8
370
    25
100
AcDbLine
 10
-2134.6355473602
 20
410.4146212655
 30
0.0
 11
-2146.974567199
 21
410.4146212655
 31
0.0
  0
LINE
  5
52E
330
1F
100
AcDbEntity
  8
0
  6
Continuous
 62
     8
370
    25
100
AcDbLine
 10
-2106.974567199
 20
410.4146212655
 30
0.0
 11
-2134.6355473602
 21
410.4146212655
 31
0.0
  0
LINE
  5
52F
330
1F
100
AcDbEntity
  8
0
  6
Continuous
 62
     8
370
    25
100
AcDbLine
 10
2708.3233313109
 20
410.4146212655
 30
0.0
 11
2695.9843114721
 21
410.4146212655
 31
0.0
  0
LINE
  5
530
330
1F
100
AcDbEntity
  8
0
  6
Continuous
 62
     8
370
    25
100
AcDbLine
 10
2735.9843114721
 20
410.4146212655
 30
0.0
 11
2731.4036837258
 21
410.4146212655
 31
0.0
  0
LINE
  5
531
330
1F
100
AcDbEntity
  8
0
  6
Continuous
 62
     8
370
    25
100
AcDbLine
 10
2719.4036837258
 20
410.4146212655
 30
0.0
 11
2708.3233313109
 21
410.4146212655
 31
0.0
  0
LINE
  5
532
330
1F
100
AcDbEntity
  8
0
  6
Continuous
 62
     8
370
    25
100
AcDbLine
 10
-1432.2793121806
 20
410.4146212655
 30
0.0
 11
-1444.6183320194
 21
410.4146212655
 31
0.0
  0
LINE
  5
533
330
1F
100
AcDbEntity
  8
0
  6
Continuous
 62
     8
370
    25
100
AcDbLine
 10
-1404.6183320194
 20
410.4146212655
 30
0.0
 11
-1432.2793121806
 21
410.4146212655
 31
0.0
  0
LINE
  5
534
330
1F
100
AcDbEntity
  8
0
  6
Continuous
 62
     8
370
    25
100
AcDbLine
 10
-1077.7098744922
 20
425.4146212655
 30
0.0
 11
-1117.7098744922
 21
425.4146212655
 31
0.0
  0
LINE
  5
535
330
1F
100
AcDbEntity
  8
0
  6
Continuous
 62
     8
370
    25
100
AcDbLine
 10
992.5914472536
 20
425.4146212655
 30
0.0
 11
952.5914472536
 21
425.4146212655
 31
0.0
  0
LINE
  5
536
330
1F
100
AcDbEntity
  8
0
  6
Continuous
 62
     8
370
    25
100
AcDbLine
 10
558.5311829045
 20
-128.5853787345
 30
0.0
 11
578.5311829045
 21
-128.5853787345
 31
0.0
  0
LINE
  5
537
330
1F
100
AcDbEntity
  8
0
  6
Continuous
 62
     8
370
    25
100
AcDbLine
 10
538.5311829045
 20
-128.5853787345
 30
0.0
 11
558.5311829045
 21
-128.5853787345
 31
0.0
  0
LINE
  5
538
330
1F
100
AcDbEntity
  8
0
  6
Continuous
 62
     8
370
    25
100
AcDbLine
 10
-616.4978033211
 20
-128.5853787345
 30
0.0
 11
-576.4978033211
 21
-128.5853787345
 31
0.0
  0
LINE
  5
539
330
1F
100
AcDbEntity
  8
0
  6
Continuous
 62
     8
370
    25
100
AcDbLine
 10
-683.649610143
 20
-128.5853787345
 30
0.0
 11
-663.649610143
 21
-128.5853787345
 31
0.0
  0
LINE
  5
53A
330
1F
100
AcDbEntity
  8
0
  6
Continuous
 62
     8
370
    25
100
AcDbLine
 10
-703.649610143
 20
-128.5853787345
 30
0.0
 11
-683.649610143
 21
-128.5853787345
 31
0.0
  0
LINE
  5
53B
330
1F
100
AcDbEntity
  8
0
  6
Continuous
 62
     8
370
    25
100
AcDbLine
 10
938.984874949
 20
-128.5853787345
 30
0.0
 11
952.5914472536
 21
-128.5853787345
 31
0.0
  0
LINE
  5
53C
330
1F
100
AcDbEntity
  8
0
  6
Continuous
 62
     8
370
    25
100
AcDbLine
 10
918.984874949
 20
-128.5853787345
 30
0.0
 11
938.984874949
 21
-128.5853787345
 31
0.0
  0
LINE
  5
53D
330
1F
100
AcDbEntity
  8
0
  6
Continuous
 62
     8
370
    25
100
AcDbLine
 10
1052.0822739143
 20
425.4146212655
 30
0.0
 11
1039.7432540755
 21
425.4146212655
 31
0.0
  0
LINE
  5
53E
330
1F
100
AcDbEntity
  8
0
  6
Continuous
 62
     8
370
    25
100
AcDbLine
 10
1079.7432540755
 20
425.4146212655
 30
0.0
 11
1052.0822739143
 21
425.4146212655
 31
0.0
  0
LINE
  5
53F
330
1F
100
AcDbEntity
  8
0
  6
Continuous
 62
     8
370
    25
100
AcDbLine
 10
-2546.1741560846
 20
-113.5853787345
 30
0.0
 11
-2506.1741560846
 21
-113.5853787345
 31
0.0
  0
LINE
  5
540
330
1F
100
AcDbEntity
  8
0
  6
Continuous
 62
     8
370
    25
100
AcDbLine
 10
-190.0985191332
 20
410.4146212655
 30
0.0
 11
-202.4375389719
 21
410.4146212655
 31
0.0
  0
LINE
  5
541
330
1F
100
AcDbEntity
  8
0
  6
Continuous
 62
     8
370
    25
100
AcDbLine
 10
-162.4375389719
 20
410.4146212655
 30
0.0
 11
-190.0985191332
 21
410.4146212655
 31
0.0
  0
LINE
  5
542
330
1F
100
AcDbEntity
  8
0
  6
Continuous
 62
     8
370
    25
100
AcDbLine
 10
1466.1425382634
 20
410.4146212655
 30
0.0
 11
1453.8035184247
 21
410.4146212655
 31
0.0
  0
LINE
  5
543
330
1F
100
AcDbEntity
  8
0
  6
Continuous
 62
     8
370
    25
100
AcDbLine
 10
1493.8035184247
 20
410.4146212655
 30
0.0
 11
1466.1425382634
 21
410.4146212655
 31
0.0
  0
LINE
  5
544
330
1F
100
AcDbEntity
  8
0
  6
Continuous
 62
     8
370
    25
100
AcDbLine
 10
1039.7432540755
 20
-128.5853787345
 30
0.0
 11
1079.7432540755
 21
-128.5853787345
 31
0.0
  0
LINE
  5
545
330
1F
100
AcDbEntity
  8
0
  6
Continuous
 62
     8
370
    25
100
AcDbLine
 10
2695.9843114721
 20
-113.5853787345
 30
0.0
 11
2719.4036837258
 21
-113.5853787345
 31
0.0
  0
LINE
  5
546
330
1F
100
AcDbEntity
  8
0
  6
Continuous
 62
     8
370
    25
100
AcDbLine
 10
2731.4036837258
 20
-113.5853787345
 30
0.0
 11
2735.9843114721
 21
-113.5853787345
 31
0.0
  0
LINE
  5
547
330
1F
100
AcDbEntity
  8
0
  6
Continuous
 62
     8
370
    25
100
AcDbLine
 10
891.805574749
 20
-128.5853787345
 30
0.0
 11
911.805574749
 21
-128.5853787345
 31
0.0
  0
LINE
  5
548
330
1F
100
AcDbEntity
  8
0
  6
Continuous
 62
     8
370
    25
100
AcDbLine
 10
871.805574749
 20
-128.5853787345
 30
0.0
 11
891.805574749
 21
-128.5853787345
 31
0.0
  0
LINE
  5
549
330
1F
100
AcDbEntity
  8
0
  6
Continuous
 62
     8
370
    25
100
AcDbLine
 10
952.5914472536
 20
425.4146212655
 30
0.0
 11
918.984874949
 21
425.4146212655
 31
0.0
  0
LINE
  5
54A
330
1F
100
AcDbEntity
  8
0
  6
Continuous
 62
     8
370
    25
100
AcDbLine
 10
-1858.6785963685
 20
-113.5853787345
 30
0.0
 11
-1818.6785963685
 21
-113.5853787345
 31
0.0
  0
LINE
  5
54B
330
1F
100
AcDbEntity
  8
0
  6
Continuous
 62
     8
370
    25
100
AcDbLine
 10
746.468862231
 20
425.4146212655
 30
0.0
 11
706.468862231
 21
425.4146212655
 31
0.0
  0
LINE
  5
54C
330
1F
100
AcDbEntity
  8
0
  6
Continuous
 62
     8
370
    25
100
AcDbLine
 10
726.468862231
 20
-128.5853787345
 30
0.0
 11
746.468862231
 21
-128.5853787345
 31
0.0
  0
LINE
  5
54D
330
1F
100
AcDbEntity
  8
0
  6
Continuous
 62
     8
370
    25
100
AcDbLine
 10
706.468862231
 20
-128.5853787345
 30
0.0
 11
726.468862231
 21
-128.5853787345
 31
0.0
  0
LINE
  5
54E
330
1F
100
AcDbEntity
  8
0
  6
Continuous
 62
     8
370
    25
100
AcDbLine
 10
638.0220095651
 20
425.4146212655
 30
0.0
 11
625.6829897264
 21
425.4146212655
 31
0.0
  0
LINE
  5
54F
330
1F
100
AcDbEntity
  8
0
  6
Continuous
 62
     8
370
    25
100
AcDbLine
 10
659.289562031
 20
425.4146212655
 30
0.0
 11
638.0220095651
 21
425.4146212655
 31
0.0
  0
LINE
  5
550
330
1F
100
AcDbEntity
  8
0
  6
Continuous
 62
     8
370
    25
100
AcDbLine
 10
699.289562031
 20
425.4146212655
 30
0.0
 11
659.289562031
 21
425.4146212655
 31
0.0
  0
LINE
  5
551
330
1F
100
AcDbEntity
  8
0
  6
Continuous
 62
     8
370
    25
100
AcDbLine
 10
578.5311829045
 20
425.4146212655
 30
0.0
 11
538.5311829045
 21
425.4146212655
 31
0.0
  0
LINE
  5
552
330
1F
100
AcDbEntity
  8
0
  6
Continuous
 62
     8
370
    25
100
AcDbLine
 10
-956.9514953656
 20
425.4146212655
 30
0.0
 11
-996.9514953656
 21
425.4146212655
 31
0.0
  0
LINE
  5
553
330
1F
100
AcDbEntity
  8
0
  6
Continuous
 62
     8
370
    25
100
AcDbLine
 10
625.6829897264
 20
-128.5853787345
 30
0.0
 11
659.289562031
 21
-128.5853787345
 31
0.0
  0
LINE
  5
554
330
1F
100
AcDbEntity
  8
0
  6
Continuous
 62
     8
370
    25
100
AcDbLine
 10
911.805574749
 20
425.4146212655
 30
0.0
 11
871.805574749
 21
425.4146212655
 31
0.0
  0
LINE
  5
555
330
1F
100
AcDbEntity
  8
0
  6
Continuous
 62
     8
370
    25
100
AcDbLine
 10
-2346.567953109
 20
-113.5853787345
 30
0.0
 11
-2306.567953109
 21
-113.5853787345
 31
0.0
  0
LINE
  5
556
330
1F
100
AcDbEntity
  8
0
  6
Continuous
 62
     8
370
    25
100
AcDbLine
 10
-909.7721951656
 20
425.4146212655
 30
0.0
 11
-949.7721951656
 21
425.4146212655
 31
0.0
  0
LINE
  5
557
330
1F
100
AcDbEntity
  8
0
  6
Continuous
 62
     8
370
    25
100
AcDbLine
 10
1867.8637827738
 20
-113.5853787345
 30
0.0
 11
1907.8637827738
 21
-113.5853787345
 31
0.0
  0
LINE
  5
558
330
1F
100
AcDbEntity
  8
0
  6
Continuous
 62
     8
370
    25
100
AcDbLine
 10
-2146.974567199
 20
-113.5853787345
 30
0.0
 11
-2106.974567199
 21
-113.5853787345
 31
0.0
  0
LINE
  5
559
330
1F
100
AcDbEntity
  8
0
  6
Continuous
 62
     8
370
    25
100
AcDbLine
 10
-2533.8351362458
 20
410.4146212655
 30
0.0
 11
-2546.1741560846
 21
410.4146212655
 31
0.0
  0
LINE
  5
55A
330
1F
100
AcDbEntity
  8
0
  6
Continuous
 62
     8
370
    25
100
AcDbLine
 10
-2506.1741560846
 20
410.4146212655
 30
0.0
 11
-2533.8351362458
 21
410.4146212655
 31
0.0
  0
LINE
  5
55B
330
1F
100
AcDbEntity
  8
0
  6
Continuous
 62
     8
370
    25
100
AcDbLine
 10
-929.7721951656
 20
-128.5853787345
 30
0.0
 11
-909.7721951656
 21
-128.5853787345
 31
0.0
  0
LINE
  5
55C
330
1F
100
AcDbEntity
  8
0
  6
Continuous
 62
     8
370
    25
100
AcDbLine
 10
-949.7721951656
 20
-128.5853787345
 30
0.0
 11
-929.7721951656
 21
-128.5853787345
 31
0.0
  0
LINE
  5
55D
330
1F
100
AcDbEntity
  8
0
  6
Continuous
 62
     8
370
    25
100
AcDbLine
 10
-1018.2190478315
 20
425.4146212655
 30
0.0
 11
-1030.5580676702
 21
425.4146212655
 31
0.0
  0
LINE
  5
55E
330
1F
100
AcDbEntity
  8
0
  6
Continuous
 62
     8
370
    25
100
AcDbLine
 10
-996.9514953656
 20
425.4146212655
 30
0.0
 11
-1018.2190478315
 21
425.4146212655
 31
0.0
  0
LINE
  5
55F
330
1F
100
AcDbEntity
  8
0
  6
Continuous
 62
     8
370
    25
100
AcDbLine
 10
-202.4375389719
 20
-113.5853787345
 30
0.0
 11
-162.4375389719
 21
-113.5853787345
 31
0.0
  0
LINE
  5
560
330
1F
100
AcDbEntity
  8
0
  6
Continuous
 62
     8
370
    25
100
AcDbLine
 10
-2334.2289332703
 20
410.4146212655
 30
0.0
 11
-2346.567953109
 21
410.4146212655
 31
0.0
  0
LINE
  5
561
330
1F
100
AcDbEntity
  8
0
  6
Continuous
 62
     8
370
    25
100
AcDbLine
 10
-2306.567953109
 20
410.4146212655
 30
0.0
 11
-2334.2289332703
 21
410.4146212655
 31
0.0
  0
LINE
  5
562
330
1F
100
AcDbEntity
  8
0
  6
Continuous
 62
     8
370
    25
100
AcDbLine
 10
-1097.7098744922
 20
-128.5853787345
 30
0.0
 11
-1077.7098744922
 21
-128.5853787345
 31
0.0
  0
LINE
  5
563
330
1F
100
AcDbEntity
  8
0
  6
Continuous
 62
     8
370
    25
100
AcDbLine
 10
-1117.7098744922
 20
-128.5853787345
 30
0.0
 11
-1097.7098744922
 21
-128.5853787345
 31
0.0
  0
LINE
  5
564
330
1F
100
AcDbEntity
  8
0
  6
Continuous
 62
     8
370
    25
100
AcDbLine
 10
-1030.5580676702
 20
-128.5853787345
 30
0.0
 11
-996.9514953656
 21
-128.5853787345
 31
0.0
  0
LINE
  5
565
330
1F
100
AcDbEntity
  8
0
  6
Continuous
 62
     8
370
    25
100
AcDbLine
 10
-976.9514953656
 20
-128.5853787345
 30
0.0
 11
-956.9514953656
 21
-128.5853787345
 31
0.0
  0
LINE
  5
566
330
1F
100
AcDbEntity
  8
0
  6
Continuous
 62
     8
370
    25
100
AcDbLine
 10
-996.9514953656
 20
-128.5853787345
 30
0.0
 11
-976.9514953656
 21
-128.5853787345
 31
0.0
  0
LINE
  5
567
330
1F
100
AcDbEntity
  8
0
  6
Continuous
 62
     8
370
    25
100
AcDbLine
 10
-703.649610143
 20
425.4146212655
 30
0.0
 11
-737.2561824476
 21
425.4146212655
 31
0.0
  0
LINE
  5
568
330
1F
100
AcDbEntity
  8
0
  6
Continuous
 62
     8
370
    25
100
AcDbLine
 10
-764.4354826476
 20
-128.5853787345
 30
0.0
 11
-744.4354826476
 21
-128.5853787345
 31
0.0
  0
LINE
  5
569
330
1F
100
AcDbEntity
  8
0
  6
Continuous
 62
     8
370
    25
100
AcDbLine
 10
-784.4354826476
 20
-128.5853787345
 30
0.0
 11
-764.4354826476
 21
-128.5853787345
 31
0.0
  0
LINE
  5
56A
330
1F
100
AcDbEntity
  8
0
  6
Continuous
 62
     8
370
    25
100
AcDbLine
 10
223.961745216
 20
410.4146212655
 30
0.0
 11
211.6227253772
 21
410.4146212655
 31
0.0
  0
LINE
  5
56B
330
1F
100
AcDbEntity
  8
0
  6
Continuous
 62
     8
370
    25
100
AcDbLine
 10
251.6227253772
 20
410.4146212655
 30
0.0
 11
223.961745216
 21
410.4146212655
 31
0.0
  0
LINE
  5
56C
330
1F
100
AcDbEntity
  8
0
  6
Continuous
 62
     8
370
    25
100
AcDbLine
 10
-744.4354826476
 20
425.4146212655
 30
0.0
 11
-784.4354826476
 21
425.4146212655
 31
0.0
  0
LINE
  5
56D
330
1F
100
AcDbEntity
  8
0
  6
Continuous
 62
     8
370
    25
100
AcDbLine
 10
972.5914472536
 20
-128.5853787345
 30
0.0
 11
992.5914472536
 21
-128.5853787345
 31
0.0
  0
LINE
  5
56E
330
1F
100
AcDbEntity
  8
0
  6
Continuous
 62
     8
370
    25
100
AcDbLine
 10
952.5914472536
 20
-128.5853787345
 30
0.0
 11
972.5914472536
 21
-128.5853787345
 31
0.0
  0
LINE
  5
56F
330
1F
100
AcDbEntity
  8
0
  6
Continuous
 62
     8
370
    25
100
AcDbLine
 10
-663.649610143
 20
425.4146212655
 30
0.0
 11
-703.649610143
 21
425.4146212655
 31
0.0
  0
LINE
  5
570
330
1F
100
AcDbEntity
  8
0
  6
Continuous
 62
     8
370
    25
100
AcDbLine
 10
211.6227253772
 20
-113.5853787345
 30
0.0
 11
251.6227253772
 21
-113.5853787345
 31
0.0
  0
LINE
  5
571
330
1F
100
AcDbEntity
  8
0
  6
Continuous
 62
     8
370
    25
100
AcDbLine
 10
1880.2028026126
 20
410.4146212655
 30
0.0
 11
1867.8637827738
 21
410.4146212655
 31
0.0
  0
LINE
  5
572
330
1F
100
AcDbEntity
  8
0
  6
Continuous
 62
     8
370
    25
100
AcDbLine
 10
1907.8637827738
 20
410.4146212655
 30
0.0
 11
1880.2028026126
 21
410.4146212655
 31
0.0
  0
LINE
  5
573
330
1F
100
AcDbEntity
  8
0
  6
Continuous
 62
     8
370
    25
100
AcDbLine
 10
-717.2561824476
 20
-128.5853787345
 30
0.0
 11
-703.649610143
 21
-128.5853787345
 31
0.0
  0
LINE
  5
574
330
1F
100
AcDbEntity
  8
0
  6
Continuous
 62
     8
370
    25
100
AcDbLine
 10
-737.2561824476
 20
-128.5853787345
 30
0.0
 11
-717.2561824476
 21
-128.5853787345
 31
0.0
  0
LINE
  5
575
330
1F
100
AcDbEntity
  8
0
  6
Continuous
 62
     8
370
    25
100
AcDbLine
 10
-1438.3183320194
 20
-128.7157700529
 30
0.0
 11
-1410.9183320194
 21
-128.7157700529
 31
0.0
  0
LINE
  5
576
330
1F
100
AcDbEntity
  8
0
  6
Continuous
 62
     8
370
    25
100
AcDbLine
 10
-1437.9848822198
 20
-129.2533116706
 30
0.0
 11
-1411.251781819
 21
-129.2533116706
 31
0.0
  0
LINE
  5
577
330
1F
100
AcDbEntity
  8
0
  6
Continuous
 62
     8
370
    25
100
AcDbLine
 10
-669.949610143
 20
440.5450125839
 30
0.0
 11
-697.349610143
 21
440.5450125839
 31
0.0
  0
LINE
  5
578
330
1F
100
AcDbEntity
  8
0
  6
Continuous
 62
     8
370
    25
100
AcDbLine
 10
-670.2830599426
 20
441.0825542015
 30
0.0
 11
-697.0161603434
 21
441.0825542015
 31
0.0
  0
LINE
  5
579
330
1F
100
AcDbEntity
  8
0
  6
Continuous
 62
     8
370
    25
100
AcDbLine
 10
-750.7354826476
 20
440.5450125839
 30
0.0
 11
-778.1354826476
 21
440.5450125839
 31
0.0
  0
LINE
  5
57A
330
1F
100
AcDbEntity
  8
0
  6
Continuous
 62
     8
370
    25
100
AcDbLine
 10
-751.0689324473
 20
441.0825542015
 30
0.0
 11
-777.802032848
 21
441.0825542015
 31
0.0
  0
LINE
  5
57B
330
1F
100
AcDbEntity
  8
0
  6
Continuous
 62
     8
370
    25
100
AcDbLine
 10
226.3749539668
 20
425.5450125839
 30
0.0
 11
217.9227253772
 21
425.5450125839
 31
0.0
  0
LINE
  5
57C
330
1F
100
AcDbEntity
  8
0
  6
Continuous
 62
     8
370
    25
100
AcDbLine
 10
245.3227253772
 20
425.5450125839
 30
0.0
 11
226.3749539668
 21
425.5450125839
 31
0.0
  0
LINE
  5
57D
330
1F
100
AcDbEntity
  8
0
  6
Continuous
 62
     8
370
    25
100
AcDbLine
 10
226.5026815817
 20
426.0825542015
 30
0.0
 11
218.2561751768
 21
426.0825542015
 31
0.0
  0
LINE
  5
57E
330
1F
100
AcDbEntity
  8
0
  6
Continuous
 62
     8
370
    25
100
AcDbLine
 10
244.9892755776
 20
426.0825542015
 30
0.0
 11
226.5026815817
 21
426.0825542015
 31
0.0
  0
LINE
  5
57F
330
1F
100
AcDbEntity
  8
0
  6
Continuous
 62
     8
370
    25
100
AcDbLine
 10
-764.4354826476
 20
-143.7157700529
 30
0.0
 11
-750.7354826476
 21
-143.7157700529
 31
0.0
  0
LINE
  5
580
330
1F
100
AcDbEntity
  8
0
  6
Continuous
 62
     8
370
    25
100
AcDbLine
 10
-778.1354826476
 20
-143.7157700529
 30
0.0
 11
-764.4354826476
 21
-143.7157700529
 31
0.0
  0
LINE
  5
581
330
1F
100
AcDbEntity
  8
0
  6
Continuous
 62
     8
370
    25
100
AcDbLine
 10
-764.4354826476
 20
-144.2533116706
 30
0.0
 11
-751.0689324473
 21
-144.2533116706
 31
0.0
  0
LINE
  5
582
330
1F
100
AcDbEntity
  8
0
  6
Continuous
 62
     8
370
    25
100
AcDbLine
 10
-777.802032848
 20
-144.2533116706
 30
0.0
 11
-764.4354826476
 21
-144.2533116706
 31
0.0
  0
LINE
  5
583
330
1F
100
AcDbEntity
  8
0
  6
Continuous
 62
     8
370
    25
100
AcDbLine
 10
972.5914472536
 20
-143.7157700529
 30
0.0
 11
986.2914472536
 21
-143.7157700529
 31
0.0
  0
LINE
  5
584
330
1F
100
AcDbEntity
  8
0
  6
Continuous
 62
     8
370
    25
100
AcDbLine
 10
958.8914472536
 20
-143.7157700529
 30
0.0
 11
972.5914472536
 21
-143.7157700529
 31
0.0
  0
LINE
  5
585
330
1F
100
AcDbEntity
  8
0
  6
Continuous
 62
     8
370
    25
100
AcDbLine
 10
972.5914472536
 20
-144.2533116706
 30
0.0
 11
985.957997454
 21
-144.2533116706
 31
0.0
  0
LINE
  5
586
330
1F
100
AcDbEntity
  8
0
  6
Continuous
 62
     8
370
    25
100
AcDbLine
 10
959.2248970532
 20
-144.2533116706
 30
0.0
 11
972.5914472536
 21
-144.2533116706
 31
0.0
  0
LINE
  5
587
330
1F
100
AcDbEntity
  8
0
  6
Continuous
 62
     8
370
    25
100
AcDbLine
 10
1882.6160113634
 20
425.5450125839
 30
0.0
 11
1874.1637827738
 21
425.5450125839
 31
0.0
  0
LINE
  5
588
330
1F
100
AcDbEntity
  8
0
  6
Continuous
 62
     8
370
    25
100
AcDbLine
 10
1901.5637827738
 20
425.5450125839
 30
0.0
 11
1882.6160113634
 21
425.5450125839
 31
0.0
  0
LINE
  5
589
330
1F
100
AcDbEntity
  8
0
  6
Continuous
 62
     8
370
    25
100
AcDbLine
 10
1882.7437389783
 20
426.0825542015
 30
0.0
 11
1874.4972325734
 21
426.0825542015
 31
0.0
  0
LINE
  5
58A
330
1F
100
AcDbEntity
  8
0
  6
Continuous
 62
     8
370
    25
100
AcDbLine
 10
1901.2303329742
 20
426.0825542015
 30
0.0
 11
1882.7437389783
 21
426.0825542015
 31
0.0
  0
LINE
  5
58B
330
1F
100
AcDbEntity
  8
0
  6
Continuous
 62
     8
370
    25
100
AcDbLine
 10
-703.5561824476
 20
440.5450125839
 30
0.0
 11
-730.9561824476
 21
440.5450125839
 31
0.0
  0
LINE
  5
58C
330
1F
100
AcDbEntity
  8
0
  6
Continuous
 62
     8
370
    25
100
AcDbLine
 10
-703.8896322472
 20
441.0825542015
 30
0.0
 11
-730.622732648
 21
441.0825542015
 31
0.0
  0
LINE
  5
58D
330
1F
100
AcDbEntity
  8
0
  6
Continuous
 62
     8
370
    25
100
AcDbLine
 10
-717.2561824476
 20
-143.7157700529
 30
0.0
 11
-703.5561824476
 21
-143.7157700529
 31
0.0
  0
LINE
  5
58E
330
1F
100
AcDbEntity
  8
0
  6
Continuous
 62
     8
370
    25
100
AcDbLine
 10
-730.9561824476
 20
-143.7157700529
 30
0.0
 11
-717.2561824476
 21
-143.7157700529
 31
0.0
  0
LINE
  5
58F
330
1F
100
AcDbEntity
  8
0
  6
Continuous
 62
     8
370
    25
100
AcDbLine
 10
-717.2561824476
 20
-144.2533116706
 30
0.0
 11
-703.8896322472
 21
-144.2533116706
 31
0.0
  0
LINE
  5
590
330
1F
100
AcDbEntity
  8
0
  6
Continuous
 62
     8
370
    25
100
AcDbLine
 10
-730.622732648
 20
-144.2533116706
 30
0.0
 11
-717.2561824476
 21
-144.2533116706
 31
0.0
  0
LINE
  5
591
330
1F
100
AcDbEntity
  8
0
  6
Continuous
 62
     8
370
    25
100
AcDbLine
 10
-196.1375389719
 20
-128.7157700529
 30
0.0
 11
-168.7375389719
 21
-128.7157700529
 31
0.0
  0
LINE
  5
592
330
1F
100
AcDbEntity
  8
0
  6
Continuous
 62
     8
370
    25
100
AcDbLine
 10
-195.8040891723
 20
-129.2533116706
 30
0.0
 11
-169.0709887715
 21
-129.2533116706
 31
0.0
  0
LINE
  5
593
330
1F
100
AcDbEntity
  8
0
  6
Continuous
 62
     8
370
    25
100
AcDbLine
 10
-976.9514953656
 20
-143.7157700529
 30
0.0
 11
-963.2514953656
 21
-143.7157700529
 31
0.0
  0
LINE
  5
594
330
1F
100
AcDbEntity
  8
0
  6
Continuous
 62
     8
370
    25
100
AcDbLine
 10
-990.6514953656
 20
-143.7157700529
 30
0.0
 11
-976.9514953656
 21
-143.7157700529
 31
0.0
  0
LINE
  5
595
330
1F
100
AcDbEntity
  8
0
  6
Continuous
 62
     8
370
    25
100
AcDbLine
 10
-976.9514953656
 20
-144.2533116706
 30
0.0
 11
-963.5849451652
 21
-144.2533116706
 31
0.0
  0
LINE
  5
596
330
1F
100
AcDbEntity
  8
0
  6
Continuous
 62
     8
370
    25
100
AcDbLine
 10
-990.318045566
 20
-144.2533116706
 30
0.0
 11
-976.9514953656
 21
-144.2533116706
 31
0.0
  0
LINE
  5
597
330
1F
100
AcDbEntity
  8
0
  6
Continuous
 62
     8
370
    25
100
AcDbLine
 10
-1024.2580676702
 20
-143.7157700529
 30
0.0
 11
-996.8580676702
 21
-143.7157700529
 31
0.0
  0
LINE
  5
598
330
1F
100
AcDbEntity
  8
0
  6
Continuous
 62
     8
370
    25
100
AcDbLine
 10
-1023.9246178706
 20
-144.2533116706
 30
0.0
 11
-997.1915174698
 21
-144.2533116706
 31
0.0
  0
LINE
  5
599
330
1F
100
AcDbEntity
  8
0
  6
Continuous
 62
     8
370
    25
100
AcDbLine
 10
-929.7721951656
 20
-143.7157700529
 30
0.0
 11
-916.0721951656
 21
-143.7157700529
 31
0.0
  0
LINE
  5
59A
330
1F
100
AcDbEntity
  8
0
  6
Continuous
 62
     8
370
    25
100
AcDbLine
 10
-943.4721951656
 20
-143.7157700529
 30
0.0
 11
-929.7721951656
 21
-143.7157700529
 31
0.0
  0
LINE
  5
59B
330
1F
100
AcDbEntity
  8
0
  6
Continuous
 62
     8
370
    25
100
AcDbLine
 10
-929.7721951656
 20
-144.2533116706
 30
0.0
 11
-916.4056449652
 21
-144.2533116706
 31
0.0
  0
LINE
  5
59C
330
1F
100
AcDbEntity
  8
0
  6
Continuous
 62
     8
370
    25
100
AcDbLine
 10
-943.138745366
 20
-144.2533116706
 30
0.0
 11
-929.7721951656
 21
-144.2533116706
 31
0.0
  0
LINE
  5
59D
330
1F
100
AcDbEntity
  8
0
  6
Continuous
 62
     8
370
    25
100
AcDbLine
 10
-1015.8058390807
 20
440.5450125839
 30
0.0
 11
-1024.2580676702
 21
440.5450125839
 31
0.0
  0
LINE
  5
59E
330
1F
100
AcDbEntity
  8
0
  6
Continuous
 62
     8
370
    25
100
AcDbLine
 10
-996.8580676702
 20
440.5450125839
 30
0.0
 11
-1015.8058390807
 21
440.5450125839
 31
0.0
  0
LINE
  5
59F
330
1F
100
AcDbEntity
  8
0
  6
Continuous
 62
     8
370
    25
100
AcDbLine
 10
-1015.6781114657
 20
441.0825542015
 30
0.0
 11
-1023.9246178706
 21
441.0825542015
 31
0.0
  0
LINE
  5
5A0
330
1F
100
AcDbEntity
  8
0
  6
Continuous
 62
     8
370
    25
100
AcDbLine
 10
-997.1915174698
 20
441.0825542015
 30
0.0
 11
-1015.6781114657
 21
441.0825542015
 31
0.0
  0
LINE
  5
5A1
330
1F
100
AcDbEntity
  8
0
  6
Continuous
 62
     8
370
    25
100
AcDbLine
 10
-2140.674567199
 20
-128.7157700529
 30
0.0
 11
-2113.274567199
 21
-128.7157700529
 31
0.0
  0
LINE
  5
5A2
330
1F
100
AcDbEntity
  8
0
  6
Continuous
 62
     8
370
    25
100
AcDbLine
 10
-2140.3411173994
 20
-129.2533116706
 30
0.0
 11
-2113.6080169986
 21
-129.2533116706
 31
0.0
  0
LINE
  5
5A3
330
1F
100
AcDbEntity
  8
0
  6
Continuous
 62
     8
370
    25
100
AcDbLine
 10
-2331.8157245195
 20
425.5450125839
 30
0.0
 11
-2340.267953109
 21
425.5450125839
 31
0.0
  0
LINE
  5
5A4
330
1F
100
AcDbEntity
  8
0
  6
Continuous
 62
     8
370
    25
100
AcDbLine
 10
-2312.867953109
 20
425.5450125839
 30
0.0
 11
-2331.8157245195
 21
425.5450125839
 31
0.0
  0
LINE
  5
5A5
330
1F
100
AcDbEntity
  8
0
  6
Continuous
 62
     8
370
    25
100
AcDbLine
 10
-2331.6879969045
 20
426.0825542015
 30
0.0
 11
-2339.9345033094
 21
426.0825542015
 31
0.0
  0
LINE
  5
5A6
330
1F
100
AcDbEntity
  8
0
  6
Continuous
 62
     8
370
    25
100
AcDbLine
 10
-2313.2014029086
 20
426.0825542015
 30
0.0
 11
-2331.6879969045
 21
426.0825542015
 31
0.0
  0
LINE
  5
5A7
330
1F
100
AcDbEntity
  8
0
  6
Continuous
 62
     8
370
    25
100
AcDbLine
 10
1874.1637827738
 20
-128.7157700529
 30
0.0
 11
1901.5637827738
 21
-128.7157700529
 31
0.0
  0
LINE
  5
5A8
330
1F
100
AcDbEntity
  8
0
  6
Continuous
 62
     8
370
    25
100
AcDbLine
 10
1874.4972325734
 20
-129.2533116706
 30
0.0
 11
1901.2303329742
 21
-129.2533116706
 31
0.0
  0
LINE
  5
5A9
330
1F
100
AcDbEntity
  8
0
  6
Continuous
 62
     8
370
    25
100
AcDbLine
 10
-916.0721951656
 20
440.5450125839
 30
0.0
 11
-943.4721951656
 21
440.5450125839
 31
0.0
  0
LINE
  5
5AA
330
1F
100
AcDbEntity
  8
0
  6
Continuous
 62
     8
370
    25
100
AcDbLine
 10
-916.4056449652
 20
441.0825542015
 30
0.0
 11
-943.138745366
 21
441.0825542015
 31
0.0
  0
LINE
  5
5AB
330
1F
100
AcDbEntity
  8
0
  6
Continuous
 62
     8
370
    25
100
AcDbLine
 10
631.9829897264
 20
-143.7157700529
 30
0.0
 11
659.3829897264
 21
-143.7157700529
 31
0.0
  0
LINE
  5
5AC
330
1F
100
AcDbEntity
  8
0
  6
Continuous
 62
     8
370
    25
100
AcDbLine
 10
632.316439526
 20
-144.2533116706
 30
0.0
 11
659.0495399268
 21
-144.2533116706
 31
0.0
  0
LINE
  5
5AD
330
1F
100
AcDbEntity
  8
0
  6
Continuous
 62
     8
370
    25
100
AcDbLine
 10
905.505574749
 20
440.5450125839
 30
0.0
 11
878.105574749
 21
440.5450125839
 31
0.0
  0
LINE
  5
5AE
330
1F
100
AcDbEntity
  8
0
  6
Continuous
 62
     8
370
    25
100
AcDbLine
 10
905.1721249494
 20
441.0825542015
 30
0.0
 11
878.4390245486
 21
441.0825542015
 31
0.0
  0
LINE
  5
5AF
330
1F
100
AcDbEntity
  8
0
  6
Continuous
 62
     8
370
    25
100
AcDbLine
 10
-2340.267953109
 20
-128.7157700529
 30
0.0
 11
-2312.867953109
 21
-128.7157700529
 31
0.0
  0
LINE
  5
5B0
330
1F
100
AcDbEntity
  8
0
  6
Continuous
 62
     8
370
    25
100
AcDbLine
 10
-2339.9345033094
 20
-129.2533116706
 30
0.0
 11
-2313.2014029086
 21
-129.2533116706
 31
0.0
  0
LINE
  5
5B1
330
1F
100
AcDbEntity
  8
0
  6
Continuous
 62
     8
370
    25
100
AcDbLine
 10
572.2311829045
 20
440.5450125839
 30
0.0
 11
544.8311829045
 21
440.5450125839
 31
0.0
  0
LINE
  5
5B2
330
1F
100
AcDbEntity
  8
0
  6
Continuous
 62
     8
370
    25
100
AcDbLine
 10
571.8977331048
 20
441.0825542015
 30
0.0
 11
545.1646327041
 21
441.0825542015
 31
0.0
  0
LINE
  5
5B3
330
1F
100
AcDbEntity
  8
0
  6
Continuous
 62
     8
370
    25
100
AcDbLine
 10
640.4352183159
 20
440.5450125839
 30
0.0
 11
631.9829897264
 21
440.5450125839
 31
0.0
  0
LINE
  5
5B4
330
1F
100
AcDbEntity
  8
0
  6
Continuous
 62
     8
370
    25
100
AcDbLine
 10
659.3829897264
 20
440.5450125839
 30
0.0
 11
640.4352183159
 21
440.5450125839
 31
0.0
  0
LINE
  5
5B5
330
1F
100
AcDbEntity
  8
0
  6
Continuous
 62
     8
370
    25
100
AcDbLine
 10
640.5629459309
 20
441.0825542015
 30
0.0
 11
632.316439526
 21
441.0825542015
 31
0.0
  0
LINE
  5
5B6
330
1F
100
AcDbEntity
  8
0
  6
Continuous
 62
     8
370
    25
100
AcDbLine
 10
659.0495399268
 20
441.0825542015
 30
0.0
 11
640.5629459309
 21
441.0825542015
 31
0.0
  0
LINE
  5
5B7
330
1F
100
AcDbEntity
  8
0
  6
Continuous
 62
     8
370
    25
100
AcDbLine
 10
692.989562031
 20
440.5450125839
 30
0.0
 11
665.589562031
 21
440.5450125839
 31
0.0
  0
LINE
  5
5B8
330
1F
100
AcDbEntity
  8
0
  6
Continuous
 62
     8
370
    25
100
AcDbLine
 10
692.6561122314
 20
441.0825542015
 30
0.0
 11
665.9230118306
 21
441.0825542015
 31
0.0
  0
LINE
  5
5B9
330
1F
100
AcDbEntity
  8
0
  6
Continuous
 62
     8
370
    25
100
AcDbLine
 10
726.468862231
 20
-143.7157700529
 30
0.0
 11
740.168862231
 21
-143.7157700529
 31
0.0
  0
LINE
  5
5BA
330
1F
100
AcDbEntity
  8
0
  6
Continuous
 62
     8
370
    25
100
AcDbLine
 10
712.768862231
 20
-143.7157700529
 30
0.0
 11
726.468862231
 21
-143.7157700529
 31
0.0
  0
LINE
  5
5BB
330
1F
100
AcDbEntity
  8
0
  6
Continuous
 62
     8
370
    25
100
AcDbLine
 10
726.468862231
 20
-144.2533116706
 30
0.0
 11
739.8354124314
 21
-144.2533116706
 31
0.0
  0
LINE
  5
5BC
330
1F
100
AcDbEntity
  8
0
  6
Continuous
 62
     8
370
    25
100
AcDbLine
 10
713.1023120306
 20
-144.2533116706
 30
0.0
 11
726.468862231
 21
-144.2533116706
 31
0.0
  0
LINE
  5
5BD
330
1F
100
AcDbEntity
  8
0
  6
Continuous
 62
     8
370
    25
100
AcDbLine
 10
740.168862231
 20
440.5450125839
 30
0.0
 11
712.768862231
 21
440.5450125839
 31
0.0
  0
LINE
  5
5BE
330
1F
100
AcDbEntity
  8
0
  6
Continuous
 62
     8
370
    25
100
AcDbLine
 10
739.8354124314
 20
441.0825542015
 30
0.0
 11
713.1023120306
 21
441.0825542015
 31
0.0
  0
LINE
  5
5BF
330
1F
100
AcDbEntity
  8
0
  6
Continuous
 62
     8
370
    25
100
AcDbLine
 10
-963.2514953656
 20
440.5450125839
 30
0.0
 11
-990.6514953656
 21
440.5450125839
 31
0.0
  0
LINE
  5
5C0
330
1F
100
AcDbEntity
  8
0
  6
Continuous
 62
     8
370
    25
100
AcDbLine
 10
-963.5849451652
 20
441.0825542015
 30
0.0
 11
-990.318045566
 21
441.0825542015
 31
0.0
  0
LINE
  5
5C1
330
1F
100
AcDbEntity
  8
0
  6
Continuous
 62
     8
370
    25
100
AcDbLine
 10
952.684874949
 20
440.5450125839
 30
0.0
 11
925.284874949
 21
440.5450125839
 31
0.0
  0
LINE
  5
5C2
330
1F
100
AcDbEntity
  8
0
  6
Continuous
 62
     8
370
    25
100
AcDbLine
 10
952.3514251494
 20
441.0825542015
 30
0.0
 11
925.6183247486
 21
441.0825542015
 31
0.0
  0
LINE
  5
5C3
330
1F
100
AcDbEntity
  8
0
  6
Continuous
 62
     8
370
    25
100
AcDbLine
 10
-2531.421927495
 20
425.5450125839
 30
0.0
 11
-2539.8741560846
 21
425.5450125839
 31
0.0
  0
LINE
  5
5C4
330
1F
100
AcDbEntity
  8
0
  6
Continuous
 62
     8
370
    25
100
AcDbLine
 10
-2512.4741560846
 20
425.5450125839
 30
0.0
 11
-2531.421927495
 21
425.5450125839
 31
0.0
  0
LINE
  5
5C5
330
1F
100
AcDbEntity
  8
0
  6
Continuous
 62
     8
370
    25
100
AcDbLine
 10
-2531.2941998801
 20
426.0825542015
 30
0.0
 11
-2539.540706285
 21
426.0825542015
 31
0.0
  0
LINE
  5
5C6
330
1F
100
AcDbEntity
  8
0
  6
Continuous
 62
     8
370
    25
100
AcDbLine
 10
-2512.8076058842
 20
426.0825542015
 30
0.0
 11
-2531.2941998801
 21
426.0825542015
 31
0.0
  0
LINE
  5
5C7
330
1F
100
AcDbEntity
  8
0
  6
Continuous
 62
     8
370
    25
100
AcDbLine
 10
-187.6853103824
 20
425.5450125839
 30
0.0
 11
-196.1375389719
 21
425.5450125839
 31
0.0
  0
LINE
  5
5C8
330
1F
100
AcDbEntity
  8
0
  6
Continuous
 62
     8
370
    25
100
AcDbLine
 10
-168.7375389719
 20
425.5450125839
 30
0.0
 11
-187.6853103824
 21
425.5450125839
 31
0.0
  0
LINE
  5
5C9
330
1F
100
AcDbEntity
  8
0
  6
Continuous
 62
     8
370
    25
100
AcDbLine
 10
-187.5575827674
 20
426.0825542015
 30
0.0
 11
-195.8040891723
 21
426.0825542015
 31
0.0
  0
LINE
  5
5CA
330
1F
100
AcDbEntity
  8
0
  6
Continuous
 62
     8
370
    25
100
AcDbLine
 10
-169.0709887715
 20
426.0825542015
 30
0.0
 11
-187.5575827674
 21
426.0825542015
 31
0.0
  0
LINE
  5
5CB
330
1F
100
AcDbEntity
  8
0
  6
Continuous
 62
     8
370
    25
100
AcDbLine
 10
2702.2843114721
 20
-128.7157700529
 30
0.0
 11
2719.4036837258
 21
-128.7157700529
 31
0.0
  0
LINE
  5
5CC
330
1F
100
AcDbEntity
  8
0
  6
Continuous
 62
     8
370
    25
100
AcDbLine
 10
2702.6177612717
 20
-129.2533116706
 30
0.0
 11
2719.4036837258
 21
-129.2533116706
 31
0.0
  0
LINE
  5
5CD
330
1F
100
AcDbEntity
  8
0
  6
Continuous
 62
     8
370
    25
100
AcDbLine
 10
1046.0432540755
 20
-143.7157700529
 30
0.0
 11
1073.4432540755
 21
-143.7157700529
 31
0.0
  0
LINE
  5
5CE
330
1F
100
AcDbEntity
  8
0
  6
Continuous
 62
     8
370
    25
100
AcDbLine
 10
1046.3767038751
 20
-144.2533116706
 30
0.0
 11
1073.1098042759
 21
-144.2533116706
 31
0.0
  0
LINE
  5
5CF
330
1F
100
AcDbEntity
  8
0
  6
Continuous
 62
     8
370
    25
100
AcDbLine
 10
891.805574749
 20
-143.7157700529
 30
0.0
 11
905.505574749
 21
-143.7157700529
 31
0.0
  0
LINE
  5
5D0
330
1F
100
AcDbEntity
  8
0
  6
Continuous
 62
     8
370
    25
100
AcDbLine
 10
878.105574749
 20
-143.7157700529
 30
0.0
 11
891.805574749
 21
-143.7157700529
 31
0.0
  0
LINE
  5
5D1
330
1F
100
AcDbEntity
  8
0
  6
Continuous
 62
     8
370
    25
100
AcDbLine
 10
891.805574749
 20
-144.2533116706
 30
0.0
 11
905.1721249494
 21
-144.2533116706
 31
0.0
  0
LINE
  5
5D2
330
1F
100
AcDbEntity
  8
0
  6
Continuous
 62
     8
370
    25
100
AcDbLine
 10
878.4390245486
 20
-144.2533116706
 30
0.0
 11
891.805574749
 21
-144.2533116706
 31
0.0
  0
LINE
  5
5D3
330
1F
100
AcDbEntity
  8
0
  6
Continuous
 62
     8
370
    25
100
AcDbLine
 10
1054.4954826651
 20
440.5450125839
 30
0.0
 11
1046.0432540755
 21
440.5450125839
 31
0.0
  0
LINE
  5
5D4
330
1F
100
AcDbEntity
  8
0
  6
Continuous
 62
     8
370
    25
100
AcDbLine
 10
1073.4432540755
 20
440.5450125839
 30
0.0
 11
1054.4954826651
 21
440.5450125839
 31
0.0
  0
LINE
  5
5D5
330
1F
100
AcDbEntity
  8
0
  6
Continuous
 62
     8
370
    25
100
AcDbLine
 10
1054.62321028
 20
441.0825542015
 30
0.0
 11
1046.3767038751
 21
441.0825542015
 31
0.0
  0
LINE
  5
5D6
330
1F
100
AcDbEntity
  8
0
  6
Continuous
 62
     8
370
    25
100
AcDbLine
 10
1073.1098042759
 20
441.0825542015
 30
0.0
 11
1054.62321028
 21
441.0825542015
 31
0.0
  0
LINE
  5
5D7
330
1F
100
AcDbEntity
  8
0
  6
Continuous
 62
     8
370
    25
100
AcDbLine
 10
-610.1978033211
 20
-143.7157700529
 30
0.0
 11
-582.7978033211
 21
-143.7157700529
 31
0.0
  0
LINE
  5
5D8
330
1F
100
AcDbEntity
  8
0
  6
Continuous
 62
     8
370
    25
100
AcDbLine
 10
-609.8643535215
 20
-144.2533116706
 30
0.0
 11
-583.1312531207
 21
-144.2533116706
 31
0.0
  0
LINE
  5
5D9
330
1F
100
AcDbEntity
  8
0
  6
Continuous
 62
     8
370
    25
100
AcDbLine
 10
938.984874949
 20
-143.7157700529
 30
0.0
 11
952.684874949
 21
-143.7157700529
 31
0.0
  0
LINE
  5
5DA
330
1F
100
AcDbEntity
  8
0
  6
Continuous
 62
     8
370
    25
100
AcDbLine
 10
925.284874949
 20
-143.7157700529
 30
0.0
 11
938.984874949
 21
-143.7157700529
 31
0.0
  0
LINE
  5
5DB
330
1F
100
AcDbEntity
  8
0
  6
Continuous
 62
     8
370
    25
100
AcDbLine
 10
938.984874949
 20
-144.2533116706
 30
0.0
 11
952.3514251494
 21
-144.2533116706
 31
0.0
  0
LINE
  5
5DC
330
1F
100
AcDbEntity
  8
0
  6
Continuous
 62
     8
370
    25
100
AcDbLine
 10
925.6183247486
 20
-144.2533116706
 30
0.0
 11
938.984874949
 21
-144.2533116706
 31
0.0
  0
LINE
  5
5DD
330
1F
100
AcDbEntity
  8
0
  6
Continuous
 62
     8
370
    25
100
AcDbLine
 10
1468.5557470142
 20
425.5450125839
 30
0.0
 11
1460.1035184247
 21
425.5450125839
 31
0.0
  0
LINE
  5
5DE
330
1F
100
AcDbEntity
  8
0
  6
Continuous
 62
     8
370
    25
100
AcDbLine
 10
1487.5035184247
 20
425.5450125839
 30
0.0
 11
1468.5557470142
 21
425.5450125839
 31
0.0
  0
LINE
  5
5DF
330
1F
100
AcDbEntity
  8
0
  6
Continuous
 62
     8
370
    25
100
AcDbLine
 10
1468.6834746292
 20
426.0825542015
 30
0.0
 11
1460.4369682243
 21
426.0825542015
 31
0.0
  0
LINE
  5
5E0
330
1F
100
AcDbEntity
  8
0
  6
Continuous
 62
     8
370
    25
100
AcDbLine
 10
1487.1700686251
 20
426.0825542015
 30
0.0
 11
1468.6834746292
 21
426.0825542015
 31
0.0
  0
LINE
  5
5E1
330
1F
100
AcDbEntity
  8
0
  6
Continuous
 62
     8
370
    25
100
AcDbLine
 10
-683.649610143
 20
-143.7157700529
 30
0.0
 11
-669.949610143
 21
-143.7157700529
 31
0.0
  0
LINE
  5
5E2
330
1F
100
AcDbEntity
  8
0
  6
Continuous
 62
     8
370
    25
100
AcDbLine
 10
-697.349610143
 20
-143.7157700529
 30
0.0
 11
-683.649610143
 21
-143.7157700529
 31
0.0
  0
LINE
  5
5E3
330
1F
100
AcDbEntity
  8
0
  6
Continuous
 62
     8
370
    25
100
AcDbLine
 10
-683.649610143
 20
-144.2533116706
 30
0.0
 11
-670.2830599426
 21
-144.2533116706
 31
0.0
  0
LINE
  5
5E4
330
1F
100
AcDbEntity
  8
0
  6
Continuous
 62
     8
370
    25
100
AcDbLine
 10
-697.0161603434
 20
-144.2533116706
 30
0.0
 11
-683.649610143
 21
-144.2533116706
 31
0.0
  0
LINE
  5
5E5
330
1F
100
AcDbEntity
  8
0
  6
Continuous
 62
     8
370
    25
100
AcDbLine
 10
-2539.8741560846
 20
-128.7157700529
 30
0.0
 11
-2512.4741560846
 21
-128.7157700529
 31
0.0
  0
LINE
  5
5E6
330
1F
100
AcDbEntity
  8
0
  6
Continuous
 62
     8
370
    25
100
AcDbLine
 10
-2539.540706285
 20
-129.2533116706
 30
0.0
 11
-2512.8076058842
 21
-129.2533116706
 31
0.0
  0
LINE
  5
5E7
330
1F
100
AcDbEntity
  8
0
  6
Continuous
 62
     8
370
    25
100
AcDbLine
 10
-601.7455747315
 20
440.5450125839
 30
0.0
 11
-610.1978033211
 21
440.5450125839
 31
0.0
  0
LINE
  5
5E8
330
1F
100
AcDbEntity
  8
0
  6
Continuous
 62
     8
370
    25
100
AcDbLine
 10
-582.7978033211
 20
440.5450125839
 30
0.0
 11
-601.7455747315
 21
440.5450125839
 31
0.0
  0
LINE
  5
5E9
330
1F
100
AcDbEntity
  8
0
  6
Continuous
 62
     8
370
    25
100
AcDbLine
 10
-601.6178471166
 20
441.0825542015
 30
0.0
 11
-609.8643535215
 21
441.0825542015
 31
0.0
  0
LINE
  5
5EA
330
1F
100
AcDbEntity
  8
0
  6
Continuous
 62
     8
370
    25
100
AcDbLine
 10
-583.1312531207
 20
441.0825542015
 30
0.0
 11
-601.6178471166
 21
441.0825542015
 31
0.0
  0
LINE
  5
5EB
330
1F
100
AcDbEntity
  8
0
  6
Continuous
 62
     8
370
    25
100
AcDbLine
 10
558.5311829045
 20
-143.7157700529
 30
0.0
 11
572.2311829045
 21
-143.7157700529
 31
0.0
  0
LINE
  5
5EC
330
1F
100
AcDbEntity
  8
0
  6
Continuous
 62
     8
370
    25
100
AcDbLine
 10
544.8311829045
 20
-143.7157700529
 30
0.0
 11
558.5311829045
 21
-143.7157700529
 31
0.0
  0
LINE
  5
5ED
330
1F
100
AcDbEntity
  8
0
  6
Continuous
 62
     8
370
    25
100
AcDbLine
 10
558.5311829045
 20
-144.2533116706
 30
0.0
 11
571.8977331048
 21
-144.2533116706
 31
0.0
  0
LINE
  5
5EE
330
1F
100
AcDbEntity
  8
0
  6
Continuous
 62
     8
370
    25
100
AcDbLine
 10
545.1646327041
 20
-144.2533116706
 30
0.0
 11
558.5311829045
 21
-144.2533116706
 31
0.0
  0
LINE
  5
5EF
330
1F
100
AcDbEntity
  8
0
  6
Continuous
 62
     8
370
    25
100
AcDbLine
 10
-2132.2223386094
 20
425.5450125839
 30
0.0
 11
-2140.674567199
 21
425.5450125839
 31
0.0
  0
LINE
  5
5F0
330
1F
100
AcDbEntity
  8
0
  6
Continuous
 62
     8
370
    25
100
AcDbLine
 10
-2113.274567199
 20
425.5450125839
 30
0.0
 11
-2132.2223386094
 21
425.5450125839
 31
0.0
  0
LINE
  5
5F1
330
1F
100
AcDbEntity
  8
0
  6
Continuous
 62
     8
370
    25
100
AcDbLine
 10
-2132.0946109945
 20
426.0825542015
 30
0.0
 11
-2140.3411173994
 21
426.0825542015
 31
0.0
  0
LINE
  5
5F2
330
1F
100
AcDbEntity
  8
0
  6
Continuous
 62
     8
370
    25
100
AcDbLine
 10
-2113.6080169986
 20
426.0825542015
 30
0.0
 11
-2132.0946109945
 21
426.0825542015
 31
0.0
  0
LINE
  5
5F3
330
1F
100
AcDbEntity
  8
0
  6
Continuous
 62
     8
370
    25
100
AcDbLine
 10
-1084.0098744922
 20
440.5450125839
 30
0.0
 11
-1111.4098744922
 21
440.5450125839
 31
0.0
  0
LINE
  5
5F4
330
1F
100
AcDbEntity
  8
0
  6
Continuous
 62
     8
370
    25
100
AcDbLine
 10
-1084.3433242918
 20
441.0825542015
 30
0.0
 11
-1111.0764246926
 21
441.0825542015
 31
0.0
  0
LINE
  5
5F5
330
1F
100
AcDbEntity
  8
0
  6
Continuous
 62
     8
370
    25
100
AcDbLine
 10
986.2914472536
 20
440.5450125839
 30
0.0
 11
958.8914472536
 21
440.5450125839
 31
0.0
  0
LINE
  5
5F6
330
1F
100
AcDbEntity
  8
0
  6
Continuous
 62
     8
370
    25
100
AcDbLine
 10
985.957997454
 20
441.0825542015
 30
0.0
 11
959.2248970532
 21
441.0825542015
 31
0.0
  0
LINE
  5
5F7
330
1F
100
AcDbEntity
  8
0
  6
Continuous
 62
     8
370
    25
100
AcDbLine
 10
2710.7365400617
 20
425.5450125839
 30
0.0
 11
2702.2843114721
 21
425.5450125839
 31
0.0
  0
LINE
  5
5F8
330
1F
100
AcDbEntity
  8
0
  6
Continuous
 62
     8
370
    25
100
AcDbLine
 10
2719.4036837258
 20
425.5450125839
 30
0.0
 11
2710.7365400617
 21
425.5450125839
 31
0.0
  0
LINE
  5
5F9
330
1F
100
AcDbEntity
  8
0
  6
Continuous
 62
     8
370
    25
100
AcDbLine
 10
2710.8642676766
 20
426.0825542015
 30
0.0
 11
2702.6177612717
 21
426.0825542015
 31
0.0
  0
LINE
  5
5FA
330
1F
100
AcDbEntity
  8
0
  6
Continuous
 62
     8
370
    25
100
AcDbLine
 10
2719.4036837258
 20
426.0825542015
 30
0.0
 11
2710.8642676766
 21
426.0825542015
 31
0.0
  0
LINE
  5
5FB
330
1F
100
AcDbEntity
  8
0
  6
Continuous
 62
     8
370
    25
100
AcDbLine
 10
-1429.8661034298
 20
425.5450125839
 30
0.0
 11
-1438.3183320194
 21
425.5450125839
 31
0.0
  0
LINE
  5
5FC
330
1F
100
AcDbEntity
  8
0
  6
Continuous
 62
     8
370
    25
100
AcDbLine
 10
-1410.9183320194
 20
425.5450125839
 30
0.0
 11
-1429.8661034298
 21
425.5450125839
 31
0.0
  0
LINE
  5
5FD
330
1F
100
AcDbEntity
  8
0
  6
Continuous
 62
     8
370
    25
100
AcDbLine
 10
-1429.7383758149
 20
426.0825542015
 30
0.0
 11
-1437.9848822198
 21
426.0825542015
 31
0.0
  0
LINE
  5
5FE
330
1F
100
AcDbEntity
  8
0
  6
Continuous
 62
     8
370
    25
100
AcDbLine
 10
-1411.251781819
 20
426.0825542015
 30
0.0
 11
-1429.7383758149
 21
426.0825542015
 31
0.0
  0
LINE
  5
5FF
330
1F
100
AcDbEntity
  8
0
  6
Continuous
 62
     8
370
    25
100
AcDbLine
 10
1460.1035184247
 20
-128.7157700529
 30
0.0
 11
1487.5035184247
 21
-128.7157700529
 31
0.0
  0
LINE
  5
600
330
1F
100
AcDbEntity
  8
0
  6
Continuous
 62
     8
370
    25
100
AcDbLine
 10
1460.4369682243
 20
-129.2533116706
 30
0.0
 11
1487.1700686251
 21
-129.2533116706
 31
0.0
  0
LINE
  5
601
330
1F
100
AcDbEntity
  8
0
  6
Continuous
 62
     8
370
    25
100
AcDbLine
 10
-1097.7098744922
 20
-143.7157700529
 30
0.0
 11
-1084.0098744922
 21
-143.7157700529
 31
0.0
  0
LINE
  5
602
330
1F
100
AcDbEntity
  8
0
  6
Continuous
 62
     8
370
    25
100
AcDbLine
 10
-1111.4098744922
 20
-143.7157700529
 30
0.0
 11
-1097.7098744922
 21
-143.7157700529
 31
0.0
  0
LINE
  5
603
330
1F
100
AcDbEntity
  8
0
  6
Continuous
 62
     8
370
    25
100
AcDbLine
 10
-1097.7098744922
 20
-144.2533116706
 30
0.0
 11
-1084.3433242918
 21
-144.2533116706
 31
0.0
  0
LINE
  5
604
330
1F
100
AcDbEntity
  8
0
  6
Continuous
 62
     8
370
    25
100
AcDbLine
 10
-1111.0764246926
 20
-144.2533116706
 30
0.0
 11
-1097.7098744922
 21
-144.2533116706
 31
0.0
  0
LINE
  5
605
330
1F
100
AcDbEntity
  8
0
  6
Continuous
 62
     8
370
    25
100
AcDbLine
 10
-1843.926367779
 20
425.5450125839
 30
0.0
 11
-1852.3785963685
 21
425.5450125839
 31
0.0
  0
LINE
  5
606
330
1F
100
AcDbEntity
  8
0
  6
Continuous
 62
     8
370
    25
100
AcDbLine
 10
-1824.9785963685
 20
425.5450125839
 30
0.0
 11
-1843.926367779
 21
425.5450125839
 31
0.0
  0
LINE
  5
607
330
1F
100
AcDbEntity
  8
0
  6
Continuous
 62
     8
370
    25
100
AcDbLine
 10
-1843.798640164
 20
426.0825542015
 30
0.0
 11
-1852.0451465689
 21
426.0825542015
 31
0.0
  0
LINE
  5
608
330
1F
100
AcDbEntity
  8
0
  6
Continuous
 62
     8
370
    25
100
AcDbLine
 10
-1825.3120461681
 20
426.0825542015
 30
0.0
 11
-1843.798640164
 21
426.0825542015
 31
0.0
  0
LINE
  5
609
330
1F
100
AcDbEntity
  8
0
  6
Continuous
 62
     8
370
    25
100
AcDbLine
 10
-1852.3785963685
 20
-128.7157700529
 30
0.0
 11
-1824.9785963685
 21
-128.7157700529
 31
0.0
  0
LINE
  5
60A
330
1F
100
AcDbEntity
  8
0
  6
Continuous
 62
     8
370
    25
100
AcDbLine
 10
-1852.0451465689
 20
-129.2533116706
 30
0.0
 11
-1825.3120461681
 21
-129.2533116706
 31
0.0
  0
LINE
  5
60B
330
1F
100
AcDbEntity
  8
0
  6
Continuous
 62
     8
370
    25
100
AcDbLine
 10
2288.224047123
 20
-128.7157700529
 30
0.0
 11
2315.624047123
 21
-128.7157700529
 31
0.0
  0
LINE
  5
60C
330
1F
100
AcDbEntity
  8
0
  6
Continuous
 62
     8
370
    25
100
AcDbLine
 10
2288.5574969226
 20
-129.2533116706
 30
0.0
 11
2315.2905973234
 21
-129.2533116706
 31
0.0
  0
LINE
  5
60D
330
1F
100
AcDbEntity
  8
0
  6
Continuous
 62
     8
370
    25
100
AcDbLine
 10
-2602.2219344802
 20
425.5450125839
 30
0.0
 11
-2614.1954544639
 21
425.5450125839
 31
0.0
  0
LINE
  5
60E
330
1F
100
AcDbEntity
  8
0
  6
Continuous
 62
     8
370
    25
100
AcDbLine
 10
-2586.7954544639
 20
425.5450125839
 30
0.0
 11
-2602.2219344802
 21
425.5450125839
 31
0.0
  0
LINE
  5
60F
330
1F
100
AcDbEntity
  8
0
  6
Continuous
 62
     8
370
    25
100
AcDbLine
 10
-2602.17991299
 20
426.0825542015
 30
0.0
 11
-2613.8620046643
 21
426.0825542015
 31
0.0
  0
LINE
  5
610
330
1F
100
AcDbEntity
  8
0
  6
Continuous
 62
     8
370
    25
100
AcDbLine
 10
-2587.1289042635
 20
426.0825542015
 30
0.0
 11
-2602.17991299
 21
426.0825542015
 31
0.0
  0
LINE
  5
611
330
1F
100
AcDbEntity
  8
0
  6
Continuous
 62
     8
370
    25
100
AcDbLine
 10
679.289562031
 20
-143.7157700529
 30
0.0
 11
692.989562031
 21
-143.7157700529
 31
0.0
  0
LINE
  5
612
330
1F
100
AcDbEntity
  8
0
  6
Continuous
 62
     8
370
    25
100
AcDbLine
 10
665.589562031
 20
-143.7157700529
 30
0.0
 11
679.289562031
 21
-143.7157700529
 31
0.0
  0
LINE
  5
613
330
1F
100
AcDbEntity
  8
0
  6
Continuous
 62
     8
370
    25
100
AcDbLine
 10
679.289562031
 20
-144.2533116706
 30
0.0
 11
692.6561122314
 21
-144.2533116706
 31
0.0
  0
LINE
  5
614
330
1F
100
AcDbEntity
  8
0
  6
Continuous
 62
     8
370
    25
100
AcDbLine
 10
665.9230118306
 20
-144.2533116706
 30
0.0
 11
679.289562031
 21
-144.2533116706
 31
0.0
  0
LINE
  5
615
330
1F
100
AcDbEntity
  8
0
  6
Continuous
 62
     8
370
    25
100
AcDbLine
 10
2296.6762757125
 20
425.5450125839
 30
0.0
 11
2288.224047123
 21
425.5450125839
 31
0.0
  0
LINE
  5
616
330
1F
100
AcDbEntity
  8
0
  6
Continuous
 62
     8
370
    25
100
AcDbLine
 10
2315.624047123
 20
425.5450125839
 30
0.0
 11
2296.6762757125
 21
425.5450125839
 31
0.0
  0
LINE
  5
617
330
1F
100
AcDbEntity
  8
0
  6
Continuous
 62
     8
370
    25
100
AcDbLine
 10
2296.8040033275
 20
426.0825542015
 30
0.0
 11
2288.5574969226
 21
426.0825542015
 31
0.0
  0
LINE
  5
618
330
1F
100
AcDbEntity
  8
0
  6
Continuous
 62
     8
370
    25
100
AcDbLine
 10
2315.2905973234
 20
426.0825542015
 30
0.0
 11
2296.8040033275
 21
426.0825542015
 31
0.0
  0
LINE
  5
619
330
1F
100
AcDbEntity
  8
0
  6
Continuous
 62
     8
370
    25
100
AcDbLine
 10
-2614.1954544639
 20
-128.7157700529
 30
0.0
 11
-2586.7954544639
 21
-128.7157700529
 31
0.0
  0
LINE
  5
61A
330
1F
100
AcDbEntity
  8
0
  6
Continuous
 62
     8
370
    25
100
AcDbLine
 10
-2613.8620046643
 20
-129.2533116706
 30
0.0
 11
-2587.1289042635
 21
-129.2533116706
 31
0.0
  0
LINE
  5
61B
330
1F
100
AcDbEntity
  8
0
  6
Continuous
 62
     8
370
    25
100
AcDbLine
 10
217.9227253772
 20
-128.7157700529
 30
0.0
 11
245.3227253772
 21
-128.7157700529
 31
0.0
  0
LINE
  5
61C
330
1F
100
AcDbEntity
  8
0
  6
Continuous
 62
     8
370
    25
100
AcDbLine
 10
218.2561751768
 20
-129.2533116706
 30
0.0
 11
244.9892755776
 21
-129.2533116706
 31
0.0
  0
LINE
  5
61D
330
1F
100
AcDbEntity
  8
0
  6
Continuous
 62
     8
370
    25
100
AcDbLine
 10
-694.299610143
 20
-94.3353787345
 30
0.0
 11
-672.999610143
 21
-94.3353787345
 31
0.0
  0
LINE
  5
61E
330
1F
100
AcDbEntity
  8
0
  6
Continuous
 62
     8
370
    25
100
AcDbLine
 10
-727.9061824476
 20
-94.3353787345
 30
0.0
 11
-706.6061824476
 21
-94.3353787345
 31
0.0
  0
LINE
  5
61F
330
1F
100
AcDbEntity
  8
0
  6
Continuous
 62
     8
370
    25
100
AcDbLine
 10
928.334874949
 20
-94.3353787345
 30
0.0
 11
949.634874949
 21
-94.3353787345
 31
0.0
  0
LINE
  5
620
330
1F
100
AcDbEntity
  8
0
  6
Continuous
 62
     8
370
    25
100
AcDbLine
 10
881.155574749
 20
-94.3353787345
 30
0.0
 11
902.455574749
 21
-94.3353787345
 31
0.0
  0
LINE
  5
621
330
1F
100
AcDbEntity
  8
0
  6
Continuous
 62
     8
370
    25
100
AcDbLine
 10
715.818862231
 20
-94.3353787345
 30
0.0
 11
737.118862231
 21
-94.3353787345
 31
0.0
  0
LINE
  5
622
330
1F
100
AcDbEntity
  8
0
  6
Continuous
 62
     8
370
    25
100
AcDbLine
 10
668.639562031
 20
-94.3353787345
 30
0.0
 11
689.939562031
 21
-94.3353787345
 31
0.0
  0
LINE
  5
623
330
1F
100
AcDbEntity
  8
0
  6
Continuous
 62
     8
370
    25
100
AcDbLine
 10
-1108.3598744922
 20
-94.3353787345
 30
0.0
 11
-1087.0598744922
 21
-94.3353787345
 31
0.0
  0
LINE
  5
624
330
1F
100
AcDbEntity
  8
0
  6
Continuous
 62
     8
370
    25
100
AcDbLine
 10
-987.6014953656
 20
-94.3353787345
 30
0.0
 11
-966.3014953656
 21
-94.3353787345
 31
0.0
  0
LINE
  5
625
330
1F
100
AcDbEntity
  8
0
  6
Continuous
 62
     8
370
    25
100
AcDbLine
 10
902.455574749
 20
391.1646212655
 30
0.0
 11
881.155574749
 21
391.1646212655
 31
0.0
  0
LINE
  5
626
330
1F
100
AcDbEntity
  8
0
  6
Continuous
 62
     8
370
    25
100
AcDbLine
 10
737.118862231
 20
391.1646212655
 30
0.0
 11
715.818862231
 21
391.1646212655
 31
0.0
  0
LINE
  5
627
330
1F
100
AcDbEntity
  8
0
  6
Continuous
 62
     8
370
    25
100
AcDbLine
 10
949.634874949
 20
391.1646212655
 30
0.0
 11
928.334874949
 21
391.1646212655
 31
0.0
  0
LINE
  5
628
330
1F
100
AcDbEntity
  8
0
  6
Continuous
 62
     8
370
    25
100
AcDbLine
 10
-919.1221951656
 20
391.1646212655
 30
0.0
 11
-940.4221951656
 21
391.1646212655
 31
0.0
  0
LINE
  5
629
330
1F
100
AcDbEntity
  8
0
  6
Continuous
 62
     8
370
    25
100
AcDbLine
 10
961.9414472536
 20
-94.3353787345
 30
0.0
 11
983.2414472536
 21
-94.3353787345
 31
0.0
  0
LINE
  5
62A
330
1F
100
AcDbEntity
  8
0
  6
Continuous
 62
     8
370
    25
100
AcDbLine
 10
983.2414472536
 20
391.1646212655
 30
0.0
 11
961.9414472536
 21
391.1646212655
 31
0.0
  0
LINE
  5
62B
330
1F
100
AcDbEntity
  8
0
  6
Continuous
 62
     8
370
    25
100
AcDbLine
 10
689.939562031
 20
391.1646212655
 30
0.0
 11
668.639562031
 21
391.1646212655
 31
0.0
  0
LINE
  5
62C
330
1F
100
AcDbEntity
  8
0
  6
Continuous
 62
     8
370
    25
100
AcDbLine
 10
-672.999610143
 20
391.1646212655
 30
0.0
 11
-694.299610143
 21
391.1646212655
 31
0.0
  0
LINE
  5
62D
330
1F
100
AcDbEntity
  8
0
  6
Continuous
 62
     8
370
    25
100
AcDbLine
 10
-753.7854826477
 20
391.1646212655
 30
0.0
 11
-775.0854826477
 21
391.1646212655
 31
0.0
  0
LINE
  5
62E
330
1F
100
AcDbEntity
  8
0
  6
Continuous
 62
     8
370
    25
100
AcDbLine
 10
547.8811829044
 20
-94.3353787345
 30
0.0
 11
569.1811829044
 21
-94.3353787345
 31
0.0
  0
LINE
  5
62F
330
1F
100
AcDbEntity
  8
0
  6
Continuous
 62
     8
370
    25
100
AcDbLine
 10
-775.0854826477
 20
-94.3353787345
 30
0.0
 11
-753.7854826477
 21
-94.3353787345
 31
0.0
  0
LINE
  5
630
330
1F
100
AcDbEntity
  8
0
  6
Continuous
 62
     8
370
    25
100
AcDbLine
 10
569.1811829044
 20
391.1646212655
 30
0.0
 11
547.8811829044
 21
391.1646212655
 31
0.0
  0
LINE
  5
631
330
1F
100
AcDbEntity
  8
0
  6
Continuous
 62
     8
370
    25
100
AcDbLine
 10
-966.3014953656
 20
391.1646212655
 30
0.0
 11
-987.6014953656
 21
391.1646212655
 31
0.0
  0
LINE
  5
632
330
1F
100
AcDbEntity
  8
0
  6
Continuous
 62
     8
370
    25
100
AcDbLine
 10
-940.4221951656
 20
-94.3353787345
 30
0.0
 11
-919.1221951656
 21
-94.3353787345
 31
0.0
  0
LINE
  5
633
330
1F
100
AcDbEntity
  8
0
  6
Continuous
 62
     8
370
    25
100
AcDbLine
 10
-1087.0598744922
 20
391.1646212655
 30
0.0
 11
-1108.3598744922
 21
391.1646212655
 31
0.0
  0
LINE
  5
634
330
1F
100
AcDbEntity
  8
0
  6
Continuous
 62
     8
370
    25
100
AcDbLine
 10
-706.6061824476
 20
391.1646212655
 30
0.0
 11
-727.9061824476
 21
391.1646212655
 31
0.0
  0
LINE
  5
635
330
1F
100
AcDbEntity
  8
0
  6
Continuous
 62
     8
370
    25
100
AcDbLine
 10
-2673.564994268
 20
396.4146212655
 30
0.0
 11
-2625.3481087082
 21
396.4146212655
 31
0.0
  0
LINE
  5
636
330
1F
100
AcDbEntity
  8
0
  6
Continuous
 62
     8
370
    25
100
AcDbLine
 10
-2625.3481087082
 20
405.4146212655
 30
0.0
 11
-2673.564994268
 21
405.4146212655
 31
0.0
  0
LINE
  5
637
330
1F
100
AcDbEntity
  8
0
  6
Continuous
 62
     8
370
    25
100
AcDbLine
 10
1100.1386380646
 20
-114.5853787345
 30
0.0
 11
948.2685232133
 21
-114.5853787345
 31
0.0
  0
LINE
  5
638
330
1F
100
AcDbEntity
  8
0
  6
Continuous
 62
     8
370
    25
100
AcDbLine
 10
948.2685232133
 20
-123.5853787345
 30
0.0
 11
1100.1386380646
 21
-123.5853787345
 31
0.0
  0
LINE
  5
639
330
1F
100
AcDbEntity
  8
0
  6
Continuous
 62
     8
370
    25
100
AcDbLine
 10
554.263133215
 20
-114.5853787345
 30
0.0
 11
518.1357989154
 21
-114.5853787345
 31
0.0
  0
LINE
  5
63A
330
1F
100
AcDbEntity
  8
0
  6
Continuous
 62
     8
370
    25
100
AcDbLine
 10
518.1357989154
 20
-123.5853787345
 30
0.0
 11
554.263133215
 21
-123.5853787345
 31
0.0
  0
LINE
  5
63B
330
1F
100
AcDbEntity
  8
0
  6
Continuous
 62
     8
370
    25
100
AcDbLine
 10
1100.1386380646
 20
420.4146212655
 30
0.0
 11
948.2685232133
 21
420.4146212655
 31
0.0
  0
LINE
  5
63C
330
1F
100
AcDbEntity
  8
0
  6
Continuous
 62
     8
370
    25
100
AcDbLine
 10
948.2685232133
 20
411.4146212655
 30
0.0
 11
1100.1386380646
 21
411.4146212655
 31
0.0
  0
LINE
  5
63D
330
1F
100
AcDbEntity
  8
0
  6
Continuous
 62
     8
370
    25
100
AcDbLine
 10
518.1357989154
 20
411.4146212655
 30
0.0
 11
554.263133215
 21
411.4146212655
 31
0.0
  0
LINE
  5
63E
330
1F
100
AcDbEntity
  8
0
  6
Continuous
 62
     8
370
    25
100
AcDbLine
 10
554.263133215
 20
420.4146212655
 30
0.0
 11
518.1357989154
 21
420.4146212655
 31
0.0
  0
LINE
  5
63F
330
1F
100
AcDbEntity
  8
0
  6
Continuous
 62
     8
370
    25
100
AcDbLine
 10
-707.9725341833
 20
-123.5853787345
 30
0.0
 11
-556.1024193321
 21
-123.5853787345
 31
0.0
  0
LINE
  5
640
330
1F
100
AcDbEntity
  8
0
  6
Continuous
 62
     8
370
    25
100
AcDbLine
 10
-556.1024193321
 20
-114.5853787345
 30
0.0
 11
-707.9725341833
 21
-114.5853787345
 31
0.0
  0
LINE
  5
641
330
1F
100
AcDbEntity
  8
0
  6
Continuous
 62
     8
370
    25
100
AcDbLine
 10
-1138.1052584812
 20
-123.5853787345
 30
0.0
 11
-1101.9779241816
 21
-123.5853787345
 31
0.0
  0
LINE
  5
642
330
1F
100
AcDbEntity
  8
0
  6
Continuous
 62
     8
370
    25
100
AcDbLine
 10
-1101.9779241816
 20
-114.5853787345
 30
0.0
 11
-1138.1052584812
 21
-114.5853787345
 31
0.0
  0
LINE
  5
643
330
1F
100
AcDbEntity
  8
0
  6
Continuous
 62
     8
370
    25
100
AcDbLine
 10
-707.9725341833
 20
411.4146212655
 30
0.0
 11
-556.1024193321
 21
411.4146212655
 31
0.0
  0
LINE
  5
644
330
1F
100
AcDbEntity
  8
0
  6
Continuous
 62
     8
370
    25
100
AcDbLine
 10
-556.1024193321
 20
420.4146212655
 30
0.0
 11
-707.9725341833
 21
420.4146212655
 31
0.0
  0
LINE
  5
645
330
1F
100
AcDbEntity
  8
0
  6
Continuous
 62
     8
370
    25
100
AcDbLine
 10
-1138.1052584812
 20
411.4146212655
 30
0.0
 11
-1101.9779241816
 21
411.4146212655
 31
0.0
  0
LINE
  5
646
330
1F
100
AcDbEntity
  8
0
  6
Continuous
 62
     8
370
    25
100
AcDbLine
 10
-1101.9779241816
 20
420.4146212655
 30
0.0
 11
-1138.1052584812
 21
420.4146212655
 31
0.0
  0
LINE
  5
647
330
1F
100
AcDbEntity
  8
0
  6
Continuous
 62
     8
370
    25
100
AcDbLine
 10
2743.2485359274
 20
405.4146212655
 30
0.0
 11
2731.4036837258
 21
405.4146212655
 31
0.0
  0
LINE
  5
648
330
1F
100
AcDbEntity
  8
0
  6
Continuous
 62
     8
370
    25
100
AcDbLine
 10
2719.4036837258
 20
405.4146212655
 30
0.0
 11
2705.054105835
 21
405.4146212655
 31
0.0
  0
LINE
  5
649
330
1F
100
AcDbEntity
  8
0
  6
Continuous
 62
     8
370
    25
100
AcDbLine
 10
2705.054105835
 20
396.4146212655
 30
0.0
 11
2719.4036837258
 21
396.4146212655
 31
0.0
  0
LINE
  5
64A
330
1F
100
AcDbEntity
  8
0
  6
Continuous
 62
     8
370
    25
100
AcDbLine
 10
2731.4036837258
 20
396.4146212655
 30
0.0
 11
2743.2485359274
 21
396.4146212655
 31
0.0
  0
LINE
  5
64B
330
1F
100
AcDbEntity
  8
0
  6
Continuous
 62
     8
370
    25
100
AcDbLine
 10
2743.2485359274
 20
396.4146212655
 30
0.0
 11
2763.9036837258
 21
396.4146212655
 31
0.0
  0
LINE
  5
64C
330
1F
100
AcDbEntity
  8
0
  6
Continuous
 62
     8
370
    25
100
AcDbLine
 10
2763.9036837258
 20
405.4146212655
 30
0.0
 11
2743.2485359274
 21
405.4146212655
 31
0.0
  0
LINE
  5
64D
330
1F
100
AcDbEntity
  8
0
  6
Continuous
 62
     8
370
    25
100
AcDbLine
 10
2740.7921732025
 20
-96.5853787345
 30
0.0
 11
2740.7921732025
 21
393.4146212655
 31
0.0
  0
LINE
  5
64E
330
1F
100
AcDbEntity
  8
0
  6
Continuous
 62
     8
370
    25
100
AcDbLine
 10
2737.7138675482
 20
-96.5853787345
 30
0.0
 11
2737.7138675482
 21
393.4146212655
 31
0.0
  0
LINE
  5
64F
330
1F
100
AcDbEntity
  8
0
  6
Continuous
 62
     8
370
    25
100
AcDbLine
 10
-1856.0585159042
 20
-96.5853787345
 30
0.0
 11
-1856.0585159042
 21
393.4146212655
 31
0.0
  0
LINE
  5
650
330
1F
100
AcDbEntity
  8
0
  6
Continuous
 62
     8
370
    25
100
AcDbLine
 10
-2150.8993299266
 20
-96.5853787345
 30
0.0
 11
-2150.8993299266
 21
393.4146212655
 31
0.0
  0
LINE
  5
651
330
1F
100
AcDbEntity
  8
0
  6
Continuous
 62
     8
370
    25
100
AcDbLine
 10
-2502.7664182555
 20
-96.5853787345
 30
0.0
 11
-2502.7664182555
 21
393.4146212655
 31
0.0
  0
LINE
  5
652
330
1F
100
AcDbEntity
  8
0
  6
Continuous
 62
     8
370
    25
100
AcDbLine
 10
2791.2039885765
 20
-189.0853787345
 30
0.0
 11
2790.6276871241
 21
-182.4982229918
 31
0.0
  0
LINE
  5
653
330
1F
100
AcDbEntity
  8
0
  6
Continuous
 62
     8
370
    25
100
AcDbLine
 10
2762.1796803274
 20
-182.4982229918
 30
0.0
 11
2761.603378875
 21
-189.0853787345
 31
0.0
  0
LINE
  5
654
330
1F
100
AcDbEntity
  8
0
  6
Continuous
 62
     8
370
    25
100
AcDbLine
 10
2776.4036837258
 20
-180.6202782312
 30
0.0
 11
2793.4950950383
 21
-180.6202782312
 31
0.0
  0
LINE
  5
655
330
1F
100
AcDbEntity
  8
0
  6
Continuous
 62
     8
370
    25
100
AcDbLine
 10
2759.3122724132
 20
-180.6202782312
 30
0.0
 11
2776.4036837258
 21
-180.6202782312
 31
0.0
  0
LINE
  5
656
330
1F
100
AcDbEntity
  8
0
  6
Continuous
 62
     8
370
    25
100
AcDbLine
 10
2776.4036837258
 20
-130.5504792378
 30
0.0
 11
2761.0607483224
 21
-130.5504792378
 31
0.0
  0
LINE
  5
657
330
1F
100
AcDbEntity
  8
0
  6
Continuous
 62
     8
370
    25
100
AcDbLine
 10
2791.7466191292
 20
-130.5504792378
 30
0.0
 11
2776.4036837258
 21
-130.5504792378
 31
0.0
  0
LINE
  5
658
330
1F
100
AcDbEntity
  8
0
  6
Continuous
 62
     8
370
    25
100
AcDbLine
 10
2790.6276871241
 20
479.3274655227
 30
0.0
 11
2791.2039885765
 21
485.9146212655
 31
0.0
  0
LINE
  5
659
330
1F
100
AcDbEntity
  8
0
  6
Continuous
 62
     8
370
    25
100
AcDbLine
 10
2761.603378875
 20
485.9146212655
 30
0.0
 11
2762.1796803274
 21
479.3274655227
 31
0.0
  0
LINE
  5
65A
330
1F
100
AcDbEntity
  8
0
  6
Continuous
 62
     8
370
    25
100
AcDbLine
 10
2793.4950950383
 20
477.4495207622
 30
0.0
 11
2759.3122724132
 21
477.4495207622
 31
0.0
  0
LINE
  5
65B
330
1F
100
AcDbEntity
  8
0
  6
Continuous
 62
     8
370
    25
100
AcDbLine
 10
2761.0607483224
 20
427.3797217688
 30
0.0
 11
2791.7466191292
 21
427.3797217688
 31
0.0
  0
LINE
  5
65C
330
1F
100
AcDbEntity
  8
0
  6
Continuous
 62
     8
370
    25
100
AcDbLine
 10
2728.4036837258
 20
-213.1124151812
 30
0.0
 11
2728.9036837258
 21
-213.1197014776
 31
0.0
  0
LINE
  5
65D
330
1F
100
AcDbEntity
  8
0
  6
Continuous
 62
     8
370
    25
100
AcDbLine
 10
2728.9036837258
 20
509.9489440085
 30
0.0
 11
2728.4036837258
 21
509.9416577121
 31
0.0
  0
LINE
  5
65E
330
1F
100
AcDbEntity
  8
0
  6
Continuous
 62
     8
370
    25
100
AcDbLine
 10
2717.9765991209
 20
512.1351133333
 30
0.0
 11
2717.9765991209
 21
499.9146212655
 31
0.0
  0
LINE
  5
65F
330
1F
100
AcDbEntity
  8
0
  6
Continuous
 62
     8
370
    25
100
AcDbLine
 10
2717.9765991209
 20
530.9146212655
 30
0.0
 11
2717.9765991209
 21
512.1351133333
 31
0.0
  0
LINE
  5
660
330
1F
100
AcDbEntity
  8
0
  6
Continuous
 62
     8
370
    25
100
AcDbLine
 10
2717.9765991209
 20
-203.0853787345
 30
0.0
 11
2717.9765991209
 21
-234.0853787345
 31
0.0
  0
LINE
  5
661
330
1F
100
AcDbEntity
  8
0
  6
Continuous
 62
     8
370
    25
100
AcDbLine
 10
2705.891449102
 20
-207.8353787345
 30
0.0
 11
2705.891449102
 21
-229.3353787345
 31
0.0
  0
LINE
  5
662
330
1F
100
AcDbEntity
  8
0
  6
Continuous
 62
     8
370
    25
100
AcDbLine
 10
2705.3286251605
 20
-208.227462379
 30
0.0
 11
2705.3286251605
 21
-228.94329509
 31
0.0
  0
LINE
  5
663
330
1F
100
AcDbEntity
  8
0
  6
Continuous
 62
     8
370
    25
100
AcDbLine
 10
2705.891449102
 20
513.1401238286
 30
0.0
 11
2705.891449102
 21
504.6646212655
 31
0.0
  0
LINE
  5
664
330
1F
100
AcDbEntity
  8
0
  6
Continuous
 62
     8
370
    25
100
AcDbLine
 10
2705.891449102
 20
526.1646212655
 30
0.0
 11
2705.891449102
 21
513.1401238286
 31
0.0
  0
LINE
  5
665
330
1F
100
AcDbEntity
  8
0
  6
Continuous
 62
     8
370
    25
100
AcDbLine
 10
2705.3286251605
 20
513.2230813397
 30
0.0
 11
2705.3286251605
 21
505.05670491
 31
0.0
  0
LINE
  5
666
330
1F
100
AcDbEntity
  8
0
  6
Continuous
 62
     8
370
    25
100
AcDbLine
 10
2705.3286251605
 20
525.7725376209
 30
0.0
 11
2705.3286251605
 21
513.2230813397
 31
0.0
  0
LINE
  5
667
330
1F
100
AcDbEntity
  8
0
  6
Continuous
 62
     8
370
    25
100
AcDbLine
 10
2818.4036837258
 20
485.4146212655
 30
0.0
 11
2796.1412177352
 21
485.4146212655
 31
0.0
  0
LINE
  5
668
330
1F
100
AcDbEntity
  8
0
  6
Continuous
 62
     8
370
    25
100
AcDbLine
 10
2756.6661497163
 20
485.4146212655
 30
0.0
 11
2744.4036837258
 21
485.4146212655
 31
0.0
  0
LINE
  5
669
330
1F
100
AcDbEntity
  8
0
  6
Continuous
 62
     8
370
    25
100
AcDbLine
 10
2744.4036837258
 20
485.4146212655
 30
0.0
 11
2744.4036837258
 21
485.9146212655
 31
0.0
  0
LINE
  5
66A
330
1F
100
AcDbEntity
  8
0
  6
Continuous
 62
     8
370
    25
100
AcDbLine
 10
2818.4036837258
 20
485.4146212655
 30
0.0
 11
2818.4036837258
 21
485.9257484591
 31
0.0
  0
LINE
  5
66B
330
1F
100
AcDbEntity
  8
0
  6
Continuous
 62
     8
370
    25
100
AcDbLine
 10
2744.4036837258
 20
-188.5853787345
 30
0.0
 11
2744.4036837258
 21
-189.0853787345
 31
0.0
  0
LINE
  5
66C
330
1F
100
AcDbEntity
  8
0
  6
Continuous
 62
     8
370
    25
100
AcDbLine
 10
2744.4036837258
 20
-188.5853787345
 30
0.0
 11
2756.6661497163
 21
-188.5853787345
 31
0.0
  0
LINE
  5
66D
330
1F
100
AcDbEntity
  8
0
  6
Continuous
 62
     8
370
    25
100
AcDbLine
 10
2796.1412177352
 20
-188.5853787345
 30
0.0
 11
2818.4036837258
 21
-188.5853787345
 31
0.0
  0
LINE
  5
66E
330
1F
100
AcDbEntity
  8
0
  6
Continuous
 62
     8
370
    25
100
AcDbLine
 10
2818.4036837258
 20
-188.5853787345
 30
0.0
 11
2818.4036837258
 21
-189.0965059282
 31
0.0
  0
LINE
  5
66F
330
1F
100
AcDbEntity
  8
0
  6
Continuous
 62
     8
370
    25
100
AcDbLine
 10
3578.4036837258
 20
-189.0853787345
 30
0.0
 11
3578.4036837258
 21
-188.5853787345
 31
0.0
  0
LINE
  5
670
330
1F
100
AcDbEntity
  8
0
  6
Continuous
 62
     8
370
    25
100
AcDbLine
 10
2824.4036837258
 20
491.4146212655
 30
0.0
 11
2823.8925565321
 21
491.4146212655
 31
0.0
  0
LINE
  5
671
330
1F
100
AcDbEntity
  8
0
  6
Continuous
 62
     8
370
    25
100
AcDbLine
 10
2824.4036837258
 20
565.4146212655
 30
0.0
 11
2823.9036837258
 21
565.4146212655
 31
0.0
  0
LINE
  5
672
330
1F
100
AcDbEntity
  8
0
  6
Continuous
 62
     8
370
    25
100
AcDbLine
 10
3498.9036837258
 20
565.4146212655
 30
0.0
 11
3498.4036837258
 21
565.4146212655
 31
0.0
  0
LINE
  5
673
330
1F
100
AcDbEntity
  8
0
  6
Continuous
 62
     8
370
    25
100
AcDbLine
 10
3504.4036837258
 20
-189.094419981
 30
0.0
 11
3504.4036837258
 21
-188.5853787345
 31
0.0
  0
LINE
  5
674
330
1F
100
AcDbEntity
  8
0
  6
Continuous
 62
     8
370
    25
100
AcDbLine
 10
3498.9036837258
 20
-268.5853787345
 30
0.0
 11
3498.4036837258
 21
-268.5853787345
 31
0.0
  0
LINE
  5
675
330
1F
100
AcDbEntity
  8
0
  6
Continuous
 62
     8
370
    25
100
AcDbLine
 10
3498.9127249722
 20
-194.5853787345
 30
0.0
 11
3498.4036837258
 21
-194.5853787345
 31
0.0
  0
LINE
  5
676
330
1F
100
AcDbEntity
  8
0
  6
Continuous
 62
     8
370
    25
100
AcDbLine
 10
2824.4036837258
 20
-268.5853787345
 30
0.0
 11
2823.9036837258
 21
-268.5853787345
 31
0.0
  0
LINE
  5
677
330
1F
100
AcDbEntity
  8
0
  6
Continuous
 62
     8
370
    25
100
AcDbLine
 10
3504.4036837258
 20
485.9236625119
 30
0.0
 11
3504.4036837258
 21
485.4146212655
 31
0.0
  0
LINE
  5
678
330
1F
100
AcDbEntity
  8
0
  6
Continuous
 62
     8
370
    25
100
AcDbLine
 10
3498.9127249722
 20
491.4146212655
 30
0.0
 11
3498.4036837258
 21
491.4146212655
 31
0.0
  0
LINE
  5
679
330
1F
100
AcDbEntity
  8
0
  6
Continuous
 62
     8
370
    25
100
AcDbLine
 10
2744.4036837258
 20
485.4146212655
 30
0.0
 11
2744.4036837258
 21
408.4146212655
 31
0.0
  0
LINE
  5
67A
330
1F
100
AcDbEntity
  8
0
  6
Continuous
 62
     8
370
    25
100
AcDbLine
 10
2744.4036837258
 20
-111.5853787345
 30
0.0
 11
2744.4036837258
 21
-188.5853787345
 31
0.0
  0
LINE
  5
67B
330
1F
100
AcDbEntity
  8
0
  6
Continuous
 62
     8
370
    25
100
AcDbLine
 10
2824.4036837258
 20
-194.5853787345
 30
0.0
 11
2823.8925565321
 21
-194.5853787345
 31
0.0
  0
LINE
  5
67C
330
1F
100
AcDbEntity
  8
0
  6
Continuous
 62
     8
370
    25
100
AcDbLine
 10
3578.4036837258
 20
485.9146212655
 30
0.0
 11
3578.4036837258
 21
485.4146212655
 31
0.0
  0
ENDSEC
  0
SECTION
  2
OBJECTS
  0
DICTIONARY
  5
C
330
0
100
AcDbDictionary
281
     1
  3
ACAD_GROUP
350
D
  3
ACAD_LAYOUT
350
1A
  3
ACAD_MLINESTYLE
350
17
  3
ACAD_PLOTSETTINGS
350
19
  3
ACAD_PLOTSTYLENAME
350
E
  3
ACAD_SCALELIST
350
47
  3
DWGPROPS
350
67D
  0
DICTIONARY
  5
D
102
{ACAD_REACTORS
330
C
102
}
330
C
100
AcDbDictionary
281
     1
  0
DICTIONARY
  5
1A
102
{ACAD_REACTORS
330
C
102
}
330
C
100
AcDbDictionary
281
     1
  3
Layout1
350
1E
  3
Layout2
350
26
  3
Model
350
22
  0
DICTIONARY
  5
17
102
{ACAD_REACTORS
330
C
102
}
330
C
100
AcDbDictionary
281
     1
  3
Standard
350
18
  0
DICTIONARY
  5
19
102
{ACAD_REACTORS
330
C
102
}
330
C
100
AcDbDictionary
281
     1
  0
ACDBDICTIONARYWDFLT
  5
E
102
{ACAD_REACTORS
330
C
102
}
330
C
100
AcDbDictionary
281
     1
  3
Normal
350
F
100
AcDbDictionaryWithDefault
340
F
  0
DICTIONARY
  5
47
102
{ACAD_REACTORS
330
C
102
}
330
C
100
AcDbDictionary
281
     1
  3
A0
350
48
  3
A1
350
49
  3
A2
350
4A
  3
A3
350
4B
  3
A4
350
4C
  3
A5
350
4D
  3
A6
350
4E
  3
A7
350
4F
  3
A8
350
50
  3
A9
350
51
  3
B0
350
52
  3
B1
350
53
  3
B2
350
54
  3
B3
350
55
  3
B4
350
56
  3
B5
350
57
  3
B6
350
58
  3
B7
350
59
  3
B8
350
5A
  3
B9
350
5B
  3
C0
350
5C
  3
C1
350
5D
  3
C2
350
5E
  3
C3
350
5F
  3
C4
350
60
  3
C5
350
61
  3
C6
350
62
  3
C7
350
63
  3
C8
350
64
  3
C9
350
65
  3
D0
350
66
  3
D1
350
67
  3
D2
350
68
  0
XRECORD
  5
67D
102
{ACAD_REACTORS
330
C
102
}
330
C
100
AcDbXrecord
280
     1
  1
DWGPROPS COOKIE
  2

  3

  4

  6

  7

  8
Swing
  9

300
=
301
=
302
=
303
=
304
=
305
=
306
=
307
=
308
=
309
=
 40
0.0
 41
2459565.52144331
 42
2459565.521443692
  1

 90
        0
  0
LAYOUT
  5
1E
102
{ACAD_REACTORS
330
1A
102
}
330
1A
100
AcDbPlotSettings
  1

  2
none_device
  4

  6

 40
0.0
 41
0.0
 42
0.0
 43
0.0
 44
0.0
 45
0.0
 46
0.0
 47
0.0
 48
0.0
 49
0.0
140
0.0
141
0.0
142
1.0
143
1.0
 70
   688
 72
     1
 73
     0
 74
     5
  7

 75
    16
147
1.0
148
0.0
149
0.0
100
AcDbLayout
  1
Layout1
 70
     1
 71
     1
 10
0.0
 20
0.0
 11
420.0
 21
297.0
 12
0.0
 22
0.0
 32
0.0
 14
1.0000000000E+20
 24
1.0000000000E+20
 34
1.0000000000E+20
 15
-1.0000000000E+20
 25
-1.0000000000E+20
 35
-1.0000000000E+20
146
0.0
 13
0.0
 23
0.0
 33
0.0
 16
1.0
 26
0.0
 36
0.0
 17
0.0
 27
1.0
 37
0.0
 76
     0
330
1B
  0
LAYOUT
  5
26
102
{ACAD_REACTORS
330
1A
102
}
330
1A
100
AcDbPlotSettings
  1

  2
none_device
  4

  6

 40
0.0
 41
0.0
 42
0.0
 43
0.0
 44
0.0
 45
0.0
 46
0.0
 47
0.0
 48
0.0
 49
0.0
140
0.0
141
0.0
142
1.0
143
1.0
 70
   688
 72
     1
 73
     0
 74
     5
  7

 75
    16
147
1.0
148
0.0
149
0.0
100
AcDbLayout
  1
Layout2
 70
     1
 71
     2
 10
0.0
 20
0.0
 11
0.0
 21
0.0
 12
0.0
 22
0.0
 32
0.0
 14
0.0
 24
0.0
 34
0.0
 15
0.0
 25
0.0
 35
0.0
146
0.0
 13
0.0
 23
0.0
 33
0.0
 16
1.0
 26
0.0
 36
0.0
 17
0.0
 27
1.0
 37
0.0
 76
     0
330
23
  0
LAYOUT
  5
22
102
{ACAD_REACTORS
330
1A
102
}
330
1A
100
AcDbPlotSettings
  1

  2
none_device
  4
Letter_(8.50_x_11.00_Inches)
  6

 40
6.35
 41
6.35
 42
6.35000508
 43
6.35000508
 44
215.9
 45
279.4
 46
0.0
 47
0.0
 48
0.0
 49
0.0
140
0.0
141
0.0
142
1.0
143
1.0
 70
  1712
 72
     1
 73
     0
 74
     0
  7

 75
     0
147
1.0
148
0.0
149
0.0
100
AcDbLayout
  1
Model
 70
     1
 71
     0
 10
0.0
 20
0.0
 11
431.8
 21
279.4
 12
0.0
 22
0.0
 32
0.0
 14
0.0
 24
0.0
 34
0.0
 15
431.8
 25
279.4
 35
0.0
146
0.0
 13
0.0
 23
0.0
 33
0.0
 16
1.0
 26
0.0
 36
0.0
 17
0.0
 27
1.0
 37
0.0
 76
     0
330
1F
331
29
  0
MLINESTYLE
  5
18
102
{ACAD_REACTORS
330
17
102
}
330
17
100
AcDbMlineStyle
  2
Standard
 70
     0
  3

 62
   256
 51
90.0
 52
90.0
 71
     2
 49
0.5
 62
   256
  6
BYLAYER
 49
-0.5
 62
   256
  6
BYLAYER
  0
ACDBPLACEHOLDER
  5
F
102
{ACAD_REACTORS
330
E
102
}
330
E
  0
SCALE
  5
48
102
{ACAD_REACTORS
330
47
102
}
330
47
100
AcDbScale
 70
     0
300
1:1
140
1.0
141
1.0
290
     1
  0
SCALE
  5
49
102
{ACAD_REACTORS
330
47
102
}
330
47
100
AcDbScale
 70
     0
300
1:2
140
1.0
141
2.0
290
     0
  0
SCALE
  5
4A
102
{ACAD_REACTORS
330
47
102
}
330
47
100
AcDbScale
 70
     0
300
1:4
140
1.0
141
4.0
290
     0
  0
SCALE
  5
4B
102
{ACAD_REACTORS
330
47
102
}
330
47
100
AcDbScale
 70
     0
300
1:5
140
1.0
141
5.0
290
     0
  0
SCALE
  5
4C
102
{ACAD_REACTORS
330
47
102
}
330
47
100
AcDbScale
 70
     0
300
1:8
140
1.0
141
8.0
290
     0
  0
SCALE
  5
4D
102
{ACAD_REACTORS
330
47
102
}
330
47
100
AcDbScale
 70
     0
300
1:10
140
1.0
141
10.0
290
     0
  0
SCALE
  5
4E
102
{ACAD_REACTORS
330
47
102
}
330
47
100
AcDbScale
 70
     0
300
1:16
140
1.0
141
16.0
290
     0
  0
SCALE
  5
4F
102
{ACAD_REACTORS
330
47
102
}
330
47
100
AcDbScale
 70
     0
300
1:20
140
1.0
141
20.0
290
     0
  0
SCALE
  5
50
102
{ACAD_REACTORS
330
47
102
}
330
47
100
AcDbScale
 70
     0
300
1:30
140
1.0
141
30.0
290
     0
  0
SCALE
  5
51
102
{ACAD_REACTORS
330
47
102
}
330
47
100
AcDbScale
 70
     0
300
1:40
140
1.0
141
40.0
290
     0
  0
SCALE
  5
52
102
{ACAD_REACTORS
330
47
102
}
330
47
100
AcDbScale
 70
     0
300
1:50
140
1.0
141
50.0
290
     0
  0
SCALE
  5
53
102
{ACAD_REACTORS
330
47
102
}
330
47
100
AcDbScale
 70
     0
300
1:100
140
1.0
141
100.0
290
     0
  0
SCALE
  5
54
102
{ACAD_REACTORS
330
47
102
}
330
47
100
AcDbScale
 70
     0
300
2:1
140
2.0
141
1.0
290
     0
  0
SCALE
  5
55
102
{ACAD_REACTORS
330
47
102
}
330
47
100
AcDbScale
 70
     0
300
4:1
140
4.0
141
1.0
290
     0
  0
SCALE
  5
56
102
{ACAD_REACTORS
330
47
102
}
330
47
100
AcDbScale
 70
     0
300
8:1
140
8.0
141
1.0
290
     0
  0
SCALE
  5
57
102
{ACAD_REACTORS
330
47
102
}
330
47
100
AcDbScale
 70
     0
300
10:1
140
10.0
141
1.0
290
     0
  0
SCALE
  5
58
102
{ACAD_REACTORS
330
47
102
}
330
47
100
AcDbScale
 70
     0
300
100:1
140
100.0
141
1.0
290
     0
  0
SCALE
  5
59
102
{ACAD_REACTORS
330
47
102
}
330
47
100
AcDbScale
 70
     0
300
1/128" = 1'-0"
140
0.0078125
141
12.0
290
     0
  0
SCALE
  5
5A
102
{ACAD_REACTORS
330
47
102
}
330
47
100
AcDbScale
 70
     0
300
1/64" = 1'-0"
140
0.015625
141
12.0
290
     0
  0
SCALE
  5
5B
102
{ACAD_REACTORS
330
47
102
}
330
47
100
AcDbScale
 70
     0
300
1/32" = 1'-0"
140
0.03125
141
12.0
290
     0
  0
SCALE
  5
5C
102
{ACAD_REACTORS
330
47
102
}
330
47
100
AcDbScale
 70
     0
300
1/16" = 1'-0"
140
0.0625
141
12.0
290
     0
  0
SCALE
  5
5D
102
{ACAD_REACTORS
330
47
102
}
330
47
100
AcDbScale
 70
     0
300
3/32" = 1'-0"
140
0.09375
141
12.0
290
     0
  0
SCALE
  5
5E
102
{ACAD_REACTORS
330
47
102
}
330
47
100
AcDbScale
 70
     0
300
1/8" = 1'-0"
140
0.125
141
12.0
290
     0
  0
SCALE
  5
5F
102
{ACAD_REACTORS
330
47
102
}
330
47
100
AcDbScale
 70
     0
300
3/16" = 1'-0"
140
0.1875
141
12.0
290
     0
  0
SCALE
  5
60
102
{ACAD_REACTORS
330
47
102
}
330
47
100
AcDbScale
 70
     0
300
1/4" = 1'-0"
140
0.25
141
12.0
290
     0
  0
SCALE
  5
61
102
{ACAD_REACTORS
330
47
102
}
330
47
100
AcDbScale
 70
     0
300
3/8" = 1'-0"
140
0.375
141
12.0
290
     0
  0
SCALE
  5
62
102
{ACAD_REACTORS
330
47
102
}
330
47
100
AcDbScale
 70
     0
300
1/2" = 1'-0"
140
0.5
141
12.0
290
     0
  0
SCALE
  5
63
102
{ACAD_REACTORS
330
47
102
}
330
47
100
AcDbScale
 70
     0
300
3/4" = 1'-0"
140
0.75
141
12.0
290
     0
  0
SCALE
  5
64
102
{ACAD_REACTORS
330
47
102
}
330
47
100
AcDbScale
 70
     0
300
1" = 1'-0"
140
1.0
141
12.0
290
     0
  0
SCALE
  5
65
102
{ACAD_REACTORS
330
47
102
}
330
47
100
AcDbScale
 70
     0
300
1-1/2" = 1'-0"
140
1.5
141
12.0
290
     0
  0
SCALE
  5
66
102
{ACAD_REACTORS
330
47
102
}
330
47
100
AcDbScale
 70
     0
300
3" = 1'-0"
140
3.0
141
12.0
290
     0
  0
SCALE
  5
67
102
{ACAD_REACTORS
330
47
102
}
330
47
100
AcDbScale
 70
     0
300
6" = 1'-0"
140
6.0
141
12.0
290
     0
  0
SCALE
  5
68
102
{ACAD_REACTORS
330
47
102
}
330
47
100
AcDbScale
 70
     0
300
1'-0" = 1'-0"
140
12.0
141
12.0
290
     0
  0
ENDSEC
  0
EOF
