  0
SECTION
  2
HEADER
  9
$ACADVER
  1
AC1015
  9
$ACADMAINTVER
 70
     6
  9
$DWGCODEPAGE
  3
ANSI_1250
  9
$INSBASE
 10
0.0
 20
0.0
 30
0.0
  9
$EXTMIN
 10
0.0
 20
0.0
 30
0.0
  9
$EXTMAX
 10
431.8
 20
279.4
 30
0.0
  9
$LIMMIN
 10
0.0
 20
0.0
  9
$LIMMAX
 10
431.8
 20
279.4
  9
$ORTHOMODE
 70
     0
  9
$REGENMODE
 70
     1
  9
$FILLMODE
 70
     1
  9
$QTEXTMODE
 70
     0
  9
$MIRRTEXT
 70
     1
  9
$LTSCALE
 40
1.0
  9
$ATTMODE
 70
     1
  9
$TEXTSIZE
 40
3.8805555556
  9
$TRACEWID
 40
1.0
  9
$TEXTSTYLE
  7
Standard
  9
$CLAYER
  8
0
  9
$CELTYPE
  6
ByLayer
  9
$CECOLOR
 62
   256
  9
$CELTSCALE
 40
1.0
  9
$DISPSILH
 70
     0
  9
$DIMSCALE
 40
1.0
  9
$DIMASZ
 40
3.302
  9
$DIMEXO
 40
1.0
  9
$DIMDLI
 40
3.75
  9
$DIMRND
 40
0.0
  9
$DIMDLE
 40
0.0
  9
$DIMEXE
 40
1.0
  9
$DIMTP
 40
0.0
  9
$DIMTM
 40
0.0
  9
$DIMTXT
 40
3.8805555556
  9
$DIMCEN
 40
2.5
  9
$DIMTSZ
 40
0.0
  9
$DIMTOL
 70
     0
  9
$DIMLIM
 70
     0
  9
$DIMTIH
 70
     1
  9
$DIMTOH
 70
     1
  9
$DIMSE1
 70
     0
  9
$DIMSE2
 70
     0
  9
$DIMTAD
 70
     1
  9
$DIMZIN
 70
     0
  9
$DIMBLK
  1

  9
$DIMASO
 70
     1
  9
$DIMSHO
 70
     1
  9
$DIMPOST
  1

  9
$DIMAPOST
  1

  9
$DIMALT
 70
     0
  9
$DIMALTD
 70
     3
  9
$DIMALTF
 40
0.0393700787
  9
$DIMLFAC
 40
1.0
  9
$DIMTOFL
 70
     1
  9
$DIMTVP
 40
0.0
  9
$DIMTIX
 70
     0
  9
$DIMSOXD
 70
     0
  9
$DIMSAH
 70
     0
  9
$DIMBLK1
  1

  9
$DIMBLK2
  1

  9
$DIMSTYLE
  2
ISO-25
  9
$DIMCLRD
 70
     0
  9
$DIMCLRE
 70
     0
  9
$DIMCLRT
 70
     0
  9
$DIMTFAC
 40
1.0
  9
$DIMGAP
 40
1.524
  9
$DIMJUST
 70
     0
  9
$DIMSD1
 70
     0
  9
$DIMSD2
 70
     0
  9
$DIMTOLJ
 70
     0
  9
$DIMTZIN
 70
     0
  9
$DIMALTZ
 70
     0
  9
$DIMALTTZ
 70
     0
  9
$DIMUPT
 70
     0
  9
$DIMDEC
 70
     1
  9
$DIMTDEC
 70
     1
  9
$DIMALTU
 70
     2
  9
$DIMALTTD
 70
     3
  9
$DIMTXSTY
  7
Standard
  9
$DIMAUNIT
 70
     0
  9
$DIMADEC
 70
     1
  9
$DIMALTRND
 40
0.0
  9
$DIMAZIN
 70
     0
  9
$DIMDSEP
 70
    44
  9
$DIMATFIT
 70
     3
  9
$DIMFRAC
 70
     0
  9
$DIMLDRBLK
  1

  9
$DIMLUNIT
 70
     2
  9
$DIMLWD
 70
    -2
  9
$DIMLWE
 70
    -2
  9
$DIMTMOVE
 70
     0
  9
$LUNITS
 70
     2
  9
$LUPREC
 70
     1
  9
$SKETCHINC
 40
1.0
  9
$FILLETRAD
 40
10.0
  9
$AUNITS
 70
     0
  9
$AUPREC
 70
     1
  9
$MENU
  1
.
  9
$ELEVATION
 40
0.0
  9
$PELEVATION
 40
0.0
  9
$THICKNESS
 40
0.0
  9
$LIMCHECK
 70
     0
  9
$CHAMFERA
 40
0.0
  9
$CHAMFERB
 40
0.0
  9
$CHAMFERC
 40
0.0
  9
$CHAMFERD
 40
0.0
  9
$SKPOLY
 70
     0
  9
$TDCREATE
 40
2459685.339500394
  9
$TDUCREATE
 40
2459685.25616706
  9
$TDUPDATE
 40
2459685.339500614
  9
$TDUUPDATE
 40
2459685.25616728
  9
$TDINDWG
 40
0.0000000116
  9
$TDUSRTIMER
 40
0.0000000116
  9
$USRTIMER
 70
     1
  9
$ANGBASE
 50
0.0
  9
$ANGDIR
 70
     0
  9
$PDMODE
 70
     0
  9
$PDSIZE
 40
-1.0
  9
$PLINEWID
 40
0.0
  9
$SPLFRAME
 70
     0
  9
$SPLINETYPE
 70
     6
  9
$SPLINESEGS
 70
     8
  9
$HANDSEED
  5
52E
  9
$SURFTAB1
 70
     6
  9
$SURFTAB2
 70
     6
  9
$SURFTYPE
 70
     6
  9
$SURFU
 70
     6
  9
$SURFV
 70
     6
  9
$UCSBASE
  2

  9
$UCSNAME
  2

  9
$UCSORG
 10
0.0
 20
0.0
 30
0.0
  9
$UCSXDIR
 10
1.0
 20
0.0
 30
0.0
  9
$UCSYDIR
 10
0.0
 20
1.0
 30
0.0
  9
$UCSORTHOREF
  2

  9
$UCSORTHOVIEW
 70
     0
  9
$UCSORGTOP
 10
0.0
 20
0.0
 30
0.0
  9
$UCSORGBOTTOM
 10
0.0
 20
0.0
 30
0.0
  9
$UCSORGLEFT
 10
0.0
 20
0.0
 30
0.0
  9
$UCSORGRIGHT
 10
0.0
 20
0.0
 30
0.0
  9
$UCSORGFRONT
 10
0.0
 20
0.0
 30
0.0
  9
$UCSORGBACK
 10
0.0
 20
0.0
 30
0.0
  9
$PUCSBASE
  2

  9
$PUCSNAME
  2

  9
$PUCSORG
 10
0.0
 20
0.0
 30
0.0
  9
$PUCSXDIR
 10
1.0
 20
0.0
 30
0.0
  9
$PUCSYDIR
 10
0.0
 20
1.0
 30
0.0
  9
$PUCSORTHOREF
  2

  9
$PUCSORTHOVIEW
 70
     0
  9
$PUCSORGTOP
 10
0.0
 20
0.0
 30
0.0
  9
$PUCSORGBOTTOM
 10
0.0
 20
0.0
 30
0.0
  9
$PUCSORGLEFT
 10
0.0
 20
0.0
 30
0.0
  9
$PUCSORGRIGHT
 10
0.0
 20
0.0
 30
0.0
  9
$PUCSORGFRONT
 10
0.0
 20
0.0
 30
0.0
  9
$PUCSORGBACK
 10
0.0
 20
0.0
 30
0.0
  9
$USERI1
 70
     0
  9
$USERI2
 70
     0
  9
$USERI3
 70
     0
  9
$USERI4
 70
     0
  9
$USERI5
 70
     0
  9
$USERR1
 40
0.0
  9
$USERR2
 40
0.0
  9
$USERR3
 40
0.0
  9
$USERR4
 40
0.0
  9
$USERR5
 40
0.0
  9
$WORLDVIEW
 70
     1
  9
$SHADEDGE
 70
     3
  9
$SHADEDIF
 70
    70
  9
$TILEMODE
 70
     1
  9
$MAXACTVP
 70
    64
  9
$PINSBASE
 10
0.0
 20
0.0
 30
0.0
  9
$PLIMCHECK
 70
     0
  9
$PEXTMIN
 10
1.0000000000E+20
 20
1.0000000000E+20
 30
1.0000000000E+20
  9
$PEXTMAX
 10
-1.0000000000E+20
 20
-1.0000000000E+20
 30
-1.0000000000E+20
  9
$PLIMMIN
 10
0.0
 20
0.0
  9
$PLIMMAX
 10
420.0
 20
297.0
  9
$UNITMODE
 70
     0
  9
$VISRETAIN
 70
     1
  9
$PLINEGEN
 70
     0
  9
$PSLTSCALE
 70
     1
  9
$TREEDEPTH
 70
  3020
  9
$CMLSTYLE
  2
Standard
  9
$CMLJUST
 70
     0
  9
$CMLSCALE
 40
20.0
  9
$PROXYGRAPHICS
 70
     1
  9
$MEASUREMENT
 70
     1
  9
$CELWEIGHT
370
    -1
  9
$ENDCAPS
280
     0
  9
$JOINSTYLE
280
     0
  9
$LWDISPLAY
290
     1
  9
$INSUNITS
 70
     4
  9
$HYPERLINKBASE
  1

  9
$STYLESHEET
  1

  9
$XEDIT
290
     1
  9
$CEPSNTYPE
380
     0
  9
$PSTYLEMODE
290
     1
  9
$FINGERPRINTGUID
  2
{75fd622c-f08d-461d-8e2d-ea0d88781318}
  9
$VERSIONGUID
  2
{FAEB1C32-E019-11D5-929B-00C0DF256EC4}
  9
$EXTNAMES
290
     1
  9
$PSVPSCALE
 40
0.0
  9
$OLESTARTUP
290
     0
  0
ENDSEC
  0
SECTION
  2
CLASSES
  0
CLASS
  1
ACDBDICTIONARYWDFLT
  2
AcDbDictionaryWithDefault
  3
ObjectDBX Classes
 90
        0
280
     0
281
     0
  0
CLASS
  1
VISUALSTYLE
  2
AcDbVisualStyle
  3
ObjectDBX Classes
 90
     4095
280
     0
281
     0
  0
CLASS
  1
MATERIAL
  2
AcDbMaterial
  3
ObjectDBX Classes
 90
     1153
280
     0
281
     0
  0
CLASS
  1
SCALE
  2
AcDbScale
  3
ObjectDBX Classes
 90
     1153
280
     0
281
     0
  0
CLASS
  1
TABLESTYLE
  2
AcDbTableStyle
  3
ObjectDBX Classes
 90
     4095
280
     0
281
     0
  0
CLASS
  1
MLEADERSTYLE
  2
AcDbMLeaderStyle
  3
ACDB_MLEADERSTYLE_CLASS
 90
     4095
280
     0
281
     0
  0
CLASS
  1
SUN
  2
AcDbSun
  3
SCENEOE
 90
     1153
280
     0
281
     0
  0
CLASS
  1
ACDBPLACEHOLDER
  2
AcDbPlaceHolder
  3
ObjectDBX Classes
 90
        0
280
     0
281
     0
  0
CLASS
  1
LAYOUT
  2
AcDbLayout
  3
ObjectDBX Classes
 90
        0
280
     0
281
     0
  0
ENDSEC
  0
SECTION
  2
TABLES
  0
TABLE
  2
VPORT
  5
8
330
0
100
AcDbSymbolTable
 70
     1
  0
VPORT
  5
29
330
8
100
AcDbSymbolTableRecord
100
AcDbViewportTableRecord
  2
*Active
 70
     0
 10
0.0
 20
0.0
 11
1.0
 21
1.0
 12
215.9
 22
139.7
 13
0.0
 23
0.0
 14
10.0
 24
10.0
 15
10.0
 25
10.0
 16
0.0
 26
0.0
 36
1.0
 17
0.0
 27
0.0
 37
0.0
 40
279.4
 41
1.5454545455
 42
50.0
 43
0.0
 44
0.0
 50
0.0
 51
0.0
 71
     0
 72
  2000
 73
     1
 74
     3
 75
     0
 76
     0
 77
     0
 78
     0
281
     0
 65
     1
110
0.0
120
0.0
130
0.0
111
1.0
121
0.0
131
0.0
112
0.0
122
1.0
132
0.0
 79
     0
146
0.0
  0
ENDTAB
  0
TABLE
  2
LTYPE
  5
5
330
0
100
AcDbSymbolTable
 70
     6
  0
LTYPE
  5
14
330
5
100
AcDbSymbolTableRecord
100
AcDbLinetypeTableRecord
  2
ByBlock
 70
     0
  3

 72
    65
 73
     0
 40
0.0
  0
LTYPE
  5
15
330
5
100
AcDbSymbolTableRecord
100
AcDbLinetypeTableRecord
  2
ByLayer
 70
     0
  3

 72
    65
 73
     0
 40
0.0
  0
LTYPE
  5
16
330
5
100
AcDbSymbolTableRecord
100
AcDbLinetypeTableRecord
  2
Continuous
 70
     0
  3
Solid line
 72
    65
 73
     0
 40
0.0
  0
LTYPE
  5
6E
330
5
100
AcDbSymbolTableRecord
100
AcDbLinetypeTableRecord
  2
HIDDEN
 70
     0
  3
Hidden __ __ __ __ __ __ __ __ __ __ __ __ __ __
 72
    65
 73
     2
 40
1.905
 49
1.27
 74
     0
 49
-0.635
 74
     0
  0
LTYPE
  5
6F
330
5
100
AcDbSymbolTableRecord
100
AcDbLinetypeTableRecord
  2
PHANTOM
 70
     0
  3
Phantom ______  __  __  ______  __  __  ______
 72
    65
 73
     6
 40
12.7
 49
6.35
 74
     0
 49
-1.27
 74
     0
 49
1.27
 74
     0
 49
-1.27
 74
     0
 49
1.27
 74
     0
 49
-1.27
 74
     0
  0
LTYPE
  5
70
330
5
100
AcDbSymbolTableRecord
100
AcDbLinetypeTableRecord
  2
CENTER
 70
     0
  3
Center ____ _ ____ _ ____ _ ____ _ ____ _ ____
 72
    65
 73
     4
 40
10.16
 49
6.35
 74
     0
 49
-1.27
 74
     0
 49
1.27
 74
     0
 49
-1.27
 74
     0
  0
LTYPE
  5
71
330
5
100
AcDbSymbolTableRecord
100
AcDbLinetypeTableRecord
  2
CENTERX2
 70
     0
  3
Center (2x) ________  __  ________  __  _____
 72
    65
 73
     4
 40
20.32
 49
12.7
 74
     0
 49
-2.54
 74
     0
 49
2.54
 74
     0
 49
-2.54
 74
     0
  0
LTYPE
  5
72
330
5
100
AcDbSymbolTableRecord
100
AcDbLinetypeTableRecord
  2
DOT2
 70
     0
  3
Dot (.5x) ........................................
 72
    65
 73
     2
 40
0.635
 49
0.0
 74
     0
 49
-0.635
 74
     0
  0
ENDTAB
  0
TABLE
  2
LAYER
  5
2
330
0
100
AcDbSymbolTable
 70
     3
  0
LAYER
  5
10
330
2
100
AcDbSymbolTableRecord
100
AcDbLayerTableRecord
  2
0
 70
     0
 62
     7
  6
Continuous
370
    -3
390
F
  0
LAYER
  5
73
330
2
100
AcDbSymbolTableRecord
100
AcDbLayerTableRecord
  2
FRAME_&_TABLE
 70
     0
 62
     8
  6
Continuous
370
    50
390
F
  0
LAYER
  5
74
330
2
100
AcDbSymbolTableRecord
100
AcDbLayerTableRecord
  2
DIMENSIONS
 70
     0
 62
     7
  6
Continuous
370
    -3
390
F
  0
ENDTAB
  0
TABLE
  2
STYLE
  5
3
330
0
100
AcDbSymbolTable
 70
     1
  0
STYLE
  5
11
330
3
100
AcDbSymbolTableRecord
100
AcDbTextStyleTableRecord
  2
Standard
 70
     0
 40
0.0
 41
1.0
 50
0.0
 71
     0
 42
3.8805555556
  3
txt
  4

  0
ENDTAB
  0
TABLE
  2
VIEW
  5
6
330
0
100
AcDbSymbolTable
 70
     0
  0
ENDTAB
  0
TABLE
  2
UCS
  5
7
330
0
100
AcDbSymbolTable
 70
     0
  0
ENDTAB
  0
TABLE
  2
APPID
  5
9
330
0
100
AcDbSymbolTable
 70
     1
  0
APPID
  5
12
330
9
100
AcDbSymbolTableRecord
100
AcDbRegAppTableRecord
  2
ACAD
 70
     0
  0
ENDTAB
  0
TABLE
  2
DIMSTYLE
  5
A
330
0
100
AcDbSymbolTable
 70
     1
100
AcDbDimStyleTable
  0
DIMSTYLE
105
27
330
A
100
AcDbSymbolTableRecord
100
AcDbDimStyleTableRecord
  2
ISO-25
 70
     0
 41
2.5
 42
0.625
 43
3.75
 44
1.25
 73
     0
 74
     0
 77
     1
 78
     8
140
2.5
141
2.5
143
0.0393700787
147
0.625
171
     3
172
     1
178
     0
271
     2
272
     2
274
     3
278
    44
283
     0
284
     8
340
11
  0
ENDTAB
  0
TABLE
  2
BLOCK_RECORD
  5
1
330
0
100
AcDbSymbolTable
 70
     1
  0
BLOCK_RECORD
  5
1F
330
1
100
AcDbSymbolTableRecord
100
AcDbBlockTableRecord
  2
*Model_Space
340
22
  0
BLOCK_RECORD
  5
1B
330
1
100
AcDbSymbolTableRecord
100
AcDbBlockTableRecord
  2
*Paper_Space
340
1E
  0
BLOCK_RECORD
  5
23
330
1
100
AcDbSymbolTableRecord
100
AcDbBlockTableRecord
  2
*Paper_Space0
340
26
  0
ENDTAB
  0
ENDSEC
  0
SECTION
  2
BLOCKS
  0
BLOCK
  5
20
330
1F
100
AcDbEntity
  8
0
100
AcDbBlockBegin
  2
*Model_Space
 70
     0
 10
0.0
 20
0.0
 30
0.0
  3
*Model_Space
  1

  0
ENDBLK
  5
21
330
1F
100
AcDbEntity
  8
0
100
AcDbBlockEnd
  0
BLOCK
  5
1C
330
1B
100
AcDbEntity
 67
     1
  8
0
100
AcDbBlockBegin
  2
*Paper_Space
 70
     0
 10
0.0
 20
0.0
 30
0.0
  3
*Paper_Space
  1

  0
ENDBLK
  5
1D
330
1B
100
AcDbEntity
 67
     1
  8
0
100
AcDbBlockEnd
  0
BLOCK
  5
24
330
23
100
AcDbEntity
  8
0
100
AcDbBlockBegin
  2
*Paper_Space0
 70
     0
 10
0.0
 20
0.0
 30
0.0
  3
*Paper_Space0
  1

  0
ENDBLK
  5
25
330
23
100
AcDbEntity
  8
0
100
AcDbBlockEnd
  0
ENDSEC
  0
SECTION
  2
ENTITIES
  0
CIRCLE
  5
75
330
1F
100
AcDbEntity
  8
0
  6
Continuous
 62
     7
370
    25
100
AcDbCircle
 10
883.8770130667
 20
-395.8837762456
 30
0.0
 40
7.100000000000023
  0
CIRCLE
  5
76
330
1F
100
AcDbEntity
  8
0
  6
Continuous
 62
     7
370
    25
100
AcDbCircle
 10
824.3610431774
 20
-395.8837762456
 30
0.0
 40
7.099999999999966
  0
CIRCLE
  5
77
330
1F
100
AcDbEntity
  8
0
  6
Continuous
 62
     7
370
    25
100
AcDbCircle
 10
425.9893574365
 20
-165.8837762456
 30
0.0
 40
7.099999999999994
  0
CIRCLE
  5
78
330
1F
100
AcDbEntity
  8
0
  6
Continuous
 62
     7
370
    25
100
AcDbCircle
 10
1282.2486988076
 20
-165.8837762456
 30
0.0
 40
7.099999999999994
  0
CIRCLE
  5
79
330
1F
100
AcDbEntity
  8
0
  6
Continuous
 62
     7
370
    25
100
AcDbCircle
 10
425.9893574365
 20
454.262394682
 30
0.0
 40
7.100000000000023
  0
CIRCLE
  5
7A
330
1F
100
AcDbEntity
  8
0
  6
Continuous
 62
     7
370
    25
100
AcDbCircle
 10
1282.2486988076
 20
454.262394682
 30
0.0
 40
7.099999999999966
  0
CIRCLE
  5
7B
330
1F
100
AcDbEntity
  8
0
  6
Continuous
 62
     7
370
    25
100
AcDbCircle
 10
824.3610431774
 20
684.262394682
 30
0.0
 40
7.100000000000023
  0
CIRCLE
  5
7C
330
1F
100
AcDbEntity
  8
0
  6
Continuous
 62
     7
370
    25
100
AcDbCircle
 10
883.8770130667
 20
684.262394682
 30
0.0
 40
7.100000000000023
  0
ARC
  5
7D
330
1F
100
AcDbEntity
  8
0
  6
Continuous
 62
     7
370
    25
100
AcDbCircle
 10
1293.5230237378
 20
409.1893092182
 30
0.0
 40
7.100000000000196
100
AcDbArc
 50
270.0
 51
315.0483549969
  0
ARC
  5
7E
330
1F
100
AcDbEntity
  8
0
  6
Continuous
 62
     7
370
    25
100
AcDbCircle
 10
1293.5230237378
 20
409.1893092182
 30
0.0
 40
7.100000000000023
100
AcDbArc
 50
225.5859544982
 51
270.0
  0
CIRCLE
  5
7F
330
1F
100
AcDbEntity
  8
0
  6
Continuous
 62
     7
370
    25
100
AcDbCircle
 10
708.5230237378
 20
-120.8106907818
 30
0.0
 40
7.099999999999994
  0
CIRCLE
  5
80
330
1F
100
AcDbEntity
  8
0
  6
Continuous
 62
     7
370
    25
100
AcDbCircle
 10
853.5230237378
 20
-380.8106907818
 30
0.0
 40
7.100000000000023
  0
CIRCLE
  5
81
330
1F
100
AcDbEntity
  8
0
  6
Continuous
 62
     7
370
    25
100
AcDbCircle
 10
853.5230237378
 20
669.1893092182
 30
0.0
 40
7.099999999999909
  0
CIRCLE
  5
82
330
1F
100
AcDbEntity
  8
0
  6
Continuous
 62
     7
370
    25
100
AcDbCircle
 10
413.5230237378
 20
409.1893092182
 30
0.0
 40
7.100000000000023
  0
CIRCLE
  5
83
330
1F
100
AcDbEntity
  8
0
  6
Continuous
 62
     7
370
    25
100
AcDbCircle
 10
998.5230237378
 20
-120.8106907818
 30
0.0
 40
7.099999999999994
  0
CIRCLE
  5
84
330
1F
100
AcDbEntity
  8
0
  6
Continuous
 62
     7
370
    25
100
AcDbCircle
 10
708.5230237378
 20
409.1893092182
 30
0.0
 40
7.100000000000023
  0
ARC
  5
85
330
1F
100
AcDbEntity
  8
0
  6
Continuous
 62
     7
370
    25
100
AcDbCircle
 10
1293.5230237378
 20
-120.8106907818
 30
0.0
 40
7.100000000000079
100
AcDbArc
 50
45.1736449061
 51
134.3619339879
  0
CIRCLE
  5
86
330
1F
100
AcDbEntity
  8
0
  6
Continuous
 62
     7
370
    25
100
AcDbCircle
 10
998.5230237378
 20
409.1893092182
 30
0.0
 40
7.100000000000023
  0
CIRCLE
  5
87
330
1F
100
AcDbEntity
  8
0
  6
Continuous
 62
     7
370
    25
100
AcDbCircle
 10
413.5230237378
 20
-120.8106907818
 30
0.0
 40
7.099999999999994
  0
ARC
  5
88
330
1F
100
AcDbEntity
  8
0
  6
Continuous
 62
     7
370
    25
100
AcDbCircle
 10
289.9853333897
 20
-360.4496559284
 30
0.0
 40
2.999999999999972
100
AcDbArc
 50
240.0
 51
330.0
  0
ARC
  5
89
330
1F
100
AcDbEntity
  8
0
  6
Continuous
 62
     7
370
    25
100
AcDbCircle
 10
284.789180967
 20
-357.4496559284
 30
0.0
 40
3.000000000000078
100
AcDbArc
 50
150.0
 51
240.0
  0
LINE
  5
8A
330
1F
100
AcDbEntity
  8
0
  6
Continuous
 62
     7
370
    25
100
AcDbLine
 10
283.289180967
 20
-360.0477321398
 30
0.0
 11
288.4853333897
 21
-363.0477321398
 31
0.0
  0
ARC
  5
8B
330
1F
100
AcDbEntity
  8
0
  6
Continuous
 62
     7
370
    25
100
AcDbCircle
 10
289.9853333897
 20
648.8282743649
 30
0.0
 40
3.0
100
AcDbArc
 50
30.0
 51
120.0
  0
ARC
  5
8C
330
1F
100
AcDbEntity
  8
0
  6
Continuous
 62
     7
370
    25
100
AcDbCircle
 10
284.789180967
 20
645.8282743649
 30
0.0
 40
3.000000000000106
100
AcDbArc
 50
120.0
 51
210.0
  0
LINE
  5
8D
330
1F
100
AcDbEntity
  8
0
  6
Continuous
 62
     7
370
    25
100
AcDbLine
 10
288.4853333897
 20
651.4263505762
 30
0.0
 11
283.289180967
 21
648.4263505762
 31
0.0
  0
ARC
  5
8E
330
1F
100
AcDbEntity
  8
0
  6
Continuous
 62
     7
370
    25
100
AcDbCircle
 10
1423.4488752771
 20
-357.4496559284
 30
0.0
 40
3.000000000000021
100
AcDbArc
 50
300.0
 51
30.0
  0
ARC
  5
8F
330
1F
100
AcDbEntity
  8
0
  6
Continuous
 62
     7
370
    25
100
AcDbCircle
 10
1418.2527228544
 20
-360.4496559284
 30
0.0
 40
3.000000000000114
100
AcDbArc
 50
210.0
 51
300.0
  0
LINE
  5
90
330
1F
100
AcDbEntity
  8
0
  6
Continuous
 62
     7
370
    25
100
AcDbLine
 10
1419.7527228544
 20
-363.0477321398
 30
0.0
 11
1424.9488752771
 21
-360.0477321398
 31
0.0
  0
ARC
  5
91
330
1F
100
AcDbEntity
  8
0
  6
Continuous
 62
     7
370
    25
100
AcDbCircle
 10
1418.2527228544
 20
648.8282743649
 30
0.0
 40
3.000000000000064
100
AcDbArc
 50
60.0
 51
150.0
  0
ARC
  5
92
330
1F
100
AcDbEntity
  8
0
  6
Continuous
 62
     7
370
    25
100
AcDbCircle
 10
1423.4488752771
 20
645.8282743649
 30
0.0
 40
3.000000000000049
100
AcDbArc
 50
330.0
 51
60.0
  0
LINE
  5
93
330
1F
100
AcDbEntity
  8
0
  6
Continuous
 62
     7
370
    25
100
AcDbLine
 10
1424.9488752771
 20
648.4263505762
 30
0.0
 11
1419.7527228544
 21
651.4263505762
 31
0.0
  0
ARC
  5
94
330
1F
100
AcDbEntity
  8
0
  6
Continuous
 62
     7
370
    25
100
AcDbCircle
 10
531.914838632
 20
1051.034584587
 30
0.0
 40
89.12576612710318
100
AcDbArc
 50
299.9226938801
 51
335.9943873689
  0
LWPOLYLINE
  5
95
330
1F
100
AcDbEntity
  8
0
  6
Continuous
 62
     7
370
    25
100
AcDbPolyline
 90
       24
 70
   128
 43
0.0
 10
579.3010620261
 20
1073.7187329378
 10
580.0843040576
 20
1072.3075541593
 10
581.6519151624
 20
1069.0807302265
 10
582.9745315986
 20
1065.7417915056
 10
584.0448396627
 20
1062.3088010302
 10
584.857239673
 20
1058.7998082011
 10
585.4075910778
 20
1055.2332470935
 10
585.6932221133
 20
1051.627801184
 10
585.7129211327
 20
1048.0022750831
 10
585.466913571
 20
1044.3754767705
 10
584.9568290089
 20
1040.766111519
 10
584.1856623829
 20
1037.1926869601
 10
583.1577324348
 20
1033.6734275339
 10
581.8786393186
 20
1030.2261959764
 10
580.3552221399
 20
1026.8684194524
 10
578.5955162758
 20
1023.6170183049
 10
576.6087096946
 20
1020.4883359743
 10
574.4050971635
 20
1017.4980693095
 10
571.9960311647
 20
1014.6611991121
 10
569.393868463
 20
1011.9919212828
 10
566.6119115173
 20
1009.5035793226
 10
563.6643442474
 20
1007.2085991901
 10
560.5661620096
 20
1005.1184276427
 10
558.8735393474
 20
1004.1002400901
  0
ARC
  5
96
330
1F
100
AcDbEntity
  8
0
  6
Continuous
 62
     7
370
    25
100
AcDbCircle
 10
254.6241475061
 20
890.7815820441
 30
0.0
 40
88.98798079736295
100
AcDbArc
 50
263.9624698634
 51
300.0946676723
  0
LWPOLYLINE
  5
97
330
1F
100
AcDbEntity
  8
0
  6
Continuous
 62
     7
370
    25
100
AcDbPolyline
 90
       24
 70
   128
 43
0.0
 10
281.7454101364
 20
844.1002400901
 10
280.2309552054
 20
843.2573979673
 10
276.8808515112
 20
841.6054495735
 10
273.4286732134
 20
840.1859318748
 10
269.8924442789
 20
839.0061468698
 10
266.2899971679
 20
838.0718861575
 10
262.6394580366
 20
837.3877194218
 10
258.9591550107
 20
836.9569814526
 10
255.2675277978
 20
836.7817667352
 10
251.5830400753
 20
836.8629309751
 10
247.9240957045
 20
837.2000984861
 10
244.3089595202
 20
837.7916740587
 10
240.7556830201
 20
838.6348576889
 10
237.2820347377
 20
839.7256604378
 10
233.9054344539
 20
841.0589197693
 10
230.6428897341
 20
842.6283130368
 10
227.5109326635
 20
844.4263684029
 10
224.5255542092
 20
846.4444733876
 10
221.7021335186
 20
848.6728824053
 10
219.0553597973
 20
851.1007259277
 10
216.5991453056
 20
853.716025095
 10
214.3465294568
 20
856.505716396
 10
212.3095758483
 20
859.4556911645
 10
211.2402654177
 20
861.2187329378
  0
LINE
  5
98
330
1F
100
AcDbEntity
  8
0
  6
Continuous
 62
     7
370
    25
100
AcDbLine
 10
558.8735393474
 20
1004.1002400901
 30
0.0
 11
281.7454101364
 21
844.1002400901
 31
0.0
  0
LINE
  5
99
330
1F
100
AcDbEntity
  8
0
  6
Continuous
 62
     7
370
    25
100
AcDbLine
 10
299.2454101364
 20
813.7893509577
 30
0.0
 11
576.3735393474
 21
973.7893509577
 31
0.0
  0
ARC
  5
9A
330
1F
100
AcDbEntity
  8
0
  6
Continuous
 62
     7
370
    25
100
AcDbCircle
 10
1453.613908738
 20
-602.4029636077
 30
0.0
 40
88.98798079736699
100
AcDbArc
 50
83.9624698634
 51
120.0946676723
  0
LWPOLYLINE
  5
9B
330
1F
100
AcDbEntity
  8
0
  6
Continuous
 62
     7
370
    25
100
AcDbPolyline
 90
       24
 70
   128
 43
0.0
 10
1426.4926461077
 20
-555.7216216537
 10
1428.0071010387
 20
-554.8787795309
 10
1431.3572047329
 20
-553.2268311371
 10
1434.8093830307
 20
-551.8073134384
 10
1438.3456119652
 20
-550.6275284334
 10
1441.9480590762
 20
-549.6932677211
 10
1445.5985982075
 20
-549.0091009854
 10
1449.2789012334
 20
-548.5783630162
 10
1452.9705284463
 20
-548.4031482988
 10
1456.6550161688
 20
-548.4843125387
 10
1460.3139605396
 20
-548.8214800496
 10
1463.9290967239
 20
-549.4130556223
 10
1467.482373224
 20
-550.2562392525
 10
1470.9560215064
 20
-551.3470420014
 10
1474.3326217902
 20
-552.6803013329
 10
1477.59516651
 20
-554.2496946004
 10
1480.7271235806
 20
-556.0477499665
 10
1483.7125020349
 20
-558.0658549512
 10
1486.5359227255
 20
-560.2942639689
 10
1489.1826964468
 20
-562.7221074913
 10
1491.6389109385
 20
-565.3374066586
 10
1493.8915267873
 20
-568.1270979596
 10
1495.9284803957
 20
-571.0770727281
 10
1496.9977908264
 20
-572.8401145014
  0
ARC
  5
9C
330
1F
100
AcDbEntity
  8
0
  6
Continuous
 62
     7
370
    25
100
AcDbCircle
 10
1176.3232176121
 20
-762.6559661506
 30
0.0
 40
89.12576612710643
100
AcDbArc
 50
119.9226938801
 51
155.9943873689
  0
LWPOLYLINE
  5
9D
330
1F
100
AcDbEntity
  8
0
  6
Continuous
 62
     7
370
    25
100
AcDbPolyline
 90
       24
 70
   128
 43
0.0
 10
1128.936994218
 20
-785.3401145014
 10
1128.1537521865
 20
-783.9289357229
 10
1126.5861410817
 20
-780.7021117901
 10
1125.2635246455
 20
-777.3631730692
 10
1124.1932165813
 20
-773.9301825938
 10
1123.3808165711
 20
-770.4211897647
 10
1122.8304651663
 20
-766.8546286571
 10
1122.5448341308
 20
-763.2491827475
 10
1122.5251351114
 20
-759.6236566467
 10
1122.7711426731
 20
-755.9968583341
 10
1123.2812272352
 20
-752.3874930826
 10
1124.0523938612
 20
-748.8140685237
 10
1125.0803238093
 20
-745.2948090975
 10
1126.3594169255
 20
-741.84757754
 10
1127.8828341042
 20
-738.489801016
 10
1129.6425399683
 20
-735.2383998685
 10
1131.6293465495
 20
-732.1097175379
 10
1133.8329590806
 20
-729.1194508731
 10
1136.2420250794
 20
-726.2825806757
 10
1138.8441877811
 20
-723.6133028464
 10
1141.6261447268
 20
-721.1249608862
 10
1144.5737119967
 20
-718.8299807537
 10
1147.6718942345
 20
-716.7398092063
 10
1149.3645168967
 20
-715.7216216537
  0
LINE
  5
9E
330
1F
100
AcDbEntity
  8
0
  6
Continuous
 62
     7
370
    25
100
AcDbLine
 10
1149.3645168967
 20
-715.7216216537
 30
0.0
 11
1426.4926461077
 21
-555.7216216537
 31
0.0
  0
LINE
  5
9F
330
1F
100
AcDbEntity
  8
0
  6
Continuous
 62
     7
370
    25
100
AcDbLine
 10
1408.9926461077
 20
-525.4107325213
 30
0.0
 11
1131.8645168967
 21
-685.4107325213
 31
0.0
  0
ARC
  5
A0
330
1F
100
AcDbEntity
  8
0
  6
Continuous
 62
     7
370
    25
100
AcDbCircle
 10
254.5784258498
 20
-602.5357135747
 30
0.0
 40
89.12576612710629
100
AcDbArc
 50
59.9226938801
 51
95.9943873689
  0
LWPOLYLINE
  5
A1
330
1F
100
AcDbEntity
  8
0
  6
Continuous
 62
     7
370
    25
100
AcDbPolyline
 90
       24
 70
   128
 43
0.0
 10
211.2402654177
 20
-572.8401145014
 10
212.0707610735
 20
-571.4562176156
 10
214.0814670204
 20
-568.4852146092
 10
216.3117645562
 20
-565.6703258155
 10
218.7496674869
 20
-563.0269166044
 10
221.3823444135
 20
-560.5688611429
 10
224.1959012344
 20
-558.3089622916
 10
227.1754934663
 20
-556.258875604
 10
230.305441662
 20
-554.4290527023
 10
233.569344916
 20
-552.8287023439
 10
236.9501891963
 20
-551.465765907
 10
240.4304489558
 20
-550.3469035162
 10
243.9921819954
 20
-549.4774872515
 10
247.6171186551
 20
-548.8615986052
 10
251.2867470145
 20
-548.5020283205
 10
254.9823959382
 20
-548.4002777282
 10
258.6853176074
 20
-548.5565615347
 10
262.3767707688
 20
-548.9698126343
 10
266.0381054264
 20
-549.6376898899
 10
269.6508491871
 20
-550.5565899797
 10
273.1967950108
 20
-551.7216643869
 10
276.6580897417
 20
-553.1268424557
 10
280.0173225189
 20
-554.7648612055
 10
281.7454101364
 20
-555.7216216537
  0
ARC
  5
A2
330
1F
100
AcDbEntity
  8
0
  6
Continuous
 62
     7
370
    25
100
AcDbCircle
 10
532.0069426476
 20
-762.5499950512
 30
0.0
 40
88.98798079736206
100
AcDbArc
 50
23.9624698634
 51
60.0946676723
  0
LWPOLYLINE
  5
A3
330
1F
100
AcDbEntity
  8
0
  6
Continuous
 62
     7
370
    25
100
AcDbPolyline
 90
       24
 70
   128
 43
0.0
 10
558.8735393474
 20
-715.7216216537
 10
560.3606895026
 20
-716.6117570354
 10
563.4663706245
 20
-718.687057743
 10
566.4217981616
 20
-720.9669729979
 10
569.2116364141
 20
-723.4395445863
 10
571.8219534803
 20
-726.0922249441
 10
574.2397288195
 20
-728.9116012015
 10
576.4529103561
 20
-731.8834681309
 10
578.450464359
 20
-734.9929037199
 10
580.2224179266
 20
-738.2243458074
 10
581.7598944822
 20
-741.5616683391
 10
583.0551431002
 20
-744.9882558991
 10
584.1015629064
 20
-748.48707543
 10
584.8937241565
 20
-752.0407444609
 10
585.4273878475
 20
-755.6315957508
 10
585.6995257692
 20
-759.2417389928
 10
585.7083426801
 20
-762.8531210626
 10
585.4533017229
 20
-766.4475871363
 10
584.9351532489
 20
-770.0069456888
 10
584.1559659428
 20
-773.5130407307
 10
583.1191576712
 20
-776.9478344613
 10
581.8295220602
 20
-780.2935026618
 10
580.2932457745
 20
-783.5325436173
 10
579.3010620261
 20
-785.3401145014
  0
LINE
  5
A4
330
1F
100
AcDbEntity
  8
0
  6
Continuous
 62
     7
370
    25
100
AcDbLine
 10
281.7454101364
 20
-555.7216216537
 30
0.0
 11
558.8735393474
 21
-715.7216216537
 31
0.0
  0
LINE
  5
A5
330
1F
100
AcDbEntity
  8
0
  6
Continuous
 62
     7
370
    25
100
AcDbLine
 10
576.3735393474
 20
-685.4107325213
 30
0.0
 11
299.2454101364
 21
-525.4107325213
 31
0.0
  0
ARC
  5
A6
330
1F
100
AcDbEntity
  8
0
  6
Continuous
 62
     7
370
    25
100
AcDbCircle
 10
1222.5219651371
 20
1131.1067202815
 30
0.0
 40
88.98798079736422
100
AcDbArc
 50
203.9624698634
 51
240.0946676723
  0
LWPOLYLINE
  5
A7
330
1F
100
AcDbEntity
  8
0
  6
Continuous
 62
     7
370
    25
100
AcDbPolyline
 90
       24
 70
   128
 43
0.0
 10
1195.6553684373
 20
1084.278346884
 10
1194.1682182821
 20
1085.1684822657
 10
1191.0625371602
 20
1087.2437829733
 10
1188.1071096231
 20
1089.5236982282
 10
1185.3172713705
 20
1091.9962698166
 10
1182.7069543043
 20
1094.6489501744
 10
1180.2891789652
 20
1097.4683264318
 10
1178.0759974285
 20
1100.4401933612
 10
1176.0784434257
 20
1103.5496289502
 10
1174.3064898581
 20
1106.7810710377
 10
1172.7690133025
 20
1110.1183935694
 10
1171.4737646845
 20
1113.5449811294
 10
1170.4273448783
 20
1117.0438006603
 10
1169.6351836282
 20
1120.5974696912
 10
1169.1015199371
 20
1124.1883209811
 10
1168.8293820155
 20
1127.7984642231
 10
1168.8205651046
 20
1131.4098462929
 10
1169.0756060617
 20
1135.0043123666
 10
1169.5937545358
 20
1138.5636709191
 10
1170.3729418419
 20
1142.069765961
 10
1171.4097501134
 20
1145.5045596916
 10
1172.6993857244
 20
1148.8502278921
 10
1174.2356620102
 20
1152.0892688476
 10
1175.2278457586
 20
1153.8968397317
  0
ARC
  5
A8
330
1F
100
AcDbEntity
  8
0
  6
Continuous
 62
     7
370
    25
100
AcDbCircle
 10
1499.9504819348
 20
971.092438805
 30
0.0
 40
89.12576612710394
100
AcDbArc
 50
239.9226938801
 51
275.994387369
  0
LWPOLYLINE
  5
A9
330
1F
100
AcDbEntity
  8
0
  6
Continuous
 62
     7
370
    25
100
AcDbPolyline
 90
       24
 70
   128
 43
0.0
 10
1543.2886423669
 20
941.3968397317
 10
1542.4581467112
 20
940.0129428459
 10
1540.4474407642
 20
937.0419398395
 10
1538.2171432284
 20
934.2270510458
 10
1535.7792402978
 20
931.5836418347
 10
1533.1465633712
 20
929.1255863732
 10
1530.3330065503
 20
926.8656875219
 10
1527.3534143184
 20
924.8156008343
 10
1524.2234661227
 20
922.9857779326
 10
1520.9595628687
 20
921.3854275742
 10
1517.5787185883
 20
920.0224911373
 10
1514.0984588288
 20
918.9036287465
 10
1510.5367257892
 20
918.0342124818
 10
1506.9117891296
 20
917.4183238355
 10
1503.2421607702
 20
917.0587535508
 10
1499.5465118465
 20
916.9570029585
 10
1495.8435901773
 20
917.113286765
 10
1492.1521370159
 20
917.5265378646
 10
1488.4908023583
 20
918.1944151202
 10
1484.8780585975
 20
919.11331521
 10
1481.3321127738
 20
920.2783896172
 10
1477.870818043
 20
921.683567686
 10
1474.5115852658
 20
923.3215864358
 10
1472.7834976483
 20
924.278346884
  0
LINE
  5
AA
330
1F
100
AcDbEntity
  8
0
  6
Continuous
 62
     7
370
    25
100
AcDbLine
 10
1472.7834976483
 20
924.278346884
 30
0.0
 11
1195.6553684373
 21
1084.278346884
 31
0.0
  0
LINE
  5
AB
330
1F
100
AcDbEntity
  8
0
  6
Continuous
 62
     7
370
    25
100
AcDbLine
 10
1178.1553684373
 20
1053.9674577516
 30
0.0
 11
1455.2834976483
 21
893.9674577516
 31
0.0
  0
ARC
  5
AC
330
1F
100
AcDbEntity
  8
0
  6
Continuous
 62
     7
370
    25
100
AcDbCircle
 10
1268.8128166776
 20
1211.2848270754
 30
0.0
 40
88.98798079736616
100
AcDbArc
 50
203.9624698634
 51
240.0946676723
  0
LWPOLYLINE
  5
AD
330
1F
100
AcDbEntity
  8
0
  6
Continuous
 62
     7
370
    25
100
AcDbPolyline
 90
       24
 70
   128
 43
0.0
 10
1241.9462199778
 20
1164.4564536779
 10
1240.4590698226
 20
1165.3465890596
 10
1237.3533887007
 20
1167.4218897672
 10
1234.3979611636
 20
1169.7018050221
 10
1231.6081229111
 20
1172.1743766105
 10
1228.9978058449
 20
1174.8270569683
 10
1226.5800305057
 20
1177.6464332257
 10
1224.3668489691
 20
1180.6183001551
 10
1222.3692949663
 20
1183.7277357441
 10
1220.5973413986
 20
1186.9591778316
 10
1219.059864843
 20
1190.2965003633
 10
1217.764616225
 20
1193.7230879233
 10
1216.7181964188
 20
1197.2219074542
 10
1215.9260351687
 20
1200.775576485
 10
1215.3923714777
 20
1204.366427775
 10
1215.120233556
 20
1207.976571017
 10
1215.1114166451
 20
1211.5879530868
 10
1215.3664576023
 20
1215.1824191605
 10
1215.8846060763
 20
1218.741777713
 10
1216.6637933824
 20
1222.2478727549
 10
1217.700601654
 20
1225.6826664855
 10
1218.990237265
 20
1229.028334686
 10
1220.5265135508
 20
1232.2673756415
 10
1221.5186972991
 20
1234.0749465256
  0
ARC
  5
AE
330
1F
100
AcDbEntity
  8
0
  6
Continuous
 62
     7
370
    25
100
AcDbCircle
 10
1546.2413334754
 20
1051.2705455989
 30
0.0
 40
89.12576612710573
100
AcDbArc
 50
239.9226938801
 51
275.994387369
  0
LWPOLYLINE
  5
AF
330
1F
100
AcDbEntity
  8
0
  6
Continuous
 62
     7
370
    25
100
AcDbPolyline
 90
       24
 70
   128
 43
0.0
 10
1589.5794939075
 20
1021.5749465256
 10
1588.7489982518
 20
1020.1910496398
 10
1586.7382923048
 20
1017.2200466334
 10
1584.507994769
 20
1014.4051578397
 10
1582.0700918383
 20
1011.7617486285
 10
1579.4374149118
 20
1009.3036931671
 10
1576.6238580909
 20
1007.0437943157
 10
1573.644265859
 20
1004.9937076281
 10
1570.5143176632
 20
1003.1638847265
 10
1567.2504144093
 20
1001.5635343681
 10
1563.8695701289
 20
1000.2005979312
 10
1560.3893103694
 20
999.0817355404
 10
1556.8275773298
 20
998.2123192757
 10
1553.2026406701
 20
997.5964306294
 10
1549.5330123108
 20
997.2368603447
 10
1545.8373633871
 20
997.1351097524
 10
1542.1344417179
 20
997.2913935589
 10
1538.4429885565
 20
997.7046446585
 10
1534.7816538988
 20
998.3725219141
 10
1531.1689101381
 20
999.2914220039
 10
1527.6229643144
 20
1000.456496411
 10
1524.1616695835
 20
1001.8616744799
 10
1520.8024368063
 20
1003.4996932297
 10
1519.0743491889
 20
1004.4564536779
  0
LINE
  5
B0
330
1F
100
AcDbEntity
  8
0
  6
Continuous
 62
     7
370
    25
100
AcDbLine
 10
1519.0743491889
 20
1004.4564536779
 30
0.0
 11
1241.9462199778
 21
1164.4564536779
 31
0.0
  0
LINE
  5
B1
330
1F
100
AcDbEntity
  8
0
  6
Continuous
 62
     7
370
    25
100
AcDbLine
 10
1224.4462199778
 20
1134.1455645455
 30
0.0
 11
1501.5743491889
 21
974.1455645455
 31
0.0
  0
ARC
  5
B2
330
1F
100
AcDbEntity
  8
0
  6
Continuous
 62
     7
370
    25
100
AcDbCircle
 10
208.2875743093
 20
-682.7138203686
 30
0.0
 40
89.12576612710322
100
AcDbArc
 50
59.9226938801
 51
95.9943873689
  0
LWPOLYLINE
  5
B3
330
1F
100
AcDbEntity
  8
0
  6
Continuous
 62
     7
370
    25
100
AcDbPolyline
 90
       24
 70
   128
 43
0.0
 10
164.9494138771
 20
-653.0182212953
 10
165.7799095329
 20
-651.6343244095
 10
167.7906154799
 20
-648.6633214031
 10
170.0209130157
 20
-645.8484326094
 10
172.4588159463
 20
-643.2050233982
 10
175.0914928729
 20
-640.7469679368
 10
177.9050496938
 20
-638.4870690854
 10
180.8846419257
 20
-636.4369823978
 10
184.0145901214
 20
-634.6071594962
 10
187.2784933754
 20
-633.0068091378
 10
190.6593376557
 20
-631.6438727009
 10
194.1395974153
 20
-630.5250103101
 10
197.7013304549
 20
-629.6555940454
 10
201.3262671145
 20
-629.0397053991
 10
204.9958954739
 20
-628.6801351144
 10
208.6915443976
 20
-628.5783845221
 10
212.3944660668
 20
-628.7346683286
 10
216.0859192282
 20
-629.1479194282
 10
219.7472538858
 20
-629.8157966838
 10
223.3599976466
 20
-630.7346967736
 10
226.9059434703
 20
-631.8997711807
 10
230.3672382011
 20
-633.3049492496
 10
233.7264709783
 20
-634.9429679994
 10
235.4545585958
 20
-635.8997284476
  0
ARC
  5
B4
330
1F
100
AcDbEntity
  8
0
  6
Continuous
 62
     7
370
    25
100
AcDbCircle
 10
485.716091107
 20
-842.7281018451
 30
0.0
 40
88.98798079736115
100
AcDbArc
 50
23.9624698634
 51
60.0946676723
  0
LWPOLYLINE
  5
B5
330
1F
100
AcDbEntity
  8
0
  6
Continuous
 62
     7
370
    25
100
AcDbPolyline
 90
       24
 70
   128
 43
0.0
 10
512.5826878068
 20
-795.8997284476
 10
514.069837962
 20
-796.7898638293
 10
517.1755190839
 20
-798.8651645369
 10
520.130946621
 20
-801.1450797918
 10
522.9207848736
 20
-803.6176513802
 10
525.5311019397
 20
-806.270331738
 10
527.9488772789
 20
-809.0897079954
 10
530.1620588156
 20
-812.0615749248
 10
532.1596128184
 20
-815.1710105138
 10
533.931566386
 20
-818.4024526013
 10
535.4690429416
 20
-821.739775133
 10
536.7642915596
 20
-825.166362693
 10
537.8107113658
 20
-828.6651822239
 10
538.6028726159
 20
-832.2188512547
 10
539.136536307
 20
-835.8097025447
 10
539.4086742286
 20
-839.4198457867
 10
539.4174911395
 20
-843.0312278565
 10
539.1624501824
 20
-846.6256939302
 10
538.6443017083
 20
-850.1850524827
 10
537.8651144022
 20
-853.6911475246
 10
536.8283061307
 20
-857.1259412552
 10
535.5386705196
 20
-860.4716094557
 10
534.0023942339
 20
-863.7106504112
 10
533.0102104855
 20
-865.5182212953
  0
LINE
  5
B6
330
1F
100
AcDbEntity
  8
0
  6
Continuous
 62
     7
370
    25
100
AcDbLine
 10
235.4545585958
 20
-635.8997284476
 30
0.0
 11
512.5826878068
 21
-795.8997284476
 31
0.0
  0
LINE
  5
B7
330
1F
100
AcDbEntity
  8
0
  6
Continuous
 62
     7
370
    25
100
AcDbLine
 10
530.0826878068
 20
-765.5888393151
 30
0.0
 11
252.9545585958
 21
-605.5888393151
 31
0.0
  0
ARC
  5
B8
330
1F
100
AcDbEntity
  8
0
  6
Continuous
 62
     7
370
    25
100
AcDbCircle
 10
1176.2311135965
 20
1050.9286134876
 30
0.0
 40
88.98798079736319
100
AcDbArc
 50
203.9624698634
 51
240.0946676723
  0
LWPOLYLINE
  5
B9
330
1F
100
AcDbEntity
  8
0
  6
Continuous
 62
     7
370
    25
100
AcDbPolyline
 90
       24
 70
   128
 43
0.0
 10
1149.3645168967
 20
1004.1002400901
 10
1147.8773667415
 20
1004.9903754718
 10
1144.7716856196
 20
1007.0656761794
 10
1141.8162580825
 20
1009.3455914343
 10
1139.0264198299
 20
1011.8181630227
 10
1136.4161027638
 20
1014.4708433805
 10
1133.9983274246
 20
1017.2902196379
 10
1131.785145888
 20
1020.2620865674
 10
1129.7875918851
 20
1023.3715221563
 10
1128.0156383175
 20
1026.6029642438
 10
1126.4781617619
 20
1029.9402867755
 10
1125.1829131439
 20
1033.3668743355
 10
1124.1364933377
 20
1036.8656938664
 10
1123.3443320876
 20
1040.4193628973
 10
1122.8106683966
 20
1044.0102141872
 10
1122.5385304749
 20
1047.6203574292
 10
1122.529713564
 20
1051.231739499
 10
1122.7847545212
 20
1054.8262055727
 10
1123.3029029952
 20
1058.3855641252
 10
1124.0820903013
 20
1061.8916591671
 10
1125.1188985728
 20
1065.3264528977
 10
1126.4085341839
 20
1068.6721210982
 10
1127.9448104696
 20
1071.9111620537
 10
1128.936994218
 20
1073.7187329378
  0
ARC
  5
BA
330
1F
100
AcDbEntity
  8
0
  6
Continuous
 62
     7
370
    25
100
AcDbCircle
 10
1453.6596303943
 20
890.9143320111
 30
0.0
 40
89.12576612710566
100
AcDbArc
 50
239.9226938801
 51
275.994387369
  0
LWPOLYLINE
  5
BB
330
1F
100
AcDbEntity
  8
0
  6
Continuous
 62
     7
370
    25
100
AcDbPolyline
 90
       24
 70
   128
 43
0.0
 10
1496.9977908264
 20
861.2187329378
 10
1496.1672951706
 20
859.834836052
 10
1494.1565892236
 20
856.8638330456
 10
1491.9262916878
 20
854.0489442519
 10
1489.4883887572
 20
851.4055350408
 10
1486.8557118306
 20
848.9474795793
 10
1484.0421550097
 20
846.687580728
 10
1481.0625627778
 20
844.6374940404
 10
1477.9326145821
 20
842.8076711387
 10
1474.6687113281
 20
841.2073207803
 10
1471.2878670478
 20
839.8443843434
 10
1467.8076072883
 20
838.7255219526
 10
1464.2458742486
 20
837.8561056879
 10
1460.620937589
 20
837.2402170416
 10
1456.9513092296
 20
836.8806467569
 10
1453.2556603059
 20
836.7788961646
 10
1449.5527386367
 20
836.9351799711
 10
1445.8612854753
 20
837.3484310707
 10
1442.1999508177
 20
838.0163083263
 10
1438.587207057
 20
838.9352084161
 10
1435.0412612332
 20
840.1002828233
 10
1431.5799665024
 20
841.5054608921
 10
1428.2207337252
 20
843.143479642
 10
1426.4926461077
 20
844.1002400901
  0
LINE
  5
BC
330
1F
100
AcDbEntity
  8
0
  6
Continuous
 62
     7
370
    25
100
AcDbLine
 10
1426.4926461077
 20
844.1002400901
 30
0.0
 11
1149.3645168967
 21
1004.1002400901
 31
0.0
  0
LINE
  5
BD
330
1F
100
AcDbEntity
  8
0
  6
Continuous
 62
     7
370
    25
100
AcDbLine
 10
1131.8645168967
 20
973.7893509577
 30
0.0
 11
1408.9926461077
 21
813.7893509577
 31
0.0
  0
ARC
  5
BE
330
1F
100
AcDbEntity
  8
0
  6
Continuous
 62
     7
370
    25
100
AcDbCircle
 10
161.9967227687
 20
-762.8919271624
 30
0.0
 40
89.12576612710453
100
AcDbArc
 50
59.9226938801
 51
95.9943873689
  0
LWPOLYLINE
  5
BF
330
1F
100
AcDbEntity
  8
0
  6
Continuous
 62
     7
370
    25
100
AcDbPolyline
 90
       24
 70
   128
 43
0.0
 10
118.6585623366
 20
-733.1963280892
 10
119.4890579923
 20
-731.8124312033
 10
121.4997639393
 20
-728.841428197
 10
123.7300614751
 20
-726.0265394033
 10
126.1679644057
 20
-723.3831301921
 10
128.8006413323
 20
-720.9250747307
 10
131.6141981532
 20
-718.6651758793
 10
134.5937903851
 20
-716.6150891917
 10
137.7237385809
 20
-714.7852662901
 10
140.9876418348
 20
-713.1849159317
 10
144.3684861152
 20
-711.8219794948
 10
147.8487458747
 20
-710.703117104
 10
151.4104789143
 20
-709.8337008393
 10
155.035415574
 20
-709.217812193
 10
158.7050439333
 20
-708.8582419083
 10
162.400692857
 20
-708.756491316
 10
166.1036145262
 20
-708.9127751224
 10
169.7950676876
 20
-709.3260262221
 10
173.4564023453
 20
-709.9939034777
 10
177.069146106
 20
-710.9128035675
 10
180.6150919297
 20
-712.0778779746
 10
184.0763866606
 20
-713.4830560435
 10
187.4356194378
 20
-715.1210747933
 10
189.1637070552
 20
-716.0778352415
  0
ARC
  5
C0
330
1F
100
AcDbEntity
  8
0
  6
Continuous
 62
     7
370
    25
100
AcDbCircle
 10
439.4252395665
 20
-922.906208639
 30
0.0
 40
88.98798079736261
100
AcDbArc
 50
23.9624698634
 51
60.0946676723
  0
LWPOLYLINE
  5
C1
330
1F
100
AcDbEntity
  8
0
  6
Continuous
 62
     7
370
    25
100
AcDbPolyline
 90
       24
 70
   128
 43
0.0
 10
466.2918362663
 20
-876.0778352415
 10
467.7789864215
 20
-876.9679706232
 10
470.8846675433
 20
-879.0432713308
 10
473.8400950805
 20
-881.3231865857
 10
476.629933333
 20
-883.7957581741
 10
479.2402503992
 20
-886.4484385319
 10
481.6580257383
 20
-889.2678147893
 10
483.871207275
 20
-892.2396817187
 10
485.8687612778
 20
-895.3491173076
 10
487.6407148455
 20
-898.5805593952
 10
489.178191401
 20
-901.9178819269
 10
490.4734400191
 20
-905.3444694869
 10
491.5198598252
 20
-908.8432890178
 10
492.3120210754
 20
-912.3969580486
 10
492.8456847664
 20
-915.9878093386
 10
493.1178226881
 20
-919.5979525806
 10
493.126639599
 20
-923.2093346504
 10
492.8715986418
 20
-926.8038007241
 10
492.3534501677
 20
-930.3631592766
 10
491.5742628617
 20
-933.8692543185
 10
490.5374545901
 20
-937.3040480491
 10
489.2478189791
 20
-940.6497162496
 10
487.7115426933
 20
-943.8887572051
 10
486.719358945
 20
-945.6963280892
  0
LINE
  5
C2
330
1F
100
AcDbEntity
  8
0
  6
Continuous
 62
     7
370
    25
100
AcDbLine
 10
189.1637070552
 20
-716.0778352415
 30
0.0
 11
466.2918362663
 21
-876.0778352415
 31
0.0
  0
LINE
  5
C3
330
1F
100
AcDbEntity
  8
0
  6
Continuous
 62
     7
370
    25
100
AcDbLine
 10
483.7918362663
 20
-845.766946109
 30
0.0
 11
206.6637070552
 21
-685.766946109
 31
0.0
  0
ARC
  5
C4
330
1F
100
AcDbEntity
  8
0
  6
Continuous
 62
     7
370
    25
100
AcDbCircle
 10
439.3331355509
 20
1211.3907981747
 30
0.0
 40
89.12576612710443
100
AcDbArc
 50
299.9226938801
 51
335.994387369
  0
LWPOLYLINE
  5
C5
330
1F
100
AcDbEntity
  8
0
  6
Continuous
 62
     7
370
    25
100
AcDbPolyline
 90
       24
 70
   128
 43
0.0
 10
486.719358945
 20
1234.0749465256
 10
487.5026009765
 20
1232.6637677471
 10
489.0702120812
 20
1229.4369438143
 10
490.3928285175
 20
1226.0980050934
 10
491.4631365816
 20
1222.665014618
 10
492.2755365918
 20
1219.1560217889
 10
492.8258879967
 20
1215.5894606813
 10
493.1115190321
 20
1211.9840147717
 10
493.1312180515
 20
1208.3584886709
 10
492.8852104898
 20
1204.7316903583
 10
492.3751259278
 20
1201.1223251068
 10
491.6039593018
 20
1197.5489005479
 10
490.5760293537
 20
1194.0296411217
 10
489.2969362375
 20
1190.5824095642
 10
487.7735190588
 20
1187.2246330402
 10
486.0138131947
 20
1183.9732318926
 10
484.0270066135
 20
1180.8445495621
 10
481.8233940824
 20
1177.8542828973
 10
479.4143280836
 20
1175.0174126998
 10
476.8121653819
 20
1172.3481348706
 10
474.0302084362
 20
1169.8597929104
 10
471.0826411663
 20
1167.5648127779
 10
467.9844589285
 20
1165.4746412305
 10
466.2918362663
 20
1164.4564536779
  0
ARC
  5
C6
330
1F
100
AcDbEntity
  8
0
  6
Continuous
 62
     7
370
    25
100
AcDbCircle
 10
162.042444425
 20
1051.1377956319
 30
0.0
 40
88.9879807973651
100
AcDbArc
 50
263.9624698634
 51
300.0946676723
  0
LWPOLYLINE
  5
C7
330
1F
100
AcDbEntity
  8
0
  6
Continuous
 62
     7
370
    25
100
AcDbPolyline
 90
       24
 70
   128
 43
0.0
 10
189.1637070552
 20
1004.4564536779
 10
187.6492521243
 20
1003.6136115551
 10
184.2991484301
 20
1001.9616631613
 10
180.8469701323
 20
1000.5421454626
 10
177.3107411978
 20
999.3623604576
 10
173.7082940867
 20
998.4280997453
 10
170.0577549554
 20
997.7439330096
 10
166.3774519295
 20
997.3131950404
 10
162.6858247167
 20
997.137980323
 10
159.0013369942
 20
997.2191445629
 10
155.3423926233
 20
997.5563120738
 10
151.727256439
 20
998.1478876464
 10
148.1739799389
 20
998.9910712767
 10
144.7003316565
 20
1000.0818740256
 10
141.3237313727
 20
1001.4151333571
 10
138.061186653
 20
1002.9845266246
 10
134.9292295824
 20
1004.7825819907
 10
131.9438511281
 20
1006.8006869754
 10
129.1204304375
 20
1009.0290959931
 10
126.4736567161
 20
1011.4569395155
 10
124.0174422244
 20
1014.0722386828
 10
121.7648263757
 20
1016.8619299838
 10
119.7278727672
 20
1019.8119047522
 10
118.6585623366
 20
1021.5749465256
  0
LINE
  5
C8
330
1F
100
AcDbEntity
  8
0
  6
Continuous
 62
     7
370
    25
100
AcDbLine
 10
466.2918362663
 20
1164.4564536779
 30
0.0
 11
189.1637070552
 21
1004.4564536779
 31
0.0
  0
LINE
  5
C9
330
1F
100
AcDbEntity
  8
0
  6
Continuous
 62
     7
370
    25
100
AcDbLine
 10
206.6637070552
 20
974.1455645455
 30
0.0
 11
483.7918362663
 21
1134.1455645455
 31
0.0
  0
ARC
  5
CA
330
1F
100
AcDbEntity
  8
0
  6
Continuous
 62
     7
370
    25
100
AcDbCircle
 10
485.6239870915
 20
1131.2126913809
 30
0.0
 40
89.12576612710807
100
AcDbArc
 50
299.9226938801
 51
335.9943873689
  0
LWPOLYLINE
  5
CB
330
1F
100
AcDbEntity
  8
0
  6
Continuous
 62
     7
370
    25
100
AcDbPolyline
 90
       24
 70
   128
 43
0.0
 10
533.0102104855
 20
1153.8968397317
 10
533.793452517
 20
1152.4856609532
 10
535.3610636218
 20
1149.2588370204
 10
536.6836800581
 20
1145.9198982995
 10
537.7539881222
 20
1142.4869078241
 10
538.5663881324
 20
1138.977914995
 10
539.1167395372
 20
1135.4113538874
 10
539.4023705727
 20
1131.8059079778
 10
539.4220695921
 20
1128.180381877
 10
539.1760620304
 20
1124.5535835644
 10
538.6659774684
 20
1120.9442183129
 10
537.8948108424
 20
1117.370793754
 10
536.8668808942
 20
1113.8515343278
 10
535.587787778
 20
1110.4043027703
 10
534.0643705993
 20
1107.0465262463
 10
532.3046647353
 20
1103.7951250988
 10
530.3178581541
 20
1100.6664427682
 10
528.1142456229
 20
1097.6761761034
 10
525.7051796241
 20
1094.839305906
 10
523.1030169225
 20
1092.1700280767
 10
520.3210599767
 20
1089.6816861165
 10
517.3734927069
 20
1087.386705984
 10
514.275310469
 20
1085.2965344366
 10
512.5826878068
 20
1084.278346884
  0
ARC
  5
CC
330
1F
100
AcDbEntity
  8
0
  6
Continuous
 62
     7
370
    25
100
AcDbCircle
 10
208.3332959655
 20
970.959688838
 30
0.0
 40
88.98798079736379
100
AcDbArc
 50
263.9624698634
 51
300.0946676723
  0
LWPOLYLINE
  5
CD
330
1F
100
AcDbEntity
  8
0
  6
Continuous
 62
     7
370
    25
100
AcDbPolyline
 90
       24
 70
   128
 43
0.0
 10
235.4545585958
 20
924.278346884
 10
233.9401036648
 20
923.4355047612
 10
230.5899999706
 20
921.7835563674
 10
227.1378216728
 20
920.3640386687
 10
223.6015927383
 20
919.1842536637
 10
219.9991456273
 20
918.2499929514
 10
216.348606496
 20
917.5658262157
 10
212.6683034701
 20
917.1350882465
 10
208.9766762572
 20
916.9598735291
 10
205.2921885347
 20
917.041037769
 10
201.6332441639
 20
917.3782052799
 10
198.0181079796
 20
917.9697808526
 10
194.4648314795
 20
918.8129644828
 10
190.9911831971
 20
919.9037672317
 10
187.6145829133
 20
921.2370265632
 10
184.3520381936
 20
922.8064198307
 10
181.2200811229
 20
924.6044751968
 10
178.2347026686
 20
926.6225801815
 10
175.411281978
 20
928.8509891992
 10
172.7645082567
 20
931.2788327216
 10
170.308293765
 20
933.8941318889
 10
168.0556779162
 20
936.6838231899
 10
166.0187243078
 20
939.6337979584
 10
164.9494138771
 20
941.3968397317
  0
LINE
  5
CE
330
1F
100
AcDbEntity
  8
0
  6
Continuous
 62
     7
370
    25
100
AcDbLine
 10
512.5826878068
 20
1084.278346884
 30
0.0
 11
235.4545585958
 21
924.278346884
 31
0.0
  0
LINE
  5
CF
330
1F
100
AcDbEntity
  8
0
  6
Continuous
 62
     7
370
    25
100
AcDbLine
 10
252.9545585958
 20
893.9674577516
 30
0.0
 11
530.0826878068
 21
1053.9674577516
 31
0.0
  0
ARC
  5
D0
330
1F
100
AcDbEntity
  8
0
  6
Continuous
 62
     7
370
    25
100
AcDbCircle
 10
1499.9047602785
 20
-682.5810704016
 30
0.0
 40
88.98798079736231
100
AcDbArc
 50
83.9624698634
 51
120.0946676723
  0
LWPOLYLINE
  5
D1
330
1F
100
AcDbEntity
  8
0
  6
Continuous
 62
     7
370
    25
100
AcDbPolyline
 90
       24
 70
   128
 43
0.0
 10
1472.7834976483
 20
-635.8997284476
 10
1474.2979525793
 20
-635.0568863248
 10
1477.6480562735
 20
-633.404937931
 10
1481.1002345712
 20
-631.9854202323
 10
1484.6364635058
 20
-630.8056352273
 10
1488.2389106168
 20
-629.871374515
 10
1491.8894497481
 20
-629.1872077793
 10
1495.569752774
 20
-628.7564698101
 10
1499.2613799868
 20
-628.5812550927
 10
1502.9458677093
 20
-628.6624193326
 10
1506.6048120802
 20
-628.9995868435
 10
1510.2199482645
 20
-629.5911624161
 10
1513.7732247646
 20
-630.4343460464
 10
1517.246873047
 20
-631.5251487953
 10
1520.6234733308
 20
-632.8584081268
 10
1523.8860180505
 20
-634.4278013943
 10
1527.0179751212
 20
-636.2258567604
 10
1530.0033535755
 20
-638.2439617451
 10
1532.8267742661
 20
-640.4723707628
 10
1535.4735479874
 20
-642.9002142852
 10
1537.9297624791
 20
-645.5155134525
 10
1540.1823783278
 20
-648.3052047535
 10
1542.2193319363
 20
-651.2551795219
 10
1543.2886423669
 20
-653.0182212953
  0
ARC
  5
D2
330
1F
100
AcDbEntity
  8
0
  6
Continuous
 62
     7
370
    25
100
AcDbCircle
 10
1222.6140691526
 20
-842.8340729444
 30
0.0
 40
89.12576612710366
100
AcDbArc
 50
119.9226938801
 51
155.994387369
  0
LWPOLYLINE
  5
D3
330
1F
100
AcDbEntity
  8
0
  6
Continuous
 62
     7
370
    25
100
AcDbPolyline
 90
       24
 70
   128
 43
0.0
 10
1175.2278457586
 20
-865.5182212953
 10
1174.4446037271
 20
-864.1070425168
 10
1172.8769926223
 20
-860.880218584
 10
1171.554376186
 20
-857.5412798631
 10
1170.4840681219
 20
-854.1082893877
 10
1169.6716681117
 20
-850.5992965586
 10
1169.1213167069
 20
-847.032735451
 10
1168.8356856714
 20
-843.4272895414
 10
1168.815986652
 20
-839.8017634406
 10
1169.0619942137
 20
-836.174965128
 10
1169.5720787757
 20
-832.5655998765
 10
1170.3432454017
 20
-828.9921753176
 10
1171.3711753499
 20
-825.4729158914
 10
1172.6502684661
 20
-822.0256843339
 10
1174.1736856448
 20
-818.6679078099
 10
1175.9333915088
 20
-815.4165066623
 10
1177.92019809
 20
-812.2878243318
 10
1180.1238106212
 20
-809.297557667
 10
1182.5328766199
 20
-806.4606874695
 10
1185.1350393216
 20
-803.7914096403
 10
1187.9169962673
 20
-801.3030676801
 10
1190.8645635372
 20
-799.0080875476
 10
1193.9627457751
 20
-796.9179160002
 10
1195.6553684373
 20
-795.8997284476
  0
LINE
  5
D4
330
1F
100
AcDbEntity
  8
0
  6
Continuous
 62
     7
370
    25
100
AcDbLine
 10
1195.6553684373
 20
-795.8997284476
 30
0.0
 11
1472.7834976483
 21
-635.8997284476
 31
0.0
  0
LINE
  5
D5
330
1F
100
AcDbEntity
  8
0
  6
Continuous
 62
     7
370
    25
100
AcDbLine
 10
1455.2834976483
 20
-605.5888393151
 30
0.0
 11
1178.1553684373
 21
-765.5888393151
 31
0.0
  0
ARC
  5
D6
330
1F
100
AcDbEntity
  8
0
  6
Continuous
 62
     7
370
    25
100
AcDbCircle
 10
1546.1956118191
 20
-762.7591771955
 30
0.0
 40
88.98798079736449
100
AcDbArc
 50
83.9624698634
 51
120.0946676723
  0
LWPOLYLINE
  5
D7
330
1F
100
AcDbEntity
  8
0
  6
Continuous
 62
     7
370
    25
100
AcDbPolyline
 90
       24
 70
   128
 43
0.0
 10
1519.0743491889
 20
-716.0778352415
 10
1520.5888041198
 20
-715.2349931187
 10
1523.938907814
 20
-713.5830447249
 10
1527.3910861118
 20
-712.1635270262
 10
1530.9273150463
 20
-710.9837420212
 10
1534.5297621573
 20
-710.0494813089
 10
1538.1803012887
 20
-709.3653145732
 10
1541.8606043146
 20
-708.934576604
 10
1545.5522315274
 20
-708.7593618866
 10
1549.2367192499
 20
-708.8405261265
 10
1552.8956636208
 20
-709.1776936374
 10
1556.510799805
 20
-709.76926921
 10
1560.0640763051
 20
-710.6124528403
 10
1563.5377245876
 20
-711.7032555892
 10
1566.9143248714
 20
-713.0365149207
 10
1570.1768695911
 20
-714.6059081882
 10
1573.3088266617
 20
-716.4039635543
 10
1576.294205116
 20
-718.422068539
 10
1579.1176258066
 20
-720.6504775567
 10
1581.764399528
 20
-723.0783210791
 10
1584.2206140196
 20
-725.6936202464
 10
1586.4732298684
 20
-728.4833115474
 10
1588.5101834769
 20
-731.4332863158
 10
1589.5794939075
 20
-733.1963280892
  0
ARC
  5
D8
330
1F
100
AcDbEntity
  8
0
  6
Continuous
 62
     7
370
    25
100
AcDbCircle
 10
1268.9049206932
 20
-923.0121797383
 30
0.0
 40
89.12576612710608
100
AcDbArc
 50
119.9226938801
 51
155.9943873689
  0
LWPOLYLINE
  5
D9
330
1F
100
AcDbEntity
  8
0
  6
Continuous
 62
     7
370
    25
100
AcDbPolyline
 90
       24
 70
   128
 43
0.0
 10
1221.5186972991
 20
-945.6963280892
 10
1220.7354552676
 20
-944.2851493107
 10
1219.1678441629
 20
-941.0583253779
 10
1217.8452277266
 20
-937.719386657
 10
1216.7749196625
 20
-934.2863961815
 10
1215.9625196523
 20
-930.7774033524
 10
1215.4121682474
 20
-927.2108422449
 10
1215.126537212
 20
-923.6053963353
 10
1215.1068381926
 20
-919.9798702345
 10
1215.3528457543
 20
-916.3530719218
 10
1215.8629303163
 20
-912.7437066704
 10
1216.6340969423
 20
-909.1702821115
 10
1217.6620268904
 20
-905.6510226853
 10
1218.9411200066
 20
-902.2037911278
 10
1220.4645371853
 20
-898.8460146038
 10
1222.2242430494
 20
-895.5946134562
 10
1224.2110496306
 20
-892.4659311257
 10
1226.4146621617
 20
-889.4756644609
 10
1228.8237281605
 20
-886.6387942634
 10
1231.4258908622
 20
-883.9695164342
 10
1234.2078478079
 20
-881.481174474
 10
1237.1554150778
 20
-879.1861943415
 10
1240.2535973156
 20
-877.0960227941
 10
1241.9462199778
 20
-876.0778352415
  0
LINE
  5
DA
330
1F
100
AcDbEntity
  8
0
  6
Continuous
 62
     7
370
    25
100
AcDbLine
 10
1241.9462199778
 20
-876.0778352415
 30
0.0
 11
1519.0743491889
 21
-716.0778352415
 31
0.0
  0
LINE
  5
DB
330
1F
100
AcDbEntity
  8
0
  6
Continuous
 62
     7
370
    25
100
AcDbLine
 10
1501.5743491889
 20
-685.766946109
 30
0.0
 11
1224.4462199778
 21
-845.766946109
 31
0.0
  0
LINE
  5
DC
330
1F
100
AcDbEntity
  8
0
  6
Continuous
 62
     7
370
    25
100
AcDbLine
 10
188.1891958119
 20
-612.7657382275
 30
0.0
 11
334.7844392176
 21
-358.855328501
 31
0.0
  0
LINE
  5
DD
330
1F
100
AcDbEntity
  8
0
  6
Continuous
 62
     7
370
    25
100
AcDbLine
 10
296.5563324161
 20
-355.0683517583
 30
0.0
 11
157.8783066794
 21
-595.2657382275
 31
0.0
  0
LINE
  5
DE
330
1F
100
AcDbEntity
  8
0
  6
Continuous
 62
     7
370
    25
100
AcDbLine
 10
392.4959683224
 20
-188.8960279089
 30
0.0
 11
391.7335918744
 21
-190.2165026513
 31
0.0
  0
LINE
  5
DF
330
1F
100
AcDbEntity
  8
0
  6
Continuous
 62
     7
370
    25
100
AcDbLine
 10
334.7844392176
 20
-358.855328501
 30
0.0
 11
422.8068574549
 21
-206.3960279089
 31
0.0
  0
LINE
  5
E0
330
1F
100
AcDbEntity
  8
0
  6
Continuous
 62
     7
370
    25
100
AcDbLine
 10
157.8783066794
 20
-595.2657382275
 30
0.0
 11
-7.0849254881
 21
-880.9904377225
 31
0.0
  0
LINE
  5
E1
330
1F
100
AcDbEntity
  8
0
  6
Continuous
 62
     7
370
    25
100
AcDbLine
 10
23.2259636443
 20
-898.4904377225
 30
0.0
 11
188.1891958119
 21
-612.7657382275
 31
0.0
  0
LINE
  5
E2
330
1F
100
AcDbEntity
  8
0
  6
Continuous
 62
     7
370
    25
100
AcDbLine
 10
1121.6771746914
 20
1131.1443566639
 30
0.0
 11
975.0819312857
 21
877.2339469374
 31
0.0
  0
LINE
  5
E3
330
1F
100
AcDbEntity
  8
0
  6
Continuous
 62
     7
370
    25
100
AcDbLine
 10
1005.3928204181
 20
859.7339469374
 30
0.0
 11
1151.9880638238
 21
1113.6443566639
 31
0.0
  0
LINE
  5
E4
330
1F
100
AcDbEntity
  8
0
  6
Continuous
 62
     7
370
    25
100
AcDbLine
 10
994.1319127061
 20
840.2294826408
 30
0.0
 11
1005.3928204181
 21
859.7339469374
 31
0.0
  0
LINE
  5
E5
330
1F
100
AcDbEntity
  8
0
  6
Continuous
 62
     7
370
    25
100
AcDbLine
 10
975.0819312857
 20
877.2339469374
 30
0.0
 11
958.0968231387
 21
847.8148766547
 31
0.0
  0
LINE
  5
E6
330
1F
100
AcDbEntity
  8
0
  6
Continuous
 62
     7
370
    25
100
AcDbLine
 10
1151.9880638238
 20
1113.6443566639
 30
0.0
 11
1316.9512959914
 21
1399.3690561589
 31
0.0
  0
LINE
  5
E7
330
1F
100
AcDbEntity
  8
0
  6
Continuous
 62
     7
370
    25
100
AcDbLine
 10
1286.6404068589
 20
1416.8690561589
 30
0.0
 11
1121.6771746914
 21
1131.1443566639
 31
0.0
  0
LINE
  5
E8
330
1F
100
AcDbEntity
  8
0
  6
Continuous
 62
     7
370
    25
100
AcDbLine
 10
1520.0488604322
 20
901.1443566639
 30
0.0
 11
1373.4536170265
 21
647.2339469374
 31
0.0
  0
LINE
  5
E9
330
1F
100
AcDbEntity
  8
0
  6
Continuous
 62
     7
370
    25
100
AcDbLine
 10
1411.681723828
 20
643.4469701947
 30
0.0
 11
1550.3597495646
 21
883.6443566639
 31
0.0
  0
LINE
  5
EA
330
1F
100
AcDbEntity
  8
0
  6
Continuous
 62
     7
370
    25
100
AcDbLine
 10
1315.7420879217
 20
477.2746463453
 30
0.0
 11
1316.5044643697
 21
478.5951210877
 31
0.0
  0
LINE
  5
EB
330
1F
100
AcDbEntity
  8
0
  6
Continuous
 62
     7
370
    25
100
AcDbLine
 10
1373.4536170265
 20
647.2339469374
 30
0.0
 11
1285.4311987892
 21
494.7746463453
 31
0.0
  0
LINE
  5
EC
330
1F
100
AcDbEntity
  8
0
  6
Continuous
 62
     7
370
    25
100
AcDbLine
 10
1550.3597495646
 20
883.6443566639
 30
0.0
 11
1715.3229817322
 21
1169.3690561589
 31
0.0
  0
LINE
  5
ED
330
1F
100
AcDbEntity
  8
0
  6
Continuous
 62
     7
370
    25
100
AcDbLine
 10
1685.0120925997
 20
1186.8690561589
 30
0.0
 11
1520.0488604322
 21
901.1443566639
 31
0.0
  0
LINE
  5
EE
330
1F
100
AcDbEntity
  8
0
  6
Continuous
 62
     7
370
    25
100
AcDbLine
 10
586.5608815527
 20
-842.7657382275
 30
0.0
 11
733.1561249584
 21
-588.855328501
 31
0.0
  0
LINE
  5
EF
330
1F
100
AcDbEntity
  8
0
  6
Continuous
 62
     7
370
    25
100
AcDbLine
 10
702.8452358259
 20
-571.355328501
 30
0.0
 11
556.2499924203
 21
-825.2657382275
 31
0.0
  0
LINE
  5
F0
330
1F
100
AcDbEntity
  8
0
  6
Continuous
 62
     7
370
    25
100
AcDbLine
 10
710.495991798
 20
-558.103830441
 30
0.0
 11
702.8452358259
 21
-571.355328501
 31
0.0
  0
LINE
  5
F1
330
1F
100
AcDbEntity
  8
0
  6
Continuous
 62
     7
370
    25
100
AcDbLine
 10
733.1561249584
 20
-588.855328501
 30
0.0
 11
751.287218097
 21
-557.4513539881
 31
0.0
  0
LINE
  5
F2
330
1F
100
AcDbEntity
  8
0
  6
Continuous
 62
     7
370
    25
100
AcDbLine
 10
556.2499924203
 20
-825.2657382275
 30
0.0
 11
391.2867602527
 21
-1110.9904377225
 31
0.0
  0
LINE
  5
F3
330
1F
100
AcDbEntity
  8
0
  6
Continuous
 62
     7
370
    25
100
AcDbLine
 10
421.5976493852
 20
-1128.4904377225
 30
0.0
 11
586.5608815527
 21
-842.7657382275
 31
0.0
  0
LINE
  5
F4
330
1F
100
AcDbEntity
  8
0
  6
Continuous
 62
     7
370
    25
100
AcDbLine
 10
1550.3597495646
 20
-595.2657382275
 30
0.0
 11
1411.681723828
 21
-355.0683517583
 31
0.0
  0
LINE
  5
F5
330
1F
100
AcDbEntity
  8
0
  6
Continuous
 62
     7
370
    25
100
AcDbLine
 10
1373.4536170265
 20
-358.855328501
 30
0.0
 11
1520.0488604322
 21
-612.7657382275
 31
0.0
  0
LINE
  5
F6
330
1F
100
AcDbEntity
  8
0
  6
Continuous
 62
     7
370
    25
100
AcDbLine
 10
1285.4311987892
 20
-206.3960279089
 30
0.0
 11
1373.4536170265
 21
-358.855328501
 31
0.0
  0
LINE
  5
F7
330
1F
100
AcDbEntity
  8
0
  6
Continuous
 62
     7
370
    25
100
AcDbLine
 10
1316.5044643697
 20
-190.2165026513
 30
0.0
 11
1315.7420879217
 21
-188.8960279089
 31
0.0
  0
LINE
  5
F8
330
1F
100
AcDbEntity
  8
0
  6
Continuous
 62
     7
370
    25
100
AcDbLine
 10
1520.0488604322
 20
-612.7657382275
 30
0.0
 11
1685.0120925997
 21
-898.4904377225
 31
0.0
  0
LINE
  5
F9
330
1F
100
AcDbEntity
  8
0
  6
Continuous
 62
     7
370
    25
100
AcDbLine
 10
1715.3229817322
 20
-880.9904377225
 30
0.0
 11
1550.3597495646
 21
-595.2657382275
 31
0.0
  0
LINE
  5
FA
330
1F
100
AcDbEntity
  8
0
  6
Continuous
 62
     7
370
    25
100
AcDbLine
 10
1151.9880638238
 20
-825.2657382275
 30
0.0
 11
1005.3928204181
 21
-571.355328501
 31
0.0
  0
LINE
  5
FB
330
1F
100
AcDbEntity
  8
0
  6
Continuous
 62
     7
370
    25
100
AcDbLine
 10
975.0819312857
 20
-588.855328501
 30
0.0
 11
1121.6771746914
 21
-842.7657382275
 31
0.0
  0
LINE
  5
FC
330
1F
100
AcDbEntity
  8
0
  6
Continuous
 62
     7
370
    25
100
AcDbLine
 10
958.0943335948
 20
-559.4319462017
 30
0.0
 11
975.0819312857
 21
-588.855328501
 31
0.0
  0
LINE
  5
FD
330
1F
100
AcDbEntity
  8
0
  6
Continuous
 62
     7
370
    25
100
AcDbLine
 10
1005.3928204181
 20
-571.355328501
 30
0.0
 11
994.1319127061
 21
-551.8508642044
 31
0.0
  0
LINE
  5
FE
330
1F
100
AcDbEntity
  8
0
  6
Continuous
 62
     7
370
    25
100
AcDbLine
 10
1121.6771746914
 20
-842.7657382275
 30
0.0
 11
1286.6404068589
 21
-1128.4904377225
 31
0.0
  0
LINE
  5
FF
330
1F
100
AcDbEntity
  8
0
  6
Continuous
 62
     7
370
    25
100
AcDbLine
 10
1316.9512959914
 20
-1110.9904377225
 30
0.0
 11
1151.9880638238
 21
-825.2657382275
 31
0.0
  0
LINE
  5
100
330
1F
100
AcDbEntity
  8
0
  6
Continuous
 62
     7
370
    25
100
AcDbLine
 10
157.8783066794
 20
883.6443566639
 30
0.0
 11
296.5563324161
 21
643.4469701947
 31
0.0
  0
LINE
  5
101
330
1F
100
AcDbEntity
  8
0
  6
Continuous
 62
     7
370
    25
100
AcDbLine
 10
334.7844392176
 20
647.2339469374
 30
0.0
 11
188.1891958119
 21
901.1443566639
 31
0.0
  0
LINE
  5
102
330
1F
100
AcDbEntity
  8
0
  6
Continuous
 62
     7
370
    25
100
AcDbLine
 10
422.8068574549
 20
494.7746463453
 30
0.0
 11
334.7844392176
 21
647.2339469374
 31
0.0
  0
LINE
  5
103
330
1F
100
AcDbEntity
  8
0
  6
Continuous
 62
     7
370
    25
100
AcDbLine
 10
391.7335918744
 20
478.5951210877
 30
0.0
 11
392.4959683224
 21
477.2746463453
 31
0.0
  0
LINE
  5
104
330
1F
100
AcDbEntity
  8
0
  6
Continuous
 62
     7
370
    25
100
AcDbLine
 10
188.1891958119
 20
901.1443566639
 30
0.0
 11
23.2259636443
 21
1186.8690561589
 31
0.0
  0
LINE
  5
105
330
1F
100
AcDbEntity
  8
0
  6
Continuous
 62
     7
370
    25
100
AcDbLine
 10
-7.0849254881
 20
1169.3690561589
 30
0.0
 11
157.8783066794
 21
883.6443566639
 31
0.0
  0
LINE
  5
106
330
1F
100
AcDbEntity
  8
0
  6
Continuous
 62
     7
370
    25
100
AcDbLine
 10
556.2499924203
 20
1113.6443566639
 30
0.0
 11
702.8452358259
 21
859.7339469374
 31
0.0
  0
LINE
  5
107
330
1F
100
AcDbEntity
  8
0
  6
Continuous
 62
     7
370
    25
100
AcDbLine
 10
733.1561249584
 20
877.2339469374
 30
0.0
 11
586.5608815527
 21
1131.1443566639
 31
0.0
  0
LINE
  5
108
330
1F
100
AcDbEntity
  8
0
  6
Continuous
 62
     7
370
    25
100
AcDbLine
 10
751.297384906
 20
845.8123629948
 30
0.0
 11
733.1561249584
 21
877.2339469374
 31
0.0
  0
LINE
  5
109
330
1F
100
AcDbEntity
  8
0
  6
Continuous
 62
     7
370
    25
100
AcDbLine
 10
702.8452358259
 20
859.7339469374
 30
0.0
 11
710.5040047392
 21
846.4685700562
 31
0.0
  0
LINE
  5
10A
330
1F
100
AcDbEntity
  8
0
  6
Continuous
 62
     7
370
    25
100
AcDbLine
 10
586.5608815527
 20
1131.1443566639
 30
0.0
 11
421.5976493852
 21
1416.8690561589
 31
0.0
  0
LINE
  5
10B
330
1F
100
AcDbEntity
  8
0
  6
Continuous
 62
     7
370
    25
100
AcDbLine
 10
391.2867602527
 20
1399.3690561589
 30
0.0
 11
556.2499924203
 21
1113.6443566639
 31
0.0
  0
ARC
  5
10C
330
1F
100
AcDbEntity
  8
0
  6
Continuous
 62
     7
370
    25
100
AcDbCircle
 10
713.2750830329
 20
834.91482636
 30
0.0
 40
6.023650287111528
100
AcDbArc
 50
178.1247887261
 51
211.6282718094
  0
ARC
  5
10D
330
1F
100
AcDbEntity
  8
0
  6
Continuous
 62
     7
370
    25
100
AcDbCircle
 10
987.4490249192
 20
834.9363013332
 30
0.0
 40
6.675848590776715
100
AcDbArc
 50
329.3804644368
 51
359.2500267473
  0
LINE
  5
10E
330
1F
100
AcDbEntity
  8
0
  6
Continuous
 62
     7
370
    25
100
AcDbLine
 10
707.2308922923
 20
840.4749274615
 30
0.0
 11
707.2308922923
 21
835.1033068688
 31
0.0
  0
LINE
  5
10F
330
1F
100
AcDbEntity
  8
0
  6
Continuous
 62
     7
370
    25
100
AcDbLine
 10
994.1319127061
 20
834.9228252752
 30
0.0
 11
994.1319127061
 21
840.2944458678
 31
0.0
  0
LWPOLYLINE
  5
110
330
1F
100
AcDbEntity
  8
0
  6
Continuous
 62
     7
370
    25
100
AcDbPolyline
 90
       20
 70
   128
 43
0.0
 10
737.6810527979
 20
849.6027317755
 10
736.6216465168
 20
849.9022791
 10
734.5141359562
 20
850.3786244896
 10
732.3208254656
 20
850.7281813901
 10
730.0687188047
 20
850.9504393025
 10
727.7843186346
 20
851.0451102941
 10
725.4947488111
 20
851.0121364126
 10
723.2276341874
 20
850.8519068343
 10
721.0107768608
 20
850.5653770682
 10
718.8697568186
 20
850.153612839
 10
716.8284634289
 20
849.6171868676
 10
714.908779498
 20
848.9551784351
 10
713.1309532037
 20
848.1637122643
 10
711.5157318507
 20
847.2344485286
 10
710.0903302522
 20
846.1554180405
 10
709.0256782929
 20
845.0751523861
 10
708.2136798298
 20
843.9384826248
 10
707.6473537616
 20
842.7577509898
 10
707.3204258398
 20
841.5411545007
 10
707.2532087344
 20
840.4602421366
  0
LWPOLYLINE
  5
111
330
1F
100
AcDbEntity
  8
0
  6
Continuous
 62
     7
370
    25
100
AcDbPolyline
 90
       21
 70
   128
 43
0.0
 10
994.1301854469
 20
840.2754704058
 10
994.1319120662
 20
840.2915895552
 10
993.9978428153
 20
841.5978759859
 10
993.6128510032
 20
842.8372210528
 10
992.9957759696
 20
844.0061121333
 10
992.1461961285
 20
845.1138889801
 10
991.049716211
 20
846.1655969786
 10
989.6957606935
 20
847.1520158874
 10
988.1000386133
 20
848.0491393284
 10
986.3061996767
 20
848.8320414507
 10
984.3607545394
 20
849.4884873518
 10
982.2941083703
 20
850.0174929142
 10
980.1324752478
 20
850.4193338918
 10
977.9013869171
 20
850.6939826548
 10
975.6270107784
 20
850.8411519558
 10
973.3362618619
 20
850.8606562048
 10
971.0564105684
 20
850.7526704743
 10
968.8157101796
 20
850.517947883
 10
966.6405031073
 20
850.157570559
 10
964.5554320833
 20
849.6724092585
 10
963.7335128747
 20
849.437921128
  0
LWPOLYLINE
  5
112
330
1F
100
AcDbEntity
  8
0
  6
Continuous
 62
     7
370
    25
100
AcDbPolyline
 90
       35
 70
   128
 43
0.0
 10
963.7335128747
 20
849.437921128
 10
960.5254916277
 20
848.4899664809
 10
954.3200709224
 20
846.7650639656
 10
947.9738424137
 20
845.1410768866
 10
941.4953385679
 20
843.6203681705
 10
934.8934068128
 20
842.2051765398
 10
928.1770620448
 20
840.8975767129
 10
921.3554729889
 20
839.6994784062
 10
914.4379487943
 20
838.612625451
 10
907.4339258017
 20
837.638595001
 10
900.3529544258
 20
836.7787968152
 10
893.2046861151
 20
836.0344726106
 10
885.9988603574
 20
835.4066954837
 10
878.745291711
 20
834.8963694035
 10
871.4538568472
 20
834.5042287793
 10
864.1344815963
 20
834.2308381089
 10
856.797127994
 20
834.0765917105
 10
849.4517813283
 20
834.0417135427
 10
842.1084371902
 20
834.126257115
 10
834.7771143408
 20
834.3301045611
 10
827.4678006488
 20
834.6529667689
 10
820.1904447574
 20
835.09438448
 10
812.9549538755
 20
835.6537285121
 10
805.7711809215
 20
836.3302000976
 10
798.6489116968
 20
837.1228312955
 10
791.5978520923
 20
838.0304854674
 10
784.6276153245
 20
839.0518578087
 10
777.7477091934
 20
840.185475922
 10
770.967523349
 20
841.4297004227
 10
764.296316546
 20
842.7827255647
 10
757.7432038561
 20
844.2425798751
 10
751.3171437961
 20
845.8071267927
 10
745.0269253181
 20
847.4740653092
 10
739.201788783
 20
849.1452169905
 10
737.6810527979
 20
849.6027317755
  0
LINE
  5
113
330
1F
100
AcDbEntity
  8
0
  6
Continuous
 62
     7
370
    25
100
AcDbLine
 10
708.1461359025
 20
831.7559873146
 30
0.0
 11
779.1737547222
 21
707.0376277639
 31
0.0
  0
LINE
  5
114
330
1F
100
AcDbEntity
  8
0
  6
Continuous
 62
     7
370
    25
100
AcDbLine
 10
921.2482108284
 20
706.9222111738
 30
0.0
 11
993.1940493548
 21
831.5360588947
 31
0.0
  0
LWPOLYLINE
  5
115
330
1F
100
AcDbEntity
  8
0
  6
Continuous
 62
     7
370
    25
100
AcDbPolyline
 90
       23
 70
   128
 43
0.0
 10
810.1136728541
 20
701.7274388259
 10
811.7661223346
 20
702.3141878767
 10
815.0253917874
 20
703.358907911
 10
818.4424434636
 20
704.3116880096
 10
822.0027946597
 20
705.1673451848
 10
825.6903310359
 20
705.9210368103
 10
829.4883553819
 20
706.5685744718
 10
833.3796876721
 20
707.1064147912
 10
837.3467551124
 20
707.5316501155
 10
841.3716750577
 20
707.8420002273
 10
845.4363331874
 20
708.0358055919
 10
849.5224585796
 20
708.1120222628
 10
853.6116967755
 20
708.0702184196
 10
857.685609671
 20
707.9105763614
 10
861.7257611782
 20
707.6339016468
 10
865.7139787108
 20
707.2416120714
 10
869.6322918256
 20
706.7357408883
 10
873.4630035785
 20
706.1189430266
 10
877.1887633692
 20
705.3945042961
 10
880.7926424713
 20
704.5663542298
 10
884.2582141759
 20
703.6390832099
 10
887.5696414591
 20
702.6179643005
 10
890.281838679
 20
701.6695709781
  0
LWPOLYLINE
  5
116
330
1F
100
AcDbEntity
  8
0
  6
Continuous
 62
     7
370
    25
100
AcDbPolyline
 90
       18
 70
   128
 43
0.0
 10
779.1737547222
 20
707.0376277639
 10
779.6702937221
 20
706.2718055396
 10
780.6220440948
 20
705.1679405527
 10
781.8131003988
 20
704.1391521283
 10
783.2603674598
 20
703.182627152
 10
784.9359630631
 20
702.325280222
 10
786.7900729956
 20
701.5889336952
 10
788.7837033976
 20
700.9797881308
 10
790.8885627271
 20
700.4979858062
 10
793.0789651794
 20
700.1433091837
 10
795.3292114009
 20
699.9159201644
 10
797.6128326488
 20
699.8161090334
 10
799.9027219304
 20
699.8439478386
 10
802.1713058226
 20
699.9990712045
 10
804.3906898479
 20
700.280538408
 10
806.5352368913
 20
700.687278602
 10
808.5809808704
 20
701.2186829929
 10
810.1136728541
 20
701.7274388259
  0
LWPOLYLINE
  5
117
330
1F
100
AcDbEntity
  8
0
  6
Continuous
 62
     7
370
    25
100
AcDbPolyline
 90
       18
 70
   128
 43
0.0
 10
890.281838679
 20
701.6695709781
 10
891.2891680696
 20
701.3211156258
 10
893.3172071941
 20
700.7495809084
 10
895.4497425781
 20
700.3050060113
 10
897.6603584257
 20
699.9875686749
 10
899.9231524775
 20
699.7975078664
 10
902.2114331524
 20
699.7350808837
 10
904.4979901824
 20
699.8002510062
 10
906.7549008373
 20
699.9924756569
 10
908.9549641302
 20
700.3107233066
 10
911.0729794014
 20
700.7539827557
 10
913.0855504249
 20
701.3219455258
 10
914.9712861346
 20
702.0161244301
 10
916.7101215134
 20
702.8414040567
 10
918.2804458105
 20
703.8073252299
 10
919.6512433016
 20
704.9251770124
 10
920.6448634362
 20
706.0232308859
 10
921.2482108284
 20
706.9222111738
  0
ARC
  5
118
330
1F
100
AcDbEntity
  8
0
  6
Continuous
 62
     7
370
    25
100
AcDbCircle
 10
713.8555430742
 20
-546.717047116
 30
0.0
 40
6.614437314282823
100
AcDbArc
 50
149.674795532
 51
179.5171188135
  0
ARC
  5
119
330
1F
100
AcDbEntity
  8
0
  6
Continuous
 62
     7
370
    25
100
AcDbCircle
 10
988.0687594444
 20
-546.3546423644
 30
0.0
 40
6.040752990694352
100
AcDbArc
 50
358.1491030281
 51
31.9562854571
  0
LINE
  5
11A
330
1F
100
AcDbEntity
  8
0
  6
Continuous
 62
     7
370
    25
100
AcDbLine
 10
707.2308922923
 20
-546.7246884324
 30
0.0
 11
707.2308922923
 21
-552.0963090251
 31
0.0
  0
LINE
  5
11B
330
1F
100
AcDbEntity
  8
0
  6
Continuous
 62
     7
370
    25
100
AcDbLine
 10
994.1319127061
 20
-551.9158274314
 30
0.0
 11
994.1319127061
 21
-546.5442068388
 31
0.0
  0
LWPOLYLINE
  5
11C
330
1F
100
AcDbEntity
  8
0
  6
Continuous
 62
     7
370
    25
100
AcDbPolyline
 90
       21
 70
   128
 43
0.0
 10
707.2355948691
 20
-552.0902168211
 10
707.2310151396
 20
-552.1358834553
 10
707.3734990695
 20
-553.4403390802
 10
707.7660679472
 20
-554.6773333827
 10
708.3904390907
 20
-555.8441306975
 10
709.2476153056
 20
-556.9500971203
 10
710.3522172373
 20
-557.999963734
 10
711.7142863218
 20
-558.983959997
 10
713.3171054002
 20
-559.8777982173
 10
715.1163135194
 20
-560.6567393889
 10
717.0660456256
 20
-561.3091325747
 10
719.1361057516
 20
-561.83409054
 10
721.3003422081
 20
-562.231889644
 10
723.5332142913
 20
-562.5024895688
 10
725.8085285904
 20
-562.6456007408
 10
728.0993511928
 20
-562.6610460106
 10
730.3784094088
 20
-562.5490140006
 10
732.6174225717
 20
-562.3102778409
 10
734.7901329271
 20
-561.9459210944
 10
736.871953413
 20
-561.4567967389
 10
737.6810527979
 20
-561.2241133391
  0
LWPOLYLINE
  5
11D
330
1F
100
AcDbEntity
  8
0
  6
Continuous
 62
     7
370
    25
100
AcDbPolyline
 90
       20
 70
   128
 43
0.0
 10
963.7335128747
 20
-561.0593026915
 10
964.7946088292
 20
-561.3571558018
 10
966.9046269088
 20
-561.8302020837
 10
969.0997911216
 20
-562.1764591016
 10
971.3530741741
 20
-562.395409428
 10
973.6379530708
 20
-562.4867672203
 10
975.9272935264
 20
-562.4504837708
 10
978.1934381127
 20
-562.2869637067
 10
980.4086447777
 20
-561.9971716964
 10
982.5473708529
 20
-561.5821696661
 10
984.58577672
 20
-561.042506234
 10
986.502031241
 20
-560.3772043194
 10
988.2759115252
 20
-559.5822897138
 10
989.8865999889
 20
-558.6492971982
 10
991.3065856887
 20
-557.5662377465
 10
992.3640000035
 20
-556.4840604494
 10
993.1687979812
 20
-555.3460043052
 10
993.7281851446
 20
-554.1641149738
 10
994.0482483618
 20
-552.9466510138
 10
994.1075976668
 20
-551.8995480367
  0
LWPOLYLINE
  5
11E
330
1F
100
AcDbEntity
  8
0
  6
Continuous
 62
     7
370
    25
100
AcDbPolyline
 90
       35
 70
   128
 43
0.0
 10
737.6810527979
 20
-561.2241133391
 10
740.8819174003
 20
-560.271520583
 10
747.0742311359
 20
-558.5376575526
 10
753.4081214227
 20
-556.904486679
 10
759.8750749808
 20
-555.3743845825
 10
766.4662601406
 20
-553.9496046984
 10
773.172676522
 20
-552.6322365552
 10
779.9851686988
 20
-551.4242047636
 10
786.8944396211
 20
-550.327268125
 10
793.8910638622
 20
-549.3430188314
 10
800.9655007432
 20
-548.4728817416
 10
808.1081073802
 20
-547.7181137278
 10
815.3091516807
 20
-547.0798030912
 10
822.558825315
 20
-546.5588690479
 10
829.8472566737
 20
-546.15606129
 10
837.1645238223
 20
-545.8719596265
 10
844.5006674542
 20
-545.7069737075
 10
851.8457038446
 20
-545.6613428358
 10
859.1896377998
 20
-545.7351358694
 10
866.5224530705
 20
-545.9282504381
 10
873.8341565586
 20
-546.240412772
 10
881.1147965217
 20
-546.6711789266
 10
888.354461493
 20
-547.2199350072
 10
895.5432931399
 20
-547.8858974998
 10
902.6714990932
 20
-548.6681136771
 10
909.7293657435
 20
-549.5654620695
 10
916.7072710075
 20
-550.5766529911
 10
923.5956970718
 20
-551.7002291103
 10
930.3852431264
 20
-552.9345660528
 10
937.0666381077
 20
-554.2778730256
 10
943.6307534811
 20
-555.728193452
 10
950.0686161029
 20
-557.2834056093
 10
956.3714212154
 20
-558.9412232695
 10
962.20919512
 20
-560.6039482939
 10
963.7335128747
 20
-561.0593026915
  0
LINE
  5
11F
330
1F
100
AcDbEntity
  8
0
  6
Continuous
 62
     7
370
    25
100
AcDbLine
 10
779.1737547222
 20
-418.6590093275
 30
0.0
 11
708.1461359025
 21
-543.3773688782
 31
0.0
  0
LINE
  5
120
330
1F
100
AcDbEntity
  8
0
  6
Continuous
 62
     7
370
    25
100
AcDbLine
 10
993.1940493548
 20
-543.1574404583
 30
0.0
 11
921.2482108284
 21
-418.5435927374
 31
0.0
  0
LWPOLYLINE
  5
121
330
1F
100
AcDbEntity
  8
0
  6
Continuous
 62
     7
370
    25
100
AcDbPolyline
 90
       23
 70
   128
 43
0.0
 10
890.281838679
 20
-413.2909525417
 10
888.6340681235
 20
-413.8799896476
 10
885.383283277
 20
-414.9292233392
 10
881.9739548307
 20
-415.8868119699
 10
878.4205231999
 20
-416.7475421526
 10
874.7390700569
 20
-417.5065377156
 10
870.9462654168
 20
-418.1595771144
 10
867.0592669474
 20
-418.7030843237
 10
863.0956294782
 20
-419.1341194999
 10
859.0732217845
 20
-419.4503706232
 10
855.010148215
 20
-419.65014666
 10
850.9246734904
 20
-419.732372385
 10
846.8351495564
 20
-419.6965848368
 10
842.7600053113
 20
-419.5429345831
 10
838.7176920981
 20
-419.2721958149
 10
834.7263909093
 20
-418.8857550783
 10
830.8040842074
 20
-418.3856141294
 10
826.9684846221
 20
-417.7743960165
 10
823.2369622038
 20
-417.0553541167
 10
819.6264690704
 20
-416.2323847777
 10
816.15345956
 20
-415.3100442114
 10
812.8338030361
 20
-414.2935700841
 10
810.1136728541
 20
-413.3488203894
  0
LWPOLYLINE
  5
122
330
1F
100
AcDbEntity
  8
0
  6
Continuous
 62
     7
370
    25
100
AcDbPolyline
 90
       18
 70
   128
 43
0.0
 10
810.1136728541
 20
-413.3488203894
 10
809.1044351744
 20
-413.002064415
 10
807.0734097292
 20
-412.4338304657
 10
804.9385338394
 20
-411.9925437819
 10
802.726238568
 20
-411.6783974201
 10
800.462445799
 20
-411.4916356407
 10
798.1738657007
 20
-411.4325114412
 10
795.8877154461
 20
-411.5009778758
 10
793.6319458703
 20
-411.6964763402
 10
791.4336942708
 20
-412.0179692522
 10
789.3181204629
 20
-412.464453321
 10
787.308569158
 20
-413.0356510163
 10
785.4263827957
 20
-413.7331414164
 10
783.6916164146
 20
-414.561918164
 10
782.1259934937
 20
-415.5316410306
 10
780.761107474
 20
-416.6533393739
 10
779.7748097319
 20
-417.7531146283
 10
779.1737547222
 20
-418.6590093275
  0
LWPOLYLINE
  5
123
330
1F
100
AcDbEntity
  8
0
  6
Continuous
 62
     7
370
    25
100
AcDbPolyline
 90
       18
 70
   128
 43
0.0
 10
921.2482108284
 20
-418.5435927374
 10
920.7475360684
 20
-417.780789307
 10
919.787529398
 20
-416.6786355974
 10
918.588005533
 20
-415.6519019104
 10
917.1326561718
 20
-414.6982035231
 10
915.4503062224
 20
-413.8445187345
 10
913.5911039954
 20
-413.1123211424
 10
911.5933979228
 20
-412.5073616065
 10
909.4853265254
 20
-412.0297345457
 10
907.2925476808
 20
-411.6792327241
 10
905.0407810269
 20
-411.4560281094
 10
902.7565212522
 20
-411.3604087786
 10
900.4668891606
 20
-411.3924353072
 10
898.1995001982
 20
-411.5517229259
 10
895.9821735771
 20
-411.8373188011
 10
893.8404998949
 20
-412.2481561932
 10
891.7983827165
 20
-412.7836556059
 10
890.281838679
 20
-413.2909525417
  0
ARC
  5
124
330
1F
100
AcDbEntity
  8
0
  6
Continuous
 62
     7
370
    25
100
AcDbCircle
 10
1365.2307604534
 20
-82.4635278793
 30
0.0
 40
3.400012039828586
100
AcDbArc
 50
110.4806919208
 51
177.2975196699
  0
ARC
  5
125
330
1F
100
AcDbEntity
  8
0
  6
Continuous
 62
     7
370
    25
100
AcDbCircle
 10
1365.232917333
 20
-82.3806962911
 30
0.0
 40
3.39927061769327
100
AcDbArc
 50
178.693971862
 51
245.5276981896
  0
ARC
  5
126
330
1F
100
AcDbEntity
  8
0
  6
Continuous
 62
     7
370
    25
100
AcDbCircle
 10
343.0072957907
 20
371.8421463157
 30
0.0
 40
3.400012039829486
100
AcDbArc
 50
290.4806919208
 51
357.2975196699
  0
ARC
  5
127
330
1F
100
AcDbEntity
  8
0
  6
Continuous
 62
     7
370
    25
100
AcDbCircle
 10
343.005138911
 20
371.7593147275
 30
0.0
 40
3.399270617693416
100
AcDbArc
 50
358.693971862
 51
65.5276981896
  0
ARC
  5
128
330
1F
100
AcDbEntity
  8
0
  6
Continuous
 62
     7
370
    25
100
AcDbCircle
 10
343.0052213328
 20
-82.3807480159
 30
0.0
 40
3.399189396703449
100
AcDbArc
 50
294.4713985132
 51
1.3069314353
  0
ARC
  5
129
330
1F
100
AcDbEntity
  8
0
  6
Continuous
 62
     7
370
    25
100
AcDbCircle
 10
343.0055424173
 20
-82.4648069719
 30
0.0
 40
3.401823981976809
100
AcDbArc
 50
2.7226072989
 51
69.4991811104
  0
ARC
  5
12A
330
1F
100
AcDbEntity
  8
0
  6
Continuous
 62
     7
370
    25
100
AcDbCircle
 10
1365.2328349113
 20
371.7593664523
 30
0.0
 40
3.399189396703898
100
AcDbArc
 50
114.4713985132
 51
181.3069314352
  0
ARC
  5
12B
330
1F
100
AcDbEntity
  8
0
  6
Continuous
 62
     7
370
    25
100
AcDbCircle
 10
1365.2325138268
 20
371.8434254083
 30
0.0
 40
3.401823981976622
100
AcDbArc
 50
182.7226072989
 51
249.4991811104
  0
LINE
  5
12C
330
1F
100
AcDbEntity
  8
0
  6
Continuous
 62
     7
370
    25
100
AcDbLine
 10
1392.2150325062
 20
-68.8106907818
 30
0.0
 11
1392.2150325062
 21
358.1893092182
 31
0.0
  0
LINE
  5
12D
330
1F
100
AcDbEntity
  8
0
  6
Continuous
 62
     7
370
    25
100
AcDbLine
 10
1367.2150325062
 20
358.1893092182
 30
0.0
 11
1367.2150325062
 21
-68.8106907818
 31
0.0
  0
LINE
  5
12E
330
1F
100
AcDbEntity
  8
0
  6
Continuous
 62
     7
370
    25
100
AcDbLine
 10
316.0230237378
 20
358.1893092182
 30
0.0
 11
316.0230237378
 21
-68.8106907818
 31
0.0
  0
LINE
  5
12F
330
1F
100
AcDbEntity
  8
0
  6
Continuous
 62
     7
370
    25
100
AcDbLine
 10
341.0230237378
 20
-68.8106907818
 30
0.0
 11
341.0230237378
 21
358.1893092182
 31
0.0
  0
ARC
  5
130
330
1F
100
AcDbEntity
  8
0
  6
Continuous
 62
     7
370
    25
100
AcDbCircle
 10
310.4322215983
 20
409.1893092182
 30
0.0
 40
1.0
100
AcDbArc
 50
2.0
 51
90.0
  0
ARC
  5
131
330
1F
100
AcDbEntity
  8
0
  6
Continuous
 62
     7
370
    25
100
AcDbCircle
 10
346.6138258774
 20
409.1893092182
 30
0.0
 40
1.0
100
AcDbArc
 50
90.0
 51
178.0
  0
LINE
  5
132
330
1F
100
AcDbEntity
  8
0
  6
Continuous
 62
     7
370
    25
100
AcDbLine
 10
311.4316124253
 20
409.2242087149
 30
0.0
 11
313.1800883345
 21
359.1544097215
 31
0.0
  0
LINE
  5
133
330
1F
100
AcDbEntity
  8
0
  6
Continuous
 62
     7
370
    25
100
AcDbLine
 10
344.4141537117
 20
374.8526482911
 30
0.0
 11
345.6144350504
 21
409.2242087149
 31
0.0
  0
LINE
  5
134
330
1F
100
AcDbEntity
  8
0
  6
Continuous
 62
     7
370
    25
100
AcDbLine
 10
343.8659591412
 20
359.1544097215
 30
0.0
 11
344.1978167272
 21
368.6575676073
 31
0.0
  0
ARC
  5
135
330
1F
100
AcDbEntity
  8
0
  6
Continuous
 62
     7
370
    25
100
AcDbCircle
 10
342.8665683142
 20
359.1893092182
 30
0.0
 40
1.000000000000074
100
AcDbArc
 50
270.0
 51
358.0
  0
ARC
  5
136
330
1F
100
AcDbEntity
  8
0
  6
Continuous
 62
     7
370
    25
100
AcDbCircle
 10
314.1794791615
 20
359.1893092182
 30
0.0
 40
1.000000000000074
100
AcDbArc
 50
182.0
 51
270.0
  0
ARC
  5
137
330
1F
100
AcDbEntity
  8
0
  6
Continuous
 62
     7
370
    25
100
AcDbCircle
 10
1397.8058346458
 20
-119.8106907818
 30
0.0
 40
1.000000000000073
100
AcDbArc
 50
182.0
 51
270.0
  0
ARC
  5
138
330
1F
100
AcDbEntity
  8
0
  6
Continuous
 62
     7
370
    25
100
AcDbCircle
 10
1361.6242303667
 20
-119.8106907818
 30
0.0
 40
1.000000000000073
100
AcDbArc
 50
270.0
 51
358.0
  0
LINE
  5
139
330
1F
100
AcDbEntity
  8
0
  6
Continuous
 62
     7
370
    25
100
AcDbLine
 10
1396.8064438188
 20
-119.8455902785
 30
0.0
 11
1395.0579679096
 21
-69.7757912851
 31
0.0
  0
LINE
  5
13A
330
1F
100
AcDbEntity
  8
0
  6
Continuous
 62
     7
370
    25
100
AcDbLine
 10
1363.8239025323
 20
-85.4740298547
 30
0.0
 11
1362.6236211937
 21
-119.8455902785
 31
0.0
  0
LINE
  5
13B
330
1F
100
AcDbEntity
  8
0
  6
Continuous
 62
     7
370
    25
100
AcDbLine
 10
1364.3720971029
 20
-69.7757912851
 30
0.0
 11
1364.0402395169
 21
-79.2789491709
 31
0.0
  0
ARC
  5
13C
330
1F
100
AcDbEntity
  8
0
  6
Continuous
 62
     7
370
    25
100
AcDbCircle
 10
1365.3714879299
 20
-69.8106907818
 30
0.0
 40
1.0
100
AcDbArc
 50
90.0
 51
178.0
  0
ARC
  5
13D
330
1F
100
AcDbEntity
  8
0
  6
Continuous
 62
     7
370
    25
100
AcDbCircle
 10
1394.0585770826
 20
-69.8106907818
 30
0.0
 40
1.0
100
AcDbArc
 50
2.0
 51
90.0
  0
ARC
  5
13E
330
1F
100
AcDbEntity
  8
0
  6
Continuous
 62
     7
370
    25
100
AcDbCircle
 10
1361.6242303667
 20
409.1893092182
 30
0.0
 40
1.000000000000072
100
AcDbArc
 50
2.0
 51
90.0
  0
ARC
  5
13F
330
1F
100
AcDbEntity
  8
0
  6
Continuous
 62
     7
370
    25
100
AcDbCircle
 10
1397.8058346458
 20
409.1893092182
 30
0.0
 40
1.000000000000072
100
AcDbArc
 50
90.0
 51
178.0
  0
LINE
  5
140
330
1F
100
AcDbEntity
  8
0
  6
Continuous
 62
     7
370
    25
100
AcDbLine
 10
1364.0402406505
 20
368.657535144
 30
0.0
 11
1364.3720971029
 21
359.1544097215
 31
0.0
  0
LINE
  5
141
330
1F
100
AcDbEntity
  8
0
  6
Continuous
 62
     7
370
    25
100
AcDbLine
 10
1362.6236211937
 20
409.2242087149
 30
0.0
 11
1363.823903683
 21
374.8526153413
 31
0.0
  0
LINE
  5
142
330
1F
100
AcDbEntity
  8
0
  6
Continuous
 62
     7
370
    25
100
AcDbLine
 10
1395.0579679096
 20
359.1544097215
 30
0.0
 11
1396.8064438188
 21
409.2242087149
 31
0.0
  0
ARC
  5
143
330
1F
100
AcDbEntity
  8
0
  6
Continuous
 62
     7
370
    25
100
AcDbCircle
 10
1394.0585770826
 20
359.1893092182
 30
0.0
 40
1.0
100
AcDbArc
 50
270.0
 51
358.0
  0
ARC
  5
144
330
1F
100
AcDbEntity
  8
0
  6
Continuous
 62
     7
370
    25
100
AcDbCircle
 10
1365.3714879299
 20
359.1893092182
 30
0.0
 40
1.0
100
AcDbArc
 50
182.0
 51
270.0
  0
ARC
  5
145
330
1F
100
AcDbEntity
  8
0
  6
Continuous
 62
     7
370
    25
100
AcDbCircle
 10
346.6138258774
 20
-119.8106907818
 30
0.0
 40
1.0
100
AcDbArc
 50
182.0
 51
270.0
  0
ARC
  5
146
330
1F
100
AcDbEntity
  8
0
  6
Continuous
 62
     7
370
    25
100
AcDbCircle
 10
310.4322215983
 20
-119.8106907818
 30
0.0
 40
1.0
100
AcDbArc
 50
270.0
 51
358.0
  0
LINE
  5
147
330
1F
100
AcDbEntity
  8
0
  6
Continuous
 62
     7
370
    25
100
AcDbLine
 10
344.1978155936
 20
-79.2789167076
 30
0.0
 11
343.8659591412
 21
-69.7757912851
 31
0.0
  0
LINE
  5
148
330
1F
100
AcDbEntity
  8
0
  6
Continuous
 62
     7
370
    25
100
AcDbLine
 10
345.6144350504
 20
-119.8455902785
 30
0.0
 11
344.4141525611
 21
-85.4739969049
 31
0.0
  0
LINE
  5
149
330
1F
100
AcDbEntity
  8
0
  6
Continuous
 62
     7
370
    25
100
AcDbLine
 10
313.1800883345
 20
-69.7757912851
 30
0.0
 11
311.4316124253
 21
-119.8455902785
 31
0.0
  0
ARC
  5
14A
330
1F
100
AcDbEntity
  8
0
  6
Continuous
 62
     7
370
    25
100
AcDbCircle
 10
314.1794791615
 20
-69.8106907818
 30
0.0
 40
1.000000000000073
100
AcDbArc
 50
90.0
 51
178.0
  0
ARC
  5
14B
330
1F
100
AcDbEntity
  8
0
  6
Continuous
 62
     7
370
    25
100
AcDbCircle
 10
342.8665683142
 20
-69.8106907818
 30
0.0
 40
1.000000000000073
100
AcDbArc
 50
2.0
 51
90.0
  0
LINE
  5
14C
330
1F
100
AcDbEntity
  8
0
  6
Continuous
 62
     7
370
    25
100
AcDbLine
 10
1401.6912209639
 20
-115.8106907818
 30
0.0
 11
1400.6772999313
 21
-86.7757912851
 31
0.0
  0
ARC
  5
14D
330
1F
100
AcDbEntity
  8
0
  6
Continuous
 62
     7
370
    25
100
AcDbCircle
 10
1399.6779091043
 20
-86.8106907818
 30
0.0
 40
0.9999999999999917
100
AcDbArc
 50
2.0
 51
87.8724968883
  0
LINE
  5
14E
330
1F
100
AcDbEntity
  8
0
  6
Continuous
 62
     7
370
    25
100
AcDbLine
 10
1400.6772999313
 20
375.1544097215
 30
0.0
 11
1401.6912209639
 21
404.1893092182
 31
0.0
  0
ARC
  5
14F
330
1F
100
AcDbEntity
  8
0
  6
Continuous
 62
     7
370
    25
100
AcDbCircle
 10
1399.6779091043
 20
375.1893092182
 30
0.0
 40
1.000000000000032
100
AcDbArc
 50
272.1275031117
 51
358.0
  0
LINE
  5
150
330
1F
100
AcDbEntity
  8
0
  6
Continuous
 62
     7
370
    25
100
AcDbLine
 10
1556.6011250408
 20
431.1893092182
 30
0.0
 11
1556.6011250408
 21
422.1893092182
 31
0.0
  0
ARC
  5
151
330
1F
100
AcDbEntity
  8
0
  6
Continuous
 62
     7
370
    25
100
AcDbCircle
 10
1559.6011250408
 20
431.1893092182
 30
0.0
 40
3.000000000000227
100
AcDbArc
 50
90.0
 51
180.0
  0
ARC
  5
152
330
1F
100
AcDbEntity
  8
0
  6
Continuous
 62
     7
370
    25
100
AcDbCircle
 10
1559.6011250408
 20
422.1893092182
 30
0.0
 40
3.000000000000227
100
AcDbArc
 50
180.0
 51
270.0
  0
LINE
  5
153
330
1F
100
AcDbEntity
  8
0
  6
Continuous
 62
     7
370
    25
100
AcDbLine
 10
1734.9957386694
 20
422.1893092182
 30
0.0
 11
1734.9957386694
 21
431.1893092182
 31
0.0
  0
ARC
  5
154
330
1F
100
AcDbEntity
  8
0
  6
Continuous
 62
     7
370
    25
100
AcDbCircle
 10
1731.9957386694
 20
431.1893092182
 30
0.0
 40
3.0
100
AcDbArc
 50
0.0
 51
90.0
  0
ARC
  5
155
330
1F
100
AcDbEntity
  8
0
  6
Continuous
 62
     7
370
    25
100
AcDbCircle
 10
1731.9957386694
 20
422.1893092182
 30
0.0
 40
3.0
100
AcDbArc
 50
270.0
 51
0.0
  0
ARC
  5
156
330
1F
100
AcDbEntity
  8
0
  6
Continuous
 62
     7
370
    25
100
AcDbCircle
 10
1231.5634632499
 20
407.1893058697
 30
0.0
 40
2.999996697052142
100
AcDbArc
 50
180.2021917391
 51
269.2327098544
  0
ARC
  5
157
330
1F
100
AcDbEntity
  8
0
  6
Continuous
 62
     7
370
    25
100
AcDbCircle
 10
1690.7677332643
 20
407.1893091652
 30
0.0
 40
2.99999994704823
100
AcDbArc
 50
270.0620618648
 51
359.8039841358
  0
LINE
  5
158
330
1F
100
AcDbEntity
  8
0
  6
Continuous
 62
     7
370
    25
100
AcDbLine
 10
1693.7677387855
 20
407.1893092182
 30
0.0
 11
1693.7677387855
 21
416.1893092182
 31
0.0
  0
LINE
  5
159
330
1F
100
AcDbEntity
  8
0
  6
Continuous
 62
     7
370
    25
100
AcDbLine
 10
1228.5633111118
 20
416.1893092182
 30
0.0
 11
1228.5633111118
 21
407.1893092182
 31
0.0
  0
ARC
  5
15A
330
1F
100
AcDbEntity
  8
0
  6
Continuous
 62
     7
370
    25
100
AcDbCircle
 10
1690.7677033008
 20
416.1893095553
 30
0.0
 40
2.999999666519334
100
AcDbArc
 50
0.2681787722
 51
89.3900245132
  0
ARC
  5
15B
330
1F
100
AcDbEntity
  8
0
  6
Continuous
 62
     7
370
    25
100
AcDbCircle
 10
1231.5635487085
 20
416.1893144795
 30
0.0
 40
2.999994787909293
100
AcDbArc
 50
90.5250005494
 51
180.0143033032
  0
LINE
  5
15C
330
1F
100
AcDbEntity
  8
0
  6
Continuous
 62
     7
370
    25
100
AcDbLine
 10
1693.7677387855
 20
-127.8106907818
 30
0.0
 11
1693.7677387855
 21
-118.8106907818
 31
0.0
  0
LINE
  5
15D
330
1F
100
AcDbEntity
  8
0
  6
Continuous
 62
     7
370
    25
100
AcDbLine
 10
1228.5633111118
 20
-118.8106907818
 30
0.0
 11
1228.5633111118
 21
-127.8106907818
 31
0.0
  0
ARC
  5
15E
330
1F
100
AcDbEntity
  8
0
  6
Continuous
 62
     7
370
    25
100
AcDbCircle
 10
1231.5634632755
 20
-118.8106874769
 30
0.0
 40
2.999996741048671
100
AcDbArc
 50
90.7672906221
 51
180.1159204706
  0
ARC
  5
15F
330
1F
100
AcDbEntity
  8
0
  6
Continuous
 62
     7
370
    25
100
AcDbCircle
 10
1690.7677332639
 20
-118.8106907296
 30
0.0
 40
2.999999947813906
100
AcDbArc
 50
359.8405253678
 51
89.9379381268
  0
ARC
  5
160
330
1F
100
AcDbEntity
  8
0
  6
Continuous
 62
     7
370
    25
100
AcDbCircle
 10
1690.7677032965
 20
-127.8106911115
 30
0.0
 40
2.999999673935069
100
AcDbArc
 50
270.6099755673
 51
0.2681915069
  0
ARC
  5
161
330
1F
100
AcDbEntity
  8
0
  6
Continuous
 62
     7
370
    25
100
AcDbCircle
 10
1231.5635487049
 20
-127.8106960493
 30
0.0
 40
2.99999478171982
100
AcDbArc
 50
180.0141022177
 51
269.4749995179
  0
ARC
  5
162
330
1F
100
AcDbEntity
  8
0
  6
Continuous
 62
     7
370
    25
100
AcDbCircle
 10
1559.6011250408
 20
-133.8106907818
 30
0.0
 40
3.0
100
AcDbArc
 50
90.0
 51
180.0
  0
LINE
  5
163
330
1F
100
AcDbEntity
  8
0
  6
Continuous
 62
     7
370
    25
100
AcDbLine
 10
1556.6011250408
 20
-133.8106907818
 30
0.0
 11
1556.6011250408
 21
-142.8106907818
 31
0.0
  0
ARC
  5
164
330
1F
100
AcDbEntity
  8
0
  6
Continuous
 62
     7
370
    25
100
AcDbCircle
 10
1559.6011250408
 20
-142.8106907818
 30
0.0
 40
3.0
100
AcDbArc
 50
180.0
 51
270.0
  0
ARC
  5
165
330
1F
100
AcDbEntity
  8
0
  6
Continuous
 62
     7
370
    25
100
AcDbCircle
 10
1731.9957386694
 20
-133.8106907818
 30
0.0
 40
3.000000000000227
100
AcDbArc
 50
0.0
 51
90.0
  0
LINE
  5
166
330
1F
100
AcDbEntity
  8
0
  6
Continuous
 62
     7
370
    25
100
AcDbLine
 10
1734.9957386694
 20
-142.8106907818
 30
0.0
 11
1734.9957386694
 21
-133.8106907818
 31
0.0
  0
ARC
  5
167
330
1F
100
AcDbEntity
  8
0
  6
Continuous
 62
     7
370
    25
100
AcDbCircle
 10
1731.9957386694
 20
-142.8106907818
 30
0.0
 40
3.000000000000227
100
AcDbArc
 50
270.0
 51
0.0
  0
LINE
  5
168
330
1F
100
AcDbEntity
  8
0
  6
Continuous
 62
     7
370
    25
100
AcDbLine
 10
-1276.0212569119
 20
419.1893092182
 30
0.0
 11
-1276.0212569119
 21
416.1893092182
 31
0.0
  0
ARC
  5
169
330
1F
100
AcDbEntity
  8
0
  6
Continuous
 62
     7
370
    25
100
AcDbCircle
 10
-1326.0504584352
 20
416.1893092182
 30
0.0
 40
3.000000000000057
100
AcDbArc
 50
90.0
 51
180.0
  0
ARC
  5
16A
330
1F
100
AcDbEntity
  8
0
  6
Continuous
 62
     7
370
    25
100
AcDbCircle
 10
-1326.0504584352
 20
407.1893092182
 30
0.0
 40
3.0
100
AcDbArc
 50
180.0
 51
270.0
  0
LINE
  5
16B
330
1F
100
AcDbEntity
  8
0
  6
Continuous
 62
     7
370
    25
100
AcDbLine
 10
-1329.0504584352
 20
416.1893092182
 30
0.0
 11
-1329.0504584352
 21
407.1893092182
 31
0.0
  0
LINE
  5
16C
330
1F
100
AcDbEntity
  8
0
  6
Continuous
 62
     7
370
    25
100
AcDbLine
 10
-1276.0212569119
 20
-127.8106907818
 30
0.0
 11
-1276.0212569119
 21
-130.8106907818
 31
0.0
  0
ARC
  5
16D
330
1F
100
AcDbEntity
  8
0
  6
Continuous
 62
     7
370
    25
100
AcDbCircle
 10
-1326.0504584352
 20
-118.8106907818
 30
0.0
 40
3.0
100
AcDbArc
 50
90.0
 51
180.0
  0
ARC
  5
16E
330
1F
100
AcDbEntity
  8
0
  6
Continuous
 62
     7
370
    25
100
AcDbCircle
 10
-1326.0504584352
 20
-127.8106907818
 30
0.0
 40
3.0
100
AcDbArc
 50
180.0
 51
270.0
  0
LINE
  5
16F
330
1F
100
AcDbEntity
  8
0
  6
Continuous
 62
     7
370
    25
100
AcDbLine
 10
-1329.0504584352
 20
-118.8106907818
 30
0.0
 11
-1329.0504584352
 21
-127.8106907818
 31
0.0
  0
ARC
  5
170
330
1F
100
AcDbEntity
  8
0
  6
Continuous
 62
     7
370
    25
100
AcDbCircle
 10
-1326.0504584352
 20
401.1893092182
 30
0.0
 40
3.000000000000227
100
AcDbArc
 50
90.0
 51
180.0
  0
LINE
  5
171
330
1F
100
AcDbEntity
  8
0
  6
Continuous
 62
     7
370
    25
100
AcDbLine
 10
-1329.0504584352
 20
401.1893092182
 30
0.0
 11
-1329.0504584352
 21
392.1893092182
 31
0.0
  0
ARC
  5
172
330
1F
100
AcDbEntity
  8
0
  6
Continuous
 62
     7
370
    25
100
AcDbCircle
 10
-1326.0504584352
 20
392.1893092182
 30
0.0
 40
3.000000000000227
100
AcDbArc
 50
180.0
 51
270.0
  0
LWPOLYLINE
  5
173
330
1F
100
AcDbEntity
  8
0
  6
Continuous
 62
     7
370
    25
100
AcDbPolyline
 90
        3
 70
   128
 43
0.0
 10
268.545965702
 20
420.7048552611
 10
267.2910834503
 20
419.4204486772
 10
267.0880168091
 20
419.1893092182
  0
LWPOLYLINE
  5
174
330
1F
100
AcDbEntity
  8
0
  6
Continuous
 62
     7
370
    25
100
AcDbPolyline
 90
        3
 70
   128
 43
0.0
 10
-1196.4838098826
 20
-130.8106907818
 10
-1196.2807432414
 20
-131.0418302407
 10
-1195.0258609897
 20
-132.3262368247
  0
LWPOLYLINE
  5
175
330
1F
100
AcDbEntity
  8
0
  6
Continuous
 62
     7
370
    25
100
AcDbPolyline
 90
        3
 70
   128
 43
0.0
 10
-1167.6258609897
 20
-132.3262368247
 10
-1166.370978738
 20
-131.0418302407
 10
-1166.1679120968
 20
-130.8106907818
  0
LWPOLYLINE
  5
176
330
1F
100
AcDbEntity
  8
0
  6
Continuous
 62
     7
370
    25
100
AcDbPolyline
 90
        3
 70
   128
 43
0.0
 10
-797.2219199158
 20
-130.8106907818
 10
-797.0188532745
 20
-131.0418302407
 10
-795.7639710228
 20
-132.3262368247
  0
LWPOLYLINE
  5
177
330
1F
100
AcDbEntity
  8
0
  6
Continuous
 62
     7
370
    25
100
AcDbPolyline
 90
        3
 70
   128
 43
0.0
 10
-768.3639710228
 20
-132.3262368247
 10
-767.1090887711
 20
-131.0418302407
 10
-766.9060221299
 20
-130.8106907818
  0
LWPOLYLINE
  5
178
330
1F
100
AcDbEntity
  8
0
  6
Continuous
 62
     7
370
    25
100
AcDbPolyline
 90
        3
 70
   128
 43
0.0
 10
267.0880168091
 20
-130.8106907818
 10
267.2910834503
 20
-131.0418302407
 10
268.545965702
 20
-132.3262368247
  0
LWPOLYLINE
  5
179
330
1F
100
AcDbEntity
  8
0
  6
Continuous
 62
     7
370
    25
100
AcDbPolyline
 90
        3
 70
   128
 43
0.0
 10
-513.0426346103
 20
-130.8106907818
 10
-512.8395679691
 20
-131.0418302407
 10
-511.5846857174
 20
-132.3262368247
  0
LWPOLYLINE
  5
17A
330
1F
100
AcDbEntity
  8
0
  6
Continuous
 62
     7
370
    25
100
AcDbPolyline
 90
        3
 70
   128
 43
0.0
 10
-484.1846857174
 20
-132.3262368247
 10
-482.9298034657
 20
-131.0418302407
 10
-482.7267368245
 20
-130.8106907818
  0
LWPOLYLINE
  5
17B
330
1F
100
AcDbEntity
  8
0
  6
Continuous
 62
     7
370
    25
100
AcDbPolyline
 90
        3
 70
   128
 43
0.0
 10
-252.9990841372
 20
-130.8106907818
 10
-252.7960174959
 20
-131.0418302407
 10
-251.5411352442
 20
-132.3262368247
  0
LWPOLYLINE
  5
17C
330
1F
100
AcDbEntity
  8
0
  6
Continuous
 62
     7
370
    25
100
AcDbPolyline
 90
        3
 70
   128
 43
0.0
 10
-224.1411352442
 20
-132.3262368247
 10
-222.8862529925
 20
-131.0418302407
 10
-222.6831863513
 20
-130.8106907818
  0
LWPOLYLINE
  5
17D
330
1F
100
AcDbEntity
  8
0
  6
Continuous
 62
     7
370
    25
100
AcDbPolyline
 90
        3
 70
   128
 43
0.0
 10
-1276.3101197844
 20
-130.8106907818
 10
-1276.1070531431
 20
-131.0418302407
 10
-1274.8521708914
 20
-132.3262368247
  0
LWPOLYLINE
  5
17E
330
1F
100
AcDbEntity
  8
0
  6
Continuous
 62
     7
370
    25
100
AcDbPolyline
 90
        3
 70
   128
 43
0.0
 10
-1247.4521708914
 20
-132.3262368247
 10
-1246.1972886397
 20
-131.0418302407
 10
-1245.9942219985
 20
-130.8106907818
  0
LWPOLYLINE
  5
17F
330
1F
100
AcDbEntity
  8
0
  6
Continuous
 62
     7
370
    25
100
AcDbPolyline
 90
        3
 70
   128
 43
0.0
 10
-1245.9942219985
 20
419.1893092182
 10
-1246.1972886397
 20
419.4204486772
 10
-1247.4521708914
 20
420.7048552611
  0
LWPOLYLINE
  5
180
330
1F
100
AcDbEntity
  8
0
  6
Continuous
 62
     7
370
    25
100
AcDbPolyline
 90
        3
 70
   128
 43
0.0
 10
-1274.8521708914
 20
420.7048552611
 10
-1276.1070531431
 20
419.4204486772
 10
-1276.3101197844
 20
419.1893092182
  0
LWPOLYLINE
  5
181
330
1F
100
AcDbEntity
  8
0
  6
Continuous
 62
     7
370
    25
100
AcDbPolyline
 90
        3
 70
   128
 43
0.0
 10
-482.7267368245
 20
419.1893092182
 10
-482.9298034657
 20
419.4204486772
 10
-484.1846857174
 20
420.7048552611
  0
LWPOLYLINE
  5
182
330
1F
100
AcDbEntity
  8
0
  6
Continuous
 62
     7
370
    25
100
AcDbPolyline
 90
        3
 70
   128
 43
0.0
 10
-511.5846857174
 20
420.7048552611
 10
-512.8395679691
 20
419.4204486772
 10
-513.0426346103
 20
419.1893092182
  0
LWPOLYLINE
  5
183
330
1F
100
AcDbEntity
  8
0
  6
Continuous
 62
     7
370
    25
100
AcDbPolyline
 90
        3
 70
   128
 43
0.0
 10
-222.6831863513
 20
419.1893092182
 10
-222.8862529925
 20
419.4204486772
 10
-224.1411352442
 20
420.7048552611
  0
LWPOLYLINE
  5
184
330
1F
100
AcDbEntity
  8
0
  6
Continuous
 62
     7
370
    25
100
AcDbPolyline
 90
        3
 70
   128
 43
0.0
 10
-251.5411352442
 20
420.7048552611
 10
-252.7960174959
 20
419.4204486772
 10
-252.9990841372
 20
419.1893092182
  0
LWPOLYLINE
  5
185
330
1F
100
AcDbEntity
  8
0
  6
Continuous
 62
     7
370
    25
100
AcDbPolyline
 90
        3
 70
   128
 43
0.0
 10
37.3603641218
 20
419.1893092182
 10
37.1572974806
 20
419.4204486772
 10
35.9024152289
 20
420.7048552611
  0
LWPOLYLINE
  5
186
330
1F
100
AcDbEntity
  8
0
  6
Continuous
 62
     7
370
    25
100
AcDbPolyline
 90
        3
 70
   128
 43
0.0
 10
8.5024152289
 20
420.7048552611
 10
7.2475329772
 20
419.4204486772
 10
7.044466336
 20
419.1893092182
  0
LWPOLYLINE
  5
187
330
1F
100
AcDbEntity
  8
0
  6
Continuous
 62
     7
370
    25
100
AcDbPolyline
 90
        3
 70
   128
 43
0.0
 10
-766.9060221299
 20
419.1893092182
 10
-767.1090887711
 20
419.4204486772
 10
-768.3639710228
 20
420.7048552611
  0
LWPOLYLINE
  5
188
330
1F
100
AcDbEntity
  8
0
  6
Continuous
 62
     7
370
    25
100
AcDbPolyline
 90
        3
 70
   128
 43
0.0
 10
-795.7639710228
 20
420.7048552611
 10
-797.0188532745
 20
419.4204486772
 10
-797.2219199158
 20
419.1893092182
  0
LWPOLYLINE
  5
189
330
1F
100
AcDbEntity
  8
0
  6
Continuous
 62
     7
370
    25
100
AcDbPolyline
 90
        3
 70
   128
 43
0.0
 10
-1166.1679120968
 20
419.1893092182
 10
-1166.370978738
 20
419.4204486772
 10
-1167.6258609897
 20
420.7048552611
  0
LWPOLYLINE
  5
18A
330
1F
100
AcDbEntity
  8
0
  6
Continuous
 62
     7
370
    25
100
AcDbPolyline
 90
        3
 70
   128
 43
0.0
 10
-1195.0258609897
 20
420.7048552611
 10
-1196.2807432414
 20
419.4204486772
 10
-1196.4838098826
 20
419.1893092182
  0
LWPOLYLINE
  5
18B
330
1F
100
AcDbEntity
  8
0
  6
Continuous
 62
     7
370
    25
100
AcDbPolyline
 90
        3
 70
   128
 43
0.0
 10
7.044466336
 20
-130.8106907818
 10
7.2475329772
 20
-131.0418302407
 10
8.5024152289
 20
-132.3262368247
  0
LWPOLYLINE
  5
18C
330
1F
100
AcDbEntity
  8
0
  6
Continuous
 62
     7
370
    25
100
AcDbPolyline
 90
        3
 70
   128
 43
0.0
 10
35.9024152289
 20
-132.3262368247
 10
37.1572974806
 20
-131.0418302407
 10
37.3603641218
 20
-130.8106907818
  0
LINE
  5
18D
330
1F
100
AcDbEntity
  8
0
  6
Continuous
 62
     7
370
    25
100
AcDbLine
 10
268.545965702
 20
-132.3262368247
 30
0.0
 11
268.545965702
 21
-132.9410821002
 31
0.0
  0
ARC
  5
18E
330
1F
100
AcDbEntity
  8
0
  6
Continuous
 62
     7
370
    25
100
AcDbCircle
 10
269.145965702
 20
-132.9410821002
 30
0.0
 40
0.6000000000000796
100
AcDbArc
 50
180.0
 51
243.6246146768
  0
ARC
  5
18F
330
1F
100
AcDbEntity
  8
0
  6
Continuous
 62
     7
370
    25
100
AcDbCircle
 10
282.245965702
 20
-106.5228119939
 30
0.0
 40
30.08787878787882
100
AcDbArc
 50
243.6246146768
 51
282.0417359044
  0
LINE
  5
190
330
1F
100
AcDbEntity
  8
0
  6
Continuous
 62
     7
370
    25
100
AcDbLine
 10
-768.3639710228
 20
420.7048552611
 30
0.0
 11
-768.3639710228
 21
421.3197005366
 31
0.0
  0
LINE
  5
191
330
1F
100
AcDbEntity
  8
0
  6
Continuous
 62
     7
370
    25
100
AcDbLine
 10
-795.7639710228
 20
421.3197005366
 30
0.0
 11
-795.7639710228
 21
420.7048552611
 31
0.0
  0
ARC
  5
192
330
1F
100
AcDbEntity
  8
0
  6
Continuous
 62
     7
370
    25
100
AcDbCircle
 10
-768.9639710228
 20
421.3197005366
 30
0.0
 40
0.5999999999999551
100
AcDbArc
 50
0.0
 51
63.6246146768
  0
ARC
  5
193
330
1F
100
AcDbEntity
  8
0
  6
Continuous
 62
     7
370
    25
100
AcDbCircle
 10
-795.1639710228
 20
421.3197005366
 30
0.0
 40
0.6000000000000227
100
AcDbArc
 50
116.3753853232
 51
180.0
  0
ARC
  5
194
330
1F
100
AcDbEntity
  8
0
  6
Continuous
 62
     7
370
    25
100
AcDbCircle
 10
-782.0639710228
 20
394.9014304303
 30
0.0
 40
30.08787878787883
100
AcDbArc
 50
63.6246146768
 51
116.3753853232
  0
LINE
  5
195
330
1F
100
AcDbEntity
  8
0
  6
Continuous
 62
     7
370
    25
100
AcDbLine
 10
-1195.0258609897
 20
-132.3262368247
 30
0.0
 11
-1195.0258609897
 21
-132.9410821002
 31
0.0
  0
LINE
  5
196
330
1F
100
AcDbEntity
  8
0
  6
Continuous
 62
     7
370
    25
100
AcDbLine
 10
-1167.6258609897
 20
-132.9410821002
 30
0.0
 11
-1167.6258609897
 21
-132.3262368247
 31
0.0
  0
ARC
  5
197
330
1F
100
AcDbEntity
  8
0
  6
Continuous
 62
     7
370
    25
100
AcDbCircle
 10
-1194.4258609897
 20
-132.9410821002
 30
0.0
 40
0.5999999999999556
100
AcDbArc
 50
180.0
 51
243.6246146768
  0
ARC
  5
198
330
1F
100
AcDbEntity
  8
0
  6
Continuous
 62
     7
370
    25
100
AcDbCircle
 10
-1168.2258609897
 20
-132.9410821002
 30
0.0
 40
0.5999999999999556
100
AcDbArc
 50
296.3753853232
 51
0.0
  0
ARC
  5
199
330
1F
100
AcDbEntity
  8
0
  6
Continuous
 62
     7
370
    25
100
AcDbCircle
 10
-1181.3258609897
 20
-106.5228119939
 30
0.0
 40
30.0878787878788
100
AcDbArc
 50
243.6246146768
 51
296.3753853232
  0
LINE
  5
19A
330
1F
100
AcDbEntity
  8
0
  6
Continuous
 62
     7
370
    25
100
AcDbLine
 10
-1167.6258609897
 20
420.7048552611
 30
0.0
 11
-1167.6258609897
 21
421.3197005366
 31
0.0
  0
LINE
  5
19B
330
1F
100
AcDbEntity
  8
0
  6
Continuous
 62
     7
370
    25
100
AcDbLine
 10
-1195.0258609897
 20
421.3197005366
 30
0.0
 11
-1195.0258609897
 21
420.7048552611
 31
0.0
  0
ARC
  5
19C
330
1F
100
AcDbEntity
  8
0
  6
Continuous
 62
     7
370
    25
100
AcDbCircle
 10
-1168.2258609897
 20
421.3197005366
 30
0.0
 40
0.599999999999909
100
AcDbArc
 50
0.0
 51
63.6246146768
  0
ARC
  5
19D
330
1F
100
AcDbEntity
  8
0
  6
Continuous
 62
     7
370
    25
100
AcDbCircle
 10
-1194.4258609897
 20
421.3197005366
 30
0.0
 40
0.599999999999909
100
AcDbArc
 50
116.3753853232
 51
180.0
  0
ARC
  5
19E
330
1F
100
AcDbEntity
  8
0
  6
Continuous
 62
     7
370
    25
100
AcDbCircle
 10
-1181.3258609897
 20
394.9014304303
 30
0.0
 40
30.08787878787878
100
AcDbArc
 50
63.6246146768
 51
116.3753853232
  0
LINE
  5
19F
330
1F
100
AcDbEntity
  8
0
  6
Continuous
 62
     7
370
    25
100
AcDbLine
 10
-511.5846857174
 20
-132.3262368247
 30
0.0
 11
-511.5846857174
 21
-132.9410821002
 31
0.0
  0
LINE
  5
1A0
330
1F
100
AcDbEntity
  8
0
  6
Continuous
 62
     7
370
    25
100
AcDbLine
 10
-484.1846857174
 20
-132.9410821002
 30
0.0
 11
-484.1846857174
 21
-132.3262368247
 31
0.0
  0
ARC
  5
1A1
330
1F
100
AcDbEntity
  8
0
  6
Continuous
 62
     7
370
    25
100
AcDbCircle
 10
-510.9846857174
 20
-132.9410821002
 30
0.0
 40
0.5999999999999808
100
AcDbArc
 50
180.0
 51
243.6246146768
  0
ARC
  5
1A2
330
1F
100
AcDbEntity
  8
0
  6
Continuous
 62
     7
370
    25
100
AcDbCircle
 10
-484.7846857174
 20
-132.9410821002
 30
0.0
 40
0.600000000000006
100
AcDbArc
 50
296.3753853232
 51
0.0
  0
ARC
  5
1A3
330
1F
100
AcDbEntity
  8
0
  6
Continuous
 62
     7
370
    25
100
AcDbCircle
 10
-497.8846857174
 20
-106.5228119939
 30
0.0
 40
30.08787878787882
100
AcDbArc
 50
243.6246146768
 51
296.3753853232
  0
ARC
  5
1A4
330
1F
100
AcDbEntity
  8
0
  6
Continuous
 62
     7
370
    25
100
AcDbCircle
 10
9.1024152289
 20
-132.9410821002
 30
0.0
 40
0.6000000000000458
100
AcDbArc
 50
180.0
 51
243.6246146768
  0
ARC
  5
1A5
330
1F
100
AcDbEntity
  8
0
  6
Continuous
 62
     7
370
    25
100
AcDbCircle
 10
35.3024152289
 20
-132.9410821002
 30
0.0
 40
0.600000000000044
100
AcDbArc
 50
296.3753853232
 51
0.0
  0
LINE
  5
1A6
330
1F
100
AcDbEntity
  8
0
  6
Continuous
 62
     7
370
    25
100
AcDbLine
 10
8.5024152289
 20
-132.3262368247
 30
0.0
 11
8.5024152289
 21
-132.9410821002
 31
0.0
  0
LINE
  5
1A7
330
1F
100
AcDbEntity
  8
0
  6
Continuous
 62
     7
370
    25
100
AcDbLine
 10
35.9024152289
 20
-132.9410821002
 30
0.0
 11
35.9024152289
 21
-132.3262368247
 31
0.0
  0
ARC
  5
1A8
330
1F
100
AcDbEntity
  8
0
  6
Continuous
 62
     7
370
    25
100
AcDbCircle
 10
22.2024152289
 20
-106.5228119939
 30
0.0
 40
30.08787878787881
100
AcDbArc
 50
243.6246146768
 51
296.3753853232
  0
ARC
  5
1A9
330
1F
100
AcDbEntity
  8
0
  6
Continuous
 62
     7
370
    25
100
AcDbCircle
 10
-250.9411352442
 20
-132.9410821002
 30
0.0
 40
0.5999999999999808
100
AcDbArc
 50
180.0
 51
243.6246146768
  0
ARC
  5
1AA
330
1F
100
AcDbEntity
  8
0
  6
Continuous
 62
     7
370
    25
100
AcDbCircle
 10
-224.7411352442
 20
-132.9410821002
 30
0.0
 40
0.5999999999999934
100
AcDbArc
 50
296.3753853232
 51
0.0
  0
LINE
  5
1AB
330
1F
100
AcDbEntity
  8
0
  6
Continuous
 62
     7
370
    25
100
AcDbLine
 10
-251.5411352442
 20
-132.3262368247
 30
0.0
 11
-251.5411352442
 21
-132.9410821002
 31
0.0
  0
LINE
  5
1AC
330
1F
100
AcDbEntity
  8
0
  6
Continuous
 62
     7
370
    25
100
AcDbLine
 10
-224.1411352442
 20
-132.9410821002
 30
0.0
 11
-224.1411352442
 21
-132.3262368247
 31
0.0
  0
ARC
  5
1AD
330
1F
100
AcDbEntity
  8
0
  6
Continuous
 62
     7
370
    25
100
AcDbCircle
 10
-237.8411352442
 20
-106.5228119939
 30
0.0
 40
30.08787878787882
100
AcDbArc
 50
243.6246146768
 51
296.3753853232
  0
LINE
  5
1AE
330
1F
100
AcDbEntity
  8
0
  6
Continuous
 62
     7
370
    25
100
AcDbLine
 10
-484.1846857174
 20
420.7048552611
 30
0.0
 11
-484.1846857174
 21
421.3197005366
 31
0.0
  0
LINE
  5
1AF
330
1F
100
AcDbEntity
  8
0
  6
Continuous
 62
     7
370
    25
100
AcDbLine
 10
-511.5846857174
 20
421.3197005366
 30
0.0
 11
-511.5846857174
 21
420.7048552611
 31
0.0
  0
ARC
  5
1B0
330
1F
100
AcDbEntity
  8
0
  6
Continuous
 62
     7
370
    25
100
AcDbCircle
 10
-484.7846857174
 20
421.3197005366
 30
0.0
 40
0.6000000000000569
100
AcDbArc
 50
0.0
 51
63.6246146768
  0
ARC
  5
1B1
330
1F
100
AcDbEntity
  8
0
  6
Continuous
 62
     7
370
    25
100
AcDbCircle
 10
-510.9846857174
 20
421.3197005366
 30
0.0
 40
0.6000000000000317
100
AcDbArc
 50
116.3753853232
 51
180.0
  0
ARC
  5
1B2
330
1F
100
AcDbEntity
  8
0
  6
Continuous
 62
     7
370
    25
100
AcDbCircle
 10
-497.8846857174
 20
394.9014304303
 30
0.0
 40
30.08787878787881
100
AcDbArc
 50
63.6246146768
 51
116.3753853232
  0
ARC
  5
1B3
330
1F
100
AcDbEntity
  8
0
  6
Continuous
 62
     7
370
    25
100
AcDbCircle
 10
-1248.0521708914
 20
421.3197005366
 30
0.0
 40
0.599999999999909
100
AcDbArc
 50
0.0
 51
63.6246146768
  0
ARC
  5
1B4
330
1F
100
AcDbEntity
  8
0
  6
Continuous
 62
     7
370
    25
100
AcDbCircle
 10
-1274.2521708914
 20
421.3197005366
 30
0.0
 40
0.599999999999909
100
AcDbArc
 50
116.3753853232
 51
180.0
  0
LINE
  5
1B5
330
1F
100
AcDbEntity
  8
0
  6
Continuous
 62
     7
370
    25
100
AcDbLine
 10
-1247.4521708914
 20
420.7048552611
 30
0.0
 11
-1247.4521708914
 21
421.3197005366
 31
0.0
  0
LINE
  5
1B6
330
1F
100
AcDbEntity
  8
0
  6
Continuous
 62
     7
370
    25
100
AcDbLine
 10
-1274.8521708914
 20
421.3197005366
 30
0.0
 11
-1274.8521708914
 21
420.7048552611
 31
0.0
  0
ARC
  5
1B7
330
1F
100
AcDbEntity
  8
0
  6
Continuous
 62
     7
370
    25
100
AcDbCircle
 10
-1261.1521708914
 20
394.9014304303
 30
0.0
 40
30.08787878787878
100
AcDbArc
 50
63.6246146768
 51
116.3753853232
  0
ARC
  5
1B8
330
1F
100
AcDbEntity
  8
0
  6
Continuous
 62
     7
370
    25
100
AcDbCircle
 10
35.3024152289
 20
421.3197005366
 30
0.0
 40
0.600000000000044
100
AcDbArc
 50
0.0
 51
63.6246146768
  0
ARC
  5
1B9
330
1F
100
AcDbEntity
  8
0
  6
Continuous
 62
     7
370
    25
100
AcDbCircle
 10
9.1024152289
 20
421.3197005366
 30
0.0
 40
0.6000000000000458
100
AcDbArc
 50
116.3753853232
 51
180.0
  0
LINE
  5
1BA
330
1F
100
AcDbEntity
  8
0
  6
Continuous
 62
     7
370
    25
100
AcDbLine
 10
35.9024152289
 20
420.7048552611
 30
0.0
 11
35.9024152289
 21
421.3197005366
 31
0.0
  0
LINE
  5
1BB
330
1F
100
AcDbEntity
  8
0
  6
Continuous
 62
     7
370
    25
100
AcDbLine
 10
8.5024152289
 20
421.3197005366
 30
0.0
 11
8.5024152289
 21
420.7048552611
 31
0.0
  0
ARC
  5
1BC
330
1F
100
AcDbEntity
  8
0
  6
Continuous
 62
     7
370
    25
100
AcDbCircle
 10
22.2024152289
 20
394.9014304303
 30
0.0
 40
30.08787878787881
100
AcDbArc
 50
63.6246146768
 51
116.3753853232
  0
LINE
  5
1BD
330
1F
100
AcDbEntity
  8
0
  6
Continuous
 62
     7
370
    25
100
AcDbLine
 10
-795.7639710228
 20
-132.3262368247
 30
0.0
 11
-795.7639710228
 21
-132.9410821002
 31
0.0
  0
LINE
  5
1BE
330
1F
100
AcDbEntity
  8
0
  6
Continuous
 62
     7
370
    25
100
AcDbLine
 10
-768.3639710228
 20
-132.9410821002
 30
0.0
 11
-768.3639710228
 21
-132.3262368247
 31
0.0
  0
ARC
  5
1BF
330
1F
100
AcDbEntity
  8
0
  6
Continuous
 62
     7
370
    25
100
AcDbCircle
 10
-795.1639710228
 20
-132.9410821002
 30
0.0
 40
0.6000000000000227
100
AcDbArc
 50
180.0
 51
243.6246146768
  0
ARC
  5
1C0
330
1F
100
AcDbEntity
  8
0
  6
Continuous
 62
     7
370
    25
100
AcDbCircle
 10
-768.9639710228
 20
-132.9410821002
 30
0.0
 40
0.600000000000006
100
AcDbArc
 50
296.3753853232
 51
0.0
  0
ARC
  5
1C1
330
1F
100
AcDbEntity
  8
0
  6
Continuous
 62
     7
370
    25
100
AcDbCircle
 10
-782.0639710228
 20
-106.5228119939
 30
0.0
 40
30.08787878787885
100
AcDbArc
 50
243.6246146768
 51
296.3753853232
  0
LINE
  5
1C2
330
1F
100
AcDbEntity
  8
0
  6
Continuous
 62
     7
370
    25
100
AcDbLine
 10
268.545965702
 20
421.3197005366
 30
0.0
 11
268.545965702
 21
420.7048552611
 31
0.0
  0
ARC
  5
1C3
330
1F
100
AcDbEntity
  8
0
  6
Continuous
 62
     7
370
    25
100
AcDbCircle
 10
269.145965702
 20
421.3197005366
 30
0.0
 40
0.6000000000000796
100
AcDbArc
 50
116.3753853232
 51
180.0
  0
ARC
  5
1C4
330
1F
100
AcDbEntity
  8
0
  6
Continuous
 62
     7
370
    25
100
AcDbCircle
 10
282.245965702
 20
394.9014304303
 30
0.0
 40
30.08787878787881
100
AcDbArc
 50
77.9582640956
 51
116.3753853232
  0
LINE
  5
1C5
330
1F
100
AcDbEntity
  8
0
  6
Continuous
 62
     7
370
    25
100
AcDbLine
 10
-1274.8521708914
 20
-132.3262368247
 30
0.0
 11
-1274.8521708914
 21
-132.9410821002
 31
0.0
  0
LINE
  5
1C6
330
1F
100
AcDbEntity
  8
0
  6
Continuous
 62
     7
370
    25
100
AcDbLine
 10
-1247.4521708914
 20
-132.9410821002
 30
0.0
 11
-1247.4521708914
 21
-132.3262368247
 31
0.0
  0
ARC
  5
1C7
330
1F
100
AcDbEntity
  8
0
  6
Continuous
 62
     7
370
    25
100
AcDbCircle
 10
-1274.2521708914
 20
-132.9410821002
 30
0.0
 40
0.5999999999999556
100
AcDbArc
 50
180.0
 51
243.6246146768
  0
ARC
  5
1C8
330
1F
100
AcDbEntity
  8
0
  6
Continuous
 62
     7
370
    25
100
AcDbCircle
 10
-1248.0521708914
 20
-132.9410821002
 30
0.0
 40
0.5999999999999556
100
AcDbArc
 50
296.3753853232
 51
0.0
  0
ARC
  5
1C9
330
1F
100
AcDbEntity
  8
0
  6
Continuous
 62
     7
370
    25
100
AcDbCircle
 10
-1261.1521708914
 20
-106.5228119939
 30
0.0
 40
30.0878787878788
100
AcDbArc
 50
243.6246146768
 51
296.3753853232
  0
LINE
  5
1CA
330
1F
100
AcDbEntity
  8
0
  6
Continuous
 62
     7
370
    25
100
AcDbLine
 10
-224.1411352442
 20
420.7048552611
 30
0.0
 11
-224.1411352442
 21
421.3197005366
 31
0.0
  0
LINE
  5
1CB
330
1F
100
AcDbEntity
  8
0
  6
Continuous
 62
     7
370
    25
100
AcDbLine
 10
-251.5411352442
 20
421.3197005366
 30
0.0
 11
-251.5411352442
 21
420.7048552611
 31
0.0
  0
ARC
  5
1CC
330
1F
100
AcDbEntity
  8
0
  6
Continuous
 62
     7
370
    25
100
AcDbCircle
 10
-224.7411352442
 20
421.3197005366
 30
0.0
 40
0.6000000000000443
100
AcDbArc
 50
0.0
 51
63.6246146768
  0
ARC
  5
1CD
330
1F
100
AcDbEntity
  8
0
  6
Continuous
 62
     7
370
    25
100
AcDbCircle
 10
-250.9411352442
 20
421.3197005366
 30
0.0
 40
0.6000000000000317
100
AcDbArc
 50
116.3753853232
 51
180.0
  0
ARC
  5
1CE
330
1F
100
AcDbEntity
  8
0
  6
Continuous
 62
     7
370
    25
100
AcDbCircle
 10
-237.8411352442
 20
394.9014304303
 30
0.0
 40
30.08787878787881
100
AcDbArc
 50
63.6246146768
 51
116.3753853232
  0
LINE
  5
1CF
330
1F
100
AcDbEntity
  8
0
  6
Continuous
 62
     7
370
    25
100
AcDbLine
 10
-1329.0504584352
 20
-103.8106907818
 30
0.0
 11
-1329.0504584352
 21
-112.8106907818
 31
0.0
  0
ARC
  5
1D0
330
1F
100
AcDbEntity
  8
0
  6
Continuous
 62
     7
370
    25
100
AcDbCircle
 10
-1326.0504584352
 20
-103.8106907818
 30
0.0
 40
3.000000000000227
100
AcDbArc
 50
90.0
 51
180.0
  0
ARC
  5
1D1
330
1F
100
AcDbEntity
  8
0
  6
Continuous
 62
     7
370
    25
100
AcDbCircle
 10
-1326.0504584352
 20
-112.8106907818
 30
0.0
 40
3.000000000000227
100
AcDbArc
 50
180.0
 51
270.0
  0
LINE
  5
1D2
330
1F
100
AcDbEntity
  8
0
  6
Continuous
 62
     7
370
    25
100
AcDbLine
 10
-1276.1899417559
 20
389.1893092182
 30
0.0
 11
-1276.1899417559
 21
-100.8106907818
 31
0.0
  0
CIRCLE
  5
1D3
330
1F
100
AcDbEntity
  8
0
  6
Continuous
 62
     7
370
    25
100
AcDbCircle
 10
883.8770130667
 20
-395.8837762456
 30
0.0
 40
6.637921400061373
  0
CIRCLE
  5
1D4
330
1F
100
AcDbEntity
  8
0
  6
Continuous
 62
     7
370
    25
100
AcDbCircle
 10
824.3610431774
 20
-395.8837762456
 30
0.0
 40
6.637921400061373
  0
CIRCLE
  5
1D5
330
1F
100
AcDbEntity
  8
0
  6
Continuous
 62
     7
370
    25
100
AcDbCircle
 10
425.9893574365
 20
-165.8837762456
 30
0.0
 40
6.637921400061344
  0
CIRCLE
  5
1D6
330
1F
100
AcDbEntity
  8
0
  6
Continuous
 62
     7
370
    25
100
AcDbCircle
 10
1282.2486988076
 20
-165.8837762456
 30
0.0
 40
6.637921400061344
  0
CIRCLE
  5
1D7
330
1F
100
AcDbEntity
  8
0
  6
Continuous
 62
     7
370
    25
100
AcDbCircle
 10
425.9893574365
 20
454.262394682
 30
0.0
 40
6.637921400061373
  0
CIRCLE
  5
1D8
330
1F
100
AcDbEntity
  8
0
  6
Continuous
 62
     7
370
    25
100
AcDbCircle
 10
1282.2486988076
 20
454.262394682
 30
0.0
 40
6.637921400061373
  0
CIRCLE
  5
1D9
330
1F
100
AcDbEntity
  8
0
  6
Continuous
 62
     7
370
    25
100
AcDbCircle
 10
824.3610431774
 20
684.262394682
 30
0.0
 40
6.637921400061373
  0
CIRCLE
  5
1DA
330
1F
100
AcDbEntity
  8
0
  6
Continuous
 62
     7
370
    25
100
AcDbCircle
 10
883.8770130667
 20
684.262394682
 30
0.0
 40
6.637921400061373
  0
CIRCLE
  5
1DB
330
1F
100
AcDbEntity
  8
0
  6
Continuous
 62
     7
370
    25
100
AcDbCircle
 10
708.5230237378
 20
-120.8106907818
 30
0.0
 40
6.63792140006143
  0
CIRCLE
  5
1DC
330
1F
100
AcDbEntity
  8
0
  6
Continuous
 62
     7
370
    25
100
AcDbCircle
 10
853.5230237378
 20
-380.8106907818
 30
0.0
 40
6.637921400061373
  0
CIRCLE
  5
1DD
330
1F
100
AcDbEntity
  8
0
  6
Continuous
 62
     7
370
    25
100
AcDbCircle
 10
853.5230237378
 20
669.1893092182
 30
0.0
 40
6.637921400061373
  0
CIRCLE
  5
1DE
330
1F
100
AcDbEntity
  8
0
  6
Continuous
 62
     7
370
    25
100
AcDbCircle
 10
413.5230237378
 20
409.1893092182
 30
0.0
 40
6.637921400061373
  0
CIRCLE
  5
1DF
330
1F
100
AcDbEntity
  8
0
  6
Continuous
 62
     7
370
    25
100
AcDbCircle
 10
998.5230237378
 20
-120.8106907818
 30
0.0
 40
6.637921400061416
  0
CIRCLE
  5
1E0
330
1F
100
AcDbEntity
  8
0
  6
Continuous
 62
     7
370
    25
100
AcDbCircle
 10
708.5230237378
 20
409.1893092182
 30
0.0
 40
6.637921400061373
  0
CIRCLE
  5
1E1
330
1F
100
AcDbEntity
  8
0
  6
Continuous
 62
     7
370
    25
100
AcDbCircle
 10
998.5230237378
 20
409.1893092182
 30
0.0
 40
6.637921400061487
  0
CIRCLE
  5
1E2
330
1F
100
AcDbEntity
  8
0
  6
Continuous
 62
     7
370
    25
100
AcDbCircle
 10
413.5230237378
 20
-120.8106907818
 30
0.0
 40
6.637921400061416
  0
ARC
  5
1E3
330
1F
100
AcDbEntity
  8
0
  6
Continuous
 62
     7
370
    25
100
AcDbCircle
 10
377.9671640049
 20
-196.059333292
 30
0.0
 40
2.999339138857075
100
AcDbArc
 50
59.9873743085
 51
149.9873687416
  0
LINE
  5
1E4
330
1F
100
AcDbEntity
  8
0
  6
Continuous
 62
     7
370
    25
100
AcDbLine
 10
379.4674059236
 20
-193.4621599332
 30
0.0
 11
362.2511629349
 21
-223.2815675051
 31
0.0
  0
ARC
  5
1E5
330
1F
100
AcDbEntity
  8
0
  6
Continuous
 62
     7
370
    25
100
AcDbCircle
 10
363.2719557151
 20
-220.7955693826
 30
0.0
 40
2.687415964284308
100
AcDbArc
 50
160.6604144952
 51
247.6761194264
  0
LINE
  5
1E6
330
1F
100
AcDbEntity
  8
0
  6
Continuous
 62
     7
370
    25
100
AcDbLine
 10
360.7361842515
 20
-219.9055875571
 30
0.0
 11
365.987125353
 21
-210.8106907818
 31
0.0
  0
LINE
  5
1E7
330
1F
100
AcDbEntity
  8
0
  6
Continuous
 62
     7
370
    25
100
AcDbLine
 10
368.5230237379
 20
-206.4183859364
 30
0.0
 11
375.3699907919
 21
-194.559091121
 31
0.0
  0
LINE
  5
1E8
330
1F
100
AcDbEntity
  8
0
  6
Continuous
 62
     7
370
    25
100
AcDbLine
 10
367.4473153576
 20
-226.2815675051
 30
0.0
 11
384.6635583463
 21
-196.4621599332
 31
0.0
  0
ARC
  5
1E9
330
1F
100
AcDbEntity
  8
0
  6
Continuous
 62
     7
370
    25
100
AcDbCircle
 10
383.1644611989
 20
-199.059994226
 30
0.0
 40
2.999339138857322
100
AcDbArc
 50
330.0126312584
 51
60.0126256915
  0
ARC
  5
1EA
330
1F
100
AcDbEntity
  8
0
  6
Continuous
 62
     7
370
    25
100
AcDbCircle
 10
369.0898564953
 20
-224.1545359642
 30
0.0
 40
2.687415964284222
100
AcDbArc
 50
232.3238805736
 51
319.3395855049
  0
LINE
  5
1EB
330
1F
100
AcDbEntity
  8
0
  6
Continuous
 62
     7
370
    25
100
AcDbLine
 10
385.7622956373
 20
-200.559091121
 30
0.0
 11
371.1284890969
 21
-225.9055875571
 31
0.0
  0
LINE
  5
1EC
330
1F
100
AcDbEntity
  8
0
  6
Continuous
 62
     7
370
    25
100
AcDbLine
 10
367.4473153576
 20
-226.2815675051
 30
0.0
 11
362.2511629349
 21
-223.2815675051
 31
0.0
  0
LINE
  5
1ED
330
1F
100
AcDbEntity
  8
0
  6
Continuous
 62
     7
370
    25
100
AcDbLine
 10
379.4674059236
 20
-193.4621599332
 30
0.0
 11
384.6635583463
 21
-196.4621599332
 31
0.0
  0
LINE
  5
1EE
330
1F
100
AcDbEntity
  8
0
  6
Continuous
 62
     7
370
    25
100
AcDbLine
 10
362.2511629349
 20
-223.2815675051
 30
0.0
 11
290.7572404083
 21
-347.1126737536
 31
0.0
  0
ARC
  5
1EF
330
1F
100
AcDbEntity
  8
0
  6
Continuous
 62
     7
370
    25
100
AcDbCircle
 10
291.9152809594
 20
-343.7030495267
 30
0.0
 40
3.600915895490946
100
AcDbArc
 50
200.3427695232
 51
251.240521541
  0
LINE
  5
1F0
330
1F
100
AcDbEntity
  8
0
  6
Continuous
 62
     7
370
    25
100
AcDbLine
 10
288.5389552808
 20
-344.9548563001
 30
0.0
 11
360.7361842515
 21
-219.9055875571
 31
0.0
  0
LINE
  5
1F1
330
1F
100
AcDbEntity
  8
0
  6
Continuous
 62
     7
370
    25
100
AcDbLine
 10
295.953392831
 20
-350.1126737536
 30
0.0
 11
367.4473153576
 21
-226.2815675051
 31
0.0
  0
ARC
  5
1F2
330
1F
100
AcDbEntity
  8
0
  6
Continuous
 62
     7
370
    25
100
AcDbCircle
 10
298.3271937533
 20
-347.4049691042
 30
0.0
 40
3.600915895491794
100
AcDbArc
 50
228.759478459
 51
279.6572304768
  0
LINE
  5
1F3
330
1F
100
AcDbEntity
  8
0
  6
Continuous
 62
     7
370
    25
100
AcDbLine
 10
371.1284890969
 20
-225.9055875571
 30
0.0
 11
298.9312601262
 21
-350.9548563001
 31
0.0
  0
LINE
  5
1F4
330
1F
100
AcDbEntity
  8
0
  6
Continuous
 62
     7
370
    25
100
AcDbLine
 10
290.7572404083
 20
-347.1126737536
 30
0.0
 11
295.953392831
 21
-350.1126737536
 31
0.0
  0
LINE
  5
1F5
330
1F
100
AcDbEntity
  8
0
  6
Continuous
 62
     7
370
    25
100
AcDbLine
 10
384.6635583463
 20
-196.4621599332
 30
0.0
 11
390.7091260527
 21
-185.9909295052
 31
0.0
  0
LINE
  5
1F6
330
1F
100
AcDbEntity
  8
0
  6
Continuous
 62
     7
370
    25
100
AcDbLine
 10
390.7091260527
 20
-185.9909295052
 30
0.0
 11
391.1211679467
 21
-186.27725201
 31
0.0
  0
LINE
  5
1F7
330
1F
100
AcDbEntity
  8
0
  6
Continuous
 62
     7
370
    25
100
AcDbLine
 10
391.7335918744
 20
-190.2165026513
 30
0.0
 11
385.7622956373
 21
-200.559091121
 31
0.0
  0
ARC
  5
1F8
330
1F
100
AcDbEntity
  8
0
  6
Continuous
 62
     7
370
    25
100
AcDbCircle
 10
384.0127317113
 20
-185.5881028639
 30
0.0
 40
2.999339138857079
100
AcDbArc
 50
59.9873743085
 51
149.9873687416
  0
LINE
  5
1F9
330
1F
100
AcDbEntity
  8
0
  6
Continuous
 62
     7
370
    25
100
AcDbLine
 10
385.51297363
 20
-182.9909295052
 30
0.0
 11
379.4674059236
 21
-193.4621599332
 31
0.0
  0
LINE
  5
1FA
330
1F
100
AcDbEntity
  8
0
  6
Continuous
 62
     7
370
    25
100
AcDbLine
 10
375.3699907919
 20
-194.559091121
 30
0.0
 11
381.4155584983
 21
-184.0878606929
 31
0.0
  0
LINE
  5
1FB
330
1F
100
AcDbEntity
  8
0
  6
Continuous
 62
     7
370
    25
100
AcDbLine
 10
385.51297363
 20
-182.9909295052
 30
0.0
 11
390.7091260527
 21
-185.9909295052
 31
0.0
  0
LINE
  5
1FC
330
1F
100
AcDbEntity
  8
0
  6
Continuous
 62
     7
370
    25
100
AcDbLine
 10
298.9312601262
 20
-350.9548563001
 30
0.0
 11
296.5563324161
 21
-355.0683517583
 31
0.0
  0
LINE
  5
1FD
330
1F
100
AcDbEntity
  8
0
  6
Continuous
 62
     7
370
    25
100
AcDbLine
 10
282.1911047557
 20
-355.9496559284
 30
0.0
 11
288.5389552808
 21
-344.9548563001
 31
0.0
  0
ARC
  5
1FE
330
1F
100
AcDbEntity
  8
0
  6
Continuous
 62
     7
370
    25
100
AcDbCircle
 10
383.1644611989
 20
487.4386126624
 30
0.0
 40
2.999339138857252
100
AcDbArc
 50
299.9873743085
 51
29.9873687416
  0
LINE
  5
1FF
330
1F
100
AcDbEntity
  8
0
  6
Continuous
 62
     7
370
    25
100
AcDbLine
 10
384.6635583463
 20
484.8407783697
 30
0.0
 11
367.4473153576
 21
514.6601859415
 31
0.0
  0
ARC
  5
200
330
1F
100
AcDbEntity
  8
0
  6
Continuous
 62
     7
370
    25
100
AcDbCircle
 10
369.0898564953
 20
512.5331544007
 30
0.0
 40
2.687415964284432
100
AcDbArc
 50
40.6604144952
 51
127.6761194264
  0
LINE
  5
201
330
1F
100
AcDbEntity
  8
0
  6
Continuous
 62
     7
370
    25
100
AcDbLine
 10
371.1284890969
 20
514.2842059935
 30
0.0
 11
385.7622956373
 21
488.9377095574
 31
0.0
  0
LINE
  5
202
330
1F
100
AcDbEntity
  8
0
  6
Continuous
 62
     7
370
    25
100
AcDbLine
 10
362.2511629349
 20
511.6601859415
 30
0.0
 11
379.4674059236
 21
481.8407783697
 31
0.0
  0
LINE
  5
203
330
1F
100
AcDbEntity
  8
0
  6
Continuous
 62
     7
370
    25
100
AcDbLine
 10
362.2511629349
 20
511.6601859415
 30
0.0
 11
367.4473153576
 21
514.6601859415
 31
0.0
  0
LINE
  5
204
330
1F
100
AcDbEntity
  8
0
  6
Continuous
 62
     7
370
    25
100
AcDbLine
 10
384.6635583463
 20
484.8407783697
 30
0.0
 11
379.4674059236
 21
481.8407783697
 31
0.0
  0
ARC
  5
205
330
1F
100
AcDbEntity
  8
0
  6
Continuous
 62
     7
370
    25
100
AcDbCircle
 10
377.9671640049
 20
484.4379517284
 30
0.0
 40
2.999339138857149
100
AcDbArc
 50
210.0126312584
 51
300.0126256915
  0
ARC
  5
206
330
1F
100
AcDbEntity
  8
0
  6
Continuous
 62
     7
370
    25
100
AcDbCircle
 10
363.2719557151
 20
509.174187819
 30
0.0
 40
2.687415964284056
100
AcDbArc
 50
112.3238805736
 51
199.3395855049
  0
LINE
  5
207
330
1F
100
AcDbEntity
  8
0
  6
Continuous
 62
     7
370
    25
100
AcDbLine
 10
375.3699907919
 20
482.9377095574
 30
0.0
 11
368.5230237379
 21
494.7970043728
 31
0.0
  0
LINE
  5
208
330
1F
100
AcDbEntity
  8
0
  6
Continuous
 62
     7
370
    25
100
AcDbLine
 10
365.987125353
 20
499.1893092182
 30
0.0
 11
360.7361842515
 21
508.2842059935
 31
0.0
  0
LINE
  5
209
330
1F
100
AcDbEntity
  8
0
  6
Continuous
 62
     7
370
    25
100
AcDbLine
 10
367.4473153576
 20
514.6601859415
 30
0.0
 11
295.953392831
 21
638.49129219
 31
0.0
  0
ARC
  5
20A
330
1F
100
AcDbEntity
  8
0
  6
Continuous
 62
     7
370
    25
100
AcDbCircle
 10
298.3271937533
 20
635.7835875407
 30
0.0
 40
3.600915895490857
100
AcDbArc
 50
80.3427695232
 51
131.240521541
  0
LINE
  5
20B
330
1F
100
AcDbEntity
  8
0
  6
Continuous
 62
     7
370
    25
100
AcDbLine
 10
298.9312601262
 20
639.3334747365
 30
0.0
 11
371.1284890969
 21
514.2842059935
 31
0.0
  0
LINE
  5
20C
330
1F
100
AcDbEntity
  8
0
  6
Continuous
 62
     7
370
    25
100
AcDbLine
 10
290.7572404083
 20
635.49129219
 30
0.0
 11
362.2511629349
 21
511.6601859415
 31
0.0
  0
ARC
  5
20D
330
1F
100
AcDbEntity
  8
0
  6
Continuous
 62
     7
370
    25
100
AcDbCircle
 10
291.9152809594
 20
632.0816679631
 30
0.0
 40
3.600915895492666
100
AcDbArc
 50
108.759478459
 51
159.6572304768
  0
LINE
  5
20E
330
1F
100
AcDbEntity
  8
0
  6
Continuous
 62
     7
370
    25
100
AcDbLine
 10
360.7361842515
 20
508.2842059935
 30
0.0
 11
288.5389552808
 21
633.3334747365
 31
0.0
  0
LINE
  5
20F
330
1F
100
AcDbEntity
  8
0
  6
Continuous
 62
     7
370
    25
100
AcDbLine
 10
295.953392831
 20
638.49129219
 30
0.0
 11
290.7572404083
 21
635.49129219
 31
0.0
  0
LINE
  5
210
330
1F
100
AcDbEntity
  8
0
  6
Continuous
 62
     7
370
    25
100
AcDbLine
 10
391.1211679467
 20
474.6558704464
 30
0.0
 11
390.7091260527
 21
474.3695479416
 31
0.0
  0
LINE
  5
211
330
1F
100
AcDbEntity
  8
0
  6
Continuous
 62
     7
370
    25
100
AcDbLine
 10
390.7091260527
 20
474.3695479416
 30
0.0
 11
384.6635583463
 21
484.8407783697
 31
0.0
  0
LINE
  5
212
330
1F
100
AcDbEntity
  8
0
  6
Continuous
 62
     7
370
    25
100
AcDbLine
 10
385.7622956373
 20
488.9377095574
 30
0.0
 11
391.7335918744
 21
478.5951210877
 31
0.0
  0
LINE
  5
213
330
1F
100
AcDbEntity
  8
0
  6
Continuous
 62
     7
370
    25
100
AcDbLine
 10
379.4674059236
 20
481.8407783697
 30
0.0
 11
385.51297363
 21
471.3695479416
 31
0.0
  0
ARC
  5
214
330
1F
100
AcDbEntity
  8
0
  6
Continuous
 62
     7
370
    25
100
AcDbCircle
 10
384.0127317113
 20
473.9667213003
 30
0.0
 40
2.999339138857153
100
AcDbArc
 50
210.0126312584
 51
300.0126256915
  0
LINE
  5
215
330
1F
100
AcDbEntity
  8
0
  6
Continuous
 62
     7
370
    25
100
AcDbLine
 10
381.4155584983
 20
472.4664791293
 30
0.0
 11
375.3699907919
 21
482.9377095574
 31
0.0
  0
LINE
  5
216
330
1F
100
AcDbEntity
  8
0
  6
Continuous
 62
     7
370
    25
100
AcDbLine
 10
390.7091260527
 20
474.3695479416
 30
0.0
 11
385.51297363
 21
471.3695479416
 31
0.0
  0
LINE
  5
217
330
1F
100
AcDbEntity
  8
0
  6
Continuous
 62
     7
370
    25
100
AcDbLine
 10
296.5563324161
 20
643.4469701947
 30
0.0
 11
298.9312601262
 21
639.3334747365
 31
0.0
  0
LINE
  5
218
330
1F
100
AcDbEntity
  8
0
  6
Continuous
 62
     7
370
    25
100
AcDbLine
 10
288.5389552808
 20
633.3334747365
 30
0.0
 11
282.1911047557
 21
644.3282743649
 31
0.0
  0
LINE
  5
219
330
1F
100
AcDbEntity
  8
0
  6
Continuous
 62
     7
370
    25
100
AcDbLine
 10
1345.9868933092
 20
-223.2815675051
 30
0.0
 11
1328.7706503205
 21
-193.4621599332
 31
0.0
  0
ARC
  5
21A
330
1F
100
AcDbEntity
  8
0
  6
Continuous
 62
     7
370
    25
100
AcDbCircle
 10
1330.2708922392
 20
-196.059333292
 30
0.0
 40
2.99933913885699
100
AcDbArc
 50
30.0126312583
 51
120.0126256915
  0
ARC
  5
21B
330
1F
100
AcDbEntity
  8
0
  6
Continuous
 62
     7
370
    25
100
AcDbCircle
 10
1344.966100529
 20
-220.7955693826
 30
0.0
 40
2.687415964284201
100
AcDbArc
 50
292.3238805736
 51
19.3395855049
  0
LINE
  5
21C
330
1F
100
AcDbEntity
  8
0
  6
Continuous
 62
     7
370
    25
100
AcDbLine
 10
1332.8680654522
 20
-194.559091121
 30
0.0
 11
1339.7150325062
 21
-206.4183859364
 31
0.0
  0
LINE
  5
21D
330
1F
100
AcDbEntity
  8
0
  6
Continuous
 62
     7
370
    25
100
AcDbLine
 10
1342.2509308911
 20
-210.8106907818
 30
0.0
 11
1347.5018719926
 21
-219.9055875571
 31
0.0
  0
ARC
  5
21E
330
1F
100
AcDbEntity
  8
0
  6
Continuous
 62
     7
370
    25
100
AcDbCircle
 10
1325.0735950452
 20
-199.059994226
 30
0.0
 40
2.999339138857119
100
AcDbArc
 50
119.9873743085
 51
209.9873687416
  0
LINE
  5
21F
330
1F
100
AcDbEntity
  8
0
  6
Continuous
 62
     7
370
    25
100
AcDbLine
 10
1323.5744978978
 20
-196.4621599332
 30
0.0
 11
1340.7907408865
 21
-226.2815675051
 31
0.0
  0
ARC
  5
220
330
1F
100
AcDbEntity
  8
0
  6
Continuous
 62
     7
370
    25
100
AcDbCircle
 10
1339.1481997488
 20
-224.1545359642
 30
0.0
 40
2.687415964284371
100
AcDbArc
 50
220.6604144952
 51
307.6761194264
  0
LINE
  5
221
330
1F
100
AcDbEntity
  8
0
  6
Continuous
 62
     7
370
    25
100
AcDbLine
 10
1337.1095671471
 20
-225.9055875571
 30
0.0
 11
1322.4757606068
 21
-200.559091121
 31
0.0
  0
LINE
  5
222
330
1F
100
AcDbEntity
  8
0
  6
Continuous
 62
     7
370
    25
100
AcDbLine
 10
1345.9868933092
 20
-223.2815675051
 30
0.0
 11
1340.7907408865
 21
-226.2815675051
 31
0.0
  0
LINE
  5
223
330
1F
100
AcDbEntity
  8
0
  6
Continuous
 62
     7
370
    25
100
AcDbLine
 10
1323.5744978978
 20
-196.4621599332
 30
0.0
 11
1328.7706503205
 21
-193.4621599332
 31
0.0
  0
LINE
  5
224
330
1F
100
AcDbEntity
  8
0
  6
Continuous
 62
     7
370
    25
100
AcDbLine
 10
1340.7907408865
 20
-226.2815675051
 30
0.0
 11
1412.2846634131
 21
-350.1126737536
 31
0.0
  0
ARC
  5
225
330
1F
100
AcDbEntity
  8
0
  6
Continuous
 62
     7
370
    25
100
AcDbCircle
 10
1409.9108624908
 20
-347.4049691043
 30
0.0
 40
3.600915895490255
100
AcDbArc
 50
260.3427695232
 51
311.240521541
  0
LINE
  5
226
330
1F
100
AcDbEntity
  8
0
  6
Continuous
 62
     7
370
    25
100
AcDbLine
 10
1409.3067961179
 20
-350.9548563001
 30
0.0
 11
1337.1095671471
 21
-225.9055875571
 31
0.0
  0
LINE
  5
227
330
1F
100
AcDbEntity
  8
0
  6
Continuous
 62
     7
370
    25
100
AcDbLine
 10
1417.4808158358
 20
-347.1126737536
 30
0.0
 11
1345.9868933092
 21
-223.2815675051
 31
0.0
  0
ARC
  5
228
330
1F
100
AcDbEntity
  8
0
  6
Continuous
 62
     7
370
    25
100
AcDbCircle
 10
1416.3227752847
 20
-343.7030495267
 30
0.0
 40
3.600915895492062
100
AcDbArc
 50
288.759478459
 51
339.6572304768
  0
LINE
  5
229
330
1F
100
AcDbEntity
  8
0
  6
Continuous
 62
     7
370
    25
100
AcDbLine
 10
1347.5018719926
 20
-219.9055875571
 30
0.0
 11
1419.6991009633
 21
-344.9548563001
 31
0.0
  0
LINE
  5
22A
330
1F
100
AcDbEntity
  8
0
  6
Continuous
 62
     7
370
    25
100
AcDbLine
 10
1412.2846634131
 20
-350.1126737536
 30
0.0
 11
1417.4808158358
 21
-347.1126737536
 31
0.0
  0
LINE
  5
22B
330
1F
100
AcDbEntity
  8
0
  6
Continuous
 62
     7
370
    25
100
AcDbLine
 10
1317.1168882974
 20
-186.27725201
 30
0.0
 11
1317.5289301914
 21
-185.9909295052
 31
0.0
  0
LINE
  5
22C
330
1F
100
AcDbEntity
  8
0
  6
Continuous
 62
     7
370
    25
100
AcDbLine
 10
1317.5289301914
 20
-185.9909295052
 30
0.0
 11
1323.5744978978
 21
-196.4621599332
 31
0.0
  0
LINE
  5
22D
330
1F
100
AcDbEntity
  8
0
  6
Continuous
 62
     7
370
    25
100
AcDbLine
 10
1322.4757606068
 20
-200.559091121
 30
0.0
 11
1316.5044643697
 21
-190.2165026513
 31
0.0
  0
LINE
  5
22E
330
1F
100
AcDbEntity
  8
0
  6
Continuous
 62
     7
370
    25
100
AcDbLine
 10
1328.7706503205
 20
-193.4621599332
 30
0.0
 11
1322.7250826141
 21
-182.9909295052
 31
0.0
  0
ARC
  5
22F
330
1F
100
AcDbEntity
  8
0
  6
Continuous
 62
     7
370
    25
100
AcDbCircle
 10
1324.2253245328
 20
-185.5881028639
 30
0.0
 40
2.999339138857386
100
AcDbArc
 50
30.0126312584
 51
120.0126256915
  0
LINE
  5
230
330
1F
100
AcDbEntity
  8
0
  6
Continuous
 62
     7
370
    25
100
AcDbLine
 10
1326.8224977458
 20
-184.0878606929
 30
0.0
 11
1332.8680654522
 21
-194.559091121
 31
0.0
  0
LINE
  5
231
330
1F
100
AcDbEntity
  8
0
  6
Continuous
 62
     7
370
    25
100
AcDbLine
 10
1317.5289301914
 20
-185.9909295052
 30
0.0
 11
1322.7250826141
 21
-182.9909295052
 31
0.0
  0
LINE
  5
232
330
1F
100
AcDbEntity
  8
0
  6
Continuous
 62
     7
370
    25
100
AcDbLine
 10
1419.6991009633
 20
-344.9548563001
 30
0.0
 11
1426.0469514884
 21
-355.9496559284
 31
0.0
  0
LINE
  5
233
330
1F
100
AcDbEntity
  8
0
  6
Continuous
 62
     7
370
    25
100
AcDbLine
 10
1411.681723828
 20
-355.0683517583
 30
0.0
 11
1409.3067961179
 21
-350.9548563001
 31
0.0
  0
LINE
  5
234
330
1F
100
AcDbEntity
  8
0
  6
Continuous
 62
     7
370
    25
100
AcDbLine
 10
1340.7907408865
 20
514.6601859415
 30
0.0
 11
1323.5744978978
 21
484.8407783697
 31
0.0
  0
LINE
  5
235
330
1F
100
AcDbEntity
  8
0
  6
Continuous
 62
     7
370
    25
100
AcDbLine
 10
1340.7907408865
 20
514.6601859415
 30
0.0
 11
1345.9868933092
 21
511.6601859415
 31
0.0
  0
LINE
  5
236
330
1F
100
AcDbEntity
  8
0
  6
Continuous
 62
     7
370
    25
100
AcDbLine
 10
1328.7706503205
 20
481.8407783697
 30
0.0
 11
1345.9868933092
 21
511.6601859415
 31
0.0
  0
LINE
  5
237
330
1F
100
AcDbEntity
  8
0
  6
Continuous
 62
     7
370
    25
100
AcDbLine
 10
1328.7706503205
 20
481.8407783697
 30
0.0
 11
1323.5744978978
 21
484.8407783697
 31
0.0
  0
ARC
  5
238
330
1F
100
AcDbEntity
  8
0
  6
Continuous
 62
     7
370
    25
100
AcDbCircle
 10
1325.0735950452
 20
487.4386126624
 30
0.0
 40
2.999339138857119
100
AcDbArc
 50
150.0126312584
 51
240.0126256915
  0
ARC
  5
239
330
1F
100
AcDbEntity
  8
0
  6
Continuous
 62
     7
370
    25
100
AcDbCircle
 10
1339.1481997488
 20
512.5331544007
 30
0.0
 40
2.687415964284315
100
AcDbArc
 50
52.3238805736
 51
139.3395855049
  0
LINE
  5
23A
330
1F
100
AcDbEntity
  8
0
  6
Continuous
 62
     7
370
    25
100
AcDbLine
 10
1322.4757606068
 20
488.9377095574
 30
0.0
 11
1337.1095671471
 21
514.2842059935
 31
0.0
  0
ARC
  5
23B
330
1F
100
AcDbEntity
  8
0
  6
Continuous
 62
     7
370
    25
100
AcDbCircle
 10
1330.2708922392
 20
484.4379517284
 30
0.0
 40
2.999339138857051
100
AcDbArc
 50
239.9873743085
 51
329.9873687416
  0
ARC
  5
23C
330
1F
100
AcDbEntity
  8
0
  6
Continuous
 62
     7
370
    25
100
AcDbCircle
 10
1344.966100529
 20
509.174187819
 30
0.0
 40
2.687415964284024
100
AcDbArc
 50
340.6604144951
 51
67.6761194264
  0
LINE
  5
23D
330
1F
100
AcDbEntity
  8
0
  6
Continuous
 62
     7
370
    25
100
AcDbLine
 10
1347.5018719926
 20
508.2842059935
 30
0.0
 11
1342.2509308911
 21
499.1893092182
 31
0.0
  0
LINE
  5
23E
330
1F
100
AcDbEntity
  8
0
  6
Continuous
 62
     7
370
    25
100
AcDbLine
 10
1339.7150325062
 20
494.7970043728
 30
0.0
 11
1332.8680654522
 21
482.9377095574
 31
0.0
  0
LINE
  5
23F
330
1F
100
AcDbEntity
  8
0
  6
Continuous
 62
     7
370
    25
100
AcDbLine
 10
1412.2846634131
 20
638.49129219
 30
0.0
 11
1340.7907408865
 21
514.6601859415
 31
0.0
  0
ARC
  5
240
330
1F
100
AcDbEntity
  8
0
  6
Continuous
 62
     7
370
    25
100
AcDbCircle
 10
1409.9108624908
 20
635.7835875407
 30
0.0
 40
3.600915895491481
100
AcDbArc
 50
48.759478459
 51
99.6572304768
  0
LINE
  5
241
330
1F
100
AcDbEntity
  8
0
  6
Continuous
 62
     7
370
    25
100
AcDbLine
 10
1337.1095671471
 20
514.2842059935
 30
0.0
 11
1409.3067961179
 21
639.3334747365
 31
0.0
  0
LINE
  5
242
330
1F
100
AcDbEntity
  8
0
  6
Continuous
 62
     7
370
    25
100
AcDbLine
 10
1345.9868933092
 20
511.6601859415
 30
0.0
 11
1417.4808158358
 21
635.49129219
 31
0.0
  0
ARC
  5
243
330
1F
100
AcDbEntity
  8
0
  6
Continuous
 62
     7
370
    25
100
AcDbCircle
 10
1416.3227752847
 20
632.0816679631
 30
0.0
 40
3.600915895492335
100
AcDbArc
 50
20.3427695232
 51
71.240521541
  0
LINE
  5
244
330
1F
100
AcDbEntity
  8
0
  6
Continuous
 62
     7
370
    25
100
AcDbLine
 10
1419.6991009633
 20
633.3334747365
 30
0.0
 11
1347.5018719926
 21
508.2842059935
 31
0.0
  0
LINE
  5
245
330
1F
100
AcDbEntity
  8
0
  6
Continuous
 62
     7
370
    25
100
AcDbLine
 10
1417.4808158358
 20
635.49129219
 30
0.0
 11
1412.2846634131
 21
638.49129219
 31
0.0
  0
LINE
  5
246
330
1F
100
AcDbEntity
  8
0
  6
Continuous
 62
     7
370
    25
100
AcDbLine
 10
1323.5744978978
 20
484.8407783697
 30
0.0
 11
1317.5289301914
 21
474.3695479416
 31
0.0
  0
LINE
  5
247
330
1F
100
AcDbEntity
  8
0
  6
Continuous
 62
     7
370
    25
100
AcDbLine
 10
1317.5289301914
 20
474.3695479416
 30
0.0
 11
1317.1168882974
 21
474.6558704464
 31
0.0
  0
LINE
  5
248
330
1F
100
AcDbEntity
  8
0
  6
Continuous
 62
     7
370
    25
100
AcDbLine
 10
1316.5044643697
 20
478.5951210877
 30
0.0
 11
1322.4757606068
 21
488.9377095574
 31
0.0
  0
ARC
  5
249
330
1F
100
AcDbEntity
  8
0
  6
Continuous
 62
     7
370
    25
100
AcDbCircle
 10
1324.2253245328
 20
473.9667213003
 30
0.0
 40
2.99933913885733
100
AcDbArc
 50
239.9873743085
 51
329.9873687416
  0
LINE
  5
24A
330
1F
100
AcDbEntity
  8
0
  6
Continuous
 62
     7
370
    25
100
AcDbLine
 10
1322.7250826141
 20
471.3695479416
 30
0.0
 11
1328.7706503205
 21
481.8407783697
 31
0.0
  0
LINE
  5
24B
330
1F
100
AcDbEntity
  8
0
  6
Continuous
 62
     7
370
    25
100
AcDbLine
 10
1332.8680654522
 20
482.9377095574
 30
0.0
 11
1326.8224977458
 21
472.4664791293
 31
0.0
  0
LINE
  5
24C
330
1F
100
AcDbEntity
  8
0
  6
Continuous
 62
     7
370
    25
100
AcDbLine
 10
1322.7250826141
 20
471.3695479416
 30
0.0
 11
1317.5289301914
 21
474.3695479416
 31
0.0
  0
LINE
  5
24D
330
1F
100
AcDbEntity
  8
0
  6
Continuous
 62
     7
370
    25
100
AcDbLine
 10
1409.3067961179
 20
639.3334747365
 30
0.0
 11
1411.681723828
 21
643.4469701947
 31
0.0
  0
LINE
  5
24E
330
1F
100
AcDbEntity
  8
0
  6
Continuous
 62
     7
370
    25
100
AcDbLine
 10
1426.0469514884
 20
644.3282743649
 30
0.0
 11
1419.6991009633
 21
633.3334747365
 31
0.0
  0
LINE
  5
24F
330
1F
100
AcDbEntity
  8
0
  6
Continuous
 62
     7
370
    25
100
AcDbLine
 10
918.2414438385
 20
703.7833347519
 30
0.0
 11
901.1975211424
 21
674.262394682
 31
0.0
  0
ARC
  5
250
330
1F
100
AcDbEntity
  8
0
  6
Continuous
 62
     7
370
    25
100
AcDbCircle
 10
883.8770130667
 20
684.262394682
 30
0.0
 40
20.00000000000006
100
AcDbArc
 50
150.0
 51
330.0
  0
LINE
  5
251
330
1F
100
AcDbEntity
  8
0
  6
Continuous
 62
     7
370
    25
100
AcDbLine
 10
866.556504991
 20
694.262394682
 30
0.0
 11
873.4070846707
 21
706.1279467484
 31
0.0
  0
LINE
  5
252
330
1F
100
AcDbEntity
  8
0
  6
Continuous
 62
     7
370
    25
100
AcDbLine
 10
423.3098655122
 20
498.9034108333
 30
0.0
 11
443.3098655122
 21
464.262394682
 31
0.0
  0
ARC
  5
253
330
1F
100
AcDbEntity
  8
0
  6
Continuous
 62
     7
370
    25
100
AcDbCircle
 10
425.9893574365
 20
454.262394682
 30
0.0
 40
20.00000000000002
100
AcDbArc
 50
210.0
 51
30.0
  0
LINE
  5
254
330
1F
100
AcDbEntity
  8
0
  6
Continuous
 62
     7
370
    25
100
AcDbLine
 10
408.6688493608
 20
444.262394682
 30
0.0
 11
391.0876028745
 21
474.7140068567
 31
0.0
  0
ARC
  5
255
330
1F
100
AcDbEntity
  8
0
  6
Continuous
 62
     7
370
    25
100
AcDbCircle
 10
405.9893574365
 20
488.9034108333
 30
0.0
 40
20.00000000000003
100
AcDbArc
 50
30.0
 51
58.9550243719
  0
LINE
  5
256
330
1F
100
AcDbEntity
  8
0
  6
Continuous
 62
     7
370
    25
100
AcDbLine
 10
841.6815512531
 20
694.262394682
 30
0.0
 11
834.2143952728
 21
707.1958882279
 31
0.0
  0
ARC
  5
257
330
1F
100
AcDbEntity
  8
0
  6
Continuous
 62
     7
370
    25
100
AcDbCircle
 10
824.3610431774
 20
684.262394682
 30
0.0
 40
20.00000000000006
100
AcDbArc
 50
210.0
 51
30.0
  0
LINE
  5
258
330
1F
100
AcDbEntity
  8
0
  6
Continuous
 62
     7
370
    25
100
AcDbLine
 10
791.99703664
 20
700.3184983412
 30
0.0
 11
807.0405351017
 21
674.262394682
 31
0.0
  0
LINE
  5
259
330
1F
100
AcDbEntity
  8
0
  6
Continuous
 62
     7
370
    25
100
AcDbLine
 10
866.556504991
 20
-405.8837762456
 30
0.0
 11
873.4000207337
 21
-417.7370932143
 31
0.0
  0
ARC
  5
25A
330
1F
100
AcDbEntity
  8
0
  6
Continuous
 62
     7
370
    25
100
AcDbCircle
 10
883.8770130667
 20
-395.8837762456
 30
0.0
 40
20.00000000000009
100
AcDbArc
 50
30.0
 51
210.0
  0
LINE
  5
25B
330
1F
100
AcDbEntity
  8
0
  6
Continuous
 62
     7
370
    25
100
AcDbLine
 10
918.2600943237
 20
-415.4370199035
 30
0.0
 11
901.1975211424
 21
-385.8837762456
 31
0.0
  0
LINE
  5
25C
330
1F
100
AcDbEntity
  8
0
  6
Continuous
 62
     7
370
    25
100
AcDbLine
 10
1299.5692068832
 20
444.262394682
 30
0.0
 11
1317.1504533696
 21
474.7140068567
 31
0.0
  0
ARC
  5
25D
330
1F
100
AcDbEntity
  8
0
  6
Continuous
 62
     7
370
    25
100
AcDbCircle
 10
1282.2486988076
 20
454.262394682
 30
0.0
 40
20.00000000000009
100
AcDbArc
 50
150.0
 51
330.0
  0
LINE
  5
25E
330
1F
100
AcDbEntity
  8
0
  6
Continuous
 62
     7
370
    25
100
AcDbLine
 10
1284.9281907319
 20
498.9034108333
 30
0.0
 11
1264.9281907319
 21
464.262394682
 31
0.0
  0
ARC
  5
25F
330
1F
100
AcDbEntity
  8
0
  6
Continuous
 62
     7
370
    25
100
AcDbCircle
 10
1302.2486988076
 20
488.9034108333
 30
0.0
 40
20.00000000000012
100
AcDbArc
 50
121.0449756281
 51
150.0
  0
LINE
  5
260
330
1F
100
AcDbEntity
  8
0
  6
Continuous
 62
     7
370
    25
100
AcDbLine
 10
1284.9281907319
 20
-210.5247923969
 30
0.0
 11
1264.9281907319
 21
-175.8837762456
 31
0.0
  0
ARC
  5
261
330
1F
100
AcDbEntity
  8
0
  6
Continuous
 62
     7
370
    25
100
AcDbCircle
 10
1302.2486988076
 20
-200.5247923969
 30
0.0
 40
20.00000000000006
100
AcDbArc
 50
210.0
 51
238.9550243719
  0
LINE
  5
262
330
1F
100
AcDbEntity
  8
0
  6
Continuous
 62
     7
370
    25
100
AcDbLine
 10
1299.5692068832
 20
-155.8837762456
 30
0.0
 11
1317.1504533696
 21
-186.3353884203
 31
0.0
  0
ARC
  5
263
330
1F
100
AcDbEntity
  8
0
  6
Continuous
 62
     7
370
    25
100
AcDbCircle
 10
1282.2486988076
 20
-165.8837762456
 30
0.0
 40
20.00000000000006
100
AcDbArc
 50
30.0
 51
210.0
  0
LINE
  5
264
330
1F
100
AcDbEntity
  8
0
  6
Continuous
 62
     7
370
    25
100
AcDbLine
 10
791.9997476473
 20
-411.9351843024
 30
0.0
 11
807.0405351017
 21
-385.8837762456
 31
0.0
  0
LINE
  5
265
330
1F
100
AcDbEntity
  8
0
  6
Continuous
 62
     7
370
    25
100
AcDbLine
 10
841.6815512531
 20
-405.8837762456
 30
0.0
 11
834.2126745842
 21
-418.8202501115
 31
0.0
  0
ARC
  5
266
330
1F
100
AcDbEntity
  8
0
  6
Continuous
 62
     7
370
    25
100
AcDbCircle
 10
824.3610431774
 20
-395.8837762456
 30
0.0
 40
20.00000000000006
100
AcDbArc
 50
330.0
 51
150.0
  0
LINE
  5
267
330
1F
100
AcDbEntity
  8
0
  6
Continuous
 62
     7
370
    25
100
AcDbLine
 10
408.6688493608
 20
-155.8837762456
 30
0.0
 11
391.0876028745
 21
-186.3353884203
 31
0.0
  0
LINE
  5
268
330
1F
100
AcDbEntity
  8
0
  6
Continuous
 62
     7
370
    25
100
AcDbLine
 10
423.3098655122
 20
-210.5247923969
 30
0.0
 11
443.3098655122
 21
-175.8837762456
 31
0.0
  0
ARC
  5
269
330
1F
100
AcDbEntity
  8
0
  6
Continuous
 62
     7
370
    25
100
AcDbCircle
 10
405.9893574365
 20
-200.5247923969
 30
0.0
 40
19.99999999999999
100
AcDbArc
 50
301.0449756281
 51
330.0
  0
ARC
  5
26A
330
1F
100
AcDbEntity
  8
0
  6
Continuous
 62
     7
370
    25
100
AcDbCircle
 10
425.9893574365
 20
-165.8837762456
 30
0.0
 40
19.99999999999999
100
AcDbArc
 50
330.0
 51
150.0
  0
ELLIPSE
  5
26B
330
1F
100
AcDbEntity
  8
0
  6
Continuous
 62
     7
370
    25
100
AcDbEllipse
 10
407.6514128886
 20
-197.6460279089
 30
0.0
 11
10.09173744567363
 21
17.47940199255208
 31
0.0
210
0.0
220
0.0
230
1.0
 40
0.867045942
 41
0.0
 42
1.570796326794902
  0
ELLIPSE
  5
26C
330
1F
100
AcDbEntity
  8
0
  6
Continuous
 62
     7
370
    25
100
AcDbEllipse
 10
407.6514128886
 20
-197.6460279089
 30
0.0
 11
10.09173744567363
 21
17.47940199255208
 31
0.0
210
0.0
220
0.0
230
1.0
 40
0.867045942
 41
4.712388980384706
 42
6.283185307179586
  0
ELLIPSE
  5
26D
330
1F
100
AcDbEntity
  8
0
  6
Continuous
 62
     7
370
    25
100
AcDbEllipse
 10
902.2149576146
 20
716.0246463453
 30
0.0
 11
-10.09173744567363
 21
-17.47940199255208
 31
0.0
210
0.0
220
0.0
230
1.0
 40
0.867045942
 41
0.0
 42
1.148530623213616
  0
ELLIPSE
  5
26E
330
1F
100
AcDbEntity
  8
0
  6
Continuous
 62
     7
370
    25
100
AcDbEllipse
 10
902.2149576146
 20
716.0246463453
 30
0.0
 11
-10.09173744567363
 21
-17.47940199255208
 31
0.0
210
0.0
220
0.0
230
1.0
 40
0.867045942
 41
5.94399395323429
 42
6.283185307179586
  0
ELLIPSE
  5
26F
330
1F
100
AcDbEntity
  8
0
  6
Continuous
 62
     7
370
    25
100
AcDbEllipse
 10
1300.5866433554
 20
486.0246463453
 30
0.0
 11
-10.09173744567374
 21
-17.47940199255208
 31
0.0
210
0.0
220
0.0
230
1.0
 40
0.867045942
 41
0.0
 42
1.570796326794895
  0
ELLIPSE
  5
270
330
1F
100
AcDbEntity
  8
0
  6
Continuous
 62
     7
370
    25
100
AcDbEllipse
 10
1300.5866433554
 20
486.0246463453
 30
0.0
 11
-10.09173744567374
 21
-17.47940199255208
 31
0.0
210
0.0
220
0.0
230
1.0
 40
0.867045942
 41
4.712388980384707
 42
6.283185307179586
  0
ELLIPSE
  5
271
330
1F
100
AcDbEntity
  8
0
  6
Continuous
 62
     7
370
    25
100
AcDbEllipse
 10
806.0230986295
 20
-427.6460279089
 30
0.0
 11
10.09173744567352
 21
17.47940199255208
 31
0.0
210
0.0
220
0.0
230
1.0
 40
0.867045942
 41
0.0
 42
1.04806783822816
  0
ELLIPSE
  5
272
330
1F
100
AcDbEntity
  8
0
  6
Continuous
 62
     7
370
    25
100
AcDbEllipse
 10
806.0230986295
 20
-427.6460279089
 30
0.0
 11
10.09173744567352
 21
17.47940199255208
 31
0.0
210
0.0
220
0.0
230
1.0
 40
0.867045942
 41
5.767972770545223
 42
6.283185307179586
  0
ELLIPSE
  5
273
330
1F
100
AcDbEntity
  8
0
  6
Continuous
 62
     7
370
    25
100
AcDbEllipse
 10
1300.5866433554
 20
-197.6460279089
 30
0.0
 11
-10.09173744567374
 21
17.47940199255211
 31
0.0
210
0.0
220
0.0
230
1.0
 40
0.867045942
 41
0.0
 42
1.570796326794887
  0
ELLIPSE
  5
274
330
1F
100
AcDbEntity
  8
0
  6
Continuous
 62
     7
370
    25
100
AcDbEllipse
 10
1300.5866433554
 20
-197.6460279089
 30
0.0
 11
-10.09173744567374
 21
17.47940199255211
 31
0.0
210
0.0
220
0.0
230
1.0
 40
0.867045942
 41
4.712388980384692
 42
6.283185307179586
  0
ELLIPSE
  5
275
330
1F
100
AcDbEntity
  8
0
  6
Continuous
 62
     7
370
    25
100
AcDbEllipse
 10
902.2149576146
 20
-427.6460279089
 30
0.0
 11
-10.09173744567363
 21
17.47940199255208
 31
0.0
210
0.0
220
0.0
230
1.0
 40
0.867045942
 41
0.0
 42
0.3386642210658911
  0
ELLIPSE
  5
276
330
1F
100
AcDbEntity
  8
0
  6
Continuous
 62
     7
370
    25
100
AcDbEllipse
 10
902.2149576146
 20
-427.6460279089
 30
0.0
 11
-10.09173744567363
 21
17.47940199255208
 31
0.0
210
0.0
220
0.0
230
1.0
 40
0.867045942
 41
5.125552774491315
 42
6.283185307179586
  0
ELLIPSE
  5
277
330
1F
100
AcDbEntity
  8
0
  6
Continuous
 62
     7
370
    25
100
AcDbEllipse
 10
407.6514128886
 20
486.0246463453
 30
0.0
 11
10.09173744567363
 21
-17.47940199255208
 31
0.0
210
0.0
220
0.0
230
1.0
 40
0.867045942
 41
0.0
 42
1.570796326794896
  0
ELLIPSE
  5
278
330
1F
100
AcDbEntity
  8
0
  6
Continuous
 62
     7
370
    25
100
AcDbEllipse
 10
407.6514128886
 20
486.0246463453
 30
0.0
 11
10.09173744567363
 21
-17.47940199255208
 31
0.0
210
0.0
220
0.0
230
1.0
 40
0.867045942
 41
4.712388980384703
 42
6.283185307179586
  0
ELLIPSE
  5
279
330
1F
100
AcDbEntity
  8
0
  6
Continuous
 62
     7
370
    25
100
AcDbEllipse
 10
806.0230986295
 20
716.0246463453
 30
0.0
 11
10.09173744567352
 21
-17.47940199255208
 31
0.0
210
0.0
220
0.0
230
1.0
 40
0.867045942
 41
0.0
 42
0.5187848426939505
  0
ELLIPSE
  5
27A
330
1F
100
AcDbEntity
  8
0
  6
Continuous
 62
     7
370
    25
100
AcDbEllipse
 10
806.0230986295
 20
716.0246463453
 30
0.0
 11
10.09173744567352
 21
-17.47940199255208
 31
0.0
210
0.0
220
0.0
230
1.0
 40
0.867045942
 41
5.23661370751266
 42
6.283185307179586
  0
LWPOLYLINE
  5
27B
330
1F
100
AcDbEntity
  8
0
  6
Continuous
 62
     7
370
    25
100
AcDbPolyline
 90
       19
 70
   128
 43
0.0
 10
736.8089352119
 20
838.674863478
 10
734.841782036
 20
839.189961729
 10
732.7375168338
 20
839.5830523762
 10
730.5340484538
 20
839.8470537962
 10
728.2710729138
 20
839.9772099393
 10
725.9893582673
 20
839.9711760111
 10
723.7300101577
 20
839.8290607142
 10
721.5337312896
 20
839.5534242901
 10
719.4400881598
 20
839.1492323961
 10
717.4867982577
 20
838.6237666471
 10
715.709050575
 20
837.9864934361
 10
714.1388716676
 20
837.2488933949
 10
712.8045486897
 20
836.424254567
 10
711.7301197938
 20
835.5274330214
 10
710.9349410771
 20
834.5745852156
 10
710.4333378773
 20
833.5828769344
 10
710.2343466978
 20
832.570174043
 10
710.341552413
 20
831.5547206299
 10
710.7530236858
 20
830.5548103349
  0
ARC
  5
27C
330
1F
100
AcDbEntity
  8
0
  6
Continuous
 62
     7
370
    25
100
AcDbCircle
 10
733.635673859
 20
842.3619606151
 30
0.0
 40
4.864593807542009
100
AcDbArc
 50
310.7165863226
 51
1.2126997688
  0
LWPOLYLINE
  5
27D
330
1F
100
AcDbEntity
  8
0
  6
Continuous
 62
     7
370
    25
100
AcDbPolyline
 90
       19
 70
   128
 43
0.0
 10
990.5959731435
 20
830.3502485983
 10
991.0148069524
 20
831.3495519506
 10
991.1294913233
 20
832.3648431648
 10
990.9379601893
 20
833.3778315231
 10
990.4436640304
 20
834.3702677945
 10
989.6555077118
 20
835.3242729986
 10
988.5876900609
 20
836.2226605
 10
987.2594480719
 20
837.0492456299
 10
985.6947103468
 20
837.7891372565
 10
983.9216660153
 20
838.4290060525
 10
981.9722569015
 20
838.9573246262
 10
979.8816020839
 20
839.3645751904
 10
977.6873652165
 20
839.6434210271
 10
975.429076009
 20
839.7888386611
 10
973.1474180897
 20
839.7982083582
 10
970.8834960799
 20
839.6713613212
 10
968.6780950842
 20
839.4105827302
 10
966.5709459368
 20
839.0205705749
 10
964.6000094412
 20
838.5083510188
  0
ARC
  5
27E
330
1F
100
AcDbEntity
  8
0
  6
Continuous
 62
     7
370
    25
100
AcDbCircle
 10
967.7985313014
 20
842.1962868144
 30
0.0
 40
4.881742775233106
100
AcDbArc
 50
178.7724669992
 51
229.0651211967
  0
LINE
  5
27F
330
1F
100
AcDbEntity
  8
0
  6
Continuous
 62
     7
370
    25
100
AcDbLine
 10
738.4991780801
 20
847.8365355856
 30
0.0
 11
738.4991780801
 21
842.464914993
 31
0.0
  0
LINE
  5
280
330
1F
100
AcDbEntity
  8
0
  6
Continuous
 62
     7
370
    25
100
AcDbLine
 10
962.917908865
 20
842.3008676751
 30
0.0
 11
962.917908865
 21
847.6724882677
 31
0.0
  0
LWPOLYLINE
  5
281
330
1F
100
AcDbEntity
  8
0
  6
Continuous
 62
     7
370
    25
100
AcDbPolyline
 90
       32
 70
   128
 43
0.0
 10
964.6000094412
 20
838.5083510188
 10
958.0561353886
 20
836.6149575402
 10
951.3535017032
 20
834.8352077768
 10
944.5020461956
 20
833.1717405146
 10
937.5119273303
 20
831.6270221308
 10
930.3935091643
 20
830.2033429368
 10
923.1573459804
 20
828.9028137826
 10
915.8141666385
 20
827.727362927
 10
908.3748586688
 20
826.6787331787
 10
900.8504521284
 20
825.758479312
 10
893.2521032478
 20
824.9679657621
 10
885.5910778901
 20
824.3083646017
 10
877.8787348465
 20
823.7806538033
 10
870.1265089961
 20
823.3856157892
 10
862.3458943508
 20
823.1238362713
 10
854.5484270138
 20
822.995703383
 10
846.7456680754
 20
823.0014071033
 10
838.9491864717
 20
823.1409389755
 10
831.1705418314
 20
823.4140921196
 10
823.421267337
 20
823.8204615389
 10
815.7128526244
 20
824.3594447206
 10
808.0567267482
 20
825.0302425291
 10
800.4642412355
 20
825.8318603911
 10
792.9466532557
 20
826.7631097699
 10
785.5151089296
 20
827.8226099274
 10
778.1806268037
 20
829.0087899721
 10
770.9540815127
 20
830.3198911874
 10
763.8461876564
 20
831.7539696396
 10
756.8674839137
 20
833.30889906
 10
750.0283174165
 20
834.9823739976
 10
743.3388284088
 20
836.7719132372
 10
736.8089352119
 20
838.674863478
  0
LINE
  5
282
330
1F
100
AcDbEntity
  8
0
  6
Continuous
 62
     7
370
    25
100
AcDbLine
 10
918.6501346171
 20
705.7364008775
 30
0.0
 11
990.5959731435
 21
830.3502485983
 31
0.0
  0
LWPOLYLINE
  5
283
330
1F
100
AcDbEntity
  8
0
  6
Continuous
 62
     7
370
    25
100
AcDbPolyline
 90
       16
 70
   128
 43
0.0
 10
891.3231256908
 20
701.7972498605
 10
893.1696640461
 20
701.2022999244
 10
895.1782164296
 20
700.7227252392
 10
897.3126915746
 20
700.3671431843
 10
899.5347355342
 20
700.1419431408
 10
901.8044208552
 20
700.0511716821
 10
904.0809640267
 20
700.0964598622
 10
906.3234583104
 20
700.2769939068
 10
908.4916087855
 20
700.5895298368
 10
910.5464563999
 20
701.028451758
 10
912.4510780173
 20
701.5858727722
 10
914.1712498819
 20
702.2517766953
 10
915.6760625773
 20
703.014198036
 10
916.9384764324
 20
703.8594370013
 10
917.935807391
 20
704.7723056652
 10
918.6501346171
 20
705.7364008775
  0
LWPOLYLINE
  5
284
330
1F
100
AcDbEntity
  8
0
  6
Continuous
 62
     7
370
    25
100
AcDbPolyline
 90
       21
 70
   128
 43
0.0
 10
809.0784908318
 20
701.8573696719
 10
812.6132938331
 20
703.0678791027
 10
816.3273961663
 20
704.1666734436
 10
820.2030423879
 20
705.1484998559
 10
824.2217047862
 20
706.0086646715
 10
828.364171954
 20
706.7430558314
 10
832.6106406292
 20
707.3481625438
 10
836.9408103659
 20
707.8210920671
 10
841.3339805809
 20
708.1595835391
 10
845.7691495144
 20
708.3620187853
 10
850.2251146298
 20
708.4274300542
 10
854.6805739732
 20
708.3555046442
 10
859.1142280087
 20
708.1465863981
 10
863.5048814416
 20
707.8016740595
 10
867.8315445436
 20
707.3224164985
 10
872.0735334954
 20
706.7111048285
 10
876.2105692665
 20
705.9706614542
 10
880.2228745599
 20
705.1046261006
 10
884.0912683587
 20
704.1171388908
 10
887.7972576218
 20
703.0129205546
 10
891.3231256908
 20
701.7972498605
  0
LWPOLYLINE
  5
285
330
1F
100
AcDbEntity
  8
0
  6
Continuous
 62
     7
370
    25
100
AcDbPolyline
 90
       16
 70
   128
 43
0.0
 10
781.7806425056
 20
705.8364507842
 10
782.4878649272
 20
704.8713164367
 10
783.4784668621
 20
703.9569946184
 10
784.734648387
 20
703.109914591
 10
786.2338374331
 20
702.3452973622
 10
787.9490953793
 20
701.6768821824
 10
789.8496011068
 20
701.1166796671
 10
791.9012048169
 20
700.6747559808
 10
794.0670416627
 20
700.3590519597
 10
796.3081941651
 20
700.1752404246
 10
798.5843915135
 20
700.1266242475
 10
800.8547331837
 20
700.2140770026
 10
803.0784238709
 20
700.436027269
 10
805.2155065322
 20
700.788486868
 10
807.2275803668
 20
701.2651225252
 10
809.0784908318
 20
701.8573696719
  0
LINE
  5
286
330
1F
100
AcDbEntity
  8
0
  6
Continuous
 62
     7
370
    25
100
AcDbLine
 10
710.7530236858
 20
830.5548103349
 30
0.0
 11
781.7806425056
 21
705.8364507842
 31
0.0
  0
LWPOLYLINE
  5
287
330
1F
100
AcDbEntity
  8
0
  6
Continuous
 62
     7
370
    25
100
AcDbPolyline
 90
       31
 70
   128
 43
0.0
 10
738.4991780801
 20
842.464914993
 10
745.149601384
 20
840.5295537798
 10
751.9675693929
 20
838.7135924296
 10
758.9422882307
 20
837.0199058844
 10
766.062715861
 20
835.4511755066
 10
773.3175795684
 20
834.0098848338
 10
780.6953938045
 20
832.6983156477
 10
788.1844783721
 20
831.5185443608
 10
795.7729769157
 20
830.4724387298
 10
803.4488756927
 20
829.5616548984
 10
811.2000225928
 20
828.7876347754
 10
819.0141463761
 20
828.1516037518
 10
826.8788761013
 20
827.6545687611
 10
834.7817607097
 20
827.297316685
 10
842.710288738
 20
827.0804131076
 10
850.6519081253
 20
827.0042014201
 10
858.5940460852
 20
827.0688022773
 10
866.5241290104
 20
827.2741134061
 10
874.4296023782
 20
827.619809768
 10
882.297950627
 20
828.1053440732
 10
890.1167169696
 20
828.7299476474
 10
897.8735231145
 20
829.4926316484
 10
905.5560888626
 20
830.3921886321
 10
913.1522515487
 20
831.4271944635
 10
920.6499852965
 20
832.5960105715
 10
928.037420058
 20
833.8967865431
 10
935.3028604048
 20
835.3274630531
 10
942.4348040444
 20
836.8857751238
 10
949.4219600296
 20
838.569255711
 10
956.2532666342
 20
840.3752396102
 10
962.917908865
 20
842.3008676751
  0
LWPOLYLINE
  5
288
330
1F
100
AcDbEntity
  8
0
  6
Continuous
 62
     7
370
    25
100
AcDbPolyline
 90
       31
 70
   128
 43
0.0
 10
962.917908865
 20
847.6724882677
 10
956.2532666342
 20
845.7468602028
 10
949.4219600296
 20
843.9408763037
 10
942.4348040444
 20
842.2573957164
 10
935.3028604048
 20
840.6990836458
 10
928.037420058
 20
839.2684071358
 10
920.6499852965
 20
837.9676311641
 10
913.1522515487
 20
836.7988150561
 10
905.5560888626
 20
835.7638092248
 10
897.8735231145
 20
834.8642522411
 10
890.1167169696
 20
834.10156824
 10
882.297950627
 20
833.4769646658
 10
874.4296023782
 20
832.9914303606
 10
866.5241290104
 20
832.6457339988
 10
858.5940460852
 20
832.44042287
 10
850.6519081253
 20
832.3758220128
 10
842.710288738
 20
832.4520337002
 10
834.7817607097
 20
832.6689372776
 10
826.8788761013
 20
833.0261893537
 10
819.0141463761
 20
833.5232243444
 10
811.2000225928
 20
834.159255368
 10
803.4488756927
 20
834.9332754911
 10
795.7729769157
 20
835.8440593224
 10
788.1844783721
 20
836.8901649534
 10
780.6953938045
 20
838.0699362403
 10
773.3175795684
 20
839.3815054265
 10
766.062715861
 20
840.8227960992
 10
758.9422882307
 20
842.3915264771
 10
751.9675693929
 20
844.0852130223
 10
745.149601384
 20
845.9011743724
 10
738.4991780801
 20
847.8365355856
  0
LWPOLYLINE
  5
289
330
1F
100
AcDbEntity
  8
0
  6
Continuous
 62
     7
370
    25
100
AcDbPolyline
 90
       19
 70
   128
 43
0.0
 10
710.7530236858
 20
-542.1761918985
 10
710.341552413
 20
-543.1761021935
 10
710.2343466978
 20
-544.1915556066
 10
710.4333378773
 20
-545.2042584979
 10
710.9349410771
 20
-546.1959667792
 10
711.7301197938
 20
-547.1488145849
 10
712.8045486897
 20
-548.0456361306
 10
714.1388716676
 20
-548.8702749584
 10
715.709050575
 20
-549.6078749997
 10
717.4867982577
 20
-550.2451482106
 10
719.4400881598
 20
-550.7706139597
 10
721.5337312896
 20
-551.1748058537
 10
723.7300101577
 20
-551.4504422778
 10
725.9893582673
 20
-551.5925575747
 10
728.2710729138
 20
-551.5985915029
 10
730.5340484538
 20
-551.4684353598
 10
732.7375168338
 20
-551.2044339398
 10
734.841782036
 20
-550.8113432926
 10
736.8089352119
 20
-550.2962450416
  0
ARC
  5
28A
330
1F
100
AcDbEntity
  8
0
  6
Continuous
 62
     7
370
    25
100
AcDbCircle
 10
733.635673859
 20
-553.9833421787
 30
0.0
 40
4.864593807541556
100
AcDbArc
 50
358.7873002311
 51
49.2834136774
  0
LWPOLYLINE
  5
28B
330
1F
100
AcDbEntity
  8
0
  6
Continuous
 62
     7
370
    25
100
AcDbPolyline
 90
       19
 70
   128
 43
0.0
 10
964.6000094412
 20
-550.1297325824
 10
966.5709459368
 20
-550.6419521384
 10
968.6780950842
 20
-551.0319642938
 10
970.8834960799
 20
-551.2927428848
 10
973.1474180897
 20
-551.4195899218
 10
975.429076009
 20
-551.4102202247
 10
977.6873652165
 20
-551.2648025907
 10
979.8816020839
 20
-550.9859567539
 10
981.9722569015
 20
-550.5787061898
 10
983.9216660153
 20
-550.0503876161
 10
985.6947103468
 20
-549.4105188201
 10
987.2594480719
 20
-548.6706271935
 10
988.5876900609
 20
-547.8440420636
 10
989.6555077118
 20
-546.9456545622
 10
990.4436640304
 20
-545.9916493581
 10
990.9379601893
 20
-544.9992130867
 10
991.1294913233
 20
-543.9862247284
 10
991.0148069524
 20
-542.9709335142
 10
990.5959731435
 20
-541.9716301619
  0
ARC
  5
28C
330
1F
100
AcDbEntity
  8
0
  6
Continuous
 62
     7
370
    25
100
AcDbCircle
 10
967.7985313014
 20
-553.817668378
 30
0.0
 40
4.881742775233293
100
AcDbArc
 50
130.9348788033
 51
181.2275330008
  0
LINE
  5
28D
330
1F
100
AcDbEntity
  8
0
  6
Continuous
 62
     7
370
    25
100
AcDbLine
 10
738.4991780801
 20
-554.0862965565
 30
0.0
 11
738.4991780801
 21
-559.4579171492
 31
0.0
  0
LINE
  5
28E
330
1F
100
AcDbEntity
  8
0
  6
Continuous
 62
     7
370
    25
100
AcDbLine
 10
962.917908865
 20
-559.2938698313
 30
0.0
 11
962.917908865
 21
-553.9222492387
 31
0.0
  0
LWPOLYLINE
  5
28F
330
1F
100
AcDbEntity
  8
0
  6
Continuous
 62
     7
370
    25
100
AcDbPolyline
 90
       16
 70
   128
 43
0.0
 10
918.6501346171
 20
-417.3577824411
 10
917.935807391
 20
-416.3936872288
 10
916.9384764324
 20
-415.4808185649
 10
915.6760625773
 20
-414.6355795996
 10
914.1712498819
 20
-413.8731582589
 10
912.4510780173
 20
-413.2072543358
 10
910.5464563999
 20
-412.6498333216
 10
908.4916087855
 20
-412.2109114004
 10
906.3234583104
 20
-411.8983754704
 10
904.0809640267
 20
-411.7178414258
 10
901.8044208552
 20
-411.6725532457
 10
899.5347355342
 20
-411.7633247043
 10
897.3126915746
 20
-411.9885247479
 10
895.1782164296
 20
-412.3441068028
 10
893.1696640461
 20
-412.823681488
 10
891.3231256908
 20
-413.4186314241
  0
LINE
  5
290
330
1F
100
AcDbEntity
  8
0
  6
Continuous
 62
     7
370
    25
100
AcDbLine
 10
990.5959731435
 20
-541.9716301619
 30
0.0
 11
918.6501346171
 21
-417.3577824411
 31
0.0
  0
LWPOLYLINE
  5
291
330
1F
100
AcDbEntity
  8
0
  6
Continuous
 62
     7
370
    25
100
AcDbPolyline
 90
       32
 70
   128
 43
0.0
 10
736.8089352119
 20
-550.2962450416
 10
743.3388284088
 20
-548.3932948008
 10
750.0283174165
 20
-546.6037555612
 10
756.8674839137
 20
-544.9302806236
 10
763.8461876564
 20
-543.3753512032
 10
770.9540815126
 20
-541.941272751
 10
778.1806268037
 20
-540.6301715357
 10
785.5151089296
 20
-539.443991491
 10
792.9466532557
 20
-538.3844913334
 10
800.4642412355
 20
-537.4532419547
 10
808.0567267482
 20
-536.6516240927
 10
815.7128526244
 20
-535.9808262841
 10
823.421267337
 20
-535.4418431025
 10
831.1705418314
 20
-535.0354736832
 10
838.9491864717
 20
-534.7623205391
 10
846.7456680754
 20
-534.6227886669
 10
854.5484270138
 20
-534.6170849466
 10
862.3458943508
 20
-534.7452178349
 10
870.1265089961
 20
-535.0069973528
 10
877.8787348465
 20
-535.4020353669
 10
885.5910778901
 20
-535.9297461653
 10
893.2521032478
 20
-536.5893473257
 10
900.8504521284
 20
-537.3798608756
 10
908.3748586688
 20
-538.3001147422
 10
915.8141666385
 20
-539.3487444906
 10
923.1573459804
 20
-540.5241953462
 10
930.3935091643
 20
-541.8247245004
 10
937.5119273303
 20
-543.2484036944
 10
944.5020461956
 20
-544.7931220782
 10
951.3535017032
 20
-546.4565893403
 10
958.0561353886
 20
-548.2363391037
 10
964.6000094412
 20
-550.1297325824
  0
LINE
  5
292
330
1F
100
AcDbEntity
  8
0
  6
Continuous
 62
     7
370
    25
100
AcDbLine
 10
781.7806425056
 20
-417.4578323478
 30
0.0
 11
710.7530236858
 21
-542.1761918985
 31
0.0
  0
LWPOLYLINE
  5
293
330
1F
100
AcDbEntity
  8
0
  6
Continuous
 62
     7
370
    25
100
AcDbPolyline
 90
       16
 70
   128
 43
0.0
 10
809.0784908318
 20
-413.4787512355
 10
807.2275803668
 20
-412.8865040888
 10
805.2155065322
 20
-412.4098684316
 10
803.0784238709
 20
-412.0574088326
 10
800.8547331837
 20
-411.8354585662
 10
798.5843915135
 20
-411.7480058111
 10
796.3081941651
 20
-411.7966219882
 10
794.0670416627
 20
-411.9804335233
 10
791.9012048169
 20
-412.2961375444
 10
789.8496011068
 20
-412.7380612307
 10
787.9490953793
 20
-413.298263746
 10
786.2338374331
 20
-413.9666789258
 10
784.734648387
 20
-414.7312961546
 10
783.4784668621
 20
-415.578376182
 10
782.4878649272
 20
-416.4926980003
 10
781.7806425056
 20
-417.4578323478
  0
LWPOLYLINE
  5
294
330
1F
100
AcDbEntity
  8
0
  6
Continuous
 62
     7
370
    25
100
AcDbPolyline
 90
       21
 70
   128
 43
0.0
 10
891.3231256908
 20
-413.4186314241
 10
887.7972576218
 20
-414.6343021182
 10
884.0912683587
 20
-415.7385204544
 10
880.2228745599
 20
-416.7260076641
 10
876.2105692665
 20
-417.5920430178
 10
872.0735334954
 20
-418.3324863921
 10
867.8315445436
 20
-418.9437980621
 10
863.5048814416
 20
-419.4230556231
 10
859.1142280087
 20
-419.7679679617
 10
854.6805739732
 20
-419.9768862077
 10
850.2251146298
 20
-420.0488116178
 10
845.7691495144
 20
-419.9834003489
 10
841.3339805809
 20
-419.7809651027
 10
836.9408103659
 20
-419.4424736307
 10
832.6106406292
 20
-418.9695441074
 10
828.364171954
 20
-418.364437395
 10
824.2217047862
 20
-417.6300462351
 10
820.2030423879
 20
-416.7698814195
 10
816.3273961663
 20
-415.7880550072
 10
812.6132938331
 20
-414.6892606663
 10
809.0784908318
 20
-413.4787512355
  0
LWPOLYLINE
  5
295
330
1F
100
AcDbEntity
  8
0
  6
Continuous
 62
     7
370
    25
100
AcDbPolyline
 90
       31
 70
   128
 43
0.0
 10
962.917908865
 20
-553.9222492387
 10
956.2532666342
 20
-551.9966211738
 10
949.4219600296
 20
-550.1906372746
 10
942.4348040444
 20
-548.5071566874
 10
935.3028604048
 20
-546.9488446167
 10
928.037420058
 20
-545.5181681067
 10
920.6499852965
 20
-544.217392135
 10
913.1522515487
 20
-543.0485760271
 10
905.5560888626
 20
-542.0135701957
 10
897.8735231145
 20
-541.114013212
 10
890.1167169696
 20
-540.3513292109
 10
882.297950627
 20
-539.7267256368
 10
874.4296023782
 20
-539.2411913316
 10
866.5241290104
 20
-538.8954949697
 10
858.5940460852
 20
-538.6901838409
 10
850.6519081253
 20
-538.6255829837
 10
842.710288738
 20
-538.7017946712
 10
834.7817607097
 20
-538.9186982485
 10
826.8788761013
 20
-539.2759503247
 10
819.0141463761
 20
-539.7729853153
 10
811.2000225928
 20
-540.4090163389
 10
803.4488756927
 20
-541.183036462
 10
795.7729769157
 20
-542.0938202934
 10
788.1844783721
 20
-543.1399259244
 10
780.6953938045
 20
-544.3196972113
 10
773.3175795684
 20
-545.6312663974
 10
766.062715861
 20
-547.0725570702
 10
758.9422882307
 20
-548.641287448
 10
751.9675693929
 20
-550.3349739932
 10
745.149601384
 20
-552.1509353433
 10
738.4991780801
 20
-554.0862965565
  0
LWPOLYLINE
  5
296
330
1F
100
AcDbEntity
  8
0
  6
Continuous
 62
     7
370
    25
100
AcDbPolyline
 90
       31
 70
   128
 43
0.0
 10
738.4991780801
 20
-559.4579171492
 10
745.149601384
 20
-557.522555936
 10
751.9675693929
 20
-555.7065945859
 10
758.9422882307
 20
-554.0129080407
 10
766.062715861
 20
-552.4441776628
 10
773.3175795684
 20
-551.0028869901
 10
780.6953938045
 20
-549.6913178039
 10
788.1844783721
 20
-548.511546517
 10
795.7729769157
 20
-547.465440886
 10
803.4488756927
 20
-546.5546570546
 10
811.2000225928
 20
-545.7806369316
 10
819.0141463761
 20
-545.144605908
 10
826.8788761013
 20
-544.6475709173
 10
834.7817607097
 20
-544.2903188412
 10
842.710288738
 20
-544.0734152638
 10
850.6519081253
 20
-543.9972035764
 10
858.5940460852
 20
-544.0618044336
 10
866.5241290104
 20
-544.2671155624
 10
874.4296023782
 20
-544.6128119242
 10
882.297950627
 20
-545.0983462294
 10
890.1167169696
 20
-545.7229498036
 10
897.8735231145
 20
-546.4856338047
 10
905.5560888626
 20
-547.3851907884
 10
913.1522515487
 20
-548.4201966197
 10
920.6499852965
 20
-549.5890127277
 10
928.037420058
 20
-550.8897886994
 10
935.3028604048
 20
-552.3204652094
 10
942.4348040444
 20
-553.87877728
 10
949.4219600296
 20
-555.5622578673
 10
956.2532666342
 20
-557.3682417664
 10
962.917908865
 20
-559.2938698313
  0
LINE
  5
297
330
1F
100
AcDbEntity
  8
0
  6
Continuous
 62
     7
370
    25
100
AcDbLine
 10
366.5230237379
 20
-130.8106907818
 30
0.0
 11
370.5230237378
 21
-130.8106907818
 31
0.0
  0
LINE
  5
298
330
1F
100
AcDbEntity
  8
0
  6
Continuous
 62
     7
370
    25
100
AcDbLine
 10
370.5230237378
 20
419.1893092182
 30
0.0
 11
366.5230237379
 21
419.1893092182
 31
0.0
  0
ARC
  5
299
330
1F
100
AcDbEntity
  8
0
  6
Continuous
 62
     7
370
    25
100
AcDbCircle
 10
1264.2182449466
 20
-78.8725191286
 30
0.0
 40
99.82507122231878
100
AcDbArc
 50
356.2078999609
 51
359.7659332716
  0
ARC
  5
29A
330
1F
100
AcDbEntity
  8
0
  6
Continuous
 62
     7
370
    25
100
AcDbCircle
 10
444.0198112975
 20
368.251137565
 30
0.0
 40
99.82507122224038
100
AcDbArc
 50
176.2078999609
 51
179.7659332716
  0
ARC
  5
29B
330
1F
100
AcDbEntity
  8
0
  6
Continuous
 62
     7
370
    25
100
AcDbCircle
 10
441.4436802107
 20
-78.9842728068
 30
0.0
 40
97.24720458862122
100
AcDbArc
 50
180.1733082479
 51
183.8267824622
  0
ARC
  5
29C
330
1F
100
AcDbEntity
  8
0
  6
Continuous
 62
     7
370
    25
100
AcDbCircle
 10
1266.7943760333
 20
368.3628912432
 30
0.0
 40
97.24720458869471
100
AcDbArc
 50
0.1733082479
 51
3.8267824622
  0
LINE
  5
29D
330
1F
100
AcDbEntity
  8
0
  6
Continuous
 62
     7
370
    25
100
AcDbLine
 10
348.4355350743
 20
419.1893092182
 30
0.0
 11
347.7280006267
 21
411.1021534755
 31
0.0
  0
ELLIPSE
  5
29E
330
1F
100
AcDbEntity
  8
0
  6
Continuous
 62
     7
370
    25
100
AcDbEllipse
 10
342.7165265784
 20
411.1893092182
 30
0.0
 11
5.011479535986894
 21
-0.08705103151993397
 31
0.0
210
0.0
220
0.0
230
1.0
 40
0.0172806402
 41
4.718775326374483
 42
6.281975456623696
  0
LINE
  5
29F
330
1F
100
AcDbEntity
  8
0
  6
Continuous
 62
     7
370
    25
100
AcDbLine
 10
314.2990203395
 20
411.1021534755
 30
0.0
 11
342.7470271362
 21
411.1021534755
 31
0.0
  0
ELLIPSE
  5
2A0
330
1F
100
AcDbEntity
  8
0
  6
Continuous
 62
     7
370
    25
100
AcDbEllipse
 10
314.3295208973
 20
411.1893092182
 30
0.0
 11
5.01147953598695
 21
0.08705103151999083
 31
0.0
210
0.0
220
0.0
230
1.0
 40
0.0172806402
 41
3.142802504146639
 42
4.706002634394908
  0
LINE
  5
2A1
330
1F
100
AcDbEntity
  8
0
  6
Continuous
 62
     7
370
    25
100
AcDbLine
 10
309.318046849
 20
411.1021534755
 30
0.0
 11
308.6105124014
 21
419.1893092182
 31
0.0
  0
LINE
  5
2A2
330
1F
100
AcDbEntity
  8
0
  6
Continuous
 62
     7
370
    25
100
AcDbLine
 10
314.2990203395
 20
410.1893092182
 30
0.0
 11
310.3142415471
 21
410.1893092182
 31
0.0
  0
ARC
  5
2A3
330
1F
100
AcDbEntity
  8
0
  6
Continuous
 62
     7
370
    25
100
AcDbCircle
 10
310.3142415471
 20
411.1893092182
 30
0.0
 40
1.000000000000005
100
AcDbArc
 50
185.0
 51
270.0
  0
LINE
  5
2A4
330
1F
100
AcDbEntity
  8
0
  6
Continuous
 62
     7
370
    25
100
AcDbLine
 10
314.2990203395
 20
411.1021534755
 30
0.0
 11
314.2990203395
 21
410.1893092182
 31
0.0
  0
ARC
  5
2A5
330
1F
100
AcDbEntity
  8
0
  6
Continuous
 62
     7
370
    25
100
AcDbCircle
 10
346.7318059286
 20
411.1893092182
 30
0.0
 40
1.000000000000005
100
AcDbArc
 50
270.0
 51
355.0
  0
LINE
  5
2A6
330
1F
100
AcDbEntity
  8
0
  6
Continuous
 62
     7
370
    25
100
AcDbLine
 10
346.7318059286
 20
410.1893092182
 30
0.0
 11
342.7470271362
 21
410.1893092182
 31
0.0
  0
LINE
  5
2A7
330
1F
100
AcDbEntity
  8
0
  6
Continuous
 62
     7
370
    25
100
AcDbLine
 10
342.7470271362
 20
411.1021534755
 30
0.0
 11
342.7470271362
 21
410.1893092182
 31
0.0
  0
LINE
  5
2A8
330
1F
100
AcDbEntity
  8
0
  6
Continuous
 62
     7
370
    25
100
AcDbLine
 10
342.7470271362
 20
410.1893092182
 30
0.0
 11
314.2990203395
 21
410.1893092182
 31
0.0
  0
LINE
  5
2A9
330
1F
100
AcDbEntity
  8
0
  6
Continuous
 62
     7
370
    25
100
AcDbLine
 10
328.5230237378
 20
358.1893092182
 30
0.0
 11
314.1794791615
 21
358.1893092182
 31
0.0
  0
LINE
  5
2AA
330
1F
100
AcDbEntity
  8
0
  6
Continuous
 62
     7
370
    25
100
AcDbLine
 10
342.8665683142
 20
358.1893092182
 30
0.0
 11
328.5230237378
 21
358.1893092182
 31
0.0
  0
LINE
  5
2AB
330
1F
100
AcDbEntity
  8
0
  6
Continuous
 62
     7
370
    25
100
AcDbLine
 10
1359.7150325062
 20
-130.8106907818
 30
0.0
 11
1360.5100556174
 21
-121.723535039
 31
0.0
  0
ELLIPSE
  5
2AC
330
1F
100
AcDbEntity
  8
0
  6
Continuous
 62
     7
370
    25
100
AcDbEllipse
 10
1365.5215296657
 20
-121.8106907818
 30
0.0
 11
5.011479535986837
 21
-0.08705103151996241
 31
0.0
210
0.0
220
0.0
230
1.0
 40
0.0172806402
 41
1.577182672784672
 42
3.140382803032933
  0
LINE
  5
2AD
330
1F
100
AcDbEntity
  8
0
  6
Continuous
 62
     7
370
    25
100
AcDbLine
 10
1365.4910291079
 20
-121.723535039
 30
0.0
 11
1364.6960059967
 21
-130.8106907818
 31
0.0
  0
LINE
  5
2AE
330
1F
100
AcDbEntity
  8
0
  6
Continuous
 62
     7
370
    25
100
AcDbLine
 10
1393.9390359046
 20
-121.723535039
 30
0.0
 11
1365.4910291079
 21
-121.723535039
 31
0.0
  0
LINE
  5
2AF
330
1F
100
AcDbEntity
  8
0
  6
Continuous
 62
     7
370
    25
100
AcDbLine
 10
1394.7340590158
 20
-130.8106907818
 30
0.0
 11
1393.9390359046
 21
-121.723535039
 31
0.0
  0
ELLIPSE
  5
2B0
330
1F
100
AcDbEntity
  8
0
  6
Continuous
 62
     7
370
    25
100
AcDbEllipse
 10
1393.9085353468
 20
-121.8106907818
 30
0.0
 11
5.011479535987064
 21
0.0870510315199482
 31
0.0
210
0.0
220
0.0
230
1.0
 40
0.0172806402
 41
0.001209850557059
 42
1.564409980805167
  0
LINE
  5
2B1
330
1F
100
AcDbEntity
  8
0
  6
Continuous
 62
     7
370
    25
100
AcDbLine
 10
1398.9200093951
 20
-121.723535039
 30
0.0
 11
1399.7150325062
 21
-130.8106907818
 31
0.0
  0
LINE
  5
2B2
330
1F
100
AcDbEntity
  8
0
  6
Continuous
 62
     7
370
    25
100
AcDbLine
 10
1365.4910291079
 20
-121.723535039
 30
0.0
 11
1365.4910291079
 21
-120.8106907818
 31
0.0
  0
LINE
  5
2B3
330
1F
100
AcDbEntity
  8
0
  6
Continuous
 62
     7
370
    25
100
AcDbLine
 10
1365.4910291079
 20
-120.8106907818
 30
0.0
 11
1393.9390359046
 21
-120.8106907818
 31
0.0
  0
LINE
  5
2B4
330
1F
100
AcDbEntity
  8
0
  6
Continuous
 62
     7
370
    25
100
AcDbLine
 10
1393.9390359046
 20
-121.723535039
 30
0.0
 11
1393.9390359046
 21
-120.8106907818
 31
0.0
  0
LINE
  5
2B5
330
1F
100
AcDbEntity
  8
0
  6
Continuous
 62
     7
370
    25
100
AcDbLine
 10
1393.9390359046
 20
-120.8106907818
 30
0.0
 11
1397.923814697
 21
-120.8106907818
 31
0.0
  0
ARC
  5
2B6
330
1F
100
AcDbEntity
  8
0
  6
Continuous
 62
     7
370
    25
100
AcDbCircle
 10
1397.923814697
 20
-121.8106907818
 30
0.0
 40
1.000000000000066
100
AcDbArc
 50
5.0
 51
90.0
  0
ARC
  5
2B7
330
1F
100
AcDbEntity
  8
0
  6
Continuous
 62
     7
370
    25
100
AcDbCircle
 10
1361.5062503155
 20
-121.8106907818
 30
0.0
 40
1.0
100
AcDbArc
 50
90.0
 51
175.0
  0
LINE
  5
2B8
330
1F
100
AcDbEntity
  8
0
  6
Continuous
 62
     7
370
    25
100
AcDbLine
 10
1361.5062503155
 20
-120.8106907818
 30
0.0
 11
1365.4910291079
 21
-120.8106907818
 31
0.0
  0
LINE
  5
2B9
330
1F
100
AcDbEntity
  8
0
  6
Continuous
 62
     7
370
    25
100
AcDbLine
 10
1379.7150325062
 20
-68.8106907818
 30
0.0
 11
1394.0585770826
 21
-68.8106907818
 31
0.0
  0
LINE
  5
2BA
330
1F
100
AcDbEntity
  8
0
  6
Continuous
 62
     7
370
    25
100
AcDbLine
 10
1365.3714879299
 20
-68.8106907818
 30
0.0
 11
1379.7150325062
 21
-68.8106907818
 31
0.0
  0
ELLIPSE
  5
2BB
330
1F
100
AcDbEntity
  8
0
  6
Continuous
 62
     7
370
    25
100
AcDbEllipse
 10
1365.5215296657
 20
411.1893092182
 30
0.0
 11
5.011479535986837
 21
0.08705103151999082
 31
0.0
210
0.0
220
0.0
230
1.0
 40
0.0172806402
 41
3.142802504146639
 42
4.706002634394908
  0
LINE
  5
2BC
330
1F
100
AcDbEntity
  8
0
  6
Continuous
 62
     7
370
    25
100
AcDbLine
 10
1360.5100556174
 20
411.1021534755
 30
0.0
 11
1359.8025211698
 21
419.1893092182
 31
0.0
  0
LINE
  5
2BD
330
1F
100
AcDbEntity
  8
0
  6
Continuous
 62
     7
370
    25
100
AcDbLine
 10
1399.6275438427
 20
419.1893092182
 30
0.0
 11
1398.9200093951
 21
411.1021534755
 31
0.0
  0
ELLIPSE
  5
2BE
330
1F
100
AcDbEntity
  8
0
  6
Continuous
 62
     7
370
    25
100
AcDbEllipse
 10
1393.9085353468
 20
411.1893092182
 30
0.0
 11
5.011479535987064
 21
-0.08705103151993397
 31
0.0
210
0.0
220
0.0
230
1.0
 40
0.0172806402
 41
4.718775326374425
 42
6.281975456623645
  0
LINE
  5
2BF
330
1F
100
AcDbEntity
  8
0
  6
Continuous
 62
     7
370
    25
100
AcDbLine
 10
1365.4910291079
 20
411.1021534755
 30
0.0
 11
1393.9390359046
 21
411.1021534755
 31
0.0
  0
LINE
  5
2C0
330
1F
100
AcDbEntity
  8
0
  6
Continuous
 62
     7
370
    25
100
AcDbLine
 10
1393.9390359046
 20
410.1893092182
 30
0.0
 11
1365.4910291079
 21
410.1893092182
 31
0.0
  0
LINE
  5
2C1
330
1F
100
AcDbEntity
  8
0
  6
Continuous
 62
     7
370
    25
100
AcDbLine
 10
1365.4910291079
 20
410.1893092182
 30
0.0
 11
1365.4910291079
 21
411.1021534755
 31
0.0
  0
LINE
  5
2C2
330
1F
100
AcDbEntity
  8
0
  6
Continuous
 62
     7
370
    25
100
AcDbLine
 10
1393.9390359046
 20
410.1893092182
 30
0.0
 11
1393.9390359046
 21
411.1021534755
 31
0.0
  0
LINE
  5
2C3
330
1F
100
AcDbEntity
  8
0
  6
Continuous
 62
     7
370
    25
100
AcDbLine
 10
1365.4910291079
 20
410.1893092182
 30
0.0
 11
1361.5062503155
 21
410.1893092182
 31
0.0
  0
ARC
  5
2C4
330
1F
100
AcDbEntity
  8
0
  6
Continuous
 62
     7
370
    25
100
AcDbCircle
 10
1361.5062503155
 20
411.1893092182
 30
0.0
 40
1.0
100
AcDbArc
 50
185.0
 51
270.0
  0
LINE
  5
2C5
330
1F
100
AcDbEntity
  8
0
  6
Continuous
 62
     7
370
    25
100
AcDbLine
 10
1397.923814697
 20
410.1893092182
 30
0.0
 11
1393.9390359046
 21
410.1893092182
 31
0.0
  0
ARC
  5
2C6
330
1F
100
AcDbEntity
  8
0
  6
Continuous
 62
     7
370
    25
100
AcDbCircle
 10
1397.923814697
 20
411.1893092182
 30
0.0
 40
1.000000000000062
100
AcDbArc
 50
270.0
 51
355.0
  0
LINE
  5
2C7
330
1F
100
AcDbEntity
  8
0
  6
Continuous
 62
     7
370
    25
100
AcDbLine
 10
1394.0585770826
 20
358.1893092182
 30
0.0
 11
1365.3714879299
 21
358.1893092182
 31
0.0
  0
LINE
  5
2C8
330
1F
100
AcDbEntity
  8
0
  6
Continuous
 62
     7
370
    25
100
AcDbLine
 10
308.5230237378
 20
-130.8106907818
 30
0.0
 11
309.318046849
 21
-121.723535039
 31
0.0
  0
ELLIPSE
  5
2C9
330
1F
100
AcDbEntity
  8
0
  6
Continuous
 62
     7
370
    25
100
AcDbEllipse
 10
314.3295208973
 20
-121.8106907818
 30
0.0
 11
5.01147953598695
 21
-0.08705103151996241
 31
0.0
210
0.0
220
0.0
230
1.0
 40
0.0172806402
 41
1.577182672784673
 42
3.140382803032933
  0
LINE
  5
2CA
330
1F
100
AcDbEntity
  8
0
  6
Continuous
 62
     7
370
    25
100
AcDbLine
 10
314.2990203395
 20
-121.723535039
 30
0.0
 11
313.5039972283
 21
-130.8106907818
 31
0.0
  0
LINE
  5
2CB
330
1F
100
AcDbEntity
  8
0
  6
Continuous
 62
     7
370
    25
100
AcDbLine
 10
342.7470271362
 20
-121.723535039
 30
0.0
 11
314.2990203395
 21
-121.723535039
 31
0.0
  0
LINE
  5
2CC
330
1F
100
AcDbEntity
  8
0
  6
Continuous
 62
     7
370
    25
100
AcDbLine
 10
343.5420502474
 20
-130.8106907818
 30
0.0
 11
342.7470271362
 21
-121.723535039
 31
0.0
  0
ELLIPSE
  5
2CD
330
1F
100
AcDbEntity
  8
0
  6
Continuous
 62
     7
370
    25
100
AcDbEllipse
 10
342.7165265784
 20
-121.8106907818
 30
0.0
 11
5.011479535986894
 21
0.0870510315199482
 31
0.0
210
0.0
220
0.0
230
1.0
 40
0.0172806402
 41
0.0012098505570019
 42
1.56440998080511
  0
LINE
  5
2CE
330
1F
100
AcDbEntity
  8
0
  6
Continuous
 62
     7
370
    25
100
AcDbLine
 10
347.7280006267
 20
-121.723535039
 30
0.0
 11
348.5230237378
 21
-130.8106907818
 31
0.0
  0
LINE
  5
2CF
330
1F
100
AcDbEntity
  8
0
  6
Continuous
 62
     7
370
    25
100
AcDbLine
 10
310.3142415471
 20
-120.8106907818
 30
0.0
 11
314.2990203395
 21
-120.8106907818
 31
0.0
  0
LINE
  5
2D0
330
1F
100
AcDbEntity
  8
0
  6
Continuous
 62
     7
370
    25
100
AcDbLine
 10
314.2990203395
 20
-120.8106907818
 30
0.0
 11
314.2990203395
 21
-121.723535039
 31
0.0
  0
ARC
  5
2D1
330
1F
100
AcDbEntity
  8
0
  6
Continuous
 62
     7
370
    25
100
AcDbCircle
 10
310.3142415471
 20
-121.8106907818
 30
0.0
 40
1.000000000000009
100
AcDbArc
 50
90.0
 51
175.0
  0
LINE
  5
2D2
330
1F
100
AcDbEntity
  8
0
  6
Continuous
 62
     7
370
    25
100
AcDbLine
 10
342.7470271362
 20
-120.8106907818
 30
0.0
 11
346.7318059286
 21
-120.8106907818
 31
0.0
  0
ARC
  5
2D3
330
1F
100
AcDbEntity
  8
0
  6
Continuous
 62
     7
370
    25
100
AcDbCircle
 10
346.7318059286
 20
-121.8106907818
 30
0.0
 40
1.000000000000009
100
AcDbArc
 50
5.0
 51
90.0
  0
LINE
  5
2D4
330
1F
100
AcDbEntity
  8
0
  6
Continuous
 62
     7
370
    25
100
AcDbLine
 10
342.7470271362
 20
-120.8106907818
 30
0.0
 11
342.7470271362
 21
-121.723535039
 31
0.0
  0
LINE
  5
2D5
330
1F
100
AcDbEntity
  8
0
  6
Continuous
 62
     7
370
    25
100
AcDbLine
 10
314.2990203395
 20
-120.8106907818
 30
0.0
 11
342.7470271362
 21
-120.8106907818
 31
0.0
  0
LINE
  5
2D6
330
1F
100
AcDbEntity
  8
0
  6
Continuous
 62
     7
370
    25
100
AcDbLine
 10
314.1794791615
 20
-68.8106907818
 30
0.0
 11
342.8665683142
 21
-68.8106907818
 31
0.0
  0
LINE
  5
2D7
330
1F
100
AcDbEntity
  8
0
  6
Continuous
 62
     7
370
    25
100
AcDbLine
 10
1634.884517288
 20
431.1893092182
 30
0.0
 11
1634.884517288
 21
422.1893092182
 31
0.0
  0
LINE
  5
2D8
330
1F
100
AcDbEntity
  8
0
  6
Continuous
 62
     7
370
    25
100
AcDbLine
 10
1633.2669126204
 20
434.1893092182
 30
0.0
 11
1559.6011250408
 21
434.1893092182
 31
0.0
  0
LWPOLYLINE
  5
2D9
330
1F
100
AcDbEntity
  8
0
  6
Continuous
 62
     7
370
    25
100
AcDbPolyline
 90
        9
 70
   128
 43
0.0
 10
1634.884517288
 20
431.1893092182
 10
1634.8534354679
 20
431.7745801843
 10
1634.7613844645
 20
432.3373595153
 10
1634.6119017462
 20
432.8560199173
 10
1634.4107318502
 20
433.3106295618
 10
1634.1656056225
 20
433.6837180551
 10
1633.8859431268
 20
433.9609478157
 10
1633.5824916359
 20
434.1316650594
 10
1633.2669126204
 20
434.1893092182
  0
LWPOLYLINE
  5
2DA
330
1F
100
AcDbEntity
  8
0
  6
Continuous
 62
     7
370
    25
100
AcDbPolyline
 90
        9
 70
   128
 43
0.0
 10
1633.2669126204
 20
419.1893092182
 10
1633.5824916359
 20
419.246953377
 10
1633.8859431268
 20
419.4176706207
 10
1634.1656056225
 20
419.6949003813
 10
1634.4107318502
 20
420.0679888746
 10
1634.6119017462
 20
420.5225985191
 10
1634.7613844645
 20
421.0412589211
 10
1634.8534354679
 20
421.6040382522
 10
1634.884517288
 20
422.1893092182
  0
LINE
  5
2DB
330
1F
100
AcDbEntity
  8
0
  6
Continuous
 62
     7
370
    25
100
AcDbLine
 10
1731.9957386694
 20
434.1893092182
 30
0.0
 11
1633.2669126204
 21
434.1893092182
 31
0.0
  0
LINE
  5
2DC
330
1F
100
AcDbEntity
  8
0
  6
Continuous
 62
     7
370
    25
100
AcDbLine
 10
1691.0235587282
 20
419.1893092182
 30
0.0
 11
1731.9957386694
 21
419.1893092182
 31
0.0
  0
LINE
  5
2DD
330
1F
100
AcDbEntity
  8
0
  6
Continuous
 62
     7
370
    25
100
AcDbLine
 10
1362.7994437585
 20
404.1893092182
 30
0.0
 11
1231.6061855323
 21
404.1893092182
 31
0.0
  0
LINE
  5
2DE
330
1F
100
AcDbEntity
  8
0
  6
Continuous
 62
     7
370
    25
100
AcDbLine
 10
1396.7150325062
 20
404.1893092182
 30
0.0
 11
1690.7293978984
 21
404.1893092182
 31
0.0
  0
LINE
  5
2DF
330
1F
100
AcDbEntity
  8
0
  6
Continuous
 62
     7
370
    25
100
AcDbLine
 10
1417.8643429019
 20
419.1893092182
 30
0.0
 11
1690.720102266
 21
419.1893092182
 31
0.0
  0
LINE
  5
2E0
330
1F
100
AcDbEntity
  8
0
  6
Continuous
 62
     7
370
    25
100
AcDbLine
 10
1341.5657221105
 20
419.1893092182
 30
0.0
 11
1231.6392776648
 21
419.1893092182
 31
0.0
  0
LINE
  5
2E1
330
1F
100
AcDbEntity
  8
0
  6
Continuous
 62
     7
370
    25
100
AcDbLine
 10
1362.764522989
 20
-115.8106907818
 30
0.0
 11
1231.6061855323
 21
-115.8106907818
 31
0.0
  0
LINE
  5
2E2
330
1F
100
AcDbEntity
  8
0
  6
Continuous
 62
     7
370
    25
100
AcDbLine
 10
1396.7150325062
 20
-115.8106907818
 30
0.0
 11
1690.7293978984
 21
-115.8106907818
 31
0.0
  0
LINE
  5
2E3
330
1F
100
AcDbEntity
  8
0
  6
Continuous
 62
     7
370
    25
100
AcDbLine
 10
1417.8643529019
 20
-130.8106907818
 30
0.0
 11
1690.720102266
 21
-130.8106907818
 31
0.0
  0
LINE
  5
2E4
330
1F
100
AcDbEntity
  8
0
  6
Continuous
 62
     7
370
    25
100
AcDbLine
 10
1341.5657121105
 20
-130.8106907818
 30
0.0
 11
1231.6392776648
 21
-130.8106907818
 31
0.0
  0
LWPOLYLINE
  5
2E5
330
1F
100
AcDbEntity
  8
0
  6
Continuous
 62
     7
370
    25
100
AcDbPolyline
 90
        9
 70
   128
 43
0.0
 10
1633.2669126204
 20
-130.8106907818
 10
1633.5824916359
 20
-130.8683349406
 10
1633.8859431268
 20
-131.0390521843
 10
1634.1656056225
 20
-131.3162819449
 10
1634.4107318502
 20
-131.6893704382
 10
1634.6119017462
 20
-132.1439800827
 10
1634.7613844645
 20
-132.6626404847
 10
1634.8534354679
 20
-133.2254198157
 10
1634.884517288
 20
-133.8106907818
  0
LINE
  5
2E6
330
1F
100
AcDbEntity
  8
0
  6
Continuous
 62
     7
370
    25
100
AcDbLine
 10
1634.884517288
 20
-142.8106907818
 30
0.0
 11
1634.884517288
 21
-133.8106907818
 31
0.0
  0
LINE
  5
2E7
330
1F
100
AcDbEntity
  8
0
  6
Continuous
 62
     7
370
    25
100
AcDbLine
 10
1633.2669126204
 20
-145.8106907818
 30
0.0
 11
1559.6011250408
 21
-145.8106907818
 31
0.0
  0
LWPOLYLINE
  5
2E8
330
1F
100
AcDbEntity
  8
0
  6
Continuous
 62
     7
370
    25
100
AcDbPolyline
 90
        9
 70
   128
 43
0.0
 10
1634.884517288
 20
-142.8106907818
 10
1634.8534354679
 20
-143.3959617478
 10
1634.7613844645
 20
-143.9587410789
 10
1634.6119017462
 20
-144.4774014809
 10
1634.4107318502
 20
-144.9320111254
 10
1634.1656056225
 20
-145.3050996187
 10
1633.8859431268
 20
-145.5823293793
 10
1633.5824916359
 20
-145.753046623
 10
1633.2669126204
 20
-145.8106907818
  0
LINE
  5
2E9
330
1F
100
AcDbEntity
  8
0
  6
Continuous
 62
     7
370
    25
100
AcDbLine
 10
1691.0235587282
 20
-130.8106907818
 30
0.0
 11
1731.9957386694
 21
-130.8106907818
 31
0.0
  0
LINE
  5
2EA
330
1F
100
AcDbEntity
  8
0
  6
Continuous
 62
     7
370
    25
100
AcDbLine
 10
1731.9957386694
 20
-145.8106907818
 30
0.0
 11
1633.2669126204
 21
-145.8106907818
 31
0.0
  0
LINE
  5
2EB
330
1F
100
AcDbEntity
  8
0
  6
Continuous
 62
     7
370
    25
100
AcDbLine
 10
1416.7150325062
 20
-207.8106907818
 30
0.0
 11
1416.7150325062
 21
-133.8106907818
 31
0.0
  0
LINE
  5
2EC
330
1F
100
AcDbEntity
  8
0
  6
Continuous
 62
     7
370
    25
100
AcDbLine
 10
1416.7150325062
 20
-133.8106907818
 30
0.0
 11
1419.7150325062
 21
-132.8106907818
 31
0.0
  0
LINE
  5
2ED
330
1F
100
AcDbEntity
  8
0
  6
Continuous
 62
     7
370
    25
100
AcDbLine
 10
1419.7150325062
 20
-132.8106907818
 30
0.0
 11
1419.7150325062
 21
-208.8106907818
 31
0.0
  0
LINE
  5
2EE
330
1F
100
AcDbEntity
  8
0
  6
Continuous
 62
     7
370
    25
100
AcDbLine
 10
1416.7150325062
 20
-207.8106907818
 30
0.0
 11
1419.7150325062
 21
-208.8106907818
 31
0.0
  0
LINE
  5
2EF
330
1F
100
AcDbEntity
  8
0
  6
Continuous
 62
     7
370
    25
100
AcDbLine
 10
1339.7150325062
 20
-208.8106907818
 30
0.0
 11
1339.7150325062
 21
-132.8106907818
 31
0.0
  0
LINE
  5
2F0
330
1F
100
AcDbEntity
  8
0
  6
Continuous
 62
     7
370
    25
100
AcDbLine
 10
1339.7150325062
 20
-132.8106907818
 30
0.0
 11
1342.7150325062
 21
-133.8106907818
 31
0.0
  0
LINE
  5
2F1
330
1F
100
AcDbEntity
  8
0
  6
Continuous
 62
     7
370
    25
100
AcDbLine
 10
1342.7150325062
 20
-133.8106907818
 30
0.0
 11
1342.7150325062
 21
-207.8106907818
 31
0.0
  0
LINE
  5
2F2
330
1F
100
AcDbEntity
  8
0
  6
Continuous
 62
     7
370
    25
100
AcDbLine
 10
1339.7150325062
 20
-208.8106907818
 30
0.0
 11
1342.7150325062
 21
-207.8106907818
 31
0.0
  0
LINE
  5
2F3
330
1F
100
AcDbEntity
  8
0
  6
Continuous
 62
     7
370
    25
100
AcDbLine
 10
1416.7150325062
 20
-133.8106907818
 30
0.0
 11
1417.7150325062
 21
-130.8106907818
 31
0.0
  0
ARC
  5
2F4
330
1F
100
AcDbEntity
  8
0
  6
Continuous
 62
     7
370
    25
100
AcDbCircle
 10
1417.7150325062
 20
-132.8106907818
 30
0.0
 40
2.0
100
AcDbArc
 50
0.0
 51
90.0
  0
LINE
  5
2F5
330
1F
100
AcDbEntity
  8
0
  6
Continuous
 62
     7
370
    25
100
AcDbLine
 10
1416.7150325062
 20
-133.8106907818
 30
0.0
 11
1342.7150325062
 21
-133.8106907818
 31
0.0
  0
LINE
  5
2F6
330
1F
100
AcDbEntity
  8
0
  6
Continuous
 62
     7
370
    25
100
AcDbLine
 10
1341.7150325062
 20
-130.8106907818
 30
0.0
 11
1342.7150325062
 21
-133.8106907818
 31
0.0
  0
LINE
  5
2F7
330
1F
100
AcDbEntity
  8
0
  6
Continuous
 62
     7
370
    25
100
AcDbLine
 10
1341.7150325062
 20
-130.8106907818
 30
0.0
 11
1417.7150325062
 21
-130.8106907818
 31
0.0
  0
LINE
  5
2F8
330
1F
100
AcDbEntity
  8
0
  6
Continuous
 62
     7
370
    25
100
AcDbLine
 10
1342.7150325062
 20
-207.8106907818
 30
0.0
 11
1416.7150325062
 21
-207.8106907818
 31
0.0
  0
CIRCLE
  5
2F9
330
1F
100
AcDbEntity
  8
0
  6
Continuous
 62
     7
370
    25
100
AcDbCircle
 10
1379.7150325062
 20
-170.8106907818
 30
0.0
 40
1.0
  0
ARC
  5
2FA
330
1F
100
AcDbEntity
  8
0
  6
Continuous
 62
     7
370
    25
100
AcDbCircle
 10
1341.7150325062
 20
-132.8106907818
 30
0.0
 40
2.0
100
AcDbArc
 50
90.0
 51
180.0
  0
ARC
  5
2FB
330
1F
100
AcDbEntity
  8
0
  6
Continuous
 62
     7
370
    25
100
AcDbCircle
 10
1417.7150325062
 20
-208.8106907818
 30
0.0
 40
2.0
100
AcDbArc
 50
270.0
 51
0.0
  0
LINE
  5
2FC
330
1F
100
AcDbEntity
  8
0
  6
Continuous
 62
     7
370
    25
100
AcDbLine
 10
1416.7150325062
 20
-207.8106907818
 30
0.0
 11
1417.7150325062
 21
-210.8106907818
 31
0.0
  0
LINE
  5
2FD
330
1F
100
AcDbEntity
  8
0
  6
Continuous
 62
     7
370
    25
100
AcDbLine
 10
1341.7150325062
 20
-210.8106907818
 30
0.0
 11
1342.7150325062
 21
-207.8106907818
 31
0.0
  0
ARC
  5
2FE
330
1F
100
AcDbEntity
  8
0
  6
Continuous
 62
     7
370
    25
100
AcDbCircle
 10
1341.7150325062
 20
-208.8106907818
 30
0.0
 40
2.0
100
AcDbArc
 50
180.0
 51
270.0
  0
LINE
  5
2FF
330
1F
100
AcDbEntity
  8
0
  6
Continuous
 62
     7
370
    25
100
AcDbLine
 10
1417.7150325062
 20
-210.8106907818
 30
0.0
 11
1341.7150325062
 21
-210.8106907818
 31
0.0
  0
LINE
  5
300
330
1F
100
AcDbEntity
  8
0
  6
Continuous
 62
     7
370
    25
100
AcDbLine
 10
1341.7150325062
 20
499.1893092182
 30
0.0
 11
1342.7150325062
 21
496.1893092182
 31
0.0
  0
LINE
  5
301
330
1F
100
AcDbEntity
  8
0
  6
Continuous
 62
     7
370
    25
100
AcDbLine
 10
1339.7150325062
 20
497.1893092182
 30
0.0
 11
1342.7150325062
 21
496.1893092182
 31
0.0
  0
ARC
  5
302
330
1F
100
AcDbEntity
  8
0
  6
Continuous
 62
     7
370
    25
100
AcDbCircle
 10
1341.7150325062
 20
497.1893092182
 30
0.0
 40
2.0
100
AcDbArc
 50
90.0
 51
180.0
  0
LINE
  5
303
330
1F
100
AcDbEntity
  8
0
  6
Continuous
 62
     7
370
    25
100
AcDbLine
 10
1416.7150325062
 20
496.1893092182
 30
0.0
 11
1417.7150325062
 21
499.1893092182
 31
0.0
  0
ARC
  5
304
330
1F
100
AcDbEntity
  8
0
  6
Continuous
 62
     7
370
    25
100
AcDbCircle
 10
1417.7150325062
 20
497.1893092182
 30
0.0
 40
2.0
100
AcDbArc
 50
0.0
 51
90.0
  0
LINE
  5
305
330
1F
100
AcDbEntity
  8
0
  6
Continuous
 62
     7
370
    25
100
AcDbLine
 10
1416.7150325062
 20
496.1893092182
 30
0.0
 11
1419.7150325062
 21
497.1893092182
 31
0.0
  0
LINE
  5
306
330
1F
100
AcDbEntity
  8
0
  6
Continuous
 62
     7
370
    25
100
AcDbLine
 10
1339.7150325062
 20
421.1893092182
 30
0.0
 11
1339.7150325062
 21
497.1893092182
 31
0.0
  0
LINE
  5
307
330
1F
100
AcDbEntity
  8
0
  6
Continuous
 62
     7
370
    25
100
AcDbLine
 10
1342.7150325062
 20
496.1893092182
 30
0.0
 11
1342.7150325062
 21
422.1893092182
 31
0.0
  0
LINE
  5
308
330
1F
100
AcDbEntity
  8
0
  6
Continuous
 62
     7
370
    25
100
AcDbLine
 10
1339.7150325062
 20
421.1893092182
 30
0.0
 11
1342.7150325062
 21
422.1893092182
 31
0.0
  0
LINE
  5
309
330
1F
100
AcDbEntity
  8
0
  6
Continuous
 62
     7
370
    25
100
AcDbLine
 10
1342.7150325062
 20
422.1893092182
 30
0.0
 11
1416.7150325062
 21
422.1893092182
 31
0.0
  0
LINE
  5
30A
330
1F
100
AcDbEntity
  8
0
  6
Continuous
 62
     7
370
    25
100
AcDbLine
 10
1416.7150325062
 20
496.1893092182
 30
0.0
 11
1342.7150325062
 21
496.1893092182
 31
0.0
  0
LINE
  5
30B
330
1F
100
AcDbEntity
  8
0
  6
Continuous
 62
     7
370
    25
100
AcDbLine
 10
1416.7150325062
 20
422.1893092182
 30
0.0
 11
1416.7150325062
 21
496.1893092182
 31
0.0
  0
CIRCLE
  5
30C
330
1F
100
AcDbEntity
  8
0
  6
Continuous
 62
     7
370
    25
100
AcDbCircle
 10
1379.7150325062
 20
459.1893092182
 30
0.0
 40
1.0
  0
LINE
  5
30D
330
1F
100
AcDbEntity
  8
0
  6
Continuous
 62
     7
370
    25
100
AcDbLine
 10
1419.7150325062
 20
497.1893092182
 30
0.0
 11
1419.7150325062
 21
421.1893092182
 31
0.0
  0
LINE
  5
30E
330
1F
100
AcDbEntity
  8
0
  6
Continuous
 62
     7
370
    25
100
AcDbLine
 10
1416.7150325062
 20
422.1893092182
 30
0.0
 11
1419.7150325062
 21
421.1893092182
 31
0.0
  0
LINE
  5
30F
330
1F
100
AcDbEntity
  8
0
  6
Continuous
 62
     7
370
    25
100
AcDbLine
 10
1341.7150325062
 20
499.1893092182
 30
0.0
 11
1417.7150325062
 21
499.1893092182
 31
0.0
  0
LINE
  5
310
330
1F
100
AcDbEntity
  8
0
  6
Continuous
 62
     7
370
    25
100
AcDbLine
 10
1341.7150325062
 20
419.1893092182
 30
0.0
 11
1342.7150325062
 21
422.1893092182
 31
0.0
  0
ARC
  5
311
330
1F
100
AcDbEntity
  8
0
  6
Continuous
 62
     7
370
    25
100
AcDbCircle
 10
1341.7150325062
 20
421.1893092182
 30
0.0
 40
2.0
100
AcDbArc
 50
180.0
 51
270.0
  0
ARC
  5
312
330
1F
100
AcDbEntity
  8
0
  6
Continuous
 62
     7
370
    25
100
AcDbCircle
 10
1417.7150325062
 20
421.1893092182
 30
0.0
 40
2.0
100
AcDbArc
 50
270.0
 51
0.0
  0
LINE
  5
313
330
1F
100
AcDbEntity
  8
0
  6
Continuous
 62
     7
370
    25
100
AcDbLine
 10
1416.7150325062
 20
422.1893092182
 30
0.0
 11
1417.7150325062
 21
419.1893092182
 31
0.0
  0
LINE
  5
314
330
1F
100
AcDbEntity
  8
0
  6
Continuous
 62
     7
370
    25
100
AcDbLine
 10
1417.7150325062
 20
419.1893092182
 30
0.0
 11
1341.7150325062
 21
419.1893092182
 31
0.0
  0
LINE
  5
315
330
1F
100
AcDbEntity
  8
0
  6
Continuous
 62
     7
370
    25
100
AcDbLine
 10
368.5230237379
 20
497.1893092182
 30
0.0
 11
365.5230237379
 21
496.1893092182
 31
0.0
  0
LINE
  5
316
330
1F
100
AcDbEntity
  8
0
  6
Continuous
 62
     7
370
    25
100
AcDbLine
 10
366.5230237379
 20
499.1893092182
 30
0.0
 11
365.5230237379
 21
496.1893092182
 31
0.0
  0
ARC
  5
317
330
1F
100
AcDbEntity
  8
0
  6
Continuous
 62
     7
370
    25
100
AcDbCircle
 10
366.5230237379
 20
497.1893092182
 30
0.0
 40
2.0
100
AcDbArc
 50
0.0
 51
90.0
  0
LINE
  5
318
330
1F
100
AcDbEntity
  8
0
  6
Continuous
 62
     7
370
    25
100
AcDbLine
 10
291.5230237379
 20
496.1893092182
 30
0.0
 11
291.5230237379
 21
422.1893092182
 31
0.0
  0
LINE
  5
319
330
1F
100
AcDbEntity
  8
0
  6
Continuous
 62
     7
370
    25
100
AcDbLine
 10
291.5230237379
 20
422.1893092182
 30
0.0
 11
288.5230237379
 21
421.1893092182
 31
0.0
  0
LINE
  5
31A
330
1F
100
AcDbEntity
  8
0
  6
Continuous
 62
     7
370
    25
100
AcDbLine
 10
288.5230237379
 20
421.1893092182
 30
0.0
 11
288.5230237379
 21
497.1893092182
 31
0.0
  0
LINE
  5
31B
330
1F
100
AcDbEntity
  8
0
  6
Continuous
 62
     7
370
    25
100
AcDbLine
 10
291.5230237379
 20
496.1893092182
 30
0.0
 11
288.5230237379
 21
497.1893092182
 31
0.0
  0
LINE
  5
31C
330
1F
100
AcDbEntity
  8
0
  6
Continuous
 62
     7
370
    25
100
AcDbLine
 10
368.5230237379
 20
497.1893092182
 30
0.0
 11
368.5230237379
 21
421.1893092182
 31
0.0
  0
LINE
  5
31D
330
1F
100
AcDbEntity
  8
0
  6
Continuous
 62
     7
370
    25
100
AcDbLine
 10
368.5230237379
 20
421.1893092182
 30
0.0
 11
365.5230237379
 21
422.1893092182
 31
0.0
  0
LINE
  5
31E
330
1F
100
AcDbEntity
  8
0
  6
Continuous
 62
     7
370
    25
100
AcDbLine
 10
365.5230237379
 20
422.1893092182
 30
0.0
 11
365.5230237379
 21
496.1893092182
 31
0.0
  0
LINE
  5
31F
330
1F
100
AcDbEntity
  8
0
  6
Continuous
 62
     7
370
    25
100
AcDbLine
 10
365.5230237379
 20
496.1893092182
 30
0.0
 11
291.5230237379
 21
496.1893092182
 31
0.0
  0
LINE
  5
320
330
1F
100
AcDbEntity
  8
0
  6
Continuous
 62
     7
370
    25
100
AcDbLine
 10
291.5230237379
 20
422.1893092182
 30
0.0
 11
365.5230237379
 21
422.1893092182
 31
0.0
  0
CIRCLE
  5
321
330
1F
100
AcDbEntity
  8
0
  6
Continuous
 62
     7
370
    25
100
AcDbCircle
 10
328.5230237379
 20
459.1893092182
 30
0.0
 40
1.0
  0
ARC
  5
322
330
1F
100
AcDbEntity
  8
0
  6
Continuous
 62
     7
370
    25
100
AcDbCircle
 10
290.5230237379
 20
497.1893092182
 30
0.0
 40
2.0
100
AcDbArc
 50
90.0
 51
180.0
  0
LINE
  5
323
330
1F
100
AcDbEntity
  8
0
  6
Continuous
 62
     7
370
    25
100
AcDbLine
 10
291.5230237379
 20
496.1893092182
 30
0.0
 11
290.5230237379
 21
499.1893092182
 31
0.0
  0
LINE
  5
324
330
1F
100
AcDbEntity
  8
0
  6
Continuous
 62
     7
370
    25
100
AcDbLine
 10
290.5230237379
 20
499.1893092182
 30
0.0
 11
366.5230237379
 21
499.1893092182
 31
0.0
  0
LINE
  5
325
330
1F
100
AcDbEntity
  8
0
  6
Continuous
 62
     7
370
    25
100
AcDbLine
 10
291.5230237379
 20
422.1893092182
 30
0.0
 11
290.5230237379
 21
419.1893092182
 31
0.0
  0
ARC
  5
326
330
1F
100
AcDbEntity
  8
0
  6
Continuous
 62
     7
370
    25
100
AcDbCircle
 10
290.5230237379
 20
421.1893092182
 30
0.0
 40
2.0
100
AcDbArc
 50
180.0
 51
270.0
  0
LINE
  5
327
330
1F
100
AcDbEntity
  8
0
  6
Continuous
 62
     7
370
    25
100
AcDbLine
 10
366.5230237379
 20
419.1893092182
 30
0.0
 11
365.5230237379
 21
422.1893092182
 31
0.0
  0
LINE
  5
328
330
1F
100
AcDbEntity
  8
0
  6
Continuous
 62
     7
370
    25
100
AcDbLine
 10
366.5230237379
 20
419.1893092182
 30
0.0
 11
290.5230237379
 21
419.1893092182
 31
0.0
  0
ARC
  5
329
330
1F
100
AcDbEntity
  8
0
  6
Continuous
 62
     7
370
    25
100
AcDbCircle
 10
366.5230237379
 20
421.1893092182
 30
0.0
 40
2.0
100
AcDbArc
 50
270.0
 51
0.0
  0
LINE
  5
32A
330
1F
100
AcDbEntity
  8
0
  6
Continuous
 62
     7
370
    25
100
AcDbLine
 10
291.5230237379
 20
-133.8106907818
 30
0.0
 11
291.5230237379
 21
-207.8106907818
 31
0.0
  0
LINE
  5
32B
330
1F
100
AcDbEntity
  8
0
  6
Continuous
 62
     7
370
    25
100
AcDbLine
 10
291.5230237379
 20
-207.8106907818
 30
0.0
 11
288.5230237379
 21
-208.8106907818
 31
0.0
  0
LINE
  5
32C
330
1F
100
AcDbEntity
  8
0
  6
Continuous
 62
     7
370
    25
100
AcDbLine
 10
288.5230237379
 20
-208.8106907818
 30
0.0
 11
288.5230237379
 21
-132.8106907818
 31
0.0
  0
LINE
  5
32D
330
1F
100
AcDbEntity
  8
0
  6
Continuous
 62
     7
370
    25
100
AcDbLine
 10
291.5230237379
 20
-133.8106907818
 30
0.0
 11
288.5230237379
 21
-132.8106907818
 31
0.0
  0
LINE
  5
32E
330
1F
100
AcDbEntity
  8
0
  6
Continuous
 62
     7
370
    25
100
AcDbLine
 10
368.5230237379
 20
-132.8106907818
 30
0.0
 11
368.5230237379
 21
-208.8106907818
 31
0.0
  0
LINE
  5
32F
330
1F
100
AcDbEntity
  8
0
  6
Continuous
 62
     7
370
    25
100
AcDbLine
 10
368.5230237379
 20
-208.8106907818
 30
0.0
 11
365.5230237379
 21
-207.8106907818
 31
0.0
  0
LINE
  5
330
330
1F
100
AcDbEntity
  8
0
  6
Continuous
 62
     7
370
    25
100
AcDbLine
 10
365.5230237379
 20
-207.8106907818
 30
0.0
 11
365.5230237379
 21
-133.8106907818
 31
0.0
  0
LINE
  5
331
330
1F
100
AcDbEntity
  8
0
  6
Continuous
 62
     7
370
    25
100
AcDbLine
 10
368.5230237379
 20
-132.8106907818
 30
0.0
 11
365.5230237379
 21
-133.8106907818
 31
0.0
  0
LINE
  5
332
330
1F
100
AcDbEntity
  8
0
  6
Continuous
 62
     7
370
    25
100
AcDbLine
 10
366.5230237379
 20
-130.8106907818
 30
0.0
 11
365.5230237379
 21
-133.8106907818
 31
0.0
  0
ARC
  5
333
330
1F
100
AcDbEntity
  8
0
  6
Continuous
 62
     7
370
    25
100
AcDbCircle
 10
366.5230237379
 20
-132.8106907818
 30
0.0
 40
2.0
100
AcDbArc
 50
0.0
 51
90.0
  0
ARC
  5
334
330
1F
100
AcDbEntity
  8
0
  6
Continuous
 62
     7
370
    25
100
AcDbCircle
 10
290.5230237379
 20
-132.8106907818
 30
0.0
 40
2.0
100
AcDbArc
 50
90.0
 51
180.0
  0
LINE
  5
335
330
1F
100
AcDbEntity
  8
0
  6
Continuous
 62
     7
370
    25
100
AcDbLine
 10
291.5230237379
 20
-133.8106907818
 30
0.0
 11
290.5230237379
 21
-130.8106907818
 31
0.0
  0
LINE
  5
336
330
1F
100
AcDbEntity
  8
0
  6
Continuous
 62
     7
370
    25
100
AcDbLine
 10
365.5230237379
 20
-133.8106907818
 30
0.0
 11
291.5230237379
 21
-133.8106907818
 31
0.0
  0
LINE
  5
337
330
1F
100
AcDbEntity
  8
0
  6
Continuous
 62
     7
370
    25
100
AcDbLine
 10
291.5230237379
 20
-207.8106907818
 30
0.0
 11
365.5230237379
 21
-207.8106907818
 31
0.0
  0
CIRCLE
  5
338
330
1F
100
AcDbEntity
  8
0
  6
Continuous
 62
     7
370
    25
100
AcDbCircle
 10
328.5230237379
 20
-170.8106907818
 30
0.0
 40
1.0
  0
LINE
  5
339
330
1F
100
AcDbEntity
  8
0
  6
Continuous
 62
     7
370
    25
100
AcDbLine
 10
290.5230237379
 20
-130.8106907818
 30
0.0
 11
366.5230237379
 21
-130.8106907818
 31
0.0
  0
LINE
  5
33A
330
1F
100
AcDbEntity
  8
0
  6
Continuous
 62
     7
370
    25
100
AcDbLine
 10
366.5230237379
 20
-210.8106907818
 30
0.0
 11
365.5230237379
 21
-207.8106907818
 31
0.0
  0
LINE
  5
33B
330
1F
100
AcDbEntity
  8
0
  6
Continuous
 62
     7
370
    25
100
AcDbLine
 10
366.5230237379
 20
-210.8106907818
 30
0.0
 11
290.5230237379
 21
-210.8106907818
 31
0.0
  0
LINE
  5
33C
330
1F
100
AcDbEntity
  8
0
  6
Continuous
 62
     7
370
    25
100
AcDbLine
 10
291.5230237379
 20
-207.8106907818
 30
0.0
 11
290.5230237379
 21
-210.8106907818
 31
0.0
  0
ARC
  5
33D
330
1F
100
AcDbEntity
  8
0
  6
Continuous
 62
     7
370
    25
100
AcDbCircle
 10
290.5230237379
 20
-208.8106907818
 30
0.0
 40
2.0
100
AcDbArc
 50
180.0
 51
270.0
  0
ARC
  5
33E
330
1F
100
AcDbEntity
  8
0
  6
Continuous
 62
     7
370
    25
100
AcDbCircle
 10
366.5230237379
 20
-208.8106907818
 30
0.0
 40
2.0
100
AcDbArc
 50
270.0
 51
0.0
  0
LINE
  5
33F
330
1F
100
AcDbEntity
  8
0
  6
Continuous
 62
     7
370
    25
100
AcDbLine
 10
-1326.0419496972
 20
404.1893092182
 30
0.0
 11
311.5230237378
 21
404.1893092182
 31
0.0
  0
ARC
  5
340
330
1F
100
AcDbEntity
  8
0
  6
Continuous
 62
     7
370
    25
100
AcDbCircle
 10
-1326.0418027722
 20
407.1891623076
 30
0.0
 40
2.999853092986923
100
AcDbArc
 50
179.9971940766
 51
269.9971938017
  0
LINE
  5
341
330
1F
100
AcDbEntity
  8
0
  6
Continuous
 62
     7
370
    25
100
AcDbLine
 10
-1329.0416558616
 20
416.1893092182
 30
0.0
 11
-1329.0416558616
 21
407.1893092182
 31
0.0
  0
LINE
  5
342
330
1F
100
AcDbEntity
  8
0
  6
Continuous
 62
     7
370
    25
100
AcDbLine
 10
-1329.0416558616
 20
416.1893092182
 30
0.0
 11
-1291.0750596471
 21
416.1893092182
 31
0.0
  0
LINE
  5
343
330
1F
100
AcDbEntity
  8
0
  6
Continuous
 62
     7
370
    25
100
AcDbLine
 10
-1291.0750596471
 20
416.1893092182
 30
0.0
 11
-1291.0750596471
 21
413.1893092182
 31
0.0
  0
LINE
  5
344
330
1F
100
AcDbEntity
  8
0
  6
Continuous
 62
     7
370
    25
100
AcDbLine
 10
-1291.0750596471
 20
413.1893092182
 30
0.0
 11
-1274.93027585
 21
413.1893092182
 31
0.0
  0
LINE
  5
345
330
1F
100
AcDbEntity
  8
0
  6
Continuous
 62
     7
370
    25
100
AcDbLine
 10
-1274.93027585
 20
413.1893092182
 30
0.0
 11
-1274.93027585
 21
416.1893092182
 31
0.0
  0
LWPOLYLINE
  5
346
330
1F
100
AcDbEntity
  8
0
  6
Continuous
 62
     7
370
    25
100
AcDbPolyline
 90
        3
 70
   128
 43
0.0
 10
-1275.040740613
 20
416.8351069536
 10
-1274.932405009
 20
416.1970593378
 10
-1274.93027585
 20
416.1893092182
  0
ARC
  5
347
330
1F
100
AcDbEntity
  8
0
  6
Continuous
 62
     7
370
    25
100
AcDbCircle
 10
-1278.9448776661
 20
417.0301760168
 30
0.0
 40
3.909007299636595
100
AcDbArc
 50
357.1396118862
 51
33.5282599002
  0
LINE
  5
348
330
1F
100
AcDbEntity
  8
0
  6
Continuous
 62
     7
370
    25
100
AcDbLine
 10
290.5230237379
 20
419.1893092182
 30
0.0
 11
-1275.6862764498
 21
419.1893092182
 31
0.0
  0
LWPOLYLINE
  5
349
330
1F
100
AcDbEntity
  8
0
  6
Continuous
 62
     7
370
    25
100
AcDbPolyline
 90
        3
 70
   128
 43
0.0
 10
-1275.040740613
 20
413.8351069536
 10
-1274.932405009
 20
413.1970593378
 10
-1274.93027585
 20
413.1893092182
  0
LINE
  5
34A
330
1F
100
AcDbEntity
  8
0
  6
Continuous
 62
     7
370
    25
100
AcDbLine
 10
-1275.040740613
 20
416.8351069536
 30
0.0
 11
-1275.040740613
 21
413.8351069536
 31
0.0
  0
ARC
  5
34B
330
1F
100
AcDbEntity
  8
0
  6
Continuous
 62
     7
370
    25
100
AcDbCircle
 10
-1287.2917797062
 20
412.3084030898
 30
0.0
 40
3.88448229732647
100
AcDbArc
 50
92.4587444541
 51
166.8926832536
  0
ARC
  5
34C
330
1F
100
AcDbEntity
  8
0
  6
Continuous
 62
     7
370
    25
100
AcDbCircle
 10
-1279.0845242577
 20
413.991884116
 30
0.0
 40
4.046821622459822
100
AcDbArc
 50
357.7797592704
 51
32.8881125159
  0
LINE
  5
34D
330
1F
100
AcDbEntity
  8
0
  6
Continuous
 62
     7
370
    25
100
AcDbLine
 10
-1275.6862764498
 20
416.1893092182
 30
0.0
 11
-1287.4584240602
 21
416.1893092182
 31
0.0
  0
LINE
  5
34E
330
1F
100
AcDbEntity
  8
0
  6
Continuous
 62
     7
370
    25
100
AcDbLine
 10
-1276.0212569119
 20
419.1893092182
 30
0.0
 11
-1275.6862764498
 21
419.1893092182
 31
0.0
  0
ARC
  5
34F
330
1F
100
AcDbEntity
  8
0
  6
Continuous
 62
     7
370
    25
100
AcDbCircle
 10
-1287.2917797106
 20
415.3084030951
 30
0.0
 40
3.884482291865302
100
AcDbArc
 50
92.458744393
 51
166.8926833148
  0
LINE
  5
350
330
1F
100
AcDbEntity
  8
0
  6
Continuous
 62
     7
370
    25
100
AcDbLine
 10
-1285.1616816099
 20
416.1893092182
 30
0.0
 11
-1285.1616816099
 21
419.1893092182
 31
0.0
  0
LINE
  5
351
330
1F
100
AcDbEntity
  8
0
  6
Continuous
 62
     7
370
    25
100
AcDbLine
 10
-1285.1616816099
 20
419.1893092182
 30
0.0
 11
-1287.4584240602
 21
419.1893092182
 31
0.0
  0
ARC
  5
352
330
1F
100
AcDbEntity
  8
0
  6
Continuous
 62
     7
370
    25
100
AcDbCircle
 10
-1326.0418027722
 20
416.1894561288
 30
0.0
 40
2.999853092986639
100
AcDbArc
 50
90.0028061982
 51
180.0028059234
  0
LINE
  5
353
330
1F
100
AcDbEntity
  8
0
  6
Continuous
 62
     7
370
    25
100
AcDbLine
 10
-1287.4584240602
 20
419.1893092182
 30
0.0
 11
-1326.0419496972
 21
419.1893092182
 31
0.0
  0
LINE
  5
354
330
1F
100
AcDbEntity
  8
0
  6
Continuous
 62
     7
370
    25
100
AcDbLine
 10
-1285.1616816099
 20
419.1893092182
 30
0.0
 11
-1276.0212569119
 21
419.1893092182
 31
0.0
  0
LINE
  5
355
330
1F
100
AcDbEntity
  8
0
  6
Continuous
 62
     7
370
    25
100
AcDbLine
 10
-1326.0419496972
 20
-115.8106907818
 30
0.0
 11
311.5230237378
 21
-115.8106907818
 31
0.0
  0
ARC
  5
356
330
1F
100
AcDbEntity
  8
0
  6
Continuous
 62
     7
370
    25
100
AcDbCircle
 10
-1326.0418027722
 20
-118.8105438712
 30
0.0
 40
2.999853092986787
100
AcDbArc
 50
90.0028061983
 51
180.0028059234
  0
LINE
  5
357
330
1F
100
AcDbEntity
  8
0
  6
Continuous
 62
     7
370
    25
100
AcDbLine
 10
290.5230237379
 20
-130.8106907818
 30
0.0
 11
-1275.6862764498
 21
-130.8106907818
 31
0.0
  0
ARC
  5
358
330
1F
100
AcDbEntity
  8
0
  6
Continuous
 62
     7
370
    25
100
AcDbCircle
 10
-1278.9448776661
 20
-128.6515575804
 30
0.0
 40
3.909007299636809
100
AcDbArc
 50
326.4717400998
 51
2.8603881138
  0
LWPOLYLINE
  5
359
330
1F
100
AcDbEntity
  8
0
  6
Continuous
 62
     7
370
    25
100
AcDbPolyline
 90
        3
 70
   128
 43
0.0
 10
-1275.040740613
 20
-128.4564885172
 10
-1274.932405009
 20
-127.8184409014
 10
-1274.93027585
 20
-127.8106907818
  0
LINE
  5
35A
330
1F
100
AcDbEntity
  8
0
  6
Continuous
 62
     7
370
    25
100
AcDbLine
 10
-1274.93027585
 20
-124.8106907818
 30
0.0
 11
-1274.93027585
 21
-127.8106907818
 31
0.0
  0
LINE
  5
35B
330
1F
100
AcDbEntity
  8
0
  6
Continuous
 62
     7
370
    25
100
AcDbLine
 10
-1291.0750596471
 20
-124.8106907818
 30
0.0
 11
-1274.93027585
 21
-124.8106907818
 31
0.0
  0
LINE
  5
35C
330
1F
100
AcDbEntity
  8
0
  6
Continuous
 62
     7
370
    25
100
AcDbLine
 10
-1291.0750596471
 20
-127.8106907818
 30
0.0
 11
-1291.0750596471
 21
-124.8106907818
 31
0.0
  0
LINE
  5
35D
330
1F
100
AcDbEntity
  8
0
  6
Continuous
 62
     7
370
    25
100
AcDbLine
 10
-1329.0416558616
 20
-127.8106907818
 30
0.0
 11
-1291.0750596471
 21
-127.8106907818
 31
0.0
  0
LINE
  5
35E
330
1F
100
AcDbEntity
  8
0
  6
Continuous
 62
     7
370
    25
100
AcDbLine
 10
-1329.0416558616
 20
-127.8106907818
 30
0.0
 11
-1329.0416558616
 21
-118.8106907818
 31
0.0
  0
LINE
  5
35F
330
1F
100
AcDbEntity
  8
0
  6
Continuous
 62
     7
370
    25
100
AcDbLine
 10
-1275.040740613
 20
-128.4564885172
 30
0.0
 11
-1275.040740613
 21
-125.4564885172
 31
0.0
  0
LWPOLYLINE
  5
360
330
1F
100
AcDbEntity
  8
0
  6
Continuous
 62
     7
370
    25
100
AcDbPolyline
 90
        3
 70
   128
 43
0.0
 10
-1275.040740613
 20
-125.4564885172
 10
-1274.932405009
 20
-124.8184409014
 10
-1274.93027585
 20
-124.8106907818
  0
ARC
  5
361
330
1F
100
AcDbEntity
  8
0
  6
Continuous
 62
     7
370
    25
100
AcDbCircle
 10
-1279.0845242577
 20
-125.6132656796
 30
0.0
 40
4.046821622460257
100
AcDbArc
 50
327.1118874841
 51
2.2202407296
  0
ARC
  5
362
330
1F
100
AcDbEntity
  8
0
  6
Continuous
 62
     7
370
    25
100
AcDbCircle
 10
-1287.2917797062
 20
-123.9297846534
 30
0.0
 40
3.884482297331606
100
AcDbArc
 50
193.1073167464
 51
267.5412555458
  0
LINE
  5
363
330
1F
100
AcDbEntity
  8
0
  6
Continuous
 62
     7
370
    25
100
AcDbLine
 10
-1275.6862764498
 20
-127.8106907818
 30
0.0
 11
-1287.4584240602
 21
-127.8106907818
 31
0.0
  0
LINE
  5
364
330
1F
100
AcDbEntity
  8
0
  6
Continuous
 62
     7
370
    25
100
AcDbLine
 10
-1276.0212569119
 20
-130.8106907818
 30
0.0
 11
-1275.6862764498
 21
-130.8106907818
 31
0.0
  0
LINE
  5
365
330
1F
100
AcDbEntity
  8
0
  6
Continuous
 62
     7
370
    25
100
AcDbLine
 10
-1285.1616816099
 20
-127.8106907818
 30
0.0
 11
-1285.1616816099
 21
-130.8106907818
 31
0.0
  0
ARC
  5
366
330
1F
100
AcDbEntity
  8
0
  6
Continuous
 62
     7
370
    25
100
AcDbCircle
 10
-1287.2917797106
 20
-126.9297846587
 30
0.0
 40
3.884482291867327
100
AcDbArc
 50
193.1073166852
 51
267.541255607
  0
LINE
  5
367
330
1F
100
AcDbEntity
  8
0
  6
Continuous
 62
     7
370
    25
100
AcDbLine
 10
-1285.1616816099
 20
-130.8106907818
 30
0.0
 11
-1287.4584240602
 21
-130.8106907818
 31
0.0
  0
ARC
  5
368
330
1F
100
AcDbEntity
  8
0
  6
Continuous
 62
     7
370
    25
100
AcDbCircle
 10
-1326.0418027722
 20
-127.8108376924
 30
0.0
 40
2.999853092986787
100
AcDbArc
 50
179.9971940766
 51
269.9971938017
  0
LINE
  5
369
330
1F
100
AcDbEntity
  8
0
  6
Continuous
 62
     7
370
    25
100
AcDbLine
 10
-1287.4584240602
 20
-130.8106907818
 30
0.0
 11
-1326.0419496972
 21
-130.8106907818
 31
0.0
  0
LINE
  5
36A
330
1F
100
AcDbEntity
  8
0
  6
Continuous
 62
     7
370
    25
100
AcDbLine
 10
-1285.1616816099
 20
-130.8106907818
 30
0.0
 11
-1276.0212569119
 21
-130.8106907818
 31
0.0
  0
LINE
  5
36B
330
1F
100
AcDbEntity
  8
0
  6
Continuous
 62
     7
370
    25
100
AcDbLine
 10
-1829.0430042383
 20
-1115.8106907818
 30
0.0
 11
-1500.0687125391
 21
-1115.8106907818
 31
0.0
  0
LWPOLYLINE
  5
36C
330
1F
100
AcDbEntity
  8
0
  6
Continuous
 62
     7
370
    25
100
AcDbPolyline
 90
       52
 70
   128
 43
0.0
 10
-2829.0430011032
 20
-115.8106907818
 10
-2828.651712169
 20
-143.7825474206
 10
-2827.4604918521
 20
-172.0469262225
 10
-2825.4441211549
 20
-200.5739374291
 10
-2822.5786062433
 20
-229.3316199492
 10
-2818.8413602827
 20
-258.2859806705
 10
-2814.3020075835
 20
-286.8799464663
 10
-2808.8832932282
 20
-315.5930775232
 10
-2802.5688057298
 20
-344.3878285005
 10
-2795.3441118346
 20
-373.2250718941
 10
-2787.0209640441
 20
-402.6524987039
 10
-2777.726668322
 20
-432.037349774
 10
-2767.4532415393
 20
-461.3338028988
 10
-2756.1954728909
 20
-490.4949505011
 10
-2743.951050435
 20
-519.4730023194
 10
-2730.7206703921
 20
-548.2195034366
 10
-2716.5081271943
 20
-576.6855659901
 10
-2701.3203824521
 20
-604.8221126173
 10
-2685.1676112283
 20
-632.58012942
 10
-2668.0632242706
 20
-659.9109259986
 10
-2650.0238651604
 20
-686.7663998989
 10
-2631.0693816669
 20
-713.0993026567
 10
-2611.2227709591
 20
-738.8635045114
 10
-2590.5100987081
 20
-764.0142547986
 10
-2570.7874121379
 20
-786.4933503905
 10
-2550.3858054563
 20
-808.3888884378
 10
-2529.3316303868
 20
-829.6705068606
 10
-2507.6530247407
 20
-850.3094567346
 10
-2485.3797871862
 20
-870.2787316215
 10
-2462.5432409892
 20
-889.5531851041
 10
-2437.0266539797
 20
-909.7602353559
 10
-2410.9227319632
 20
-929.0855399809
 10
-2384.2770672458
 20
-947.5048252706
 10
-2357.1364789014
 20
-964.9969367076
 10
-2329.5487494765
 20
-981.543904545
 10
-2301.5623591347
 20
-997.1309832115
 10
-2273.2262202021
 20
-1011.7466647324
 10
-2246.9861020585
 20
-1024.2838967099
 10
-2220.5310916016
 20
-1035.9938662918
 10
-2193.8987171121
 20
-1046.8747637374
 10
-2167.1261309754
 20
-1056.9269422082
 10
-2140.2499628929
 20
-1066.1528545721
 10
-2113.3061815697
 20
-1074.5569791745
 10
-2080.9338634228
 20
-1083.5663390016
 10
-2048.573831899
 20
-1091.4162542163
 10
-2016.2829773897
 20
-1098.1248931806
 10
-1984.1158064271
 20
-1103.7137355542
 10
-1952.1242414974
 20
-1108.2072893954
 10
-1920.9224751176
 20
-1111.580826294
 10
-1889.9814174204
 20
-1113.9522187104
 10
-1859.3421720757
 20
-1115.3515655951
 10
-1829.0430042383
 20
-1115.8106907818
  0
LINE
  5
36D
330
1F
100
AcDbEntity
  8
0
  6
Continuous
 62
     7
370
    25
100
AcDbLine
 10
-2829.0430011032
 20
404.1893092182
 30
0.0
 11
-2829.0430011032
 21
-115.8106907818
 31
0.0
  0
LWPOLYLINE
  5
36E
330
1F
100
AcDbEntity
  8
0
  6
Continuous
 62
     7
370
    25
100
AcDbPolyline
 90
       52
 70
   128
 43
0.0
 10
-1829.0430042383
 20
1404.1893092182
 10
-1857.0148607894
 20
1403.7980202828
 10
-1885.2792395026
 20
1402.6067999622
 10
-1913.8062506198
 20
1400.5904292586
 10
-1942.5639330498
 20
1397.7249143381
 10
-1971.5182936803
 20
1393.9876683657
 10
-2000.1122593865
 20
1389.4483156523
 10
-2028.8253903534
 20
1384.0296012801
 10
-2057.6201412404
 20
1377.7151137618
 10
-2086.4573845436
 20
1370.490419844
 10
-2115.8848112611
 20
1362.1672720274
 10
-2145.2696622391
 20
1352.8729762762
 10
-2174.566115272
 20
1342.5995494612
 10
-2203.7272627829
 20
1331.3417807775
 10
-2232.7053145104
 20
1319.0973582833
 10
-2261.4518155374
 20
1305.8669781989
 10
-2289.9178780017
 20
1291.6544349565
 10
-2318.0544245407
 20
1276.4666901667
 10
-2345.8124412564
 20
1260.3139188923
 10
-2373.1432377493
 20
1243.2095318809
 10
-2399.9987115653
 20
1225.1701727142
 10
-2426.3316142406
 20
1206.2156891613
 10
-2452.0958160146
 20
1186.3690783913
 10
-2477.2465662228
 20
1165.6564060753
 10
-2499.7256617443
 20
1145.9337194433
 10
-2521.6211997229
 20
1125.5321126977
 10
-2542.902818079
 20
1104.4779375622
 10
-2563.5417678883
 20
1082.7993318482
 10
-2583.5110427126
 20
1060.5260942239
 10
-2602.7854961349
 20
1037.6895479552
 10
-2622.9925463232
 20
1012.1729608657
 10
-2642.3178508876
 20
986.0690387674
 10
-2660.7371361197
 20
959.4233739664
 10
-2678.2292475018
 20
932.282785537
 10
-2694.7762152873
 20
904.6950560256
 10
-2710.3632939049
 20
876.708665596
 10
-2724.9789753801
 20
848.3725265746
 10
-2737.5162073182
 20
822.1324083487
 10
-2749.2261768634
 20
795.6773978089
 10
-2760.1070742749
 20
769.0450232359
 10
-2770.1592527142
 20
742.2724370153
 10
-2779.3851650492
 20
715.3962688485
 10
-2787.7892896252
 20
688.4524874408
 10
-2796.7986494241
 20
656.0801691925
 10
-2804.6485646142
 20
623.7201375672
 10
-2811.3572035574
 20
591.4292829567
 10
-2816.9460459135
 20
559.2621118931
 10
-2821.4395997406
 20
527.2705468632
 10
-2824.8131366286
 20
496.0687803856
 10
-2827.1845290376
 20
465.1277225914
 10
-2828.5838759179
 20
434.4884771506
 10
-2829.0430011032
 20
404.1893092182
  0
LINE
  5
36F
330
1F
100
AcDbEntity
  8
0
  6
Continuous
 62
     7
370
    25
100
AcDbLine
 10
-1500.0687125391
 20
1404.1893092182
 30
0.0
 11
-1829.0430042383
 21
1404.1893092182
 31
0.0
  0
ARC
  5
370
330
1F
100
AcDbEntity
  8
0
  6
Continuous
 62
     7
370
    25
100
AcDbCircle
 10
-16.1574910676
 20
1185.0832006976
 30
0.0
 40
1500.0
100
AcDbArc
 50
120.0
 51
171.6007117743
  0
LINE
  5
371
330
1F
100
AcDbEntity
  8
0
  6
Continuous
 62
     7
370
    25
100
AcDbLine
 10
-337.4749161943
 20
2731.6213063742
 30
0.0
 11
-766.1574910676
 21
2484.1213063742
 31
0.0
  0
ARC
  5
372
330
1F
100
AcDbEntity
  8
0
  6
Continuous
 62
     7
370
    25
100
AcDbCircle
 10
854.119028122
 20
2887.0228826174
 30
0.0
 40
20.0
100
AcDbArc
 50
253.1107701528
 51
286.8892298472
  0
LINE
  5
373
330
1F
100
AcDbEntity
  8
0
  6
Continuous
 62
     7
370
    25
100
AcDbLine
 10
2474.3955473117
 20
2484.1213063742
 30
0.0
 11
2045.7129724384
 21
2731.6213063742
 31
0.0
  0
ARC
  5
374
330
1F
100
AcDbEntity
  8
0
  6
Continuous
 62
     7
370
    25
100
AcDbCircle
 10
1724.3955473117
 20
1185.0832006976
 30
0.0
 40
1500.0
100
AcDbArc
 50
330.0
 51
60.0
  0
LINE
  5
375
330
1F
100
AcDbEntity
  8
0
  6
Continuous
 62
     7
370
    25
100
AcDbLine
 10
2899.7150325062
 20
220.7962641802
 30
0.0
 11
3023.4336529883
 21
435.0832006976
 31
0.0
  0
LINE
  5
376
330
1F
100
AcDbEntity
  8
0
  6
Continuous
 62
     7
370
    25
100
AcDbLine
 10
2899.7150325062
 20
67.5823542562
 30
0.0
 11
2899.7150325062
 21
220.7962641802
 31
0.0
  0
LINE
  5
377
330
1F
100
AcDbEntity
  8
0
  6
Continuous
 62
     7
370
    25
100
AcDbLine
 10
3023.4336529883
 20
-146.7045822612
 30
0.0
 11
2899.7150325062
 21
67.5823542562
 31
0.0
  0
ARC
  5
378
330
1F
100
AcDbEntity
  8
0
  6
Continuous
 62
     7
370
    25
100
AcDbCircle
 10
1724.3955473117
 20
-896.7045822612
 30
0.0
 40
1500.0
100
AcDbArc
 50
300.0
 51
30.0
  0
LINE
  5
379
330
1F
100
AcDbEntity
  8
0
  6
Continuous
 62
     7
370
    25
100
AcDbLine
 10
2045.7129724384
 20
-2443.2426879378
 30
0.0
 11
2474.3955473117
 21
-2195.7426879378
 31
0.0
  0
ARC
  5
37A
330
1F
100
AcDbEntity
  8
0
  6
Continuous
 62
     7
370
    25
100
AcDbCircle
 10
1295.7129724384
 20
-1144.2045822612
 30
0.0
 40
1500.0
100
AcDbArc
 50
253.1107701528
 51
300.0
  0
ARC
  5
37B
330
1F
100
AcDbEntity
  8
0
  6
Continuous
 62
     7
370
    25
100
AcDbCircle
 10
854.119028122
 20
-2598.644264181
 30
0.0
 40
19.99999999999963
100
AcDbArc
 50
73.1107701528
 51
106.8892298472
  0
ARC
  5
37C
330
1F
100
AcDbEntity
  8
0
  6
Continuous
 62
     7
370
    25
100
AcDbCircle
 10
412.5250838057
 20
-1144.2045822612
 30
0.0
 40
1500.0
100
AcDbArc
 50
240.0
 51
286.8892298472
  0
LINE
  5
37D
330
1F
100
AcDbEntity
  8
0
  6
Continuous
 62
     7
370
    25
100
AcDbLine
 10
-766.1574910676
 20
-2195.7426879378
 30
0.0
 11
-337.4749161943
 21
-2443.2426879378
 31
0.0
  0
ARC
  5
37E
330
1F
100
AcDbEntity
  8
0
  6
Continuous
 62
     7
370
    25
100
AcDbCircle
 10
-16.1574910676
 20
-896.7045822612
 30
0.0
 40
1500.0
100
AcDbArc
 50
188.3992882257
 51
240.0
  0
ARC
  5
37F
330
1F
100
AcDbEntity
  8
0
  6
Continuous
 62
     7
370
    25
100
AcDbCircle
 10
412.5250838057
 20
1432.5832006976
 30
0.0
 40
1500.0
100
AcDbArc
 50
73.1107701528
 51
120.0
  0
ARC
  5
380
330
1F
100
AcDbEntity
  8
0
  6
Continuous
 62
     7
370
    25
100
AcDbCircle
 10
1295.7129724384
 20
1432.5832006976
 30
0.0
 40
1500.0
100
AcDbArc
 50
60.0
 51
106.8892298472
  0
LINE
  5
381
330
1F
100
AcDbEntity
  8
0
  6
Continuous
 62
     7
370
    25
100
AcDbLine
 10
278.4376581198
 20
392.1893092182
 30
0.0
 11
310.5230242067
 21
392.1893092182
 31
0.0
  0
LINE
  5
382
330
1F
100
AcDbEntity
  8
0
  6
Continuous
 62
     7
370
    25
100
AcDbLine
 10
310.5230242293
 20
389.1893092182
 30
0.0
 11
310.5230242067
 21
392.1893092182
 31
0.0
  0
LINE
  5
383
330
1F
100
AcDbEntity
  8
0
  6
Continuous
 62
     7
370
    25
100
AcDbLine
 10
278.4376581198
 20
392.1893092182
 30
0.0
 11
278.4376581424
 21
389.1893092182
 31
0.0
  0
LINE
  5
384
330
1F
100
AcDbEntity
  8
0
  6
Continuous
 62
     7
370
    25
100
AcDbLine
 10
310.5230242293
 20
389.1893092182
 30
0.0
 11
278.4376581424
 21
389.1893092182
 31
0.0
  0
LINE
  5
385
330
1F
100
AcDbEntity
  8
0
  6
Continuous
 62
     7
370
    25
100
AcDbLine
 10
310.5230242293
 20
404.1893092182
 30
0.0
 11
310.5230242067
 21
401.1893092182
 31
0.0
  0
LINE
  5
386
330
1F
100
AcDbEntity
  8
0
  6
Continuous
 62
     7
370
    25
100
AcDbLine
 10
310.5230242067
 20
401.1893092182
 30
0.0
 11
278.4376581198
 21
401.1893092182
 31
0.0
  0
LINE
  5
387
330
1F
100
AcDbEntity
  8
0
  6
Continuous
 62
     7
370
    25
100
AcDbLine
 10
278.4376581424
 20
404.1893092182
 30
0.0
 11
278.4376581198
 21
401.1893092182
 31
0.0
  0
LINE
  5
388
330
1F
100
AcDbEntity
  8
0
  6
Continuous
 62
     7
370
    25
100
AcDbLine
 10
278.4376581198
 20
392.1893092182
 30
0.0
 11
278.4376581198
 21
401.1893092182
 31
0.0
  0
LINE
  5
389
330
1F
100
AcDbEntity
  8
0
  6
Continuous
 62
     7
370
    25
100
AcDbLine
 10
310.5230242067
 20
392.1893092182
 30
0.0
 11
310.5230242067
 21
401.1893092182
 31
0.0
  0
LINE
  5
38A
330
1F
100
AcDbEntity
  8
0
  6
Continuous
 62
     7
370
    25
100
AcDbLine
 10
312.1312465324
 20
389.1893092182
 30
0.0
 11
310.5230242293
 21
389.1893092182
 31
0.0
  0
LINE
  5
38B
330
1F
100
AcDbEntity
  8
0
  6
Continuous
 62
     7
370
    25
100
AcDbLine
 10
278.4376581198
 20
401.1893092182
 30
0.0
 11
263.0461215369
 21
401.1893092182
 31
0.0
  0
LWPOLYLINE
  5
38C
330
1F
100
AcDbEntity
  8
0
  6
Continuous
 62
     7
370
    25
100
AcDbPolyline
 90
        9
 70
   128
 43
0.0
 10
264.8931059422
 20
404.1893092182
 10
264.5327771598
 20
404.1316650594
 10
264.1862956104
 20
403.9609478157
 10
263.8669763858
 20
403.6837180551
 10
263.5870907445
 20
403.3106295618
 10
263.3573945348
 20
402.8560199173
 10
263.1867148533
 20
402.3373595153
 10
263.0816108244
 20
401.7745801843
 10
263.0461215369
 20
401.1893092182
  0
LINE
  5
38D
330
1F
100
AcDbEntity
  8
0
  6
Continuous
 62
     7
370
    25
100
AcDbLine
 10
263.0461215369
 20
392.1893092182
 30
0.0
 11
278.4376581198
 21
392.1893092182
 31
0.0
  0
LINE
  5
38E
330
1F
100
AcDbEntity
  8
0
  6
Continuous
 62
     7
370
    25
100
AcDbLine
 10
263.0461215369
 20
392.1893092182
 30
0.0
 11
263.0461215369
 21
401.1893092182
 31
0.0
  0
LWPOLYLINE
  5
38F
330
1F
100
AcDbEntity
  8
0
  6
Continuous
 62
     7
370
    25
100
AcDbPolyline
 90
        9
 70
   128
 43
0.0
 10
263.0461215369
 20
392.1893092182
 10
263.0816108244
 20
391.6040382522
 10
263.1867148533
 20
391.0412589211
 10
263.3573945348
 20
390.5225985191
 10
263.5870907445
 20
390.0679888746
 10
263.8669763858
 20
389.6949003813
 10
264.1862956104
 20
389.4176706207
 10
264.5327771598
 20
389.246953377
 10
264.8931059422
 20
389.1893092182
  0
LINE
  5
390
330
1F
100
AcDbEntity
  8
0
  6
Continuous
 62
     7
370
    25
100
AcDbLine
 10
278.4376581424
 20
389.1893092182
 30
0.0
 11
264.8931059422
 21
389.1893092182
 31
0.0
  0
LINE
  5
391
330
1F
100
AcDbEntity
  8
0
  6
Continuous
 62
     7
370
    25
100
AcDbLine
 10
263.0461215369
 20
401.1893092182
 30
0.0
 11
-558.0553628768
 21
401.1893092182
 31
0.0
  0
LWPOLYLINE
  5
392
330
1F
100
AcDbEntity
  8
0
  6
Continuous
 62
     7
370
    25
100
AcDbPolyline
 90
        9
 70
   128
 43
0.0
 10
-556.2083784716
 20
404.1893092182
 10
-556.5687072539
 20
404.1316650594
 10
-556.9151888033
 20
403.9609478157
 10
-557.234508028
 20
403.6837180551
 10
-557.5143936693
 20
403.3106295618
 10
-557.7440898789
 20
402.8560199173
 10
-557.9147695604
 20
402.3373595153
 10
-558.0198735894
 20
401.7745801843
 10
-558.0553628768
 20
401.1893092182
  0
LINE
  5
393
330
1F
100
AcDbEntity
  8
0
  6
Continuous
 62
     7
370
    25
100
AcDbLine
 10
-558.0553628768
 20
392.1893092182
 30
0.0
 11
263.0461215369
 21
392.1893092182
 31
0.0
  0
LINE
  5
394
330
1F
100
AcDbEntity
  8
0
  6
Continuous
 62
     7
370
    25
100
AcDbLine
 10
-558.0553628768
 20
392.1893092182
 30
0.0
 11
-558.0553628768
 21
401.1893092182
 31
0.0
  0
LWPOLYLINE
  5
395
330
1F
100
AcDbEntity
  8
0
  6
Continuous
 62
     7
370
    25
100
AcDbPolyline
 90
        9
 70
   128
 43
0.0
 10
-558.0553628768
 20
392.1893092182
 10
-558.0198735894
 20
391.6040382522
 10
-557.9147695604
 20
391.0412589211
 10
-557.7440898789
 20
390.5225985191
 10
-557.5143936693
 20
390.0679888746
 10
-557.234508028
 20
389.6949003813
 10
-556.9151888033
 20
389.4176706207
 10
-556.5687072539
 20
389.246953377
 10
-556.2083784716
 20
389.1893092182
  0
LINE
  5
396
330
1F
100
AcDbEntity
  8
0
  6
Continuous
 62
     7
370
    25
100
AcDbLine
 10
264.8931059422
 20
389.1893092182
 30
0.0
 11
-556.2083784716
 21
389.1893092182
 31
0.0
  0
LINE
  5
397
330
1F
100
AcDbEntity
  8
0
  6
Continuous
 62
     7
370
    25
100
AcDbLine
 10
-1261.8655977328
 20
392.1893092182
 30
0.0
 11
-775.9870808951
 21
392.1893092182
 31
0.0
  0
LINE
  5
398
330
1F
100
AcDbEntity
  8
0
  6
Continuous
 62
     7
370
    25
100
AcDbLine
 10
-1261.8655977328
 20
392.1893092182
 30
0.0
 11
-1261.8655977328
 21
401.1893092182
 31
0.0
  0
LINE
  5
399
330
1F
100
AcDbEntity
  8
0
  6
Continuous
 62
     7
370
    25
100
AcDbLine
 10
-775.9870808951
 20
401.1893092182
 30
0.0
 11
-1261.8655977328
 21
401.1893092182
 31
0.0
  0
LINE
  5
39A
330
1F
100
AcDbEntity
  8
0
  6
Continuous
 62
     7
370
    25
100
AcDbLine
 10
-775.9870808951
 20
392.1893092182
 30
0.0
 11
-775.9870808951
 21
401.1893092182
 31
0.0
  0
ARC
  5
39B
330
1F
100
AcDbEntity
  8
0
  6
Continuous
 62
     7
370
    25
100
AcDbCircle
 10
-772.448106336
 20
401.891514019
 30
0.0
 40
3.607967920079028
100
AcDbArc
 50
140.4414161101
 51
191.2228834523
  0
ARC
  5
39C
330
1F
100
AcDbEntity
  8
0
  6
Continuous
 62
     7
370
    25
100
AcDbCircle
 10
-1258.3266231737
 20
401.891514019
 30
0.0
 40
3.607967920076133
100
AcDbArc
 50
140.4414161101
 51
191.2228834523
  0
ARC
  5
39D
330
1F
100
AcDbEntity
  8
0
  6
Continuous
 62
     7
370
    25
100
AcDbCircle
 10
-772.448106336
 20
391.4871044174
 30
0.0
 40
3.607967920078817
100
AcDbArc
 50
168.7771165477
 51
219.5585838899
  0
ARC
  5
39E
330
1F
100
AcDbEntity
  8
0
  6
Continuous
 62
     7
370
    25
100
AcDbCircle
 10
-1258.3266231737
 20
391.4871044174
 30
0.0
 40
3.607967920077403
100
AcDbArc
 50
168.7771165477
 51
219.5585838899
  0
LINE
  5
39F
330
1F
100
AcDbEntity
  8
0
  6
Continuous
 62
     7
370
    25
100
AcDbLine
 10
-775.2297550799
 20
389.1893092182
 30
0.0
 11
-1261.1082719177
 21
389.1893092182
 31
0.0
  0
LINE
  5
3A0
330
1F
100
AcDbEntity
  8
0
  6
Continuous
 62
     7
370
    25
100
AcDbLine
 10
-775.9870808951
 20
392.1893092182
 30
0.0
 11
-558.0553628768
 21
392.1893092182
 31
0.0
  0
LINE
  5
3A1
330
1F
100
AcDbEntity
  8
0
  6
Continuous
 62
     7
370
    25
100
AcDbLine
 10
-556.2083784716
 20
389.1893092182
 30
0.0
 11
-775.2297550799
 21
389.1893092182
 31
0.0
  0
LINE
  5
3A2
330
1F
100
AcDbEntity
  8
0
  6
Continuous
 62
     7
370
    25
100
AcDbLine
 10
-558.0553628768
 20
401.1893092182
 30
0.0
 11
-775.9870808951
 21
401.1893092182
 31
0.0
  0
LINE
  5
3A3
330
1F
100
AcDbEntity
  8
0
  6
Continuous
 62
     7
370
    25
100
AcDbLine
 10
-1326.0504584352
 20
404.1893092182
 30
0.0
 11
-1326.0419496972
 21
404.1893092182
 31
0.0
  0
LINE
  5
3A4
330
1F
100
AcDbEntity
  8
0
  6
Continuous
 62
     7
370
    25
100
AcDbLine
 10
-1261.1082719177
 20
389.1893092182
 30
0.0
 11
-1326.0504584352
 21
389.1893092182
 31
0.0
  0
LINE
  5
3A5
330
1F
100
AcDbEntity
  8
0
  6
Continuous
 62
     7
370
    25
100
AcDbLine
 10
288.5456517445
 20
420.8893092182
 30
0.0
 11
277.0738166496
 21
420.8893092182
 31
0.0
  0
LINE
  5
3A6
330
1F
100
AcDbEntity
  8
0
  6
Continuous
 62
     7
370
    25
100
AcDbLine
 10
-1194.8258609897
 20
-132.5106907818
 30
0.0
 11
-1167.8258609897
 21
-132.5106907818
 31
0.0
  0
LINE
  5
3A7
330
1F
100
AcDbEntity
  8
0
  6
Continuous
 62
     7
370
    25
100
AcDbLine
 10
-795.5639710228
 20
-132.5106907818
 30
0.0
 11
-768.5639710228
 21
-132.5106907818
 31
0.0
  0
LINE
  5
3A8
330
1F
100
AcDbEntity
  8
0
  6
Continuous
 62
     7
370
    25
100
AcDbLine
 10
268.745965702
 20
-132.5106907818
 30
0.0
 11
288.5456517445
 21
-132.5106907818
 31
0.0
  0
LINE
  5
3A9
330
1F
100
AcDbEntity
  8
0
  6
Continuous
 62
     7
370
    25
100
AcDbLine
 10
-511.3846857174
 20
-132.5106907818
 30
0.0
 11
-484.3846857174
 21
-132.5106907818
 31
0.0
  0
LINE
  5
3AA
330
1F
100
AcDbEntity
  8
0
  6
Continuous
 62
     7
370
    25
100
AcDbLine
 10
-251.3411352442
 20
-132.5106907818
 30
0.0
 11
-224.3411352442
 21
-132.5106907818
 31
0.0
  0
LINE
  5
3AB
330
1F
100
AcDbEntity
  8
0
  6
Continuous
 62
     7
370
    25
100
AcDbLine
 10
-1274.6521708914
 20
-132.5106907818
 30
0.0
 11
-1247.6521708914
 21
-132.5106907818
 31
0.0
  0
LINE
  5
3AC
330
1F
100
AcDbEntity
  8
0
  6
Continuous
 62
     7
370
    25
100
AcDbLine
 10
-484.3846857174
 20
420.8893092182
 30
0.0
 11
-503.0568347698
 21
420.8893092182
 31
0.0
  0
LINE
  5
3AD
330
1F
100
AcDbEntity
  8
0
  6
Continuous
 62
     7
370
    25
100
AcDbLine
 10
-224.3411352442
 20
420.8893092182
 30
0.0
 11
-243.0132842967
 21
420.8893092182
 31
0.0
  0
LINE
  5
3AE
330
1F
100
AcDbEntity
  8
0
  6
Continuous
 62
     7
370
    25
100
AcDbLine
 10
35.7024152289
 20
420.8893092182
 30
0.0
 11
17.0302661765
 21
420.8893092182
 31
0.0
  0
LINE
  5
3AF
330
1F
100
AcDbEntity
  8
0
  6
Continuous
 62
     7
370
    25
100
AcDbLine
 10
-768.5639710228
 20
420.8893092182
 30
0.0
 11
-787.2361200753
 21
420.8893092182
 31
0.0
  0
LINE
  5
3B0
330
1F
100
AcDbEntity
  8
0
  6
Continuous
 62
     7
370
    25
100
AcDbLine
 10
-1167.8258609897
 20
420.8893092182
 30
0.0
 11
-1186.4980100421
 21
420.8893092182
 31
0.0
  0
LINE
  5
3B1
330
1F
100
AcDbEntity
  8
0
  6
Continuous
 62
     7
370
    25
100
AcDbLine
 10
8.7024152289
 20
-132.5106907818
 30
0.0
 11
35.7024152289
 21
-132.5106907818
 31
0.0
  0
LINE
  5
3B2
330
1F
100
AcDbEntity
  8
0
  6
Continuous
 62
     7
370
    25
100
AcDbLine
 10
310.5230242293
 20
-100.8106907818
 30
0.0
 11
310.5230242067
 21
-103.8106907818
 31
0.0
  0
LINE
  5
3B3
330
1F
100
AcDbEntity
  8
0
  6
Continuous
 62
     7
370
    25
100
AcDbLine
 10
278.4376581198
 20
-103.8106907818
 30
0.0
 11
310.5230242067
 21
-103.8106907818
 31
0.0
  0
LINE
  5
3B4
330
1F
100
AcDbEntity
  8
0
  6
Continuous
 62
     7
370
    25
100
AcDbLine
 10
278.4376581198
 20
-103.8106907818
 30
0.0
 11
278.4376581424
 21
-100.8106907818
 31
0.0
  0
LINE
  5
3B5
330
1F
100
AcDbEntity
  8
0
  6
Continuous
 62
     7
370
    25
100
AcDbLine
 10
310.5230242293
 20
-100.8106907818
 30
0.0
 11
278.4376581424
 21
-100.8106907818
 31
0.0
  0
LINE
  5
3B6
330
1F
100
AcDbEntity
  8
0
  6
Continuous
 62
     7
370
    25
100
AcDbLine
 10
310.5230242067
 20
-112.8106907818
 30
0.0
 11
278.4376581198
 21
-112.8106907818
 31
0.0
  0
LINE
  5
3B7
330
1F
100
AcDbEntity
  8
0
  6
Continuous
 62
     7
370
    25
100
AcDbLine
 10
278.4376581198
 20
-103.8106907818
 30
0.0
 11
278.4376581198
 21
-112.8106907818
 31
0.0
  0
LINE
  5
3B8
330
1F
100
AcDbEntity
  8
0
  6
Continuous
 62
     7
370
    25
100
AcDbLine
 10
310.5230242067
 20
-103.8106907818
 30
0.0
 11
310.5230242067
 21
-112.8106907818
 31
0.0
  0
LINE
  5
3B9
330
1F
100
AcDbEntity
  8
0
  6
Continuous
 62
     7
370
    25
100
AcDbLine
 10
310.5230242293
 20
-115.8106907818
 30
0.0
 11
310.5230242067
 21
-112.8106907818
 31
0.0
  0
LINE
  5
3BA
330
1F
100
AcDbEntity
  8
0
  6
Continuous
 62
     7
370
    25
100
AcDbLine
 10
278.4376581424
 20
-115.8106907818
 30
0.0
 11
278.4376581198
 21
-112.8106907818
 31
0.0
  0
LINE
  5
3BB
330
1F
100
AcDbEntity
  8
0
  6
Continuous
 62
     7
370
    25
100
AcDbLine
 10
312.0963257629
 20
-100.8106907818
 30
0.0
 11
310.5230242293
 21
-100.8106907818
 31
0.0
  0
LINE
  5
3BC
330
1F
100
AcDbEntity
  8
0
  6
Continuous
 62
     7
370
    25
100
AcDbLine
 10
278.4376581198
 20
-112.8106907818
 30
0.0
 11
263.0461215369
 21
-112.8106907818
 31
0.0
  0
LINE
  5
3BD
330
1F
100
AcDbEntity
  8
0
  6
Continuous
 62
     7
370
    25
100
AcDbLine
 10
263.0461215369
 20
-103.8106907818
 30
0.0
 11
263.0461215369
 21
-112.8106907818
 31
0.0
  0
LINE
  5
3BE
330
1F
100
AcDbEntity
  8
0
  6
Continuous
 62
     7
370
    25
100
AcDbLine
 10
263.0461215369
 20
-103.8106907818
 30
0.0
 11
278.4376581198
 21
-103.8106907818
 31
0.0
  0
LWPOLYLINE
  5
3BF
330
1F
100
AcDbEntity
  8
0
  6
Continuous
 62
     7
370
    25
100
AcDbPolyline
 90
        9
 70
   128
 43
0.0
 10
264.8931059422
 20
-115.8106907818
 10
264.5327771598
 20
-115.753046623
 10
264.1862956104
 20
-115.5823293793
 10
263.8669763858
 20
-115.3050996187
 10
263.5870907445
 20
-114.9320111254
 10
263.3573945348
 20
-114.4774014809
 10
263.1867148533
 20
-113.9587410789
 10
263.0816108244
 20
-113.3959617478
 10
263.0461215369
 20
-112.8106907818
  0
LWPOLYLINE
  5
3C0
330
1F
100
AcDbEntity
  8
0
  6
Continuous
 62
     7
370
    25
100
AcDbPolyline
 90
        9
 70
   128
 43
0.0
 10
263.0461215369
 20
-103.8106907818
 10
263.0816108244
 20
-103.2254198157
 10
263.1867148533
 20
-102.6626404847
 10
263.3573945348
 20
-102.1439800827
 10
263.5870907445
 20
-101.6893704382
 10
263.8669763858
 20
-101.3162819449
 10
264.1862956104
 20
-101.0390521843
 10
264.5327771598
 20
-100.8683349406
 10
264.8931059422
 20
-100.8106907818
  0
LINE
  5
3C1
330
1F
100
AcDbEntity
  8
0
  6
Continuous
 62
     7
370
    25
100
AcDbLine
 10
278.4376581424
 20
-100.8106907818
 30
0.0
 11
264.8931059422
 21
-100.8106907818
 31
0.0
  0
LINE
  5
3C2
330
1F
100
AcDbEntity
  8
0
  6
Continuous
 62
     7
370
    25
100
AcDbLine
 10
-558.0553628768
 20
-103.8106907818
 30
0.0
 11
263.0461215369
 21
-103.8106907818
 31
0.0
  0
LWPOLYLINE
  5
3C3
330
1F
100
AcDbEntity
  8
0
  6
Continuous
 62
     7
370
    25
100
AcDbPolyline
 90
        9
 70
   128
 43
0.0
 10
-558.0553628768
 20
-103.8106907818
 10
-558.0198735894
 20
-103.2254198157
 10
-557.9147695604
 20
-102.6626404847
 10
-557.7440898789
 20
-102.1439800827
 10
-557.5143936693
 20
-101.6893704382
 10
-557.234508028
 20
-101.3162819449
 10
-556.9151888033
 20
-101.0390521843
 10
-556.5687072539
 20
-100.8683349406
 10
-556.2083784716
 20
-100.8106907818
  0
LINE
  5
3C4
330
1F
100
AcDbEntity
  8
0
  6
Continuous
 62
     7
370
    25
100
AcDbLine
 10
264.8931059422
 20
-100.8106907818
 30
0.0
 11
-556.2083784716
 21
-100.8106907818
 31
0.0
  0
LINE
  5
3C5
330
1F
100
AcDbEntity
  8
0
  6
Continuous
 62
     7
370
    25
100
AcDbLine
 10
263.0461215369
 20
-112.8106907818
 30
0.0
 11
-558.0553628768
 21
-112.8106907818
 31
0.0
  0
LWPOLYLINE
  5
3C6
330
1F
100
AcDbEntity
  8
0
  6
Continuous
 62
     7
370
    25
100
AcDbPolyline
 90
        9
 70
   128
 43
0.0
 10
-556.2083784716
 20
-115.8106907818
 10
-556.5687072539
 20
-115.753046623
 10
-556.9151888033
 20
-115.5823293793
 10
-557.234508028
 20
-115.3050996187
 10
-557.5143936693
 20
-114.9320111254
 10
-557.7440898789
 20
-114.4774014809
 10
-557.9147695604
 20
-113.9587410789
 10
-558.0198735894
 20
-113.3959617478
 10
-558.0553628768
 20
-112.8106907818
  0
LINE
  5
3C7
330
1F
100
AcDbEntity
  8
0
  6
Continuous
 62
     7
370
    25
100
AcDbLine
 10
-558.0553628768
 20
-103.8106907818
 30
0.0
 11
-558.0553628768
 21
-112.8106907818
 31
0.0
  0
ARC
  5
3C8
330
1F
100
AcDbEntity
  8
0
  6
Continuous
 62
     7
370
    25
100
AcDbCircle
 10
-772.448106336
 20
-103.108485981
 30
0.0
 40
3.607967920078877
100
AcDbArc
 50
140.4414161101
 51
191.2228834523
  0
LINE
  5
3C9
330
1F
100
AcDbEntity
  8
0
  6
Continuous
 62
     7
370
    25
100
AcDbLine
 10
-1261.8655977328
 20
-103.8106907818
 30
0.0
 11
-775.9870808951
 21
-103.8106907818
 31
0.0
  0
ARC
  5
3CA
330
1F
100
AcDbEntity
  8
0
  6
Continuous
 62
     7
370
    25
100
AcDbCircle
 10
-1258.3266231737
 20
-103.108485981
 30
0.0
 40
3.607967920076013
100
AcDbArc
 50
140.4414161101
 51
191.2228834523
  0
LINE
  5
3CB
330
1F
100
AcDbEntity
  8
0
  6
Continuous
 62
     7
370
    25
100
AcDbLine
 10
-775.2297550799
 20
-100.8106907818
 30
0.0
 11
-1261.1082719177
 21
-100.8106907818
 31
0.0
  0
LINE
  5
3CC
330
1F
100
AcDbEntity
  8
0
  6
Continuous
 62
     7
370
    25
100
AcDbLine
 10
-775.9870808951
 20
-112.8106907818
 30
0.0
 11
-1261.8655977328
 21
-112.8106907818
 31
0.0
  0
ARC
  5
3CD
330
1F
100
AcDbEntity
  8
0
  6
Continuous
 62
     7
370
    25
100
AcDbCircle
 10
-772.448106336
 20
-113.5128955826
 30
0.0
 40
3.607967920079221
100
AcDbArc
 50
168.7771165477
 51
219.5585838899
  0
ARC
  5
3CE
330
1F
100
AcDbEntity
  8
0
  6
Continuous
 62
     7
370
    25
100
AcDbCircle
 10
-1258.3266231737
 20
-113.5128955826
 30
0.0
 40
3.607967920078988
100
AcDbArc
 50
168.7771165477
 51
219.5585838899
  0
LINE
  5
3CF
330
1F
100
AcDbEntity
  8
0
  6
Continuous
 62
     7
370
    25
100
AcDbLine
 10
-1261.8655977328
 20
-103.8106907818
 30
0.0
 11
-1261.8655977328
 21
-112.8106907818
 31
0.0
  0
LINE
  5
3D0
330
1F
100
AcDbEntity
  8
0
  6
Continuous
 62
     7
370
    25
100
AcDbLine
 10
-775.9870808951
 20
-103.8106907818
 30
0.0
 11
-775.9870808951
 21
-112.8106907818
 31
0.0
  0
LINE
  5
3D1
330
1F
100
AcDbEntity
  8
0
  6
Continuous
 62
     7
370
    25
100
AcDbLine
 10
-775.9870808951
 20
-103.8106907818
 30
0.0
 11
-558.0553628768
 21
-103.8106907818
 31
0.0
  0
LINE
  5
3D2
330
1F
100
AcDbEntity
  8
0
  6
Continuous
 62
     7
370
    25
100
AcDbLine
 10
-556.2083784716
 20
-100.8106907818
 30
0.0
 11
-775.2297550799
 21
-100.8106907818
 31
0.0
  0
LINE
  5
3D3
330
1F
100
AcDbEntity
  8
0
  6
Continuous
 62
     7
370
    25
100
AcDbLine
 10
-558.0553628768
 20
-112.8106907818
 30
0.0
 11
-775.9870808951
 21
-112.8106907818
 31
0.0
  0
LINE
  5
3D4
330
1F
100
AcDbEntity
  8
0
  6
Continuous
 62
     7
370
    25
100
AcDbLine
 10
-1261.1082719177
 20
-100.8106907818
 30
0.0
 11
-1326.0504584352
 21
-100.8106907818
 31
0.0
  0
LINE
  5
3D5
330
1F
100
AcDbEntity
  8
0
  6
Continuous
 62
     7
370
    25
100
AcDbLine
 10
-1326.0504584352
 20
-115.8106907818
 30
0.0
 11
-1326.0419496972
 21
-115.8106907818
 31
0.0
  0
LINE
  5
3D6
330
1F
100
AcDbEntity
  8
0
  6
Continuous
 62
     7
370
    25
100
AcDbLine
 10
933.5934230245
 20
728.3047459276
 30
0.0
 11
1298.5932542413
 21
517.5719951204
 31
0.0
  0
LINE
  5
3D7
330
1F
100
AcDbEntity
  8
0
  6
Continuous
 62
     7
370
    25
100
AcDbLine
 10
1337.7150325062
 20
426.8576941436
 30
0.0
 11
1337.7150325062
 21
491.3329027577
 31
0.0
  0
LINE
  5
3D8
330
1F
100
AcDbEntity
  8
0
  6
Continuous
 62
     7
370
    25
100
AcDbLine
 10
1243.793160134
 20
372.6318758467
 30
0.0
 11
1295.1368016409
 21
402.2751410918
 31
0.0
  0
LINE
  5
3D9
330
1F
100
AcDbEntity
  8
0
  6
Continuous
 62
     7
370
    25
100
AcDbLine
 10
1324.4330002035
 20
419.1893092182
 30
0.0
 11
1337.7150325062
 21
426.8576941436
 31
0.0
  0
ARC
  5
3DA
330
1F
100
AcDbEntity
  8
0
  6
Continuous
 62
     7
370
    25
100
AcDbCircle
 10
1607.6996947058
 20
1449.4293113429
 30
0.0
 40
1136.626888207153
100
AcDbArc
 50
228.6728178444
 51
251.3271821556
  0
LINE
  5
3DB
330
1F
100
AcDbEntity
  8
0
  6
Continuous
 62
     7
370
    25
100
AcDbLine
 10
857.119028122
 20
595.8782900524
 30
0.0
 11
857.119028122
 21
663.0673199607
 31
0.0
  0
LINE
  5
3DC
330
1F
100
AcDbEntity
  8
0
  6
Continuous
 62
     7
370
    25
100
AcDbLine
 10
857.119028122
 20
675.3112984757
 30
0.0
 11
857.119028122
 21
707.9327786635
 31
0.0
  0
LINE
  5
3DD
330
1F
100
AcDbEntity
  8
0
  6
Continuous
 62
     7
370
    25
100
AcDbLine
 10
851.119028122
 20
595.8782900524
 30
0.0
 11
851.119028122
 21
662.5086801251
 31
0.0
  0
ARC
  5
3DE
330
1F
100
AcDbEntity
  8
0
  6
Continuous
 62
     7
370
    25
100
AcDbCircle
 10
100.5383615383
 20
1449.4293113429
 30
0.0
 40
1136.626888207153
100
AcDbArc
 50
288.6728178444
 51
311.3271821556
  0
LINE
  5
3DF
330
1F
100
AcDbEntity
  8
0
  6
Continuous
 62
     7
370
    25
100
AcDbLine
 10
464.4448961101
 20
372.6318758467
 30
0.0
 11
413.4218768949
 21
402.0900297255
 31
0.0
  0
LINE
  5
3E0
330
1F
100
AcDbEntity
  8
0
  6
Continuous
 62
     7
370
    25
100
AcDbLine
 10
407.4254407701
 20
405.5520737363
 30
0.0
 11
370.5230237378
 21
426.8576941436
 31
0.0
  0
LINE
  5
3E1
330
1F
100
AcDbEntity
  8
0
  6
Continuous
 62
     7
370
    25
100
AcDbLine
 10
370.5230237378
 20
426.8576941436
 30
0.0
 11
370.5230237378
 21
491.3329027577
 31
0.0
  0
LINE
  5
3E2
330
1F
100
AcDbEntity
  8
0
  6
Continuous
 62
     7
370
    25
100
AcDbLine
 10
851.119028122
 20
675.8699383113
 30
0.0
 11
851.119028122
 21
708.0957007037
 31
0.0
  0
LINE
  5
3E3
330
1F
100
AcDbEntity
  8
0
  6
Continuous
 62
     7
370
    25
100
AcDbLine
 10
409.6448020028
 20
517.5719951204
 30
0.0
 11
768.938303717
 21
725.0101950532
 31
0.0
  0
LINE
  5
3E4
330
1F
100
AcDbEntity
  8
0
  6
Continuous
 62
     7
370
    25
100
AcDbLine
 10
1143.6844467384
 20
314.8340832195
 30
0.0
 11
1236.8877217062
 21
368.6450191115
 31
0.0
  0
ARC
  5
3E5
330
1F
100
AcDbEntity
  8
0
  6
Continuous
 62
     7
370
    25
100
AcDbCircle
 10
1301.7863479035
 20
919.5718519678
 30
0.0
 40
625.0631808887065
100
AcDbArc
 50
224.6514050166
 51
255.3485949834
  0
ARC
  5
3E6
330
1F
100
AcDbEntity
  8
0
  6
Continuous
 62
     7
370
    25
100
AcDbCircle
 10
1607.6996947058
 20
1449.4293113429
 30
0.0
 40
1142.626888207152
100
AcDbArc
 50
228.936851813
 51
251.063148187
  0
LINE
  5
3E7
330
1F
100
AcDbEntity
  8
0
  6
Continuous
 62
     7
370
    25
100
AcDbLine
 10
857.119028122
 20
480.2827047981
 30
0.0
 11
857.119028122
 21
587.9045765822
 31
0.0
  0
ARC
  5
3E8
330
1F
100
AcDbEntity
  8
0
  6
Continuous
 62
     7
370
    25
100
AcDbCircle
 10
406.4517083406
 20
919.5718519678
 30
0.0
 40
625.0631808887065
100
AcDbArc
 50
284.6514050166
 51
315.3485949834
  0
LINE
  5
3E9
330
1F
100
AcDbEntity
  8
0
  6
Continuous
 62
     7
370
    25
100
AcDbLine
 10
564.5536095057
 20
314.8340832195
 30
0.0
 11
471.3503345379
 21
368.6450191115
 31
0.0
  0
ARC
  5
3EA
330
1F
100
AcDbEntity
  8
0
  6
Continuous
 62
     7
370
    25
100
AcDbCircle
 10
100.5383615383
 20
1449.4293113429
 30
0.0
 40
1142.626888207153
100
AcDbArc
 50
288.936851813
 51
311.063148187
  0
LINE
  5
3EB
330
1F
100
AcDbEntity
  8
0
  6
Continuous
 62
     7
370
    25
100
AcDbLine
 10
851.119028122
 20
480.2827047981
 30
0.0
 11
851.119028122
 21
587.9045765822
 31
0.0
  0
ARC
  5
3EC
330
1F
100
AcDbEntity
  8
0
  6
Continuous
 62
     7
370
    25
100
AcDbCircle
 10
1301.7863479035
 20
919.5718519678
 30
0.0
 40
631.0631808887065
100
AcDbArc
 50
225.2001773596
 51
254.7998226404
  0
LINE
  5
3ED
330
1F
100
AcDbEntity
  8
0
  6
Continuous
 62
     7
370
    25
100
AcDbLine
 10
1043.4713488852
 20
256.9760241976
 30
0.0
 11
1136.3265257141
 21
310.5859855354
 31
0.0
  0
ARC
  5
3EE
330
1F
100
AcDbEntity
  8
0
  6
Continuous
 62
     7
370
    25
100
AcDbCircle
 10
1073.6008723414
 20
524.3430147451
 30
0.0
 40
269.0592793756276
100
AcDbArc
 50
216.4295233751
 51
263.5704766249
  0
LINE
  5
3EF
330
1F
100
AcDbEntity
  8
0
  6
Continuous
 62
     7
370
    25
100
AcDbLine
 10
857.119028122
 20
364.5665867543
 30
0.0
 11
857.119028122
 21
471.78650943
 31
0.0
  0
ARC
  5
3F0
330
1F
100
AcDbEntity
  8
0
  6
Continuous
 62
     7
370
    25
100
AcDbCircle
 10
406.4517083406
 20
919.5718519678
 30
0.0
 40
631.0631808887063
100
AcDbArc
 50
285.2001773596
 51
314.7998226404
  0
ARC
  5
3F1
330
1F
100
AcDbEntity
  8
0
  6
Continuous
 62
     7
370
    25
100
AcDbCircle
 10
634.6371839026
 20
524.3430147451
 30
0.0
 40
269.0592793756276
100
AcDbArc
 50
276.4295233751
 51
323.5704766249
  0
LINE
  5
3F2
330
1F
100
AcDbEntity
  8
0
  6
Continuous
 62
     7
370
    25
100
AcDbLine
 10
664.7667073589
 20
256.9760241976
 30
0.0
 11
571.91153053
 21
310.5859855354
 31
0.0
  0
LINE
  5
3F3
330
1F
100
AcDbEntity
  8
0
  6
Continuous
 62
     7
370
    25
100
AcDbLine
 10
851.119028122
 20
364.5665867543
 30
0.0
 11
851.119028122
 21
471.7865094299
 31
0.0
  0
LINE
  5
3F4
330
1F
100
AcDbEntity
  8
0
  6
Continuous
 62
     7
370
    25
100
AcDbLine
 10
1399.7150325062
 20
404.1893092182
 30
0.0
 11
1399.7150325062
 21
-115.8106907818
 31
0.0
  0
ARC
  5
3F5
330
1F
100
AcDbEntity
  8
0
  6
Continuous
 62
     7
370
    25
100
AcDbCircle
 10
-653.0423050455
 20
144.1893092182
 30
0.0
 40
1136.626888207153
100
AcDbArc
 50
348.6728178444
 51
11.3271821556
  0
LINE
  5
3F6
330
1F
100
AcDbEntity
  8
0
  6
Continuous
 62
     7
370
    25
100
AcDbLine
 10
461.4448961101
 20
-79.0571049875
 30
0.0
 11
370.5230237378
 21
-131.5508724769
 31
0.0
  0
LINE
  5
3F7
330
1F
100
AcDbEntity
  8
0
  6
Continuous
 62
     7
370
    25
100
AcDbLine
 10
370.5230237378
 20
-128.8106907818
 30
0.0
 11
370.5230237378
 21
-131.5508724769
 31
0.0
  0
LINE
  5
3F8
330
1F
100
AcDbEntity
  8
0
  6
Continuous
 62
     7
370
    25
100
AcDbLine
 10
348.3480464108
 20
-128.8106907818
 30
0.0
 11
370.5230237378
 21
-128.8106907818
 31
0.0
  0
LINE
  5
3F9
330
1F
100
AcDbEntity
  8
0
  6
Continuous
 62
     7
370
    25
100
AcDbLine
 10
461.4448961101
 20
367.4357234239
 30
0.0
 11
370.5230237378
 21
419.9294909133
 31
0.0
  0
LINE
  5
3FA
330
1F
100
AcDbEntity
  8
0
  6
Continuous
 62
     7
370
    25
100
AcDbLine
 10
348.2605577473
 20
417.1893092182
 30
0.0
 11
370.5230237378
 21
417.1893092182
 31
0.0
  0
LINE
  5
3FB
330
1F
100
AcDbEntity
  8
0
  6
Continuous
 62
     7
370
    25
100
AcDbLine
 10
370.5230237378
 20
417.1893092182
 30
0.0
 11
370.5230237378
 21
419.9294909133
 31
0.0
  0
LINE
  5
3FC
330
1F
100
AcDbEntity
  8
0
  6
Continuous
 62
     7
370
    25
100
AcDbLine
 10
1337.7150325062
 20
-130.8106907818
 30
0.0
 11
1337.7150325062
 21
-131.5508724769
 31
0.0
  0
LINE
  5
3FD
330
1F
100
AcDbEntity
  8
0
  6
Continuous
 62
     7
370
    25
100
AcDbLine
 10
1246.793160134
 20
-79.0571049875
 30
0.0
 11
1310.4522380899
 21
-115.8106907818
 31
0.0
  0
LINE
  5
3FE
330
1F
100
AcDbEntity
  8
0
  6
Continuous
 62
     7
370
    25
100
AcDbLine
 10
1336.4330002035
 20
-130.8106907818
 30
0.0
 11
1337.7150325062
 21
-131.5508724769
 31
0.0
  0
ARC
  5
3FF
330
1F
100
AcDbEntity
  8
0
  6
Continuous
 62
     7
370
    25
100
AcDbCircle
 10
2361.2803612896
 20
144.1893092182
 30
0.0
 40
1136.626888207152
100
AcDbArc
 50
168.6728178444
 51
191.3271821556
  0
LINE
  5
400
330
1F
100
AcDbEntity
  8
0
  6
Continuous
 62
     7
370
    25
100
AcDbLine
 10
1246.793160134
 20
367.4357234239
 30
0.0
 11
1310.45223809
 21
404.1893092182
 31
0.0
  0
LINE
  5
401
330
1F
100
AcDbEntity
  8
0
  6
Continuous
 62
     7
370
    25
100
AcDbLine
 10
1336.4330002035
 20
419.1893092182
 30
0.0
 11
1337.7150325062
 21
419.9294909133
 31
0.0
  0
LINE
  5
402
330
1F
100
AcDbEntity
  8
0
  6
Continuous
 62
     7
370
    25
100
AcDbLine
 10
1337.7150325062
 20
419.1893092182
 30
0.0
 11
1337.7150325062
 21
419.9294909133
 31
0.0
  0
LINE
  5
403
330
1F
100
AcDbEntity
  8
0
  6
Continuous
 62
     7
370
    25
100
AcDbLine
 10
943.0185396292
 20
198.9795677328
 30
0.0
 11
1034.8897147772
 21
252.0214154353
 31
0.0
  0
ARC
  5
404
330
1F
100
AcDbEntity
  8
0
  6
Continuous
 62
     7
370
    25
100
AcDbCircle
 10
927.283832372
 20
270.9144675049
 30
0.0
 40
73.6356626757475
100
AcDbArc
 50
197.661712424
 51
282.338287576
  0
LINE
  5
405
330
1F
100
AcDbEntity
  8
0
  6
Continuous
 62
     7
370
    25
100
AcDbLine
 10
857.119028122
 20
248.5736738247
 30
0.0
 11
857.119028122
 21
354.6573692296
 31
0.0
  0
ARC
  5
406
330
1F
100
AcDbEntity
  8
0
  6
Continuous
 62
     7
370
    25
100
AcDbCircle
 10
1073.6008723414
 20
524.3430147451
 30
0.0
 40
275.0592793756276
100
AcDbArc
 50
218.0905248997
 51
261.9094751003
  0
LINE
  5
407
330
1F
100
AcDbEntity
  8
0
  6
Continuous
 62
     7
370
    25
100
AcDbLine
 10
851.119028122
 20
248.5736738247
 30
0.0
 11
851.119028122
 21
354.6573692296
 31
0.0
  0
ARC
  5
408
330
1F
100
AcDbEntity
  8
0
  6
Continuous
 62
     7
370
    25
100
AcDbCircle
 10
780.9542238721
 20
270.9144675049
 30
0.0
 40
73.63566267574738
100
AcDbArc
 50
257.661712424
 51
342.338287576
  0
LINE
  5
409
330
1F
100
AcDbEntity
  8
0
  6
Continuous
 62
     7
370
    25
100
AcDbLine
 10
765.2195166149
 20
198.9795677328
 30
0.0
 11
673.3483414669
 21
252.0214154353
 31
0.0
  0
ARC
  5
40A
330
1F
100
AcDbEntity
  8
0
  6
Continuous
 62
     7
370
    25
100
AcDbCircle
 10
634.6371839026
 20
524.3430147451
 30
0.0
 40
275.0592793756275
100
AcDbArc
 50
278.0905248997
 51
321.9094751003
  0
ARC
  5
40B
330
1F
100
AcDbEntity
  8
0
  6
Continuous
 62
     7
370
    25
100
AcDbCircle
 10
2361.2803612896
 20
144.1893092182
 30
0.0
 40
1142.626888207152
100
AcDbArc
 50
168.936851813
 51
191.063148187
  0
LINE
  5
40C
330
1F
100
AcDbEntity
  8
0
  6
Continuous
 62
     7
370
    25
100
AcDbLine
 10
1146.6844467384
 20
-21.2593123604
 30
0.0
 11
1239.8877217062
 21
-75.0702482524
 31
0.0
  0
ARC
  5
40D
330
1F
100
AcDbEntity
  8
0
  6
Continuous
 62
     7
370
    25
100
AcDbCircle
 10
1749.4536676849
 20
144.1893092182
 30
0.0
 40
625.0631808887064
100
AcDbArc
 50
164.6514050166
 51
195.3485949834
  0
LINE
  5
40E
330
1F
100
AcDbEntity
  8
0
  6
Continuous
 62
     7
370
    25
100
AcDbLine
 10
1146.6844467384
 20
309.6379307968
 30
0.0
 11
1239.8877217062
 21
363.4488666888
 31
0.0
  0
ARC
  5
40F
330
1F
100
AcDbEntity
  8
0
  6
Continuous
 62
     7
370
    25
100
AcDbCircle
 10
-653.0423050455
 20
144.1893092182
 30
0.0
 40
1142.626888207152
100
AcDbArc
 50
348.936851813
 51
11.063148187
  0
ARC
  5
410
330
1F
100
AcDbEntity
  8
0
  6
Continuous
 62
     7
370
    25
100
AcDbCircle
 10
-41.2156114408
 20
144.1893092182
 30
0.0
 40
625.0631808887064
100
AcDbArc
 50
344.6514050166
 51
15.3485949834
  0
LINE
  5
411
330
1F
100
AcDbEntity
  8
0
  6
Continuous
 62
     7
370
    25
100
AcDbLine
 10
561.5536095057
 20
-21.2593123604
 30
0.0
 11
468.3503345379
 21
-75.0702482524
 31
0.0
  0
LINE
  5
412
330
1F
100
AcDbEntity
  8
0
  6
Continuous
 62
     7
370
    25
100
AcDbLine
 10
561.5536095057
 20
309.6379307968
 30
0.0
 11
468.3503345379
 21
363.4488666888
 31
0.0
  0
LINE
  5
413
330
1F
100
AcDbEntity
  8
0
  6
Continuous
 62
     7
370
    25
100
AcDbLine
 10
661.7667073589
 20
251.7798717749
 30
0.0
 11
568.91153053
 21
305.3898331127
 31
0.0
  0
ARC
  5
414
330
1F
100
AcDbEntity
  8
0
  6
Continuous
 62
     7
370
    25
100
AcDbCircle
 10
415.1553396832
 20
144.1893092182
 30
0.0
 40
269.0592793756275
100
AcDbArc
 50
336.4295233751
 51
23.5704766249
  0
LINE
  5
415
330
1F
100
AcDbEntity
  8
0
  6
Continuous
 62
     7
370
    25
100
AcDbLine
 10
661.7667073589
 20
36.5987466615
 30
0.0
 11
568.91153053
 21
-17.0112146763
 31
0.0
  0
ARC
  5
416
330
1F
100
AcDbEntity
  8
0
  6
Continuous
 62
     7
370
    25
100
AcDbCircle
 10
-41.2156114408
 20
144.1893092182
 30
0.0
 40
631.0631808887065
100
AcDbArc
 50
345.2001773596
 51
14.7998226404
  0
LINE
  5
417
330
1F
100
AcDbEntity
  8
0
  6
Continuous
 62
     7
370
    25
100
AcDbLine
 10
1046.4713488852
 20
36.5987466615
 30
0.0
 11
1139.3265257141
 21
-17.0112146763
 31
0.0
  0
ARC
  5
418
330
1F
100
AcDbEntity
  8
0
  6
Continuous
 62
     7
370
    25
100
AcDbCircle
 10
1293.0827165608
 20
144.1893092182
 30
0.0
 40
269.0592793756274
100
AcDbArc
 50
156.4295233751
 51
203.5704766249
  0
ARC
  5
419
330
1F
100
AcDbEntity
  8
0
  6
Continuous
 62
     7
370
    25
100
AcDbCircle
 10
1749.4536676849
 20
144.1893092182
 30
0.0
 40
631.0631808887064
100
AcDbArc
 50
165.2001773596
 51
194.7998226404
  0
LINE
  5
41A
330
1F
100
AcDbEntity
  8
0
  6
Continuous
 62
     7
370
    25
100
AcDbLine
 10
1046.4713488852
 20
251.7798717749
 30
0.0
 11
1139.3265257141
 21
305.3898331127
 31
0.0
  0
LINE
  5
41B
330
1F
100
AcDbEntity
  8
0
  6
Continuous
 62
     7
370
    25
100
AcDbLine
 10
762.2195166149
 20
193.7834153101
 30
0.0
 11
670.3483414669
 21
246.8252630126
 31
0.0
  0
ARC
  5
41C
330
1F
100
AcDbEntity
  8
0
  6
Continuous
 62
     7
370
    25
100
AcDbCircle
 10
707.7894196222
 20
144.1893092182
 30
0.0
 40
73.63566267574741
100
AcDbArc
 50
317.661712424
 51
42.338287576
  0
LINE
  5
41D
330
1F
100
AcDbEntity
  8
0
  6
Continuous
 62
     7
370
    25
100
AcDbLine
 10
762.2195166149
 20
94.5952031263
 30
0.0
 11
670.3483414669
 21
41.5533554238
 31
0.0
  0
ARC
  5
41E
330
1F
100
AcDbEntity
  8
0
  6
Continuous
 62
     7
370
    25
100
AcDbCircle
 10
415.1553396832
 20
144.1893092182
 30
0.0
 40
275.0592793756276
100
AcDbArc
 50
338.0905248997
 51
21.9094751003
  0
ARC
  5
41F
330
1F
100
AcDbEntity
  8
0
  6
Continuous
 62
     7
370
    25
100
AcDbCircle
 10
1293.0827165608
 20
144.1893092182
 30
0.0
 40
275.0592793756276
100
AcDbArc
 50
158.0905248997
 51
201.9094751003
  0
LINE
  5
420
330
1F
100
AcDbEntity
  8
0
  6
Continuous
 62
     7
370
    25
100
AcDbLine
 10
946.0185396292
 20
94.5952031263
 30
0.0
 11
1037.8897147772
 21
41.5533554238
 31
0.0
  0
ARC
  5
421
330
1F
100
AcDbEntity
  8
0
  6
Continuous
 62
     7
370
    25
100
AcDbCircle
 10
1000.4486366219
 20
144.1893092182
 30
0.0
 40
73.63566267574741
100
AcDbArc
 50
137.661712424
 51
222.338287576
  0
LINE
  5
422
330
1F
100
AcDbEntity
  8
0
  6
Continuous
 62
     7
370
    25
100
AcDbLine
 10
946.0185396292
 20
193.7834153101
 30
0.0
 11
1037.8897147772
 21
246.8252630126
 31
0.0
  0
CIRCLE
  5
423
330
1F
100
AcDbEntity
  8
0
  6
Continuous
 62
     7
370
    25
100
AcDbCircle
 10
854.119028122
 20
144.1893092182
 30
0.0
 40
2.999999999999886
  0
ARC
  5
424
330
1F
100
AcDbEntity
  8
0
  6
Continuous
 62
     7
370
    25
100
AcDbCircle
 10
1000.4486366219
 20
144.1893092182
 30
0.0
 40
79.63566267574745
100
AcDbArc
 50
143.2568205044
 51
216.7431794956
  0
ARC
  5
425
330
1F
100
AcDbEntity
  8
0
  6
Continuous
 62
     7
370
    25
100
AcDbCircle
 10
927.283832372
 20
17.4641509315
 30
0.0
 40
79.63566267574751
100
AcDbArc
 50
83.2568205044
 51
156.7431794956
  0
ARC
  5
426
330
1F
100
AcDbEntity
  8
0
  6
Continuous
 62
     7
370
    25
100
AcDbCircle
 10
780.9542238721
 20
17.4641509315
 30
0.0
 40
79.63566267574737
100
AcDbArc
 50
23.2568205044
 51
96.7431794956
  0
ARC
  5
427
330
1F
100
AcDbEntity
  8
0
  6
Continuous
 62
     7
370
    25
100
AcDbCircle
 10
707.7894196222
 20
144.1893092182
 30
0.0
 40
79.63566267574747
100
AcDbArc
 50
323.2568205044
 51
36.7431794956
  0
ARC
  5
428
330
1F
100
AcDbEntity
  8
0
  6
Continuous
 62
     7
370
    25
100
AcDbCircle
 10
780.9542238721
 20
270.9144675049
 30
0.0
 40
79.63566267574734
100
AcDbArc
 50
263.2568205044
 51
336.7431794956
  0
ARC
  5
429
330
1F
100
AcDbEntity
  8
0
  6
Continuous
 62
     7
370
    25
100
AcDbCircle
 10
927.283832372
 20
270.9144675049
 30
0.0
 40
79.63566267574737
100
AcDbArc
 50
203.2568205044
 51
276.7431794956
  0
ARC
  5
42A
330
1F
100
AcDbEntity
  8
0
  6
Continuous
 62
     7
370
    25
100
AcDbCircle
 10
1073.6008723414
 20
-235.9643963087
 30
0.0
 40
275.0592793756274
100
AcDbArc
 50
98.0905248997
 51
141.9094751003
  0
LINE
  5
42B
330
1F
100
AcDbEntity
  8
0
  6
Continuous
 62
     7
370
    25
100
AcDbLine
 10
857.119028122
 20
39.8049446117
 30
0.0
 11
857.119028122
 21
-66.2787507932
 31
0.0
  0
LINE
  5
42C
330
1F
100
AcDbEntity
  8
0
  6
Continuous
 62
     7
370
    25
100
AcDbLine
 10
943.0185396292
 20
89.3990507036
 30
0.0
 11
1034.8897147772
 21
36.3572030011
 31
0.0
  0
ARC
  5
42D
330
1F
100
AcDbEntity
  8
0
  6
Continuous
 62
     7
370
    25
100
AcDbCircle
 10
927.283832372
 20
17.4641509315
 30
0.0
 40
73.6356626757475
100
AcDbArc
 50
77.661712424
 51
162.338287576
  0
LINE
  5
42E
330
1F
100
AcDbEntity
  8
0
  6
Continuous
 62
     7
370
    25
100
AcDbLine
 10
851.119028122
 20
39.8049446117
 30
0.0
 11
851.119028122
 21
-66.2787507932
 31
0.0
  0
ARC
  5
42F
330
1F
100
AcDbEntity
  8
0
  6
Continuous
 62
     7
370
    25
100
AcDbCircle
 10
634.6371839026
 20
-235.9643963087
 30
0.0
 40
275.0592793756274
100
AcDbArc
 50
38.0905248997
 51
81.9094751003
  0
ARC
  5
430
330
1F
100
AcDbEntity
  8
0
  6
Continuous
 62
     7
370
    25
100
AcDbCircle
 10
780.9542238721
 20
17.4641509315
 30
0.0
 40
73.63566267574738
100
AcDbArc
 50
17.661712424
 51
102.338287576
  0
LINE
  5
431
330
1F
100
AcDbEntity
  8
0
  6
Continuous
 62
     7
370
    25
100
AcDbLine
 10
765.2195166149
 20
89.3990507036
 30
0.0
 11
673.3483414669
 21
36.3572030011
 31
0.0
  0
LINE
  5
432
330
1F
100
AcDbEntity
  8
0
  6
Continuous
 62
     7
370
    25
100
AcDbLine
 10
851.119028122
 20
-76.1879683179
 30
0.0
 11
851.119028122
 21
-183.4078909935
 31
0.0
  0
ARC
  5
433
330
1F
100
AcDbEntity
  8
0
  6
Continuous
 62
     7
370
    25
100
AcDbCircle
 10
406.4517083406
 20
-631.1932335314
 30
0.0
 40
631.0631808887064
100
AcDbArc
 50
45.2001773596
 51
74.7998226404
  0
LINE
  5
434
330
1F
100
AcDbEntity
  8
0
  6
Continuous
 62
     7
370
    25
100
AcDbLine
 10
664.7667073589
 20
31.4025942388
 30
0.0
 11
571.91153053
 21
-22.207367099
 31
0.0
  0
ARC
  5
435
330
1F
100
AcDbEntity
  8
0
  6
Continuous
 62
     7
370
    25
100
AcDbCircle
 10
634.6371839026
 20
-235.9643963087
 30
0.0
 40
269.0592793756274
100
AcDbArc
 50
36.4295233751
 51
83.5704766249
  0
LINE
  5
436
330
1F
100
AcDbEntity
  8
0
  6
Continuous
 62
     7
370
    25
100
AcDbLine
 10
857.119028122
 20
-76.1879683179
 30
0.0
 11
857.119028122
 21
-183.4078909935
 31
0.0
  0
ARC
  5
437
330
1F
100
AcDbEntity
  8
0
  6
Continuous
 62
     7
370
    25
100
AcDbCircle
 10
1301.7863479035
 20
-631.1932335314
 30
0.0
 40
631.0631808887064
100
AcDbArc
 50
105.2001773596
 51
134.7998226404
  0
LINE
  5
438
330
1F
100
AcDbEntity
  8
0
  6
Continuous
 62
     7
370
    25
100
AcDbLine
 10
1043.4713488852
 20
31.4025942388
 30
0.0
 11
1136.3265257141
 21
-22.207367099
 31
0.0
  0
ARC
  5
439
330
1F
100
AcDbEntity
  8
0
  6
Continuous
 62
     7
370
    25
100
AcDbCircle
 10
1073.6008723414
 20
-235.9643963087
 30
0.0
 40
269.0592793756275
100
AcDbArc
 50
96.4295233751
 51
143.5704766249
  0
LINE
  5
43A
330
1F
100
AcDbEntity
  8
0
  6
Continuous
 62
     7
370
    25
100
AcDbLine
 10
851.119028122
 20
-191.9040863617
 30
0.0
 11
851.119028122
 21
-299.5259581458
 31
0.0
  0
ARC
  5
43B
330
1F
100
AcDbEntity
  8
0
  6
Continuous
 62
     7
370
    25
100
AcDbCircle
 10
100.5383615383
 20
-1161.0506929065
 30
0.0
 40
1142.626888207152
100
AcDbArc
 50
48.936851813
 51
71.063148187
  0
LINE
  5
43C
330
1F
100
AcDbEntity
  8
0
  6
Continuous
 62
     7
370
    25
100
AcDbLine
 10
564.5536095057
 20
-26.4554647831
 30
0.0
 11
471.3503345379
 21
-80.2664006751
 31
0.0
  0
ARC
  5
43D
330
1F
100
AcDbEntity
  8
0
  6
Continuous
 62
     7
370
    25
100
AcDbCircle
 10
406.4517083406
 20
-631.1932335314
 30
0.0
 40
625.0631808887064
100
AcDbArc
 50
44.6514050166
 51
75.3485949834
  0
ARC
  5
43E
330
1F
100
AcDbEntity
  8
0
  6
Continuous
 62
     7
370
    25
100
AcDbCircle
 10
1607.6996947058
 20
-1161.0506929065
 30
0.0
 40
1142.626888207152
100
AcDbArc
 50
108.936851813
 51
131.063148187
  0
LINE
  5
43F
330
1F
100
AcDbEntity
  8
0
  6
Continuous
 62
     7
370
    25
100
AcDbLine
 10
857.119028122
 20
-191.9040863617
 30
0.0
 11
857.119028122
 21
-299.5259581458
 31
0.0
  0
LINE
  5
440
330
1F
100
AcDbEntity
  8
0
  6
Continuous
 62
     7
370
    25
100
AcDbLine
 10
1143.6844467384
 20
-26.4554647831
 30
0.0
 11
1236.8877217062
 21
-80.2664006751
 31
0.0
  0
ARC
  5
441
330
1F
100
AcDbEntity
  8
0
  6
Continuous
 62
     7
370
    25
100
AcDbCircle
 10
1301.7863479035
 20
-631.1932335314
 30
0.0
 40
625.0631808887065
100
AcDbArc
 50
104.6514050166
 51
135.3485949834
  0
LINE
  5
442
330
1F
100
AcDbEntity
  8
0
  6
Continuous
 62
     7
370
    25
100
AcDbLine
 10
370.5230237378
 20
-138.4790757072
 30
0.0
 11
370.5230237378
 21
-202.9542843212
 31
0.0
  0
LINE
  5
443
330
1F
100
AcDbEntity
  8
0
  6
Continuous
 62
     7
370
    25
100
AcDbLine
 10
851.119028122
 20
-307.499671616
 30
0.0
 11
851.119028122
 21
-374.1300616887
 31
0.0
  0
LINE
  5
444
330
1F
100
AcDbEntity
  8
0
  6
Continuous
 62
     7
370
    25
100
AcDbLine
 10
464.4448961101
 20
-84.2532574102
 30
0.0
 11
413.4218768949
 21
-113.711411289
 31
0.0
  0
LINE
  5
445
330
1F
100
AcDbEntity
  8
0
  6
Continuous
 62
     7
370
    25
100
AcDbLine
 10
407.4254407701
 20
-117.1734552999
 30
0.0
 11
370.5230237378
 21
-138.4790757072
 31
0.0
  0
ARC
  5
446
330
1F
100
AcDbEntity
  8
0
  6
Continuous
 62
     7
370
    25
100
AcDbCircle
 10
100.5383615383
 20
-1161.0506929065
 30
0.0
 40
1136.626888207153
100
AcDbArc
 50
48.6728178444
 51
71.3271821556
  0
LINE
  5
447
330
1F
100
AcDbEntity
  8
0
  6
Continuous
 62
     7
370
    25
100
AcDbLine
 10
851.119028122
 20
-387.4913198749
 30
0.0
 11
851.119028122
 21
-419.7284607342
 31
0.0
  0
LINE
  5
448
330
1F
100
AcDbEntity
  8
0
  6
Continuous
 62
     7
370
    25
100
AcDbLine
 10
1337.7150325062
 20
-138.4790757072
 30
0.0
 11
1337.7150325062
 21
-202.9542843212
 31
0.0
  0
LINE
  5
449
330
1F
100
AcDbEntity
  8
0
  6
Continuous
 62
     7
370
    25
100
AcDbLine
 10
1243.793160134
 20
-84.2532574102
 30
0.0
 11
1295.1368016408
 21
-113.8965226554
 31
0.0
  0
LINE
  5
44A
330
1F
100
AcDbEntity
  8
0
  6
Continuous
 62
     7
370
    25
100
AcDbLine
 10
1324.4330002035
 20
-130.8106907818
 30
0.0
 11
1337.7150325062
 21
-138.4790757072
 31
0.0
  0
ARC
  5
44B
330
1F
100
AcDbEntity
  8
0
  6
Continuous
 62
     7
370
    25
100
AcDbCircle
 10
1607.6996947058
 20
-1161.0506929065
 30
0.0
 40
1136.626888207152
100
AcDbArc
 50
108.6728178444
 51
131.3271821556
  0
LINE
  5
44C
330
1F
100
AcDbEntity
  8
0
  6
Continuous
 62
     7
370
    25
100
AcDbLine
 10
857.119028122
 20
-307.499671616
 30
0.0
 11
857.119028122
 21
-374.6887015243
 31
0.0
  0
LINE
  5
44D
330
1F
100
AcDbEntity
  8
0
  6
Continuous
 62
     7
370
    25
100
AcDbLine
 10
857.119028122
 20
-386.9326800393
 30
0.0
 11
857.119028122
 21
-419.546455781
 31
0.0
  0
LINE
  5
44E
330
1F
100
AcDbEntity
  8
0
  6
Continuous
 62
     7
370
    25
100
AcDbLine
 10
1298.5932542413
 20
-229.193376684
 30
0.0
 11
933.5934230245
 21
-439.9261274912
 31
0.0
  0
LINE
  5
44F
330
1F
100
AcDbEntity
  8
0
  6
Continuous
 62
     7
370
    25
100
AcDbLine
 10
768.938303717
 20
-436.6315766168
 30
0.0
 11
409.6448020028
 21
-229.193376684
 31
0.0
  0
LINE
  5
450
330
1F
100
AcDbEntity
  8
0
  6
Continuous
 62
     7
370
    25
100
AcDbLine
 10
370.5230237378
 20
-138.4790757072
 30
0.0
 11
370.5230237378
 21
-131.5508724769
 31
0.0
  0
LINE
  5
451
330
1F
100
AcDbEntity
  8
0
  6
Continuous
 62
     7
370
    25
100
AcDbLine
 10
1337.7150325062
 20
-138.4790757072
 30
0.0
 11
1337.7150325062
 21
-131.5508724769
 31
0.0
  0
LINE
  5
452
330
1F
100
AcDbEntity
  8
0
  6
Continuous
 62
     7
370
    25
100
AcDbLine
 10
370.5230237378
 20
426.8576941436
 30
0.0
 11
370.5230237378
 21
419.9294909133
 31
0.0
  0
LINE
  5
453
330
1F
100
AcDbEntity
  8
0
  6
Continuous
 62
     7
370
    25
100
AcDbLine
 10
1337.7150325062
 20
426.8576941436
 30
0.0
 11
1337.7150325062
 21
419.9294909133
 31
0.0
  0
ARC
  5
454
330
1F
100
AcDbEntity
  8
0
  6
Continuous
 62
     8
370
    25
100
AcDbCircle
 10
1293.5230237378
 20
409.1893092182
 30
0.0
 40
6.637921400061486
100
AcDbArc
 50
270.0
 51
310.0478208574
  0
ARC
  5
455
330
1F
100
AcDbEntity
  8
0
  6
Continuous
 62
     8
370
    25
100
AcDbCircle
 10
1293.5230237378
 20
409.1893092182
 30
0.0
 40
6.637921400061373
100
AcDbArc
 50
229.2726261812
 51
270.0
  0
ARC
  5
456
330
1F
100
AcDbEntity
  8
0
  6
Continuous
 62
     8
370
    25
100
AcDbCircle
 10
1293.5230237378
 20
-120.8106907818
 30
0.0
 40
6.637921400061533
100
AcDbArc
 50
49.2217684215
 51
129.7781101048
  0
LINE
  5
457
330
1F
100
AcDbEntity
  8
0
  6
Continuous
 62
     8
370
    25
100
AcDbLine
 10
288.4853333897
 20
-363.0477321398
 30
0.0
 11
295.953392831
 21
-350.1126737536
 31
0.0
  0
LINE
  5
458
330
1F
100
AcDbEntity
  8
0
  6
Continuous
 62
     8
370
    25
100
AcDbLine
 10
290.7572404083
 20
-347.1126737536
 30
0.0
 11
283.289180967
 21
-360.0477321398
 31
0.0
  0
LINE
  5
459
330
1F
100
AcDbEntity
  8
0
  6
Continuous
 62
     8
370
    25
100
AcDbLine
 10
295.953392831
 20
638.49129219
 30
0.0
 11
288.4853333897
 21
651.4263505762
 31
0.0
  0
LINE
  5
45A
330
1F
100
AcDbEntity
  8
0
  6
Continuous
 62
     8
370
    25
100
AcDbLine
 10
283.289180967
 20
648.4263505762
 30
0.0
 11
290.7572404083
 21
635.49129219
 31
0.0
  0
LINE
  5
45B
330
1F
100
AcDbEntity
  8
0
  6
Continuous
 62
     8
370
    25
100
AcDbLine
 10
1424.9488752771
 20
-360.0477321398
 30
0.0
 11
1417.4808158358
 21
-347.1126737536
 31
0.0
  0
LINE
  5
45C
330
1F
100
AcDbEntity
  8
0
  6
Continuous
 62
     8
370
    25
100
AcDbLine
 10
1412.2846634131
 20
-350.1126737536
 30
0.0
 11
1419.7527228544
 21
-363.0477321398
 31
0.0
  0
LINE
  5
45D
330
1F
100
AcDbEntity
  8
0
  6
Continuous
 62
     8
370
    25
100
AcDbLine
 10
1419.7527228544
 20
651.4263505762
 30
0.0
 11
1412.2846634131
 21
638.49129219
 31
0.0
  0
LINE
  5
45E
330
1F
100
AcDbEntity
  8
0
  6
Continuous
 62
     8
370
    25
100
AcDbLine
 10
1417.4808158358
 20
635.49129219
 30
0.0
 11
1424.9488752771
 21
648.4263505762
 31
0.0
  0
LINE
  5
45F
330
1F
100
AcDbEntity
  8
0
  6
Continuous
 62
     8
370
    25
100
AcDbLine
 10
559.1763365924
 20
1003.5757798774
 30
0.0
 11
558.8735393807
 21
1004.1002400325
 31
0.0
  0
LINE
  5
460
330
1F
100
AcDbEntity
  8
0
  6
Continuous
 62
     8
370
    25
100
AcDbLine
 10
576.3735393419
 20
973.7893509673
 30
0.0
 11
559.1763365924
 21
1003.5757798774
 31
0.0
  0
LINE
  5
461
330
1F
100
AcDbEntity
  8
0
  6
Continuous
 62
     8
370
    25
100
AcDbLine
 10
282.0482073814
 20
843.5757798774
 30
0.0
 11
281.7454101631
 21
844.1002400438
 31
0.0
  0
LINE
  5
462
330
1F
100
AcDbEntity
  8
0
  6
Continuous
 62
     8
370
    25
100
AcDbLine
 10
299.2454101308
 20
813.7893509672
 30
0.0
 11
282.0482073814
 21
843.5757798774
 31
0.0
  0
LINE
  5
463
330
1F
100
AcDbEntity
  8
0
  6
Continuous
 62
     8
370
    25
100
AcDbLine
 10
1426.1898488627
 20
-555.197161441
 30
0.0
 11
1426.492646081
 21
-555.7216216074
 31
0.0
  0
LINE
  5
464
330
1F
100
AcDbEntity
  8
0
  6
Continuous
 62
     8
370
    25
100
AcDbLine
 10
1408.9926461132
 20
-525.4107325308
 30
0.0
 11
1426.1898488627
 21
-555.197161441
 31
0.0
  0
LINE
  5
465
330
1F
100
AcDbEntity
  8
0
  6
Continuous
 62
     8
370
    25
100
AcDbLine
 10
1149.0617196517
 20
-715.197161441
 30
0.0
 11
1149.3645168634
 21
-715.7216215961
 31
0.0
  0
LINE
  5
466
330
1F
100
AcDbEntity
  8
0
  6
Continuous
 62
     8
370
    25
100
AcDbLine
 10
1131.8645169022
 20
-685.4107325308
 30
0.0
 11
1149.0617196517
 21
-715.197161441
 31
0.0
  0
LINE
  5
467
330
1F
100
AcDbEntity
  8
0
  6
Continuous
 62
     8
370
    25
100
AcDbLine
 10
282.0482073814
 20
-555.197161441
 30
0.0
 11
281.7454101697
 21
-555.7216215961
 31
0.0
  0
LINE
  5
468
330
1F
100
AcDbEntity
  8
0
  6
Continuous
 62
     8
370
    25
100
AcDbLine
 10
299.2454101308
 20
-525.4107325308
 30
0.0
 11
282.0482073814
 21
-555.197161441
 31
0.0
  0
LINE
  5
469
330
1F
100
AcDbEntity
  8
0
  6
Continuous
 62
     8
370
    25
100
AcDbLine
 10
559.1763365924
 20
-715.197161441
 30
0.0
 11
558.8735393741
 21
-715.7216216074
 31
0.0
  0
LINE
  5
46A
330
1F
100
AcDbEntity
  8
0
  6
Continuous
 62
     8
370
    25
100
AcDbLine
 10
576.3735393419
 20
-685.4107325308
 30
0.0
 11
559.1763365924
 21
-715.197161441
 31
0.0
  0
LINE
  5
46B
330
1F
100
AcDbEntity
  8
0
  6
Continuous
 62
     8
370
    25
100
AcDbLine
 10
1195.3525711923
 20
1083.7538866713
 30
0.0
 11
1195.6553684105
 21
1084.2783468377
 31
0.0
  0
LINE
  5
46C
330
1F
100
AcDbEntity
  8
0
  6
Continuous
 62
     8
370
    25
100
AcDbLine
 10
1178.1553684428
 20
1053.9674577611
 30
0.0
 11
1195.3525711923
 21
1083.7538866713
 31
0.0
  0
LINE
  5
46D
330
1F
100
AcDbEntity
  8
0
  6
Continuous
 62
     8
370
    25
100
AcDbLine
 10
1472.4807004033
 20
923.7538866713
 30
0.0
 11
1472.783497615
 21
924.2783468264
 31
0.0
  0
LINE
  5
46E
330
1F
100
AcDbEntity
  8
0
  6
Continuous
 62
     8
370
    25
100
AcDbLine
 10
1455.2834976538
 20
893.9674577611
 30
0.0
 11
1472.4807004033
 21
923.7538866713
 31
0.0
  0
LINE
  5
46F
330
1F
100
AcDbEntity
  8
0
  6
Continuous
 62
     8
370
    25
100
AcDbLine
 10
1241.6434227328
 20
1163.9319934652
 30
0.0
 11
1241.9462199511
 21
1164.4564536316
 31
0.0
  0
LINE
  5
470
330
1F
100
AcDbEntity
  8
0
  6
Continuous
 62
     8
370
    25
100
AcDbLine
 10
1224.4462199834
 20
1134.145564555
 30
0.0
 11
1241.6434227328
 21
1163.9319934652
 31
0.0
  0
LINE
  5
471
330
1F
100
AcDbEntity
  8
0
  6
Continuous
 62
     8
370
    25
100
AcDbLine
 10
1518.7715519438
 20
1003.9319934652
 30
0.0
 11
1519.0743491556
 21
1004.4564536202
 31
0.0
  0
LINE
  5
472
330
1F
100
AcDbEntity
  8
0
  6
Continuous
 62
     8
370
    25
100
AcDbLine
 10
1501.5743491944
 20
974.145564555
 30
0.0
 11
1518.7715519438
 21
1003.9319934652
 31
0.0
  0
LINE
  5
473
330
1F
100
AcDbEntity
  8
0
  6
Continuous
 62
     8
370
    25
100
AcDbLine
 10
235.7573558408
 20
-635.3752682349
 30
0.0
 11
235.4545586291
 21
-635.8997283899
 31
0.0
  0
LINE
  5
474
330
1F
100
AcDbEntity
  8
0
  6
Continuous
 62
     8
370
    25
100
AcDbLine
 10
252.9545585903
 20
-605.5888393247
 30
0.0
 11
235.7573558408
 21
-635.3752682349
 31
0.0
  0
LINE
  5
475
330
1F
100
AcDbEntity
  8
0
  6
Continuous
 62
     8
370
    25
100
AcDbLine
 10
512.8854850518
 20
-795.3752682349
 30
0.0
 11
512.5826878336
 21
-795.8997284013
 31
0.0
  0
LINE
  5
476
330
1F
100
AcDbEntity
  8
0
  6
Continuous
 62
     8
370
    25
100
AcDbLine
 10
530.0826878013
 20
-765.5888393247
 30
0.0
 11
512.8854850518
 21
-795.3752682349
 31
0.0
  0
LINE
  5
477
330
1F
100
AcDbEntity
  8
0
  6
Continuous
 62
     8
370
    25
100
AcDbLine
 10
1149.0617196517
 20
1003.5757798774
 30
0.0
 11
1149.36451687
 21
1004.1002400438
 31
0.0
  0
LINE
  5
478
330
1F
100
AcDbEntity
  8
0
  6
Continuous
 62
     8
370
    25
100
AcDbLine
 10
1131.8645169022
 20
973.7893509672
 30
0.0
 11
1149.0617196517
 21
1003.5757798774
 31
0.0
  0
LINE
  5
479
330
1F
100
AcDbEntity
  8
0
  6
Continuous
 62
     8
370
    25
100
AcDbLine
 10
1426.1898488627
 20
843.5757798774
 30
0.0
 11
1426.4926460744
 21
844.1002400325
 31
0.0
  0
LINE
  5
47A
330
1F
100
AcDbEntity
  8
0
  6
Continuous
 62
     8
370
    25
100
AcDbLine
 10
1408.9926461133
 20
813.7893509673
 30
0.0
 11
1426.1898488627
 21
843.5757798774
 31
0.0
  0
LINE
  5
47B
330
1F
100
AcDbEntity
  8
0
  6
Continuous
 62
     8
370
    25
100
AcDbLine
 10
189.4665043002
 20
-715.5533750288
 30
0.0
 11
189.1637070885
 21
-716.0778351838
 31
0.0
  0
LINE
  5
47C
330
1F
100
AcDbEntity
  8
0
  6
Continuous
 62
     8
370
    25
100
AcDbLine
 10
206.6637070497
 20
-685.7669461186
 30
0.0
 11
189.4665043002
 21
-715.5533750288
 31
0.0
  0
LINE
  5
47D
330
1F
100
AcDbEntity
  8
0
  6
Continuous
 62
     8
370
    25
100
AcDbLine
 10
466.5946335113
 20
-875.5533750288
 30
0.0
 11
466.291836293
 21
-876.0778351952
 31
0.0
  0
LINE
  5
47E
330
1F
100
AcDbEntity
  8
0
  6
Continuous
 62
     8
370
    25
100
AcDbLine
 10
483.7918362607
 20
-845.7669461186
 30
0.0
 11
466.5946335113
 21
-875.5533750288
 31
0.0
  0
LINE
  5
47F
330
1F
100
AcDbEntity
  8
0
  6
Continuous
 62
     8
370
    25
100
AcDbLine
 10
466.5946335113
 20
1163.9319934652
 30
0.0
 11
466.2918362995
 21
1164.4564536202
 31
0.0
  0
LINE
  5
480
330
1F
100
AcDbEntity
  8
0
  6
Continuous
 62
     8
370
    25
100
AcDbLine
 10
483.7918362607
 20
1134.145564555
 30
0.0
 11
466.5946335113
 21
1163.9319934652
 31
0.0
  0
LINE
  5
481
330
1F
100
AcDbEntity
  8
0
  6
Continuous
 62
     8
370
    25
100
AcDbLine
 10
189.4665043002
 20
1003.9319934652
 30
0.0
 11
189.163707082
 21
1004.4564536316
 31
0.0
  0
LINE
  5
482
330
1F
100
AcDbEntity
  8
0
  6
Continuous
 62
     8
370
    25
100
AcDbLine
 10
206.6637070497
 20
974.145564555
 30
0.0
 11
189.4665043002
 21
1003.9319934652
 31
0.0
  0
LINE
  5
483
330
1F
100
AcDbEntity
  8
0
  6
Continuous
 62
     8
370
    25
100
AcDbLine
 10
512.8854850518
 20
1083.7538866713
 30
0.0
 11
512.5826878401
 21
1084.2783468264
 31
0.0
  0
LINE
  5
484
330
1F
100
AcDbEntity
  8
0
  6
Continuous
 62
     8
370
    25
100
AcDbLine
 10
530.0826878013
 20
1053.9674577611
 30
0.0
 11
512.8854850518
 21
1083.7538866713
 31
0.0
  0
LINE
  5
485
330
1F
100
AcDbEntity
  8
0
  6
Continuous
 62
     8
370
    25
100
AcDbLine
 10
235.7573558408
 20
923.7538866713
 30
0.0
 11
235.4545586225
 21
924.2783468377
 31
0.0
  0
LINE
  5
486
330
1F
100
AcDbEntity
  8
0
  6
Continuous
 62
     8
370
    25
100
AcDbLine
 10
252.9545585903
 20
893.9674577611
 30
0.0
 11
235.7573558408
 21
923.7538866713
 31
0.0
  0
LINE
  5
487
330
1F
100
AcDbEntity
  8
0
  6
Continuous
 62
     8
370
    25
100
AcDbLine
 10
1472.4807004033
 20
-635.3752682349
 30
0.0
 11
1472.7834976215
 21
-635.8997284013
 31
0.0
  0
LINE
  5
488
330
1F
100
AcDbEntity
  8
0
  6
Continuous
 62
     8
370
    25
100
AcDbLine
 10
1455.2834976538
 20
-605.5888393247
 30
0.0
 11
1472.4807004033
 21
-635.3752682349
 31
0.0
  0
LINE
  5
489
330
1F
100
AcDbEntity
  8
0
  6
Continuous
 62
     8
370
    25
100
AcDbLine
 10
1195.3525711923
 20
-795.3752682349
 30
0.0
 11
1195.655368404
 21
-795.8997283899
 31
0.0
  0
LINE
  5
48A
330
1F
100
AcDbEntity
  8
0
  6
Continuous
 62
     8
370
    25
100
AcDbLine
 10
1178.1553684428
 20
-765.5888393247
 30
0.0
 11
1195.3525711923
 21
-795.3752682349
 31
0.0
  0
LINE
  5
48B
330
1F
100
AcDbEntity
  8
0
  6
Continuous
 62
     8
370
    25
100
AcDbLine
 10
1518.7715519438
 20
-715.5533750288
 30
0.0
 11
1519.0743491621
 21
-716.0778351952
 31
0.0
  0
LINE
  5
48C
330
1F
100
AcDbEntity
  8
0
  6
Continuous
 62
     8
370
    25
100
AcDbLine
 10
1501.5743491944
 20
-685.7669461186
 30
0.0
 11
1518.7715519438
 21
-715.5533750288
 31
0.0
  0
LINE
  5
48D
330
1F
100
AcDbEntity
  8
0
  6
Continuous
 62
     8
370
    25
100
AcDbLine
 10
1241.6434227328
 20
-875.5533750288
 30
0.0
 11
1241.9462199445
 21
-876.0778351838
 31
0.0
  0
LINE
  5
48E
330
1F
100
AcDbEntity
  8
0
  6
Continuous
 62
     8
370
    25
100
AcDbLine
 10
1224.4462199834
 20
-845.7669461186
 30
0.0
 11
1241.6434227328
 21
-875.5533750288
 31
0.0
  0
ARC
  5
48F
330
1F
100
AcDbEntity
  8
0
  6
Continuous
 62
     8
370
    25
100
AcDbCircle
 10
173.4455561927
 20
-603.8975872069
 30
0.0
 40
17.20520304285898
100
AcDbArc
 50
239.009039908
 51
328.9735143564
  0
ARC
  5
490
330
1F
100
AcDbEntity
  8
0
  6
Continuous
 62
     8
370
    25
100
AcDbCircle
 10
172.9301705575
 20
-603.6000291717
 30
0.0
 40
17.20520304285924
100
AcDbArc
 50
151.0264856436
 51
240.990960092
  0
LWPOLYLINE
  5
491
330
1F
100
AcDbEntity
  8
0
  6
Continuous
 62
     8
370
    25
100
AcDbPolyline
 90
       13
 70
   128
 43
0.0
 10
327.2156466438
 20
-336.9648617906
 10
329.128924255
 20
-338.2193844869
 10
330.8796554367
 20
-339.6772789806
 10
332.4378846931
 20
-341.3136002928
 10
333.7769502896
 20
-343.1003505122
 10
334.8739404426
 20
-345.0069578472
 10
335.7100853464
 20
-347.0007997175
 10
336.2710783299
 20
-349.0477609361
 10
336.5473206476
 20
-351.1128174289
 10
336.5340857168
 20
-353.1606355069
 10
336.231599991
 20
-355.1561764348
 10
335.6450390846
 20
-357.0652959543
 10
334.7844392176
 20
-358.855328501
  0
LWPOLYLINE
  5
492
330
1F
100
AcDbEntity
  8
0
  6
Continuous
 62
     8
370
    25
100
AcDbPolyline
 90
       13
 70
   128
 43
0.0
 10
304.4735500851
 20
-341.355328501
 10
305.5934638106
 20
-339.7150108803
 10
306.9535293601
 20
-338.2524744748
 10
308.5304756351
 20
-336.9927436879
 10
310.2973206476
 20
-335.9573728627
 10
312.2238331895
 20
-335.164077481
 10
314.2770500971
 20
-334.6264310467
 10
316.4218402598
 20
-334.3536328395
 10
318.6215057234
 20
-334.3503505122
 10
320.8384096019
 20
-334.6166402264
 10
323.0346200552
 20
-335.1479456913
 10
325.1725593137
 20
-335.935176123
 10
327.2156466438
 20
-336.9648617906
  0
ARC
  5
493
330
1F
100
AcDbEntity
  8
0
  6
Continuous
 62
     8
370
    25
100
AcDbCircle
 10
1136.4208143106
 20
1122.2762056433
 30
0.0
 40
17.20520304285925
100
AcDbArc
 50
59.009039908
 51
148.9735143564
  0
ARC
  5
494
330
1F
100
AcDbEntity
  8
0
  6
Continuous
 62
     8
370
    25
100
AcDbCircle
 10
1136.9361999458
 20
1121.9786476081
 30
0.0
 40
17.20520304285878
100
AcDbArc
 50
331.0264856436
 51
60.990960092
  0
LWPOLYLINE
  5
495
330
1F
100
AcDbEntity
  8
0
  6
Continuous
 62
     8
370
    25
100
AcDbPolyline
 90
       13
 70
   128
 43
0.0
 10
982.6507238594
 20
855.343480227
 10
980.7374462483
 20
856.5980029233
 10
978.9867150666
 20
858.055897417
 10
977.4284858101
 20
859.6922187292
 10
976.0894202136
 20
861.4789689486
 10
974.9924300606
 20
863.3855762836
 10
974.1562851568
 20
865.3794181539
 10
973.5952921734
 20
867.4263793725
 10
973.3190498557
 20
869.4914358653
 10
973.3322847864
 20
871.5392539433
 10
973.6347705123
 20
873.5347948712
 10
974.2213314186
 20
875.4439143907
 10
975.0819312857
 20
877.2339469374
  0
LWPOLYLINE
  5
496
330
1F
100
AcDbEntity
  8
0
  6
Continuous
 62
     8
370
    25
100
AcDbPolyline
 90
       13
 70
   128
 43
0.0
 10
1005.3928204181
 20
859.7339469374
 10
1004.2729066927
 20
858.0936293167
 10
1002.9128411431
 20
856.6310929112
 10
1001.3358948681
 20
855.3713621243
 10
999.5690498557
 20
854.3359912991
 10
997.6425373138
 20
853.5426959174
 10
995.5893204062
 20
853.0050494832
 10
993.4445302434
 20
852.7322512759
 10
991.2448647799
 20
852.7289689486
 10
989.0279609014
 20
852.9952586629
 10
986.831750448
 20
853.5265641277
 10
984.6938111896
 20
854.3137945594
 10
982.6507238594
 20
855.343480227
  0
ARC
  5
497
330
1F
100
AcDbEntity
  8
0
  6
Continuous
 62
     8
370
    25
100
AcDbCircle
 10
1534.7925000514
 20
892.2762056433
 30
0.0
 40
17.20520304285885
100
AcDbArc
 50
59.009039908
 51
148.9735143564
  0
ARC
  5
498
330
1F
100
AcDbEntity
  8
0
  6
Continuous
 62
     8
370
    25
100
AcDbCircle
 10
1535.3078856866
 20
891.9786476081
 30
0.0
 40
17.20520304285905
100
AcDbArc
 50
331.0264856436
 51
60.990960092
  0
LWPOLYLINE
  5
499
330
1F
100
AcDbEntity
  8
0
  6
Continuous
 62
     8
370
    25
100
AcDbPolyline
 90
       13
 70
   128
 43
0.0
 10
1381.0224096003
 20
625.343480227
 10
1379.1091319891
 20
626.5980029233
 10
1377.3584008074
 20
628.055897417
 10
1375.800171551
 20
629.6922187292
 10
1374.4611059545
 20
631.4789689486
 10
1373.3641158015
 20
633.3855762836
 10
1372.5279708977
 20
635.3794181539
 10
1371.9669779142
 20
637.4263793725
 10
1371.6907355965
 20
639.4914358653
 10
1371.7039705273
 20
641.5392539433
 10
1372.0064562531
 20
643.5347948712
 10
1372.5930171595
 20
645.4439143907
 10
1373.4536170265
 20
647.2339469374
  0
LWPOLYLINE
  5
49A
330
1F
100
AcDbEntity
  8
0
  6
Continuous
 62
     8
370
    25
100
AcDbPolyline
 90
       13
 70
   128
 43
0.0
 10
1403.764506159
 20
629.7339469374
 10
1402.6445924335
 20
628.0936293167
 10
1401.2845268839
 20
626.6310929112
 10
1399.707580609
 20
625.3713621243
 10
1397.9407355965
 20
624.3359912991
 10
1396.0142230546
 20
623.5426959174
 10
1393.961006147
 20
623.0050494832
 10
1391.8162159843
 20
622.7322512759
 10
1389.6165505207
 20
622.7289689486
 10
1387.3996466422
 20
622.9952586629
 10
1385.2034361889
 20
623.5265641277
 10
1383.0654969304
 20
624.3137945594
 10
1381.0224096003
 20
625.343480227
  0
ARC
  5
49B
330
1F
100
AcDbEntity
  8
0
  6
Continuous
 62
     8
370
    25
100
AcDbCircle
 10
571.8172419335
 20
-833.8975872069
 30
0.0
 40
17.2052030428592
100
AcDbArc
 50
239.009039908
 51
328.9735143564
  0
ARC
  5
49C
330
1F
100
AcDbEntity
  8
0
  6
Continuous
 62
     8
370
    25
100
AcDbCircle
 10
571.3018562983
 20
-833.6000291717
 30
0.0
 40
17.2052030428591
100
AcDbArc
 50
151.0264856436
 51
240.990960092
  0
LWPOLYLINE
  5
49D
330
1F
100
AcDbEntity
  8
0
  6
Continuous
 62
     8
370
    25
100
AcDbPolyline
 90
       13
 70
   128
 43
0.0
 10
725.5873323847
 20
-566.9648617906
 10
727.5006099958
 20
-568.2193844869
 10
729.2513411775
 20
-569.6772789806
 10
730.809570434
 20
-571.3136002928
 10
732.1486360305
 20
-573.1003505122
 10
733.2456261835
 20
-575.0069578472
 10
734.0817710873
 20
-577.0007997175
 10
734.6427640707
 20
-579.0477609361
 10
734.9190063884
 20
-581.1128174289
 10
734.9057714577
 20
-583.1606355069
 10
734.6032857318
 20
-585.1561764348
 10
734.0167248255
 20
-587.0652959543
 10
733.1561249584
 20
-588.855328501
  0
LWPOLYLINE
  5
49E
330
1F
100
AcDbEntity
  8
0
  6
Continuous
 62
     8
370
    25
100
AcDbPolyline
 90
       13
 70
   128
 43
0.0
 10
702.8452358259
 20
-571.355328501
 10
703.9651495514
 20
-569.7150108803
 10
705.325215101
 20
-568.2524744748
 10
706.902161376
 20
-566.9927436879
 10
708.6690063884
 20
-565.9573728627
 10
710.5955189303
 20
-565.164077481
 10
712.6487358379
 20
-564.6264310467
 10
714.7935260007
 20
-564.3536328395
 10
716.9931914642
 20
-564.3503505122
 10
719.2100953427
 20
-564.6166402264
 10
721.4063057961
 20
-565.1479456913
 10
723.5442450545
 20
-565.935176123
 10
725.5873323847
 20
-566.9648617906
  0
ARC
  5
49F
330
1F
100
AcDbEntity
  8
0
  6
Continuous
 62
     8
370
    25
100
AcDbCircle
 10
1535.3078856866
 20
-603.6000291717
 30
0.0
 40
17.20520304285854
100
AcDbArc
 50
299.009039908
 51
28.9735143564
  0
ARC
  5
4A0
330
1F
100
AcDbEntity
  8
0
  6
Continuous
 62
     8
370
    25
100
AcDbCircle
 10
1534.7925000514
 20
-603.8975872069
 30
0.0
 40
17.20520304285924
100
AcDbArc
 50
211.0264856436
 51
300.990960092
  0
LWPOLYLINE
  5
4A1
330
1F
100
AcDbEntity
  8
0
  6
Continuous
 62
     8
370
    25
100
AcDbPolyline
 90
       13
 70
   128
 43
0.0
 10
1381.0224096003
 20
-336.9648617906
 10
1383.0654969304
 20
-335.935176123
 10
1385.2034361889
 20
-335.1479456913
 10
1387.3996466422
 20
-334.6166402264
 10
1389.6165505207
 20
-334.3503505122
 10
1391.8162159843
 20
-334.3536328395
 10
1393.961006147
 20
-334.6264310467
 10
1396.0142230546
 20
-335.164077481
 10
1397.9407355965
 20
-335.9573728627
 10
1399.707580609
 20
-336.9927436879
 10
1401.2845268839
 20
-338.2524744748
 10
1402.6445924335
 20
-339.7150108803
 10
1403.764506159
 20
-341.355328501
  0
LWPOLYLINE
  5
4A2
330
1F
100
AcDbEntity
  8
0
  6
Continuous
 62
     8
370
    25
100
AcDbPolyline
 90
       13
 70
   128
 43
0.0
 10
1373.4536170265
 20
-358.855328501
 10
1372.5930171595
 20
-357.0652959543
 10
1372.0064562531
 20
-355.1561764348
 10
1371.7039705273
 20
-353.1606355069
 10
1371.6907355965
 20
-351.1128174289
 10
1371.9669779142
 20
-349.0477609361
 10
1372.5279708977
 20
-347.0007997175
 10
1373.3641158015
 20
-345.0069578472
 10
1374.4611059545
 20
-343.1003505122
 10
1375.800171551
 20
-341.3136002928
 10
1377.3584008074
 20
-339.6772789806
 10
1379.1091319891
 20
-338.2193844869
 10
1381.0224096003
 20
-336.9648617906
  0
ARC
  5
4A3
330
1F
100
AcDbEntity
  8
0
  6
Continuous
 62
     8
370
    25
100
AcDbCircle
 10
1136.9361999458
 20
-833.6000291717
 30
0.0
 40
17.20520304285907
100
AcDbArc
 50
299.009039908
 51
28.9735143564
  0
ARC
  5
4A4
330
1F
100
AcDbEntity
  8
0
  6
Continuous
 62
     8
370
    25
100
AcDbCircle
 10
1136.4208143106
 20
-833.8975872069
 30
0.0
 40
17.20520304285924
100
AcDbArc
 50
211.0264856436
 51
300.990960092
  0
LWPOLYLINE
  5
4A5
330
1F
100
AcDbEntity
  8
0
  6
Continuous
 62
     8
370
    25
100
AcDbPolyline
 90
       13
 70
   128
 43
0.0
 10
982.6507238594
 20
-566.9648617906
 10
984.6938111896
 20
-565.935176123
 10
986.831750448
 20
-565.1479456913
 10
989.0279609014
 20
-564.6166402264
 10
991.2448647799
 20
-564.3503505122
 10
993.4445302434
 20
-564.3536328395
 10
995.5893204062
 20
-564.6264310467
 10
997.6425373138
 20
-565.164077481
 10
999.5690498557
 20
-565.9573728627
 10
1001.3358948681
 20
-566.9927436879
 10
1002.9128411431
 20
-568.2524744748
 10
1004.2729066927
 20
-569.7150108803
 10
1005.3928204181
 20
-571.355328501
  0
LWPOLYLINE
  5
4A6
330
1F
100
AcDbEntity
  8
0
  6
Continuous
 62
     8
370
    25
100
AcDbPolyline
 90
       13
 70
   128
 43
0.0
 10
975.0819312857
 20
-588.855328501
 10
974.2213314186
 20
-587.0652959543
 10
973.6347705123
 20
-585.1561764348
 10
973.3322847864
 20
-583.1606355069
 10
973.3190498557
 20
-581.1128174289
 10
973.5952921734
 20
-579.0477609361
 10
974.1562851568
 20
-577.0007997175
 10
974.9924300606
 20
-575.0069578472
 10
976.0894202136
 20
-573.1003505122
 10
977.4284858101
 20
-571.3136002928
 10
978.9867150666
 20
-569.6772789806
 10
980.7374462483
 20
-568.2193844869
 10
982.6507238594
 20
-566.9648617906
  0
ARC
  5
4A7
330
1F
100
AcDbEntity
  8
0
  6
Continuous
 62
     8
370
    25
100
AcDbCircle
 10
172.9301705575
 20
891.9786476081
 30
0.0
 40
17.20520304285881
100
AcDbArc
 50
119.009039908
 51
208.9735143564
  0
ARC
  5
4A8
330
1F
100
AcDbEntity
  8
0
  6
Continuous
 62
     8
370
    25
100
AcDbCircle
 10
173.4455561927
 20
892.2762056433
 30
0.0
 40
17.20520304285892
100
AcDbArc
 50
31.0264856436
 51
120.990960092
  0
LWPOLYLINE
  5
4A9
330
1F
100
AcDbEntity
  8
0
  6
Continuous
 62
     8
370
    25
100
AcDbPolyline
 90
       13
 70
   128
 43
0.0
 10
327.2156466438
 20
625.343480227
 10
325.1725593137
 20
624.3137945594
 10
323.0346200552
 20
623.5265641277
 10
320.8384096019
 20
622.9952586629
 10
318.6215057234
 20
622.7289689486
 10
316.4218402598
 20
622.7322512759
 10
314.2770500971
 20
623.0050494832
 10
312.2238331895
 20
623.5426959174
 10
310.2973206476
 20
624.3359912991
 10
308.5304756351
 20
625.3713621243
 10
306.9535293601
 20
626.6310929112
 10
305.5934638106
 20
628.0936293167
 10
304.4735500851
 20
629.7339469374
  0
LWPOLYLINE
  5
4AA
330
1F
100
AcDbEntity
  8
0
  6
Continuous
 62
     8
370
    25
100
AcDbPolyline
 90
       13
 70
   128
 43
0.0
 10
334.7844392176
 20
647.2339469374
 10
335.6450390846
 20
645.4439143907
 10
336.231599991
 20
643.5347948712
 10
336.5340857168
 20
641.5392539433
 10
336.5473206476
 20
639.4914358653
 10
336.2710783299
 20
637.4263793725
 10
335.7100853464
 20
635.3794181539
 10
334.8739404426
 20
633.3855762836
 10
333.7769502896
 20
631.4789689486
 10
332.4378846931
 20
629.6922187292
 10
330.8796554367
 20
628.055897417
 10
329.128924255
 20
626.5980029233
 10
327.2156466438
 20
625.343480227
  0
ARC
  5
4AB
330
1F
100
AcDbEntity
  8
0
  6
Continuous
 62
     8
370
    25
100
AcDbCircle
 10
571.3018562983
 20
1121.9786476081
 30
0.0
 40
17.20520304285888
100
AcDbArc
 50
119.009039908
 51
208.9735143564
  0
ARC
  5
4AC
330
1F
100
AcDbEntity
  8
0
  6
Continuous
 62
     8
370
    25
100
AcDbCircle
 10
571.8172419335
 20
1122.2762056433
 30
0.0
 40
17.20520304285885
100
AcDbArc
 50
31.0264856436
 51
120.990960092
  0
LWPOLYLINE
  5
4AD
330
1F
100
AcDbEntity
  8
0
  6
Continuous
 62
     8
370
    25
100
AcDbPolyline
 90
       13
 70
   128
 43
0.0
 10
725.5873323847
 20
855.343480227
 10
723.5442450545
 20
854.3137945594
 10
721.4063057961
 20
853.5265641277
 10
719.2100953427
 20
852.9952586629
 10
716.9931914642
 20
852.7289689486
 10
714.7935260007
 20
852.7322512759
 10
712.6487358379
 20
853.0050494832
 10
710.5955189303
 20
853.5426959174
 10
708.6690063884
 20
854.3359912991
 10
706.902161376
 20
855.3713621243
 10
705.325215101
 20
856.6310929112
 10
703.9651495514
 20
858.0936293167
 10
702.8452358259
 20
859.7339469374
  0
LWPOLYLINE
  5
4AE
330
1F
100
AcDbEntity
  8
0
  6
Continuous
 62
     8
370
    25
100
AcDbPolyline
 90
       13
 70
   128
 43
0.0
 10
733.1561249584
 20
877.2339469374
 10
734.0167248255
 20
875.4439143907
 10
734.6032857318
 20
873.5347948712
 10
734.9057714577
 20
871.5392539433
 10
734.9190063884
 20
869.4914358653
 10
734.6427640707
 20
867.4263793725
 10
734.0817710873
 20
865.3794181539
 10
733.2456261835
 20
863.3855762836
 10
732.1486360305
 20
861.4789689486
 10
730.809570434
 20
859.6922187292
 10
729.2513411775
 20
858.055897417
 10
727.5006099958
 20
856.5980029233
 10
725.5873323847
 20
855.343480227
  0
ARC
  5
4AF
330
1F
100
AcDbEntity
  8
0
  6
Continuous
 62
     8
370
    25
100
AcDbCircle
 10
710.3533868615
 20
833.1167753744
 30
0.0
 40
2.592947059778203
100
AcDbArc
 50
211.6142408996
 51
278.8660271371
  0
LWPOLYLINE
  5
4B0
330
1F
100
AcDbEntity
  8
0
  6
Continuous
 62
     8
370
    25
100
AcDbPolyline
 90
       19
 70
   128
 43
0.0
 10
707.2308983024
 20
835.1102146656
 10
707.2312547654
 20
835.1569528012
 10
707.4082460535
 20
836.2873190265
 10
707.9057952543
 20
837.3985382388
 10
708.7158563516
 20
838.4726405814
 10
709.8253296063
 20
839.4922564256
 10
711.2162733961
 20
840.4408972602
 10
712.866194355
 20
841.3032223317
 10
714.74841112
 20
842.0652867248
 10
716.8324858036
 20
842.7147668694
 10
719.0847162137
 20
843.2411598287
 10
721.468680862
 20
843.6359531454
 10
723.9458279464
 20
843.8927624994
 10
726.4760987843
 20
844.0074349502
 10
729.0185756126
 20
843.9781160953
 10
731.5321432818
 20
843.8052800587
 10
733.976154141
 20
843.4917218235
 10
736.311085363
 20
843.0425120332
 10
738.4991780801
 20
842.464914993
  0
LWPOLYLINE
  5
4B1
330
1F
100
AcDbEntity
  8
0
  6
Continuous
 62
     8
370
    25
100
AcDbPolyline
 90
       19
 70
   128
 43
0.0
 10
962.917908865
 20
842.3008676751
 10
965.1102440416
 20
842.8752626767
 10
967.4484713075
 20
843.3210564459
 10
969.8947784937
 20
843.6310399191
 10
972.4096056385
 20
843.8002002612
 10
974.9522847235
 20
843.82580193
 10
977.4816973284
 20
843.7074309132
 10
979.9569395691
 20
843.4470014238
 10
982.3379835666
 20
843.0487249446
 10
984.5863247495
 20
842.5190421232
 10
986.6656045234
 20
841.8665186179
 10
988.5421982362
 20
841.1017065808
 10
990.1857589323
 20
840.2369740149
 10
991.5697081025
 20
839.2863047679
 10
992.6716654928
 20
838.2650723952
 10
993.4738110223
 20
837.1897915495
 10
993.9631729568
 20
836.0778509174
 10
994.1318376789
 20
834.9472320218
 10
994.1316359904
 20
834.8759529744
  0
ARC
  5
4B2
330
1F
100
AcDbEntity
  8
0
  6
Continuous
 62
     8
370
    25
100
AcDbCircle
 10
990.9988821985
 20
832.9064153958
 30
0.0
 40
2.587725720211517
100
AcDbArc
 50
261.0426002018
 51
328.0636644224
  0
LWPOLYLINE
  5
4B3
330
1F
100
AcDbEntity
  8
0
  6
Continuous
 62
     8
370
    25
100
AcDbPolyline
 90
       19
 70
   128
 43
0.0
 10
738.4991780801
 20
847.8365355856
 10
736.311085363
 20
848.4141326258
 10
733.976154141
 20
848.8633424162
 10
731.5321432818
 20
849.1769006514
 10
729.0185756126
 20
849.3497366879
 10
726.4760987843
 20
849.3790555428
 10
723.9458279464
 20
849.2643830921
 10
721.468680862
 20
849.0075737381
 10
719.0847162137
 20
848.6127804213
 10
716.8324858036
 20
848.086387462
 10
714.74841112
 20
847.4369073175
 10
712.866194355
 20
846.6748429243
 10
711.2162733961
 20
845.8125178528
 10
709.8253296063
 20
844.8638770183
 10
708.7158563516
 20
843.844261174
 10
707.9057952543
 20
842.7701588314
 10
707.4082460535
 20
841.6589396191
 10
707.2312547654
 20
840.5285733938
 10
707.2308922923
 20
840.4749274615
  0
LWPOLYLINE
  5
4B4
330
1F
100
AcDbEntity
  8
0
  6
Continuous
 62
     8
370
    25
100
AcDbPolyline
 90
       19
 70
   128
 43
0.0
 10
994.1319127061
 20
840.2944458678
 10
994.1318376789
 20
840.3188526144
 10
993.9631729568
 20
841.44947151
 10
993.4738110223
 20
842.5614121422
 10
992.6716654928
 20
843.6366929879
 10
991.5697081025
 20
844.6579253606
 10
990.1857589323
 20
845.6085946076
 10
988.5421982362
 20
846.4733271735
 10
986.6656045234
 20
847.2381392106
 10
984.5863247495
 20
847.8906627158
 10
982.3379835666
 20
848.4203455373
 10
979.9569395691
 20
848.8186220165
 10
977.4816973284
 20
849.0790515058
 10
974.9522847235
 20
849.1974225226
 10
972.4096056385
 20
849.1718208538
 10
969.8947784937
 20
849.0026605118
 10
967.4484713075
 20
848.6926770386
 10
965.1102440416
 20
848.2468832693
 10
962.917908865
 20
847.6724882677
  0
LWPOLYLINE
  5
4B5
330
1F
100
AcDbEntity
  8
0
  6
Continuous
 62
     8
370
    25
100
AcDbPolyline
 90
        7
 70
   128
 43
0.0
 10
738.4991780801
 20
847.8365355856
 10
738.4667005373
 20
848.3392934958
 10
738.3705160028
 20
848.7802953307
 10
738.2143207942
 20
849.1425936371
 10
738.0041174059
 20
849.4122654943
 10
737.7479838361
 20
849.5789475639
 10
737.6807544421
 20
849.6028223576
  0
LWPOLYLINE
  5
4B6
330
1F
100
AcDbEntity
  8
0
  6
Continuous
 62
     8
370
    25
100
AcDbPolyline
 90
        7
 70
   128
 43
0.0
 10
962.917908865
 20
847.6724882677
 10
962.9502299559
 20
848.1751988109
 10
963.0459511472
 20
848.6160603651
 10
963.2013939272
 20
848.978130868
 10
963.4105847171
 20
849.2474961532
 10
963.6654844321
 20
849.4138046638
 10
963.7338080805
 20
849.438010123
  0
ARC
  5
4B7
330
1F
100
AcDbEntity
  8
0
  6
Continuous
 62
     8
370
    25
100
AcDbCircle
 10
781.3810337663
 20
708.3986126782
 30
0.0
 40
2.593137234232412
100
AcDbArc
 50
211.6575446155
 51
278.8647436369
  0
ARC
  5
4B8
330
1F
100
AcDbEntity
  8
0
  6
Continuous
 62
     8
370
    25
100
AcDbCircle
 10
919.053016863
 20
708.2927577078
 30
0.0
 40
2.587909261911561
100
AcDbArc
 50
261.0438415869
 51
328.0218340933
  0
ARC
  5
4B9
330
1F
100
AcDbEntity
  8
0
  6
Continuous
 62
     8
370
    25
100
AcDbCircle
 10
809.737918291
 20
702.9223842413
 30
0.0
 40
1.252637460323797
100
AcDbArc
 50
238.2353580477
 51
287.4503472243
  0
ARC
  5
4BA
330
1F
100
AcDbEntity
  8
0
  6
Continuous
 62
     8
370
    25
100
AcDbCircle
 10
890.6629942579
 20
702.8712067
 30
0.0
 40
1.260617627137024
100
AcDbArc
 50
252.3816485822
 51
301.5778871187
  0
LWPOLYLINE
  5
4BB
330
1F
100
AcDbEntity
  8
0
  6
Continuous
 62
     8
370
    25
100
AcDbPolyline
 90
       19
 70
   128
 43
0.0
 10
738.4991780801
 20
-554.0862965565
 10
736.311085363
 20
-554.6638935968
 10
733.976154141
 20
-555.1131033871
 10
731.5321432818
 20
-555.4266616223
 10
729.0185756126
 20
-555.5994976589
 10
726.4760987843
 20
-555.6288165137
 10
723.9458279464
 20
-555.514144063
 10
721.468680862
 20
-555.257334709
 10
719.0847162137
 20
-554.8625413922
 10
716.8324858036
 20
-554.336148433
 10
714.74841112
 20
-553.6866682884
 10
712.866194355
 20
-552.9246038953
 10
711.2162733961
 20
-552.0622788237
 10
709.8253296063
 20
-551.1136379892
 10
708.7158563516
 20
-550.094022145
 10
707.9057952543
 20
-549.0199198024
 10
707.4082460535
 20
-547.9087005901
 10
707.2312547654
 20
-546.7783343648
 10
707.2310961346
 20
-546.6844587174
  0
ARC
  5
4BC
330
1F
100
AcDbEntity
  8
0
  6
Continuous
 62
     8
370
    25
100
AcDbCircle
 10
710.353388791
 20
-544.7381704643
 30
0.0
 40
2.592960127092336
100
AcDbArc
 50
81.1340610566
 51
148.3827826126
  0
ARC
  5
4BD
330
1F
100
AcDbEntity
  8
0
  6
Continuous
 62
     8
370
    25
100
AcDbCircle
 10
990.9988831036
 20
-544.5277905429
 30
0.0
 40
2.58771952293634
100
AcDbArc
 50
31.9349226695
 51
98.9574417142
  0
LWPOLYLINE
  5
4BE
330
1F
100
AcDbEntity
  8
0
  6
Continuous
 62
     8
370
    25
100
AcDbPolyline
 90
       19
 70
   128
 43
0.0
 10
994.1319096845
 20
-546.5491048303
 10
994.1318376789
 20
-546.5686135854
 10
993.9631729568
 20
-547.699232481
 10
993.4738110223
 20
-548.8111731131
 10
992.6716654928
 20
-549.8864539588
 10
991.5697081025
 20
-550.9076863315
 10
990.1857589323
 20
-551.8583555785
 10
988.5421982362
 20
-552.7230881444
 10
986.6656045234
 20
-553.4879001815
 10
984.5863247495
 20
-554.1404236867
 10
982.3379835666
 20
-554.6701065082
 10
979.9569395691
 20
-555.0683829874
 10
977.4816973284
 20
-555.3288124768
 10
974.9522847235
 20
-555.4471834935
 10
972.4096056385
 20
-555.4215818248
 10
969.8947784937
 20
-555.2524214827
 10
967.4484713075
 20
-554.9424380095
 10
965.1102440416
 20
-554.4966442403
 10
962.917908865
 20
-553.9222492387
  0
LWPOLYLINE
  5
4BF
330
1F
100
AcDbEntity
  8
0
  6
Continuous
 62
     8
370
    25
100
AcDbPolyline
 90
       19
 70
   128
 43
0.0
 10
707.2308922923
 20
-552.0963090251
 10
707.2312547654
 20
-552.1499549574
 10
707.4082460535
 20
-553.2803211827
 10
707.9057952543
 20
-554.391540395
 10
708.7158563516
 20
-555.4656427376
 10
709.8253296063
 20
-556.4852585819
 10
711.2162733961
 20
-557.4338994164
 10
712.866194355
 20
-558.2962244879
 10
714.74841112
 20
-559.058288881
 10
716.8324858036
 20
-559.7077690256
 10
719.0847162137
 20
-560.2341619849
 10
721.468680862
 20
-560.6289553017
 10
723.9458279464
 20
-560.8857646557
 10
726.4760987843
 20
-561.0004371064
 10
729.0185756126
 20
-560.9711182515
 10
731.5321432818
 20
-560.798282215
 10
733.976154141
 20
-560.4847239798
 10
736.311085363
 20
-560.0355141894
 10
738.4991780801
 20
-559.4579171492
  0
LWPOLYLINE
  5
4C0
330
1F
100
AcDbEntity
  8
0
  6
Continuous
 62
     8
370
    25
100
AcDbPolyline
 90
       19
 70
   128
 43
0.0
 10
962.917908865
 20
-559.2938698313
 10
965.1102440416
 20
-559.8682648329
 10
967.4484713075
 20
-560.3140586022
 10
969.8947784937
 20
-560.6240420753
 10
972.4096056385
 20
-560.7932024174
 10
974.9522847235
 20
-560.8188040862
 10
977.4816973284
 20
-560.7004330694
 10
979.9569395691
 20
-560.44000358
 10
982.3379835666
 20
-560.0417271009
 10
984.5863247495
 20
-559.5120442794
 10
986.6656045234
 20
-558.8595207742
 10
988.5421982362
 20
-558.0947087371
 10
990.1857589323
 20
-557.2299761712
 10
991.5697081025
 20
-556.2793069242
 10
992.6716654928
 20
-555.2580745515
 10
993.4738110223
 20
-554.1827937058
 10
993.9631729568
 20
-553.0708530736
 10
994.1318376789
 20
-551.940234178
 10
994.1319127061
 20
-551.9158274314
  0
LWPOLYLINE
  5
4C1
330
1F
100
AcDbEntity
  8
0
  6
Continuous
 62
     8
370
    25
100
AcDbPolyline
 90
        7
 70
   128
 43
0.0
 10
737.6804986779
 20
-561.2242814664
 10
737.7479838361
 20
-561.2003291275
 10
738.0041174059
 20
-561.0336470578
 10
738.2143207942
 20
-560.7639752007
 10
738.3705160028
 20
-560.4016768943
 10
738.4667005373
 20
-559.9606750594
 10
738.4991780801
 20
-559.4579171492
  0
LWPOLYLINE
  5
4C2
330
1F
100
AcDbEntity
  8
0
  6
Continuous
 62
     8
370
    25
100
AcDbPolyline
 90
        7
 70
   128
 43
0.0
 10
963.734082343
 20
-561.0594742502
 10
963.6654844321
 20
-561.0351862274
 10
963.4105847171
 20
-560.8688777168
 10
963.2013939272
 20
-560.5995124316
 10
963.0459511472
 20
-560.2374419287
 10
962.9502299559
 20
-559.7965803745
 10
962.917908865
 20
-559.2938698313
  0
ARC
  5
4C3
330
1F
100
AcDbEntity
  8
0
  6
Continuous
 62
     8
370
    25
100
AcDbCircle
 10
781.3810337663
 20
-420.0199942418
 30
0.0
 40
2.593137234232695
100
AcDbArc
 50
81.1352563631
 51
148.3424553845
  0
ARC
  5
4C4
330
1F
100
AcDbEntity
  8
0
  6
Continuous
 62
     8
370
    25
100
AcDbCircle
 10
919.053016863
 20
-419.9141392714
 30
0.0
 40
2.587909261911621
100
AcDbArc
 50
31.9781659067
 51
98.9561584131
  0
ARC
  5
4C5
330
1F
100
AcDbEntity
  8
0
  6
Continuous
 62
     8
370
    25
100
AcDbCircle
 10
809.7379039976
 20
-414.5437236287
 30
0.0
 40
1.252594076969004
100
AcDbArc
 50
72.5413127029
 51
121.7651016715
  0
ARC
  5
4C6
330
1F
100
AcDbEntity
  8
0
  6
Continuous
 62
     8
370
    25
100
AcDbCircle
 10
890.6629108328
 20
-414.4928364984
 30
0.0
 40
1.260872793127816
100
AcDbArc
 50
58.4247901792
 51
107.5693746533
  0
LINE
  5
4C7
330
1F
100
AcDbEntity
  8
0
  6
Continuous
 62
     8
370
    25
100
AcDbLine
 10
342.7470271362
 20
411.1021534755
 30
0.0
 11
343.4545615839
 21
419.1893092182
 31
0.0
  0
LINE
  5
4C8
330
1F
100
AcDbEntity
  8
0
  6
Continuous
 62
     8
370
    25
100
AcDbLine
 10
313.5914858918
 20
419.1893092182
 30
0.0
 11
314.2990203395
 21
411.1021534755
 31
0.0
  0
LINE
  5
4C9
330
1F
100
AcDbEntity
  8
0
  6
Continuous
 62
     8
370
    25
100
AcDbLine
 10
345.6144350504
 20
409.2242087149
 30
0.0
 11
311.4316124253
 21
409.2242087149
 31
0.0
  0
LINE
  5
4CA
330
1F
100
AcDbEntity
  8
0
  6
Continuous
 62
     8
370
    25
100
AcDbLine
 10
313.1800883345
 20
359.1544097215
 30
0.0
 11
343.8659591412
 21
359.1544097215
 31
0.0
  0
LINE
  5
4CB
330
1F
100
AcDbEntity
  8
0
  6
Continuous
 62
     8
370
    25
100
AcDbLine
 10
1362.6236211937
 20
-119.8455902785
 30
0.0
 11
1396.8064438188
 21
-119.8455902785
 31
0.0
  0
LINE
  5
4CC
330
1F
100
AcDbEntity
  8
0
  6
Continuous
 62
     8
370
    25
100
AcDbLine
 10
1395.0579679096
 20
-69.7757912851
 30
0.0
 11
1364.3720971029
 21
-69.7757912851
 31
0.0
  0
LINE
  5
4CD
330
1F
100
AcDbEntity
  8
0
  6
Continuous
 62
     8
370
    25
100
AcDbLine
 10
1364.7834946602
 20
419.1893092182
 30
0.0
 11
1365.4910291079
 21
411.1021534755
 31
0.0
  0
LINE
  5
4CE
330
1F
100
AcDbEntity
  8
0
  6
Continuous
 62
     8
370
    25
100
AcDbLine
 10
1393.9390359046
 20
411.1021534755
 30
0.0
 11
1394.6465703523
 21
419.1893092182
 31
0.0
  0
LINE
  5
4CF
330
1F
100
AcDbEntity
  8
0
  6
Continuous
 62
     8
370
    25
100
AcDbLine
 10
1379.7150325062
 20
409.2242087149
 30
0.0
 11
1362.6236211937
 21
409.2242087149
 31
0.0
  0
LINE
  5
4D0
330
1F
100
AcDbEntity
  8
0
  6
Continuous
 62
     8
370
    25
100
AcDbLine
 10
1396.8064438188
 20
409.2242087149
 30
0.0
 11
1379.7150325062
 21
409.2242087149
 31
0.0
  0
LINE
  5
4D1
330
1F
100
AcDbEntity
  8
0
  6
Continuous
 62
     8
370
    25
100
AcDbLine
 10
1379.7150325062
 20
359.1544097215
 30
0.0
 11
1395.0579679096
 21
359.1544097215
 31
0.0
  0
LINE
  5
4D2
330
1F
100
AcDbEntity
  8
0
  6
Continuous
 62
     8
370
    25
100
AcDbLine
 10
1364.3720971029
 20
359.1544097215
 30
0.0
 11
1379.7150325062
 21
359.1544097215
 31
0.0
  0
LINE
  5
4D3
330
1F
100
AcDbEntity
  8
0
  6
Continuous
 62
     8
370
    25
100
AcDbLine
 10
328.5230237378
 20
-119.8455902785
 30
0.0
 11
345.6144350504
 21
-119.8455902785
 31
0.0
  0
LINE
  5
4D4
330
1F
100
AcDbEntity
  8
0
  6
Continuous
 62
     8
370
    25
100
AcDbLine
 10
311.4316124253
 20
-119.8455902785
 30
0.0
 11
328.5230237378
 21
-119.8455902785
 31
0.0
  0
LINE
  5
4D5
330
1F
100
AcDbEntity
  8
0
  6
Continuous
 62
     8
370
    25
100
AcDbLine
 10
328.5230237378
 20
-69.7757912851
 30
0.0
 11
313.1800883345
 21
-69.7757912851
 31
0.0
  0
LINE
  5
4D6
330
1F
100
AcDbEntity
  8
0
  6
Continuous
 62
     8
370
    25
100
AcDbLine
 10
343.8659591412
 20
-69.7757912851
 30
0.0
 11
328.5230237378
 21
-69.7757912851
 31
0.0
  0
LINE
  5
4D7
330
1F
100
AcDbEntity
  8
0
  6
Continuous
 62
     8
370
    25
100
AcDbLine
 10
1400.6772999313
 20
-86.7757912851
 30
0.0
 11
1399.7150325062
 21
-86.7757912851
 31
0.0
  0
LINE
  5
4D8
330
1F
100
AcDbEntity
  8
0
  6
Continuous
 62
     8
370
    25
100
AcDbLine
 10
1399.7150325062
 20
375.1544097215
 30
0.0
 11
1400.6772999313
 21
375.1544097215
 31
0.0
  0
LINE
  5
4D9
330
1F
100
AcDbEntity
  8
0
  6
Continuous
 62
     8
370
    25
100
AcDbLine
 10
1556.6011250408
 20
431.1893092182
 30
0.0
 11
1634.884517288
 21
431.1893092182
 31
0.0
  0
LINE
  5
4DA
330
1F
100
AcDbEntity
  8
0
  6
Continuous
 62
     8
370
    25
100
AcDbLine
 10
1634.884517288
 20
422.1893092182
 30
0.0
 11
1556.6011250408
 21
422.1893092182
 31
0.0
  0
LINE
  5
4DB
330
1F
100
AcDbEntity
  8
0
  6
Continuous
 62
     8
370
    25
100
AcDbLine
 10
1634.884517288
 20
431.1893092182
 30
0.0
 11
1734.9957386694
 21
431.1893092182
 31
0.0
  0
LINE
  5
4DC
330
1F
100
AcDbEntity
  8
0
  6
Continuous
 62
     8
370
    25
100
AcDbLine
 10
1734.9957386694
 20
422.1893092182
 30
0.0
 11
1634.884517288
 21
422.1893092182
 31
0.0
  0
LINE
  5
4DD
330
1F
100
AcDbEntity
  8
0
  6
Continuous
 62
     8
370
    25
100
AcDbLine
 10
1396.7353835625
 20
407.1893092182
 30
0.0
 11
1693.7467404071
 21
407.1893092182
 31
0.0
  0
LINE
  5
4DE
330
1F
100
AcDbEntity
  8
0
  6
Continuous
 62
     8
370
    25
100
AcDbLine
 10
1362.69468145
 20
407.1893092182
 30
0.0
 11
1228.608285987
 21
407.1893092182
 31
0.0
  0
LINE
  5
4DF
330
1F
100
AcDbEntity
  8
0
  6
Continuous
 62
     8
370
    25
100
AcDbLine
 10
1360.0649871603
 20
416.1893092182
 30
0.0
 11
1228.5631978918
 21
416.1893092182
 31
0.0
  0
LINE
  5
4E0
330
1F
100
AcDbEntity
  8
0
  6
Continuous
 62
     8
370
    25
100
AcDbLine
 10
1399.3650778521
 20
416.1893092182
 30
0.0
 11
1693.7092530148
 21
416.1893092182
 31
0.0
  0
LINE
  5
4E1
330
1F
100
AcDbEntity
  8
0
  6
Continuous
 62
     8
370
    25
100
AcDbLine
 10
1693.7112384742
 20
-118.8106907818
 30
0.0
 11
1396.770304332
 21
-118.8106907818
 31
0.0
  0
LINE
  5
4E2
330
1F
100
AcDbEntity
  8
0
  6
Continuous
 62
     8
370
    25
100
AcDbLine
 10
1362.6597606805
 20
-118.8106907818
 30
0.0
 11
1228.608285987
 21
-118.8106907818
 31
0.0
  0
LINE
  5
4E3
330
1F
100
AcDbEntity
  8
0
  6
Continuous
 62
     8
370
    25
100
AcDbLine
 10
1359.9774984968
 20
-127.8106907818
 30
0.0
 11
1228.5631978918
 21
-127.8106907818
 31
0.0
  0
LINE
  5
4E4
330
1F
100
AcDbEntity
  8
0
  6
Continuous
 62
     8
370
    25
100
AcDbLine
 10
1399.4525665157
 20
-127.8106907818
 30
0.0
 11
1693.7092530148
 21
-127.8106907818
 31
0.0
  0
LINE
  5
4E5
330
1F
100
AcDbEntity
  8
0
  6
Continuous
 62
     8
370
    25
100
AcDbLine
 10
1634.884517288
 20
-133.8106907818
 30
0.0
 11
1556.6011250408
 21
-133.8106907818
 31
0.0
  0
LINE
  5
4E6
330
1F
100
AcDbEntity
  8
0
  6
Continuous
 62
     8
370
    25
100
AcDbLine
 10
1556.6011250408
 20
-142.8106907818
 30
0.0
 11
1634.884517288
 21
-142.8106907818
 31
0.0
  0
LINE
  5
4E7
330
1F
100
AcDbEntity
  8
0
  6
Continuous
 62
     8
370
    25
100
AcDbLine
 10
1734.9957386694
 20
-133.8106907818
 30
0.0
 11
1634.884517288
 21
-133.8106907818
 31
0.0
  0
LINE
  5
4E8
330
1F
100
AcDbEntity
  8
0
  6
Continuous
 62
     8
370
    25
100
AcDbLine
 10
1634.884517288
 20
-142.8106907818
 30
0.0
 11
1734.9957386694
 21
-142.8106907818
 31
0.0
  0
LINE
  5
4E9
330
1F
100
AcDbEntity
  8
0
  6
Continuous
 62
     8
370
    25
100
AcDbLine
 10
311.5026726816
 20
407.1893092182
 30
0.0
 11
-1329.0416558616
 21
407.1893092182
 31
0.0
  0
LINE
  5
4EA
330
1F
100
AcDbEntity
  8
0
  6
Continuous
 62
     8
370
    25
100
AcDbLine
 10
-1274.93027585
 20
416.1893092182
 30
0.0
 11
308.872978392
 21
416.1893092182
 31
0.0
  0
LINE
  5
4EB
330
1F
100
AcDbEntity
  8
0
  6
Continuous
 62
     8
370
    25
100
AcDbLine
 10
-1329.0504584352
 20
416.1893092182
 30
0.0
 11
-1329.0416558616
 21
416.1893092182
 31
0.0
  0
LINE
  5
4EC
330
1F
100
AcDbEntity
  8
0
  6
Continuous
 62
     8
370
    25
100
AcDbLine
 10
-1329.0416558616
 20
407.1893092182
 30
0.0
 11
-1329.0504584352
 21
407.1893092182
 31
0.0
  0
LINE
  5
4ED
330
1F
100
AcDbEntity
  8
0
  6
Continuous
 62
     8
370
    25
100
AcDbLine
 10
311.4677519121
 20
-118.8106907818
 30
0.0
 11
-1329.0416558616
 21
-118.8106907818
 31
0.0
  0
LINE
  5
4EE
330
1F
100
AcDbEntity
  8
0
  6
Continuous
 62
     8
370
    25
100
AcDbLine
 10
-1274.93027585
 20
-127.8106907818
 30
0.0
 11
308.7854897284
 21
-127.8106907818
 31
0.0
  0
LINE
  5
4EF
330
1F
100
AcDbEntity
  8
0
  6
Continuous
 62
     8
370
    25
100
AcDbLine
 10
-1329.0416558616
 20
-118.8106907818
 30
0.0
 11
-1329.0504584352
 21
-118.8106907818
 31
0.0
  0
LINE
  5
4F0
330
1F
100
AcDbEntity
  8
0
  6
Continuous
 62
     8
370
    25
100
AcDbLine
 10
-1329.0504584352
 20
-127.8106907818
 30
0.0
 11
-1329.0416558616
 21
-127.8106907818
 31
0.0
  0
LINE
  5
4F1
330
1F
100
AcDbEntity
  8
0
  6
Continuous
 62
     8
370
    25
100
AcDbLine
 10
310.5230242067
 20
392.1893092182
 30
0.0
 11
312.026484224
 21
392.1893092182
 31
0.0
  0
LINE
  5
4F2
330
1F
100
AcDbEntity
  8
0
  6
Continuous
 62
     8
370
    25
100
AcDbLine
 10
311.7121972985
 20
401.1893092182
 30
0.0
 11
310.5230242067
 21
401.1893092182
 31
0.0
  0
LINE
  5
4F3
330
1F
100
AcDbEntity
  8
0
  6
Continuous
 62
     8
370
    25
100
AcDbLine
 10
-1261.8655977328
 20
401.1893092182
 30
0.0
 11
-1329.0504584352
 21
401.1893092182
 31
0.0
  0
LINE
  5
4F4
330
1F
100
AcDbEntity
  8
0
  6
Continuous
 62
     8
370
    25
100
AcDbLine
 10
-1329.0504584352
 20
392.1893092182
 30
0.0
 11
-1261.8655977328
 21
392.1893092182
 31
0.0
  0
LINE
  5
4F5
330
1F
100
AcDbEntity
  8
0
  6
Continuous
 62
     8
370
    25
100
AcDbLine
 10
268.545965702
 20
-132.9410821002
 30
0.0
 11
288.5230237379
 21
-132.9410821002
 31
0.0
  0
LINE
  5
4F6
330
1F
100
AcDbEntity
  8
0
  6
Continuous
 62
     8
370
    25
100
AcDbLine
 10
268.8794155016
 20
-133.4786237178
 30
0.0
 11
288.5230237379
 21
-133.4786237178
 31
0.0
  0
LINE
  5
4F7
330
1F
100
AcDbEntity
  8
0
  6
Continuous
 62
     8
370
    25
100
AcDbLine
 10
-787.3127445057
 20
421.3197005366
 30
0.0
 11
-795.7639710228
 21
421.3197005366
 31
0.0
  0
LINE
  5
4F8
330
1F
100
AcDbEntity
  8
0
  6
Continuous
 62
     8
370
    25
100
AcDbLine
 10
-768.3639710228
 20
421.3197005366
 30
0.0
 11
-787.3127445057
 21
421.3197005366
 31
0.0
  0
LINE
  5
4F9
330
1F
100
AcDbEntity
  8
0
  6
Continuous
 62
     8
370
    25
100
AcDbLine
 10
-787.1849925009
 20
421.8572421542
 30
0.0
 11
-795.4305212232
 21
421.8572421542
 31
0.0
  0
LINE
  5
4FA
330
1F
100
AcDbEntity
  8
0
  6
Continuous
 62
     8
370
    25
100
AcDbLine
 10
-768.6974208224
 20
421.8572421542
 30
0.0
 11
-787.1849925009
 21
421.8572421542
 31
0.0
  0
LINE
  5
4FB
330
1F
100
AcDbEntity
  8
0
  6
Continuous
 62
     8
370
    25
100
AcDbLine
 10
-1195.0258609897
 20
-132.9410821002
 30
0.0
 11
-1167.6258609897
 21
-132.9410821002
 31
0.0
  0
LINE
  5
4FC
330
1F
100
AcDbEntity
  8
0
  6
Continuous
 62
     8
370
    25
100
AcDbLine
 10
-1194.6924111901
 20
-133.4786237178
 30
0.0
 11
-1167.9593107893
 21
-133.4786237178
 31
0.0
  0
LINE
  5
4FD
330
1F
100
AcDbEntity
  8
0
  6
Continuous
 62
     8
370
    25
100
AcDbLine
 10
-1186.5746344726
 20
421.3197005366
 30
0.0
 11
-1195.0258609897
 21
421.3197005366
 31
0.0
  0
LINE
  5
4FE
330
1F
100
AcDbEntity
  8
0
  6
Continuous
 62
     8
370
    25
100
AcDbLine
 10
-1167.6258609897
 20
421.3197005366
 30
0.0
 11
-1186.5746344726
 21
421.3197005366
 31
0.0
  0
LINE
  5
4FF
330
1F
100
AcDbEntity
  8
0
  6
Continuous
 62
     8
370
    25
100
AcDbLine
 10
-1186.4468824677
 20
421.8572421542
 30
0.0
 11
-1194.6924111901
 21
421.8572421542
 31
0.0
  0
LINE
  5
500
330
1F
100
AcDbEntity
  8
0
  6
Continuous
 62
     8
370
    25
100
AcDbLine
 10
-1167.9593107893
 20
421.8572421542
 30
0.0
 11
-1186.4468824677
 21
421.8572421542
 31
0.0
  0
LINE
  5
501
330
1F
100
AcDbEntity
  8
0
  6
Continuous
 62
     8
370
    25
100
AcDbLine
 10
-511.5846857174
 20
-132.9410821002
 30
0.0
 11
-484.1846857174
 21
-132.9410821002
 31
0.0
  0
LINE
  5
502
330
1F
100
AcDbEntity
  8
0
  6
Continuous
 62
     8
370
    25
100
AcDbLine
 10
-511.2512359178
 20
-133.4786237178
 30
0.0
 11
-484.518135517
 21
-133.4786237178
 31
0.0
  0
LINE
  5
503
330
1F
100
AcDbEntity
  8
0
  6
Continuous
 62
     8
370
    25
100
AcDbLine
 10
8.5024152289
 20
-132.9410821002
 30
0.0
 11
35.9024152289
 21
-132.9410821002
 31
0.0
  0
LINE
  5
504
330
1F
100
AcDbEntity
  8
0
  6
Continuous
 62
     8
370
    25
100
AcDbLine
 10
8.8358650285
 20
-133.4786237178
 30
0.0
 11
35.5689654293
 21
-133.4786237178
 31
0.0
  0
LINE
  5
505
330
1F
100
AcDbEntity
  8
0
  6
Continuous
 62
     8
370
    25
100
AcDbLine
 10
-251.5411352442
 20
-132.9410821002
 30
0.0
 11
-224.1411352442
 21
-132.9410821002
 31
0.0
  0
LINE
  5
506
330
1F
100
AcDbEntity
  8
0
  6
Continuous
 62
     8
370
    25
100
AcDbLine
 10
-251.2076854446
 20
-133.4786237178
 30
0.0
 11
-224.4745850439
 21
-133.4786237178
 31
0.0
  0
LINE
  5
507
330
1F
100
AcDbEntity
  8
0
  6
Continuous
 62
     8
370
    25
100
AcDbLine
 10
-503.1334592002
 20
421.3197005366
 30
0.0
 11
-511.5846857174
 21
421.3197005366
 31
0.0
  0
LINE
  5
508
330
1F
100
AcDbEntity
  8
0
  6
Continuous
 62
     8
370
    25
100
AcDbLine
 10
-484.1846857174
 20
421.3197005366
 30
0.0
 11
-503.1334592002
 21
421.3197005366
 31
0.0
  0
LINE
  5
509
330
1F
100
AcDbEntity
  8
0
  6
Continuous
 62
     8
370
    25
100
AcDbLine
 10
-503.0057071954
 20
421.8572421542
 30
0.0
 11
-511.2512359178
 21
421.8572421542
 31
0.0
  0
LINE
  5
50A
330
1F
100
AcDbEntity
  8
0
  6
Continuous
 62
     8
370
    25
100
AcDbLine
 10
-484.518135517
 20
421.8572421542
 30
0.0
 11
-503.0057071954
 21
421.8572421542
 31
0.0
  0
LINE
  5
50B
330
1F
100
AcDbEntity
  8
0
  6
Continuous
 62
     8
370
    25
100
AcDbLine
 10
-1262.8952541046
 20
421.3197005366
 30
0.0
 11
-1274.8521708914
 21
421.3197005366
 31
0.0
  0
LINE
  5
50C
330
1F
100
AcDbEntity
  8
0
  6
Continuous
 62
     8
370
    25
100
AcDbLine
 10
-1247.4521708914
 20
421.3197005366
 30
0.0
 11
-1262.8952541046
 21
421.3197005366
 31
0.0
  0
LINE
  5
50D
330
1F
100
AcDbEntity
  8
0
  6
Continuous
 62
     8
370
    25
100
AcDbLine
 10
-1262.8528285026
 20
421.8572421542
 30
0.0
 11
-1274.5187210918
 21
421.8572421542
 31
0.0
  0
LINE
  5
50E
330
1F
100
AcDbEntity
  8
0
  6
Continuous
 62
     8
370
    25
100
AcDbLine
 10
-1247.785620691
 20
421.8572421542
 30
0.0
 11
-1262.8528285026
 21
421.8572421542
 31
0.0
  0
LINE
  5
50F
330
1F
100
AcDbEntity
  8
0
  6
Continuous
 62
     8
370
    25
100
AcDbLine
 10
16.9536417461
 20
421.3197005366
 30
0.0
 11
8.5024152289
 21
421.3197005366
 31
0.0
  0
LINE
  5
510
330
1F
100
AcDbEntity
  8
0
  6
Continuous
 62
     8
370
    25
100
AcDbLine
 10
35.9024152289
 20
421.3197005366
 30
0.0
 11
16.9536417461
 21
421.3197005366
 31
0.0
  0
LINE
  5
511
330
1F
100
AcDbEntity
  8
0
  6
Continuous
 62
     8
370
    25
100
AcDbLine
 10
17.0813937509
 20
421.8572421542
 30
0.0
 11
8.8358650285
 21
421.8572421542
 31
0.0
  0
LINE
  5
512
330
1F
100
AcDbEntity
  8
0
  6
Continuous
 62
     8
370
    25
100
AcDbLine
 10
35.5689654293
 20
421.8572421542
 30
0.0
 11
17.0813937509
 21
421.8572421542
 31
0.0
  0
LINE
  5
513
330
1F
100
AcDbEntity
  8
0
  6
Continuous
 62
     8
370
    25
100
AcDbLine
 10
-795.7639710228
 20
-132.9410821002
 30
0.0
 11
-768.3639710228
 21
-132.9410821002
 31
0.0
  0
LINE
  5
514
330
1F
100
AcDbEntity
  8
0
  6
Continuous
 62
     8
370
    25
100
AcDbLine
 10
-795.4305212232
 20
-133.4786237178
 30
0.0
 11
-768.6974208224
 21
-133.4786237178
 31
0.0
  0
LINE
  5
515
330
1F
100
AcDbEntity
  8
0
  6
Continuous
 62
     8
370
    25
100
AcDbLine
 10
276.9971922192
 20
421.3197005366
 30
0.0
 11
268.545965702
 21
421.3197005366
 31
0.0
  0
LINE
  5
516
330
1F
100
AcDbEntity
  8
0
  6
Continuous
 62
     8
370
    25
100
AcDbLine
 10
288.5230237379
 20
421.3197005366
 30
0.0
 11
276.9971922192
 21
421.3197005366
 31
0.0
  0
LINE
  5
517
330
1F
100
AcDbEntity
  8
0
  6
Continuous
 62
     8
370
    25
100
AcDbLine
 10
277.124944224
 20
421.8572421542
 30
0.0
 11
268.8794155016
 21
421.8572421542
 31
0.0
  0
LINE
  5
518
330
1F
100
AcDbEntity
  8
0
  6
Continuous
 62
     8
370
    25
100
AcDbLine
 10
288.5230237379
 20
421.8572421542
 30
0.0
 11
277.124944224
 21
421.8572421542
 31
0.0
  0
LINE
  5
519
330
1F
100
AcDbEntity
  8
0
  6
Continuous
 62
     8
370
    25
100
AcDbLine
 10
-1274.8521708914
 20
-132.9410821002
 30
0.0
 11
-1247.4521708914
 21
-132.9410821002
 31
0.0
  0
LINE
  5
51A
330
1F
100
AcDbEntity
  8
0
  6
Continuous
 62
     8
370
    25
100
AcDbLine
 10
-1274.5187210918
 20
-133.4786237178
 30
0.0
 11
-1247.785620691
 21
-133.4786237178
 31
0.0
  0
LINE
  5
51B
330
1F
100
AcDbEntity
  8
0
  6
Continuous
 62
     8
370
    25
100
AcDbLine
 10
-243.0899087271
 20
421.3197005366
 30
0.0
 11
-251.5411352442
 21
421.3197005366
 31
0.0
  0
LINE
  5
51C
330
1F
100
AcDbEntity
  8
0
  6
Continuous
 62
     8
370
    25
100
AcDbLine
 10
-224.1411352442
 20
421.3197005366
 30
0.0
 11
-243.0899087271
 21
421.3197005366
 31
0.0
  0
LINE
  5
51D
330
1F
100
AcDbEntity
  8
0
  6
Continuous
 62
     8
370
    25
100
AcDbLine
 10
-242.9621567223
 20
421.8572421542
 30
0.0
 11
-251.2076854446
 21
421.8572421542
 31
0.0
  0
LINE
  5
51E
330
1F
100
AcDbEntity
  8
0
  6
Continuous
 62
     8
370
    25
100
AcDbLine
 10
-224.4745850439
 20
421.8572421542
 30
0.0
 11
-242.9621567223
 21
421.8572421542
 31
0.0
  0
LINE
  5
51F
330
1F
100
AcDbEntity
  8
0
  6
Continuous
 62
     8
370
    25
100
AcDbLine
 10
310.5230242067
 20
-103.8106907818
 30
0.0
 11
311.9915634545
 21
-103.8106907818
 31
0.0
  0
LINE
  5
520
330
1F
100
AcDbEntity
  8
0
  6
Continuous
 62
     8
370
    25
100
AcDbLine
 10
311.677276529
 20
-112.8106907818
 30
0.0
 11
310.5230242067
 21
-112.8106907818
 31
0.0
  0
LINE
  5
521
330
1F
100
AcDbEntity
  8
0
  6
Continuous
 62
     8
370
    25
100
AcDbLine
 10
-1261.8655977328
 20
-112.8106907818
 30
0.0
 11
-1329.0504584352
 21
-112.8106907818
 31
0.0
  0
LINE
  5
522
330
1F
100
AcDbEntity
  8
0
  6
Continuous
 62
     8
370
    25
100
AcDbLine
 10
-1329.0504584352
 20
-103.8106907818
 30
0.0
 11
-1261.8655977328
 21
-103.8106907818
 31
0.0
  0
LINE
  5
523
330
1F
100
AcDbEntity
  8
0
  6
Continuous
 62
     8
370
    25
100
AcDbLine
 10
308.7147608238
 20
-100.8106907818
 30
0.0
 11
308.7147608238
 21
389.1893092182
 31
0.0
  0
LINE
  5
524
330
1F
100
AcDbEntity
  8
0
  6
Continuous
 62
     8
370
    25
100
AcDbLine
 10
307.4834714497
 20
-100.8106907818
 30
0.0
 11
307.4834714497
 21
389.1893092182
 31
0.0
  0
LINE
  5
525
330
1F
100
AcDbEntity
  8
0
  6
Continuous
 62
     8
370
    25
100
AcDbLine
 10
-514.6444686881
 20
-100.8106907818
 30
0.0
 11
-514.6444686881
 21
389.1893092182
 31
0.0
  0
LINE
  5
526
330
1F
100
AcDbEntity
  8
0
  6
Continuous
 62
     8
370
    25
100
AcDbLine
 10
-809.902796923
 20
-100.8106907818
 30
0.0
 11
-809.902796923
 21
389.1893092182
 31
0.0
  0
LINE
  5
527
330
1F
100
AcDbEntity
  8
0
  6
Continuous
 62
     8
370
    25
100
AcDbLine
 10
-1161.769056907
 20
-100.8106907818
 30
0.0
 11
-1161.769056907
 21
389.1893092182
 31
0.0
  0
LINE
  5
528
330
1F
100
AcDbEntity
  8
0
  6
Continuous
 62
     8
370
    25
100
AcDbLine
 10
1297.0932542413
 20
514.973918909
 30
0.0
 11
932.0934230245
 21
725.7066697162
 31
0.0
  0
LINE
  5
529
330
1F
100
AcDbEntity
  8
0
  6
Continuous
 62
     8
370
    25
100
AcDbLine
 10
770.4229629144
 20
722.4032618253
 30
0.0
 11
411.1448020028
 21
514.973918909
 31
0.0
  0
LINE
  5
52A
330
1F
100
AcDbEntity
  8
0
  6
Continuous
 62
     8
370
    25
100
AcDbLine
 10
1396.7150325062
 20
-115.8106907818
 30
0.0
 11
1396.7150325062
 21
404.1893092182
 31
0.0
  0
LINE
  5
52B
330
1F
100
AcDbEntity
  8
0
  6
Continuous
 62
     8
370
    25
100
AcDbLine
 10
411.1448020028
 20
-226.5953004726
 30
0.0
 11
770.4229629144
 21
-434.0246433889
 31
0.0
  0
LINE
  5
52C
330
1F
100
AcDbEntity
  8
0
  6
Continuous
 62
     8
370
    25
100
AcDbLine
 10
932.0934230245
 20
-437.3280512798
 30
0.0
 11
1297.0932542413
 21
-226.5953004726
 31
0.0
  0
ENDSEC
  0
SECTION
  2
OBJECTS
  0
DICTIONARY
  5
C
330
0
100
AcDbDictionary
281
     1
  3
ACAD_GROUP
350
D
  3
ACAD_LAYOUT
350
1A
  3
ACAD_MLINESTYLE
350
17
  3
ACAD_PLOTSETTINGS
350
19
  3
ACAD_PLOTSTYLENAME
350
E
  3
ACAD_SCALELIST
350
47
  3
DWGPROPS
350
52D
  0
DICTIONARY
  5
D
102
{ACAD_REACTORS
330
C
102
}
330
C
100
AcDbDictionary
281
     1
  0
DICTIONARY
  5
1A
102
{ACAD_REACTORS
330
C
102
}
330
C
100
AcDbDictionary
281
     1
  3
Layout1
350
1E
  3
Layout2
350
26
  3
Model
350
22
  0
DICTIONARY
  5
17
102
{ACAD_REACTORS
330
C
102
}
330
C
100
AcDbDictionary
281
     1
  3
Standard
350
18
  0
DICTIONARY
  5
19
102
{ACAD_REACTORS
330
C
102
}
330
C
100
AcDbDictionary
281
     1
  0
ACDBDICTIONARYWDFLT
  5
E
102
{ACAD_REACTORS
330
C
102
}
330
C
100
AcDbDictionary
281
     1
  3
Normal
350
F
100
AcDbDictionaryWithDefault
340
F
  0
DICTIONARY
  5
47
102
{ACAD_REACTORS
330
C
102
}
330
C
100
AcDbDictionary
281
     1
  3
A0
350
48
  3
A1
350
49
  3
A2
350
4A
  3
A3
350
4B
  3
A4
350
4C
  3
A5
350
4D
  3
A6
350
4E
  3
A7
350
4F
  3
A8
350
50
  3
A9
350
51
  3
B0
350
52
  3
B1
350
53
  3
B2
350
54
  3
B3
350
55
  3
B4
350
56
  3
B5
350
57
  3
B6
350
58
  3
B7
350
59
  3
B8
350
5A
  3
B9
350
5B
  3
C0
350
5C
  3
C1
350
5D
  3
C2
350
5E
  3
C3
350
5F
  3
C4
350
60
  3
C5
350
61
  3
C6
350
62
  3
C7
350
63
  3
C8
350
64
  3
C9
350
65
  3
D0
350
66
  3
D1
350
67
  3
D2
350
68
  0
XRECORD
  5
52D
102
{ACAD_REACTORS
330
C
102
}
330
C
100
AcDbXrecord
280
     1
  1
DWGPROPS COOKIE
  2

  3

  4

  6

  7

  8
Swing
  9

300
=
301
=
302
=
303
=
304
=
305
=
306
=
307
=
308
=
309
=
 40
0.0
 41
2459685.25616706
 42
2459685.25616728
  1

 90
        0
  0
LAYOUT
  5
1E
102
{ACAD_REACTORS
330
1A
102
}
330
1A
100
AcDbPlotSettings
  1

  2
none_device
  4

  6

 40
0.0
 41
0.0
 42
0.0
 43
0.0
 44
0.0
 45
0.0
 46
0.0
 47
0.0
 48
0.0
 49
0.0
140
0.0
141
0.0
142
1.0
143
1.0
 70
   688
 72
     1
 73
     0
 74
     5
  7

 75
    16
147
1.0
148
0.0
149
0.0
100
AcDbLayout
  1
Layout1
 70
     1
 71
     1
 10
0.0
 20
0.0
 11
420.0
 21
297.0
 12
0.0
 22
0.0
 32
0.0
 14
1.0000000000E+20
 24
1.0000000000E+20
 34
1.0000000000E+20
 15
-1.0000000000E+20
 25
-1.0000000000E+20
 35
-1.0000000000E+20
146
0.0
 13
0.0
 23
0.0
 33
0.0
 16
1.0
 26
0.0
 36
0.0
 17
0.0
 27
1.0
 37
0.0
 76
     0
330
1B
  0
LAYOUT
  5
26
102
{ACAD_REACTORS
330
1A
102
}
330
1A
100
AcDbPlotSettings
  1

  2
none_device
  4

  6

 40
0.0
 41
0.0
 42
0.0
 43
0.0
 44
0.0
 45
0.0
 46
0.0
 47
0.0
 48
0.0
 49
0.0
140
0.0
141
0.0
142
1.0
143
1.0
 70
   688
 72
     1
 73
     0
 74
     5
  7

 75
    16
147
1.0
148
0.0
149
0.0
100
AcDbLayout
  1
Layout2
 70
     1
 71
     2
 10
0.0
 20
0.0
 11
0.0
 21
0.0
 12
0.0
 22
0.0
 32
0.0
 14
0.0
 24
0.0
 34
0.0
 15
0.0
 25
0.0
 35
0.0
146
0.0
 13
0.0
 23
0.0
 33
0.0
 16
1.0
 26
0.0
 36
0.0
 17
0.0
 27
1.0
 37
0.0
 76
     0
330
23
  0
LAYOUT
  5
22
102
{ACAD_REACTORS
330
1A
102
}
330
1A
100
AcDbPlotSettings
  1

  2
none_device
  4
Letter_(8.50_x_11.00_Inches)
  6

 40
6.35
 41
6.35
 42
6.35000508
 43
6.35000508
 44
215.9
 45
279.4
 46
0.0
 47
0.0
 48
0.0
 49
0.0
140
0.0
141
0.0
142
1.0
143
1.0
 70
  1712
 72
     1
 73
     0
 74
     0
  7

 75
     0
147
1.0
148
0.0
149
0.0
100
AcDbLayout
  1
Model
 70
     1
 71
     0
 10
0.0
 20
0.0
 11
431.8
 21
279.4
 12
0.0
 22
0.0
 32
0.0
 14
0.0
 24
0.0
 34
0.0
 15
431.8
 25
279.4
 35
0.0
146
0.0
 13
0.0
 23
0.0
 33
0.0
 16
1.0
 26
0.0
 36
0.0
 17
0.0
 27
1.0
 37
0.0
 76
     0
330
1F
331
29
  0
MLINESTYLE
  5
18
102
{ACAD_REACTORS
330
17
102
}
330
17
100
AcDbMlineStyle
  2
Standard
 70
     0
  3

 62
   256
 51
90.0
 52
90.0
 71
     2
 49
0.5
 62
   256
  6
BYLAYER
 49
-0.5
 62
   256
  6
BYLAYER
  0
ACDBPLACEHOLDER
  5
F
102
{ACAD_REACTORS
330
E
102
}
330
E
  0
SCALE
  5
48
102
{ACAD_REACTORS
330
47
102
}
330
47
100
AcDbScale
 70
     0
300
1:1
140
1.0
141
1.0
290
     1
  0
SCALE
  5
49
102
{ACAD_REACTORS
330
47
102
}
330
47
100
AcDbScale
 70
     0
300
1:2
140
1.0
141
2.0
290
     0
  0
SCALE
  5
4A
102
{ACAD_REACTORS
330
47
102
}
330
47
100
AcDbScale
 70
     0
300
1:4
140
1.0
141
4.0
290
     0
  0
SCALE
  5
4B
102
{ACAD_REACTORS
330
47
102
}
330
47
100
AcDbScale
 70
     0
300
1:5
140
1.0
141
5.0
290
     0
  0
SCALE
  5
4C
102
{ACAD_REACTORS
330
47
102
}
330
47
100
AcDbScale
 70
     0
300
1:8
140
1.0
141
8.0
290
     0
  0
SCALE
  5
4D
102
{ACAD_REACTORS
330
47
102
}
330
47
100
AcDbScale
 70
     0
300
1:10
140
1.0
141
10.0
290
     0
  0
SCALE
  5
4E
102
{ACAD_REACTORS
330
47
102
}
330
47
100
AcDbScale
 70
     0
300
1:16
140
1.0
141
16.0
290
     0
  0
SCALE
  5
4F
102
{ACAD_REACTORS
330
47
102
}
330
47
100
AcDbScale
 70
     0
300
1:20
140
1.0
141
20.0
290
     0
  0
SCALE
  5
50
102
{ACAD_REACTORS
330
47
102
}
330
47
100
AcDbScale
 70
     0
300
1:30
140
1.0
141
30.0
290
     0
  0
SCALE
  5
51
102
{ACAD_REACTORS
330
47
102
}
330
47
100
AcDbScale
 70
     0
300
1:40
140
1.0
141
40.0
290
     0
  0
SCALE
  5
52
102
{ACAD_REACTORS
330
47
102
}
330
47
100
AcDbScale
 70
     0
300
1:50
140
1.0
141
50.0
290
     0
  0
SCALE
  5
53
102
{ACAD_REACTORS
330
47
102
}
330
47
100
AcDbScale
 70
     0
300
1:100
140
1.0
141
100.0
290
     0
  0
SCALE
  5
54
102
{ACAD_REACTORS
330
47
102
}
330
47
100
AcDbScale
 70
     0
300
2:1
140
2.0
141
1.0
290
     0
  0
SCALE
  5
55
102
{ACAD_REACTORS
330
47
102
}
330
47
100
AcDbScale
 70
     0
300
4:1
140
4.0
141
1.0
290
     0
  0
SCALE
  5
56
102
{ACAD_REACTORS
330
47
102
}
330
47
100
AcDbScale
 70
     0
300
8:1
140
8.0
141
1.0
290
     0
  0
SCALE
  5
57
102
{ACAD_REACTORS
330
47
102
}
330
47
100
AcDbScale
 70
     0
300
10:1
140
10.0
141
1.0
290
     0
  0
SCALE
  5
58
102
{ACAD_REACTORS
330
47
102
}
330
47
100
AcDbScale
 70
     0
300
100:1
140
100.0
141
1.0
290
     0
  0
SCALE
  5
59
102
{ACAD_REACTORS
330
47
102
}
330
47
100
AcDbScale
 70
     0
300
1/128" = 1'-0"
140
0.0078125
141
12.0
290
     0
  0
SCALE
  5
5A
102
{ACAD_REACTORS
330
47
102
}
330
47
100
AcDbScale
 70
     0
300
1/64" = 1'-0"
140
0.015625
141
12.0
290
     0
  0
SCALE
  5
5B
102
{ACAD_REACTORS
330
47
102
}
330
47
100
AcDbScale
 70
     0
300
1/32" = 1'-0"
140
0.03125
141
12.0
290
     0
  0
SCALE
  5
5C
102
{ACAD_REACTORS
330
47
102
}
330
47
100
AcDbScale
 70
     0
300
1/16" = 1'-0"
140
0.0625
141
12.0
290
     0
  0
SCALE
  5
5D
102
{ACAD_REACTORS
330
47
102
}
330
47
100
AcDbScale
 70
     0
300
3/32" = 1'-0"
140
0.09375
141
12.0
290
     0
  0
SCALE
  5
5E
102
{ACAD_REACTORS
330
47
102
}
330
47
100
AcDbScale
 70
     0
300
1/8" = 1'-0"
140
0.125
141
12.0
290
     0
  0
SCALE
  5
5F
102
{ACAD_REACTORS
330
47
102
}
330
47
100
AcDbScale
 70
     0
300
3/16" = 1'-0"
140
0.1875
141
12.0
290
     0
  0
SCALE
  5
60
102
{ACAD_REACTORS
330
47
102
}
330
47
100
AcDbScale
 70
     0
300
1/4" = 1'-0"
140
0.25
141
12.0
290
     0
  0
SCALE
  5
61
102
{ACAD_REACTORS
330
47
102
}
330
47
100
AcDbScale
 70
     0
300
3/8" = 1'-0"
140
0.375
141
12.0
290
     0
  0
SCALE
  5
62
102
{ACAD_REACTORS
330
47
102
}
330
47
100
AcDbScale
 70
     0
300
1/2" = 1'-0"
140
0.5
141
12.0
290
     0
  0
SCALE
  5
63
102
{ACAD_REACTORS
330
47
102
}
330
47
100
AcDbScale
 70
     0
300
3/4" = 1'-0"
140
0.75
141
12.0
290
     0
  0
SCALE
  5
64
102
{ACAD_REACTORS
330
47
102
}
330
47
100
AcDbScale
 70
     0
300
1" = 1'-0"
140
1.0
141
12.0
290
     0
  0
SCALE
  5
65
102
{ACAD_REACTORS
330
47
102
}
330
47
100
AcDbScale
 70
     0
300
1-1/2" = 1'-0"
140
1.5
141
12.0
290
     0
  0
SCALE
  5
66
102
{ACAD_REACTORS
330
47
102
}
330
47
100
AcDbScale
 70
     0
300
3" = 1'-0"
140
3.0
141
12.0
290
     0
  0
SCALE
  5
67
102
{ACAD_REACTORS
330
47
102
}
330
47
100
AcDbScale
 70
     0
300
6" = 1'-0"
140
6.0
141
12.0
290
     0
  0
SCALE
  5
68
102
{ACAD_REACTORS
330
47
102
}
330
47
100
AcDbScale
 70
     0
300
1'-0" = 1'-0"
140
12.0
141
12.0
290
     0
  0
ENDSEC
  0
EOF
