  0
SECTION
  2
HEADER
  9
$ACADVER
  1
AC1015
  9
$ACADMAINTVER
 70
     6
  9
$DWGCODEPAGE
  3
ANSI_1250
  9
$INSBASE
 10
0.0
 20
0.0
 30
0.0
  9
$EXTMIN
 10
0.0
 20
0.0
 30
0.0
  9
$EXTMAX
 10
431.8
 20
279.4
 30
0.0
  9
$LIMMIN
 10
0.0
 20
0.0
  9
$LIMMAX
 10
431.8
 20
279.4
  9
$ORTHOMODE
 70
     0
  9
$REGENMODE
 70
     1
  9
$FILLMODE
 70
     1
  9
$QTEXTMODE
 70
     0
  9
$MIRRTEXT
 70
     1
  9
$LTSCALE
 40
1.0
  9
$ATTMODE
 70
     1
  9
$TEXTSIZE
 40
3.8805555556
  9
$TRACEWID
 40
1.0
  9
$TEXTSTYLE
  7
Standard
  9
$CLAYER
  8
0
  9
$CELTYPE
  6
ByLayer
  9
$CECOLOR
 62
   256
  9
$CELTSCALE
 40
1.0
  9
$DISPSILH
 70
     0
  9
$DIMSCALE
 40
1.0
  9
$DIMASZ
 40
3.302
  9
$DIMEXO
 40
1.0
  9
$DIMDLI
 40
3.75
  9
$DIMRND
 40
0.0
  9
$DIMDLE
 40
0.0
  9
$DIMEXE
 40
1.0
  9
$DIMTP
 40
0.0
  9
$DIMTM
 40
0.0
  9
$DIMTXT
 40
3.8805555556
  9
$DIMCEN
 40
2.5
  9
$DIMTSZ
 40
0.0
  9
$DIMTOL
 70
     0
  9
$DIMLIM
 70
     0
  9
$DIMTIH
 70
     1
  9
$DIMTOH
 70
     1
  9
$DIMSE1
 70
     0
  9
$DIMSE2
 70
     0
  9
$DIMTAD
 70
     1
  9
$DIMZIN
 70
     0
  9
$DIMBLK
  1

  9
$DIMASO
 70
     1
  9
$DIMSHO
 70
     1
  9
$DIMPOST
  1

  9
$DIMAPOST
  1

  9
$DIMALT
 70
     0
  9
$DIMALTD
 70
     3
  9
$DIMALTF
 40
0.0393700787
  9
$DIMLFAC
 40
1.0
  9
$DIMTOFL
 70
     1
  9
$DIMTVP
 40
0.0
  9
$DIMTIX
 70
     0
  9
$DIMSOXD
 70
     0
  9
$DIMSAH
 70
     0
  9
$DIMBLK1
  1

  9
$DIMBLK2
  1

  9
$DIMSTYLE
  2
ISO-25
  9
$DIMCLRD
 70
     0
  9
$DIMCLRE
 70
     0
  9
$DIMCLRT
 70
     0
  9
$DIMTFAC
 40
1.0
  9
$DIMGAP
 40
1.524
  9
$DIMJUST
 70
     0
  9
$DIMSD1
 70
     0
  9
$DIMSD2
 70
     0
  9
$DIMTOLJ
 70
     0
  9
$DIMTZIN
 70
     0
  9
$DIMALTZ
 70
     0
  9
$DIMALTTZ
 70
     0
  9
$DIMUPT
 70
     0
  9
$DIMDEC
 70
     1
  9
$DIMTDEC
 70
     1
  9
$DIMALTU
 70
     2
  9
$DIMALTTD
 70
     3
  9
$DIMTXSTY
  7
Standard
  9
$DIMAUNIT
 70
     0
  9
$DIMADEC
 70
     1
  9
$DIMALTRND
 40
0.0
  9
$DIMAZIN
 70
     0
  9
$DIMDSEP
 70
    44
  9
$DIMATFIT
 70
     3
  9
$DIMFRAC
 70
     0
  9
$DIMLDRBLK
  1

  9
$DIMLUNIT
 70
     2
  9
$DIMLWD
 70
    -2
  9
$DIMLWE
 70
    -2
  9
$DIMTMOVE
 70
     0
  9
$LUNITS
 70
     2
  9
$LUPREC
 70
     1
  9
$SKETCHINC
 40
1.0
  9
$FILLETRAD
 40
10.0
  9
$AUNITS
 70
     0
  9
$AUPREC
 70
     1
  9
$MENU
  1
.
  9
$ELEVATION
 40
0.0
  9
$PELEVATION
 40
0.0
  9
$THICKNESS
 40
0.0
  9
$LIMCHECK
 70
     0
  9
$CHAMFERA
 40
0.0
  9
$CHAMFERB
 40
0.0
  9
$CHAMFERC
 40
0.0
  9
$CHAMFERD
 40
0.0
  9
$SKPOLY
 70
     0
  9
$TDCREATE
 40
2459587.423681215
  9
$TDUCREATE
 40
2459587.382014548
  9
$TDUPDATE
 40
2459587.423681597
  9
$TDUUPDATE
 40
2459587.382014931
  9
$TDINDWG
 40
0.0000000116
  9
$TDUSRTIMER
 40
0.0000000116
  9
$USRTIMER
 70
     1
  9
$ANGBASE
 50
0.0
  9
$ANGDIR
 70
     0
  9
$PDMODE
 70
     0
  9
$PDSIZE
 40
-1.0
  9
$PLINEWID
 40
0.0
  9
$SPLFRAME
 70
     0
  9
$SPLINETYPE
 70
     6
  9
$SPLINESEGS
 70
     8
  9
$HANDSEED
  5
493
  9
$SURFTAB1
 70
     6
  9
$SURFTAB2
 70
     6
  9
$SURFTYPE
 70
     6
  9
$SURFU
 70
     6
  9
$SURFV
 70
     6
  9
$UCSBASE
  2

  9
$UCSNAME
  2

  9
$UCSORG
 10
0.0
 20
0.0
 30
0.0
  9
$UCSXDIR
 10
1.0
 20
0.0
 30
0.0
  9
$UCSYDIR
 10
0.0
 20
1.0
 30
0.0
  9
$UCSORTHOREF
  2

  9
$UCSORTHOVIEW
 70
     0
  9
$UCSORGTOP
 10
0.0
 20
0.0
 30
0.0
  9
$UCSORGBOTTOM
 10
0.0
 20
0.0
 30
0.0
  9
$UCSORGLEFT
 10
0.0
 20
0.0
 30
0.0
  9
$UCSORGRIGHT
 10
0.0
 20
0.0
 30
0.0
  9
$UCSORGFRONT
 10
0.0
 20
0.0
 30
0.0
  9
$UCSORGBACK
 10
0.0
 20
0.0
 30
0.0
  9
$PUCSBASE
  2

  9
$PUCSNAME
  2

  9
$PUCSORG
 10
0.0
 20
0.0
 30
0.0
  9
$PUCSXDIR
 10
1.0
 20
0.0
 30
0.0
  9
$PUCSYDIR
 10
0.0
 20
1.0
 30
0.0
  9
$PUCSORTHOREF
  2

  9
$PUCSORTHOVIEW
 70
     0
  9
$PUCSORGTOP
 10
0.0
 20
0.0
 30
0.0
  9
$PUCSORGBOTTOM
 10
0.0
 20
0.0
 30
0.0
  9
$PUCSORGLEFT
 10
0.0
 20
0.0
 30
0.0
  9
$PUCSORGRIGHT
 10
0.0
 20
0.0
 30
0.0
  9
$PUCSORGFRONT
 10
0.0
 20
0.0
 30
0.0
  9
$PUCSORGBACK
 10
0.0
 20
0.0
 30
0.0
  9
$USERI1
 70
     0
  9
$USERI2
 70
     0
  9
$USERI3
 70
     0
  9
$USERI4
 70
     0
  9
$USERI5
 70
     0
  9
$USERR1
 40
0.0
  9
$USERR2
 40
0.0
  9
$USERR3
 40
0.0
  9
$USERR4
 40
0.0
  9
$USERR5
 40
0.0
  9
$WORLDVIEW
 70
     1
  9
$SHADEDGE
 70
     3
  9
$SHADEDIF
 70
    70
  9
$TILEMODE
 70
     1
  9
$MAXACTVP
 70
    64
  9
$PINSBASE
 10
0.0
 20
0.0
 30
0.0
  9
$PLIMCHECK
 70
     0
  9
$PEXTMIN
 10
1.0000000000E+20
 20
1.0000000000E+20
 30
1.0000000000E+20
  9
$PEXTMAX
 10
-1.0000000000E+20
 20
-1.0000000000E+20
 30
-1.0000000000E+20
  9
$PLIMMIN
 10
0.0
 20
0.0
  9
$PLIMMAX
 10
420.0
 20
297.0
  9
$UNITMODE
 70
     0
  9
$VISRETAIN
 70
     1
  9
$PLINEGEN
 70
     0
  9
$PSLTSCALE
 70
     1
  9
$TREEDEPTH
 70
  3020
  9
$CMLSTYLE
  2
Standard
  9
$CMLJUST
 70
     0
  9
$CMLSCALE
 40
20.0
  9
$PROXYGRAPHICS
 70
     1
  9
$MEASUREMENT
 70
     1
  9
$CELWEIGHT
370
    -1
  9
$ENDCAPS
280
     0
  9
$JOINSTYLE
280
     0
  9
$LWDISPLAY
290
     1
  9
$INSUNITS
 70
     4
  9
$HYPERLINKBASE
  1

  9
$STYLESHEET
  1

  9
$XEDIT
290
     1
  9
$CEPSNTYPE
380
     0
  9
$PSTYLEMODE
290
     1
  9
$FINGERPRINTGUID
  2
{0c4df8be-4c58-4936-9d03-f7ab04a3c44b}
  9
$VERSIONGUID
  2
{FAEB1C32-E019-11D5-929B-00C0DF256EC4}
  9
$EXTNAMES
290
     1
  9
$PSVPSCALE
 40
0.0
  9
$OLESTARTUP
290
     0
  0
ENDSEC
  0
SECTION
  2
CLASSES
  0
CLASS
  1
ACDBDICTIONARYWDFLT
  2
AcDbDictionaryWithDefault
  3
ObjectDBX Classes
 90
        0
280
     0
281
     0
  0
CLASS
  1
VISUALSTYLE
  2
AcDbVisualStyle
  3
ObjectDBX Classes
 90
     4095
280
     0
281
     0
  0
CLASS
  1
MATERIAL
  2
AcDbMaterial
  3
ObjectDBX Classes
 90
     1153
280
     0
281
     0
  0
CLASS
  1
SCALE
  2
AcDbScale
  3
ObjectDBX Classes
 90
     1153
280
     0
281
     0
  0
CLASS
  1
TABLESTYLE
  2
AcDbTableStyle
  3
ObjectDBX Classes
 90
     4095
280
     0
281
     0
  0
CLASS
  1
MLEADERSTYLE
  2
AcDbMLeaderStyle
  3
ACDB_MLEADERSTYLE_CLASS
 90
     4095
280
     0
281
     0
  0
CLASS
  1
SUN
  2
AcDbSun
  3
SCENEOE
 90
     1153
280
     0
281
     0
  0
CLASS
  1
ACDBPLACEHOLDER
  2
AcDbPlaceHolder
  3
ObjectDBX Classes
 90
        0
280
     0
281
     0
  0
CLASS
  1
LAYOUT
  2
AcDbLayout
  3
ObjectDBX Classes
 90
        0
280
     0
281
     0
  0
ENDSEC
  0
SECTION
  2
TABLES
  0
TABLE
  2
VPORT
  5
8
330
0
100
AcDbSymbolTable
 70
     1
  0
VPORT
  5
29
330
8
100
AcDbSymbolTableRecord
100
AcDbViewportTableRecord
  2
*Active
 70
     0
 10
0.0
 20
0.0
 11
1.0
 21
1.0
 12
215.9
 22
139.7
 13
0.0
 23
0.0
 14
10.0
 24
10.0
 15
10.0
 25
10.0
 16
0.0
 26
0.0
 36
1.0
 17
0.0
 27
0.0
 37
0.0
 40
279.4
 41
1.5454545455
 42
50.0
 43
0.0
 44
0.0
 50
0.0
 51
0.0
 71
     0
 72
  2000
 73
     1
 74
     3
 75
     0
 76
     0
 77
     0
 78
     0
281
     0
 65
     1
110
0.0
120
0.0
130
0.0
111
1.0
121
0.0
131
0.0
112
0.0
122
1.0
132
0.0
 79
     0
146
0.0
  0
ENDTAB
  0
TABLE
  2
LTYPE
  5
5
330
0
100
AcDbSymbolTable
 70
     6
  0
LTYPE
  5
14
330
5
100
AcDbSymbolTableRecord
100
AcDbLinetypeTableRecord
  2
ByBlock
 70
     0
  3

 72
    65
 73
     0
 40
0.0
  0
LTYPE
  5
15
330
5
100
AcDbSymbolTableRecord
100
AcDbLinetypeTableRecord
  2
ByLayer
 70
     0
  3

 72
    65
 73
     0
 40
0.0
  0
LTYPE
  5
16
330
5
100
AcDbSymbolTableRecord
100
AcDbLinetypeTableRecord
  2
Continuous
 70
     0
  3
Solid line
 72
    65
 73
     0
 40
0.0
  0
LTYPE
  5
6E
330
5
100
AcDbSymbolTableRecord
100
AcDbLinetypeTableRecord
  2
HIDDEN
 70
     0
  3
Hidden __ __ __ __ __ __ __ __ __ __ __ __ __ __
 72
    65
 73
     2
 40
1.905
 49
1.27
 74
     0
 49
-0.635
 74
     0
  0
LTYPE
  5
6F
330
5
100
AcDbSymbolTableRecord
100
AcDbLinetypeTableRecord
  2
PHANTOM
 70
     0
  3
Phantom ______  __  __  ______  __  __  ______
 72
    65
 73
     6
 40
12.7
 49
6.35
 74
     0
 49
-1.27
 74
     0
 49
1.27
 74
     0
 49
-1.27
 74
     0
 49
1.27
 74
     0
 49
-1.27
 74
     0
  0
LTYPE
  5
70
330
5
100
AcDbSymbolTableRecord
100
AcDbLinetypeTableRecord
  2
CENTER
 70
     0
  3
Center ____ _ ____ _ ____ _ ____ _ ____ _ ____
 72
    65
 73
     4
 40
10.16
 49
6.35
 74
     0
 49
-1.27
 74
     0
 49
1.27
 74
     0
 49
-1.27
 74
     0
  0
LTYPE
  5
71
330
5
100
AcDbSymbolTableRecord
100
AcDbLinetypeTableRecord
  2
CENTERX2
 70
     0
  3
Center (2x) ________  __  ________  __  _____
 72
    65
 73
     4
 40
20.32
 49
12.7
 74
     0
 49
-2.54
 74
     0
 49
2.54
 74
     0
 49
-2.54
 74
     0
  0
LTYPE
  5
72
330
5
100
AcDbSymbolTableRecord
100
AcDbLinetypeTableRecord
  2
DOT2
 70
     0
  3
Dot (.5x) ........................................
 72
    65
 73
     2
 40
0.635
 49
0.0
 74
     0
 49
-0.635
 74
     0
  0
ENDTAB
  0
TABLE
  2
LAYER
  5
2
330
0
100
AcDbSymbolTable
 70
     3
  0
LAYER
  5
10
330
2
100
AcDbSymbolTableRecord
100
AcDbLayerTableRecord
  2
0
 70
     0
 62
     7
  6
Continuous
370
    -3
390
F
  0
LAYER
  5
73
330
2
100
AcDbSymbolTableRecord
100
AcDbLayerTableRecord
  2
FRAME_&_TABLE
 70
     0
 62
     8
  6
Continuous
370
    50
390
F
  0
LAYER
  5
74
330
2
100
AcDbSymbolTableRecord
100
AcDbLayerTableRecord
  2
DIMENSIONS
 70
     0
 62
     7
  6
Continuous
370
    -3
390
F
  0
ENDTAB
  0
TABLE
  2
STYLE
  5
3
330
0
100
AcDbSymbolTable
 70
     1
  0
STYLE
  5
11
330
3
100
AcDbSymbolTableRecord
100
AcDbTextStyleTableRecord
  2
Standard
 70
     0
 40
0.0
 41
1.0
 50
0.0
 71
     0
 42
3.8805555556
  3
txt
  4

  0
ENDTAB
  0
TABLE
  2
VIEW
  5
6
330
0
100
AcDbSymbolTable
 70
     0
  0
ENDTAB
  0
TABLE
  2
UCS
  5
7
330
0
100
AcDbSymbolTable
 70
     0
  0
ENDTAB
  0
TABLE
  2
APPID
  5
9
330
0
100
AcDbSymbolTable
 70
     1
  0
APPID
  5
12
330
9
100
AcDbSymbolTableRecord
100
AcDbRegAppTableRecord
  2
ACAD
 70
     0
  0
ENDTAB
  0
TABLE
  2
DIMSTYLE
  5
A
330
0
100
AcDbSymbolTable
 70
     1
100
AcDbDimStyleTable
  0
DIMSTYLE
105
27
330
A
100
AcDbSymbolTableRecord
100
AcDbDimStyleTableRecord
  2
ISO-25
 70
     0
 41
2.5
 42
0.625
 43
3.75
 44
1.25
 73
     0
 74
     0
 77
     1
 78
     8
140
2.5
141
2.5
143
0.0393700787
147
0.625
171
     3
172
     1
178
     0
271
     2
272
     2
274
     3
278
    44
283
     0
284
     8
340
11
  0
ENDTAB
  0
TABLE
  2
BLOCK_RECORD
  5
1
330
0
100
AcDbSymbolTable
 70
     1
  0
BLOCK_RECORD
  5
1F
330
1
100
AcDbSymbolTableRecord
100
AcDbBlockTableRecord
  2
*Model_Space
340
22
  0
BLOCK_RECORD
  5
1B
330
1
100
AcDbSymbolTableRecord
100
AcDbBlockTableRecord
  2
*Paper_Space
340
1E
  0
BLOCK_RECORD
  5
23
330
1
100
AcDbSymbolTableRecord
100
AcDbBlockTableRecord
  2
*Paper_Space0
340
26
  0
ENDTAB
  0
ENDSEC
  0
SECTION
  2
BLOCKS
  0
BLOCK
  5
20
330
1F
100
AcDbEntity
  8
0
100
AcDbBlockBegin
  2
*Model_Space
 70
     0
 10
0.0
 20
0.0
 30
0.0
  3
*Model_Space
  1

  0
ENDBLK
  5
21
330
1F
100
AcDbEntity
  8
0
100
AcDbBlockEnd
  0
BLOCK
  5
1C
330
1B
100
AcDbEntity
 67
     1
  8
0
100
AcDbBlockBegin
  2
*Paper_Space
 70
     0
 10
0.0
 20
0.0
 30
0.0
  3
*Paper_Space
  1

  0
ENDBLK
  5
1D
330
1B
100
AcDbEntity
 67
     1
  8
0
100
AcDbBlockEnd
  0
BLOCK
  5
24
330
23
100
AcDbEntity
  8
0
100
AcDbBlockBegin
  2
*Paper_Space0
 70
     0
 10
0.0
 20
0.0
 30
0.0
  3
*Paper_Space0
  1

  0
ENDBLK
  5
25
330
23
100
AcDbEntity
  8
0
100
AcDbBlockEnd
  0
ENDSEC
  0
SECTION
  2
ENTITIES
  0
ARC
  5
75
330
1F
100
AcDbEntity
  8
0
  6
Continuous
 62
     7
370
    25
100
AcDbCircle
 10
-748.7726095183
 20
320.4159364942
 30
0.0
 40
1.000000000000042
100
AcDbArc
 50
38.2356658303
 51
70.507845004
  0
ARC
  5
76
330
1F
100
AcDbEntity
  8
0
  6
Continuous
 62
     7
370
    25
100
AcDbCircle
 10
-1352.7726095183
 20
320.4159364942
 30
0.0
 40
0.9999999999998945
100
AcDbArc
 50
109.4921549966
 51
141.7643341703
  0
LINE
  5
77
330
1F
100
AcDbEntity
  8
0
  6
Continuous
 62
     7
370
    25
100
AcDbLine
 10
-1042.7726095183
 20
481.6284114678
 30
0.0
 11
-1042.7726095183
 21
565.8769173714
 31
0.0
  0
LINE
  5
78
330
1F
100
AcDbEntity
  8
0
  6
Continuous
 62
     7
370
    25
100
AcDbLine
 10
-1058.7726095183
 20
565.8769173714
 30
0.0
 11
-1058.7726095183
 21
479.1519252981
 31
0.0
  0
LINE
  5
79
330
1F
100
AcDbEntity
  8
0
  6
Continuous
 62
     7
370
    25
100
AcDbLine
 10
-1042.7726095183
 20
566.1639879725
 30
0.0
 11
-1042.7726095183
 21
737.2102318095
 31
0.0
  0
ARC
  5
7A
330
1F
100
AcDbEntity
  8
0
  6
Continuous
 62
     7
370
    25
100
AcDbCircle
 10
-1050.7726095183
 20
566.1576407267
 30
0.0
 40
8.004923834877575
100
AcDbArc
 50
357.9902916724
 51
182.0097083276
  0
LWPOLYLINE
  5
7B
330
1F
100
AcDbEntity
  8
0
  6
Continuous
 62
     7
370
    25
100
AcDbPolyline
 90
       33
 70
   128
 43
0.0
 10
-1042.7726095183
 20
736.6613886691
 10
-1042.8547932241
 20
737.9806259019
 10
-1043.086747408
 20
739.1864277761
 10
-1043.4421708018
 20
740.263434236
 10
-1043.8919487597
 20
741.2049093037
 10
-1044.407446478
 20
742.011933835
 10
-1044.962831855
 20
742.6916870703
 10
-1045.5363573854
 20
743.2554009226
 10
-1046.1107718484
 20
743.7164192075
 10
-1046.6731300596
 20
744.0886001712
 10
-1046.9467929678
 20
744.2455499494
 10
-1047.0813471209
 20
744.3174233803
 10
-1047.2142618839
 20
744.385139387
 10
-1047.7326810125
 20
744.6200636682
 10
-1048.959967925
 20
745.0120986832
 10
-1050.0637894084
 20
745.188702227
 10
-1050.9416798059
 20
745.2183801719
 10
-1051.3247482911
 20
745.2010899437
 10
-1051.6352335363
 20
745.1735073966
 10
-1051.7401660044
 20
745.1613474498
 10
-1051.8487884989
 20
745.1472111666
 10
-1052.0773673274
 20
745.1122895253
 10
-1052.5815416322
 20
745.0100023685
 10
-1053.1508487516
 20
744.8509729564
 10
-1053.7862130706
 20
744.6150242243
 10
-1054.4846384364
 20
744.2770072539
 10
-1055.2367008473
 20
743.8068462114
 10
-1056.0232586244
 20
743.1706625507
 10
-1056.8116976394
 20
742.3337907209
 10
-1057.5527090888
 20
741.2665750335
 10
-1058.1795853646
 20
739.9533639768
 10
-1058.612853703
 20
738.4036100947
 10
-1058.7726095183
 20
736.6613886691
  0
LINE
  5
7C
330
1F
100
AcDbEntity
  8
0
  6
Continuous
 62
     7
370
    25
100
AcDbLine
 10
-1058.7726095183
 20
566.1639879725
 30
0.0
 11
-1058.7726095183
 21
737.2106348313
 31
0.0
  0
ARC
  5
7D
330
1F
100
AcDbEntity
  8
0
  6
Continuous
 62
     7
370
    25
100
AcDbCircle
 10
-1043.0972906075
 20
599.7771135122
 30
0.0
 40
4.336784716339706
100
AcDbArc
 50
6.3379003377
 51
85.7064323991
  0
LWPOLYLINE
  5
7E
330
1F
100
AcDbEntity
  8
0
  6
Continuous
 62
     7
370
    25
100
AcDbPolyline
 90
        8
 70
   128
 43
0.0
 10
-1058.7726095183
 20
604.1055766417
 10
-1059.9296121952
 20
603.760464137
 10
-1060.7577601439
 20
603.3907598682
 10
-1061.3612236061
 20
603.002990214
 10
-1061.916610827
 20
602.4876077201
 10
-1062.3778349508
 20
601.8249850288
 10
-1062.6807081115
 20
601.0316697248
 10
-1062.7611112644
 20
600.2609276901
  0
LINE
  5
7F
330
1F
100
AcDbEntity
  8
0
  6
Continuous
 62
     7
370
    25
100
AcDbLine
 10
-1038.7726095183
 20
566.7941896506
 30
0.0
 11
-1038.7726095183
 21
600.2601533278
 31
0.0
  0
LINE
  5
80
330
1F
100
AcDbEntity
  8
0
  6
Continuous
 62
     7
370
    25
100
AcDbLine
 10
-1062.7726095183
 20
600.2601533278
 30
0.0
 11
-1062.7726095183
 21
566.7941896506
 31
0.0
  0
ARC
  5
81
330
1F
100
AcDbEntity
  8
0
  6
Continuous
 62
     7
370
    25
100
AcDbCircle
 10
-1058.4482083519
 20
567.2766426076
 30
0.0
 40
4.336178554166689
100
AcDbArc
 50
186.3140052294
 51
265.7095402103
  0
LWPOLYLINE
  5
82
330
1F
100
AcDbEntity
  8
0
  6
Continuous
 62
     7
370
    25
100
AcDbPolyline
 90
        8
 70
   128
 43
0.0
 10
-1042.7726095183
 20
562.9487663367
 10
-1041.6156068414
 20
563.2938788414
 10
-1040.7874588927
 20
563.6635831102
 10
-1040.1839954305
 20
564.0513527643
 10
-1039.6286082096
 20
564.5667352582
 10
-1039.1673840857
 20
565.2293579496
 10
-1038.8645109251
 20
566.0226732536
 10
-1038.7857930336
 20
566.7772604266
  0
ARC
  5
83
330
1F
100
AcDbEntity
  8
0
  6
Continuous
 62
     7
370
    25
100
AcDbCircle
 10
-1353.437708828
 20
552.2645167859
 30
0.0
 40
9.500000000000082
100
AcDbArc
 50
193.7002334884
 51
203.9076190177
  0
ARC
  5
84
330
1F
100
AcDbEntity
  8
0
  6
Continuous
 62
     7
370
    25
100
AcDbCircle
 10
-1353.437708828
 20
552.2645167859
 30
0.0
 40
9.500000000000108
100
AcDbArc
 50
156.0923809823
 51
166.2997665116
  0
LINE
  5
85
330
1F
100
AcDbEntity
  8
0
  6
Continuous
 62
     7
370
    25
100
AcDbLine
 10
-1361.6226095183
 20
548.4145167859
 30
0.0
 11
-1360.7726095183
 21
549.2645167859
 31
0.0
  0
LINE
  5
86
330
1F
100
AcDbEntity
  8
0
  6
Continuous
 62
     7
370
    25
100
AcDbLine
 10
-1360.7726095183
 20
555.2645167859
 30
0.0
 11
-1361.6226095183
 21
556.1145167859
 31
0.0
  0
LINE
  5
87
330
1F
100
AcDbEntity
  8
0
  6
Continuous
 62
     7
370
    25
100
AcDbLine
 10
-1361.6226095183
 20
556.1145167859
 30
0.0
 11
-1362.1226095183
 21
556.1145167859
 31
0.0
  0
LINE
  5
88
330
1F
100
AcDbEntity
  8
0
  6
Continuous
 62
     7
370
    25
100
AcDbLine
 10
-1362.1226095183
 20
548.4145167859
 30
0.0
 11
-1361.6226095183
 21
548.4145167859
 31
0.0
  0
LINE
  5
89
330
1F
100
AcDbEntity
  8
0
  6
Continuous
 62
     7
370
    25
100
AcDbLine
 10
-740.7726095183
 20
548.4145167859
 30
0.0
 11
-740.2726095183
 21
548.4145167859
 31
0.0
  0
LINE
  5
8A
330
1F
100
AcDbEntity
  8
0
  6
Continuous
 62
     7
370
    25
100
AcDbLine
 10
-740.2726095183
 20
556.1145167859
 30
0.0
 11
-740.7726095183
 21
556.1145167859
 31
0.0
  0
ARC
  5
8B
330
1F
100
AcDbEntity
  8
0
  6
Continuous
 62
     7
370
    25
100
AcDbCircle
 10
-748.9575102085
 20
552.2645167859
 30
0.0
 40
9.499999999999998
100
AcDbArc
 50
13.7002334884
 51
23.9076190177
  0
ARC
  5
8C
330
1F
100
AcDbEntity
  8
0
  6
Continuous
 62
     7
370
    25
100
AcDbCircle
 10
-748.9575102085
 20
552.2645167859
 30
0.0
 40
9.500000000000082
100
AcDbArc
 50
336.0923809823
 51
346.2997665116
  0
LINE
  5
8D
330
1F
100
AcDbEntity
  8
0
  6
Continuous
 62
     7
370
    25
100
AcDbLine
 10
-821.7035211759
 20
536.2766885091
 30
0.0
 11
-821.7035211759
 21
546.203121039
 31
0.0
  0
LINE
  5
8E
330
1F
100
AcDbEntity
  8
0
  6
Continuous
 62
     7
370
    25
100
AcDbLine
 10
-969.841862991
 20
550.8756073397
 30
0.0
 11
-969.841862991
 21
541.4768694651
 31
0.0
  0
LINE
  5
8F
330
1F
100
AcDbEntity
  8
0
  6
Continuous
 62
     7
370
    25
100
AcDbLine
 10
-1131.7035211759
 20
479.6462726077
 30
0.0
 11
-1131.7035211759
 21
489.5727051376
 31
0.0
  0
LINE
  5
90
330
1F
100
AcDbEntity
  8
0
  6
Continuous
 62
     7
370
    25
100
AcDbLine
 10
-1279.841862991
 20
494.2451914384
 30
0.0
 11
-1279.841862991
 21
484.8464535637
 31
0.0
  0
ARC
  5
91
330
1F
100
AcDbEntity
  8
0
  6
Continuous
 62
     7
370
    25
100
AcDbCircle
 10
-894.424671819
 20
52.1120426283
 30
0.0
 40
495.0710709671064
100
AcDbArc
 50
84.6907768534
 51
94.1299422828
  0
LWPOLYLINE
  5
92
330
1F
100
AcDbEntity
  8
0
  6
Continuous
 62
     7
370
    25
100
AcDbPolyline
 90
       15
 70
   128
 43
0.0
 10
-848.6153137665
 20
545.0591676056
 10
-847.510031475
 20
544.9577889914
 10
-845.3171304881
 20
544.7981968259
 10
-843.0506640259
 20
544.6853083274
 10
-840.736769384
 20
544.6198164958
 10
-838.4010671731
 20
544.602080004
 10
-836.0698743746
 20
544.6321569662
 10
-833.7700186123
 20
544.7097385171
 10
-831.52757899
 20
544.8341601525
 10
-829.3671927151
 20
545.0045106474
 10
-827.3116029266
 20
545.2198139336
 10
-825.3807353119
 20
545.4793946571
 10
-823.5903508812
 20
545.7836321694
 10
-821.94974512
 20
546.1356591684
 10
-820.4858738668
 20
546.5367391424
  0
LINE
  5
93
330
1F
100
AcDbEntity
  8
0
  6
Continuous
 62
     7
370
    25
100
AcDbLine
 10
-811.7034229981
 20
553.9845401352
 30
0.0
 11
-811.7034229981
 21
562.8379031994
 31
0.0
  0
LWPOLYLINE
  5
94
330
1F
100
AcDbEntity
  8
0
  6
Continuous
 62
     7
370
    25
100
AcDbPolyline
 90
       23
 70
   128
 43
0.0
 10
-811.7253091161
 20
562.8333595215
 10
-811.7089318098
 20
563.0625945855
 10
-811.8795916827
 20
564.1273665397
 10
-812.2571263003
 20
565.1024609065
 10
-812.8131541164
 20
565.9973378967
 10
-813.560229331
 20
566.8506216163
 10
-814.5582241558
 20
567.7076482985
 10
-815.8962223568
 20
568.5990469943
 10
-817.5974788155
 20
569.5022782885
 10
-819.5797885927
 20
570.3674417462
 10
-821.7857698221
 20
571.1826690476
 10
-824.2118305468
 20
571.9584913006
 10
-826.8528881708
 20
572.6998389446
 10
-829.6995987195
 20
573.4091633935
 10
-832.8445211277
 20
574.1111671439
 10
-836.2107692515
 20
574.7866018863
 10
-839.7988801215
 20
575.4358485417
 10
-843.6047398597
 20
576.0580089346
 10
-847.6218362298
 20
576.6516617033
 10
-851.8410725462
 20
577.2149954426
 10
-856.2506196173
 20
577.7459181571
 10
-860.8354227035
 20
578.2421499568
 10
-865.3235779056
 20
578.6770247166
  0
ARC
  5
95
330
1F
100
AcDbEntity
  8
0
  6
Continuous
 62
     7
370
    25
100
AcDbCircle
 10
-937.7125862106
 20
644.4642713777
 30
0.0
 40
98.86186717724553
100
AcDbArc
 50
261.5160045558
 51
274.4284586561
  0
LWPOLYLINE
  5
96
330
1F
100
AcDbEntity
  8
0
  6
Continuous
 62
     7
370
    25
100
AcDbPolyline
 90
       11
 70
   128
 43
0.0
 10
-820.5128631321
 20
546.5409909215
 10
-819.8302556097
 20
546.7475246658
 10
-817.9936863086
 20
547.414563649
 10
-816.3530517047
 20
548.149758575
 10
-814.9090565905
 20
548.9758834362
 10
-813.7510052465
 20
549.8558671923
 10
-812.9055484829
 20
550.7395074093
 10
-812.2979918987
 20
551.6559780951
 10
-811.8985068668
 20
552.6305399885
 10
-811.7138380513
 20
553.6688091778
 10
-811.729477326
 20
553.9840767564
  0
LINE
  5
97
330
1F
100
AcDbEntity
  8
0
  6
Continuous
 62
     7
370
    25
100
AcDbLine
 10
-979.7790873843
 20
568.4928721347
 30
0.0
 11
-979.8043411524
 21
568.0258036529
 31
0.0
  0
LINE
  5
98
330
1F
100
AcDbEntity
  8
0
  6
Continuous
 62
     7
370
    25
100
AcDbLine
 10
-979.8417960385
 20
568.0379422037
 30
0.0
 11
-979.8417960385
 21
559.1845791395
 31
0.0
  0
LWPOLYLINE
  5
99
330
1F
100
AcDbEntity
  8
0
  6
Continuous
 62
     7
370
    25
100
AcDbPolyline
 90
       17
 70
   128
 43
0.0
 10
-979.7981336162
 20
559.1739234525
 10
-979.8085529458
 20
558.7176387253
 10
-979.5874225715
 20
557.6543439398
 10
-979.1648239871
 20
556.6876071469
 10
-978.5600569662
 20
555.7946827899
 10
-977.7540980184
 20
554.9400415365
 10
-976.6922362697
 20
554.086561139
 10
-975.265213059
 20
553.1907343996
 10
-973.4909696083
 20
552.2973444567
 10
-971.4563066298
 20
551.4489763202
 10
-969.1974931955
 20
550.6467596774
 10
-966.7172070845
 20
549.8812896843
 10
-964.0109184753
 20
549.1457299687
 10
-961.0628518818
 20
548.4327607121
 10
-957.8649557005
 20
547.7394894996
 10
-954.4294052476
 20
547.0686769204
 10
-952.2751456199
 20
546.6887890629
  0
LWPOLYLINE
  5
9A
330
1F
100
AcDbEntity
  8
0
  6
Continuous
 62
     7
370
    25
100
AcDbPolyline
 90
       20
 70
   128
 43
0.0
 10
-949.942081577
 20
574.5267816783
 10
-951.1155668157
 20
574.5947998196
 10
-953.402407041
 20
574.6888875829
 10
-955.7280614843
 20
574.7354803347
 10
-958.0651414777
 20
574.7342546848
 10
-960.3872140288
 20
574.6852887352
 10
-962.6673488424
 20
574.589045461
 10
-964.8801247872
 20
574.4463010442
 10
-967.0015607825
 20
574.258021803
 10
-969.0099034168
 20
574.0251232801
 10
-970.8866804512
 20
573.7479868498
 10
-972.6183344593
 20
573.4254327915
 10
-974.1991981979
 20
573.0522959017
 10
-975.6378440341
 20
572.6127858944
 10
-976.9722416772
 20
572.0583675962
 10
-977.9481683237
 20
571.4835686469
 10
-978.6315962388
 20
570.9137067375
 10
-979.1830915437
 20
570.2488021065
 10
-979.5902248877
 20
569.4675183638
 10
-979.8208686793
 20
568.4856256168
  0
LWPOLYLINE
  5
9B
330
1F
100
AcDbEntity
  8
0
  6
Continuous
 62
     7
370
    25
100
AcDbPolyline
 90
       20
 70
   128
 43
0.0
 10
-891.2025315124
 20
577.6053074572
 10
-892.3728757365
 20
577.3427508026
 10
-894.708474433
 20
576.8719427858
 10
-897.2442310728
 20
576.4265354534
 10
-899.9689855046
 20
576.0099276132
 10
-902.866517433
 20
575.6257251534
 10
-905.920239224
 20
575.2769205311
 10
-909.1131788354
 20
574.9660200935
 10
-912.4279864203
 20
574.6951250246
 10
-915.8469538117
 20
574.4659838439
 10
-919.3520473507
 20
574.280026349
 10
-922.9249523811
 20
574.1383854979
 10
-926.5471271577
 20
574.0419114529
 10
-930.1998639291
 20
573.9911805091
 10
-933.864355159
 20
573.9865006418
 10
-937.5217630594
 20
574.0279147333
 10
-941.153139431
 20
574.1151974461
 10
-944.7397821696
 20
574.2478576693
 10
-948.2631854184
 20
574.4251383325
 10
-949.942081577
 20
574.5267816783
  0
ARC
  5
9C
330
1F
100
AcDbEntity
  8
0
  6
Continuous
 62
     7
370
    25
100
AcDbCircle
 10
-874.5114038939
 20
487.5837107418
 30
0.0
 40
91.55589340052823
100
AcDbArc
 50
84.2402551722
 51
100.5040678077
  0
ARC
  5
9D
330
1F
100
AcDbEntity
  8
0
  6
Continuous
 62
     7
370
    25
100
AcDbCircle
 10
-1204.424671819
 20
-4.518373273
 30
0.0
 40
495.0710709670897
100
AcDbArc
 50
84.6907768534
 51
94.1299422828
  0
LWPOLYLINE
  5
9E
330
1F
100
AcDbEntity
  8
0
  6
Continuous
 62
     7
370
    25
100
AcDbPolyline
 90
       15
 70
   128
 43
0.0
 10
-1158.6153137665
 20
488.4287517042
 10
-1157.510031475
 20
488.3273730901
 10
-1155.3171304881
 20
488.1677809245
 10
-1153.0506640259
 20
488.054892426
 10
-1150.736769384
 20
487.9894005944
 10
-1148.4010671731
 20
487.9716641026
 10
-1146.0698743746
 20
488.0017410648
 10
-1143.7700186123
 20
488.0793226158
 10
-1141.52757899
 20
488.2037442511
 10
-1139.3671927151
 20
488.374094746
 10
-1137.3116029266
 20
488.5893980322
 10
-1135.3807353119
 20
488.8489787557
 10
-1133.5903508812
 20
489.153216268
 10
-1131.94974512
 20
489.505243267
 10
-1130.4858738668
 20
489.9063232411
  0
LWPOLYLINE
  5
9F
330
1F
100
AcDbEntity
  8
0
  6
Continuous
 62
     7
370
    25
100
AcDbPolyline
 90
       23
 70
   128
 43
0.0
 10
-1121.7253091161
 20
506.2029436201
 10
-1121.7089318098
 20
506.4321786842
 10
-1121.8795916827
 20
507.4969506383
 10
-1122.2571263003
 20
508.4720450052
 10
-1122.8131541164
 20
509.3669219954
 10
-1123.560229331
 20
510.2202057149
 10
-1124.5582241558
 20
511.0772323971
 10
-1125.8962223568
 20
511.968631093
 10
-1127.5974788155
 20
512.8718623871
 10
-1129.5797885927
 20
513.7370258449
 10
-1131.7857698221
 20
514.5522531463
 10
-1134.2118305468
 20
515.3280753992
 10
-1136.8528881708
 20
516.0694230432
 10
-1139.6995987195
 20
516.7787474921
 10
-1142.8445211277
 20
517.4807512426
 10
-1146.2107692515
 20
518.1561859849
 10
-1149.7988801215
 20
518.8054326403
 10
-1153.6047398597
 20
519.4275930332
 10
-1157.6218362298
 20
520.021245802
 10
-1161.8410725462
 20
520.5845795413
 10
-1166.2506196173
 20
521.1155022558
 10
-1170.8354227035
 20
521.6117340554
 10
-1175.3235779056
 20
522.0466088152
  0
LINE
  5
A0
330
1F
100
AcDbEntity
  8
0
  6
Continuous
 62
     7
370
    25
100
AcDbLine
 10
-1121.7034229981
 20
497.3541242338
 30
0.0
 11
-1121.7034229981
 21
506.207487298
 31
0.0
  0
ARC
  5
A1
330
1F
100
AcDbEntity
  8
0
  6
Continuous
 62
     7
370
    25
100
AcDbCircle
 10
-1247.7125862106
 20
587.8338554763
 30
0.0
 40
98.8618671772666
100
AcDbArc
 50
261.5160045558
 51
274.4284586561
  0
LWPOLYLINE
  5
A2
330
1F
100
AcDbEntity
  8
0
  6
Continuous
 62
     7
370
    25
100
AcDbPolyline
 90
       11
 70
   128
 43
0.0
 10
-1130.5128631321
 20
489.9105750201
 10
-1129.8302556097
 20
490.1171087644
 10
-1127.9936863086
 20
490.7841477476
 10
-1126.3530517047
 20
491.5193426736
 10
-1124.9090565905
 20
492.3454675348
 10
-1123.7510052465
 20
493.2254512909
 10
-1122.9055484829
 20
494.1090915079
 10
-1122.2979918987
 20
495.0255621937
 10
-1121.8985068668
 20
496.0001240872
 10
-1121.7138380513
 20
497.0383932764
 10
-1121.729477326
 20
497.3536608551
  0
LINE
  5
A3
330
1F
100
AcDbEntity
  8
0
  6
Continuous
 62
     7
370
    25
100
AcDbLine
 10
-1289.7790873843
 20
511.8624562333
 30
0.0
 11
-1289.8043411524
 21
511.3953877515
 31
0.0
  0
LINE
  5
A4
330
1F
100
AcDbEntity
  8
0
  6
Continuous
 62
     7
370
    25
100
AcDbLine
 10
-1289.8417960385
 20
511.4075263023
 30
0.0
 11
-1289.8417960385
 21
502.5541632381
 31
0.0
  0
LWPOLYLINE
  5
A5
330
1F
100
AcDbEntity
  8
0
  6
Continuous
 62
     7
370
    25
100
AcDbPolyline
 90
       17
 70
   128
 43
0.0
 10
-1289.7981336162
 20
502.5435075512
 10
-1289.8085529458
 20
502.0872228239
 10
-1289.5874225715
 20
501.0239280384
 10
-1289.1648239871
 20
500.0571912455
 10
-1288.5600569662
 20
499.1642668885
 10
-1287.7540980184
 20
498.3096256351
 10
-1286.6922362697
 20
497.4561452377
 10
-1285.265213059
 20
496.5603184982
 10
-1283.4909696083
 20
495.6669285553
 10
-1281.4563066298
 20
494.8185604188
 10
-1279.1974931955
 20
494.016343776
 10
-1276.7172070845
 20
493.2508737829
 10
-1274.0109184753
 20
492.5153140673
 10
-1271.0628518818
 20
491.8023448108
 10
-1267.8649557005
 20
491.1090735983
 10
-1264.4294052476
 20
490.438261019
 10
-1262.2751456199
 20
490.0583731616
  0
LWPOLYLINE
  5
A6
330
1F
100
AcDbEntity
  8
0
  6
Continuous
 62
     7
370
    25
100
AcDbPolyline
 90
       20
 70
   128
 43
0.0
 10
-1259.942081577
 20
517.896365777
 10
-1261.1155668157
 20
517.9643839182
 10
-1263.402407041
 20
518.0584716815
 10
-1265.7280614843
 20
518.1050644333
 10
-1268.0651414777
 20
518.1038387835
 10
-1270.3872140288
 20
518.0548728339
 10
-1272.6673488424
 20
517.9586295597
 10
-1274.8801247872
 20
517.8158851429
 10
-1277.0015607825
 20
517.6276059016
 10
-1279.0099034168
 20
517.3947073787
 10
-1280.8866804512
 20
517.1175709484
 10
-1282.6183344593
 20
516.7950168901
 10
-1284.1991981979
 20
516.4218800004
 10
-1285.6378440341
 20
515.982369993
 10
-1286.9722416772
 20
515.4279516949
 10
-1287.9481683237
 20
514.8531527455
 10
-1288.6315962388
 20
514.2832908361
 10
-1289.1830915437
 20
513.6183862052
 10
-1289.5902248877
 20
512.8371024624
 10
-1289.8208686793
 20
511.8552097154
  0
LWPOLYLINE
  5
A7
330
1F
100
AcDbEntity
  8
0
  6
Continuous
 62
     7
370
    25
100
AcDbPolyline
 90
       20
 70
   128
 43
0.0
 10
-1201.2025315124
 20
520.9748915559
 10
-1202.3728757365
 20
520.7123349012
 10
-1204.708474433
 20
520.2415268844
 10
-1207.2442310728
 20
519.796119552
 10
-1209.9689855046
 20
519.3795117119
 10
-1212.866517433
 20
518.995309252
 10
-1215.920239224
 20
518.6465046297
 10
-1219.1131788354
 20
518.3356041921
 10
-1222.4279864203
 20
518.0647091232
 10
-1225.8469538117
 20
517.8355679425
 10
-1229.3520473507
 20
517.6496104476
 10
-1232.9249523811
 20
517.5079695966
 10
-1236.5471271577
 20
517.4114955515
 10
-1240.1998639291
 20
517.3607646077
 10
-1243.864355159
 20
517.3560847404
 10
-1247.5217630594
 20
517.397498832
 10
-1251.153139431
 20
517.4847815447
 10
-1254.7397821696
 20
517.617441768
 10
-1258.2631854184
 20
517.7947224311
 10
-1259.942081577
 20
517.896365777
  0
ARC
  5
A8
330
1F
100
AcDbEntity
  8
0
  6
Continuous
 62
     7
370
    25
100
AcDbCircle
 10
-1184.5114038939
 20
430.9532948405
 30
0.0
 40
91.55589340052371
100
AcDbArc
 50
84.2402551722
 51
100.5040678077
  0
LWPOLYLINE
  5
A9
330
1F
100
AcDbEntity
  8
0
  6
Continuous
 62
     7
370
    25
100
AcDbPolyline
 90
       13
 70
   128
 43
0.0
 10
-1173.7425136166
 20
514.273293356
 10
-1173.8236392706
 20
514.2392334835
 10
-1174.2530401479
 20
513.9386766873
 10
-1174.5714894662
 20
513.5569625491
 10
-1174.756851928
 20
513.0468872873
 10
-1174.7249517444
 20
512.4838600803
 10
-1174.4996866834
 20
512.0153068465
 10
-1174.1802195035
 20
511.6805712664
 10
-1173.748518491
 20
511.4017633881
 10
-1173.0469470423
 20
511.1141282998
 10
-1172.141749458
 20
510.871123538
 10
-1170.9994423647
 20
510.6627355787
 10
-1170.2230528319
 20
510.559370786
  0
LWPOLYLINE
  5
AA
330
1F
100
AcDbEntity
  8
0
  6
Continuous
 62
     7
370
    25
100
AcDbPolyline
 90
       10
 70
   128
 43
0.0
 10
-1159.158351532
 20
510.9348279508
 10
-1158.9648228214
 20
510.9770124122
 10
-1158.1074226861
 20
511.2578894159
 10
-1157.4522197765
 20
511.6133659363
 10
-1157.1012542849
 20
511.9424941901
 10
-1156.8462006317
 20
512.3990090256
 10
-1156.7775452299
 20
512.9562873173
 10
-1156.9388907649
 20
513.4954135516
 10
-1157.2243649776
 20
513.8747277168
 10
-1157.5882612243
 20
514.1584798644
  0
ARC
  5
AB
330
1F
100
AcDbEntity
  8
0
  6
Continuous
 62
     7
370
    25
100
AcDbCircle
 10
-1165.7726095183
 20
502.3131488088
 30
0.0
 40
14.40192307692304
100
AcDbArc
 50
54.8716405225
 51
125.1283594775
  0
LWPOLYLINE
  5
AC
330
1F
100
AcDbEntity
  8
0
  6
Continuous
 62
     7
370
    25
100
AcDbPolyline
 90
       13
 70
   128
 43
0.0
 10
-863.7425136166
 20
570.9037092573
 10
-863.8236392706
 20
570.8696493849
 10
-864.2530401479
 20
570.5690925887
 10
-864.5714894662
 20
570.1873784505
 10
-864.756851928
 20
569.6773031887
 10
-864.7249517444
 20
569.1142759816
 10
-864.4996866834
 20
568.6457227478
 10
-864.1802195035
 20
568.3109871678
 10
-863.748518491
 20
568.0321792894
 10
-863.0469470423
 20
567.7445442012
 10
-862.141749458
 20
567.5015394394
 10
-860.9994423647
 20
567.29315148
 10
-860.2230528319
 20
567.1897866873
  0
LWPOLYLINE
  5
AD
330
1F
100
AcDbEntity
  8
0
  6
Continuous
 62
     7
370
    25
100
AcDbPolyline
 90
       10
 70
   128
 43
0.0
 10
-849.158351532
 20
567.5652438522
 10
-848.9648228214
 20
567.6074283135
 10
-848.1074226861
 20
567.8883053172
 10
-847.4522197765
 20
568.2437818376
 10
-847.1012542849
 20
568.5729100915
 10
-846.8462006317
 20
569.0294249269
 10
-846.7775452299
 20
569.5867032187
 10
-846.9388907649
 20
570.125829453
 10
-847.2243649776
 20
570.5051436182
 10
-847.5882612243
 20
570.7888957658
  0
ARC
  5
AE
330
1F
100
AcDbEntity
  8
0
  6
Continuous
 62
     7
370
    25
100
AcDbCircle
 10
-855.7726095183
 20
558.9435647102
 30
0.0
 40
14.40192307692304
100
AcDbArc
 50
54.8716405225
 51
125.1283594775
  0
LWPOLYLINE
  5
AF
330
1F
100
AcDbEntity
  8
0
  6
Continuous
 62
     7
370
    25
100
AcDbPolyline
 90
       11
 70
   128
 43
0.0
 10
-929.991020502
 20
567.3844556434
 10
-929.9875501074
 20
567.3849761115
 10
-928.9756779817
 20
567.6045725443
 10
-928.1166709667
 20
567.8844928648
 10
-927.4554289408
 20
568.241440757
 10
-927.1038712981
 20
568.5696937768
 10
-926.8476754765
 20
569.0251202866
 10
-926.7771491154
 20
569.5819748597
 10
-926.9370734414
 20
570.1224207128
 10
-927.2219000262
 20
570.5026929548
 10
-927.5835123726
 20
570.7856724794
  0
LWPOLYLINE
  5
B0
330
1F
100
AcDbEntity
  8
0
  6
Continuous
 62
     7
370
    25
100
AcDbPolyline
 90
       12
 70
   128
 43
0.0
 10
-943.8145233461
 20
570.8718063699
 10
-943.8362468123
 20
570.8626018882
 10
-944.2602386745
 20
570.5626026462
 10
-944.576893954
 20
570.1782658976
 10
-944.7585456028
 20
569.6659575502
 10
-944.7046008532
 20
569.0461498892
 10
-944.4637304662
 20
568.5977590165
 10
-944.1335291408
 20
568.2741229125
 10
-943.6800684243
 20
567.9975082325
 10
-942.925401485
 20
567.7058188632
 10
-942.0023821503
 20
567.4714838606
 10
-941.6251794065
 20
567.4059839065
  0
ARC
  5
B1
330
1F
100
AcDbEntity
  8
0
  6
Continuous
 62
     7
370
    25
100
AcDbCircle
 10
-935.7726095183
 20
558.9435647102
 30
0.0
 40
14.40192307692311
100
AcDbArc
 50
54.8716405225
 51
125.1283594775
  0
LWPOLYLINE
  5
B2
330
1F
100
AcDbEntity
  8
0
  6
Continuous
 62
     7
370
    25
100
AcDbPolyline
 90
       11
 70
   128
 43
0.0
 10
-1239.991020502
 20
510.754039742
 10
-1239.9875501074
 20
510.7545602101
 10
-1238.9756779817
 20
510.9741566429
 10
-1238.1166709667
 20
511.2540769634
 10
-1237.4554289408
 20
511.6110248557
 10
-1237.1038712981
 20
511.9392778754
 10
-1236.8476754765
 20
512.3947043853
 10
-1236.7771491154
 20
512.9515589583
 10
-1236.9370734414
 20
513.4920048114
 10
-1237.2219000262
 20
513.8722770535
 10
-1237.5835123726
 20
514.155256578
  0
LWPOLYLINE
  5
B3
330
1F
100
AcDbEntity
  8
0
  6
Continuous
 62
     7
370
    25
100
AcDbPolyline
 90
       12
 70
   128
 43
0.0
 10
-1253.8145233461
 20
514.2413904685
 10
-1253.8362468123
 20
514.2321859868
 10
-1254.2602386745
 20
513.9321867448
 10
-1254.576893954
 20
513.5478499962
 10
-1254.7585456028
 20
513.0355416488
 10
-1254.7046008532
 20
512.4157339878
 10
-1254.4637304662
 20
511.9673431151
 10
-1254.1335291408
 20
511.6437070112
 10
-1253.6800684243
 20
511.3670923311
 10
-1252.925401485
 20
511.0754029618
 10
-1252.0023821503
 20
510.8410679592
 10
-1251.6251794065
 20
510.7755680051
  0
ARC
  5
B4
330
1F
100
AcDbEntity
  8
0
  6
Continuous
 62
     7
370
    25
100
AcDbCircle
 10
-1245.7726095183
 20
502.3131488088
 30
0.0
 40
14.40192307692304
100
AcDbArc
 50
54.8716405225
 51
125.1283594775
  0
LINE
  5
B5
330
1F
100
AcDbEntity
  8
0
  6
Continuous
 62
     7
370
    25
100
AcDbLine
 10
-1147.7726095183
 20
526.8815129148
 30
0.0
 11
-1223.7726095183
 21
526.8815129148
 31
0.0
  0
LWPOLYLINE
  5
B6
330
1F
100
AcDbEntity
  8
0
  6
Continuous
 62
     7
370
    25
100
AcDbPolyline
 90
       18
 70
   128
 43
0.0
 10
-1121.3609323325
 20
530.2854378043
 10
-1121.3554257519
 20
530.292150363
 10
-1121.5216868017
 20
530.1799947893
 10
-1121.9047984621
 20
529.9750469552
 10
-1122.5354301104
 20
529.7038678007
 10
-1123.4301423443
 20
529.3903290898
 10
-1124.5899920547
 20
529.055502472
 10
-1126.004007413
 20
528.7166714706
 10
-1127.6539959042
 20
528.387164243
 10
-1129.5181849513
 20
528.0769398935
 10
-1131.5731949969
 20
527.7934065184
 10
-1133.7948668946
 20
527.5421317244
 10
-1136.1585343574
 20
527.3273500242
 10
-1138.639097917
 20
527.1522917404
 10
-1141.2110609909
 20
527.0193860567
 10
-1143.8485847639
 20
526.9303832425
 10
-1146.5255742095
 20
526.8864269031
 10
-1147.7726095183
 20
526.8815129148
  0
LWPOLYLINE
  5
B7
330
1F
100
AcDbEntity
  8
0
  6
Continuous
 62
     7
370
    25
100
AcDbPolyline
 90
       17
 70
   128
 43
0.0
 10
-1223.7726095183
 20
526.8815129148
 10
-1225.1860703667
 20
526.887826917
 10
-1227.8627719478
 20
526.9346316215
 10
-1230.5009956014
 20
527.0265920607
 10
-1233.0741095173
 20
527.1626421657
 10
-1235.5566434791
 20
527.3411574601
 10
-1237.9236160519
 20
527.5599026251
 10
-1240.1505982835
 20
527.8159480835
 10
-1242.2137208756
 20
528.1055206756
 10
-1244.0896041299
 20
528.4237361318
 10
-1245.7551973136
 20
528.764115328
 10
-1247.1875538764
 20
529.1177007435
 10
-1248.3637149021
 20
529.4714406268
 10
-1249.2613238416
 20
529.8053095078
 10
-1249.8083000199
 20
530.0592327919
 10
-1250.11255964
 20
530.2366639332
 10
-1250.2037615808
 20
530.3036416524
  0
LWPOLYLINE
  5
B8
330
1F
100
AcDbEntity
  8
0
  6
Continuous
 62
     7
370
    25
100
AcDbPolyline
 90
       16
 70
   128
 43
0.0
 10
-1249.7726095183
 20
532.9542997032
 10
-1249.6404205745
 20
533.0250149555
 10
-1249.0097889262
 20
533.29619411
 10
-1248.1150766923
 20
533.609732821
 10
-1246.9552269818
 20
533.9445594387
 10
-1245.5412116236
 20
534.2833904401
 10
-1243.8912231324
 20
534.6128976678
 10
-1242.0270340853
 20
534.9231220172
 10
-1239.9720240397
 20
535.2066553924
 10
-1237.750352142
 20
535.4579301864
 10
-1235.3866846791
 20
535.6727118865
 10
-1232.9061211196
 20
535.8477701703
 10
-1230.3341580457
 20
535.9806758541
 10
-1227.6966342727
 20
536.0696786683
 10
-1225.0196448271
 20
536.1136350076
 10
-1223.7726095183
 20
536.1185489959
  0
LWPOLYLINE
  5
B9
330
1F
100
AcDbEntity
  8
0
  6
Continuous
 62
     7
370
    25
100
AcDbPolyline
 90
       15
 70
   128
 43
0.0
 10
-1147.7726095183
 20
536.1185489959
 10
-1146.3591486699
 20
536.1122349937
 10
-1143.6824470887
 20
536.0654302893
 10
-1141.0442234351
 20
535.9734698501
 10
-1138.4711095193
 20
535.8374197451
 10
-1135.9885755574
 20
535.6589044506
 10
-1133.6216029847
 20
535.4401592857
 10
-1131.3946207531
 20
535.1841138272
 10
-1129.3314981609
 20
534.8945412352
 10
-1127.4556149067
 20
534.576325779
 10
-1125.790021723
 20
534.2359465827
 10
-1124.3576651601
 20
533.8823611672
 10
-1123.1815041345
 20
533.528621284
 10
-1122.2838951949
 20
533.194752403
 10
-1121.7726095183
 20
532.9573977551
  0
LINE
  5
BA
330
1F
100
AcDbEntity
  8
0
  6
Continuous
 62
     7
370
    25
100
AcDbLine
 10
-1223.7726095183
 20
536.1185489959
 30
0.0
 11
-1147.7726095183
 21
536.1185489959
 31
0.0
  0
LINE
  5
BB
330
1F
100
AcDbEntity
  8
0
  6
Continuous
 62
     7
370
    25
100
AcDbLine
 10
-755.7726095183
 20
572.0959560869
 30
0.0
 11
-824.7015500795
 21
572.0959560869
 31
0.0
  0
LINE
  5
BC
330
1F
100
AcDbEntity
  8
0
  6
Continuous
 62
     7
370
    25
100
AcDbLine
 10
-976.8817720923
 20
572.0959560869
 30
0.0
 11
-1038.7726095183
 21
572.0959560869
 31
0.0
  0
LINE
  5
BD
330
1F
100
AcDbEntity
  8
0
  6
Continuous
 62
     7
370
    25
100
AcDbLine
 10
-1062.7726095183
 20
572.0959560869
 30
0.0
 11
-1345.7726095183
 21
572.0959560869
 31
0.0
  0
LINE
  5
BE
330
1F
100
AcDbEntity
  8
0
  6
Continuous
 62
     7
370
    25
100
AcDbLine
 10
-743.7726095183
 20
582.778515507
 30
0.0
 11
-752.7726095183
 21
582.778515507
 31
0.0
  0
ARC
  5
BF
330
1F
100
AcDbEntity
  8
0
  6
Continuous
 62
     7
370
    25
100
AcDbCircle
 10
-752.7726095183
 20
579.778515507
 30
0.0
 40
3.0
100
AcDbArc
 50
90.0
 51
180.0
  0
ARC
  5
C0
330
1F
100
AcDbEntity
  8
0
  6
Continuous
 62
     7
370
    25
100
AcDbCircle
 10
-743.7726095183
 20
579.778515507
 30
0.0
 40
3.0
100
AcDbArc
 50
0.0
 51
90.0
  0
LINE
  5
C1
330
1F
100
AcDbEntity
  8
0
  6
Continuous
 62
     7
370
    25
100
AcDbLine
 10
-1348.7726095183
 20
582.778515507
 30
0.0
 11
-1357.7726095183
 21
582.778515507
 31
0.0
  0
ARC
  5
C2
330
1F
100
AcDbEntity
  8
0
  6
Continuous
 62
     7
370
    25
100
AcDbCircle
 10
-1357.7726095183
 20
579.778515507
 30
0.0
 40
3.000000000000227
100
AcDbArc
 50
90.0
 51
180.0
  0
ARC
  5
C3
330
1F
100
AcDbEntity
  8
0
  6
Continuous
 62
     7
370
    25
100
AcDbCircle
 10
-1348.7726095183
 20
579.778515507
 30
0.0
 40
3.000000000000227
100
AcDbArc
 50
360.0
 51
90.0
  0
ARC
  5
C4
330
1F
100
AcDbEntity
  8
0
  6
Continuous
 62
     7
370
    25
100
AcDbCircle
 10
-1050.7726095183
 20
-13.0591281387
 30
0.0
 40
22.31342324810576
100
AcDbArc
 50
46.7898849511
 51
133.2101150489
  0
LINE
  5
C5
330
1F
100
AcDbEntity
  8
0
  6
Continuous
 62
     7
370
    25
100
AcDbLine
 10
-630.2503601402
 20
-402.3683589993
 30
0.0
 11
-1035.495148872
 21
3.2039605362
 31
0.0
  0
LINE
  5
C6
330
1F
100
AcDbEntity
  8
0
  6
Continuous
 62
     7
370
    25
100
AcDbLine
 10
-1066.0500701646
 20
3.2039605362
 30
0.0
 11
-1467.7866573537
 21
-398.8573220246
 31
0.0
  0
LWPOLYLINE
  5
C7
330
1F
100
AcDbEntity
  8
0
  6
Continuous
 62
     7
370
    25
100
AcDbPolyline
 90
       14
 70
   128
 43
0.0
 10
-1474.7591112035
 20
-418.8297874335
 10
-1474.6120887833
 20
-421.0132918385
 10
-1474.1978472301
 20
-423.3229636414
 10
-1473.5306831716
 20
-425.5883045523
 10
-1472.6162410925
 20
-427.7910579157
 10
-1471.4617983776
 20
-429.9132670458
 10
-1470.076444484
 20
-431.9372441095
 10
-1468.4712701515
 20
-433.8456771313
 10
-1466.6594847215
 20
-435.6218606075
 10
-1464.6564112436
 20
-437.2499978007
 10
-1462.4793529445
 20
-438.7155093158
 10
-1460.1473611385
 20
-440.0052940952
 10
-1457.6809512695
 20
-441.1079149942
 10
-1455.4912821587
 20
-441.8918994294
  0
LINE
  5
C8
330
1F
100
AcDbEntity
  8
0
  6
Continuous
 62
     7
370
    25
100
AcDbLine
 10
-1474.7707946101
 20
-414.9863366735
 30
0.0
 11
-1474.7707946101
 21
-418.4277952916
 31
0.0
  0
LWPOLYLINE
  5
C9
330
1F
100
AcDbEntity
  8
0
  6
Continuous
 62
     7
370
    25
100
AcDbPolyline
 90
       13
 70
   128
 43
0.0
 10
-638.7998847765
 20
-443.952275611
 10
-637.4811772515
 20
-443.3089578172
 10
-635.1636971254
 20
-441.9816339577
 10
-633.0020551688
 20
-440.4760208286
 10
-631.0176149591
 20
-438.8059197733
 10
-629.2286759535
 20
-436.9861442688
 10
-627.6517474598
 20
-435.0332681983
 10
-626.3012055833
 20
-432.965445308
 10
-625.1889821844
 20
-430.8021049686
 10
-624.3243532208
 20
-428.5635402756
 10
-623.713880843
 20
-426.2704428511
 10
-623.3615258969
 20
-423.9434670875
 10
-623.3069786565
 20
-422.5651901931
  0
LINE
  5
CA
330
1F
100
AcDbEntity
  8
0
  6
Continuous
 62
     7
370
    25
100
AcDbLine
 10
-623.2662228838
 20
-421.9388322663
 30
0.0
 11
-623.2662228838
 21
-418.4973736482
 31
0.0
  0
ARC
  5
CB
330
1F
100
AcDbEntity
  8
0
  6
Continuous
 62
     7
370
    25
100
AcDbCircle
 10
-1452.0667990486
 20
-415.2054156786
 30
0.0
 40
22.67981726672084
100
AcDbArc
 50
133.8776760617
 51
177.7735750024
  0
ARC
  5
CC
330
1F
100
AcDbEntity
  8
0
  6
Continuous
 62
     7
370
    25
100
AcDbCircle
 10
-645.8733566003
 20
-418.6566921522
 30
0.0
 40
22.56962151412125
100
AcDbArc
 50
358.5737652799
 51
46.1944178628
  0
ARC
  5
CD
330
1F
100
AcDbEntity
  8
0
  6
Continuous
 62
     7
370
    25
100
AcDbCircle
 10
-901.2053436323
 20
-457.1445145835
 30
0.0
 40
36.74131548100356
100
AcDbArc
 50
72.4547643694
 51
98.8723090807
  0
LINE
  5
CE
330
1F
100
AcDbEntity
  8
0
  6
Continuous
 62
     7
370
    25
100
AcDbLine
 10
-1312.4899842731
 20
-483.6245248018
 30
0.0
 11
-906.8720628831
 21
-420.8428265208
 31
0.0
  0
LINE
  5
CF
330
1F
100
AcDbEntity
  8
0
  6
Continuous
 62
     7
370
    25
100
AcDbLine
 10
-890.1293553335
 20
-422.1124329086
 30
0.0
 11
-726.7977138098
 21
-474.2763185338
 31
0.0
  0
LINE
  5
D0
330
1F
100
AcDbEntity
  8
0
  6
Continuous
 62
     7
370
    25
100
AcDbLine
 10
-1455.4912821587
 20
-441.8918994294
 30
0.0
 11
-1328.682347475
 21
-482.391380751
 31
0.0
  0
LINE
  5
D1
330
1F
100
AcDbEntity
  8
0
  6
Continuous
 62
     7
370
    25
100
AcDbLine
 10
-701.6108881539
 20
-472.8256577407
 30
0.0
 11
-638.7998847765
 21
-443.952275611
 31
0.0
  0
ARC
  5
D2
330
1F
100
AcDbEntity
  8
0
  6
Continuous
 62
     7
370
    25
100
AcDbCircle
 10
-716.0961607922
 20
-440.7039273814
 30
0.0
 40
35.23675190312886
100
AcDbArc
 50
252.3197716229
 51
294.2729619624
  0
ARC
  5
D3
330
1F
100
AcDbEntity
  8
0
  6
Continuous
 62
     7
370
    25
100
AcDbCircle
 10
-1317.9541867401
 20
-448.4475443245
 30
0.0
 40
35.59884076907005
100
AcDbArc
 50
252.4605350007
 51
278.8294538617
  0
ARC
  5
D4
330
1F
100
AcDbEntity
  8
0
  6
Continuous
 62
     7
370
    25
100
AcDbCircle
 10
-1050.7726095183
 20
50.3334879039
 30
0.0
 40
22.31342324810591
100
AcDbArc
 50
226.7898849511
 51
313.2101150489
  0
LINE
  5
D5
330
1F
100
AcDbEntity
  8
0
  6
Continuous
 62
     7
370
    25
100
AcDbLine
 10
-1035.495148872
 20
34.070399229
 30
0.0
 11
-633.7585616829
 21
436.1316817898
 31
0.0
  0
LINE
  5
D6
330
1F
100
AcDbEntity
  8
0
  6
Continuous
 62
     7
370
    25
100
AcDbLine
 10
-1471.2948588964
 20
439.6427187645
 30
0.0
 11
-1066.0500701646
 21
34.070399229
 31
0.0
  0
LWPOLYLINE
  5
D7
330
1F
100
AcDbEntity
  8
0
  6
Continuous
 62
     7
370
    25
100
AcDbPolyline
 90
       14
 70
   128
 43
0.0
 10
-626.7861078331
 20
456.1041471987
 10
-626.9331302533
 20
458.2876516037
 10
-627.3473718065
 20
460.5973234066
 10
-628.014535865
 20
462.8626643175
 10
-628.928977944
 20
465.0654176809
 10
-630.083420659
 20
467.187626811
 10
-631.4687745526
 20
469.2116038747
 10
-633.0739488851
 20
471.1200368965
 10
-634.8857343151
 20
472.8962203727
 10
-636.888807793
 20
474.5243575659
 10
-639.0658660921
 20
475.989869081
 10
-641.3978578981
 20
477.2796538604
 10
-643.8642677671
 20
478.3822747594
 10
-646.0539368779
 20
479.1662591946
  0
LINE
  5
D8
330
1F
100
AcDbEntity
  8
0
  6
Continuous
 62
     7
370
    25
100
AcDbLine
 10
-626.7744244265
 20
452.2606964387
 30
0.0
 11
-626.7744244265
 21
455.7021550568
 31
0.0
  0
LWPOLYLINE
  5
D9
330
1F
100
AcDbEntity
  8
0
  6
Continuous
 62
     7
370
    25
100
AcDbPolyline
 90
       13
 70
   128
 43
0.0
 10
-1462.7453342601
 20
481.2266353762
 10
-1464.064041785
 20
480.5833175824
 10
-1466.3815219112
 20
479.2559937229
 10
-1468.5431638678
 20
477.7503805938
 10
-1470.5276040775
 20
476.0802795385
 10
-1472.3165430831
 20
474.260504034
 10
-1473.8934715768
 20
472.3076279635
 10
-1475.2440134533
 20
470.2398050732
 10
-1476.3562368522
 20
468.0764647338
 10
-1477.2208658158
 20
465.8379000408
 10
-1477.8313381936
 20
463.5448026163
 10
-1478.1836931397
 20
461.2178268527
 10
-1478.2382403801
 20
459.8395499583
  0
LINE
  5
DA
330
1F
100
AcDbEntity
  8
0
  6
Continuous
 62
     7
370
    25
100
AcDbLine
 10
-1478.2789961528
 20
459.2131920315
 30
0.0
 11
-1478.2789961528
 21
455.7717334134
 31
0.0
  0
ARC
  5
DB
330
1F
100
AcDbEntity
  8
0
  6
Continuous
 62
     7
370
    25
100
AcDbCircle
 10
-649.478419988
 20
452.4797754438
 30
0.0
 40
22.67981726672416
100
AcDbArc
 50
313.8776760617
 51
357.7735750024
  0
ARC
  5
DC
330
1F
100
AcDbEntity
  8
0
  6
Continuous
 62
     7
370
    25
100
AcDbCircle
 10
-1455.6718624363
 20
455.9310519174
 30
0.0
 40
22.56962151411706
100
AcDbArc
 50
178.5737652799
 51
226.1944178628
  0
ARC
  5
DD
330
1F
100
AcDbEntity
  8
0
  6
Continuous
 62
     7
370
    25
100
AcDbCircle
 10
-1200.3398754043
 20
494.4188743487
 30
0.0
 40
36.74131548100131
100
AcDbArc
 50
252.4547643694
 51
278.8723090807
  0
LINE
  5
DE
330
1F
100
AcDbEntity
  8
0
  6
Continuous
 62
     7
370
    25
100
AcDbLine
 10
-789.0552347635
 20
520.898884567
 30
0.0
 11
-1194.6731561535
 21
458.117186286
 31
0.0
  0
LINE
  5
DF
330
1F
100
AcDbEntity
  8
0
  6
Continuous
 62
     7
370
    25
100
AcDbLine
 10
-1211.4158637031
 20
459.3867926738
 30
0.0
 11
-1374.7475052268
 21
511.550678299
 31
0.0
  0
LINE
  5
E0
330
1F
100
AcDbEntity
  8
0
  6
Continuous
 62
     7
370
    25
100
AcDbLine
 10
-646.0539368779
 20
479.1662591946
 30
0.0
 11
-772.8628715616
 21
519.6657405162
 31
0.0
  0
LINE
  5
E1
330
1F
100
AcDbEntity
  8
0
  6
Continuous
 62
     7
370
    25
100
AcDbLine
 10
-1399.9343308827
 20
510.1000175059
 30
0.0
 11
-1462.7453342601
 21
481.2266353762
 31
0.0
  0
ARC
  5
E2
330
1F
100
AcDbEntity
  8
0
  6
Continuous
 62
     7
370
    25
100
AcDbCircle
 10
-1385.4490582444
 20
477.9782871466
 30
0.0
 40
35.2367519031346
100
AcDbArc
 50
72.3197716229
 51
114.2729619624
  0
ARC
  5
E3
330
1F
100
AcDbEntity
  8
0
  6
Continuous
 62
     7
370
    25
100
AcDbCircle
 10
-783.5910322964
 20
485.7219040897
 30
0.0
 40
35.59884076907078
100
AcDbArc
 50
72.4605350007
 51
98.8294538617
  0
ARC
  5
E4
330
1F
100
AcDbEntity
  8
0
  6
Continuous
 62
     7
370
    25
100
AcDbCircle
 10
-1082.4689175396
 20
18.6371798826
 30
0.0
 40
22.31342324810593
100
AcDbArc
 50
316.7898849511
 51
43.2101150489
  0
LINE
  5
E5
330
1F
100
AcDbEntity
  8
0
  6
Continuous
 62
     7
370
    25
100
AcDbLine
 10
-1066.2058288647
 20
33.9146405289
 30
0.0
 11
-1468.2671114255
 21
435.651227718
 31
0.0
  0
LINE
  5
E6
330
1F
100
AcDbEntity
  8
0
  6
Continuous
 62
     7
370
    25
100
AcDbLine
 10
-1471.7781484002
 20
-401.8850694955
 30
0.0
 11
-1066.2058288647
 21
3.3597192363
 31
0.0
  0
LWPOLYLINE
  5
E7
330
1F
100
AcDbEntity
  8
0
  6
Continuous
 62
     7
370
    25
100
AcDbPolyline
 90
       14
 70
   128
 43
0.0
 10
-1488.2395768344
 20
442.6236815678
 10
-1490.4230812393
 20
442.4766591476
 10
-1492.7327530423
 20
442.0624175944
 10
-1494.9980939532
 20
441.3952535359
 10
-1497.2008473166
 20
440.4808114569
 10
-1499.3230564467
 20
439.3263687419
 10
-1501.3470335104
 20
437.9410148483
 10
-1503.2554665322
 20
436.3358405158
 10
-1505.0316500084
 20
434.5240550858
 10
-1506.6597872016
 20
432.5209816079
 10
-1508.1252987167
 20
430.3439233088
 10
-1509.4150834961
 20
428.0119315028
 10
-1510.5177043951
 20
425.5455216338
 10
-1511.3016888303
 20
423.355852523
  0
LINE
  5
E8
330
1F
100
AcDbEntity
  8
0
  6
Continuous
 62
     7
370
    25
100
AcDbLine
 10
-1484.3961260743
 20
442.6353649744
 30
0.0
 11
-1487.8375846925
 21
442.6353649744
 31
0.0
  0
LWPOLYLINE
  5
E9
330
1F
100
AcDbEntity
  8
0
  6
Continuous
 62
     7
370
    25
100
AcDbPolyline
 90
       13
 70
   128
 43
0.0
 10
-1513.3620650119
 20
-393.3355448592
 10
-1512.7187472181
 20
-394.6542523842
 10
-1511.3914233586
 20
-396.9717325103
 10
-1509.8858102295
 20
-399.1333744669
 10
-1508.2157091742
 20
-401.1178146766
 10
-1506.3959336697
 20
-402.9067536822
 10
-1504.4430575992
 20
-404.4836821759
 10
-1502.3752347089
 20
-405.8342240524
 10
-1500.2118943695
 20
-406.9464474513
 10
-1497.9733296765
 20
-407.8110764149
 10
-1495.680232252
 20
-408.4215487927
 10
-1493.3532564884
 20
-408.7739037388
 10
-1491.974979594
 20
-408.8284509792
  0
LINE
  5
EA
330
1F
100
AcDbEntity
  8
0
  6
Continuous
 62
     7
370
    25
100
AcDbLine
 10
-1491.3486216672
 20
-408.8692067519
 30
0.0
 11
-1487.9071630491
 21
-408.8692067519
 31
0.0
  0
ARC
  5
EB
330
1F
100
AcDbEntity
  8
0
  6
Continuous
 62
     7
370
    25
100
AcDbCircle
 10
-1484.6152050795
 20
419.9313694129
 30
0.0
 40
22.67981726672556
100
AcDbArc
 50
43.8776760617
 51
87.7735750024
  0
ARC
  5
EC
330
1F
100
AcDbEntity
  8
0
  6
Continuous
 62
     7
370
    25
100
AcDbCircle
 10
-1488.0664815531
 20
-386.2620730354
 30
0.0
 40
22.56962151412133
100
AcDbArc
 50
268.5737652799
 51
316.1944178628
  0
ARC
  5
ED
330
1F
100
AcDbEntity
  8
0
  6
Continuous
 62
     7
370
    25
100
AcDbCircle
 10
-1526.5543039844
 20
-130.9300860034
 30
0.0
 40
36.74131548100497
100
AcDbArc
 50
342.4547643694
 51
8.8723090807
  0
LINE
  5
EE
330
1F
100
AcDbEntity
  8
0
  6
Continuous
 62
     7
370
    25
100
AcDbLine
 10
-1553.0343142027
 20
280.3545546374
 30
0.0
 11
-1490.2526159217
 21
-125.2633667526
 31
0.0
  0
LINE
  5
EF
330
1F
100
AcDbEntity
  8
0
  6
Continuous
 62
     7
370
    25
100
AcDbLine
 10
-1491.5222223095
 20
-142.0060743022
 30
0.0
 11
-1543.6861079347
 21
-305.3377158259
 31
0.0
  0
LINE
  5
F0
330
1F
100
AcDbEntity
  8
0
  6
Continuous
 62
     7
370
    25
100
AcDbLine
 10
-1511.3016888303
 20
423.355852523
 30
0.0
 11
-1551.8011701519
 21
296.5469178393
 31
0.0
  0
LINE
  5
F1
330
1F
100
AcDbEntity
  8
0
  6
Continuous
 62
     7
370
    25
100
AcDbLine
 10
-1542.2354471416
 20
-330.5245414818
 30
0.0
 11
-1513.3620650119
 21
-393.3355448592
 31
0.0
  0
ARC
  5
F2
330
1F
100
AcDbEntity
  8
0
  6
Continuous
 62
     7
370
    25
100
AcDbCircle
 10
-1510.1137167823
 20
-316.0392688435
 30
0.0
 40
35.23675190313018
100
AcDbArc
 50
162.3197716229
 51
204.2729619624
  0
ARC
  5
F3
330
1F
100
AcDbEntity
  8
0
  6
Continuous
 62
     7
370
    25
100
AcDbCircle
 10
-1517.8573337254
 20
285.8187571045
 30
0.0
 40
35.59884076905386
100
AcDbArc
 50
162.4605350007
 51
188.8294538617
  0
ARC
  5
F4
330
1F
100
AcDbEntity
  8
0
  6
Continuous
 62
     7
370
    25
100
AcDbCircle
 10
-1019.076301497
 20
18.6371798826
 30
0.0
 40
22.31342324810562
100
AcDbArc
 50
136.7898849511
 51
223.2101150489
  0
LINE
  5
F5
330
1F
100
AcDbEntity
  8
0
  6
Continuous
 62
     7
370
    25
100
AcDbLine
 10
-629.7670706364
 20
439.1594292607
 30
0.0
 11
-1035.3393901719
 21
33.9146405289
 31
0.0
  0
LINE
  5
F6
330
1F
100
AcDbEntity
  8
0
  6
Continuous
 62
     7
370
    25
100
AcDbLine
 10
-1035.3393901719
 20
3.3597192363
 30
0.0
 11
-633.2781076111
 21
-398.3768679528
 31
0.0
  0
LWPOLYLINE
  5
F7
330
1F
100
AcDbEntity
  8
0
  6
Continuous
 62
     7
370
    25
100
AcDbPolyline
 90
       14
 70
   128
 43
0.0
 10
-613.3056422022
 20
-405.3493218026
 10
-611.1221377972
 20
-405.2022993824
 10
-608.8124659943
 20
-404.7880578292
 10
-606.5471250834
 20
-404.1208937707
 10
-604.34437172
 20
-403.2064516917
 10
-602.2221625899
 20
-402.0520089767
 10
-600.1981855262
 20
-400.6666550831
 10
-598.2897525044
 20
-399.0614807506
 10
-596.5135690282
 20
-397.2496953206
 10
-594.885431835
 20
-395.2466218427
 10
-593.4199203199
 20
-393.0695635436
 10
-592.1301355405
 20
-390.7375717376
 10
-591.0275146415
 20
-388.2711618686
 10
-590.2435302063
 20
-386.0814927578
  0
LINE
  5
F8
330
1F
100
AcDbEntity
  8
0
  6
Continuous
 62
     7
370
    25
100
AcDbLine
 10
-617.1490929622
 20
-405.3610052092
 30
0.0
 11
-613.7076343441
 21
-405.3610052092
 31
0.0
  0
LWPOLYLINE
  5
F9
330
1F
100
AcDbEntity
  8
0
  6
Continuous
 62
     7
370
    25
100
AcDbPolyline
 90
       13
 70
   128
 43
0.0
 10
-588.1831540247
 20
430.6099046244
 10
-588.8264718185
 20
431.9286121494
 10
-590.153795678
 20
434.2460922755
 10
-591.6594088071
 20
436.4077342321
 10
-593.3295098624
 20
438.3921744418
 10
-595.1492853669
 20
440.1811134474
 10
-597.1021614374
 20
441.7580419411
 10
-599.1699843277
 20
443.1085838176
 10
-601.3333246671
 20
444.2208072165
 10
-603.5718893601
 20
445.0854361801
 10
-605.8649867846
 20
445.6959085579
 10
-608.1919625482
 20
446.048263504
 10
-609.5702394426
 20
446.1028107444
  0
LINE
  5
FA
330
1F
100
AcDbEntity
  8
0
  6
Continuous
 62
     7
370
    25
100
AcDbLine
 10
-610.1965973694
 20
446.1435665171
 30
0.0
 11
-613.6380559875
 21
446.1435665171
 31
0.0
  0
ARC
  5
FB
330
1F
100
AcDbEntity
  8
0
  6
Continuous
 62
     7
370
    25
100
AcDbCircle
 10
-616.9300139571
 20
-382.6570096477
 30
0.0
 40
22.67981726672414
100
AcDbArc
 50
223.8776760617
 51
267.7735750024
  0
ARC
  5
FC
330
1F
100
AcDbEntity
  8
0
  6
Continuous
 62
     7
370
    25
100
AcDbCircle
 10
-613.4787374835
 20
423.5364328006
 30
0.0
 40
22.56962151411965
100
AcDbArc
 50
88.5737652799
 51
136.1944178628
  0
ARC
  5
FD
330
1F
100
AcDbEntity
  8
0
  6
Continuous
 62
     7
370
    25
100
AcDbCircle
 10
-574.9909150521
 20
168.2044457686
 30
0.0
 40
36.74131548100701
100
AcDbArc
 50
162.4547643694
 51
188.8723090807
  0
LINE
  5
FE
330
1F
100
AcDbEntity
  8
0
  6
Continuous
 62
     7
370
    25
100
AcDbLine
 10
-548.5109048339
 20
-243.0801948722
 30
0.0
 11
-611.2926031149
 21
162.5377265178
 31
0.0
  0
LINE
  5
FF
330
1F
100
AcDbEntity
  8
0
  6
Continuous
 62
     7
370
    25
100
AcDbLine
 10
-610.0229967271
 20
179.2804340674
 30
0.0
 11
-557.8591111018
 21
342.6120755911
 31
0.0
  0
LINE
  5
100
330
1F
100
AcDbEntity
  8
0
  6
Continuous
 62
     7
370
    25
100
AcDbLine
 10
-590.2435302063
 20
-386.0814927578
 30
0.0
 11
-549.7440488847
 21
-259.2725580741
 31
0.0
  0
LINE
  5
101
330
1F
100
AcDbEntity
  8
0
  6
Continuous
 62
     7
370
    25
100
AcDbLine
 10
-559.309771895
 20
367.798901247
 30
0.0
 11
-588.1831540247
 21
430.6099046244
 31
0.0
  0
ARC
  5
102
330
1F
100
AcDbEntity
  8
0
  6
Continuous
 62
     7
370
    25
100
AcDbCircle
 10
-591.4315022543
 20
353.3136286087
 30
0.0
 40
35.23675190313038
100
AcDbArc
 50
342.3197716229
 51
24.2729619624
  0
ARC
  5
103
330
1F
100
AcDbEntity
  8
0
  6
Continuous
 62
     7
370
    25
100
AcDbCircle
 10
-583.6878853112
 20
-248.5443973392
 30
0.0
 40
35.59884076908045
100
AcDbArc
 50
342.4605350007
 51
8.8294538617
  0
ARC
  5
104
330
1F
100
AcDbEntity
  8
0
  6
Continuous
 62
     7
370
    25
100
AcDbCircle
 10
1337.7023765427
 20
-229.3628201174
 30
0.0
 40
3.0
100
AcDbArc
 50
0.0
 51
90.0
  0
LINE
  5
105
330
1F
100
AcDbEntity
  8
0
  6
Continuous
 62
     7
370
    25
100
AcDbLine
 10
1340.7023765427
 20
-238.3628201174
 30
0.0
 11
1340.7023765427
 21
-229.3628201174
 31
0.0
  0
ARC
  5
106
330
1F
100
AcDbEntity
  8
0
  6
Continuous
 62
     7
370
    25
100
AcDbCircle
 10
1337.7023765427
 20
-238.3628201174
 30
0.0
 40
3.0
100
AcDbArc
 50
270.0
 51
0.0
  0
LINE
  5
107
330
1F
100
AcDbEntity
  8
0
  6
Continuous
 62
     7
370
    25
100
AcDbLine
 10
1210.6092925754
 20
291.1371798826
 30
0.0
 11
1210.4253260732
 21
290.9494733058
 31
0.0
  0
ARC
  5
108
330
1F
100
AcDbEntity
  8
0
  6
Continuous
 62
     7
370
    25
100
AcDbCircle
 10
1220.5632399438
 20
279.6371798826
 30
0.0
 40
16.29605263157875
100
AcDbArc
 50
0.0
 51
44.8855067306
  0
LINE
  5
109
330
1F
100
AcDbEntity
  8
0
  6
Continuous
 62
     7
370
    25
100
AcDbLine
 10
1236.8592925754
 20
278.6371798826
 30
0.0
 11
1236.8592925754
 21
279.6371798826
 31
0.0
  0
ARC
  5
10A
330
1F
100
AcDbEntity
  8
0
  6
Continuous
 62
     7
370
    25
100
AcDbCircle
 10
-1437.8025825735
 20
-321.4692510707
 30
0.0
 40
15.60651852115866
100
AcDbArc
 50
89.8080637256
 51
168.1366907605
  0
ARC
  5
10B
330
1F
100
AcDbEntity
  8
0
  6
Continuous
 62
     7
370
    25
100
AcDbCircle
 10
-1437.9202848481
 20
-321.4065903444
 30
0.0
 40
15.42510558932058
100
AcDbArc
 50
194.4473388951
 51
270.6102658661
  0
LINE
  5
10C
330
1F
100
AcDbEntity
  8
0
  6
Continuous
 62
     7
370
    25
100
AcDbLine
 10
-1437.1767256473
 20
-305.8628201174
 30
0.0
 11
-1437.7503020836
 21
-305.8628201174
 31
0.0
  0
LINE
  5
10D
330
1F
100
AcDbEntity
  8
0
  6
Continuous
 62
     7
370
    25
100
AcDbLine
 10
-1437.7503020836
 20
-336.8628201174
 30
0.0
 11
-1437.1767256473
 21
-336.8628201174
 31
0.0
  0
ARC
  5
10E
330
1F
100
AcDbEntity
  8
0
  6
Continuous
 62
     7
370
    25
100
AcDbCircle
 10
-1437.8025825735
 20
358.5307489293
 30
0.0
 40
15.6065185211589
100
AcDbArc
 50
89.8080637256
 51
168.1366907605
  0
ARC
  5
10F
330
1F
100
AcDbEntity
  8
0
  6
Continuous
 62
     7
370
    25
100
AcDbCircle
 10
-1437.9202848481
 20
358.5934096556
 30
0.0
 40
15.42510558932038
100
AcDbArc
 50
194.4473388951
 51
270.6102658661
  0
LINE
  5
110
330
1F
100
AcDbEntity
  8
0
  6
Continuous
 62
     7
370
    25
100
AcDbLine
 10
-1437.1767256473
 20
374.1371798826
 30
0.0
 11
-1437.7503020836
 21
374.1371798826
 31
0.0
  0
LINE
  5
111
330
1F
100
AcDbEntity
  8
0
  6
Continuous
 62
     7
370
    25
100
AcDbLine
 10
-1437.7503020836
 20
343.1371798826
 30
0.0
 11
-1437.1767256473
 21
343.1371798826
 31
0.0
  0
ARC
  5
112
330
1F
100
AcDbEntity
  8
0
  6
Continuous
 62
     7
370
    25
100
AcDbCircle
 10
-663.6380681412
 20
-321.366649222
 30
0.0
 40
15.4650259347411
100
AcDbArc
 50
269.3978022413
 51
353.1407980444
  0
ARC
  5
113
330
1F
100
AcDbEntity
  8
0
  6
Continuous
 62
     7
370
    25
100
AcDbCircle
 10
-663.7203249741
 20
-321.4134764052
 30
0.0
 40
15.55083518475969
100
AcDbArc
 50
12.0884483182
 51
90.274829095
  0
LINE
  5
114
330
1F
100
AcDbEntity
  8
0
  6
Continuous
 62
     7
370
    25
100
AcDbLine
 10
-664.3684933893
 20
-336.8628201174
 30
0.0
 11
-663.794916953
 21
-336.8628201174
 31
0.0
  0
LINE
  5
115
330
1F
100
AcDbEntity
  8
0
  6
Continuous
 62
     7
370
    25
100
AcDbLine
 10
-663.794916953
 20
-305.8628201174
 30
0.0
 11
-664.3684933893
 21
-305.8628201174
 31
0.0
  0
ARC
  5
116
330
1F
100
AcDbEntity
  8
0
  6
Continuous
 62
     7
370
    25
100
AcDbCircle
 10
-710.7671709608
 20
-368.4645620018
 30
0.0
 40
15.48942534586149
100
AcDbArc
 50
179.639633764
 51
260.3442022829
  0
ARC
  5
117
330
1F
100
AcDbEntity
  8
0
  6
Continuous
 62
     7
370
    25
100
AcDbCircle
 10
-710.8328909158
 20
-368.4589232876
 30
0.0
 40
15.53147028376874
100
AcDbArc
 50
279.6875207511
 51
0.3748710721
  0
LINE
  5
118
330
1F
100
AcDbEntity
  8
0
  6
Continuous
 62
     7
370
    25
100
AcDbLine
 10
-726.2726095183
 20
-367.7669362464
 30
0.0
 11
-726.2726095183
 21
-368.3405126827
 31
0.0
  0
LINE
  5
119
330
1F
100
AcDbEntity
  8
0
  6
Continuous
 62
     7
370
    25
100
AcDbLine
 10
-695.2726095183
 20
-368.3405126827
 30
0.0
 11
-695.2726095183
 21
-367.7669362464
 31
0.0
  0
ARC
  5
11A
330
1F
100
AcDbEntity
  8
0
  6
Continuous
 62
     7
370
    25
100
AcDbCircle
 10
-1390.7188823504
 20
405.784710719
 30
0.0
 40
15.41825887560513
100
AcDbArc
 50
359.3064425824
 51
70.4501542845
  0
ARC
  5
11B
330
1F
100
AcDbEntity
  8
0
  6
Continuous
 62
     7
370
    25
100
AcDbCircle
 10
-1390.7755504189
 20
405.7376110304
 30
0.0
 40
15.48146008572768
100
AcDbArc
 50
109.9050945509
 51
180.5528037288
  0
LINE
  5
11C
330
1F
100
AcDbEntity
  8
0
  6
Continuous
 62
     7
370
    25
100
AcDbLine
 10
-1375.2726095183
 20
405.0412960116
 30
0.0
 11
-1375.2726095183
 21
405.6148724479
 31
0.0
  0
LINE
  5
11D
330
1F
100
AcDbEntity
  8
0
  6
Continuous
 62
     7
370
    25
100
AcDbLine
 10
-1406.2726095183
 20
405.6148724479
 30
0.0
 11
-1406.2726095183
 21
405.0412960116
 31
0.0
  0
ARC
  5
11E
330
1F
100
AcDbEntity
  8
0
  6
Continuous
 62
     7
370
    25
100
AcDbCircle
 10
1220.5632399438
 20
-242.3628201174
 30
0.0
 40
16.29605263157877
100
AcDbArc
 50
315.1144932694
 51
0.0
  0
LINE
  5
11F
330
1F
100
AcDbEntity
  8
0
  6
Continuous
 62
     7
370
    25
100
AcDbLine
 10
1210.4253260735
 20
-253.6751135409
 30
0.0
 11
1210.6092925754
 21
-253.8628201174
 31
0.0
  0
LINE
  5
120
330
1F
100
AcDbEntity
  8
0
  6
Continuous
 62
     7
370
    25
100
AcDbLine
 10
1236.8592925754
 20
-242.3628201174
 30
0.0
 11
1236.8592925754
 21
-241.3628201174
 31
0.0
  0
ARC
  5
121
330
1F
100
AcDbEntity
  8
0
  6
Continuous
 62
     7
370
    25
100
AcDbCircle
 10
-663.6335166974
 20
358.6241821286
 30
0.0
 40
15.45590632682372
100
AcDbArc
 50
269.3805735294
 51
353.5805534178
  0
ARC
  5
122
330
1F
100
AcDbEntity
  8
0
  6
Continuous
 62
     7
370
    25
100
AcDbCircle
 10
-663.7203249741
 20
358.5865235948
 30
0.0
 40
15.55083518475974
100
AcDbArc
 50
12.0884483182
 51
90.274829095
  0
LINE
  5
123
330
1F
100
AcDbEntity
  8
0
  6
Continuous
 62
     7
370
    25
100
AcDbLine
 10
-664.3684933893
 20
343.1371798826
 30
0.0
 11
-663.794916953
 21
343.1371798826
 31
0.0
  0
LINE
  5
124
330
1F
100
AcDbEntity
  8
0
  6
Continuous
 62
     7
370
    25
100
AcDbLine
 10
-663.794916953
 20
374.1371798826
 30
0.0
 11
-664.3684933893
 21
374.1371798826
 31
0.0
  0
ARC
  5
125
330
1F
100
AcDbEntity
  8
0
  6
Continuous
 62
     7
370
    25
100
AcDbCircle
 10
-1390.7671709608
 20
-368.4645620018
 30
0.0
 40
15.48942534586209
100
AcDbArc
 50
179.639633764
 51
260.3442022829
  0
ARC
  5
126
330
1F
100
AcDbEntity
  8
0
  6
Continuous
 62
     7
370
    25
100
AcDbCircle
 10
-1390.8328909158
 20
-368.4589232876
 30
0.0
 40
15.53147028376908
100
AcDbArc
 50
279.6875207511
 51
0.3748710721
  0
LINE
  5
127
330
1F
100
AcDbEntity
  8
0
  6
Continuous
 62
     7
370
    25
100
AcDbLine
 10
-1406.2726095183
 20
-367.7669362464
 30
0.0
 11
-1406.2726095183
 21
-368.3405126827
 31
0.0
  0
LINE
  5
128
330
1F
100
AcDbEntity
  8
0
  6
Continuous
 62
     7
370
    25
100
AcDbLine
 10
-1375.2726095183
 20
-368.3405126827
 30
0.0
 11
-1375.2726095183
 21
-367.7669362464
 31
0.0
  0
ARC
  5
129
330
1F
100
AcDbEntity
  8
0
  6
Continuous
 62
     7
370
    25
100
AcDbCircle
 10
-710.7188823504
 20
405.784710719
 30
0.0
 40
15.41825887560473
100
AcDbArc
 50
359.3064425824
 51
70.4501542845
  0
ARC
  5
12A
330
1F
100
AcDbEntity
  8
0
  6
Continuous
 62
     7
370
    25
100
AcDbCircle
 10
-710.7755504189
 20
405.7376110304
 30
0.0
 40
15.48146008572976
100
AcDbArc
 50
109.9050945509
 51
180.5528037288
  0
LINE
  5
12B
330
1F
100
AcDbEntity
  8
0
  6
Continuous
 62
     7
370
    25
100
AcDbLine
 10
-695.2726095183
 20
405.0412960116
 30
0.0
 11
-695.2726095183
 21
405.6148724479
 31
0.0
  0
LINE
  5
12C
330
1F
100
AcDbEntity
  8
0
  6
Continuous
 62
     7
370
    25
100
AcDbLine
 10
-726.2726095183
 20
405.6148724479
 30
0.0
 11
-726.2726095183
 21
405.0412960116
 31
0.0
  0
ARC
  5
12D
330
1F
100
AcDbEntity
  8
0
  6
Continuous
 62
     7
370
    25
100
AcDbCircle
 10
1209.3305797713
 20
-254.4479701363
 30
0.0
 40
0.6000000000001364
100
AcDbArc
 50
290.2750532521
 51
0.0
  0
ARC
  5
12E
330
1F
100
AcDbEntity
  8
0
  6
Continuous
 62
     7
370
    25
100
AcDbCircle
 10
-710.5712450933
 20
409.7800902046
 30
0.0
 40
11.68266827785885
100
AcDbArc
 50
55.6402467174
 51
90.9876085462
  0
ARC
  5
12F
330
1F
100
AcDbEntity
  8
0
  6
Continuous
 62
     7
370
    25
100
AcDbCircle
 10
-710.9172515275
 20
409.5075464084
 30
0.0
 40
11.95435165170245
100
AcDbArc
 50
89.306731211
 51
123.8532787923
  0
LINE
  5
130
330
1F
100
AcDbEntity
  8
0
  6
Continuous
 62
     7
370
    25
100
AcDbLine
 10
-700.0226095183
 20
412.211001466
 30
0.0
 11
-700.0226095183
 21
412.5466297286
 31
0.0
  0
LINE
  5
131
330
1F
100
AcDbEntity
  8
0
  6
Continuous
 62
     7
370
    25
100
AcDbLine
 10
-721.5226095183
 20
412.5466297286
 30
0.0
 11
-721.5226095183
 21
412.211001466
 31
0.0
  0
LINE
  5
132
330
1F
100
AcDbEntity
  8
0
  6
Continuous
 62
     7
370
    25
100
AcDbLine
 10
1210.6092925754
 20
-253.8628201174
 30
0.0
 11
1210.6092925754
 21
-254.4479701363
 31
0.0
  0
LINE
  5
133
330
1F
100
AcDbEntity
  8
0
  6
Continuous
 62
     7
370
    25
100
AcDbLine
 10
1232.1092925754
 20
-254.4479701363
 30
0.0
 11
1232.1092925754
 21
-253.8628201174
 31
0.0
  0
ARC
  5
134
330
1F
100
AcDbEntity
  8
0
  6
Continuous
 62
     7
370
    25
100
AcDbCircle
 10
1211.2092925754
 20
-254.4479701363
 30
0.0
 40
0.5999999999999972
100
AcDbArc
 50
180.0
 51
249.724946748
  0
ARC
  5
135
330
1F
100
AcDbEntity
  8
0
  6
Continuous
 62
     7
370
    25
100
AcDbCircle
 10
1231.5092925754
 20
-254.4479701363
 30
0.0
 40
0.5999999999999972
100
AcDbArc
 50
290.275053252
 51
0.0
  0
ARC
  5
136
330
1F
100
AcDbEntity
  8
0
  6
Continuous
 62
     7
370
    25
100
AcDbCircle
 10
1221.3592925754
 20
-226.9721951174
 30
0.0
 40
29.89062499999995
100
AcDbArc
 50
249.724946748
 51
290.275053252
  0
LINE
  5
137
330
1F
100
AcDbEntity
  8
0
  6
Continuous
 62
     7
370
    25
100
AcDbLine
 10
-1401.5226095183
 20
-374.9366417008
 30
0.0
 11
-1401.5226095183
 21
-375.2722699634
 31
0.0
  0
LINE
  5
138
330
1F
100
AcDbEntity
  8
0
  6
Continuous
 62
     7
370
    25
100
AcDbLine
 10
-1380.0226095183
 20
-375.2722699634
 30
0.0
 11
-1380.0226095183
 21
-374.9366417008
 31
0.0
  0
LINE
  5
139
330
1F
100
AcDbEntity
  8
0
  6
Continuous
 62
     7
370
    25
100
AcDbLine
 10
-721.5226095183
 20
-374.9366417008
 30
0.0
 11
-721.5226095183
 21
-375.2722699634
 31
0.0
  0
LINE
  5
13A
330
1F
100
AcDbEntity
  8
0
  6
Continuous
 62
     7
370
    25
100
AcDbLine
 10
-700.0226095183
 20
-375.2722699634
 30
0.0
 11
-700.0226095183
 21
-374.9366417008
 31
0.0
  0
LINE
  5
13B
330
1F
100
AcDbEntity
  8
0
  6
Continuous
 62
     7
370
    25
100
AcDbLine
 10
-657.1987879349
 20
-332.1128201174
 30
0.0
 11
-656.8631596723
 21
-332.1128201174
 31
0.0
  0
LINE
  5
13C
330
1F
100
AcDbEntity
  8
0
  6
Continuous
 62
     7
370
    25
100
AcDbLine
 10
-656.8631596723
 20
-310.6128201174
 30
0.0
 11
-657.1987879349
 21
-310.6128201174
 31
0.0
  0
LINE
  5
13D
330
1F
100
AcDbEntity
  8
0
  6
Continuous
 62
     7
370
    25
100
AcDbLine
 10
-1444.3464311017
 20
369.3871798826
 30
0.0
 11
-1444.6820593643
 21
369.3871798826
 31
0.0
  0
LINE
  5
13E
330
1F
100
AcDbEntity
  8
0
  6
Continuous
 62
     7
370
    25
100
AcDbLine
 10
-1444.6820593643
 20
347.8871798826
 30
0.0
 11
-1444.3464311017
 21
347.8871798826
 31
0.0
  0
LINE
  5
13F
330
1F
100
AcDbEntity
  8
0
  6
Continuous
 62
     7
370
    25
100
AcDbLine
 10
-1444.3464311017
 20
-310.6128201174
 30
0.0
 11
-1444.6820593643
 21
-310.6128201174
 31
0.0
  0
LINE
  5
140
330
1F
100
AcDbEntity
  8
0
  6
Continuous
 62
     7
370
    25
100
AcDbLine
 10
-1444.6820593643
 20
-332.1128201174
 30
0.0
 11
-1444.3464311017
 21
-332.1128201174
 31
0.0
  0
ARC
  5
141
330
1F
100
AcDbEntity
  8
0
  6
Continuous
 62
     7
370
    25
100
AcDbCircle
 10
1231.5092925754
 20
291.7223299015
 30
0.0
 40
0.5999999999999972
100
AcDbArc
 50
0.0
 51
69.724946748
  0
ARC
  5
142
330
1F
100
AcDbEntity
  8
0
  6
Continuous
 62
     7
370
    25
100
AcDbCircle
 10
1211.2092925754
 20
291.7223299015
 30
0.0
 40
0.5999999999999972
100
AcDbArc
 50
110.275053252
 51
180.0
  0
LINE
  5
143
330
1F
100
AcDbEntity
  8
0
  6
Continuous
 62
     7
370
    25
100
AcDbLine
 10
1232.1092925754
 20
291.1371798826
 30
0.0
 11
1232.1092925754
 21
291.7223299015
 31
0.0
  0
LINE
  5
144
330
1F
100
AcDbEntity
  8
0
  6
Continuous
 62
     7
370
    25
100
AcDbLine
 10
1210.6092925754
 20
291.7223299015
 30
0.0
 11
1210.6092925754
 21
291.1371798826
 31
0.0
  0
ARC
  5
145
330
1F
100
AcDbEntity
  8
0
  6
Continuous
 62
     7
370
    25
100
AcDbCircle
 10
1221.3592925754
 20
264.2465548826
 30
0.0
 40
29.89062499999992
100
AcDbArc
 50
69.724946748
 51
110.275053252
  0
ARC
  5
146
330
1F
100
AcDbEntity
  8
0
  6
Continuous
 62
     7
370
    25
100
AcDbCircle
 10
1209.3305797713
 20
291.7223299015
 30
0.0
 40
0.6000000000001364
100
AcDbArc
 50
0.0
 51
69.7249467479
  0
ARC
  5
147
330
1F
100
AcDbEntity
  8
0
  6
Continuous
 62
     7
370
    25
100
AcDbCircle
 10
-1390.5712450933
 20
409.7800902046
 30
0.0
 40
11.68266827786113
100
AcDbArc
 50
55.6402467174
 51
90.9876085462
  0
ARC
  5
148
330
1F
100
AcDbEntity
  8
0
  6
Continuous
 62
     7
370
    25
100
AcDbCircle
 10
-1390.9172515275
 20
409.5075464084
 30
0.0
 40
11.95435165170339
100
AcDbArc
 50
89.306731211
 51
123.8532787923
  0
LINE
  5
149
330
1F
100
AcDbEntity
  8
0
  6
Continuous
 62
     7
370
    25
100
AcDbLine
 10
-1380.0226095183
 20
412.211001466
 30
0.0
 11
-1380.0226095183
 21
412.5466297286
 31
0.0
  0
LINE
  5
14A
330
1F
100
AcDbEntity
  8
0
  6
Continuous
 62
     7
370
    25
100
AcDbLine
 10
-1401.5226095183
 20
412.5466297286
 30
0.0
 11
-1401.5226095183
 21
412.211001466
 31
0.0
  0
LINE
  5
14B
330
1F
100
AcDbEntity
  8
0
  6
Continuous
 62
     7
370
    25
100
AcDbLine
 10
-657.1987879349
 20
347.8871798826
 30
0.0
 11
-656.8631596723
 21
347.8871798826
 31
0.0
  0
LINE
  5
14C
330
1F
100
AcDbEntity
  8
0
  6
Continuous
 62
     7
370
    25
100
AcDbLine
 10
-656.8631596723
 20
369.3871798826
 30
0.0
 11
-657.1987879349
 21
369.3871798826
 31
0.0
  0
ARC
  5
14D
330
1F
100
AcDbEntity
  8
0
  6
Continuous
 62
     7
370
    25
100
AcDbCircle
 10
-369.0037773748
 20
-243.3628201174
 30
0.0
 40
19.87230769230774
100
AcDbArc
 50
180.0
 51
226.9233678463
  0
ARC
  5
14E
330
1F
100
AcDbEntity
  8
0
  6
Continuous
 62
     7
370
    25
100
AcDbCircle
 10
-368.7483927594
 20
-243.3628201174
 30
0.0
 40
19.87230769230774
100
AcDbArc
 50
313.0766321537
 51
0.0
  0
LINE
  5
14F
330
1F
100
AcDbEntity
  8
0
  6
Continuous
 62
     7
370
    25
100
AcDbLine
 10
-388.8760850671
 20
-241.3628201174
 30
0.0
 11
-388.8760850671
 21
-243.3628201174
 31
0.0
  0
LINE
  5
150
330
1F
100
AcDbEntity
  8
0
  6
Continuous
 62
     7
370
    25
100
AcDbLine
 10
-348.8760850671
 20
-243.3628201174
 30
0.0
 11
-348.8760850671
 21
-241.3628201174
 31
0.0
  0
ARC
  5
151
330
1F
100
AcDbEntity
  8
0
  6
Continuous
 62
     7
370
    25
100
AcDbCircle
 10
-368.7483927594
 20
280.6371798826
 30
0.0
 40
19.87230769230774
100
AcDbArc
 50
0.0
 51
46.9233678463
  0
ARC
  5
152
330
1F
100
AcDbEntity
  8
0
  6
Continuous
 62
     7
370
    25
100
AcDbCircle
 10
-369.0037773748
 20
280.6371798826
 30
0.0
 40
19.87230769230774
100
AcDbArc
 50
133.0766321537
 51
180.0
  0
LINE
  5
153
330
1F
100
AcDbEntity
  8
0
  6
Continuous
 62
     7
370
    25
100
AcDbLine
 10
-348.8760850671
 20
278.6371798826
 30
0.0
 11
-348.8760850671
 21
280.6371798826
 31
0.0
  0
LINE
  5
154
330
1F
100
AcDbEntity
  8
0
  6
Continuous
 62
     7
370
    25
100
AcDbLine
 10
-388.8760850671
 20
280.6371798826
 30
0.0
 11
-388.8760850671
 21
278.6371798826
 31
0.0
  0
ARC
  5
155
330
1F
100
AcDbEntity
  8
0
  6
Continuous
 62
     7
370
    25
100
AcDbCircle
 10
505.6873494267
 20
-243.3628201174
 30
0.0
 40
19.87230769230774
100
AcDbArc
 50
180.0
 51
226.9233678463
  0
ARC
  5
156
330
1F
100
AcDbEntity
  8
0
  6
Continuous
 62
     7
370
    25
100
AcDbCircle
 10
505.9427340421
 20
-243.3628201174
 30
0.0
 40
19.87230769230769
100
AcDbArc
 50
313.0766321537
 51
0.0
  0
LINE
  5
157
330
1F
100
AcDbEntity
  8
0
  6
Continuous
 62
     7
370
    25
100
AcDbLine
 10
485.8150417344
 20
-241.3628201174
 30
0.0
 11
485.8150417344
 21
-243.3628201174
 31
0.0
  0
LINE
  5
158
330
1F
100
AcDbEntity
  8
0
  6
Continuous
 62
     7
370
    25
100
AcDbLine
 10
525.8150417344
 20
-243.3628201174
 30
0.0
 11
525.8150417344
 21
-241.3628201174
 31
0.0
  0
ARC
  5
159
330
1F
100
AcDbEntity
  8
0
  6
Continuous
 62
     7
370
    25
100
AcDbCircle
 10
1193.4381186108
 20
280.6371798826
 30
0.0
 40
19.87230769230766
100
AcDbArc
 50
0.0
 51
46.9233678463
  0
ARC
  5
15A
330
1F
100
AcDbEntity
  8
0
  6
Continuous
 62
     7
370
    25
100
AcDbCircle
 10
1193.1827339954
 20
280.6371798826
 30
0.0
 40
19.87230769230766
100
AcDbArc
 50
133.0766321537
 51
180.0
  0
LINE
  5
15B
330
1F
100
AcDbEntity
  8
0
  6
Continuous
 62
     7
370
    25
100
AcDbLine
 10
1213.3104263031
 20
278.6371798826
 30
0.0
 11
1213.3104263031
 21
280.6371798826
 31
0.0
  0
LINE
  5
15C
330
1F
100
AcDbEntity
  8
0
  6
Continuous
 62
     7
370
    25
100
AcDbLine
 10
1173.3104263031
 20
280.6371798826
 30
0.0
 11
1173.3104263031
 21
278.6371798826
 31
0.0
  0
LINE
  5
15D
330
1F
100
AcDbEntity
  8
0
  6
Continuous
 62
     7
370
    25
100
AcDbLine
 10
774.1108668673
 20
-241.3628201174
 30
0.0
 11
774.1108668673
 21
-243.3628201174
 31
0.0
  0
LINE
  5
15E
330
1F
100
AcDbEntity
  8
0
  6
Continuous
 62
     7
370
    25
100
AcDbLine
 10
814.1108668673
 20
-243.3628201174
 30
0.0
 11
814.1108668673
 21
-241.3628201174
 31
0.0
  0
ARC
  5
15F
330
1F
100
AcDbEntity
  8
0
  6
Continuous
 62
     7
370
    25
100
AcDbCircle
 10
793.9831745596
 20
-243.3628201174
 30
0.0
 40
19.87230769230778
100
AcDbArc
 50
180.0
 51
226.9233678463
  0
ARC
  5
160
330
1F
100
AcDbEntity
  8
0
  6
Continuous
 62
     7
370
    25
100
AcDbCircle
 10
794.238559175
 20
-243.3628201174
 30
0.0
 40
19.8723076923077
100
AcDbArc
 50
313.0766321537
 51
0.0
  0
ARC
  5
161
330
1F
100
AcDbEntity
  8
0
  6
Continuous
 62
     7
370
    25
100
AcDbCircle
 10
505.9427340421
 20
280.6371798826
 30
0.0
 40
19.87230769230769
100
AcDbArc
 50
0.0
 51
46.9233678463
  0
ARC
  5
162
330
1F
100
AcDbEntity
  8
0
  6
Continuous
 62
     7
370
    25
100
AcDbCircle
 10
505.6873494267
 20
280.6371798826
 30
0.0
 40
19.87230769230774
100
AcDbArc
 50
133.0766321537
 51
180.0
  0
LINE
  5
163
330
1F
100
AcDbEntity
  8
0
  6
Continuous
 62
     7
370
    25
100
AcDbLine
 10
525.8150417344
 20
278.6371798826
 30
0.0
 11
525.8150417344
 21
280.6371798826
 31
0.0
  0
LINE
  5
164
330
1F
100
AcDbEntity
  8
0
  6
Continuous
 62
     7
370
    25
100
AcDbLine
 10
485.8150417344
 20
280.6371798826
 30
0.0
 11
485.8150417344
 21
278.6371798826
 31
0.0
  0
LINE
  5
165
330
1F
100
AcDbEntity
  8
0
  6
Continuous
 62
     7
370
    25
100
AcDbLine
 10
1247.6315654972
 20
-241.3628201174
 30
0.0
 11
1247.6315654972
 21
-243.3628201174
 31
0.0
  0
LINE
  5
166
330
1F
100
AcDbEntity
  8
0
  6
Continuous
 62
     7
370
    25
100
AcDbLine
 10
1287.6315654972
 20
-243.3628201174
 30
0.0
 11
1287.6315654972
 21
-241.3628201174
 31
0.0
  0
ARC
  5
167
330
1F
100
AcDbEntity
  8
0
  6
Continuous
 62
     7
370
    25
100
AcDbCircle
 10
1267.5038731895
 20
-243.3628201174
 30
0.0
 40
19.8723076923077
100
AcDbArc
 50
180.0
 51
226.9233678463
  0
ARC
  5
168
330
1F
100
AcDbEntity
  8
0
  6
Continuous
 62
     7
370
    25
100
AcDbCircle
 10
1267.7592578049
 20
-243.3628201174
 30
0.0
 40
19.8723076923077
100
AcDbArc
 50
313.0766321537
 51
0.0
  0
ARC
  5
169
330
1F
100
AcDbEntity
  8
0
  6
Continuous
 62
     7
370
    25
100
AcDbCircle
 10
794.238559175
 20
280.6371798826
 30
0.0
 40
19.87230769230766
100
AcDbArc
 50
0.0
 51
46.9233678463
  0
ARC
  5
16A
330
1F
100
AcDbEntity
  8
0
  6
Continuous
 62
     7
370
    25
100
AcDbCircle
 10
793.9831745596
 20
280.6371798826
 30
0.0
 40
19.87230769230774
100
AcDbArc
 50
133.0766321537
 51
180.0
  0
LINE
  5
16B
330
1F
100
AcDbEntity
  8
0
  6
Continuous
 62
     7
370
    25
100
AcDbLine
 10
814.1108668673
 20
278.6371798826
 30
0.0
 11
814.1108668673
 21
280.6371798826
 31
0.0
  0
LINE
  5
16C
330
1F
100
AcDbEntity
  8
0
  6
Continuous
 62
     7
370
    25
100
AcDbLine
 10
774.1108668673
 20
280.6371798826
 30
0.0
 11
774.1108668673
 21
278.6371798826
 31
0.0
  0
LINE
  5
16D
330
1F
100
AcDbEntity
  8
0
  6
Continuous
 62
     7
370
    25
100
AcDbLine
 10
-97.3123761333
 20
-241.3628201174
 30
0.0
 11
-97.3123761333
 21
-243.3628201174
 31
0.0
  0
LINE
  5
16E
330
1F
100
AcDbEntity
  8
0
  6
Continuous
 62
     7
370
    25
100
AcDbLine
 10
-57.3123761333
 20
-243.3628201174
 30
0.0
 11
-57.3123761333
 21
-241.3628201174
 31
0.0
  0
ARC
  5
16F
330
1F
100
AcDbEntity
  8
0
  6
Continuous
 62
     7
370
    25
100
AcDbCircle
 10
-77.4400684409
 20
-243.3628201174
 30
0.0
 40
19.87230769230774
100
AcDbArc
 50
180.0
 51
226.9233678463
  0
ARC
  5
170
330
1F
100
AcDbEntity
  8
0
  6
Continuous
 62
     7
370
    25
100
AcDbCircle
 10
-77.1846838256
 20
-243.3628201174
 30
0.0
 40
19.87230769230774
100
AcDbArc
 50
313.0766321537
 51
0.0
  0
LINE
  5
171
330
1F
100
AcDbEntity
  8
0
  6
Continuous
 62
     7
370
    25
100
AcDbLine
 10
1173.3104263031
 20
-241.3628201174
 30
0.0
 11
1173.3104263031
 21
-243.3628201174
 31
0.0
  0
LINE
  5
172
330
1F
100
AcDbEntity
  8
0
  6
Continuous
 62
     7
370
    25
100
AcDbLine
 10
1213.3104263031
 20
-243.3628201174
 30
0.0
 11
1213.3104263031
 21
-241.3628201174
 31
0.0
  0
ARC
  5
173
330
1F
100
AcDbEntity
  8
0
  6
Continuous
 62
     7
370
    25
100
AcDbCircle
 10
1193.1827339954
 20
-243.3628201174
 30
0.0
 40
19.8723076923077
100
AcDbArc
 50
180.0
 51
226.9233678463
  0
ARC
  5
174
330
1F
100
AcDbEntity
  8
0
  6
Continuous
 62
     7
370
    25
100
AcDbCircle
 10
1193.4381186108
 20
-243.3628201174
 30
0.0
 40
19.8723076923077
100
AcDbArc
 50
313.0766321537
 51
0.0
  0
ARC
  5
175
330
1F
100
AcDbEntity
  8
0
  6
Continuous
 62
     7
370
    25
100
AcDbCircle
 10
-77.1846838256
 20
280.6371798826
 30
0.0
 40
19.87230769230774
100
AcDbArc
 50
0.0
 51
46.9233678463
  0
ARC
  5
176
330
1F
100
AcDbEntity
  8
0
  6
Continuous
 62
     7
370
    25
100
AcDbCircle
 10
-77.4400684409
 20
280.6371798826
 30
0.0
 40
19.87230769230774
100
AcDbArc
 50
133.0766321537
 51
180.0
  0
LINE
  5
177
330
1F
100
AcDbEntity
  8
0
  6
Continuous
 62
     7
370
    25
100
AcDbLine
 10
-57.3123761333
 20
278.6371798826
 30
0.0
 11
-57.3123761333
 21
280.6371798826
 31
0.0
  0
LINE
  5
178
330
1F
100
AcDbEntity
  8
0
  6
Continuous
 62
     7
370
    25
100
AcDbLine
 10
-97.3123761333
 20
280.6371798826
 30
0.0
 11
-97.3123761333
 21
278.6371798826
 31
0.0
  0
ARC
  5
179
330
1F
100
AcDbEntity
  8
0
  6
Continuous
 62
     7
370
    25
100
AcDbCircle
 10
214.1236404929
 20
-243.3628201174
 30
0.0
 40
19.87230769230774
100
AcDbArc
 50
180.0
 51
226.9233678463
  0
ARC
  5
17A
330
1F
100
AcDbEntity
  8
0
  6
Continuous
 62
     7
370
    25
100
AcDbCircle
 10
214.3790251083
 20
-243.3628201174
 30
0.0
 40
19.87230769230774
100
AcDbArc
 50
313.0766321537
 51
0.0
  0
LINE
  5
17B
330
1F
100
AcDbEntity
  8
0
  6
Continuous
 62
     7
370
    25
100
AcDbLine
 10
194.2513328006
 20
-241.3628201174
 30
0.0
 11
194.2513328006
 21
-243.3628201174
 31
0.0
  0
LINE
  5
17C
330
1F
100
AcDbEntity
  8
0
  6
Continuous
 62
     7
370
    25
100
AcDbLine
 10
234.2513328006
 20
-243.3628201174
 30
0.0
 11
234.2513328006
 21
-241.3628201174
 31
0.0
  0
ARC
  5
17D
330
1F
100
AcDbEntity
  8
0
  6
Continuous
 62
     7
370
    25
100
AcDbCircle
 10
1267.7592578049
 20
280.6371798826
 30
0.0
 40
19.87230769230766
100
AcDbArc
 50
0.0
 51
46.9233678463
  0
ARC
  5
17E
330
1F
100
AcDbEntity
  8
0
  6
Continuous
 62
     7
370
    25
100
AcDbCircle
 10
1267.5038731895
 20
280.6371798826
 30
0.0
 40
19.87230769230766
100
AcDbArc
 50
133.0766321537
 51
180.0
  0
LINE
  5
17F
330
1F
100
AcDbEntity
  8
0
  6
Continuous
 62
     7
370
    25
100
AcDbLine
 10
1287.6315654972
 20
278.6371798826
 30
0.0
 11
1287.6315654972
 21
280.6371798826
 31
0.0
  0
LINE
  5
180
330
1F
100
AcDbEntity
  8
0
  6
Continuous
 62
     7
370
    25
100
AcDbLine
 10
1247.6315654972
 20
280.6371798826
 30
0.0
 11
1247.6315654972
 21
278.6371798826
 31
0.0
  0
ARC
  5
181
330
1F
100
AcDbEntity
  8
0
  6
Continuous
 62
     7
370
    25
100
AcDbCircle
 10
214.3790251083
 20
280.6371798826
 30
0.0
 40
19.87230769230774
100
AcDbArc
 50
0.0
 51
46.9233678463
  0
ARC
  5
182
330
1F
100
AcDbEntity
  8
0
  6
Continuous
 62
     7
370
    25
100
AcDbCircle
 10
214.1236404929
 20
280.6371798826
 30
0.0
 40
19.87230769230774
100
AcDbArc
 50
133.0766321537
 51
180.0
  0
LINE
  5
183
330
1F
100
AcDbEntity
  8
0
  6
Continuous
 62
     7
370
    25
100
AcDbLine
 10
234.2513328006
 20
278.6371798826
 30
0.0
 11
234.2513328006
 21
280.6371798826
 31
0.0
  0
LINE
  5
184
330
1F
100
AcDbEntity
  8
0
  6
Continuous
 62
     7
370
    25
100
AcDbLine
 10
194.2513328006
 20
280.6371798826
 30
0.0
 11
194.2513328006
 21
278.6371798826
 31
0.0
  0
ARC
  5
185
330
1F
100
AcDbEntity
  8
0
  6
Continuous
 62
     7
370
    25
100
AcDbCircle
 10
-355.7760850671
 20
295.767571201
 30
0.0
 40
0.6000000000000317
100
AcDbArc
 50
0.0
 51
63.6246146768
  0
ARC
  5
186
330
1F
100
AcDbEntity
  8
0
  6
Continuous
 62
     7
370
    25
100
AcDbCircle
 10
-381.9760850671
 20
295.767571201
 30
0.0
 40
0.6000000000000569
100
AcDbArc
 50
116.3753853232
 51
180.0
  0
LINE
  5
187
330
1F
100
AcDbEntity
  8
0
  6
Continuous
 62
     7
370
    25
100
AcDbLine
 10
-355.1760850671
 20
295.1527259255
 30
0.0
 11
-355.1760850671
 21
295.767571201
 31
0.0
  0
LINE
  5
188
330
1F
100
AcDbEntity
  8
0
  6
Continuous
 62
     7
370
    25
100
AcDbLine
 10
-382.5760850671
 20
295.767571201
 30
0.0
 11
-382.5760850671
 21
295.1527259255
 31
0.0
  0
ARC
  5
189
330
1F
100
AcDbEntity
  8
0
  6
Continuous
 62
     7
370
    25
100
AcDbCircle
 10
-368.8760850671
 20
269.3493010947
 30
0.0
 40
30.08787878787886
100
AcDbArc
 50
63.6246146768
 51
116.3753853232
  0
LINE
  5
18A
330
1F
100
AcDbEntity
  8
0
  6
Continuous
 62
     7
370
    25
100
AcDbLine
 10
780.4108668673
 20
-257.8783661603
 30
0.0
 11
780.4108668673
 21
-258.4932114358
 31
0.0
  0
LINE
  5
18B
330
1F
100
AcDbEntity
  8
0
  6
Continuous
 62
     7
370
    25
100
AcDbLine
 10
807.8108668673
 20
-258.4932114358
 30
0.0
 11
807.8108668673
 21
-257.8783661603
 31
0.0
  0
ARC
  5
18C
330
1F
100
AcDbEntity
  8
0
  6
Continuous
 62
     7
370
    25
100
AcDbCircle
 10
781.0108668673
 20
-258.4932114358
 30
0.0
 40
0.6000000000000227
100
AcDbArc
 50
180.0
 51
243.6246146768
  0
ARC
  5
18D
330
1F
100
AcDbEntity
  8
0
  6
Continuous
 62
     7
370
    25
100
AcDbCircle
 10
807.2108668673
 20
-258.4932114358
 30
0.0
 40
0.5999999999999551
100
AcDbArc
 50
296.3753853232
 51
0.0
  0
ARC
  5
18E
330
1F
100
AcDbEntity
  8
0
  6
Continuous
 62
     7
370
    25
100
AcDbCircle
 10
794.1108668673
 20
-232.0749413295
 30
0.0
 40
30.08787878787878
100
AcDbArc
 50
243.6246146768
 51
296.3753853232
  0
ARC
  5
18F
330
1F
100
AcDbEntity
  8
0
  6
Continuous
 62
     7
370
    25
100
AcDbCircle
 10
1206.4104263031
 20
295.767571201
 30
0.0
 40
0.6000000000000064
100
AcDbArc
 50
0.0
 51
63.6246146769
  0
ARC
  5
190
330
1F
100
AcDbEntity
  8
0
  6
Continuous
 62
     7
370
    25
100
AcDbCircle
 10
1180.2104263031
 20
295.767571201
 30
0.0
 40
0.6000000000000064
100
AcDbArc
 50
116.3753853231
 51
180.0
  0
LINE
  5
191
330
1F
100
AcDbEntity
  8
0
  6
Continuous
 62
     7
370
    25
100
AcDbLine
 10
1207.0104263031
 20
295.1527259255
 30
0.0
 11
1207.0104263031
 21
295.767571201
 31
0.0
  0
LINE
  5
192
330
1F
100
AcDbEntity
  8
0
  6
Continuous
 62
     7
370
    25
100
AcDbLine
 10
1179.6104263031
 20
295.767571201
 30
0.0
 11
1179.6104263031
 21
295.1527259255
 31
0.0
  0
ARC
  5
193
330
1F
100
AcDbEntity
  8
0
  6
Continuous
 62
     7
370
    25
100
AcDbCircle
 10
1193.3104263031
 20
269.3493010947
 30
0.0
 40
30.08787878787884
100
AcDbArc
 50
63.6246146768
 51
116.3753853232
  0
LINE
  5
194
330
1F
100
AcDbEntity
  8
0
  6
Continuous
 62
     7
370
    25
100
AcDbLine
 10
-382.5760850671
 20
-257.8783661603
 30
0.0
 11
-382.5760850671
 21
-258.4932114358
 31
0.0
  0
LINE
  5
195
330
1F
100
AcDbEntity
  8
0
  6
Continuous
 62
     7
370
    25
100
AcDbLine
 10
-355.1760850671
 20
-258.4932114358
 30
0.0
 11
-355.1760850671
 21
-257.8783661603
 31
0.0
  0
ARC
  5
196
330
1F
100
AcDbEntity
  8
0
  6
Continuous
 62
     7
370
    25
100
AcDbCircle
 10
-381.9760850671
 20
-258.4932114358
 30
0.0
 40
0.6000000000000569
100
AcDbArc
 50
180.0
 51
243.6246146768
  0
ARC
  5
197
330
1F
100
AcDbEntity
  8
0
  6
Continuous
 62
     7
370
    25
100
AcDbCircle
 10
-355.7760850671
 20
-258.4932114358
 30
0.0
 40
0.6000000000000317
100
AcDbArc
 50
296.3753853232
 51
0.0
  0
ARC
  5
198
330
1F
100
AcDbEntity
  8
0
  6
Continuous
 62
     7
370
    25
100
AcDbCircle
 10
-368.8760850671
 20
-232.0749413295
 30
0.0
 40
30.08787878787876
100
AcDbArc
 50
243.6246146768
 51
296.3753853232
  0
ARC
  5
199
330
1F
100
AcDbEntity
  8
0
  6
Continuous
 62
     7
370
    25
100
AcDbCircle
 10
227.3513328006
 20
295.767571201
 30
0.0
 40
0.5999999999999425
100
AcDbArc
 50
0.0
 51
63.6246146768
  0
ARC
  5
19A
330
1F
100
AcDbEntity
  8
0
  6
Continuous
 62
     7
370
    25
100
AcDbCircle
 10
201.1513328006
 20
295.767571201
 30
0.0
 40
0.5999999999999425
100
AcDbArc
 50
116.3753853232
 51
180.0
  0
LINE
  5
19B
330
1F
100
AcDbEntity
  8
0
  6
Continuous
 62
     7
370
    25
100
AcDbLine
 10
227.9513328006
 20
295.1527259255
 30
0.0
 11
227.9513328006
 21
295.767571201
 31
0.0
  0
LINE
  5
19C
330
1F
100
AcDbEntity
  8
0
  6
Continuous
 62
     7
370
    25
100
AcDbLine
 10
200.5513328006
 20
295.767571201
 30
0.0
 11
200.5513328006
 21
295.1527259255
 31
0.0
  0
ARC
  5
19D
330
1F
100
AcDbEntity
  8
0
  6
Continuous
 62
     7
370
    25
100
AcDbCircle
 10
214.2513328006
 20
269.3493010947
 30
0.0
 40
30.08787878787886
100
AcDbArc
 50
63.6246146768
 51
116.3753853232
  0
LINE
  5
19E
330
1F
100
AcDbEntity
  8
0
  6
Continuous
 62
     7
370
    25
100
AcDbLine
 10
492.1150417344
 20
-257.8783661603
 30
0.0
 11
492.1150417344
 21
-258.4932114358
 31
0.0
  0
LINE
  5
19F
330
1F
100
AcDbEntity
  8
0
  6
Continuous
 62
     7
370
    25
100
AcDbLine
 10
519.5150417344
 20
-258.4932114358
 30
0.0
 11
519.5150417344
 21
-257.8783661603
 31
0.0
  0
ARC
  5
1A0
330
1F
100
AcDbEntity
  8
0
  6
Continuous
 62
     7
370
    25
100
AcDbCircle
 10
492.7150417344
 20
-258.4932114358
 30
0.0
 40
0.5999999999999298
100
AcDbArc
 50
180.0
 51
243.6246146768
  0
ARC
  5
1A1
330
1F
100
AcDbEntity
  8
0
  6
Continuous
 62
     7
370
    25
100
AcDbCircle
 10
518.9150417344
 20
-258.4932114358
 30
0.0
 40
0.5999999999999551
100
AcDbArc
 50
296.3753853232
 51
0.0
  0
ARC
  5
1A2
330
1F
100
AcDbEntity
  8
0
  6
Continuous
 62
     7
370
    25
100
AcDbCircle
 10
505.8150417344
 20
-232.0749413295
 30
0.0
 40
30.08787878787876
100
AcDbArc
 50
243.6246146768
 51
296.3753853232
  0
LINE
  5
1A3
330
1F
100
AcDbEntity
  8
0
  6
Continuous
 62
     7
370
    25
100
AcDbLine
 10
1179.6104263031
 20
-257.8783661603
 30
0.0
 11
1179.6104263031
 21
-258.4932114358
 31
0.0
  0
LINE
  5
1A4
330
1F
100
AcDbEntity
  8
0
  6
Continuous
 62
     7
370
    25
100
AcDbLine
 10
1207.0104263031
 20
-258.4932114358
 30
0.0
 11
1207.0104263031
 21
-257.8783661603
 31
0.0
  0
ARC
  5
1A5
330
1F
100
AcDbEntity
  8
0
  6
Continuous
 62
     7
370
    25
100
AcDbCircle
 10
1180.2104263031
 20
-258.4932114358
 30
0.0
 40
0.599999999999909
100
AcDbArc
 50
180.0
 51
243.6246146768
  0
ARC
  5
1A6
330
1F
100
AcDbEntity
  8
0
  6
Continuous
 62
     7
370
    25
100
AcDbCircle
 10
1206.4104263031
 20
-258.4932114358
 30
0.0
 40
0.599999999999909
100
AcDbArc
 50
296.3753853232
 51
0.0
  0
ARC
  5
1A7
330
1F
100
AcDbEntity
  8
0
  6
Continuous
 62
     7
370
    25
100
AcDbCircle
 10
1193.3104263031
 20
-232.0749413295
 30
0.0
 40
30.08787878787873
100
AcDbArc
 50
243.6246146768
 51
296.3753853232
  0
ARC
  5
1A8
330
1F
100
AcDbEntity
  8
0
  6
Continuous
 62
     7
370
    25
100
AcDbCircle
 10
201.1513328006
 20
-258.4932114358
 30
0.0
 40
0.5999999999999425
100
AcDbArc
 50
180.0
 51
243.6246146768
  0
ARC
  5
1A9
330
1F
100
AcDbEntity
  8
0
  6
Continuous
 62
     7
370
    25
100
AcDbCircle
 10
227.3513328006
 20
-258.4932114358
 30
0.0
 40
0.5999999999999425
100
AcDbArc
 50
296.3753853232
 51
0.0
  0
LINE
  5
1AA
330
1F
100
AcDbEntity
  8
0
  6
Continuous
 62
     7
370
    25
100
AcDbLine
 10
200.5513328006
 20
-257.8783661603
 30
0.0
 11
200.5513328006
 21
-258.4932114358
 31
0.0
  0
LINE
  5
1AB
330
1F
100
AcDbEntity
  8
0
  6
Continuous
 62
     7
370
    25
100
AcDbLine
 10
227.9513328006
 20
-258.4932114358
 30
0.0
 11
227.9513328006
 21
-257.8783661603
 31
0.0
  0
ARC
  5
1AC
330
1F
100
AcDbEntity
  8
0
  6
Continuous
 62
     7
370
    25
100
AcDbCircle
 10
214.2513328006
 20
-232.0749413295
 30
0.0
 40
30.08787878787876
100
AcDbArc
 50
243.6246146768
 51
296.3753853232
  0
ARC
  5
1AD
330
1F
100
AcDbEntity
  8
0
  6
Continuous
 62
     7
370
    25
100
AcDbCircle
 10
-64.2123761333
 20
295.767571201
 30
0.0
 40
0.6000000000000412
100
AcDbArc
 50
0.0
 51
63.6246146768
  0
ARC
  5
1AE
330
1F
100
AcDbEntity
  8
0
  6
Continuous
 62
     7
370
    25
100
AcDbCircle
 10
-90.4123761333
 20
295.767571201
 30
0.0
 40
0.6000000000000443
100
AcDbArc
 50
116.3753853232
 51
180.0
  0
LINE
  5
1AF
330
1F
100
AcDbEntity
  8
0
  6
Continuous
 62
     7
370
    25
100
AcDbLine
 10
-63.6123761333
 20
295.1527259255
 30
0.0
 11
-63.6123761333
 21
295.767571201
 31
0.0
  0
LINE
  5
1B0
330
1F
100
AcDbEntity
  8
0
  6
Continuous
 62
     7
370
    25
100
AcDbLine
 10
-91.0123761333
 20
295.767571201
 30
0.0
 11
-91.0123761333
 21
295.1527259255
 31
0.0
  0
ARC
  5
1B1
330
1F
100
AcDbEntity
  8
0
  6
Continuous
 62
     7
370
    25
100
AcDbCircle
 10
-77.3123761333
 20
269.3493010947
 30
0.0
 40
30.08787878787886
100
AcDbArc
 50
63.6246146768
 51
116.3753853232
  0
ARC
  5
1B2
330
1F
100
AcDbEntity
  8
0
  6
Continuous
 62
     7
370
    25
100
AcDbCircle
 10
1280.7315654972
 20
295.767571201
 30
0.0
 40
0.599999999999909
100
AcDbArc
 50
0.0
 51
63.6246146768
  0
ARC
  5
1B3
330
1F
100
AcDbEntity
  8
0
  6
Continuous
 62
     7
370
    25
100
AcDbCircle
 10
1254.5315654972
 20
295.767571201
 30
0.0
 40
0.599999999999909
100
AcDbArc
 50
116.3753853232
 51
180.0
  0
LINE
  5
1B4
330
1F
100
AcDbEntity
  8
0
  6
Continuous
 62
     7
370
    25
100
AcDbLine
 10
1281.3315654972
 20
295.1527259255
 30
0.0
 11
1281.3315654972
 21
295.767571201
 31
0.0
  0
LINE
  5
1B5
330
1F
100
AcDbEntity
  8
0
  6
Continuous
 62
     7
370
    25
100
AcDbLine
 10
1253.9315654972
 20
295.767571201
 30
0.0
 11
1253.9315654972
 21
295.1527259255
 31
0.0
  0
ARC
  5
1B6
330
1F
100
AcDbEntity
  8
0
  6
Continuous
 62
     7
370
    25
100
AcDbCircle
 10
1267.6315654972
 20
269.3493010947
 30
0.0
 40
30.08787878787884
100
AcDbArc
 50
63.6246146768
 51
116.3753853232
  0
LINE
  5
1B7
330
1F
100
AcDbEntity
  8
0
  6
Continuous
 62
     7
370
    25
100
AcDbLine
 10
807.8108668673
 20
295.1527259255
 30
0.0
 11
807.8108668673
 21
295.767571201
 31
0.0
  0
LINE
  5
1B8
330
1F
100
AcDbEntity
  8
0
  6
Continuous
 62
     7
370
    25
100
AcDbLine
 10
780.4108668673
 20
295.767571201
 30
0.0
 11
780.4108668673
 21
295.1527259255
 31
0.0
  0
ARC
  5
1B9
330
1F
100
AcDbEntity
  8
0
  6
Continuous
 62
     7
370
    25
100
AcDbCircle
 10
807.2108668673
 20
295.767571201
 30
0.0
 40
0.5999999999999551
100
AcDbArc
 50
0.0
 51
63.6246146768
  0
ARC
  5
1BA
330
1F
100
AcDbEntity
  8
0
  6
Continuous
 62
     7
370
    25
100
AcDbCircle
 10
781.0108668673
 20
295.767571201
 30
0.0
 40
0.6000000000000227
100
AcDbArc
 50
116.3753853232
 51
180.0
  0
ARC
  5
1BB
330
1F
100
AcDbEntity
  8
0
  6
Continuous
 62
     7
370
    25
100
AcDbCircle
 10
794.1108668673
 20
269.3493010947
 30
0.0
 40
30.08787878787889
100
AcDbArc
 50
63.6246146768
 51
116.3753853232
  0
ARC
  5
1BC
330
1F
100
AcDbEntity
  8
0
  6
Continuous
 62
     7
370
    25
100
AcDbCircle
 10
-90.4123761333
 20
-258.4932114358
 30
0.0
 40
0.6000000000000443
100
AcDbArc
 50
180.0
 51
243.6246146768
  0
ARC
  5
1BD
330
1F
100
AcDbEntity
  8
0
  6
Continuous
 62
     7
370
    25
100
AcDbCircle
 10
-64.2123761333
 20
-258.4932114358
 30
0.0
 40
0.6000000000000412
100
AcDbArc
 50
296.3753853232
 51
0.0
  0
LINE
  5
1BE
330
1F
100
AcDbEntity
  8
0
  6
Continuous
 62
     7
370
    25
100
AcDbLine
 10
-91.0123761333
 20
-257.8783661603
 30
0.0
 11
-91.0123761333
 21
-258.4932114358
 31
0.0
  0
LINE
  5
1BF
330
1F
100
AcDbEntity
  8
0
  6
Continuous
 62
     7
370
    25
100
AcDbLine
 10
-63.6123761333
 20
-258.4932114358
 30
0.0
 11
-63.6123761333
 21
-257.8783661603
 31
0.0
  0
ARC
  5
1C0
330
1F
100
AcDbEntity
  8
0
  6
Continuous
 62
     7
370
    25
100
AcDbCircle
 10
-77.3123761333
 20
-232.0749413295
 30
0.0
 40
30.08787878787876
100
AcDbArc
 50
243.6246146768
 51
296.3753853232
  0
LINE
  5
1C1
330
1F
100
AcDbEntity
  8
0
  6
Continuous
 62
     7
370
    25
100
AcDbLine
 10
1253.9315654972
 20
-257.8783661603
 30
0.0
 11
1253.9315654972
 21
-258.4932114358
 31
0.0
  0
LINE
  5
1C2
330
1F
100
AcDbEntity
  8
0
  6
Continuous
 62
     7
370
    25
100
AcDbLine
 10
1281.3315654972
 20
-258.4932114358
 30
0.0
 11
1281.3315654972
 21
-257.8783661603
 31
0.0
  0
ARC
  5
1C3
330
1F
100
AcDbEntity
  8
0
  6
Continuous
 62
     7
370
    25
100
AcDbCircle
 10
1254.5315654972
 20
-258.4932114358
 30
0.0
 40
0.599999999999909
100
AcDbArc
 50
180.0
 51
243.6246146768
  0
ARC
  5
1C4
330
1F
100
AcDbEntity
  8
0
  6
Continuous
 62
     7
370
    25
100
AcDbCircle
 10
1280.7315654972
 20
-258.4932114358
 30
0.0
 40
0.599999999999909
100
AcDbArc
 50
296.3753853232
 51
0.0
  0
ARC
  5
1C5
330
1F
100
AcDbEntity
  8
0
  6
Continuous
 62
     7
370
    25
100
AcDbCircle
 10
1267.6315654972
 20
-232.0749413295
 30
0.0
 40
30.08787878787873
100
AcDbArc
 50
243.6246146768
 51
296.3753853232
  0
ARC
  5
1C6
330
1F
100
AcDbEntity
  8
0
  6
Continuous
 62
     7
370
    25
100
AcDbCircle
 10
518.9150417344
 20
295.767571201
 30
0.0
 40
0.6000000000000569
100
AcDbArc
 50
0.0
 51
63.6246146768
  0
ARC
  5
1C7
330
1F
100
AcDbEntity
  8
0
  6
Continuous
 62
     7
370
    25
100
AcDbCircle
 10
492.7150417344
 20
295.767571201
 30
0.0
 40
0.6000000000000317
100
AcDbArc
 50
116.3753853232
 51
180.0
  0
LINE
  5
1C8
330
1F
100
AcDbEntity
  8
0
  6
Continuous
 62
     7
370
    25
100
AcDbLine
 10
519.5150417344
 20
295.1527259255
 30
0.0
 11
519.5150417344
 21
295.767571201
 31
0.0
  0
LINE
  5
1C9
330
1F
100
AcDbEntity
  8
0
  6
Continuous
 62
     7
370
    25
100
AcDbLine
 10
492.1150417344
 20
295.767571201
 30
0.0
 11
492.1150417344
 21
295.1527259255
 31
0.0
  0
ARC
  5
1CA
330
1F
100
AcDbEntity
  8
0
  6
Continuous
 62
     7
370
    25
100
AcDbCircle
 10
505.8150417344
 20
269.3493010947
 30
0.0
 40
30.08787878787886
100
AcDbArc
 50
63.6246146768
 51
116.3753853232
  0
ARC
  5
1CB
330
1F
100
AcDbEntity
  8
0
  6
Continuous
 62
     7
370
    25
100
AcDbCircle
 10
1337.7023765427
 20
275.6371798826
 30
0.0
 40
3.0
100
AcDbArc
 50
0.0
 51
90.0
  0
LINE
  5
1CC
330
1F
100
AcDbEntity
  8
0
  6
Continuous
 62
     7
370
    25
100
AcDbLine
 10
1340.7023765427
 20
266.6371798826
 30
0.0
 11
1340.7023765427
 21
275.6371798826
 31
0.0
  0
ARC
  5
1CD
330
1F
100
AcDbEntity
  8
0
  6
Continuous
 62
     7
370
    25
100
AcDbCircle
 10
1337.7023765427
 20
266.6371798826
 30
0.0
 40
3.0
100
AcDbArc
 50
270.0
 51
0.0
  0
LINE
  5
1CE
330
1F
100
AcDbEntity
  8
0
  6
Continuous
 62
     7
370
    25
100
AcDbLine
 10
1284.2895996334
 20
-226.3628201174
 30
0.0
 11
1284.2895996334
 21
263.6371798826
 31
0.0
  0
LINE
  5
1CF
330
1F
100
AcDbEntity
  8
0
  6
Continuous
 62
     7
370
    25
100
AcDbLine
 10
-1450.7726095183
 20
-1881.3628201174
 30
0.0
 11
-650.7726095183
 21
-1881.3628201174
 31
0.0
  0
ARC
  5
1D0
330
1F
100
AcDbEntity
  8
0
  6
Continuous
 62
     7
370
    25
100
AcDbCircle
 10
-1450.7726095183
 20
-381.3628201174
 30
0.0
 40
1500.0
100
AcDbArc
 50
180.0
 51
270.0
  0
LINE
  5
1D1
330
1F
100
AcDbEntity
  8
0
  6
Continuous
 62
     7
370
    25
100
AcDbLine
 10
-2950.7726095183
 20
418.6371798826
 30
0.0
 11
-2950.7726095183
 21
-381.3628201174
 31
0.0
  0
ARC
  5
1D2
330
1F
100
AcDbEntity
  8
0
  6
Continuous
 62
     7
370
    25
100
AcDbCircle
 10
-1450.7726095183
 20
418.6371798826
 30
0.0
 40
1500.0
100
AcDbArc
 50
147.6649241976
 51
180.0
  0
ARC
  5
1D3
330
1F
100
AcDbEntity
  8
0
  6
Continuous
 62
     7
370
    25
100
AcDbCircle
 10
149.9023826619
 20
278.6371798826
 30
0.0
 40
1500.0
100
AcDbArc
 50
41.8103148958
 51
89.4384759734
  0
LINE
  5
1D4
330
1F
100
AcDbEntity
  8
0
  6
Continuous
 62
     7
370
    25
100
AcDbLine
 10
2340.7023765426
 20
1278.6371798826
 30
0.0
 11
1267.9363714118
 21
1278.6371798826
 31
0.0
  0
ARC
  5
1D5
330
1F
100
AcDbEntity
  8
0
  6
Continuous
 62
     7
370
    25
100
AcDbCircle
 10
2340.7023765427
 20
278.6371798826
 30
0.0
 40
1000.0
100
AcDbArc
 50
0.0
 51
90.0
  0
LINE
  5
1D6
330
1F
100
AcDbEntity
  8
0
  6
Continuous
 62
     7
370
    25
100
AcDbLine
 10
3340.7023765427
 20
-241.3628201174
 30
0.0
 11
3340.7023765427
 21
278.6371798826
 31
0.0
  0
ARC
  5
1D7
330
1F
100
AcDbEntity
  8
0
  6
Continuous
 62
     7
370
    25
100
AcDbCircle
 10
2340.7023765427
 20
-241.3628201174
 30
0.0
 40
1000.000000000001
100
AcDbArc
 50
270.0
 51
0.0
  0
LINE
  5
1D8
330
1F
100
AcDbEntity
  8
0
  6
Continuous
 62
     7
370
    25
100
AcDbLine
 10
1267.9363714118
 20
-1241.3628201174
 30
0.0
 11
2340.7023765426
 21
-1241.3628201174
 31
0.0
  0
ARC
  5
1D9
330
1F
100
AcDbEntity
  8
0
  6
Continuous
 62
     7
370
    25
100
AcDbCircle
 10
149.9023826619
 20
-241.3628201174
 30
0.0
 40
1500.0
100
AcDbArc
 50
270.0
 51
318.1896851042
  0
LINE
  5
1DA
330
1F
100
AcDbEntity
  8
0
  6
Continuous
 62
     7
370
    25
100
AcDbLine
 10
-18.000928736
 20
-1741.3628201174
 30
0.0
 11
149.9023826619
 21
-1741.3628201174
 31
0.0
  0
ARC
  5
1DB
330
1F
100
AcDbEntity
  8
0
  6
Continuous
 62
     7
370
    25
100
AcDbCircle
 10
-650.7726095183
 20
-381.3628201174
 30
0.0
 40
1500.0
100
AcDbArc
 50
270.0
 51
294.9513010927
  0
ARC
  5
1DC
330
1F
100
AcDbEntity
  8
0
  6
Continuous
 62
     7
370
    25
100
AcDbCircle
 10
-1360.7726095183
 20
582.6155855783
 30
0.0
 40
1500.0
100
AcDbArc
 50
90.0
 51
154.8144695722
  0
ARC
  5
1DD
330
1F
100
AcDbEntity
  8
0
  6
Continuous
 62
     7
370
    25
100
AcDbCircle
 10
-740.7726095183
 20
582.6155855783
 30
0.0
 40
1500.0
100
AcDbArc
 50
52.8730114261
 51
90.0
  0
LINE
  5
1DE
330
1F
100
AcDbEntity
  8
0
  6
Continuous
 62
     7
370
    25
100
AcDbLine
 10
-740.7726095183
 20
2082.6155855783
 30
0.0
 11
-1360.7726095183
 21
2082.6155855783
 31
0.0
  0
LINE
  5
1DF
330
1F
100
AcDbEntity
  8
0
  6
Continuous
 62
     7
370
    25
100
AcDbLine
 10
-747.7726095183
 20
321.2491889165
 30
0.0
 11
-747.7726095183
 21
322.0254844344
 31
0.0
  0
LINE
  5
1E0
330
1F
100
AcDbEntity
  8
0
  6
Continuous
 62
     7
370
    25
100
AcDbLine
 10
-740.7726095183
 20
329.0311420411
 30
0.0
 11
-740.7726095183
 21
328.2435358788
 31
0.0
  0
LINE
  5
1E1
330
1F
100
AcDbEntity
  8
0
  6
Continuous
 62
     7
370
    25
100
AcDbLine
 10
-1353.7726095183
 20
322.0254844344
 30
0.0
 11
-1353.7726095183
 21
321.2491889165
 31
0.0
  0
LINE
  5
1E2
330
1F
100
AcDbEntity
  8
0
  6
Continuous
 62
     7
370
    25
100
AcDbLine
 10
-1360.7726095183
 20
328.2435358788
 30
0.0
 11
-1360.7726095183
 21
329.0311420411
 31
0.0
  0
LINE
  5
1E3
330
1F
100
AcDbEntity
  8
0
  6
Continuous
 62
     7
370
    25
100
AcDbLine
 10
-1362.667416299
 20
554.2151170383
 30
0.0
 11
-1362.667416299
 21
552.2686094206
 31
0.0
  0
LINE
  5
1E4
330
1F
100
AcDbEntity
  8
0
  6
Continuous
 62
     7
370
    25
100
AcDbLine
 10
-1362.667416299
 20
554.5145167859
 30
0.0
 11
-1362.667416299
 21
554.2151170383
 31
0.0
  0
LINE
  5
1E5
330
1F
100
AcDbEntity
  8
0
  6
Continuous
 62
     7
370
    25
100
AcDbLine
 10
-1362.667416299
 20
550.3180091682
 30
0.0
 11
-1362.667416299
 21
550.0145167859
 31
0.0
  0
LINE
  5
1E6
330
1F
100
AcDbEntity
  8
0
  6
Continuous
 62
     7
370
    25
100
AcDbLine
 10
-1362.667416299
 20
552.2686094206
 30
0.0
 11
-1362.667416299
 21
550.3180091682
 31
0.0
  0
LINE
  5
1E7
330
1F
100
AcDbEntity
  8
0
  6
Continuous
 62
     7
370
    25
100
AcDbLine
 10
-1362.1226095183
 20
552.2715197386
 30
0.0
 11
-1362.1226095183
 21
548.4145167859
 31
0.0
  0
LINE
  5
1E8
330
1F
100
AcDbEntity
  8
0
  6
Continuous
 62
     7
370
    25
100
AcDbLine
 10
-1362.1226095183
 20
556.1145167859
 30
0.0
 11
-1362.1226095183
 21
552.2715197386
 31
0.0
  0
LINE
  5
1E9
330
1F
100
AcDbEntity
  8
0
  6
Continuous
 62
     7
370
    25
100
AcDbLine
 10
-1361.6226095183
 20
552.2715197386
 30
0.0
 11
-1361.6226095183
 21
548.4145167859
 31
0.0
  0
LINE
  5
1EA
330
1F
100
AcDbEntity
  8
0
  6
Continuous
 62
     7
370
    25
100
AcDbLine
 10
-1361.6226095183
 20
556.1145167859
 30
0.0
 11
-1361.6226095183
 21
552.2715197386
 31
0.0
  0
LINE
  5
1EB
330
1F
100
AcDbEntity
  8
0
  6
Continuous
 62
     7
370
    25
100
AcDbLine
 10
-740.2726095183
 20
552.2575138331
 30
0.0
 11
-740.2726095183
 21
556.1145167859
 31
0.0
  0
LINE
  5
1EC
330
1F
100
AcDbEntity
  8
0
  6
Continuous
 62
     7
370
    25
100
AcDbLine
 10
-740.2726095183
 20
548.4145167859
 30
0.0
 11
-740.2726095183
 21
552.2575138331
 31
0.0
  0
LINE
  5
1ED
330
1F
100
AcDbEntity
  8
0
  6
Continuous
 62
     7
370
    25
100
AcDbLine
 10
-739.7278027376
 20
550.3139165335
 30
0.0
 11
-739.7278027376
 21
552.2604241511
 31
0.0
  0
LINE
  5
1EE
330
1F
100
AcDbEntity
  8
0
  6
Continuous
 62
     7
370
    25
100
AcDbLine
 10
-739.7278027376
 20
550.0145167859
 30
0.0
 11
-739.7278027376
 21
550.3139165335
 31
0.0
  0
LINE
  5
1EF
330
1F
100
AcDbEntity
  8
0
  6
Continuous
 62
     7
370
    25
100
AcDbLine
 10
-739.7278027376
 20
554.2110244035
 30
0.0
 11
-739.7278027376
 21
554.5145167859
 31
0.0
  0
LINE
  5
1F0
330
1F
100
AcDbEntity
  8
0
  6
Continuous
 62
     7
370
    25
100
AcDbLine
 10
-739.7278027376
 20
552.2604241511
 30
0.0
 11
-739.7278027376
 21
554.2110244035
 31
0.0
  0
LWPOLYLINE
  5
1F1
330
1F
100
AcDbEntity
  8
0
  6
Continuous
 62
     7
370
    25
100
AcDbPolyline
 90
       17
 70
   128
 43
0.0
 10
-932.9410443554
 20
532.3481270174
 10
-927.6116925057
 20
532.7080524803
 10
-922.1794074077
 20
533.014228764
 10
-916.6609468261
 20
533.2657113616
 10
-911.0733343639
 20
533.4617244879
 10
-905.4338069469
 20
533.6016634726
 10
-899.7597616505
 20
533.6850966254
 10
-894.0687020327
 20
533.7117665679
 10
-888.3781841378
 20
533.6815910274
 10
-882.7057623391
 20
533.5946630907
 10
-877.0689351863
 20
533.4512509173
 10
-871.4850914249
 20
533.2517969116
 10
-865.9714563548
 20
532.9969163586
 10
-860.5450386931
 20
532.6873955256
 10
-855.2225781044
 20
532.3241892368
 10
-850.0204935617
 20
531.9084179279
 10
-844.9548326965
 20
531.4413641894
  0
ARC
  5
1F2
330
1F
100
AcDbEntity
  8
0
  6
Continuous
 62
     7
370
    25
100
AcDbCircle
 10
-838.8383138172
 20
584.3256038117
 30
0.0
 40
53.23677867444621
100
AcDbArc
 50
263.4025620353
 51
282.3605298005
  0
ARC
  5
1F3
330
1F
100
AcDbEntity
  8
0
  6
Continuous
 62
     7
370
    25
100
AcDbCircle
 10
-937.7715219507
 20
594.2270025864
 30
0.0
 40
62.06713103955219
100
AcDbArc
 50
261.5374928184
 51
274.4636530423
  0
LWPOLYLINE
  5
1F4
330
1F
100
AcDbEntity
  8
0
  6
Continuous
 62
     7
370
    25
100
AcDbPolyline
 90
        5
 70
   128
 43
0.0
 10
-827.4423179347
 20
532.322855024
 10
-824.7846030965
 20
533.3103451851
 10
-822.931917506
 20
534.3649605858
 10
-821.9102955238
 20
535.4784570383
 10
-821.7973451142
 20
536.2771173712
  0
LWPOLYLINE
  5
1F5
330
1F
100
AcDbEntity
  8
0
  6
Continuous
 62
     7
370
    25
100
AcDbPolyline
 90
        8
 70
   128
 43
0.0
 10
-969.792530192
 20
541.4773287649
 10
-969.4830121936
 20
540.4028352613
 10
-968.1883470672
 20
539.1476276732
 10
-965.9398328944
 20
537.8750114683
 10
-962.7429220345
 20
536.6036906505
 10
-958.4036229097
 20
535.2945557368
 10
-953.100030091
 20
534.031028637
 10
-946.9054571376
 20
532.8356352496
  0
LWPOLYLINE
  5
1F6
330
1F
100
AcDbEntity
  8
0
  6
Continuous
 62
     7
370
    25
100
AcDbPolyline
 90
       17
 70
   128
 43
0.0
 10
-1242.9410443554
 20
475.717711116
 10
-1237.6116925057
 20
476.077636579
 10
-1232.1794074077
 20
476.3838128626
 10
-1226.6609468261
 20
476.6352954602
 10
-1221.0733343639
 20
476.8313085865
 10
-1215.4338069469
 20
476.9712475713
 10
-1209.7597616505
 20
477.0546807241
 10
-1204.0687020327
 20
477.0813506666
 10
-1198.3781841378
 20
477.051175126
 10
-1192.7057623391
 20
476.9642471894
 10
-1187.0689351863
 20
476.8208350159
 10
-1181.4850914249
 20
476.6213810102
 10
-1175.9714563548
 20
476.3665004572
 10
-1170.5450386931
 20
476.0569796242
 10
-1165.2225781044
 20
475.6937733354
 10
-1160.0204935617
 20
475.2780020265
 10
-1154.9548326965
 20
474.810948288
  0
ARC
  5
1F7
330
1F
100
AcDbEntity
  8
0
  6
Continuous
 62
     7
370
    25
100
AcDbCircle
 10
-1148.8383138172
 20
527.6951879104
 30
0.0
 40
53.23677867444687
100
AcDbArc
 50
263.4025620353
 51
282.3605298005
  0
ARC
  5
1F8
330
1F
100
AcDbEntity
  8
0
  6
Continuous
 62
     7
370
    25
100
AcDbCircle
 10
-1247.7715219507
 20
537.596586685
 30
0.0
 40
62.06713103956173
100
AcDbArc
 50
261.5374928184
 51
274.4636530423
  0
LWPOLYLINE
  5
1F9
330
1F
100
AcDbEntity
  8
0
  6
Continuous
 62
     7
370
    25
100
AcDbPolyline
 90
        5
 70
   128
 43
0.0
 10
-1137.4423179347
 20
475.6924391226
 10
-1134.7846030965
 20
476.6799292837
 10
-1132.931917506
 20
477.7345446844
 10
-1131.9102955238
 20
478.848041137
 10
-1131.7973451142
 20
479.6467014699
  0
LWPOLYLINE
  5
1FA
330
1F
100
AcDbEntity
  8
0
  6
Continuous
 62
     7
370
    25
100
AcDbPolyline
 90
        8
 70
   128
 43
0.0
 10
-1279.792530192
 20
484.8469128635
 10
-1279.4830121936
 20
483.7724193599
 10
-1278.1883470672
 20
482.5172117718
 10
-1275.9398328944
 20
481.2445955669
 10
-1272.7429220345
 20
479.9732747491
 10
-1268.4036229097
 20
478.6641398355
 10
-1263.100030091
 20
477.4006127356
 10
-1256.9054571376
 20
476.2052193482
  0
ARC
  5
1FB
330
1F
100
AcDbEntity
  8
0
  6
Continuous
 62
     7
370
    25
100
AcDbCircle
 10
-874.5500684061
 20
491.2199850605
 30
0.0
 40
87.87830505764103
100
AcDbArc
 50
84.1526368848
 51
100.4715690432
  0
LWPOLYLINE
  5
1FC
330
1F
100
AcDbEntity
  8
0
  6
Continuous
 62
     7
370
    25
100
AcDbPolyline
 90
       16
 70
   128
 43
0.0
 10
-821.3786129244
 20
561.205314179
 10
-818.209963077
 20
562.3904055544
 10
-816.0417973089
 20
563.6463411957
 10
-815.037977549
 20
564.7115092426
 10
-814.7083511028
 20
565.7939972894
 10
-815.024471787
 20
566.8736627483
 10
-816.2112851777
 20
568.1545350097
 10
-818.194559125
 20
569.4079086903
 10
-820.8791908044
 20
570.6149570803
 10
-825.2495228262
 20
572.0892820951
 10
-830.525710095
 20
573.4716135901
 10
-836.5487098206
 20
574.7462625018
 10
-844.0113375528
 20
576.0341212391
 10
-852.1779209958
 20
577.1837902307
 10
-860.9032256344
 20
578.1843980986
 10
-865.5971432976
 20
578.6410444902
  0
LWPOLYLINE
  5
1FD
330
1F
100
AcDbEntity
  8
0
  6
Continuous
 62
     7
370
    25
100
AcDbPolyline
 90
       13
 70
   128
 43
0.0
 10
-848.3209433271
 20
559.8491744334
 10
-845.9831886567
 20
559.6528037431
 10
-843.5242598206
 20
559.5121777976
 10
-840.9850868675
 20
559.4296373831
 10
-838.4079355477
 20
559.4065564244
 10
-835.8357037799
 20
559.4433191151
 10
-833.3112075944
 20
559.5393135226
 10
-830.8764684397
 20
559.692941774
 10
-828.5720137157
 20
559.9016466535
 10
-826.4362021754
 20
560.1619541682
 10
-824.5045854254
 20
560.469531375
 10
-822.8093161519
 20
560.8192585038
 10
-821.3786129244
 20
561.205314179
  0
ARC
  5
1FE
330
1F
100
AcDbEntity
  8
0
  6
Continuous
 62
     7
370
    25
100
AcDbCircle
 10
-894.4407745108
 20
62.3807407791
 30
0.0
 40
499.6017226860666
100
AcDbArc
 50
84.7033024626
 51
94.1157887814
  0
ARC
  5
1FF
330
1F
100
AcDbEntity
  8
0
  6
Continuous
 62
     7
370
    25
100
AcDbCircle
 10
-937.7272637349
 20
655.9662074275
 30
0.0
 40
95.56139451926278
100
AcDbArc
 50
261.5424850347
 51
274.458660826
  0
LWPOLYLINE
  5
200
330
1F
100
AcDbEntity
  8
0
  6
Continuous
 62
     7
370
    25
100
AcDbPolyline
 90
       11
 70
   128
 43
0.0
 10
-976.8339451634
 20
571.1569468699
 10
-976.7422248294
 20
570.3871935451
 10
-976.3296505655
 20
569.616468796
 10
-975.3850034447
 20
568.6617849198
 10
-973.9980182279
 20
567.7245768965
 10
-972.1491817236
 20
566.7856837053
 10
-969.9076922628
 20
565.8747238885
 10
-966.2753928558
 20
564.6820985619
 10
-962.0555434247
 20
563.5533892445
 10
-957.1606991495
 20
562.4607470654
 10
-951.7820525039
 20
561.44402466
  0
LWPOLYLINE
  5
201
330
1F
100
AcDbEntity
  8
0
  6
Continuous
 62
     7
370
    25
100
AcDbPolyline
 90
       16
 70
   128
 43
0.0
 10
-950.1335526219
 20
574.4840191284
 10
-952.5621281674
 20
574.6088989787
 10
-955.0588896485
 20
574.6777502225
 10
-957.5840106659
 20
574.6894745983
 10
-960.0972124512
 20
574.643885088
 10
-962.5584063623
 20
574.5417089
 10
-964.9283333461
 20
574.3845758694
 10
-967.1691901687
 20
574.1749924604
 10
-969.2452324233
 20
573.9163017845
 10
-971.1233446968
 20
573.6126302745
 10
-972.7735688015
 20
573.2688218623
 10
-974.1695816447
 20
572.8903607126
 10
-975.2891151141
 20
572.4832837436
 10
-976.1143112818
 20
572.0540843308
 10
-976.6320072595
 20
571.6096087297
 10
-976.8339451634
 20
571.1569468699
  0
LWPOLYLINE
  5
202
330
1F
100
AcDbEntity
  8
0
  6
Continuous
 62
     7
370
    25
100
AcDbPolyline
 90
       18
 70
   128
 43
0.0
 10
-890.5217393034
 20
577.634695779
 10
-893.0200696351
 20
577.0949926809
 10
-895.7330842906
 20
576.5898992013
 10
-898.645994384
 20
576.1221686499
 10
-901.7429213812
 20
575.6943506679
 10
-905.0069836557
 20
575.3087773295
 10
-908.4203885114
 20
574.9675504294
 10
-911.9645291725
 20
574.6725300261
 10
-915.6200862107
 20
574.4253243023
 10
-919.367132857
 20
574.2272807985
 10
-923.1852436242
 20
574.0794790676
 10
-927.0536056484
 20
573.9827247901
 10
-930.9511321415
 20
573.9375453822
 10
-934.8565773372
 20
573.9441871209
 10
-938.7486523038
 20
574.0026138016
 10
-942.6061409919
 20
574.112506935
 10
-946.4080158849
 20
574.273267484
 10
-950.1335526219
 20
574.4840191284
  0
ARC
  5
203
330
1F
100
AcDbEntity
  8
0
  6
Continuous
 62
     7
370
    25
100
AcDbCircle
 10
-894.4362966555
 20
74.419658551
 30
0.0
 40
484.0712386278089
100
AcDbArc
 50
84.7048986564
 51
94.1141925876
  0
ARC
  5
204
330
1F
100
AcDbEntity
  8
0
  6
Continuous
 62
     7
370
    25
100
AcDbCircle
 10
-933.3965104637
 20
557.7659365389
 30
0.0
 40
4.262896058720681
100
AcDbArc
 50
352.9599922819
 51
43.3832207067
  0
ARC
  5
205
330
1F
100
AcDbEntity
  8
0
  6
Continuous
 62
     7
370
    25
100
AcDbCircle
 10
-846.0743820656
 20
556.8867336422
 30
0.0
 40
3.717942030647018
100
AcDbArc
 50
127.1747909623
 51
187.1314146466
  0
ARC
  5
206
330
1F
100
AcDbEntity
  8
0
  6
Continuous
 62
     7
370
    25
100
AcDbCircle
 10
-894.4192796359
 20
67.2175134652
 30
0.0
 40
482.4255156588178
100
AcDbArc
 50
84.6888130992
 51
94.1302781448
  0
LINE
  5
207
330
1F
100
AcDbEntity
  8
0
  6
Continuous
 62
     7
370
    25
100
AcDbLine
 10
-929.1657531781
 20
557.2434658724
 30
0.0
 11
-929.1657531781
 21
548.3901028082
 31
0.0
  0
LINE
  5
208
330
1F
100
AcDbEntity
  8
0
  6
Continuous
 62
     7
370
    25
100
AcDbLine
 10
-849.7635621688
 20
547.5718046464
 30
0.0
 11
-849.7635621688
 21
556.4251677106
 31
0.0
  0
ARC
  5
209
330
1F
100
AcDbEntity
  8
0
  6
Continuous
 62
     7
370
    25
100
AcDbCircle
 10
-821.9343523804
 20
558.098114143
 30
0.0
 40
3.156507311306086
100
AcDbArc
 50
357.9414204395
 51
79.8595624275
  0
LWPOLYLINE
  5
20A
330
1F
100
AcDbEntity
  8
0
  6
Continuous
 62
     7
370
    25
100
AcDbPolyline
 90
       14
 70
   128
 43
0.0
 10
-818.7798822056
 20
557.984728418
 10
-820.2874455625
 20
557.5735224557
 10
-822.0562596854
 20
557.1974567795
 10
-824.0612320966
 20
556.8618662743
 10
-826.2739201661
 20
556.5715116423
 10
-828.6629346001
 20
556.3305118674
 10
-831.194384731
 20
556.1422857835
 10
-833.8323592917
 20
556.0095035744
 10
-836.539435855
 20
555.9340488945
 10
-839.2772117094
 20
555.9169921474
 10
-842.0068486417
 20
555.9585753009
 10
-844.6896238981
 20
556.0582084545
 10
-847.2874795065
 20
556.2144782077
 10
-849.7635621688
 20
556.4251677106
  0
LWPOLYLINE
  5
20B
330
1F
100
AcDbEntity
  8
0
  6
Continuous
 62
     7
370
    25
100
AcDbPolyline
 90
       14
 70
   128
 43
0.0
 10
-849.7635621688
 20
547.5718046464
 10
-847.2874795065
 20
547.3611151434
 10
-844.6896238981
 20
547.2048453903
 10
-842.0068486417
 20
547.1052122367
 10
-839.2772117094
 20
547.0636290832
 10
-836.539435855
 20
547.0806858303
 10
-833.8323592917
 20
547.1561405102
 10
-831.194384731
 20
547.2889227193
 10
-828.6629346001
 20
547.4771488032
 10
-826.2739201661
 20
547.7181485781
 10
-824.0612320966
 20
548.0085032101
 10
-822.0562596854
 20
548.3440937153
 10
-820.2874455625
 20
548.7201593915
 10
-818.7798822056
 20
549.1313653537
  0
LINE
  5
20C
330
1F
100
AcDbEntity
  8
0
  6
Continuous
 62
     7
370
    25
100
AcDbLine
 10
-818.7798822056
 20
557.984728418
 30
0.0
 11
-818.7798822056
 21
549.1313653537
 31
0.0
  0
ARC
  5
20D
330
1F
100
AcDbEntity
  8
0
  6
Continuous
 62
     7
370
    25
100
AcDbCircle
 10
-937.7357477261
 20
666.04074202
 30
0.0
 40
109.1342847307728
100
AcDbArc
 50
261.4972397309
 51
274.5039061297
  0
ARC
  5
20E
330
1F
100
AcDbEntity
  8
0
  6
Continuous
 62
     7
370
    25
100
AcDbCircle
 10
-950.6226163878
 20
558.3948014842
 30
0.0
 40
3.262216130696305
100
AcDbArc
 50
110.8187976702
 51
185.0793453986
  0
ARC
  5
20F
330
1F
100
AcDbEntity
  8
0
  6
Continuous
 62
     7
370
    25
100
AcDbCircle
 10
-937.7357477261
 20
657.1873789558
 30
0.0
 40
109.134284730754
100
AcDbArc
 50
261.4972397309
 51
274.5039061297
  0
LINE
  5
210
330
1F
100
AcDbEntity
  8
0
  6
Continuous
 62
     7
370
    25
100
AcDbLine
 10
-953.8720219466
 20
549.2526173728
 30
0.0
 11
-953.8720219466
 21
558.1059804371
 31
0.0
  0
ARC
  5
211
330
1F
100
AcDbEntity
  8
0
  6
Continuous
 62
     7
370
    25
100
AcDbCircle
 10
-1184.5500684061
 20
434.5895691592
 30
0.0
 40
87.8783050576421
100
AcDbArc
 50
84.1526368848
 51
100.4715690432
  0
LWPOLYLINE
  5
212
330
1F
100
AcDbEntity
  8
0
  6
Continuous
 62
     7
370
    25
100
AcDbPolyline
 90
       16
 70
   128
 43
0.0
 10
-1131.3786129244
 20
504.5748982776
 10
-1128.209963077
 20
505.759989653
 10
-1126.0417973089
 20
507.0159252943
 10
-1125.037977549
 20
508.0810933412
 10
-1124.7083511028
 20
509.163581388
 10
-1125.024471787
 20
510.2432468469
 10
-1126.2112851777
 20
511.5241191084
 10
-1128.194559125
 20
512.7774927889
 10
-1130.8791908044
 20
513.984541179
 10
-1135.2495228262
 20
515.4588661937
 10
-1140.525710095
 20
516.8411976887
 10
-1146.5487098206
 20
518.1158466005
 10
-1154.0113375528
 20
519.4037053377
 10
-1162.1779209958
 20
520.5533743294
 10
-1170.9032256344
 20
521.5539821972
 10
-1175.5971432976
 20
522.0106285888
  0
LWPOLYLINE
  5
213
330
1F
100
AcDbEntity
  8
0
  6
Continuous
 62
     7
370
    25
100
AcDbPolyline
 90
       13
 70
   128
 43
0.0
 10
-1158.3209433271
 20
503.2187585321
 10
-1155.9831886567
 20
503.0223878417
 10
-1153.5242598206
 20
502.8817618962
 10
-1150.9850868675
 20
502.7992214817
 10
-1148.4079355477
 20
502.7761405231
 10
-1145.8357037799
 20
502.8129032138
 10
-1143.3112075944
 20
502.9088976213
 10
-1140.8764684397
 20
503.0625258727
 10
-1138.5720137157
 20
503.2712307521
 10
-1136.4362021754
 20
503.5315382669
 10
-1134.5045854254
 20
503.8391154736
 10
-1132.8093161519
 20
504.1888426024
 10
-1131.3786129244
 20
504.5748982776
  0
ARC
  5
214
330
1F
100
AcDbEntity
  8
0
  6
Continuous
 62
     7
370
    25
100
AcDbCircle
 10
-1204.4407745108
 20
5.7503248778
 30
0.0
 40
499.6017226860487
100
AcDbArc
 50
84.7033024626
 51
94.1157887814
  0
ARC
  5
215
330
1F
100
AcDbEntity
  8
0
  6
Continuous
 62
     7
370
    25
100
AcDbCircle
 10
-1247.7272637349
 20
599.3357915261
 30
0.0
 40
95.56139451923602
100
AcDbArc
 50
261.5424850347
 51
274.458660826
  0
LWPOLYLINE
  5
216
330
1F
100
AcDbEntity
  8
0
  6
Continuous
 62
     7
370
    25
100
AcDbPolyline
 90
       11
 70
   128
 43
0.0
 10
-1286.8339451634
 20
514.5265309685
 10
-1286.7422248294
 20
513.7567776438
 10
-1286.3296505655
 20
512.9860528946
 10
-1285.3850034447
 20
512.0313690184
 10
-1283.9980182279
 20
511.0941609952
 10
-1282.1491817236
 20
510.1552678039
 10
-1279.9076922628
 20
509.2443079872
 10
-1276.2753928558
 20
508.0516826606
 10
-1272.0555434247
 20
506.9229733431
 10
-1267.1606991495
 20
505.830331164
 10
-1261.7820525039
 20
504.8136087586
  0
LWPOLYLINE
  5
217
330
1F
100
AcDbEntity
  8
0
  6
Continuous
 62
     7
370
    25
100
AcDbPolyline
 90
       16
 70
   128
 43
0.0
 10
-1260.1335526219
 20
517.853603227
 10
-1262.5621281674
 20
517.9784830773
 10
-1265.0588896485
 20
518.0473343211
 10
-1267.5840106659
 20
518.0590586969
 10
-1270.0972124512
 20
518.0134691866
 10
-1272.5584063623
 20
517.9112929986
 10
-1274.9283333461
 20
517.7541599681
 10
-1277.1691901687
 20
517.544576559
 10
-1279.2452324233
 20
517.2858858832
 10
-1281.1233446968
 20
516.9822143731
 10
-1282.7735688015
 20
516.6384059609
 10
-1284.1695816447
 20
516.2599448112
 10
-1285.2891151141
 20
515.8528678422
 10
-1286.1143112818
 20
515.4236684294
 10
-1286.6320072595
 20
514.9791928284
 10
-1286.8339451634
 20
514.5265309685
  0
LWPOLYLINE
  5
218
330
1F
100
AcDbEntity
  8
0
  6
Continuous
 62
     7
370
    25
100
AcDbPolyline
 90
       18
 70
   128
 43
0.0
 10
-1200.5217393034
 20
521.0042798776
 10
-1203.0200696351
 20
520.4645767796
 10
-1205.7330842906
 20
519.9594832999
 10
-1208.645994384
 20
519.4917527485
 10
-1211.7429213812
 20
519.0639347665
 10
-1215.0069836557
 20
518.6783614281
 10
-1218.4203885114
 20
518.337134528
 10
-1221.9645291725
 20
518.0421141248
 10
-1225.6200862107
 20
517.794908401
 10
-1229.367132857
 20
517.5968648972
 10
-1233.1852436242
 20
517.4490631663
 10
-1237.0536056484
 20
517.3523088887
 10
-1240.9511321415
 20
517.3071294808
 10
-1244.8565773372
 20
517.3137712196
 10
-1248.7486523038
 20
517.3721979002
 10
-1252.6061409919
 20
517.4820910337
 10
-1256.4080158849
 20
517.6428515827
 10
-1260.1335526219
 20
517.853603227
  0
ARC
  5
219
330
1F
100
AcDbEntity
  8
0
  6
Continuous
 62
     7
370
    25
100
AcDbCircle
 10
-1204.4362966555
 20
17.7892426497
 30
0.0
 40
484.0712386277956
100
AcDbArc
 50
84.7048986564
 51
94.1141925876
  0
ARC
  5
21A
330
1F
100
AcDbEntity
  8
0
  6
Continuous
 62
     7
370
    25
100
AcDbCircle
 10
-1243.3965104637
 20
501.1355206375
 30
0.0
 40
4.262896058721325
100
AcDbArc
 50
352.9599922819
 51
43.3832207067
  0
ARC
  5
21B
330
1F
100
AcDbEntity
  8
0
  6
Continuous
 62
     7
370
    25
100
AcDbCircle
 10
-1156.0743820656
 20
500.2563177408
 30
0.0
 40
3.717942030646254
100
AcDbArc
 50
127.1747909623
 51
187.1314146466
  0
ARC
  5
21C
330
1F
100
AcDbEntity
  8
0
  6
Continuous
 62
     7
370
    25
100
AcDbCircle
 10
-1204.4192796359
 20
10.5870975638
 30
0.0
 40
482.4255156588157
100
AcDbArc
 50
84.6888130992
 51
94.1302781448
  0
LINE
  5
21D
330
1F
100
AcDbEntity
  8
0
  6
Continuous
 62
     7
370
    25
100
AcDbLine
 10
-1239.1657531781
 20
500.613049971
 30
0.0
 11
-1239.1657531781
 21
491.7596869068
 31
0.0
  0
LINE
  5
21E
330
1F
100
AcDbEntity
  8
0
  6
Continuous
 62
     7
370
    25
100
AcDbLine
 10
-1159.7635621688
 20
490.941388745
 30
0.0
 11
-1159.7635621688
 21
499.7947518092
 31
0.0
  0
ARC
  5
21F
330
1F
100
AcDbEntity
  8
0
  6
Continuous
 62
     7
370
    25
100
AcDbCircle
 10
-1131.9343523804
 20
501.4676982417
 30
0.0
 40
3.156507311305259
100
AcDbArc
 50
357.9414204395
 51
79.8595624275
  0
LWPOLYLINE
  5
220
330
1F
100
AcDbEntity
  8
0
  6
Continuous
 62
     7
370
    25
100
AcDbPolyline
 90
       14
 70
   128
 43
0.0
 10
-1128.7798822056
 20
501.3543125166
 10
-1130.2874455625
 20
500.9431065543
 10
-1132.0562596854
 20
500.5670408782
 10
-1134.0612320966
 20
500.231450373
 10
-1136.2739201661
 20
499.9410957409
 10
-1138.6629346001
 20
499.700095966
 10
-1141.194384731
 20
499.5118698821
 10
-1143.8323592917
 20
499.379087673
 10
-1146.539435855
 20
499.3036329932
 10
-1149.2772117094
 20
499.2865762461
 10
-1152.0068486417
 20
499.3281593996
 10
-1154.6896238981
 20
499.4277925531
 10
-1157.2874795065
 20
499.5840623063
 10
-1159.7635621688
 20
499.7947518092
  0
LWPOLYLINE
  5
221
330
1F
100
AcDbEntity
  8
0
  6
Continuous
 62
     7
370
    25
100
AcDbPolyline
 90
       14
 70
   128
 43
0.0
 10
-1159.7635621688
 20
490.941388745
 10
-1157.2874795065
 20
490.7306992421
 10
-1154.6896238981
 20
490.5744294889
 10
-1152.0068486417
 20
490.4747963354
 10
-1149.2772117094
 20
490.4332131819
 10
-1146.539435855
 20
490.4502699289
 10
-1143.8323592917
 20
490.5257246088
 10
-1141.194384731
 20
490.6585068179
 10
-1138.6629346001
 20
490.8467329018
 10
-1136.2739201661
 20
491.0877326767
 10
-1134.0612320966
 20
491.3780873087
 10
-1132.0562596854
 20
491.713677814
 10
-1130.2874455625
 20
492.0897434901
 10
-1128.7798822056
 20
492.5009494524
  0
LINE
  5
222
330
1F
100
AcDbEntity
  8
0
  6
Continuous
 62
     7
370
    25
100
AcDbLine
 10
-1128.7798822056
 20
501.3543125166
 30
0.0
 11
-1128.7798822056
 21
492.5009494524
 31
0.0
  0
ARC
  5
223
330
1F
100
AcDbEntity
  8
0
  6
Continuous
 62
     7
370
    25
100
AcDbCircle
 10
-1247.7357477261
 20
609.4103261187
 30
0.0
 40
109.1342847307548
100
AcDbArc
 50
261.4972397309
 51
274.5039061297
  0
ARC
  5
224
330
1F
100
AcDbEntity
  8
0
  6
Continuous
 62
     7
370
    25
100
AcDbCircle
 10
-1260.6226163878
 20
501.7643855828
 30
0.0
 40
3.26221613069596
100
AcDbArc
 50
110.8187976702
 51
185.0793453986
  0
ARC
  5
225
330
1F
100
AcDbEntity
  8
0
  6
Continuous
 62
     7
370
    25
100
AcDbCircle
 10
-1247.7357477261
 20
600.5569630544
 30
0.0
 40
109.1342847307559
100
AcDbArc
 50
261.4972397309
 51
274.5039061297
  0
LINE
  5
226
330
1F
100
AcDbEntity
  8
0
  6
Continuous
 62
     7
370
    25
100
AcDbLine
 10
-1263.8720219466
 20
492.6222014715
 30
0.0
 11
-1263.8720219466
 21
501.4755645357
 31
0.0
  0
ARC
  5
227
330
1F
100
AcDbEntity
  8
0
  6
Continuous
 62
     7
370
    25
100
AcDbCircle
 10
-1165.881598504
 20
545.1939368353
 30
0.0
 40
34.87954305234434
100
AcDbArc
 50
263.0623255767
 51
280.7865659664
  0
ARC
  5
228
330
1F
100
AcDbEntity
  8
0
  6
Continuous
 62
     7
370
    25
100
AcDbCircle
 10
-855.881598504
 20
601.8243527367
 30
0.0
 40
34.87954305234231
100
AcDbArc
 50
263.0623255767
 51
280.7865659664
  0
ARC
  5
229
330
1F
100
AcDbEntity
  8
0
  6
Continuous
 62
     7
370
    25
100
AcDbCircle
 10
-935.7619734586
 20
603.0522056466
 30
0.0
 40
36.10274040764629
100
AcDbArc
 50
261.0041019679
 51
278.7226825637
  0
ARC
  5
22A
330
1F
100
AcDbEntity
  8
0
  6
Continuous
 62
     7
370
    25
100
AcDbCircle
 10
-1245.7619734586
 20
546.4217897452
 30
0.0
 40
36.10274040764629
100
AcDbArc
 50
261.0041019679
 51
278.7226825637
  0
LWPOLYLINE
  5
22B
330
1F
100
AcDbEntity
  8
0
  6
Continuous
 62
     7
370
    25
100
AcDbPolyline
 90
       11
 70
   128
 43
0.0
 10
-1345.7726095183
 20
504.0905780266
 10
-1344.8455585352
 20
504.1169750727
 10
-1344.0092537614
 20
504.1935822841
 10
-1343.3455585352
 20
504.3129008133
 10
-1342.9194399694
 20
504.4632509313
 10
-1342.7726095183
 20
504.6299153209
 10
-1342.9194399694
 20
504.7965797106
 10
-1343.3455585352
 20
504.9469298285
 10
-1344.0092537614
 20
505.0662483577
 10
-1344.8455585352
 20
505.1428555691
 10
-1345.7726095183
 20
505.1692526152
  0
LWPOLYLINE
  5
22C
330
1F
100
AcDbEntity
  8
0
  6
Continuous
 62
     7
370
    25
100
AcDbPolyline
 90
       11
 70
   128
 43
0.0
 10
-1345.7726095183
 20
515.9559985012
 10
-1344.8455585352
 20
515.9823955473
 10
-1344.0092537614
 20
516.0590027587
 10
-1343.3455585352
 20
516.1783212879
 10
-1342.9194399694
 20
516.3286714058
 10
-1342.7726095183
 20
516.4953357955
 10
-1342.9194399694
 20
516.6620001851
 10
-1343.3455585352
 20
516.8123503031
 10
-1344.0092537614
 20
516.9316688323
 10
-1344.8455585352
 20
517.0082760437
 10
-1345.7726095183
 20
517.0346730898
  0
LWPOLYLINE
  5
22D
330
1F
100
AcDbEntity
  8
0
  6
Continuous
 62
     7
370
    25
100
AcDbPolyline
 90
       11
 70
   128
 43
0.0
 10
-1345.7726095183
 20
560.720993928
 10
-1344.8455585352
 20
560.7473909741
 10
-1344.0092537614
 20
560.8239981855
 10
-1343.3455585352
 20
560.9433167147
 10
-1342.9194399694
 20
561.0936668326
 10
-1342.7726095183
 20
561.2603312223
 10
-1342.9194399694
 20
561.4269956119
 10
-1343.3455585352
 20
561.5773457299
 10
-1344.0092537614
 20
561.6966642591
 10
-1344.8455585352
 20
561.7732714705
 10
-1345.7726095183
 20
561.7996685166
  0
LWPOLYLINE
  5
22E
330
1F
100
AcDbEntity
  8
0
  6
Continuous
 62
     7
370
    25
100
AcDbPolyline
 90
       16
 70
   128
 43
0.0
 10
-1252.7726095183
 20
545.7094392367
 10
-1252.613744484
 20
546.2544081894
 10
-1252.1388899396
 20
546.7934063482
 10
-1251.3532484908
 20
547.3205283365
 10
-1250.2654277899
 20
547.8299988955
 10
-1248.887346228
 20
548.3162361591
 10
-1247.2341023552
 20
548.7739128101
 10
-1245.3238094571
 20
549.1980144474
 10
-1243.1773971027
 20
549.5838945246
 10
-1240.8183818348
 20
549.927325259
 10
-1238.2726095183
 20
550.2245439514
 10
-1235.5679721675
 20
550.4722942117
 10
-1232.7341023552
 20
550.6678616362
 10
-1229.802048552
 20
550.8091035472
 10
-1226.803934953
 20
550.894472469
 10
-1223.7726095183
 20
550.9230330816
  0
LINE
  5
22F
330
1F
100
AcDbEntity
  8
0
  6
Continuous
 62
     7
370
    25
100
AcDbLine
 10
-1252.7726095183
 20
532.0462277811
 30
0.0
 11
-1252.7726095183
 21
545.7094392367
 31
0.0
  0
LWPOLYLINE
  5
230
330
1F
100
AcDbEntity
  8
0
  6
Continuous
 62
     7
370
    25
100
AcDbPolyline
 90
       16
 70
   128
 43
0.0
 10
-1223.7726095183
 20
526.8326339362
 10
-1226.803934953
 20
526.8611945488
 10
-1229.802048552
 20
526.9465634705
 10
-1232.7341023552
 20
527.0878053816
 10
-1235.5679721675
 20
527.2833728061
 10
-1238.2726095183
 20
527.5311230664
 10
-1240.8183818348
 20
527.8283417588
 10
-1243.1773971027
 20
528.1717724931
 10
-1245.3238094571
 20
528.5576525704
 10
-1247.2341023552
 20
528.9817542076
 10
-1248.887346228
 20
529.4394308587
 10
-1250.2654277899
 20
529.9256681223
 10
-1251.3532484908
 20
530.4351386813
 10
-1252.1388899396
 20
530.9622606696
 10
-1252.613744484
 20
531.5012588284
 10
-1252.7726095183
 20
532.0462277811
  0
LINE
  5
231
330
1F
100
AcDbEntity
  8
0
  6
Continuous
 62
     7
370
    25
100
AcDbLine
 10
-1147.7726095183
 20
526.8326339362
 30
0.0
 11
-1223.7726095183
 21
526.8326339362
 31
0.0
  0
LWPOLYLINE
  5
232
330
1F
100
AcDbEntity
  8
0
  6
Continuous
 62
     7
370
    25
100
AcDbPolyline
 90
       16
 70
   128
 43
0.0
 10
-1118.7726095183
 20
532.0462277811
 10
-1118.9314745526
 20
531.5012588284
 10
-1119.406329097
 20
530.9622606696
 10
-1120.1919705457
 20
530.4351386813
 10
-1121.2797912467
 20
529.9256681223
 10
-1122.6578728085
 20
529.4394308587
 10
-1124.3111166814
 20
528.9817542076
 10
-1126.2214095794
 20
528.5576525704
 10
-1128.3678219339
 20
528.1717724931
 10
-1130.7268372018
 20
527.8283417588
 10
-1133.2726095183
 20
527.5311230664
 10
-1135.9772468691
 20
527.2833728061
 10
-1138.8111166814
 20
527.0878053816
 10
-1141.7431704846
 20
526.9465634705
 10
-1144.7412840835
 20
526.8611945488
 10
-1147.7726095183
 20
526.8326339362
  0
LINE
  5
233
330
1F
100
AcDbEntity
  8
0
  6
Continuous
 62
     7
370
    25
100
AcDbLine
 10
-1118.7726095183
 20
545.7094392367
 30
0.0
 11
-1118.7726095183
 21
532.0462277811
 31
0.0
  0
LWPOLYLINE
  5
234
330
1F
100
AcDbEntity
  8
0
  6
Continuous
 62
     7
370
    25
100
AcDbPolyline
 90
       16
 70
   128
 43
0.0
 10
-1147.7726095183
 20
550.9230330816
 10
-1144.7412840835
 20
550.894472469
 10
-1141.7431704846
 20
550.8091035472
 10
-1138.8111166814
 20
550.6678616362
 10
-1135.9772468691
 20
550.4722942117
 10
-1133.2726095183
 20
550.2245439514
 10
-1130.7268372018
 20
549.927325259
 10
-1128.3678219339
 20
549.5838945246
 10
-1126.2214095794
 20
549.1980144474
 10
-1124.3111166814
 20
548.7739128101
 10
-1122.6578728085
 20
548.3162361591
 10
-1121.2797912467
 20
547.8299988955
 10
-1120.1919705457
 20
547.3205283365
 10
-1119.406329097
 20
546.7934063482
 10
-1118.9314745526
 20
546.2544081894
 10
-1118.7726095183
 20
545.7094392367
  0
LINE
  5
235
330
1F
100
AcDbEntity
  8
0
  6
Continuous
 62
     7
370
    25
100
AcDbLine
 10
-1223.7726095183
 20
550.9230330816
 30
0.0
 11
-1147.7726095183
 21
550.9230330816
 31
0.0
  0
LINE
  5
236
330
1F
100
AcDbEntity
  8
0
  6
Continuous
 62
     7
370
    25
100
AcDbLine
 10
-1121.7726095183
 20
530.0457622075
 30
0.0
 11
-1121.7726095183
 21
542.7583182153
 31
0.0
  0
ARC
  5
237
330
1F
100
AcDbEntity
  8
0
  6
Continuous
 62
     7
370
    25
100
AcDbCircle
 10
-1118.7968499114
 20
542.7336763322
 30
0.0
 40
2.975861633301062
100
AcDbArc
 50
89.5332822059
 51
179.5255518532
  0
ARC
  5
238
330
1F
100
AcDbEntity
  8
0
  6
Continuous
 62
     7
370
    25
100
AcDbCircle
 10
-1252.7483691252
 20
542.7336763322
 30
0.0
 40
2.975861633301536
100
AcDbArc
 50
0.4744481468
 51
90.4667177941
  0
LINE
  5
239
330
1F
100
AcDbEntity
  8
0
  6
Continuous
 62
     7
370
    25
100
AcDbLine
 10
-1249.7726095183
 20
542.7583182153
 30
0.0
 11
-1249.7726095183
 21
530.0426641556
 31
0.0
  0
LINE
  5
23A
330
1F
100
AcDbEntity
  8
0
  6
Continuous
 62
     7
370
    25
100
AcDbLine
 10
-1223.7726095183
 20
550.9230330816
 30
0.0
 11
-1223.7726095183
 21
547.4325747659
 31
0.0
  0
LWPOLYLINE
  5
23B
330
1F
100
AcDbEntity
  8
0
  6
Continuous
 62
     7
370
    25
100
AcDbPolyline
 90
       15
 70
   128
 43
0.0
 10
-1223.7726095183
 20
547.4325747659
 10
-1226.683685897
 20
547.4031840218
 10
-1229.5581538012
 20
547.3153813951
 10
-1232.3598651291
 20
547.1702710549
 10
-1235.0535867353
 20
546.9696778479
 10
-1237.6054435077
 20
546.71612435
 10
-1239.9833443666
 20
546.4127991436
 10
-1242.1573858291
 20
546.0635167192
 10
-1244.1002280625
 20
545.6726695058
 10
-1245.7874386982
 20
545.245172634
 10
-1247.1978000838
 20
544.786402125
 10
-1248.3135761063
 20
544.3021272841
 10
-1249.120735235
 20
543.7984381485
 10
-1249.6091269755
 20
543.2816689011
 10
-1249.7726095183
 20
542.7583182153
  0
LWPOLYLINE
  5
23C
330
1F
100
AcDbEntity
  8
0
  6
Continuous
 62
     7
370
    25
100
AcDbPolyline
 90
       15
 70
   128
 43
0.0
 10
-1121.7726095183
 20
542.7583182153
 10
-1121.9360920611
 20
543.2816689011
 10
-1122.4244838016
 20
543.7984381485
 10
-1123.2316429303
 20
544.3021272841
 10
-1124.3474189528
 20
544.786402125
 10
-1125.7577803384
 20
545.245172634
 10
-1127.4449909741
 20
545.6726695058
 10
-1129.3878332074
 20
546.0635167192
 10
-1131.56187467
 20
546.4127991436
 10
-1133.9397755289
 20
546.71612435
 10
-1136.4916323012
 20
546.9696778479
 10
-1139.1853539075
 20
547.1702710549
 10
-1141.9870652354
 20
547.3153813951
 10
-1144.8615331396
 20
547.4031840218
 10
-1147.7726095183
 20
547.4325747659
  0
LINE
  5
23D
330
1F
100
AcDbEntity
  8
0
  6
Continuous
 62
     7
370
    25
100
AcDbLine
 10
-1147.7726095183
 20
550.9230330816
 30
0.0
 11
-1147.7726095183
 21
547.4325747659
 31
0.0
  0
LINE
  5
23E
330
1F
100
AcDbEntity
  8
0
  6
Continuous
 62
     7
370
    25
100
AcDbLine
 10
-1223.7726095183
 20
538.5792117016
 30
0.0
 11
-1223.7726095183
 21
547.4325747659
 31
0.0
  0
LWPOLYLINE
  5
23F
330
1F
100
AcDbEntity
  8
0
  6
Continuous
 62
     7
370
    25
100
AcDbPolyline
 90
       15
 70
   128
 43
0.0
 10
-1249.7726095183
 20
533.904955151
 10
-1249.6091269755
 20
534.4283058369
 10
-1249.120735235
 20
534.9450750842
 10
-1248.3135761063
 20
535.4487642199
 10
-1247.1978000838
 20
535.9330390608
 10
-1245.7874386982
 20
536.3918095698
 10
-1244.1002280625
 20
536.8193064416
 10
-1242.1573858291
 20
537.210153655
 10
-1239.9833443666
 20
537.5594360794
 10
-1237.6054435077
 20
537.8627612858
 10
-1235.0535867353
 20
538.1163147837
 10
-1232.3598651291
 20
538.3169079907
 10
-1229.5581538012
 20
538.4620183309
 10
-1226.683685897
 20
538.5498209575
 10
-1223.7726095183
 20
538.5792117016
  0
LWPOLYLINE
  5
240
330
1F
100
AcDbEntity
  8
0
  6
Continuous
 62
     7
370
    25
100
AcDbPolyline
 90
       15
 70
   128
 43
0.0
 10
-1147.7726095183
 20
538.5792117016
 10
-1144.8615331396
 20
538.5498209575
 10
-1141.9870652354
 20
538.4620183309
 10
-1139.1853539075
 20
538.3169079907
 10
-1136.4916323012
 20
538.1163147837
 10
-1133.9397755289
 20
537.8627612858
 10
-1131.56187467
 20
537.5594360794
 10
-1129.3878332074
 20
537.210153655
 10
-1127.4449909741
 20
536.8193064416
 10
-1125.7577803384
 20
536.3918095698
 10
-1124.3474189528
 20
535.9330390608
 10
-1123.2316429303
 20
535.4487642199
 10
-1122.4244838016
 20
534.9450750842
 10
-1121.9360920611
 20
534.4283058369
 10
-1121.7726095183
 20
533.904955151
  0
LINE
  5
241
330
1F
100
AcDbEntity
  8
0
  6
Continuous
 62
     7
370
    25
100
AcDbLine
 10
-1147.7726095183
 20
538.5792117016
 30
0.0
 11
-1147.7726095183
 21
547.4325747659
 31
0.0
  0
LINE
  5
242
330
1F
100
AcDbEntity
  8
0
  6
Continuous
 62
     7
370
    25
100
AcDbLine
 10
-1147.7726095183
 20
547.4325747659
 30
0.0
 11
-1223.7726095183
 21
547.4325747659
 31
0.0
  0
LINE
  5
243
330
1F
100
AcDbEntity
  8
0
  6
Continuous
 62
     7
370
    25
100
AcDbLine
 10
-1223.7726095183
 20
538.5792117016
 30
0.0
 11
-1147.7726095183
 21
538.5792117016
 31
0.0
  0
ARC
  5
244
330
1F
100
AcDbEntity
  8
0
  6
Continuous
 62
     7
370
    25
100
AcDbCircle
 10
-743.7483691252
 20
579.6398226738
 30
0.0
 40
2.975861633300628
100
AcDbArc
 50
0.4744481468
 51
90.4667177941
  0
LINE
  5
245
330
1F
100
AcDbEntity
  8
0
  6
Continuous
 62
     7
370
    25
100
AcDbLine
 10
-740.7726095183
 20
579.6644645569
 30
0.0
 11
-740.7726095183
 21
509.4169439983
 31
0.0
  0
ARC
  5
246
330
1F
100
AcDbEntity
  8
0
  6
Continuous
 62
     7
370
    25
100
AcDbCircle
 10
-752.7968499114
 20
579.6398226738
 30
0.0
 40
2.975861633300628
100
AcDbArc
 50
89.5332822059
 51
179.5255518532
  0
LINE
  5
247
330
1F
100
AcDbEntity
  8
0
  6
Continuous
 62
     7
370
    25
100
AcDbLine
 10
-755.7726095183
 20
514.2075545443
 30
0.0
 11
-755.7726095183
 21
579.6644645569
 31
0.0
  0
LINE
  5
248
330
1F
100
AcDbEntity
  8
0
  6
Continuous
 62
     7
370
    25
100
AcDbLine
 10
-743.7726095183
 20
582.6155855783
 30
0.0
 11
-752.7726095183
 21
582.6155855783
 31
0.0
  0
LINE
  5
249
330
1F
100
AcDbEntity
  8
0
  6
Continuous
 62
     7
370
    25
100
AcDbLine
 10
-755.7726095183
 20
579.6644645569
 30
0.0
 11
-755.7726095183
 21
579.778515507
 31
0.0
  0
LINE
  5
24A
330
1F
100
AcDbEntity
  8
0
  6
Continuous
 62
     7
370
    25
100
AcDbLine
 10
-740.7726095183
 20
579.778515507
 30
0.0
 11
-740.7726095183
 21
579.6644645569
 31
0.0
  0
ARC
  5
24B
330
1F
100
AcDbEntity
  8
0
  6
Continuous
 62
     7
370
    25
100
AcDbCircle
 10
-1348.7483691252
 20
579.6398226738
 30
0.0
 40
2.975861633300602
100
AcDbArc
 50
0.4744481468
 51
90.4667177941
  0
LINE
  5
24C
330
1F
100
AcDbEntity
  8
0
  6
Continuous
 62
     7
370
    25
100
AcDbLine
 10
-1345.7726095183
 20
579.6644645569
 30
0.0
 11
-1345.7726095183
 21
502.2968489024
 31
0.0
  0
ARC
  5
24D
330
1F
100
AcDbEntity
  8
0
  6
Continuous
 62
     7
370
    25
100
AcDbCircle
 10
-1357.7968499114
 20
579.6398226738
 30
0.0
 40
2.975861633301421
100
AcDbArc
 50
89.5332822059
 51
179.5255518532
  0
LINE
  5
24E
330
1F
100
AcDbEntity
  8
0
  6
Continuous
 62
     7
370
    25
100
AcDbLine
 10
-1360.7726095183
 20
507.0874594484
 30
0.0
 11
-1360.7726095183
 21
579.6644645569
 31
0.0
  0
LINE
  5
24F
330
1F
100
AcDbEntity
  8
0
  6
Continuous
 62
     7
370
    25
100
AcDbLine
 10
-1348.7726095183
 20
582.6155855783
 30
0.0
 11
-1357.7726095183
 21
582.6155855783
 31
0.0
  0
LINE
  5
250
330
1F
100
AcDbEntity
  8
0
  6
Continuous
 62
     7
370
    25
100
AcDbLine
 10
-1360.7726095183
 20
579.6644645569
 30
0.0
 11
-1360.7726095183
 21
579.778515507
 31
0.0
  0
LINE
  5
251
330
1F
100
AcDbEntity
  8
0
  6
Continuous
 62
     7
370
    25
100
AcDbLine
 10
-1345.7726095183
 20
579.778515507
 30
0.0
 11
-1345.7726095183
 21
579.6644645569
 31
0.0
  0
LINE
  5
252
330
1F
100
AcDbEntity
  8
0
  6
Continuous
 62
     7
370
    25
100
AcDbLine
 10
-1044.7726095183
 20
12.6371798826
 30
0.0
 11
-1056.7726095183
 21
12.6371798826
 31
0.0
  0
LINE
  5
253
330
1F
100
AcDbEntity
  8
0
  6
Continuous
 62
     7
370
    25
100
AcDbLine
 10
-1056.7726095183
 20
8.3882717415
 30
0.0
 11
-1056.7726095183
 21
12.6371798826
 31
0.0
  0
LINE
  5
254
330
1F
100
AcDbEntity
  8
0
  6
Continuous
 62
     7
370
    25
100
AcDbLine
 10
-1044.7726095183
 20
8.3860215618
 30
0.0
 11
-1044.7726095183
 21
12.6371798826
 31
0.0
  0
LINE
  5
255
330
1F
100
AcDbEntity
  8
0
  6
Continuous
 62
     7
370
    25
100
AcDbLine
 10
-1044.7726095183
 20
24.6371798826
 30
0.0
 11
-1056.7726095183
 21
24.6371798826
 31
0.0
  0
LINE
  5
256
330
1F
100
AcDbEntity
  8
0
  6
Continuous
 62
     7
370
    25
100
AcDbLine
 10
-1056.7726095183
 20
24.6371798826
 30
0.0
 11
-1056.7726095183
 21
28.8883382034
 31
0.0
  0
LINE
  5
257
330
1F
100
AcDbEntity
  8
0
  6
Continuous
 62
     7
370
    25
100
AcDbLine
 10
-1044.7726095183
 20
24.6371798826
 30
0.0
 11
-1044.7726095183
 21
28.8860880237
 31
0.0
  0
LINE
  5
258
330
1F
100
AcDbEntity
  8
0
  6
Continuous
 62
     7
370
    25
100
AcDbLine
 10
-1044.7726095183
 20
107.860740219
 30
0.0
 11
-1056.7726095183
 21
107.860740219
 31
0.0
  0
LINE
  5
259
330
1F
100
AcDbEntity
  8
0
  6
Continuous
 62
     7
370
    25
100
AcDbLine
 10
-1056.7726095183
 20
66.9031380046
 30
0.0
 11
-1044.7726095183
 21
66.9031380046
 31
0.0
  0
LINE
  5
25A
330
1F
100
AcDbEntity
  8
0
  6
Continuous
 62
     7
370
    25
100
AcDbLine
 10
-1056.7726095183
 20
107.860740219
 30
0.0
 11
-1056.7726095183
 21
66.9031380046
 31
0.0
  0
LINE
  5
25B
330
1F
100
AcDbEntity
  8
0
  6
Continuous
 62
     7
370
    25
100
AcDbLine
 10
-1044.7726095183
 20
66.9031380046
 30
0.0
 11
-1044.7726095183
 21
107.860740219
 31
0.0
  0
LINE
  5
25C
330
1F
100
AcDbEntity
  8
0
  6
Continuous
 62
     7
370
    25
100
AcDbLine
 10
-1044.7726095183
 20
-70.5863804538
 30
0.0
 11
-1056.7726095183
 21
-70.5863804538
 31
0.0
  0
LINE
  5
25D
330
1F
100
AcDbEntity
  8
0
  6
Continuous
 62
     7
370
    25
100
AcDbLine
 10
-1056.7726095183
 20
-29.6287782394
 30
0.0
 11
-1044.7726095183
 21
-29.6287782394
 31
0.0
  0
LINE
  5
25E
330
1F
100
AcDbEntity
  8
0
  6
Continuous
 62
     7
370
    25
100
AcDbLine
 10
-1056.7726095183
 20
-70.5863804538
 30
0.0
 11
-1056.7726095183
 21
-29.6287782394
 31
0.0
  0
LINE
  5
25F
330
1F
100
AcDbEntity
  8
0
  6
Continuous
 62
     7
370
    25
100
AcDbLine
 10
-1044.7726095183
 20
-29.6287782394
 30
0.0
 11
-1044.7726095183
 21
-70.5863804538
 31
0.0
  0
LINE
  5
260
330
1F
100
AcDbEntity
  8
0
  6
Continuous
 62
     7
370
    25
100
AcDbLine
 10
-1044.7726095183
 20
230.7335468624
 30
0.0
 11
-1056.7726095183
 21
230.7335468624
 31
0.0
  0
LINE
  5
261
330
1F
100
AcDbEntity
  8
0
  6
Continuous
 62
     7
370
    25
100
AcDbLine
 10
-1056.7726095183
 20
189.7759446479
 30
0.0
 11
-1044.7726095183
 21
189.7759446479
 31
0.0
  0
LINE
  5
262
330
1F
100
AcDbEntity
  8
0
  6
Continuous
 62
     7
370
    25
100
AcDbLine
 10
-1056.7726095183
 20
230.7335468624
 30
0.0
 11
-1056.7726095183
 21
189.7759446479
 31
0.0
  0
LINE
  5
263
330
1F
100
AcDbEntity
  8
0
  6
Continuous
 62
     7
370
    25
100
AcDbLine
 10
-1044.7726095183
 20
189.7759446479
 30
0.0
 11
-1044.7726095183
 21
230.7335468624
 31
0.0
  0
LINE
  5
264
330
1F
100
AcDbEntity
  8
0
  6
Continuous
 62
     7
370
    25
100
AcDbLine
 10
-1056.7726095183
 20
-152.5015848827
 30
0.0
 11
-1044.7726095183
 21
-152.5015848827
 31
0.0
  0
LINE
  5
265
330
1F
100
AcDbEntity
  8
0
  6
Continuous
 62
     7
370
    25
100
AcDbLine
 10
-1044.7726095183
 20
-193.4591870972
 30
0.0
 11
-1056.7726095183
 21
-193.4591870972
 31
0.0
  0
LINE
  5
266
330
1F
100
AcDbEntity
  8
0
  6
Continuous
 62
     7
370
    25
100
AcDbLine
 10
-1056.7726095183
 20
-193.4591870972
 30
0.0
 11
-1056.7726095183
 21
-152.5015848827
 31
0.0
  0
LINE
  5
267
330
1F
100
AcDbEntity
  8
0
  6
Continuous
 62
     7
370
    25
100
AcDbLine
 10
-1044.7726095183
 20
-152.5015848827
 30
0.0
 11
-1044.7726095183
 21
-193.4591870972
 31
0.0
  0
ARC
  5
268
330
1F
100
AcDbEntity
  8
0
  6
Continuous
 62
     7
370
    25
100
AcDbCircle
 10
-1050.7726095183
 20
-18.2187847863
 30
0.0
 40
19.31330494353144
100
AcDbArc
 50
47.0663214508
 51
132.9336785492
  0
ARC
  5
269
330
1F
100
AcDbEntity
  8
0
  6
Continuous
 62
     7
370
    25
100
AcDbCircle
 10
-1061.4042447133
 20
0.1698802854
 30
0.0
 40
4.941574253023615
100
AcDbArc
 50
191.336106356
 51
239.2897157721
  0
ARC
  5
26A
330
1F
100
AcDbEntity
  8
0
  6
Continuous
 62
     7
370
    25
100
AcDbCircle
 10
-1050.7726095183
 20
-17.4031295159
 30
0.0
 40
22.69685096711997
100
AcDbArc
 50
47.008321224
 51
132.991678776
  0
ARC
  5
26B
330
1F
100
AcDbEntity
  8
0
  6
Continuous
 62
     7
370
    25
100
AcDbCircle
 10
-1040.1409743233
 20
0.1698802854
 30
0.0
 40
4.941574253020843
100
AcDbArc
 50
300.7102842279
 51
348.663893644
  0
ARC
  5
26C
330
1F
100
AcDbEntity
  8
0
  6
Continuous
 62
     7
370
    25
100
AcDbCircle
 10
-1054.0193519645
 20
-67.8277074126
 30
0.0
 40
2.769685683095469
100
AcDbArc
 50
186.2435463851
 51
275.1110737956
  0
LINE
  5
26D
330
1F
100
AcDbEntity
  8
0
  6
Continuous
 62
     7
370
    25
100
AcDbLine
 10
-1053.7726095183
 20
-70.5863804538
 30
0.0
 11
-1047.7726095183
 21
-70.5863804538
 31
0.0
  0
ARC
  5
26E
330
1F
100
AcDbEntity
  8
0
  6
Continuous
 62
     7
370
    25
100
AcDbCircle
 10
-1047.525867072
 20
-67.8277074126
 30
0.0
 40
2.769685683095636
100
AcDbArc
 50
264.8889262044
 51
353.7564536149
  0
LINE
  5
26F
330
1F
100
AcDbEntity
  8
0
  6
Continuous
 62
     7
370
    25
100
AcDbLine
 10
-1044.7726095183
 20
-68.128924321
 30
0.0
 11
-1044.7726095183
 21
-32.0862343723
 31
0.0
  0
ARC
  5
270
330
1F
100
AcDbEntity
  8
0
  6
Continuous
 62
     7
370
    25
100
AcDbCircle
 10
-1047.525867072
 20
-32.3874512806
 30
0.0
 40
2.769685683095974
100
AcDbArc
 50
6.2435463851
 51
95.1110737956
  0
LINE
  5
271
330
1F
100
AcDbEntity
  8
0
  6
Continuous
 62
     7
370
    25
100
AcDbLine
 10
-1047.7726095183
 20
-29.6287782394
 30
0.0
 11
-1053.7726095183
 21
-29.6287782394
 31
0.0
  0
ARC
  5
272
330
1F
100
AcDbEntity
  8
0
  6
Continuous
 62
     7
370
    25
100
AcDbCircle
 10
-1054.0193519645
 20
-32.3874512806
 30
0.0
 40
2.769685683095455
100
AcDbArc
 50
84.8889262044
 51
173.7564536149
  0
LINE
  5
273
330
1F
100
AcDbEntity
  8
0
  6
Continuous
 62
     7
370
    25
100
AcDbLine
 10
-1056.7726095183
 20
-32.0862343723
 30
0.0
 11
-1056.7726095183
 21
-68.128924321
 31
0.0
  0
ARC
  5
274
330
1F
100
AcDbEntity
  8
0
  6
Continuous
 62
     7
370
    25
100
AcDbCircle
 10
-1054.0193519645
 20
-190.700514056
 30
0.0
 40
2.769685683096432
100
AcDbArc
 50
186.2435463851
 51
275.1110737956
  0
LINE
  5
275
330
1F
100
AcDbEntity
  8
0
  6
Continuous
 62
     7
370
    25
100
AcDbLine
 10
-1053.7726095183
 20
-193.4591870972
 30
0.0
 11
-1047.7726095183
 21
-193.4591870972
 31
0.0
  0
ARC
  5
276
330
1F
100
AcDbEntity
  8
0
  6
Continuous
 62
     7
370
    25
100
AcDbCircle
 10
-1047.525867072
 20
-190.700514056
 30
0.0
 40
2.769685683095416
100
AcDbArc
 50
264.8889262044
 51
353.7564536149
  0
LINE
  5
277
330
1F
100
AcDbEntity
  8
0
  6
Continuous
 62
     7
370
    25
100
AcDbLine
 10
-1044.7726095183
 20
-191.0017309643
 30
0.0
 11
-1044.7726095183
 21
-154.9590410156
 31
0.0
  0
ARC
  5
278
330
1F
100
AcDbEntity
  8
0
  6
Continuous
 62
     7
370
    25
100
AcDbCircle
 10
-1047.525867072
 20
-155.260257924
 30
0.0
 40
2.769685683095259
100
AcDbArc
 50
6.2435463851
 51
95.1110737956
  0
LINE
  5
279
330
1F
100
AcDbEntity
  8
0
  6
Continuous
 62
     7
370
    25
100
AcDbLine
 10
-1047.7726095183
 20
-152.5015848827
 30
0.0
 11
-1053.7726095183
 21
-152.5015848827
 31
0.0
  0
ARC
  5
27A
330
1F
100
AcDbEntity
  8
0
  6
Continuous
 62
     7
370
    25
100
AcDbCircle
 10
-1054.0193519645
 20
-155.260257924
 30
0.0
 40
2.769685683095921
100
AcDbArc
 50
84.8889262044
 51
173.7564536149
  0
LINE
  5
27B
330
1F
100
AcDbEntity
  8
0
  6
Continuous
 62
     7
370
    25
100
AcDbLine
 10
-1056.7726095183
 20
-154.9590410156
 30
0.0
 11
-1056.7726095183
 21
-191.0017309643
 31
0.0
  0
LWPOLYLINE
  5
27C
330
1F
100
AcDbEntity
  8
0
  6
Continuous
 62
     7
370
    25
100
AcDbPolyline
 90
       17
 70
   128
 43
0.0
 10
-640.0528966866
 20
-442.9472094118
 10
-637.5680669072
 20
-441.6542252412
 10
-635.2698461871
 20
-440.1473326813
 10
-633.1855542196
 20
-438.4444446516
 10
-631.3399676578
 20
-436.565803933
 10
-629.7550255861
 20
-434.5337425356
 10
-628.449568724
 20
-432.3724162308
 10
-627.4391154593
 20
-430.1075174036
 10
-626.7356773772
 20
-427.7659696392
 10
-626.3476164735
 20
-425.3756076735
 10
-626.279545754
 20
-422.9648465125
 10
-626.5322743971
 20
-420.5623436544
 10
-627.1027981359
 20
-418.1966584277
 10
-627.9843349699
 20
-415.8959124983
 10
-629.1664057856
 20
-413.6874555775
 10
-630.6349589249
 20
-411.5975403072
 10
-632.3725372212
 20
-409.6510101864
  0
LINE
  5
27D
330
1F
100
AcDbEntity
  8
0
  6
Continuous
 62
     7
370
    25
100
AcDbLine
 10
-702.863900064
 20
-471.8205915414
 30
0.0
 11
-640.0528966866
 21
-442.9472094118
 31
0.0
  0
ARC
  5
27E
330
1F
100
AcDbEntity
  8
0
  6
Continuous
 62
     7
370
    25
100
AcDbCircle
 10
-716.0989629146
 20
-442.3736506991
 30
0.0
 40
32.28450423391315
100
AcDbArc
 50
252.3549659556
 51
294.201752952
  0
LINE
  5
27F
330
1F
100
AcDbEntity
  8
0
  6
Continuous
 62
     7
370
    25
100
AcDbLine
 10
-889.2166510076
 20
-420.9753709703
 30
0.0
 11
-725.885009484
 21
-473.1392565955
 31
0.0
  0
ARC
  5
280
330
1F
100
AcDbEntity
  8
0
  6
Continuous
 62
     7
370
    25
100
AcDbCircle
 10
-901.2116115163
 20
-458.947453255
 30
0.0
 40
39.82157845488194
100
AcDbArc
 50
72.4692499907
 51
98.839590779
  0
LINE
  5
281
330
1F
100
AcDbEntity
  8
0
  6
Continuous
 62
     7
370
    25
100
AcDbLine
 10
-1312.9488613109
 20
-482.38055651
 30
0.0
 11
-907.330939921
 21
-419.598858229
 31
0.0
  0
ARC
  5
282
330
1F
100
AcDbEntity
  8
0
  6
Continuous
 62
     7
370
    25
100
AcDbCircle
 10
-1317.9555845511
 20
-450.1862514888
 30
0.0
 40
32.58129146308311
100
AcDbArc
 50
252.4692499907
 51
278.839590779
  0
LINE
  5
283
330
1F
100
AcDbEntity
  8
0
  6
Continuous
 62
     7
370
    25
100
AcDbLine
 10
-1454.5785778329
 20
-440.7548374911
 30
0.0
 11
-1327.7696431491
 21
-481.2543188127
 31
0.0
  0
LWPOLYLINE
  5
284
330
1F
100
AcDbEntity
  8
0
  6
Continuous
 62
     7
370
    25
100
AcDbPolyline
 90
       19
 70
   128
 43
0.0
 10
-1465.6644802727
 20
-406.1399732117
 10
-1467.337593367
 20
-408.00572918
 10
-1468.7634598918
 20
-410.0045241561
 10
-1469.9264577549
 20
-412.1144589237
 10
-1470.8138449084
 20
-414.3124165962
 10
-1471.4158989531
 20
-416.5743158892
 10
-1471.7260236587
 20
-418.8753749609
 10
-1471.7408212341
 20
-421.1903829264
 10
-1471.4601295539
 20
-423.493976074
 10
-1470.887023935
 20
-425.7609157553
 10
-1470.0277834425
 20
-427.9663649045
 10
-1468.8918220949
 20
-430.0861601595
 10
-1467.4915857226
 20
-432.0970765996
 10
-1465.8424156082
 20
-433.9770822037
 10
-1463.9623804047
 20
-435.7055792368
 10
-1461.872078171
 20
-437.2636299239
 10
-1459.594410696
 20
-438.6341639354
 10
-1457.1543325812
 20
-439.802165414
 10
-1454.5785778329
 20
-440.7548374911
  0
LINE
  5
285
330
1F
100
AcDbEntity
  8
0
  6
Continuous
 62
     7
370
    25
100
AcDbLine
 10
-1063.9278930836
 20
-4.0786906509
 30
0.0
 11
-1465.6644802727
 21
-406.1399732117
 31
0.0
  0
LINE
  5
286
330
1F
100
AcDbEntity
  8
0
  6
Continuous
 62
     7
370
    25
100
AcDbLine
 10
-632.3725372212
 20
-409.6510101864
 30
0.0
 11
-1037.6173259529
 21
-4.0786906509
 31
0.0
  0
LINE
  5
287
330
1F
100
AcDbEntity
  8
0
  6
Continuous
 62
     7
370
    25
100
AcDbLine
 10
-1066.2494137128
 20
-0.801455632
 30
0.0
 11
-1066.2494137128
 21
2.6400029861
 31
0.0
  0
ARC
  5
288
330
1F
100
AcDbEntity
  8
0
  6
Continuous
 62
     7
370
    25
100
AcDbCircle
 10
-1050.7726095183
 20
-13.9616708978
 30
0.0
 40
22.69685096711997
100
AcDbArc
 50
47.008321224
 51
132.991678776
  0
LINE
  5
289
330
1F
100
AcDbEntity
  8
0
  6
Continuous
 62
     7
370
    25
100
AcDbLine
 10
-1035.2958053238
 20
2.6400029861
 30
0.0
 11
-1035.2958053238
 21
-0.801455632
 31
0.0
  0
LINE
  5
28A
330
1F
100
AcDbEntity
  8
0
  6
Continuous
 62
     7
370
    25
100
AcDbLine
 10
-1467.9860009019
 20
-402.8627381928
 30
0.0
 11
-1066.2494137128
 21
-0.801455632
 31
0.0
  0
ARC
  5
28B
330
1F
100
AcDbEntity
  8
0
  6
Continuous
 62
     7
370
    25
100
AcDbCircle
 10
-1463.1408319024
 20
-401.8914022754
 30
0.0
 40
4.941574253024537
100
AcDbArc
 50
191.3361063561
 51
239.2897157721
  0
LINE
  5
28C
330
1F
100
AcDbEntity
  8
0
  6
Continuous
 62
     7
370
    25
100
AcDbLine
 10
-1035.2958053238
 20
-0.801455632
 30
0.0
 11
-630.051016592
 21
-406.3737751675
 31
0.0
  0
ARC
  5
28D
330
1F
100
AcDbEntity
  8
0
  6
Continuous
 62
     7
370
    25
100
AcDbCircle
 10
-634.8961855915
 20
-405.4024392501
 30
0.0
 40
4.941574253023177
100
AcDbArc
 50
300.7102842279
 51
348.663893644
  0
LINE
  5
28E
330
1F
100
AcDbEntity
  8
0
  6
Continuous
 62
     7
370
    25
100
AcDbLine
 10
-630.051016592
 20
-402.9323165494
 30
0.0
 11
-1035.2958053238
 21
2.6400029861
 31
0.0
  0
LINE
  5
28F
330
1F
100
AcDbEntity
  8
0
  6
Continuous
 62
     7
370
    25
100
AcDbLine
 10
-630.051016592
 20
-406.3737751675
 30
0.0
 11
-630.051016592
 21
-402.9323165494
 31
0.0
  0
LINE
  5
290
330
1F
100
AcDbEntity
  8
0
  6
Continuous
 62
     7
370
    25
100
AcDbLine
 10
-1467.9860009019
 20
-399.4212795747
 30
0.0
 11
-1467.9860009019
 21
-402.8627381928
 31
0.0
  0
LINE
  5
291
330
1F
100
AcDbEntity
  8
0
  6
Continuous
 62
     7
370
    25
100
AcDbLine
 10
-1066.2494137128
 20
2.6400029861
 30
0.0
 11
-1467.9860009019
 21
-399.4212795747
 31
0.0
  0
LWPOLYLINE
  5
292
330
1F
100
AcDbEntity
  8
0
  6
Continuous
 62
     7
370
    25
100
AcDbPolyline
 90
        3
 70
   128
 43
0.0
 10
-1474.7671440859
 20
-418.8111533072
 10
-1474.7696998926
 20
-418.6377314311
 10
-1474.7707946101
 20
-418.4277952916
  0
LINE
  5
293
330
1F
100
AcDbEntity
  8
0
  6
Continuous
 62
     7
370
    25
100
AcDbLine
 10
-1474.7608691757
 20
-414.3542465845
 30
0.0
 11
-1474.7707946101
 21
-414.9863366735
 31
0.0
  0
LINE
  5
294
330
1F
100
AcDbEntity
  8
0
  6
Continuous
 62
     7
370
    25
100
AcDbLine
 10
-623.2662228838
 20
-421.9388322663
 30
0.0
 11
-623.2751073853
 21
-422.5368643988
 31
0.0
  0
ARC
  5
295
330
1F
100
AcDbEntity
  8
0
  6
Continuous
 62
     7
370
    25
100
AcDbCircle
 10
-1050.7726095183
 20
55.4931445515
 30
0.0
 40
19.3133049435313
100
AcDbArc
 50
227.0663214508
 51
312.9336785492
  0
ARC
  5
296
330
1F
100
AcDbEntity
  8
0
  6
Continuous
 62
     7
370
    25
100
AcDbCircle
 10
-1040.1409743233
 20
37.1044794798
 30
0.0
 40
4.941574253024476
100
AcDbArc
 50
11.3361063561
 51
59.2897157721
  0
ARC
  5
297
330
1F
100
AcDbEntity
  8
0
  6
Continuous
 62
     7
370
    25
100
AcDbCircle
 10
-1050.7726095183
 20
54.6774892811
 30
0.0
 40
22.69685096712048
100
AcDbArc
 50
227.008321224
 51
312.991678776
  0
ARC
  5
298
330
1F
100
AcDbEntity
  8
0
  6
Continuous
 62
     7
370
    25
100
AcDbCircle
 10
-1061.4042447133
 20
37.1044794798
 30
0.0
 40
4.941574253024988
100
AcDbArc
 50
120.7102842279
 51
168.6638936439
  0
ARC
  5
299
330
1F
100
AcDbEntity
  8
0
  6
Continuous
 62
     7
370
    25
100
AcDbCircle
 10
-1047.525867072
 20
105.1020671778
 30
0.0
 40
2.76968568309541
100
AcDbArc
 50
6.2435463851
 51
95.1110737956
  0
LINE
  5
29A
330
1F
100
AcDbEntity
  8
0
  6
Continuous
 62
     7
370
    25
100
AcDbLine
 10
-1047.7726095183
 20
107.860740219
 30
0.0
 11
-1053.7726095183
 21
107.860740219
 31
0.0
  0
ARC
  5
29B
330
1F
100
AcDbEntity
  8
0
  6
Continuous
 62
     7
370
    25
100
AcDbCircle
 10
-1054.0193519645
 20
105.1020671778
 30
0.0
 40
2.769685683095441
100
AcDbArc
 50
84.8889262044
 51
173.7564536149
  0
LINE
  5
29C
330
1F
100
AcDbEntity
  8
0
  6
Continuous
 62
     7
370
    25
100
AcDbLine
 10
-1056.7726095183
 20
105.4032840862
 30
0.0
 11
-1056.7726095183
 21
69.3605941375
 31
0.0
  0
ARC
  5
29D
330
1F
100
AcDbEntity
  8
0
  6
Continuous
 62
     7
370
    25
100
AcDbCircle
 10
-1054.0193519645
 20
69.6618110458
 30
0.0
 40
2.769685683095914
100
AcDbArc
 50
186.2435463851
 51
275.1110737956
  0
LINE
  5
29E
330
1F
100
AcDbEntity
  8
0
  6
Continuous
 62
     7
370
    25
100
AcDbLine
 10
-1053.7726095183
 20
66.9031380046
 30
0.0
 11
-1047.7726095183
 21
66.9031380046
 31
0.0
  0
ARC
  5
29F
330
1F
100
AcDbEntity
  8
0
  6
Continuous
 62
     7
370
    25
100
AcDbCircle
 10
-1047.525867072
 20
69.6618110458
 30
0.0
 40
2.769685683095638
100
AcDbArc
 50
264.8889262044
 51
353.7564536149
  0
LINE
  5
2A0
330
1F
100
AcDbEntity
  8
0
  6
Continuous
 62
     7
370
    25
100
AcDbLine
 10
-1044.7726095183
 20
69.3605941375
 30
0.0
 11
-1044.7726095183
 21
105.4032840862
 31
0.0
  0
ARC
  5
2A1
330
1F
100
AcDbEntity
  8
0
  6
Continuous
 62
     7
370
    25
100
AcDbCircle
 10
-1047.525867072
 20
227.9748738212
 30
0.0
 40
2.769685683095927
100
AcDbArc
 50
6.2435463851
 51
95.1110737956
  0
LINE
  5
2A2
330
1F
100
AcDbEntity
  8
0
  6
Continuous
 62
     7
370
    25
100
AcDbLine
 10
-1047.7726095183
 20
230.7335468624
 30
0.0
 11
-1053.7726095183
 21
230.7335468624
 31
0.0
  0
ARC
  5
2A3
330
1F
100
AcDbEntity
  8
0
  6
Continuous
 62
     7
370
    25
100
AcDbCircle
 10
-1054.0193519646
 20
227.9748738212
 30
0.0
 40
2.769685683095413
100
AcDbArc
 50
84.8889262044
 51
173.7564536149
  0
LINE
  5
2A4
330
1F
100
AcDbEntity
  8
0
  6
Continuous
 62
     7
370
    25
100
AcDbLine
 10
-1056.7726095183
 20
228.2760907295
 30
0.0
 11
-1056.7726095183
 21
192.2334007808
 31
0.0
  0
ARC
  5
2A5
330
1F
100
AcDbEntity
  8
0
  6
Continuous
 62
     7
370
    25
100
AcDbCircle
 10
-1054.0193519646
 20
192.5346176892
 30
0.0
 40
2.769685683095307
100
AcDbArc
 50
186.2435463851
 51
275.1110737956
  0
LINE
  5
2A6
330
1F
100
AcDbEntity
  8
0
  6
Continuous
 62
     7
370
    25
100
AcDbLine
 10
-1053.7726095183
 20
189.7759446479
 30
0.0
 11
-1047.7726095183
 21
189.7759446479
 31
0.0
  0
ARC
  5
2A7
330
1F
100
AcDbEntity
  8
0
  6
Continuous
 62
     7
370
    25
100
AcDbCircle
 10
-1047.525867072
 20
192.5346176892
 30
0.0
 40
2.76968568309593
100
AcDbArc
 50
264.8889262044
 51
353.7564536149
  0
LINE
  5
2A8
330
1F
100
AcDbEntity
  8
0
  6
Continuous
 62
     7
370
    25
100
AcDbLine
 10
-1044.7726095183
 20
192.2334007808
 30
0.0
 11
-1044.7726095183
 21
228.2760907295
 31
0.0
  0
LWPOLYLINE
  5
2A9
330
1F
100
AcDbEntity
  8
0
  6
Continuous
 62
     7
370
    25
100
AcDbPolyline
 90
       17
 70
   128
 43
0.0
 10
-1461.49232235
 20
480.221569177
 10
-1463.9771521294
 20
478.9285850064
 10
-1466.2753728495
 20
477.4216924465
 10
-1468.359664817
 20
475.7188044168
 10
-1470.2052513788
 20
473.8401636982
 10
-1471.7901934505
 20
471.8081023008
 10
-1473.0956503126
 20
469.646775996
 10
-1474.1061035773
 20
467.3818771688
 10
-1474.8095416594
 20
465.0403294044
 10
-1475.1976025631
 20
462.6499674387
 10
-1475.2656732826
 20
460.2392062777
 10
-1475.0129446395
 20
457.8367034196
 10
-1474.4424209007
 20
455.4710181929
 10
-1473.5608840667
 20
453.1702722635
 10
-1472.378813251
 20
450.9618153427
 10
-1470.9102601117
 20
448.8719000724
 10
-1469.1726818154
 20
446.9253699516
  0
LINE
  5
2AA
330
1F
100
AcDbEntity
  8
0
  6
Continuous
 62
     7
370
    25
100
AcDbLine
 10
-1398.6813189726
 20
509.0949513066
 30
0.0
 11
-1461.49232235
 21
480.221569177
 31
0.0
  0
ARC
  5
2AB
330
1F
100
AcDbEntity
  8
0
  6
Continuous
 62
     7
370
    25
100
AcDbCircle
 10
-1385.446256122
 20
479.6480104643
 30
0.0
 40
32.28450423391185
100
AcDbArc
 50
72.3549659556
 51
114.201752952
  0
LINE
  5
2AC
330
1F
100
AcDbEntity
  8
0
  6
Continuous
 62
     7
370
    25
100
AcDbLine
 10
-1212.328568029
 20
458.2497307355
 30
0.0
 11
-1375.6602095526
 21
510.4136163607
 31
0.0
  0
ARC
  5
2AD
330
1F
100
AcDbEntity
  8
0
  6
Continuous
 62
     7
370
    25
100
AcDbCircle
 10
-1200.3336075203
 20
496.2218130202
 30
0.0
 40
39.82157845488556
100
AcDbArc
 50
252.4692499907
 51
278.839590779
  0
LINE
  5
2AE
330
1F
100
AcDbEntity
  8
0
  6
Continuous
 62
     7
370
    25
100
AcDbLine
 10
-788.5963577257
 20
519.6549162752
 30
0.0
 11
-1194.2142791156
 21
456.8732179942
 31
0.0
  0
ARC
  5
2AF
330
1F
100
AcDbEntity
  8
0
  6
Continuous
 62
     7
370
    25
100
AcDbCircle
 10
-783.5896344855
 20
487.460611254
 30
0.0
 40
32.58129146308363
100
AcDbArc
 50
72.4692499907
 51
98.839590779
  0
LINE
  5
2B0
330
1F
100
AcDbEntity
  8
0
  6
Continuous
 62
     7
370
    25
100
AcDbLine
 10
-646.9666412037
 20
478.0291972563
 30
0.0
 11
-773.7755758875
 21
518.5286785779
 31
0.0
  0
LWPOLYLINE
  5
2B1
330
1F
100
AcDbEntity
  8
0
  6
Continuous
 62
     7
370
    25
100
AcDbPolyline
 90
       19
 70
   128
 43
0.0
 10
-635.8807387639
 20
443.4143329769
 10
-634.2076256696
 20
445.2800889452
 10
-632.7817591448
 20
447.2788839213
 10
-631.6187612817
 20
449.3888186889
 10
-630.7313741281
 20
451.5867763614
 10
-630.1293200835
 20
453.8486756544
 10
-629.8191953779
 20
456.1497347261
 10
-629.8043978025
 20
458.4647426916
 10
-630.0850894827
 20
460.7683358392
 10
-630.6581951016
 20
463.0352755205
 10
-631.5174355941
 20
465.2407246697
 10
-632.6533969417
 20
467.3605199247
 10
-634.053633314
 20
469.3714363648
 10
-635.7028034284
 20
471.2514419689
 10
-637.5828386319
 20
472.979939002
 10
-639.6731408656
 20
474.5379896891
 10
-641.9508083406
 20
475.9085237006
 10
-644.3908864554
 20
477.0765251792
 10
-646.9666412037
 20
478.0291972563
  0
LINE
  5
2B2
330
1F
100
AcDbEntity
  8
0
  6
Continuous
 62
     7
370
    25
100
AcDbLine
 10
-1037.6173259529
 20
41.3530504161
 30
0.0
 11
-635.8807387639
 21
443.4143329769
 31
0.0
  0
LINE
  5
2B3
330
1F
100
AcDbEntity
  8
0
  6
Continuous
 62
     7
370
    25
100
AcDbLine
 10
-1469.1726818154
 20
446.9253699516
 30
0.0
 11
-1063.9278930836
 21
41.3530504161
 31
0.0
  0
LINE
  5
2B4
330
1F
100
AcDbEntity
  8
0
  6
Continuous
 62
     7
370
    25
100
AcDbLine
 10
-1035.2958053238
 20
38.0758153972
 30
0.0
 11
-1035.2958053238
 21
34.6343567791
 31
0.0
  0
ARC
  5
2B5
330
1F
100
AcDbEntity
  8
0
  6
Continuous
 62
     7
370
    25
100
AcDbCircle
 10
-1050.7726095183
 20
51.236030663
 30
0.0
 40
22.69685096712077
100
AcDbArc
 50
227.008321224
 51
312.991678776
  0
LINE
  5
2B6
330
1F
100
AcDbEntity
  8
0
  6
Continuous
 62
     7
370
    25
100
AcDbLine
 10
-1066.2494137128
 20
34.6343567791
 30
0.0
 11
-1066.2494137128
 21
38.0758153972
 31
0.0
  0
LINE
  5
2B7
330
1F
100
AcDbEntity
  8
0
  6
Continuous
 62
     7
370
    25
100
AcDbLine
 10
-633.5592181347
 20
440.137097958
 30
0.0
 11
-1035.2958053238
 21
38.0758153972
 31
0.0
  0
ARC
  5
2B8
330
1F
100
AcDbEntity
  8
0
  6
Continuous
 62
     7
370
    25
100
AcDbCircle
 10
-638.4043871342
 20
439.1657620406
 30
0.0
 40
4.941574253021995
100
AcDbArc
 50
11.336106356
 51
59.2897157721
  0
LINE
  5
2B9
330
1F
100
AcDbEntity
  8
0
  6
Continuous
 62
     7
370
    25
100
AcDbLine
 10
-1066.2494137128
 20
38.0758153972
 30
0.0
 11
-1471.4942024445
 21
443.6481349327
 31
0.0
  0
ARC
  5
2BA
330
1F
100
AcDbEntity
  8
0
  6
Continuous
 62
     7
370
    25
100
AcDbCircle
 10
-1466.649033445
 20
442.6767990153
 30
0.0
 40
4.941574253022184
100
AcDbArc
 50
120.7102842279
 51
168.663893644
  0
LINE
  5
2BB
330
1F
100
AcDbEntity
  8
0
  6
Continuous
 62
     7
370
    25
100
AcDbLine
 10
-633.5592181347
 20
436.6956393399
 30
0.0
 11
-633.5592181347
 21
440.137097958
 31
0.0
  0
LINE
  5
2BC
330
1F
100
AcDbEntity
  8
0
  6
Continuous
 62
     7
370
    25
100
AcDbLine
 10
-1035.2958053238
 20
34.6343567791
 30
0.0
 11
-633.5592181347
 21
436.6956393399
 31
0.0
  0
LINE
  5
2BD
330
1F
100
AcDbEntity
  8
0
  6
Continuous
 62
     7
370
    25
100
AcDbLine
 10
-1471.4942024445
 20
440.2066763146
 30
0.0
 11
-1066.2494137128
 21
34.6343567791
 31
0.0
  0
LINE
  5
2BE
330
1F
100
AcDbEntity
  8
0
  6
Continuous
 62
     7
370
    25
100
AcDbLine
 10
-1471.4942024445
 20
443.6481349327
 30
0.0
 11
-1471.4942024445
 21
440.2066763146
 31
0.0
  0
LWPOLYLINE
  5
2BF
330
1F
100
AcDbEntity
  8
0
  6
Continuous
 62
     7
370
    25
100
AcDbPolyline
 90
        3
 70
   128
 43
0.0
 10
-626.7780749507
 20
456.0855130724
 10
-626.775519144
 20
455.9120911963
 10
-626.7744244265
 20
455.7021550568
  0
LINE
  5
2C0
330
1F
100
AcDbEntity
  8
0
  6
Continuous
 62
     7
370
    25
100
AcDbLine
 10
-626.7843498609
 20
451.6286063497
 30
0.0
 11
-626.7744244265
 21
452.2606964387
 31
0.0
  0
LINE
  5
2C1
330
1F
100
AcDbEntity
  8
0
  6
Continuous
 62
     7
370
    25
100
AcDbLine
 10
-1478.2789961528
 20
459.2131920315
 30
0.0
 11
-1478.2701116513
 21
459.811224164
 31
0.0
  0
ARC
  5
2C2
330
1F
100
AcDbEntity
  8
0
  6
Continuous
 62
     7
370
    25
100
AcDbCircle
 10
-1087.6285741872
 20
18.6371798826
 30
0.0
 40
19.3133049435305
100
AcDbArc
 50
317.0663214508
 51
42.9336785492
  0
ARC
  5
2C3
330
1F
100
AcDbEntity
  8
0
  6
Continuous
 62
     7
370
    25
100
AcDbCircle
 10
-1069.2399091155
 20
29.2688150776
 30
0.0
 40
4.941574253021648
100
AcDbArc
 50
101.336106356
 51
149.2897157721
  0
ARC
  5
2C4
330
1F
100
AcDbEntity
  8
0
  6
Continuous
 62
     7
370
    25
100
AcDbCircle
 10
-1086.8129189168
 20
18.6371798826
 30
0.0
 40
22.69685096712067
100
AcDbArc
 50
317.008321224
 51
42.991678776
  0
ARC
  5
2C5
330
1F
100
AcDbEntity
  8
0
  6
Continuous
 62
     7
370
    25
100
AcDbCircle
 10
-1069.2399091155
 20
8.0055446876
 30
0.0
 40
4.941574253021227
100
AcDbArc
 50
210.7102842279
 51
258.663893644
  0
ARC
  5
2C6
330
1F
100
AcDbEntity
  8
0
  6
Continuous
 62
     7
370
    25
100
AcDbCircle
 10
-1137.2374968135
 20
21.8839223289
 30
0.0
 40
2.769685683095567
100
AcDbArc
 50
96.2435463851
 51
185.1110737956
  0
LINE
  5
2C7
330
1F
100
AcDbEntity
  8
0
  6
Continuous
 62
     7
370
    25
100
AcDbLine
 10
-1139.9961698547
 20
21.6371798826
 30
0.0
 11
-1139.9961698547
 21
15.6371798826
 31
0.0
  0
ARC
  5
2C8
330
1F
100
AcDbEntity
  8
0
  6
Continuous
 62
     7
370
    25
100
AcDbCircle
 10
-1137.2374968135
 20
15.3904374363
 30
0.0
 40
2.769685683095684
100
AcDbArc
 50
174.8889262044
 51
263.7564536149
  0
LINE
  5
2C9
330
1F
100
AcDbEntity
  8
0
  6
Continuous
 62
     7
370
    25
100
AcDbLine
 10
-1137.5387137219
 20
12.6371798826
 30
0.0
 11
-1101.4960237732
 21
12.6371798826
 31
0.0
  0
ARC
  5
2CA
330
1F
100
AcDbEntity
  8
0
  6
Continuous
 62
     7
370
    25
100
AcDbCircle
 10
-1101.7972406815
 20
15.3904374363
 30
0.0
 40
2.769685683095927
100
AcDbArc
 50
276.2435463851
 51
5.1110737956
  0
LINE
  5
2CB
330
1F
100
AcDbEntity
  8
0
  6
Continuous
 62
     7
370
    25
100
AcDbLine
 10
-1099.0385676403
 20
15.6371798826
 30
0.0
 11
-1099.0385676403
 21
21.6371798826
 31
0.0
  0
ARC
  5
2CC
330
1F
100
AcDbEntity
  8
0
  6
Continuous
 62
     7
370
    25
100
AcDbCircle
 10
-1101.7972406815
 20
21.8839223289
 30
0.0
 40
2.769685683095688
100
AcDbArc
 50
354.8889262044
 51
83.7564536149
  0
LINE
  5
2CD
330
1F
100
AcDbEntity
  8
0
  6
Continuous
 62
     7
370
    25
100
AcDbLine
 10
-1101.4960237732
 20
24.6371798826
 30
0.0
 11
-1137.5387137219
 21
24.6371798826
 31
0.0
  0
ARC
  5
2CE
330
1F
100
AcDbEntity
  8
0
  6
Continuous
 62
     7
370
    25
100
AcDbCircle
 10
-1260.1103034569
 20
21.8839223289
 30
0.0
 40
2.769685683096114
100
AcDbArc
 50
96.2435463851
 51
185.1110737956
  0
LINE
  5
2CF
330
1F
100
AcDbEntity
  8
0
  6
Continuous
 62
     7
370
    25
100
AcDbLine
 10
-1262.8689764981
 20
21.6371798826
 30
0.0
 11
-1262.8689764981
 21
15.6371798826
 31
0.0
  0
ARC
  5
2D0
330
1F
100
AcDbEntity
  8
0
  6
Continuous
 62
     7
370
    25
100
AcDbCircle
 10
-1260.1103034569
 20
15.3904374363
 30
0.0
 40
2.769685683095907
100
AcDbArc
 50
174.8889262044
 51
263.7564536149
  0
LINE
  5
2D1
330
1F
100
AcDbEntity
  8
0
  6
Continuous
 62
     7
370
    25
100
AcDbLine
 10
-1260.4115203652
 20
12.6371798826
 30
0.0
 11
-1224.3688304165
 21
12.6371798826
 31
0.0
  0
ARC
  5
2D2
330
1F
100
AcDbEntity
  8
0
  6
Continuous
 62
     7
370
    25
100
AcDbCircle
 10
-1224.6700473249
 20
15.3904374363
 30
0.0
 40
2.769685683095516
100
AcDbArc
 50
276.2435463851
 51
5.1110737956
  0
LINE
  5
2D3
330
1F
100
AcDbEntity
  8
0
  6
Continuous
 62
     7
370
    25
100
AcDbLine
 10
-1221.9113742836
 20
15.6371798826
 30
0.0
 11
-1221.9113742836
 21
21.6371798826
 31
0.0
  0
ARC
  5
2D4
330
1F
100
AcDbEntity
  8
0
  6
Continuous
 62
     7
370
    25
100
AcDbCircle
 10
-1224.6700473249
 20
21.8839223289
 30
0.0
 40
2.769685683095688
100
AcDbArc
 50
354.8889262044
 51
83.7564536149
  0
LINE
  5
2D5
330
1F
100
AcDbEntity
  8
0
  6
Continuous
 62
     7
370
    25
100
AcDbLine
 10
-1224.3688304165
 20
24.6371798826
 30
0.0
 11
-1260.4115203652
 21
24.6371798826
 31
0.0
  0
LWPOLYLINE
  5
2D6
330
1F
100
AcDbEntity
  8
0
  6
Continuous
 62
     7
370
    25
100
AcDbPolyline
 90
       17
 70
   128
 43
0.0
 10
-1512.3569988127
 20
-392.0825329491
 10
-1511.0640146421
 20
-394.5673627285
 10
-1509.5571220822
 20
-396.8655834486
 10
-1507.8542340525
 20
-398.9498754161
 10
-1505.9755933339
 20
-400.7954619779
 10
-1503.9435319365
 20
-402.3804040496
 10
-1501.7822056317
 20
-403.6858609117
 10
-1499.5173068045
 20
-404.6963141764
 10
-1497.1757590401
 20
-405.3997522585
 10
-1494.7853970744
 20
-405.7878131622
 10
-1492.3746359134
 20
-405.8558838817
 10
-1489.9721330553
 20
-405.6031552386
 10
-1487.6064478286
 20
-405.0326314998
 10
-1485.3057018992
 20
-404.1510946658
 10
-1483.0972449784
 20
-402.9690238501
 10
-1481.0073297081
 20
-401.5004707108
 10
-1479.0607995873
 20
-399.7628924145
  0
LINE
  5
2D7
330
1F
100
AcDbEntity
  8
0
  6
Continuous
 62
     7
370
    25
100
AcDbLine
 10
-1541.2303809423
 20
-329.2715295717
 30
0.0
 11
-1512.3569988127
 21
-392.0825329491
 31
0.0
  0
ARC
  5
2D8
330
1F
100
AcDbEntity
  8
0
  6
Continuous
 62
     7
370
    25
100
AcDbCircle
 10
-1511.7834401
 20
-316.0364667211
 30
0.0
 40
32.28450423391313
100
AcDbArc
 50
162.3549659556
 51
204.201752952
  0
LINE
  5
2D9
330
1F
100
AcDbEntity
  8
0
  6
Continuous
 62
     7
370
    25
100
AcDbLine
 10
-1490.3851603712
 20
-142.9187786281
 30
0.0
 11
-1542.5490459964
 21
-306.2504201517
 31
0.0
  0
ARC
  5
2DA
330
1F
100
AcDbEntity
  8
0
  6
Continuous
 62
     7
370
    25
100
AcDbCircle
 10
-1528.3572426559
 20
-130.9238181194
 30
0.0
 40
39.8215784548769
100
AcDbArc
 50
342.4692499907
 51
8.839590779
  0
LINE
  5
2DB
330
1F
100
AcDbEntity
  8
0
  6
Continuous
 62
     7
370
    25
100
AcDbLine
 10
-1551.7903459109
 20
280.8134316752
 30
0.0
 11
-1489.0086476299
 21
-124.8044897147
 31
0.0
  0
ARC
  5
2DC
330
1F
100
AcDbEntity
  8
0
  6
Continuous
 62
     7
370
    25
100
AcDbCircle
 10
-1519.5960408897
 20
285.8201549154
 30
0.0
 40
32.58129146308696
100
AcDbArc
 50
162.4692499907
 51
188.839590779
  0
LINE
  5
2DD
330
1F
100
AcDbEntity
  8
0
  6
Continuous
 62
     7
370
    25
100
AcDbLine
 10
-1510.164626892
 20
422.4431481972
 30
0.0
 11
-1550.6641082135
 21
295.6342135134
 31
0.0
  0
LWPOLYLINE
  5
2DE
330
1F
100
AcDbEntity
  8
0
  6
Continuous
 62
     7
370
    25
100
AcDbPolyline
 90
       19
 70
   128
 43
0.0
 10
-1475.5497626126
 20
433.529050637
 10
-1477.4155185809
 20
435.2021637313
 10
-1479.414313557
 20
436.6280302561
 10
-1481.5242483246
 20
437.7910281192
 10
-1483.7222059971
 20
438.6784152727
 10
-1485.9841052901
 20
439.2804693174
 10
-1488.2851643617
 20
439.590594023
 10
-1490.6001723273
 20
439.6053915984
 10
-1492.9037654749
 20
439.3246999182
 10
-1495.1707051562
 20
438.7515942993
 10
-1497.3761543054
 20
437.8923538068
 10
-1499.4959495604
 20
436.7563924592
 10
-1501.5068660005
 20
435.3561560869
 10
-1503.3868716046
 20
433.7069859725
 10
-1505.1153686377
 20
431.826950769
 10
-1506.6734193248
 20
429.7366485353
 10
-1508.0439533363
 20
427.4589810603
 10
-1509.2119548149
 20
425.0189029455
 10
-1510.164626892
 20
422.4431481972
  0
LINE
  5
2DF
330
1F
100
AcDbEntity
  8
0
  6
Continuous
 62
     7
370
    25
100
AcDbLine
 10
-1073.4884800518
 20
31.792463448
 30
0.0
 11
-1475.5497626126
 21
433.529050637
 31
0.0
  0
LINE
  5
2E0
330
1F
100
AcDbEntity
  8
0
  6
Continuous
 62
     7
370
    25
100
AcDbLine
 10
-1479.0607995873
 20
-399.7628924145
 30
0.0
 11
-1073.4884800518
 21
5.4818963172
 31
0.0
  0
LINE
  5
2E1
330
1F
100
AcDbEntity
  8
0
  6
Continuous
 62
     7
370
    25
100
AcDbLine
 10
-1070.2112450329
 20
34.1139840771
 30
0.0
 11
-1066.7697864148
 21
34.1139840771
 31
0.0
  0
ARC
  5
2E2
330
1F
100
AcDbEntity
  8
0
  6
Continuous
 62
     7
370
    25
100
AcDbCircle
 10
-1083.3714602987
 20
18.6371798826
 30
0.0
 40
22.69685096712017
100
AcDbArc
 50
317.008321224
 51
42.991678776
  0
LINE
  5
2E3
330
1F
100
AcDbEntity
  8
0
  6
Continuous
 62
     7
370
    25
100
AcDbLine
 10
-1066.7697864148
 20
3.1603756881
 30
0.0
 11
-1070.2112450329
 21
3.1603756881
 31
0.0
  0
LINE
  5
2E4
330
1F
100
AcDbEntity
  8
0
  6
Continuous
 62
     7
370
    25
100
AcDbLine
 10
-1472.2725275937
 20
435.8505712662
 30
0.0
 11
-1070.2112450329
 21
34.1139840771
 31
0.0
  0
ARC
  5
2E5
330
1F
100
AcDbEntity
  8
0
  6
Continuous
 62
     7
370
    25
100
AcDbCircle
 10
-1471.3011916763
 20
431.0054022667
 30
0.0
 40
4.941574253022162
100
AcDbArc
 50
101.336106356
 51
149.2897157721
  0
LINE
  5
2E6
330
1F
100
AcDbEntity
  8
0
  6
Continuous
 62
     7
370
    25
100
AcDbLine
 10
-1070.2112450329
 20
3.1603756881
 30
0.0
 11
-1475.7835645684
 21
-402.0844130436
 31
0.0
  0
ARC
  5
2E7
330
1F
100
AcDbEntity
  8
0
  6
Continuous
 62
     7
370
    25
100
AcDbCircle
 10
-1474.812228651
 20
-397.2392440442
 30
0.0
 40
4.941574253023805
100
AcDbArc
 50
210.7102842279
 51
258.6638936439
  0
LINE
  5
2E8
330
1F
100
AcDbEntity
  8
0
  6
Continuous
 62
     7
370
    25
100
AcDbLine
 10
-1468.8310689756
 20
435.8505712662
 30
0.0
 11
-1472.2725275937
 21
435.8505712662
 31
0.0
  0
LINE
  5
2E9
330
1F
100
AcDbEntity
  8
0
  6
Continuous
 62
     7
370
    25
100
AcDbLine
 10
-1066.7697864148
 20
34.1139840771
 30
0.0
 11
-1468.8310689756
 21
435.8505712662
 31
0.0
  0
LINE
  5
2EA
330
1F
100
AcDbEntity
  8
0
  6
Continuous
 62
     7
370
    25
100
AcDbLine
 10
-1472.3421059503
 20
-402.0844130436
 30
0.0
 11
-1066.7697864148
 21
3.1603756881
 31
0.0
  0
LINE
  5
2EB
330
1F
100
AcDbEntity
  8
0
  6
Continuous
 62
     7
370
    25
100
AcDbLine
 10
-1475.7835645684
 20
-402.0844130436
 30
0.0
 11
-1472.3421059503
 21
-402.0844130436
 31
0.0
  0
LWPOLYLINE
  5
2EC
330
1F
100
AcDbEntity
  8
0
  6
Continuous
 62
     7
370
    25
100
AcDbPolyline
 90
        3
 70
   128
 43
0.0
 10
-1488.2209427081
 20
442.6317144502
 10
-1488.047520832
 20
442.6342702569
 10
-1487.8375846925
 20
442.6353649744
  0
LINE
  5
2ED
330
1F
100
AcDbEntity
  8
0
  6
Continuous
 62
     7
370
    25
100
AcDbLine
 10
-1483.7640359854
 20
442.62543954
 30
0.0
 11
-1484.3961260743
 21
442.6353649744
 31
0.0
  0
LINE
  5
2EE
330
1F
100
AcDbEntity
  8
0
  6
Continuous
 62
     7
370
    25
100
AcDbLine
 10
-1491.3486216672
 20
-408.8692067519
 30
0.0
 11
-1491.9466537997
 21
-408.8603222504
 31
0.0
  0
ARC
  5
2EF
330
1F
100
AcDbEntity
  8
0
  6
Continuous
 62
     7
370
    25
100
AcDbCircle
 10
-1013.9166448494
 20
18.6371798826
 30
0.0
 40
19.31330494353033
100
AcDbArc
 50
137.0663214508
 51
222.9336785492
  0
ARC
  5
2F0
330
1F
100
AcDbEntity
  8
0
  6
Continuous
 62
     7
370
    25
100
AcDbCircle
 10
-1032.3053099211
 20
8.0055446876
 30
0.0
 40
4.941574253022999
100
AcDbArc
 50
281.336106356
 51
329.2897157721
  0
ARC
  5
2F1
330
1F
100
AcDbEntity
  8
0
  6
Continuous
 62
     7
370
    25
100
AcDbCircle
 10
-1014.7323001198
 20
18.6371798826
 30
0.0
 40
22.6968509671201
100
AcDbArc
 50
137.008321224
 51
222.991678776
  0
ARC
  5
2F2
330
1F
100
AcDbEntity
  8
0
  6
Continuous
 62
     7
370
    25
100
AcDbCircle
 10
-1032.3053099211
 20
29.2688150776
 30
0.0
 40
4.94157425302289
100
AcDbArc
 50
30.7102842279
 51
78.663893644
  0
ARC
  5
2F3
330
1F
100
AcDbEntity
  8
0
  6
Continuous
 62
     7
370
    25
100
AcDbCircle
 10
-964.3077222231
 20
15.3904374363
 30
0.0
 40
2.769685683095565
100
AcDbArc
 50
276.2435463851
 51
5.1110737956
  0
LINE
  5
2F4
330
1F
100
AcDbEntity
  8
0
  6
Continuous
 62
     7
370
    25
100
AcDbLine
 10
-961.5490491819
 20
15.6371798826
 30
0.0
 11
-961.5490491819
 21
21.6371798826
 31
0.0
  0
ARC
  5
2F5
330
1F
100
AcDbEntity
  8
0
  6
Continuous
 62
     7
370
    25
100
AcDbCircle
 10
-964.3077222231
 20
21.8839223289
 30
0.0
 40
2.769685683095693
100
AcDbArc
 50
354.8889262044
 51
83.7564536149
  0
LINE
  5
2F6
330
1F
100
AcDbEntity
  8
0
  6
Continuous
 62
     7
370
    25
100
AcDbLine
 10
-964.0065053147
 20
24.6371798826
 30
0.0
 11
-1000.0491952634
 21
24.6371798826
 31
0.0
  0
ARC
  5
2F7
330
1F
100
AcDbEntity
  8
0
  6
Continuous
 62
     7
370
    25
100
AcDbCircle
 10
-999.7479783551
 20
21.8839223289
 30
0.0
 40
2.7696856830959
100
AcDbArc
 50
96.2435463851
 51
185.1110737956
  0
LINE
  5
2F8
330
1F
100
AcDbEntity
  8
0
  6
Continuous
 62
     7
370
    25
100
AcDbLine
 10
-1002.5066513963
 20
21.6371798826
 30
0.0
 11
-1002.5066513963
 21
15.6371798826
 31
0.0
  0
ARC
  5
2F9
330
1F
100
AcDbEntity
  8
0
  6
Continuous
 62
     7
370
    25
100
AcDbCircle
 10
-999.7479783551
 20
15.3904374363
 30
0.0
 40
2.76968568309558
100
AcDbArc
 50
174.8889262044
 51
263.7564536149
  0
LINE
  5
2FA
330
1F
100
AcDbEntity
  8
0
  6
Continuous
 62
     7
370
    25
100
AcDbLine
 10
-1000.0491952634
 20
12.6371798826
 30
0.0
 11
-964.0065053147
 21
12.6371798826
 31
0.0
  0
ARC
  5
2FB
330
1F
100
AcDbEntity
  8
0
  6
Continuous
 62
     7
370
    25
100
AcDbCircle
 10
-841.4349155797
 20
15.3904374363
 30
0.0
 40
2.769685683096
100
AcDbArc
 50
276.2435463851
 51
5.1110737956
  0
LINE
  5
2FC
330
1F
100
AcDbEntity
  8
0
  6
Continuous
 62
     7
370
    25
100
AcDbLine
 10
-838.6762425385
 20
15.6371798826
 30
0.0
 11
-838.6762425385
 21
21.6371798826
 31
0.0
  0
ARC
  5
2FD
330
1F
100
AcDbEntity
  8
0
  6
Continuous
 62
     7
370
    25
100
AcDbCircle
 10
-841.4349155797
 20
21.8839223289
 30
0.0
 40
2.769685683095902
100
AcDbArc
 50
354.8889262044
 51
83.7564536149
  0
LINE
  5
2FE
330
1F
100
AcDbEntity
  8
0
  6
Continuous
 62
     7
370
    25
100
AcDbLine
 10
-841.1336986714
 20
24.6371798826
 30
0.0
 11
-877.1763886201
 21
24.6371798826
 31
0.0
  0
ARC
  5
2FF
330
1F
100
AcDbEntity
  8
0
  6
Continuous
 62
     7
370
    25
100
AcDbCircle
 10
-876.8751717117
 20
21.8839223289
 30
0.0
 40
2.769685683095163
100
AcDbArc
 50
96.2435463851
 51
185.1110737956
  0
LINE
  5
300
330
1F
100
AcDbEntity
  8
0
  6
Continuous
 62
     7
370
    25
100
AcDbLine
 10
-879.633844753
 20
21.6371798826
 30
0.0
 11
-879.633844753
 21
15.6371798826
 31
0.0
  0
ARC
  5
301
330
1F
100
AcDbEntity
  8
0
  6
Continuous
 62
     7
370
    25
100
AcDbCircle
 10
-876.8751717117
 20
15.3904374363
 30
0.0
 40
2.769685683095225
100
AcDbArc
 50
174.8889262044
 51
263.7564536149
  0
LINE
  5
302
330
1F
100
AcDbEntity
  8
0
  6
Continuous
 62
     7
370
    25
100
AcDbLine
 10
-877.1763886201
 20
12.6371798826
 30
0.0
 11
-841.1336986714
 21
12.6371798826
 31
0.0
  0
LWPOLYLINE
  5
303
330
1F
100
AcDbEntity
  8
0
  6
Continuous
 62
     7
370
    25
100
AcDbPolyline
 90
       17
 70
   128
 43
0.0
 10
-589.1882202239
 20
429.3568927143
 10
-590.4812043945
 20
431.8417224937
 10
-591.9880969544
 20
434.1399432138
 10
-593.6909849841
 20
436.2242351813
 10
-595.5696257027
 20
438.0698217431
 10
-597.6016871
 20
439.6547638148
 10
-599.7630134049
 20
440.9602206769
 10
-602.0279122321
 20
441.9706739416
 10
-604.3694599965
 20
442.6741120237
 10
-606.7598219622
 20
443.0621729274
 10
-609.1705831232
 20
443.1302436469
 10
-611.5730859813
 20
442.8775150038
 10
-613.938771208
 20
442.306991265
 10
-616.2395171374
 20
441.425454431
 10
-618.4479740582
 20
440.2433836153
 10
-620.5378893285
 20
438.774830476
 10
-622.4844194493
 20
437.0372521797
  0
LINE
  5
304
330
1F
100
AcDbEntity
  8
0
  6
Continuous
 62
     7
370
    25
100
AcDbLine
 10
-560.3148380943
 20
366.5458893369
 30
0.0
 11
-589.1882202239
 21
429.3568927143
 31
0.0
  0
ARC
  5
305
330
1F
100
AcDbEntity
  8
0
  6
Continuous
 62
     7
370
    25
100
AcDbCircle
 10
-589.7617789366
 20
353.3108264863
 30
0.0
 40
32.28450423391178
100
AcDbArc
 50
342.3549659556
 51
24.201752952
  0
LINE
  5
306
330
1F
100
AcDbEntity
  8
0
  6
Continuous
 62
     7
370
    25
100
AcDbLine
 10
-611.1600586654
 20
180.1931383933
 30
0.0
 11
-558.9961730402
 21
343.5247799169
 31
0.0
  0
ARC
  5
307
330
1F
100
AcDbEntity
  8
0
  6
Continuous
 62
     7
370
    25
100
AcDbCircle
 10
-573.1879763807
 20
168.1981778846
 30
0.0
 40
39.821578454884
100
AcDbArc
 50
162.4692499907
 51
188.839590779
  0
LINE
  5
308
330
1F
100
AcDbEntity
  8
0
  6
Continuous
 62
     7
370
    25
100
AcDbLine
 10
-549.7548731257
 20
-243.53907191
 30
0.0
 11
-612.5365714067
 21
162.0788494799
 31
0.0
  0
ARC
  5
309
330
1F
100
AcDbEntity
  8
0
  6
Continuous
 62
     7
370
    25
100
AcDbCircle
 10
-581.9491781469
 20
-248.5457951502
 30
0.0
 40
32.58129146307985
100
AcDbArc
 50
342.4692499907
 51
8.839590779
  0
LINE
  5
30A
330
1F
100
AcDbEntity
  8
0
  6
Continuous
 62
     7
370
    25
100
AcDbLine
 10
-591.3805921446
 20
-385.168788432
 30
0.0
 11
-550.881110823
 21
-258.3598537482
 31
0.0
  0
LWPOLYLINE
  5
30B
330
1F
100
AcDbEntity
  8
0
  6
Continuous
 62
     7
370
    25
100
AcDbPolyline
 90
       19
 70
   128
 43
0.0
 10
-625.995456424
 20
-396.2546908718
 10
-624.1297004556
 20
-397.9278039661
 10
-622.1309054796
 20
-399.3536704909
 10
-620.020970712
 20
-400.516668354
 10
-617.8230130395
 20
-401.4040555075
 10
-615.5611137465
 20
-402.0061095522
 10
-613.2600546748
 20
-402.3162342578
 10
-610.9450467093
 20
-402.3310318332
 10
-608.6414535617
 20
-402.050340153
 10
-606.3745138804
 20
-401.4772345341
 10
-604.1690647312
 20
-400.6179940416
 10
-602.0492694762
 20
-399.482032694
 10
-600.0383530361
 20
-398.0817963217
 10
-598.158347432
 20
-396.4326262073
 10
-596.4298503989
 20
-394.5525910038
 10
-594.8717997118
 20
-392.4622887701
 10
-593.5012657003
 20
-390.1846212951
 10
-592.3332642217
 20
-387.7445431803
 10
-591.3805921446
 20
-385.168788432
  0
LINE
  5
30C
330
1F
100
AcDbEntity
  8
0
  6
Continuous
 62
     7
370
    25
100
AcDbLine
 10
-1028.0567389848
 20
5.4818963172
 30
0.0
 11
-625.995456424
 21
-396.2546908718
 31
0.0
  0
LINE
  5
30D
330
1F
100
AcDbEntity
  8
0
  6
Continuous
 62
     7
370
    25
100
AcDbLine
 10
-622.4844194493
 20
437.0372521797
 30
0.0
 11
-1028.0567389848
 21
31.792463448
 31
0.0
  0
LINE
  5
30E
330
1F
100
AcDbEntity
  8
0
  6
Continuous
 62
     7
370
    25
100
AcDbLine
 10
-1031.3339740037
 20
3.1603756881
 30
0.0
 11
-1034.7754326218
 21
3.1603756881
 31
0.0
  0
ARC
  5
30F
330
1F
100
AcDbEntity
  8
0
  6
Continuous
 62
     7
370
    25
100
AcDbCircle
 10
-1018.1737587379
 20
18.6371798826
 30
0.0
 40
22.69685096712093
100
AcDbArc
 50
137.008321224
 51
222.991678776
  0
LINE
  5
310
330
1F
100
AcDbEntity
  8
0
  6
Continuous
 62
     7
370
    25
100
AcDbLine
 10
-1034.7754326218
 20
34.1139840771
 30
0.0
 11
-1031.3339740037
 21
34.1139840771
 31
0.0
  0
LINE
  5
311
330
1F
100
AcDbEntity
  8
0
  6
Continuous
 62
     7
370
    25
100
AcDbLine
 10
-1031.3339740037
 20
34.1139840771
 30
0.0
 11
-625.7616544682
 21
439.3587728088
 31
0.0
  0
ARC
  5
312
330
1F
100
AcDbEntity
  8
0
  6
Continuous
 62
     7
370
    25
100
AcDbCircle
 10
-626.7329903856
 20
434.5136038094
 30
0.0
 40
4.94157425302176
100
AcDbArc
 50
30.7102842279
 51
78.663893644
  0
LINE
  5
313
330
1F
100
AcDbEntity
  8
0
  6
Continuous
 62
     7
370
    25
100
AcDbLine
 10
-629.2726914429
 20
-398.576211501
 30
0.0
 11
-1031.3339740037
 21
3.1603756881
 31
0.0
  0
ARC
  5
314
330
1F
100
AcDbEntity
  8
0
  6
Continuous
 62
     7
370
    25
100
AcDbCircle
 10
-630.2440273603
 20
-393.7310425015
 30
0.0
 40
4.941574253021838
100
AcDbArc
 50
281.336106356
 51
329.2897157721
  0
LINE
  5
315
330
1F
100
AcDbEntity
  8
0
  6
Continuous
 62
     7
370
    25
100
AcDbLine
 10
-629.2031130863
 20
439.3587728088
 30
0.0
 11
-1034.7754326218
 21
34.1139840771
 31
0.0
  0
LINE
  5
316
330
1F
100
AcDbEntity
  8
0
  6
Continuous
 62
     7
370
    25
100
AcDbLine
 10
-625.7616544682
 20
439.3587728088
 30
0.0
 11
-629.2031130863
 21
439.3587728088
 31
0.0
  0
LINE
  5
317
330
1F
100
AcDbEntity
  8
0
  6
Continuous
 62
     7
370
    25
100
AcDbLine
 10
-632.714150061
 20
-398.576211501
 30
0.0
 11
-629.2726914429
 21
-398.576211501
 31
0.0
  0
LINE
  5
318
330
1F
100
AcDbEntity
  8
0
  6
Continuous
 62
     7
370
    25
100
AcDbLine
 10
-1034.7754326218
 20
3.1603756881
 30
0.0
 11
-632.714150061
 21
-398.576211501
 31
0.0
  0
LWPOLYLINE
  5
319
330
1F
100
AcDbEntity
  8
0
  6
Continuous
 62
     7
370
    25
100
AcDbPolyline
 90
        3
 70
   128
 43
0.0
 10
-613.3242763285
 20
-405.357354685
 10
-613.4976982046
 20
-405.3599104917
 10
-613.7076343441
 20
-405.3610052092
  0
LINE
  5
31A
330
1F
100
AcDbEntity
  8
0
  6
Continuous
 62
     7
370
    25
100
AcDbLine
 10
-617.7811830512
 20
-405.3510797748
 30
0.0
 11
-617.1490929622
 21
-405.3610052092
 31
0.0
  0
LINE
  5
31B
330
1F
100
AcDbEntity
  8
0
  6
Continuous
 62
     7
370
    25
100
AcDbLine
 10
-610.1965973694
 20
446.1435665171
 30
0.0
 11
-609.5985652369
 21
446.1346820156
 31
0.0
  0
LINE
  5
31C
330
1F
100
AcDbEntity
  8
0
  6
Continuous
 62
     7
370
    25
100
AcDbLine
 10
-1061.0215176594
 20
24.6371798826
 30
0.0
 11
-1040.5214511975
 21
24.6371798826
 31
0.0
  0
LINE
  5
31D
330
1F
100
AcDbEntity
  8
0
  6
Continuous
 62
     7
370
    25
100
AcDbLine
 10
-1061.0237678391
 20
12.6371798826
 30
0.0
 11
-1040.5237013772
 21
12.6371798826
 31
0.0
  0
LINE
  5
31E
330
1F
100
AcDbEntity
  8
0
  6
Continuous
 62
     7
370
    25
100
AcDbLine
 10
-1099.0385676403
 20
24.6371798826
 30
0.0
 11
-1099.0385676403
 21
12.6371798826
 31
0.0
  0
LINE
  5
31F
330
1F
100
AcDbEntity
  8
0
  6
Continuous
 62
     7
370
    25
100
AcDbLine
 10
-961.5490491819
 20
12.6371798826
 30
0.0
 11
-961.5490491819
 21
24.6371798826
 31
0.0
  0
LINE
  5
320
330
1F
100
AcDbEntity
  8
0
  6
Continuous
 62
     7
370
    25
100
AcDbLine
 10
-1002.5066513963
 20
24.6371798826
 30
0.0
 11
-1002.5066513963
 21
12.6371798826
 31
0.0
  0
LINE
  5
321
330
1F
100
AcDbEntity
  8
0
  6
Continuous
 62
     7
370
    25
100
AcDbLine
 10
-961.5490491819
 20
24.6371798826
 30
0.0
 11
-1002.5066513963
 21
24.6371798826
 31
0.0
  0
LINE
  5
322
330
1F
100
AcDbEntity
  8
0
  6
Continuous
 62
     7
370
    25
100
AcDbLine
 10
-1002.5066513963
 20
12.6371798826
 30
0.0
 11
-961.5490491819
 21
12.6371798826
 31
0.0
  0
LINE
  5
323
330
1F
100
AcDbEntity
  8
0
  6
Continuous
 62
     7
370
    25
100
AcDbLine
 10
-1139.9961698547
 20
12.6371798826
 30
0.0
 11
-1139.9961698547
 21
24.6371798826
 31
0.0
  0
LINE
  5
324
330
1F
100
AcDbEntity
  8
0
  6
Continuous
 62
     7
370
    25
100
AcDbLine
 10
-1139.9961698547
 20
24.6371798826
 30
0.0
 11
-1099.0385676403
 21
24.6371798826
 31
0.0
  0
LINE
  5
325
330
1F
100
AcDbEntity
  8
0
  6
Continuous
 62
     7
370
    25
100
AcDbLine
 10
-1099.0385676403
 20
12.6371798826
 30
0.0
 11
-1139.9961698547
 21
12.6371798826
 31
0.0
  0
LINE
  5
326
330
1F
100
AcDbEntity
  8
0
  6
Continuous
 62
     7
370
    25
100
AcDbLine
 10
-838.6762425385
 20
12.6371798826
 30
0.0
 11
-838.6762425385
 21
24.6371798826
 31
0.0
  0
LINE
  5
327
330
1F
100
AcDbEntity
  8
0
  6
Continuous
 62
     7
370
    25
100
AcDbLine
 10
-879.633844753
 20
24.6371798826
 30
0.0
 11
-879.633844753
 21
12.6371798826
 31
0.0
  0
LINE
  5
328
330
1F
100
AcDbEntity
  8
0
  6
Continuous
 62
     7
370
    25
100
AcDbLine
 10
-838.6762425385
 20
24.6371798826
 30
0.0
 11
-879.633844753
 21
24.6371798826
 31
0.0
  0
LINE
  5
329
330
1F
100
AcDbEntity
  8
0
  6
Continuous
 62
     7
370
    25
100
AcDbLine
 10
-879.633844753
 20
12.6371798826
 30
0.0
 11
-838.6762425385
 21
12.6371798826
 31
0.0
  0
LINE
  5
32A
330
1F
100
AcDbEntity
  8
0
  6
Continuous
 62
     7
370
    25
100
AcDbLine
 10
-1221.9113742836
 20
24.6371798826
 30
0.0
 11
-1221.9113742836
 21
12.6371798826
 31
0.0
  0
LINE
  5
32B
330
1F
100
AcDbEntity
  8
0
  6
Continuous
 62
     7
370
    25
100
AcDbLine
 10
-1262.8689764981
 20
12.6371798826
 30
0.0
 11
-1262.8689764981
 21
24.6371798826
 31
0.0
  0
LINE
  5
32C
330
1F
100
AcDbEntity
  8
0
  6
Continuous
 62
     7
370
    25
100
AcDbLine
 10
-1262.8689764981
 20
24.6371798826
 30
0.0
 11
-1221.9113742836
 21
24.6371798826
 31
0.0
  0
LINE
  5
32D
330
1F
100
AcDbEntity
  8
0
  6
Continuous
 62
     7
370
    25
100
AcDbLine
 10
-1221.9113742836
 20
12.6371798826
 30
0.0
 11
-1262.8689764981
 21
12.6371798826
 31
0.0
  0
LINE
  5
32E
330
1F
100
AcDbEntity
  8
0
  6
Continuous
 62
     7
370
    25
100
AcDbLine
 10
559.5189072785
 20
-229.3628201174
 30
0.0
 11
559.5189072785
 21
-238.3628201174
 31
0.0
  0
LWPOLYLINE
  5
32F
330
1F
100
AcDbEntity
  8
0
  6
Continuous
 62
     7
370
    25
100
AcDbPolyline
 90
        9
 70
   128
 43
0.0
 10
559.5189072785
 20
-229.3628201174
 10
559.4834179368
 20
-228.7775491514
 10
559.3783137473
 20
-228.2147698203
 10
559.2076338051
 20
-227.6961094183
 10
558.9779372445
 20
-227.2414997738
 10
558.6980511756
 20
-226.8684112805
 10
558.3787314631
 20
-226.5911815199
 10
558.0322493844
 20
-226.4204642762
 10
557.6719200515
 20
-226.3628201174
  0
LINE
  5
330
330
1F
100
AcDbEntity
  8
0
  6
Continuous
 62
     7
370
    25
100
AcDbLine
 10
-551.0984265448
 20
-226.3628201174
 30
0.0
 11
557.6719200515
 21
-226.3628201174
 31
0.0
  0
LWPOLYLINE
  5
331
330
1F
100
AcDbEntity
  8
0
  6
Continuous
 62
     7
370
    25
100
AcDbPolyline
 90
        9
 70
   128
 43
0.0
 10
557.6719200515
 20
-241.3628201174
 10
558.0322493844
 20
-241.3051759586
 10
558.3787314631
 20
-241.1344587149
 10
558.6980511756
 20
-240.8572289543
 10
558.9779372445
 20
-240.484140461
 10
559.2076338051
 20
-240.0295308165
 10
559.3783137473
 20
-239.5108704145
 10
559.4834179368
 20
-238.9480910834
 10
559.5189072785
 20
-238.3628201174
  0
LINE
  5
332
330
1F
100
AcDbEntity
  8
0
  6
Continuous
 62
     7
370
    25
100
AcDbLine
 10
557.6719200515
 20
-241.3628201174
 30
0.0
 11
-548.7767207607
 21
-241.3628201174
 31
0.0
  0
LINE
  5
333
330
1F
100
AcDbEntity
  8
0
  6
Continuous
 62
     7
370
    25
100
AcDbLine
 10
559.5189072785
 20
-238.3628201174
 30
0.0
 11
876.5768453181
 21
-238.3628201174
 31
0.0
  0
LINE
  5
334
330
1F
100
AcDbEntity
  8
0
  6
Continuous
 62
     7
370
    25
100
AcDbLine
 10
876.5768453181
 20
-229.3628201174
 30
0.0
 11
559.5189072785
 21
-229.3628201174
 31
0.0
  0
LINE
  5
335
330
1F
100
AcDbEntity
  8
0
  6
Continuous
 62
     7
370
    25
100
AcDbLine
 10
876.5768453181
 20
-229.3628201174
 30
0.0
 11
876.5768453181
 21
-238.3628201174
 31
0.0
  0
LWPOLYLINE
  5
336
330
1F
100
AcDbEntity
  8
0
  6
Continuous
 62
     7
370
    25
100
AcDbPolyline
 90
        9
 70
   128
 43
0.0
 10
875.6744199721
 20
-241.3628201174
 10
875.8504744235
 20
-241.3051759586
 10
876.019763201
 20
-241.1344587149
 10
876.1757806319
 20
-240.8572289543
 10
876.3125310538
 20
-240.484140461
 10
876.4247592247
 20
-240.0295308165
 10
876.5081522789
 20
-239.5108704145
 10
876.5595054681
 20
-238.9480910834
 10
876.5768453181
 20
-238.3628201174
  0
LINE
  5
337
330
1F
100
AcDbEntity
  8
0
  6
Continuous
 62
     7
370
    25
100
AcDbLine
 10
875.6744199721
 20
-241.3628201174
 30
0.0
 11
557.6719200515
 21
-241.3628201174
 31
0.0
  0
LWPOLYLINE
  5
338
330
1F
100
AcDbEntity
  8
0
  6
Continuous
 62
     7
370
    25
100
AcDbPolyline
 90
        9
 70
   128
 43
0.0
 10
876.5768453181
 20
-229.3628201174
 10
876.5595054692
 20
-228.7775491514
 10
876.5081522808
 20
-228.2147698203
 10
876.4247592271
 20
-227.6961094183
 10
876.3125310564
 20
-227.2414997738
 10
876.1757806343
 20
-226.8684112805
 10
876.0197632029
 20
-226.5911815199
 10
875.8504744245
 20
-226.4204642762
 10
875.6744199721
 20
-226.3628201174
  0
LINE
  5
339
330
1F
100
AcDbEntity
  8
0
  6
Continuous
 62
     7
370
    25
100
AcDbLine
 10
557.6719200515
 20
-226.3628201174
 30
0.0
 11
875.6744199721
 21
-226.3628201174
 31
0.0
  0
LINE
  5
33A
330
1F
100
AcDbEntity
  8
0
  6
Continuous
 62
     7
370
    25
100
AcDbLine
 10
1287.9919265209
 20
-229.3628201174
 30
0.0
 11
876.5768453181
 21
-229.3628201174
 31
0.0
  0
LWPOLYLINE
  5
33B
330
1F
100
AcDbEntity
  8
0
  6
Continuous
 62
     7
370
    25
100
AcDbPolyline
 90
        9
 70
   128
 43
0.0
 10
1287.9919265209
 20
-229.3628201174
 10
1287.9745866821
 20
-228.7775491514
 10
1287.923233501
 20
-228.2147698203
 10
1287.8398404514
 20
-227.6961094183
 10
1287.7276122815
 20
-227.2414997738
 10
1287.5908618569
 20
-226.8684112805
 10
1287.4348444197
 20
-226.5911815199
 10
1287.2655556326
 20
-226.4204642762
 10
1287.0895011687
 20
-226.3628201174
  0
LINE
  5
33C
330
1F
100
AcDbEntity
  8
0
  6
Continuous
 62
     7
370
    25
100
AcDbLine
 10
875.6744199721
 20
-226.3628201174
 30
0.0
 11
1287.0895011687
 21
-226.3628201174
 31
0.0
  0
LINE
  5
33D
330
1F
100
AcDbEntity
  8
0
  6
Continuous
 62
     7
370
    25
100
AcDbLine
 10
876.5768453181
 20
-238.3628201174
 30
0.0
 11
1287.9919265209
 21
-238.3628201174
 31
0.0
  0
LINE
  5
33E
330
1F
100
AcDbEntity
  8
0
  6
Continuous
 62
     7
370
    25
100
AcDbLine
 10
1287.9919265209
 20
-229.3628201174
 30
0.0
 11
1287.9919265209
 21
-238.3628201174
 31
0.0
  0
LWPOLYLINE
  5
33F
330
1F
100
AcDbEntity
  8
0
  6
Continuous
 62
     7
370
    25
100
AcDbPolyline
 90
        9
 70
   128
 43
0.0
 10
1287.0895011687
 20
-241.3628201174
 10
1287.2655556212
 20
-241.3051759586
 10
1287.4348443999
 20
-241.1344587149
 10
1287.5908618319
 20
-240.8572289543
 10
1287.7276122547
 20
-240.484140461
 10
1287.8398404264
 20
-240.0295308165
 10
1287.9232334812
 20
-239.5108704145
 10
1287.9745866708
 20
-238.9480910834
 10
1287.9919265209
 20
-238.3628201174
  0
LINE
  5
340
330
1F
100
AcDbEntity
  8
0
  6
Continuous
 62
     7
370
    25
100
AcDbLine
 10
1287.0895011687
 20
-241.3628201174
 30
0.0
 11
875.6744199721
 21
-241.3628201174
 31
0.0
  0
LINE
  5
341
330
1F
100
AcDbEntity
  8
0
  6
Continuous
 62
     7
370
    25
100
AcDbLine
 10
1292.4854943722
 20
-229.3628201174
 30
0.0
 11
1287.9919265209
 21
-229.3628201174
 31
0.0
  0
LWPOLYLINE
  5
342
330
1F
100
AcDbEntity
  8
0
  6
Continuous
 62
     7
370
    25
100
AcDbPolyline
 90
        9
 70
   128
 43
0.0
 10
1292.4854943722
 20
-229.3628201174
 10
1292.4568924347
 20
-228.7775491514
 10
1292.3721857828
 20
-228.2147698203
 10
1292.2346296458
 20
-227.6961094183
 10
1292.0495102287
 20
-227.2414997738
 10
1291.823941567
 20
-226.8684112805
 10
1291.5665921378
 20
-226.5911815199
 10
1291.2873517355
 20
-226.4204642762
 10
1290.996951412
 20
-226.3628201174
  0
LINE
  5
343
330
1F
100
AcDbEntity
  8
0
  6
Continuous
 62
     7
370
    25
100
AcDbLine
 10
1287.0895011687
 20
-226.3628201174
 30
0.0
 11
1290.996951412
 21
-226.3628201174
 31
0.0
  0
LINE
  5
344
330
1F
100
AcDbEntity
  8
0
  6
Continuous
 62
     7
370
    25
100
AcDbLine
 10
1287.9919265209
 20
-238.3628201174
 30
0.0
 11
1292.4854943722
 21
-238.3628201174
 31
0.0
  0
LINE
  5
345
330
1F
100
AcDbEntity
  8
0
  6
Continuous
 62
     7
370
    25
100
AcDbLine
 10
1292.4854943722
 20
-229.3628201174
 30
0.0
 11
1292.4854943722
 21
-238.3628201174
 31
0.0
  0
LWPOLYLINE
  5
346
330
1F
100
AcDbEntity
  8
0
  6
Continuous
 62
     7
370
    25
100
AcDbPolyline
 90
        9
 70
   128
 43
0.0
 10
1290.996951412
 20
-241.3628201174
 10
1291.2873517374
 20
-241.3051759586
 10
1291.5665921412
 20
-241.1344587149
 10
1291.8239415713
 20
-240.8572289543
 10
1292.0495102332
 20
-240.484140461
 10
1292.23462965
 20
-240.0295308165
 10
1292.3721857862
 20
-239.5108704145
 10
1292.4568924366
 20
-238.9480910834
 10
1292.4854943722
 20
-238.3628201174
  0
LINE
  5
347
330
1F
100
AcDbEntity
  8
0
  6
Continuous
 62
     7
370
    25
100
AcDbLine
 10
1290.996951412
 20
-241.3628201174
 30
0.0
 11
1287.0895011687
 21
-241.3628201174
 31
0.0
  0
LINE
  5
348
330
1F
100
AcDbEntity
  8
0
  6
Continuous
 62
     7
370
    25
100
AcDbLine
 10
1290.996951412
 20
-226.3628201174
 30
0.0
 11
1337.7023765427
 21
-226.3628201174
 31
0.0
  0
LINE
  5
349
330
1F
100
AcDbEntity
  8
0
  6
Continuous
 62
     7
370
    25
100
AcDbLine
 10
1337.7023765427
 20
-241.3628201174
 30
0.0
 11
1290.996951412
 21
-241.3628201174
 31
0.0
  0
LINE
  5
34A
330
1F
100
AcDbEntity
  8
0
  6
Continuous
 62
     7
370
    25
100
AcDbLine
 10
1232.1092925754
 20
291.1371798826
 30
0.0
 11
1210.6092925754
 21
291.1371798826
 31
0.0
  0
LWPOLYLINE
  5
34B
330
1F
100
AcDbEntity
  8
0
  6
Continuous
 62
     7
370
    25
100
AcDbPolyline
 90
       21
 70
   128
 43
0.0
 10
-1444.3464311017
 20
-310.6128201174
 10
-1442.8970301543
 20
-310.7594361058
 10
-1441.4871650864
 20
-311.1952847691
 10
-1440.1552933419
 20
-311.9084772919
 10
-1438.93774491
 20
-312.8795596414
 10
-1437.867731338
 20
-314.0820432224
 10
-1436.9744398068
 20
-315.4831274176
 10
-1436.2822369808
 20
-317.0445943024
 10
-1435.8100043487
 20
-318.7238511306
 10
-1435.5706231856
 20
-320.4750921536
 10
-1435.5706231856
 20
-322.2505480812
 10
-1435.8100043487
 20
-324.0017891042
 10
-1436.2822369808
 20
-325.6810459324
 10
-1436.9744398068
 20
-327.2425128172
 10
-1437.867731338
 20
-328.6435970124
 10
-1438.93774491
 20
-329.8460805934
 10
-1440.1552933419
 20
-330.8171629429
 10
-1441.4871650864
 20
-331.5303554657
 10
-1442.8970301543
 20
-331.966204129
 10
-1444.3464311017
 20
-332.1128201174
 10
-1444.3464311017
 20
-332.1128201174
  0
LWPOLYLINE
  5
34C
330
1F
100
AcDbEntity
  8
0
  6
Continuous
 62
     7
370
    25
100
AcDbPolyline
 90
       24
 70
   128
 43
0.0
 10
-1437.1767256473
 20
-305.8628201174
 10
-1435.4478372182
 20
-306.0071879538
 10
-1433.7511547094
 20
-306.4376021635
 10
-1432.1182841058
 20
-307.1460449441
 10
-1430.5796426971
 20
-308.1193193469
 10
-1429.1638924616
 20
-309.3392951115
 10
-1427.8974061475
 20
-310.7832463975
 10
-1426.8037759986
 20
-312.4242751246
 10
-1425.9033742752
 20
-314.2318120326
 10
-1425.2129737579
 20
-316.1721861287
 10
-1424.745435302
 20
-318.2092519151
 10
-1424.5094682643
 20
-320.3050627102
 10
-1424.5094682643
 20
-322.4205775246
 10
-1424.745435302
 20
-324.5163883197
 10
-1425.2129737579
 20
-326.553454106
 10
-1425.9033742752
 20
-328.4938282022
 10
-1426.8037759986
 20
-330.3013651102
 10
-1427.8974061475
 20
-331.9423938373
 10
-1429.1638924616
 20
-333.3863451233
 10
-1430.5796426971
 20
-334.6063208879
 10
-1432.1182841058
 20
-335.5795952907
 10
-1433.7511547094
 20
-336.2880380713
 10
-1435.4478372182
 20
-336.718452281
 10
-1437.1767256473
 20
-336.8628201174
  0
LWPOLYLINE
  5
34D
330
1F
100
AcDbEntity
  8
0
  6
Continuous
 62
     7
370
    25
100
AcDbPolyline
 90
       20
 70
   128
 43
0.0
 10
-1444.3464311017
 20
369.3871798826
 10
-1442.8970301543
 20
369.2405638942
 10
-1441.4871650864
 20
368.8047152309
 10
-1440.1552933419
 20
368.0915227081
 10
-1438.93774491
 20
367.1204403586
 10
-1437.867731338
 20
365.9179567776
 10
-1436.9744398068
 20
364.5168725824
 10
-1436.2822369808
 20
362.9554056976
 10
-1435.8100043487
 20
361.2761488694
 10
-1435.5706231856
 20
359.5249078464
 10
-1435.5706231856
 20
357.7494519188
 10
-1435.8100043487
 20
355.9982108958
 10
-1436.2822369808
 20
354.3189540676
 10
-1436.9744398068
 20
352.7574871828
 10
-1437.867731338
 20
351.3564029876
 10
-1438.93774491
 20
350.1539194066
 10
-1440.1552933419
 20
349.1828370571
 10
-1441.4871650864
 20
348.4696445343
 10
-1442.8970301543
 20
348.033795871
 10
-1444.3464311017
 20
347.8871798826
  0
LWPOLYLINE
  5
34E
330
1F
100
AcDbEntity
  8
0
  6
Continuous
 62
     7
370
    25
100
AcDbPolyline
 90
       24
 70
   128
 43
0.0
 10
-1437.1767256473
 20
374.1371798826
 10
-1435.4478372182
 20
373.9928120462
 10
-1433.7511547094
 20
373.5623978365
 10
-1432.1182841058
 20
372.8539550559
 10
-1430.5796426971
 20
371.8806806531
 10
-1429.1638924616
 20
370.6607048885
 10
-1427.8974061475
 20
369.2167536025
 10
-1426.8037759986
 20
367.5757248754
 10
-1425.9033742752
 20
365.7681879674
 10
-1425.2129737579
 20
363.8278138713
 10
-1424.745435302
 20
361.7907480849
 10
-1424.5094682643
 20
359.6949372898
 10
-1424.5094682643
 20
357.5794224754
 10
-1424.745435302
 20
355.4836116803
 10
-1425.2129737579
 20
353.4465458939
 10
-1425.9033742752
 20
351.5061717978
 10
-1426.8037759986
 20
349.6986348898
 10
-1427.8974061475
 20
348.0576061627
 10
-1429.1638924616
 20
346.6136548767
 10
-1430.5796426971
 20
345.3936791121
 10
-1432.1182841058
 20
344.4204047093
 10
-1433.7511547094
 20
343.7119619287
 10
-1435.4478372182
 20
343.281547719
 10
-1437.1767256473
 20
343.1371798826
  0
LWPOLYLINE
  5
34F
330
1F
100
AcDbEntity
  8
0
  6
Continuous
 62
     7
370
    25
100
AcDbPolyline
 90
       21
 70
   128
 43
0.0
 10
-657.1987879349
 20
-332.1128201174
 10
-658.6481888823
 20
-331.966204129
 10
-660.0580539502
 20
-331.5303554657
 10
-661.3899256947
 20
-330.8171629429
 10
-662.6074741266
 20
-329.8460805934
 10
-663.6774876986
 20
-328.6435970124
 10
-664.5707792298
 20
-327.2425128172
 10
-665.2629820557
 20
-325.6810459324
 10
-665.7352146879
 20
-324.0017891042
 10
-665.974595851
 20
-322.2505480812
 10
-665.974595851
 20
-320.4750921536
 10
-665.7352146879
 20
-318.7238511306
 10
-665.2629820557
 20
-317.0445943024
 10
-664.5707792298
 20
-315.4831274176
 10
-663.6774876986
 20
-314.0820432224
 10
-662.6074741266
 20
-312.8795596414
 10
-661.3899256947
 20
-311.9084772919
 10
-660.0580539502
 20
-311.1952847691
 10
-658.6481888823
 20
-310.7594361058
 10
-657.1987879349
 20
-310.6128201174
 10
-657.1987879349
 20
-310.6128201174
  0
LWPOLYLINE
  5
350
330
1F
100
AcDbEntity
  8
0
  6
Continuous
 62
     7
370
    25
100
AcDbPolyline
 90
       24
 70
   128
 43
0.0
 10
-664.3684933893
 20
-336.8628201174
 10
-666.0973818184
 20
-336.718452281
 10
-667.7940643272
 20
-336.2880380713
 10
-669.4269349308
 20
-335.5795952907
 10
-670.9655763395
 20
-334.6063208879
 10
-672.381326575
 20
-333.3863451233
 10
-673.6478128891
 20
-331.9423938373
 10
-674.741443038
 20
-330.3013651102
 10
-675.6418447614
 20
-328.4938282022
 10
-676.3322452787
 20
-326.553454106
 10
-676.7997837346
 20
-324.5163883197
 10
-677.0357507723
 20
-322.4205775246
 10
-677.0357507723
 20
-320.3050627102
 10
-676.7997837346
 20
-318.2092519151
 10
-676.3322452787
 20
-316.1721861287
 10
-675.6418447614
 20
-314.2318120326
 10
-674.741443038
 20
-312.4242751246
 10
-673.6478128891
 20
-310.7832463975
 10
-672.381326575
 20
-309.3392951115
 10
-670.9655763395
 20
-308.1193193469
 10
-669.4269349308
 20
-307.1460449441
 10
-667.7940643272
 20
-306.4376021635
 10
-666.0973818184
 20
-306.0071879538
 10
-664.3684933893
 20
-305.8628201174
  0
LWPOLYLINE
  5
351
330
1F
100
AcDbEntity
  8
0
  6
Continuous
 62
     7
370
    25
100
AcDbPolyline
 90
       11
 70
   128
 43
0.0
 10
-710.7726095183
 20
-366.1307572247
 10
-709.0032176728
 20
-366.2508580113
 10
-707.2820902243
 20
-366.6078843349
 10
-705.6561750431
 20
-367.1920974479
 10
-704.1698228569
 20
-367.9875615396
 10
-702.8635774786
 20
-368.9725784232
 10
-701.773069877
 20
-370.1202794059
 10
-700.9280462568
 20
-371.3993581967
 10
-700.3515566594
 20
-372.7749248605
 10
-700.0593262185
 20
-374.2094575244
 10
-700.0226095183
 20
-374.9366417008
  0
LWPOLYLINE
  5
352
330
1F
100
AcDbEntity
  8
0
  6
Continuous
 62
     7
370
    25
100
AcDbPolyline
 90
       11
 70
   128
 43
0.0
 10
-721.5226095183
 20
-374.9366417008
 10
-721.4858928181
 20
-374.2094575244
 10
-721.1936623771
 20
-372.7749248605
 10
-720.6171727798
 20
-371.3993581967
 10
-719.7721491596
 20
-370.1202794059
 10
-718.681641558
 20
-368.9725784232
 10
-717.3753961797
 20
-367.9875615396
 10
-715.8890439934
 20
-367.1920974479
 10
-714.2631288122
 20
-366.6078843349
 10
-712.5420013638
 20
-366.2508580113
 10
-710.7726095183
 20
-366.1307572247
  0
LWPOLYLINE
  5
353
330
1F
100
AcDbEntity
  8
0
  6
Continuous
 62
     7
370
    25
100
AcDbPolyline
 90
       13
 70
   128
 43
0.0
 10
-710.7726095183
 20
-355.0700795599
 10
-708.6620264573
 20
-355.1883387683
 10
-706.5907595654
 20
-355.540913448
 10
-704.5973926257
 20
-356.1212358
 10
-702.7190582927
 20
-356.9184955167
 10
-700.9907463812
 20
-357.9178411582
 10
-699.444652072
 20
-359.100656806
 10
-698.1095761766
 20
-360.4449088426
 10
-697.0103886331
 20
-361.9255563959
 10
-696.1675652255
 20
-363.5150178034
 10
-695.5968061592
 20
-365.1836844067
 10
-695.3087435958
 20
-366.900472104
 10
-695.2726095183
 20
-367.7669362464
  0
LWPOLYLINE
  5
354
330
1F
100
AcDbEntity
  8
0
  6
Continuous
 62
     7
370
    25
100
AcDbPolyline
 90
       13
 70
   128
 43
0.0
 10
-726.2726095183
 20
-367.7669362464
 10
-726.2364754408
 20
-366.900472104
 10
-725.9484128774
 20
-365.1836844067
 10
-725.3776538111
 20
-363.5150178034
 10
-724.5348304035
 20
-361.9255563959
 10
-723.43564286
 20
-360.4449088426
 10
-722.1005669646
 20
-359.100656806
 10
-720.5544726554
 20
-357.9178411582
 10
-718.8261607438
 20
-356.9184955167
 10
-716.9478264109
 20
-356.1212358
 10
-714.9544594712
 20
-355.540913448
 10
-712.8831925793
 20
-355.1883387683
 10
-710.7726095183
 20
-355.0700795599
  0
LWPOLYLINE
  5
355
330
1F
100
AcDbEntity
  8
0
  6
Continuous
 62
     7
370
    25
100
AcDbPolyline
 90
       21
 70
   128
 43
0.0
 10
-1380.0226095183
 20
412.211001466
 10
-1380.0593262185
 20
411.4838172896
 10
-1380.3515566594
 20
410.0492846257
 10
-1380.9280462568
 20
408.6737179619
 10
-1381.773069877
 20
407.3946391711
 10
-1382.8635774786
 20
406.2469381884
 10
-1384.1698228569
 20
405.2619213048
 10
-1385.6561750431
 20
404.4664572131
 10
-1387.2820902243
 20
403.8822441001
 10
-1389.0032176728
 20
403.5252177765
 10
-1390.7726095183
 20
403.4051169899
 10
-1392.5420013638
 20
403.5252177765
 10
-1394.2631288122
 20
403.8822441001
 10
-1395.8890439934
 20
404.4664572131
 10
-1397.3753961797
 20
405.2619213048
 10
-1398.681641558
 20
406.2469381884
 10
-1399.7721491596
 20
407.3946391711
 10
-1400.6171727798
 20
408.6737179619
 10
-1401.1936623771
 20
410.0492846257
 10
-1401.4858928181
 20
411.4838172896
 10
-1401.5226095183
 20
412.211001466
  0
LWPOLYLINE
  5
356
330
1F
100
AcDbEntity
  8
0
  6
Continuous
 62
     7
370
    25
100
AcDbPolyline
 90
       25
 70
   128
 43
0.0
 10
-1375.2726095183
 20
405.0412960116
 10
-1375.3087435958
 20
404.1748318692
 10
-1375.5968061592
 20
402.4580441719
 10
-1376.1675652255
 20
400.7893775686
 10
-1377.0103886331
 20
399.1999161611
 10
-1378.1095761766
 20
397.7192686078
 10
-1379.444652072
 20
396.3750165712
 10
-1380.9907463812
 20
395.1922009234
 10
-1382.7190582927
 20
394.1928552819
 10
-1384.5973926257
 20
393.3955955652
 10
-1386.5907595654
 20
392.8152732132
 10
-1388.6620264573
 20
392.4626985335
 10
-1390.7726095183
 20
392.3444393251
 10
-1392.8831925793
 20
392.4626985335
 10
-1394.9544594712
 20
392.8152732132
 10
-1396.9478264109
 20
393.3955955652
 10
-1398.8261607438
 20
394.1928552819
 10
-1400.5544726554
 20
395.1922009234
 10
-1402.1005669646
 20
396.3750165712
 10
-1403.43564286
 20
397.7192686078
 10
-1404.5348304035
 20
399.1999161611
 10
-1405.3776538111
 20
400.7893775686
 10
-1405.9484128774
 20
402.4580441719
 10
-1406.2364754407
 20
404.1748318692
 10
-1406.2726095183
 20
405.0412960116
  0
LINE
  5
357
330
1F
100
AcDbEntity
  8
0
  6
Continuous
 62
     7
370
    25
100
AcDbLine
 10
1225.4770694152
 20
-253.8628201174
 30
0.0
 11
1232.1092925754
 21
-253.8628201174
 31
0.0
  0
LINE
  5
358
330
1F
100
AcDbEntity
  8
0
  6
Continuous
 62
     7
370
    25
100
AcDbLine
 10
1210.6092925754
 20
-253.8628201174
 30
0.0
 11
1225.4770694152
 21
-253.8628201174
 31
0.0
  0
LWPOLYLINE
  5
359
330
1F
100
AcDbEntity
  8
0
  6
Continuous
 62
     7
370
    25
100
AcDbPolyline
 90
       20
 70
   128
 43
0.0
 10
-657.1987879349
 20
347.8871798826
 10
-658.6481888823
 20
348.033795871
 10
-660.0580539502
 20
348.4696445343
 10
-661.3899256947
 20
349.1828370571
 10
-662.6074741266
 20
350.1539194066
 10
-663.6774876986
 20
351.3564029876
 10
-664.5707792298
 20
352.7574871828
 10
-665.2629820557
 20
354.3189540676
 10
-665.7352146879
 20
355.9982108958
 10
-665.974595851
 20
357.7494519188
 10
-665.974595851
 20
359.5249078464
 10
-665.7352146879
 20
361.2761488694
 10
-665.2629820557
 20
362.9554056976
 10
-664.5707792298
 20
364.5168725824
 10
-663.6774876986
 20
365.9179567776
 10
-662.6074741266
 20
367.1204403586
 10
-661.3899256947
 20
368.0915227081
 10
-660.0580539502
 20
368.8047152309
 10
-658.6481888823
 20
369.2405638942
 10
-657.1987879349
 20
369.3871798826
  0
LWPOLYLINE
  5
35A
330
1F
100
AcDbEntity
  8
0
  6
Continuous
 62
     7
370
    25
100
AcDbPolyline
 90
       25
 70
   128
 43
0.0
 10
-664.3684933893
 20
343.1371798826
 10
-666.0973818184
 20
343.281547719
 10
-667.7940643272
 20
343.7119619287
 10
-669.4269349308
 20
344.4204047093
 10
-670.9655763395
 20
345.3936791121
 10
-672.381326575
 20
346.6136548767
 10
-673.6478128891
 20
348.0576061627
 10
-674.741443038
 20
349.6986348898
 10
-675.6418447614
 20
351.5061717978
 10
-676.3322452787
 20
353.446545894
 10
-676.7997837346
 20
355.4836116803
 10
-677.0357507723
 20
357.5794224754
 10
-677.0357507723
 20
359.6949372898
 10
-676.7997837346
 20
361.7907480849
 10
-676.3322452787
 20
363.8278138713
 10
-675.6418447614
 20
365.7681879674
 10
-674.741443038
 20
367.5757248754
 10
-673.6478128891
 20
369.2167536025
 10
-672.381326575
 20
370.6607048885
 10
-670.9655763395
 20
371.8806806531
 10
-669.4269349308
 20
372.8539550559
 10
-667.7940643272
 20
373.5623978365
 10
-666.0973818184
 20
373.9928120462
 10
-664.3684933893
 20
374.1371798826
 10
-664.3684933893
 20
374.1371798826
  0
LWPOLYLINE
  5
35B
330
1F
100
AcDbEntity
  8
0
  6
Continuous
 62
     7
370
    25
100
AcDbPolyline
 90
       11
 70
   128
 43
0.0
 10
-1390.7726095183
 20
-366.1307572247
 10
-1389.0032176728
 20
-366.2508580113
 10
-1387.2820902243
 20
-366.6078843349
 10
-1385.6561750431
 20
-367.1920974479
 10
-1384.1698228569
 20
-367.9875615396
 10
-1382.8635774786
 20
-368.9725784232
 10
-1381.773069877
 20
-370.1202794059
 10
-1380.9280462568
 20
-371.3993581967
 10
-1380.3515566594
 20
-372.7749248605
 10
-1380.0593262185
 20
-374.2094575244
 10
-1380.0226095183
 20
-374.9366417008
  0
LWPOLYLINE
  5
35C
330
1F
100
AcDbEntity
  8
0
  6
Continuous
 62
     7
370
    25
100
AcDbPolyline
 90
       11
 70
   128
 43
0.0
 10
-1401.5226095183
 20
-374.9366417008
 10
-1401.4858928181
 20
-374.2094575244
 10
-1401.1936623771
 20
-372.7749248605
 10
-1400.6171727798
 20
-371.3993581967
 10
-1399.7721491596
 20
-370.1202794059
 10
-1398.681641558
 20
-368.9725784232
 10
-1397.3753961797
 20
-367.9875615396
 10
-1395.8890439934
 20
-367.1920974479
 10
-1394.2631288122
 20
-366.6078843349
 10
-1392.5420013638
 20
-366.2508580113
 10
-1390.7726095183
 20
-366.1307572247
  0
LWPOLYLINE
  5
35D
330
1F
100
AcDbEntity
  8
0
  6
Continuous
 62
     7
370
    25
100
AcDbPolyline
 90
       13
 70
   128
 43
0.0
 10
-1390.7726095183
 20
-355.0700795599
 10
-1388.6620264573
 20
-355.1883387683
 10
-1386.5907595654
 20
-355.540913448
 10
-1384.5973926257
 20
-356.1212358
 10
-1382.7190582927
 20
-356.9184955167
 10
-1380.9907463812
 20
-357.9178411582
 10
-1379.444652072
 20
-359.100656806
 10
-1378.1095761766
 20
-360.4449088426
 10
-1377.0103886331
 20
-361.9255563959
 10
-1376.1675652255
 20
-363.5150178034
 10
-1375.5968061592
 20
-365.1836844067
 10
-1375.3087435958
 20
-366.900472104
 10
-1375.2726095183
 20
-367.7669362464
  0
LWPOLYLINE
  5
35E
330
1F
100
AcDbEntity
  8
0
  6
Continuous
 62
     7
370
    25
100
AcDbPolyline
 90
       13
 70
   128
 43
0.0
 10
-1406.2726095183
 20
-367.7669362464
 10
-1406.2364754408
 20
-366.900472104
 10
-1405.9484128774
 20
-365.1836844067
 10
-1405.3776538111
 20
-363.5150178034
 10
-1404.5348304035
 20
-361.9255563959
 10
-1403.43564286
 20
-360.4449088426
 10
-1402.1005669646
 20
-359.100656806
 10
-1400.5544726554
 20
-357.9178411582
 10
-1398.8261607438
 20
-356.9184955167
 10
-1396.9478264109
 20
-356.1212358
 10
-1394.9544594712
 20
-355.540913448
 10
-1392.8831925793
 20
-355.1883387683
 10
-1390.7726095183
 20
-355.0700795599
  0
LWPOLYLINE
  5
35F
330
1F
100
AcDbEntity
  8
0
  6
Continuous
 62
     7
370
    25
100
AcDbPolyline
 90
       21
 70
   128
 43
0.0
 10
-700.0226095183
 20
412.211001466
 10
-700.0593262185
 20
411.4838172896
 10
-700.3515566594
 20
410.0492846257
 10
-700.9280462568
 20
408.6737179619
 10
-701.773069877
 20
407.3946391711
 10
-702.8635774786
 20
406.2469381884
 10
-704.1698228569
 20
405.2619213048
 10
-705.6561750431
 20
404.4664572131
 10
-707.2820902243
 20
403.8822441001
 10
-709.0032176728
 20
403.5252177765
 10
-710.7726095183
 20
403.4051169899
 10
-712.5420013638
 20
403.5252177765
 10
-714.2631288122
 20
403.8822441001
 10
-715.8890439934
 20
404.4664572131
 10
-717.3753961797
 20
405.2619213048
 10
-718.681641558
 20
406.2469381884
 10
-719.7721491596
 20
407.3946391711
 10
-720.6171727798
 20
408.6737179619
 10
-721.1936623771
 20
410.0492846257
 10
-721.4858928181
 20
411.4838172896
 10
-721.5226095183
 20
412.211001466
  0
LWPOLYLINE
  5
360
330
1F
100
AcDbEntity
  8
0
  6
Continuous
 62
     7
370
    25
100
AcDbPolyline
 90
       25
 70
   128
 43
0.0
 10
-695.2726095183
 20
405.0412960116
 10
-695.3087435958
 20
404.1748318692
 10
-695.5968061592
 20
402.4580441719
 10
-696.1675652255
 20
400.7893775686
 10
-697.0103886331
 20
399.1999161611
 10
-698.1095761766
 20
397.7192686078
 10
-699.444652072
 20
396.3750165712
 10
-700.9907463812
 20
395.1922009234
 10
-702.7190582927
 20
394.1928552819
 10
-704.5973926257
 20
393.3955955652
 10
-706.5907595654
 20
392.8152732132
 10
-708.6620264573
 20
392.4626985335
 10
-710.7726095183
 20
392.3444393251
 10
-712.8831925793
 20
392.4626985335
 10
-714.9544594712
 20
392.8152732132
 10
-716.9478264109
 20
393.3955955652
 10
-718.8261607438
 20
394.1928552819
 10
-720.5544726554
 20
395.1922009234
 10
-722.1005669646
 20
396.3750165712
 10
-723.43564286
 20
397.7192686078
 10
-724.5348304035
 20
399.1999161611
 10
-725.3776538111
 20
400.7893775686
 10
-725.9484128774
 20
402.4580441719
 10
-726.2364754408
 20
404.1748318692
 10
-726.2726095183
 20
405.0412960116
  0
LWPOLYLINE
  5
361
330
1F
100
AcDbEntity
  8
0
  6
Continuous
 62
     7
370
    25
100
AcDbPolyline
 90
       38
 70
   128
 43
0.0
 10
-710.7726095183
 20
421.3541606364
 10
-709.0221131574
 20
421.2321158307
 10
-707.3219753897
 20
420.8694924205
 10
-705.7211060833
 20
420.2767224211
 10
-704.2655593335
 20
419.4708587461
 10
-702.9972085701
 20
418.4750846261
 10
-701.9525419354
 20
417.3180466697
 10
-701.1616125864
 20
416.0330307523
 10
-700.6471741204
 20
414.657004442
 10
-700.4240259955
 20
413.2295535107
 10
-700.4985877769
 20
411.7917431225
 10
-700.868714458
 20
410.3849364646
 10
-701.5237581679
 20
409.0496048031
 10
-702.4448744919
 20
407.8241631988
 10
-703.6055645903
 20
406.7438653753
 10
-704.9724375223
 20
405.8397895343
 10
-706.5061708423
 20
405.1379442915
 10
-708.1626418351
 20
404.6585204569
 10
-709.8941968461
 20
404.4153101811
 10
-711.6510221905
 20
404.4153101811
 10
-713.3825772015
 20
404.6585204569
 10
-715.0390481943
 20
405.1379442915
 10
-716.5727815143
 20
405.8397895343
 10
-717.9396544463
 20
406.7438653753
 10
-719.1003445447
 20
407.8241631988
 10
-720.0214608687
 20
409.0496048031
 10
-720.6765045786
 20
410.3849364646
 10
-721.0466312597
 20
411.7917431225
 10
-721.1211930411
 20
413.2295535107
 10
-720.8980449162
 20
414.657004442
 10
-720.3836064502
 20
416.0330307523
 10
-719.5926771012
 20
417.3180466697
 10
-718.5480104665
 20
418.4750846261
 10
-717.2796597031
 20
419.4708587461
 10
-715.8241129533
 20
420.2767224211
 10
-714.2232436469
 20
420.8694924205
 10
-712.5231058792
 20
421.2321158307
 10
-710.7726095183
 20
421.3541606364
  0
LWPOLYLINE
  5
362
330
1F
100
AcDbEntity
  8
0
  6
Continuous
 62
     7
370
    25
100
AcDbPolyline
 90
       31
 70
   128
 43
0.0
 10
-703.904149759
 20
419.3207130678
 10
-702.8635774786
 20
418.5106930061
 10
-701.773069877
 20
417.3629920234
 10
-700.9280462568
 20
416.0839132326
 10
-700.3515566594
 20
414.7083465689
 10
-700.0593262185
 20
413.2738139049
 10
-700.0593262185
 20
411.8194455522
 10
-700.3515566594
 20
410.3849128882
 10
-700.9280462568
 20
409.0093462245
 10
-701.773069877
 20
407.7302674337
 10
-702.8635774786
 20
406.582566451
 10
-704.1698228569
 20
405.5975495674
 10
-705.6561750431
 20
404.8020854757
 10
-707.2820902243
 20
404.2178723626
 10
-709.0032176728
 20
403.8608460391
 10
-710.7726095183
 20
403.7407452525
 10
-712.5420013638
 20
403.8608460391
 10
-714.2631288122
 20
404.2178723626
 10
-715.8890439934
 20
404.8020854757
 10
-717.3753961797
 20
405.5975495674
 10
-718.681641558
 20
406.582566451
 10
-719.7721491596
 20
407.7302674337
 10
-720.6171727798
 20
409.0093462245
 10
-721.1936623771
 20
410.3849128882
 10
-721.4858928181
 20
411.8194455522
 10
-721.4858928181
 20
413.2738139049
 10
-721.1936623771
 20
414.7083465689
 10
-720.6171727798
 20
416.0839132326
 10
-719.7721491596
 20
417.3629920234
 10
-718.681641558
 20
418.5106930061
 10
-717.6245845717
 20
419.331905873
  0
LWPOLYLINE
  5
363
330
1F
100
AcDbEntity
  8
0
  6
Continuous
 62
     7
370
    25
100
AcDbPolyline
 90
       38
 70
   128
 43
0.0
 10
-1390.7726095183
 20
-367.1103841568
 10
-1389.0221131574
 20
-367.2324289625
 10
-1387.3219753897
 20
-367.5950523727
 10
-1385.7211060833
 20
-368.1878223721
 10
-1384.2655593335
 20
-368.9936860472
 10
-1382.9972085701
 20
-369.9894601671
 10
-1381.9525419354
 20
-371.1464981235
 10
-1381.1616125864
 20
-372.431514041
 10
-1380.6471741204
 20
-373.8075403512
 10
-1380.4240259955
 20
-375.2349912826
 10
-1380.4985877769
 20
-376.6728016707
 10
-1380.868714458
 20
-378.0796083286
 10
-1381.5237581679
 20
-379.4149399901
 10
-1382.4448744919
 20
-380.6403815945
 10
-1383.6055645903
 20
-381.7206794179
 10
-1384.9724375223
 20
-382.624755259
 10
-1386.5061708423
 20
-383.3266005017
 10
-1388.1626418351
 20
-383.8060243364
 10
-1389.8941968461
 20
-384.0492346121
 10
-1391.6510221905
 20
-384.0492346121
 10
-1393.3825772015
 20
-383.8060243364
 10
-1395.0390481943
 20
-383.3266005017
 10
-1396.5727815143
 20
-382.624755259
 10
-1397.9396544463
 20
-381.7206794179
 10
-1399.1003445447
 20
-380.6403815945
 10
-1400.0214608687
 20
-379.4149399901
 10
-1400.6765045786
 20
-378.0796083286
 10
-1401.0466312597
 20
-376.6728016707
 10
-1401.1211930411
 20
-375.2349912826
 10
-1400.8980449162
 20
-373.8075403512
 10
-1400.3836064502
 20
-372.431514041
 10
-1399.5926771012
 20
-371.1464981235
 10
-1398.5480104665
 20
-369.9894601671
 10
-1397.2796597031
 20
-368.9936860472
 10
-1395.8241129533
 20
-368.1878223721
 10
-1394.2232436469
 20
-367.5950523727
 10
-1392.5231058792
 20
-367.2324289625
 10
-1390.7726095183
 20
-367.1103841568
  0
ARC
  5
364
330
1F
100
AcDbEntity
  8
0
  6
Continuous
 62
     7
370
    25
100
AcDbCircle
 10
-1388.3077933728
 20
-375.5205684541
 30
0.0
 40
8.28890364544751
100
AcDbArc
 50
1.7165821552
 51
57.9087143272
  0
ARC
  5
365
330
1F
100
AcDbEntity
  8
0
  6
Continuous
 62
     7
370
    25
100
AcDbCircle
 10
-1393.2344379322
 20
-375.5213702429
 30
0.0
 40
8.291914084777723
100
AcDbArc
 50
121.9682418356
 51
178.2784985248
  0
LWPOLYLINE
  5
366
330
1F
100
AcDbEntity
  8
0
  6
Continuous
 62
     7
370
    25
100
AcDbPolyline
 90
       38
 70
   128
 43
0.0
 10
-710.7726095183
 20
-367.1103841568
 10
-709.0221131574
 20
-367.2324289625
 10
-707.3219753897
 20
-367.5950523727
 10
-705.7211060833
 20
-368.1878223721
 10
-704.2655593335
 20
-368.9936860472
 10
-702.9972085701
 20
-369.9894601671
 10
-701.9525419354
 20
-371.1464981235
 10
-701.1616125864
 20
-372.431514041
 10
-700.6471741204
 20
-373.8075403512
 10
-700.4240259955
 20
-375.2349912826
 10
-700.4985877769
 20
-376.6728016707
 10
-700.868714458
 20
-378.0796083286
 10
-701.5237581679
 20
-379.4149399901
 10
-702.4448744919
 20
-380.6403815945
 10
-703.6055645903
 20
-381.7206794179
 10
-704.9724375223
 20
-382.624755259
 10
-706.5061708423
 20
-383.3266005017
 10
-708.1626418351
 20
-383.8060243364
 10
-709.8941968461
 20
-384.0492346121
 10
-711.6510221905
 20
-384.0492346121
 10
-713.3825772015
 20
-383.8060243364
 10
-715.0390481943
 20
-383.3266005017
 10
-716.5727815143
 20
-382.624755259
 10
-717.9396544463
 20
-381.7206794179
 10
-719.1003445447
 20
-380.6403815945
 10
-720.0214608687
 20
-379.4149399901
 10
-720.6765045786
 20
-378.0796083286
 10
-721.0466312597
 20
-376.6728016707
 10
-721.1211930411
 20
-375.2349912826
 10
-720.8980449162
 20
-373.8075403512
 10
-720.3836064502
 20
-372.431514041
 10
-719.5926771012
 20
-371.1464981235
 10
-718.5480104665
 20
-369.9894601671
 10
-717.2796597031
 20
-368.9936860472
 10
-715.8241129533
 20
-368.1878223721
 10
-714.2232436469
 20
-367.5950523727
 10
-712.5231058792
 20
-367.2324289625
 10
-710.7726095183
 20
-367.1103841568
  0
ARC
  5
367
330
1F
100
AcDbEntity
  8
0
  6
Continuous
 62
     7
370
    25
100
AcDbCircle
 10
-708.3077933728
 20
-375.5205684541
 30
0.0
 40
8.288903645450828
100
AcDbArc
 50
1.7165821552
 51
57.9087143272
  0
ARC
  5
368
330
1F
100
AcDbEntity
  8
0
  6
Continuous
 62
     7
370
    25
100
AcDbCircle
 10
-713.2344379322
 20
-375.5213702429
 30
0.0
 40
8.291914084776035
100
AcDbArc
 50
121.9682418356
 51
178.2784985248
  0
LWPOLYLINE
  5
369
330
1F
100
AcDbEntity
  8
0
  6
Continuous
 62
     7
370
    25
100
AcDbPolyline
 90
       38
 70
   128
 43
0.0
 10
-656.5403371217
 20
-311.0049037619
 10
-655.1064144491
 20
-311.1538929594
 10
-653.7137431211
 20
-311.5965744038
 10
-652.4023877562
 20
-312.3202129561
 10
-651.2100736605
 20
-313.3039908526
 10
-650.1711015398
 20
-314.5196065943
 10
-649.3153607304
 20
-315.9320891297
 10
-648.6674693372
 20
-317.5008039079
 10
-648.2460660162
 20
-319.1806218609
 10
-648.0632737735
 20
-320.9232176847
 10
-648.1243512092
 20
-322.67846007
 10
-648.4275412366
 20
-324.3958538893
 10
-648.9641216307
 20
-326.0259928491
 10
-649.7186559505
 20
-327.5219808198
 10
-650.6694376174
 20
-328.8407809509
 10
-651.7891143739
 20
-329.944453764
 10
-653.0454751584
 20
-330.8012486016
 10
-654.4023767584
 20
-331.3865170362
 10
-655.8207835855
 20
-331.6834219605
 10
-657.2598906578
 20
-331.6834219605
 10
-658.6782974849
 20
-331.3865170362
 10
-660.035199085
 20
-330.8012486016
 10
-661.2915598694
 20
-329.944453764
 10
-662.4112366259
 20
-328.8407809509
 10
-663.3620182928
 20
-327.5219808198
 10
-664.1165526127
 20
-326.0259928491
 10
-664.6531330068
 20
-324.3958538893
 10
-664.9563230342
 20
-322.67846007
 10
-665.0174004699
 20
-320.9232176847
 10
-664.8346082272
 20
-319.1806218609
 10
-664.4132049061
 20
-317.5008039079
 10
-663.765313513
 20
-315.9320891297
 10
-662.9095727036
 20
-314.5196065943
 10
-661.8706005829
 20
-313.3039908526
 10
-660.6782864872
 20
-312.3202129561
 10
-659.3669311222
 20
-311.5965744038
 10
-657.9742597942
 20
-311.1538929594
 10
-656.5403371217
 20
-311.0049037619
  0
LWPOLYLINE
  5
36A
330
1F
100
AcDbEntity
  8
0
  6
Continuous
 62
     7
370
    25
100
AcDbPolyline
 90
       21
 70
   128
 43
0.0
 10
-656.8631596723
 20
-332.1128201174
 10
-658.3125606197
 20
-331.966204129
 10
-659.7224256876
 20
-331.5303554657
 10
-661.0542974321
 20
-330.8171629429
 10
-662.271845864
 20
-329.8460805934
 10
-663.341859436
 20
-328.6435970124
 10
-664.2351509672
 20
-327.2425128172
 10
-664.9273537932
 20
-325.6810459324
 10
-665.3995864253
 20
-324.0017891042
 10
-665.6389675884
 20
-322.2505480812
 10
-665.6389675884
 20
-320.4750921536
 10
-665.3995864253
 20
-318.7238511306
 10
-664.9273537932
 20
-317.0445943024
 10
-664.2351509672
 20
-315.4831274176
 10
-663.341859436
 20
-314.0820432224
 10
-662.271845864
 20
-312.8795596414
 10
-661.0542974321
 20
-311.9084772919
 10
-659.7224256876
 20
-311.1952847691
 10
-658.3125606197
 20
-310.7594361058
 10
-656.8631596723
 20
-310.6128201174
 10
-656.8631596723
 20
-310.6128201174
  0
LWPOLYLINE
  5
36B
330
1F
100
AcDbEntity
  8
0
  6
Continuous
 62
     7
370
    25
100
AcDbPolyline
 90
       38
 70
   128
 43
0.0
 10
-1445.0048819149
 20
368.9950962381
 10
-1443.5709592424
 20
368.8461070406
 10
-1442.1782879144
 20
368.4034255962
 10
-1440.8669325494
 20
367.6797870439
 10
-1439.6746184537
 20
366.6960091474
 10
-1438.635646333
 20
365.4803934057
 10
-1437.7799055236
 20
364.0679108703
 10
-1437.1320141305
 20
362.4991960921
 10
-1436.7106108094
 20
360.8193781391
 10
-1436.5278185667
 20
359.0767823153
 10
-1436.5888960024
 20
357.32153993
 10
-1436.8920860298
 20
355.6041461107
 10
-1437.4286664239
 20
353.9740071509
 10
-1438.1832007437
 20
352.4780191802
 10
-1439.1339824106
 20
351.1592190491
 10
-1440.2536591672
 20
350.055546236
 10
-1441.5100199516
 20
349.1987513984
 10
-1442.8669215517
 20
348.6134829638
 10
-1444.2853283788
 20
348.3165780395
 10
-1445.7244354511
 20
348.3165780395
 10
-1447.1428422782
 20
348.6134829638
 10
-1448.4997438782
 20
349.1987513984
 10
-1449.7561046627
 20
350.055546236
 10
-1450.8757814192
 20
351.1592190491
 10
-1451.8265630861
 20
352.4780191802
 10
-1452.5810974059
 20
353.9740071509
 10
-1453.1176778
 20
355.6041461107
 10
-1453.4208678274
 20
357.32153993
 10
-1453.4819452631
 20
359.0767823153
 10
-1453.2991530204
 20
360.8193781391
 10
-1452.8777496993
 20
362.4991960921
 10
-1452.2298583062
 20
364.0679108703
 10
-1451.3741174968
 20
365.4803934057
 10
-1450.3351453761
 20
366.6960091474
 10
-1449.1428312804
 20
367.6797870439
 10
-1447.8314759155
 20
368.4034255962
 10
-1446.4388045875
 20
368.8461070406
 10
-1445.0048819149
 20
368.9950962381
  0
LWPOLYLINE
  5
36C
330
1F
100
AcDbEntity
  8
0
  6
Continuous
 62
     7
370
    25
100
AcDbPolyline
 90
       20
 70
   128
 43
0.0
 10
-1444.6820593643
 20
369.3871798826
 10
-1443.2326584169
 20
369.2405638942
 10
-1441.822793349
 20
368.8047152309
 10
-1440.4909216045
 20
368.0915227081
 10
-1439.2733731726
 20
367.1204403586
 10
-1438.2033596006
 20
365.9179567776
 10
-1437.3100680694
 20
364.5168725824
 10
-1436.6178652434
 20
362.9554056976
 10
-1436.1456326113
 20
361.2761488694
 10
-1435.9062514482
 20
359.5249078464
 10
-1435.9062514482
 20
357.7494519188
 10
-1436.1456326113
 20
355.9982108958
 10
-1436.6178652434
 20
354.3189540676
 10
-1437.3100680694
 20
352.7574871828
 10
-1438.2033596006
 20
351.3564029876
 10
-1439.2733731726
 20
350.1539194066
 10
-1440.4909216045
 20
349.1828370571
 10
-1441.822793349
 20
348.4696445343
 10
-1443.2326584169
 20
348.033795871
 10
-1444.6820593643
 20
347.8871798826
  0
LWPOLYLINE
  5
36D
330
1F
100
AcDbEntity
  8
0
  6
Continuous
 62
     7
370
    25
100
AcDbPolyline
 90
       38
 70
   128
 43
0.0
 10
-1445.0048819149
 20
-311.0049037619
 10
-1443.5709592424
 20
-311.1538929594
 10
-1442.1782879144
 20
-311.5965744038
 10
-1440.8669325494
 20
-312.3202129561
 10
-1439.6746184537
 20
-313.3039908526
 10
-1438.635646333
 20
-314.5196065943
 10
-1437.7799055236
 20
-315.9320891297
 10
-1437.1320141305
 20
-317.5008039079
 10
-1436.7106108094
 20
-319.1806218609
 10
-1436.5278185667
 20
-320.9232176847
 10
-1436.5888960024
 20
-322.67846007
 10
-1436.8920860298
 20
-324.3958538893
 10
-1437.4286664239
 20
-326.0259928491
 10
-1438.1832007437
 20
-327.5219808198
 10
-1439.1339824106
 20
-328.8407809509
 10
-1440.2536591672
 20
-329.944453764
 10
-1441.5100199516
 20
-330.8012486016
 10
-1442.8669215517
 20
-331.3865170362
 10
-1444.2853283788
 20
-331.6834219605
 10
-1445.7244354511
 20
-331.6834219605
 10
-1447.1428422782
 20
-331.3865170362
 10
-1448.4997438782
 20
-330.8012486016
 10
-1449.7561046627
 20
-329.944453764
 10
-1450.8757814192
 20
-328.8407809509
 10
-1451.8265630861
 20
-327.5219808198
 10
-1452.5810974059
 20
-326.0259928491
 10
-1453.1176778
 20
-324.3958538893
 10
-1453.4208678274
 20
-322.67846007
 10
-1453.4819452631
 20
-320.9232176847
 10
-1453.2991530204
 20
-319.1806218609
 10
-1452.8777496993
 20
-317.5008039079
 10
-1452.2298583062
 20
-315.9320891297
 10
-1451.3741174968
 20
-314.5196065943
 10
-1450.3351453761
 20
-313.3039908526
 10
-1449.1428312804
 20
-312.3202129561
 10
-1447.8314759155
 20
-311.5965744038
 10
-1446.4388045875
 20
-311.1538929594
 10
-1445.0048819149
 20
-311.0049037619
  0
LWPOLYLINE
  5
36E
330
1F
100
AcDbEntity
  8
0
  6
Continuous
 62
     7
370
    25
100
AcDbPolyline
 90
       21
 70
   128
 43
0.0
 10
-1444.6820593643
 20
-310.6128201174
 10
-1443.2326584169
 20
-310.7594361058
 10
-1441.822793349
 20
-311.1952847691
 10
-1440.4909216045
 20
-311.9084772919
 10
-1439.2733731726
 20
-312.8795596414
 10
-1438.2033596006
 20
-314.0820432224
 10
-1437.3100680694
 20
-315.4831274176
 10
-1436.6178652434
 20
-317.0445943024
 10
-1436.1456326113
 20
-318.7238511306
 10
-1435.9062514482
 20
-320.4750921536
 10
-1435.9062514482
 20
-322.2505480812
 10
-1436.1456326113
 20
-324.0017891042
 10
-1436.6178652434
 20
-325.6810459324
 10
-1437.3100680694
 20
-327.2425128172
 10
-1438.2033596006
 20
-328.6435970124
 10
-1439.2733731726
 20
-329.8460805934
 10
-1440.4909216045
 20
-330.8171629429
 10
-1441.822793349
 20
-331.5303554657
 10
-1443.2326584169
 20
-331.966204129
 10
-1444.6820593643
 20
-332.1128201174
 10
-1444.6820593643
 20
-332.1128201174
  0
LWPOLYLINE
  5
36F
330
1F
100
AcDbEntity
  8
0
  6
Continuous
 62
     7
370
    25
100
AcDbPolyline
 90
       38
 70
   128
 43
0.0
 10
-1390.7726095183
 20
421.3541606364
 10
-1389.0221131574
 20
421.2321158307
 10
-1387.3219753897
 20
420.8694924205
 10
-1385.7211060833
 20
420.2767224211
 10
-1384.2655593335
 20
419.4708587461
 10
-1382.9972085701
 20
418.4750846261
 10
-1381.9525419354
 20
417.3180466697
 10
-1381.1616125864
 20
416.0330307523
 10
-1380.6471741204
 20
414.657004442
 10
-1380.4240259955
 20
413.2295535107
 10
-1380.4985877769
 20
411.7917431225
 10
-1380.868714458
 20
410.3849364646
 10
-1381.5237581679
 20
409.0496048031
 10
-1382.4448744919
 20
407.8241631988
 10
-1383.6055645903
 20
406.7438653753
 10
-1384.9724375223
 20
405.8397895343
 10
-1386.5061708423
 20
405.1379442915
 10
-1388.1626418351
 20
404.6585204569
 10
-1389.8941968461
 20
404.4153101811
 10
-1391.6510221905
 20
404.4153101811
 10
-1393.3825772015
 20
404.6585204569
 10
-1395.0390481943
 20
405.1379442915
 10
-1396.5727815143
 20
405.8397895343
 10
-1397.9396544463
 20
406.7438653753
 10
-1399.1003445447
 20
407.8241631988
 10
-1400.0214608687
 20
409.0496048031
 10
-1400.6765045786
 20
410.3849364646
 10
-1401.0466312597
 20
411.7917431225
 10
-1401.1211930411
 20
413.2295535107
 10
-1400.8980449162
 20
414.657004442
 10
-1400.3836064502
 20
416.0330307523
 10
-1399.5926771012
 20
417.3180466697
 10
-1398.5480104665
 20
418.4750846261
 10
-1397.2796597031
 20
419.4708587461
 10
-1395.8241129533
 20
420.2767224211
 10
-1394.2232436469
 20
420.8694924205
 10
-1392.5231058792
 20
421.2321158307
 10
-1390.7726095183
 20
421.3541606364
  0
LWPOLYLINE
  5
370
330
1F
100
AcDbEntity
  8
0
  6
Continuous
 62
     7
370
    25
100
AcDbPolyline
 90
       31
 70
   128
 43
0.0
 10
-1383.904149759
 20
419.3207130678
 10
-1382.8635774786
 20
418.5106930061
 10
-1381.773069877
 20
417.3629920234
 10
-1380.9280462568
 20
416.0839132326
 10
-1380.3515566594
 20
414.7083465689
 10
-1380.0593262185
 20
413.2738139049
 10
-1380.0593262185
 20
411.8194455522
 10
-1380.3515566594
 20
410.3849128882
 10
-1380.9280462568
 20
409.0093462245
 10
-1381.773069877
 20
407.7302674337
 10
-1382.8635774786
 20
406.582566451
 10
-1384.1698228569
 20
405.5975495674
 10
-1385.6561750431
 20
404.8020854757
 10
-1387.2820902243
 20
404.2178723626
 10
-1389.0032176728
 20
403.8608460391
 10
-1390.7726095183
 20
403.7407452525
 10
-1392.5420013638
 20
403.8608460391
 10
-1394.2631288122
 20
404.2178723626
 10
-1395.8890439934
 20
404.8020854757
 10
-1397.3753961797
 20
405.5975495674
 10
-1398.681641558
 20
406.582566451
 10
-1399.7721491596
 20
407.7302674337
 10
-1400.6171727798
 20
409.0093462245
 10
-1401.1936623771
 20
410.3849128882
 10
-1401.4858928181
 20
411.8194455522
 10
-1401.4858928181
 20
413.2738139049
 10
-1401.1936623771
 20
414.7083465689
 10
-1400.6171727798
 20
416.0839132326
 10
-1399.7721491596
 20
417.3629920234
 10
-1398.681641558
 20
418.5106930061
 10
-1397.6245845717
 20
419.331905873
  0
LWPOLYLINE
  5
371
330
1F
100
AcDbEntity
  8
0
  6
Continuous
 62
     7
370
    25
100
AcDbPolyline
 90
       38
 70
   128
 43
0.0
 10
-656.5403371217
 20
368.9950962381
 10
-655.1064144491
 20
368.8461070406
 10
-653.7137431211
 20
368.4034255962
 10
-652.4023877562
 20
367.6797870439
 10
-651.2100736605
 20
366.6960091474
 10
-650.1711015398
 20
365.4803934057
 10
-649.3153607304
 20
364.0679108703
 10
-648.6674693372
 20
362.4991960921
 10
-648.2460660162
 20
360.8193781391
 10
-648.0632737735
 20
359.0767823153
 10
-648.1243512092
 20
357.32153993
 10
-648.4275412366
 20
355.6041461107
 10
-648.9641216307
 20
353.9740071509
 10
-649.7186559505
 20
352.4780191802
 10
-650.6694376174
 20
351.1592190491
 10
-651.7891143739
 20
350.055546236
 10
-653.0454751584
 20
349.1987513984
 10
-654.4023767584
 20
348.6134829638
 10
-655.8207835855
 20
348.3165780395
 10
-657.2598906578
 20
348.3165780395
 10
-658.6782974849
 20
348.6134829638
 10
-660.035199085
 20
349.1987513984
 10
-661.2915598694
 20
350.055546236
 10
-662.4112366259
 20
351.1592190491
 10
-663.3620182928
 20
352.4780191802
 10
-664.1165526127
 20
353.9740071509
 10
-664.6531330068
 20
355.6041461107
 10
-664.9563230342
 20
357.32153993
 10
-665.0174004699
 20
359.0767823153
 10
-664.8346082272
 20
360.8193781391
 10
-664.4132049061
 20
362.4991960921
 10
-663.765313513
 20
364.0679108703
 10
-662.9095727036
 20
365.4803934057
 10
-661.8706005829
 20
366.6960091474
 10
-660.6782864872
 20
367.6797870439
 10
-659.3669311222
 20
368.4034255962
 10
-657.9742597942
 20
368.8461070406
 10
-656.5403371217
 20
368.9950962381
  0
LWPOLYLINE
  5
372
330
1F
100
AcDbEntity
  8
0
  6
Continuous
 62
     7
370
    25
100
AcDbPolyline
 90
       20
 70
   128
 43
0.0
 10
-656.8631596723
 20
347.8871798826
 10
-658.3125606197
 20
348.033795871
 10
-659.7224256876
 20
348.4696445343
 10
-661.0542974321
 20
349.1828370571
 10
-662.271845864
 20
350.1539194066
 10
-663.341859436
 20
351.3564029876
 10
-664.2351509672
 20
352.7574871828
 10
-664.9273537932
 20
354.3189540676
 10
-665.3995864253
 20
355.9982108958
 10
-665.6389675884
 20
357.7494519188
 10
-665.6389675884
 20
359.5249078464
 10
-665.3995864253
 20
361.2761488694
 10
-664.9273537932
 20
362.9554056976
 10
-664.2351509672
 20
364.5168725824
 10
-663.341859436
 20
365.9179567776
 10
-662.271845864
 20
367.1204403586
 10
-661.0542974321
 20
368.0915227081
 10
-659.7224256876
 20
368.8047152309
 10
-658.3125606197
 20
369.2405638942
 10
-656.8631596723
 20
369.3871798826
  0
LINE
  5
373
330
1F
100
AcDbEntity
  8
0
  6
Continuous
 62
     7
370
    25
100
AcDbLine
 10
-382.3760850671
 20
-258.0628201174
 30
0.0
 11
-363.7049234542
 21
-258.0628201174
 31
0.0
  0
LINE
  5
374
330
1F
100
AcDbEntity
  8
0
  6
Continuous
 62
     7
370
    25
100
AcDbLine
 10
-355.3760850671
 20
295.3371798826
 30
0.0
 11
-382.3760850671
 21
295.3371798826
 31
0.0
  0
LINE
  5
375
330
1F
100
AcDbEntity
  8
0
  6
Continuous
 62
     7
370
    25
100
AcDbLine
 10
492.3150417344
 20
-258.0628201174
 30
0.0
 11
510.9862033473
 21
-258.0628201174
 31
0.0
  0
LINE
  5
376
330
1F
100
AcDbEntity
  8
0
  6
Continuous
 62
     7
370
    25
100
AcDbLine
 10
1206.8104263031
 20
295.3371798826
 30
0.0
 11
1179.8104263031
 21
295.3371798826
 31
0.0
  0
LINE
  5
377
330
1F
100
AcDbEntity
  8
0
  6
Continuous
 62
     7
370
    25
100
AcDbLine
 10
780.6108668673
 20
-258.0628201174
 30
0.0
 11
799.2820284802
 21
-258.0628201174
 31
0.0
  0
LINE
  5
378
330
1F
100
AcDbEntity
  8
0
  6
Continuous
 62
     7
370
    25
100
AcDbLine
 10
519.3150417344
 20
295.3371798826
 30
0.0
 11
492.3150417344
 21
295.3371798826
 31
0.0
  0
LINE
  5
379
330
1F
100
AcDbEntity
  8
0
  6
Continuous
 62
     7
370
    25
100
AcDbLine
 10
807.6108668673
 20
295.3371798826
 30
0.0
 11
780.6108668673
 21
295.3371798826
 31
0.0
  0
LINE
  5
37A
330
1F
100
AcDbEntity
  8
0
  6
Continuous
 62
     7
370
    25
100
AcDbLine
 10
-90.8123761333
 20
-258.0628201174
 30
0.0
 11
-72.1412145204
 21
-258.0628201174
 31
0.0
  0
LINE
  5
37B
330
1F
100
AcDbEntity
  8
0
  6
Continuous
 62
     7
370
    25
100
AcDbLine
 10
1179.8104263031
 20
-258.0628201174
 30
0.0
 11
1198.481587916
 21
-258.0628201174
 31
0.0
  0
LINE
  5
37C
330
1F
100
AcDbEntity
  8
0
  6
Continuous
 62
     7
370
    25
100
AcDbLine
 10
-63.8123761333
 20
295.3371798826
 30
0.0
 11
-90.8123761333
 21
295.3371798826
 31
0.0
  0
LINE
  5
37D
330
1F
100
AcDbEntity
  8
0
  6
Continuous
 62
     7
370
    25
100
AcDbLine
 10
200.7513328006
 20
-258.0628201174
 30
0.0
 11
219.4224944134
 21
-258.0628201174
 31
0.0
  0
LINE
  5
37E
330
1F
100
AcDbEntity
  8
0
  6
Continuous
 62
     7
370
    25
100
AcDbLine
 10
1281.1315654972
 20
295.3371798826
 30
0.0
 11
1254.1315654972
 21
295.3371798826
 31
0.0
  0
LINE
  5
37F
330
1F
100
AcDbEntity
  8
0
  6
Continuous
 62
     7
370
    25
100
AcDbLine
 10
227.7513328006
 20
295.3371798826
 30
0.0
 11
200.7513328006
 21
295.3371798826
 31
0.0
  0
LWPOLYLINE
  5
380
330
1F
100
AcDbEntity
  8
0
  6
Continuous
 62
     7
370
    25
100
AcDbPolyline
 90
        9
 70
   128
 43
0.0
 10
557.6719200515
 20
278.6371798826
 10
558.0322493844
 20
278.5795357238
 10
558.3787314631
 20
278.4088184801
 10
558.6980511756
 20
278.1315887195
 10
558.9779372445
 20
277.7585002262
 10
559.2076338051
 20
277.3038905817
 10
559.3783137473
 20
276.7852301797
 10
559.4834179368
 20
276.2224508486
 10
559.5189072785
 20
275.6371798826
  0
LINE
  5
381
330
1F
100
AcDbEntity
  8
0
  6
Continuous
 62
     7
370
    25
100
AcDbLine
 10
557.6719200515
 20
278.6371798826
 30
0.0
 11
-578.2910317725
 21
278.6371798826
 31
0.0
  0
LINE
  5
382
330
1F
100
AcDbEntity
  8
0
  6
Continuous
 62
     7
370
    25
100
AcDbLine
 10
559.5189072785
 20
266.6371798826
 30
0.0
 11
559.5189072785
 21
275.6371798826
 31
0.0
  0
LWPOLYLINE
  5
383
330
1F
100
AcDbEntity
  8
0
  6
Continuous
 62
     7
370
    25
100
AcDbPolyline
 90
        9
 70
   128
 43
0.0
 10
559.5189072785
 20
266.6371798826
 10
559.4834179368
 20
266.0519089166
 10
559.3783137473
 20
265.4891295855
 10
559.2076338051
 20
264.9704691835
 10
558.9779372445
 20
264.515859539
 10
558.6980511756
 20
264.1427710457
 10
558.3787314631
 20
263.8655412851
 10
558.0322493844
 20
263.6948240414
 10
557.6719200515
 20
263.6371798826
  0
LINE
  5
384
330
1F
100
AcDbEntity
  8
0
  6
Continuous
 62
     7
370
    25
100
AcDbLine
 10
-583.0816423185
 20
263.6371798826
 30
0.0
 11
557.6719200515
 21
263.6371798826
 31
0.0
  0
LINE
  5
385
330
1F
100
AcDbEntity
  8
0
  6
Continuous
 62
     7
370
    25
100
AcDbLine
 10
876.5768453181
 20
266.6371798826
 30
0.0
 11
559.5189072785
 21
266.6371798826
 31
0.0
  0
LWPOLYLINE
  5
386
330
1F
100
AcDbEntity
  8
0
  6
Continuous
 62
     7
370
    25
100
AcDbPolyline
 90
        9
 70
   128
 43
0.0
 10
876.5768453181
 20
266.6371798826
 10
876.5595054692
 20
266.0519089166
 10
876.5081522808
 20
265.4891295855
 10
876.4247592271
 20
264.9704691835
 10
876.3125310564
 20
264.515859539
 10
876.1757806343
 20
264.1427710457
 10
876.0197632029
 20
263.8655412851
 10
875.8504744245
 20
263.6948240414
 10
875.6744199721
 20
263.6371798826
  0
LINE
  5
387
330
1F
100
AcDbEntity
  8
0
  6
Continuous
 62
     7
370
    25
100
AcDbLine
 10
557.6719200515
 20
263.6371798826
 30
0.0
 11
875.6744199721
 21
263.6371798826
 31
0.0
  0
LINE
  5
388
330
1F
100
AcDbEntity
  8
0
  6
Continuous
 62
     7
370
    25
100
AcDbLine
 10
559.5189072785
 20
275.6371798826
 30
0.0
 11
876.5768453181
 21
275.6371798826
 31
0.0
  0
LINE
  5
389
330
1F
100
AcDbEntity
  8
0
  6
Continuous
 62
     7
370
    25
100
AcDbLine
 10
876.5768453181
 20
266.6371798826
 30
0.0
 11
876.5768453181
 21
275.6371798826
 31
0.0
  0
LWPOLYLINE
  5
38A
330
1F
100
AcDbEntity
  8
0
  6
Continuous
 62
     7
370
    25
100
AcDbPolyline
 90
        9
 70
   128
 43
0.0
 10
875.6744199721
 20
278.6371798826
 10
875.8504744235
 20
278.5795357238
 10
876.019763201
 20
278.4088184801
 10
876.1757806319
 20
278.1315887195
 10
876.3125310538
 20
277.7585002262
 10
876.4247592247
 20
277.3038905817
 10
876.5081522789
 20
276.7852301797
 10
876.5595054681
 20
276.2224508486
 10
876.5768453181
 20
275.6371798826
  0
LINE
  5
38B
330
1F
100
AcDbEntity
  8
0
  6
Continuous
 62
     7
370
    25
100
AcDbLine
 10
875.6744199721
 20
278.6371798826
 30
0.0
 11
557.6719200515
 21
278.6371798826
 31
0.0
  0
LINE
  5
38C
330
1F
100
AcDbEntity
  8
0
  6
Continuous
 62
     7
370
    25
100
AcDbLine
 10
876.5768453181
 20
275.6371798826
 30
0.0
 11
1287.9919265209
 21
275.6371798826
 31
0.0
  0
LWPOLYLINE
  5
38D
330
1F
100
AcDbEntity
  8
0
  6
Continuous
 62
     7
370
    25
100
AcDbPolyline
 90
        9
 70
   128
 43
0.0
 10
1287.0895011687
 20
278.6371798826
 10
1287.2655556212
 20
278.5795357238
 10
1287.4348443999
 20
278.4088184801
 10
1287.5908618319
 20
278.1315887195
 10
1287.7276122547
 20
277.7585002262
 10
1287.8398404264
 20
277.3038905817
 10
1287.9232334812
 20
276.7852301797
 10
1287.9745866708
 20
276.2224508486
 10
1287.9919265209
 20
275.6371798826
  0
LINE
  5
38E
330
1F
100
AcDbEntity
  8
0
  6
Continuous
 62
     7
370
    25
100
AcDbLine
 10
1287.0895011687
 20
278.6371798826
 30
0.0
 11
875.6744199721
 21
278.6371798826
 31
0.0
  0
LINE
  5
38F
330
1F
100
AcDbEntity
  8
0
  6
Continuous
 62
     7
370
    25
100
AcDbLine
 10
1287.9919265209
 20
266.6371798826
 30
0.0
 11
876.5768453181
 21
266.6371798826
 31
0.0
  0
LINE
  5
390
330
1F
100
AcDbEntity
  8
0
  6
Continuous
 62
     7
370
    25
100
AcDbLine
 10
1287.9919265209
 20
266.6371798826
 30
0.0
 11
1287.9919265209
 21
275.6371798826
 31
0.0
  0
LWPOLYLINE
  5
391
330
1F
100
AcDbEntity
  8
0
  6
Continuous
 62
     7
370
    25
100
AcDbPolyline
 90
        9
 70
   128
 43
0.0
 10
1287.9919265209
 20
266.6371798826
 10
1287.9745866821
 20
266.0519089166
 10
1287.923233501
 20
265.4891295855
 10
1287.8398404514
 20
264.9704691835
 10
1287.7276122815
 20
264.515859539
 10
1287.5908618569
 20
264.1427710457
 10
1287.4348444197
 20
263.8655412851
 10
1287.2655556326
 20
263.6948240414
 10
1287.0895011687
 20
263.6371798826
  0
LINE
  5
392
330
1F
100
AcDbEntity
  8
0
  6
Continuous
 62
     7
370
    25
100
AcDbLine
 10
875.6744199721
 20
263.6371798826
 30
0.0
 11
1287.0895011687
 21
263.6371798826
 31
0.0
  0
LINE
  5
393
330
1F
100
AcDbEntity
  8
0
  6
Continuous
 62
     7
370
    25
100
AcDbLine
 10
1287.9919265209
 20
275.6371798826
 30
0.0
 11
1292.4854943722
 21
275.6371798826
 31
0.0
  0
LWPOLYLINE
  5
394
330
1F
100
AcDbEntity
  8
0
  6
Continuous
 62
     7
370
    25
100
AcDbPolyline
 90
        9
 70
   128
 43
0.0
 10
1290.996951412
 20
278.6371798826
 10
1291.2873517374
 20
278.5795357238
 10
1291.5665921412
 20
278.4088184801
 10
1291.8239415713
 20
278.1315887195
 10
1292.0495102332
 20
277.7585002262
 10
1292.23462965
 20
277.3038905817
 10
1292.3721857862
 20
276.7852301797
 10
1292.4568924366
 20
276.2224508486
 10
1292.4854943722
 20
275.6371798826
  0
LINE
  5
395
330
1F
100
AcDbEntity
  8
0
  6
Continuous
 62
     7
370
    25
100
AcDbLine
 10
1290.996951412
 20
278.6371798826
 30
0.0
 11
1287.0895011687
 21
278.6371798826
 31
0.0
  0
LINE
  5
396
330
1F
100
AcDbEntity
  8
0
  6
Continuous
 62
     7
370
    25
100
AcDbLine
 10
1292.4854943722
 20
266.6371798826
 30
0.0
 11
1287.9919265209
 21
266.6371798826
 31
0.0
  0
LINE
  5
397
330
1F
100
AcDbEntity
  8
0
  6
Continuous
 62
     7
370
    25
100
AcDbLine
 10
1292.4854943722
 20
266.6371798826
 30
0.0
 11
1292.4854943722
 21
275.6371798826
 31
0.0
  0
LWPOLYLINE
  5
398
330
1F
100
AcDbEntity
  8
0
  6
Continuous
 62
     7
370
    25
100
AcDbPolyline
 90
        9
 70
   128
 43
0.0
 10
1292.4854943722
 20
266.6371798826
 10
1292.4568924347
 20
266.0519089166
 10
1292.3721857828
 20
265.4891295855
 10
1292.2346296458
 20
264.9704691835
 10
1292.0495102287
 20
264.515859539
 10
1291.823941567
 20
264.1427710457
 10
1291.5665921378
 20
263.8655412851
 10
1291.2873517355
 20
263.6948240414
 10
1290.996951412
 20
263.6371798826
  0
LINE
  5
399
330
1F
100
AcDbEntity
  8
0
  6
Continuous
 62
     7
370
    25
100
AcDbLine
 10
1287.0895011687
 20
263.6371798826
 30
0.0
 11
1290.996951412
 21
263.6371798826
 31
0.0
  0
LINE
  5
39A
330
1F
100
AcDbEntity
  8
0
  6
Continuous
 62
     7
370
    25
100
AcDbLine
 10
1337.7023765427
 20
278.6371798826
 30
0.0
 11
1290.996951412
 21
278.6371798826
 31
0.0
  0
LINE
  5
39B
330
1F
100
AcDbEntity
  8
0
  6
Continuous
 62
     7
370
    25
100
AcDbLine
 10
1290.996951412
 20
263.6371798826
 30
0.0
 11
1337.7023765427
 21
263.6371798826
 31
0.0
  0
LINE
  5
39C
330
1F
100
AcDbEntity
  8
0
  6
Continuous
 62
     7
370
    25
100
AcDbLine
 10
-1449.8939298618
 20
-380.484140461
 30
0.0
 11
-1361.6512891747
 21
-292.2414997738
 31
0.0
  0
ARC
  5
39D
330
1F
100
AcDbEntity
  8
0
  6
Continuous
 62
     7
370
    25
100
AcDbCircle
 10
-1447.7726095183
 20
-378.3628201174
 30
0.0
 40
2.999999999999904
100
AcDbArc
 50
218.6968643003
 51
225.0
  0
ARC
  5
39E
330
1F
100
AcDbEntity
  8
0
  6
Continuous
 62
     7
370
    25
100
AcDbCircle
 10
-1363.7726095183
 20
-294.3628201174
 30
0.0
 40
3.00000000000009
100
AcDbArc
 50
45.0
 51
50.3356047954
  0
ARC
  5
39F
330
1F
100
AcDbEntity
  8
0
  6
Continuous
 62
     7
370
    25
100
AcDbCircle
 10
-1447.7726095183
 20
-378.3628201174
 30
0.0
 40
2.999999999999964
100
AcDbArc
 50
225.0
 51
231.3031356994
  0
ARC
  5
3A0
330
1F
100
AcDbEntity
  8
0
  6
Continuous
 62
     7
370
    25
100
AcDbCircle
 10
-1363.7726095183
 20
-294.3628201174
 30
0.0
 40
2.999999999999904
100
AcDbArc
 50
39.6643952049
 51
45.0
  0
ARC
  5
3A1
330
1F
100
AcDbEntity
  8
0
  6
Continuous
 62
     7
370
    25
100
AcDbCircle
 10
-653.7726095183
 20
415.6371798826
 30
0.0
 40
2.999999999999984
100
AcDbArc
 50
45.0
 51
51.3031356996
  0
LINE
  5
3A2
330
1F
100
AcDbEntity
  8
0
  6
Continuous
 62
     7
370
    25
100
AcDbLine
 10
-651.6512891747
 20
417.7585002262
 30
0.0
 11
-739.8939298618
 21
329.515859539
 31
0.0
  0
ARC
  5
3A3
330
1F
100
AcDbEntity
  8
0
  6
Continuous
 62
     7
370
    25
100
AcDbCircle
 10
-737.7726095183
 20
331.6371798826
 30
0.0
 40
3.000000000000024
100
AcDbArc
 50
219.6643952047
 51
225.0
  0
ARC
  5
3A4
330
1F
100
AcDbEntity
  8
0
  6
Continuous
 62
     7
370
    25
100
AcDbCircle
 10
-737.7726095183
 20
331.6371798826
 30
0.0
 40
3.000000000000033
100
AcDbArc
 50
225.0
 51
230.3356047952
  0
ARC
  5
3A5
330
1F
100
AcDbEntity
  8
0
  6
Continuous
 62
     7
370
    25
100
AcDbCircle
 10
-653.7726095183
 20
415.6371798826
 30
0.0
 40
3.000000000000015
100
AcDbArc
 50
38.6968643005
 51
45.0
  0
LINE
  5
3A6
330
1F
100
AcDbEntity
  8
0
  6
Continuous
 62
     7
370
    25
100
AcDbLine
 10
-651.6512891747
 20
-380.484140461
 30
0.0
 11
-739.8939298618
 21
-292.2414997738
 31
0.0
  0
ARC
  5
3A7
330
1F
100
AcDbEntity
  8
0
  6
Continuous
 62
     7
370
    25
100
AcDbCircle
 10
-653.7726095183
 20
-378.3628201174
 30
0.0
 40
2.999999999999984
100
AcDbArc
 50
308.6968643003
 51
315.0
  0
ARC
  5
3A8
330
1F
100
AcDbEntity
  8
0
  6
Continuous
 62
     7
370
    25
100
AcDbCircle
 10
-737.7726095183
 20
-294.3628201174
 30
0.0
 40
3.000000000000064
100
AcDbArc
 50
135.0
 51
140.3356047954
  0
ARC
  5
3A9
330
1F
100
AcDbEntity
  8
0
  6
Continuous
 62
     7
370
    25
100
AcDbCircle
 10
-653.7726095183
 20
-378.3628201174
 30
0.0
 40
2.999999999999984
100
AcDbArc
 50
315.0
 51
321.3031356994
  0
ARC
  5
3AA
330
1F
100
AcDbEntity
  8
0
  6
Continuous
 62
     7
370
    25
100
AcDbCircle
 10
-737.7726095183
 20
-294.3628201174
 30
0.0
 40
3.000000000000064
100
AcDbArc
 50
129.6643952049
 51
135.0
  0
LINE
  5
3AB
330
1F
100
AcDbEntity
  8
0
  6
Continuous
 62
     7
370
    25
100
AcDbLine
 10
-1449.8939298618
 20
417.7585002262
 30
0.0
 11
-1361.6512891747
 21
329.515859539
 31
0.0
  0
ARC
  5
3AC
330
1F
100
AcDbEntity
  8
0
  6
Continuous
 62
     7
370
    25
100
AcDbCircle
 10
-1447.7726095183
 20
415.6371798826
 30
0.0
 40
3.000000000000225
100
AcDbArc
 50
128.6968643005
 51
135.0
  0
ARC
  5
3AD
330
1F
100
AcDbEntity
  8
0
  6
Continuous
 62
     7
370
    25
100
AcDbCircle
 10
-1363.7726095183
 20
331.6371798826
 30
0.0
 40
2.999999999999973
100
AcDbArc
 50
315.0
 51
320.3356047952
  0
ARC
  5
3AE
330
1F
100
AcDbEntity
  8
0
  6
Continuous
 62
     7
370
    25
100
AcDbCircle
 10
-1447.7726095183
 20
415.6371798826
 30
0.0
 40
3.000000000000009
100
AcDbArc
 50
135.0
 51
141.3031356996
  0
ARC
  5
3AF
330
1F
100
AcDbEntity
  8
0
  6
Continuous
 62
     7
370
    25
100
AcDbCircle
 10
-1363.7726095183
 20
331.6371798826
 30
0.0
 40
2.999999999999984
100
AcDbArc
 50
309.6643952047
 51
315.0
  0
LINE
  5
3B0
330
1F
100
AcDbEntity
  8
0
  6
Continuous
 62
     8
370
    25
100
AcDbLine
 10
-746.7726095183
 20
323.026292664
 30
0.0
 11
-746.7726095183
 21
322.2483813397
 31
0.0
  0
LINE
  5
3B1
330
1F
100
AcDbEntity
  8
0
  6
Continuous
 62
     8
370
    25
100
AcDbLine
 10
-1354.7726095183
 20
322.2483813397
 30
0.0
 11
-1354.7726095183
 21
323.026292664
 31
0.0
  0
LWPOLYLINE
  5
3B2
330
1F
100
AcDbEntity
  8
0
  6
Continuous
 62
     8
370
    25
100
AcDbPolyline
 90
        8
 70
   128
 43
0.0
 10
-1058.8670657528
 20
598.6961858091
 10
-1059.2578908925
 20
598.762142013
 10
-1060.4808134508
 20
599.0149256168
 10
-1061.4646878085
 20
599.2983708594
 10
-1062.1852877138
 20
599.6054983784
 10
-1062.6248696054
 20
599.928745675
 10
-1062.7726095183
 20
600.2601533278
 10
-1062.7726094471
 20
600.2603841004
  0
LWPOLYLINE
  5
3B3
330
1F
100
AcDbEntity
  8
0
  6
Continuous
 62
     8
370
    25
100
AcDbPolyline
 90
        7
 70
   128
 43
0.0
 10
-1038.7726097476
 20
600.2597391382
 10
-1038.9203494311
 20
599.928745675
 10
-1039.3599313227
 20
599.6054983784
 10
-1040.080531228
 20
599.2983708594
 10
-1041.0644055858
 20
599.0149256168
 10
-1042.2873281441
 20
598.762142013
 10
-1042.7431762729
 20
598.6857738257
  0
LWPOLYLINE
  5
3B4
330
1F
100
AcDbEntity
  8
0
  6
Continuous
 62
     8
370
    25
100
AcDbPolyline
 90
        7
 70
   128
 43
0.0
 10
-1042.7279407636
 20
602.5006386951
 10
-1042.2131008716
 20
602.7220412637
 10
-1041.8540616624
 20
602.9997517984
 10
-1041.7816719194
 20
603.2843173495
 10
-1041.9982583087
 20
603.5665917461
 10
-1042.4968595653
 20
603.8375024569
 10
-1042.6510546142
 20
603.8976968938
  0
LWPOLYLINE
  5
3B5
330
1F
100
AcDbEntity
  8
0
  6
Continuous
 62
     8
370
    25
100
AcDbPolyline
 90
        7
 70
   128
 43
0.0
 10
-1058.8241095678
 20
603.9230168605
 10
-1059.0483594713
 20
603.8375024569
 10
-1059.5469607279
 20
603.5665917461
 10
-1059.7635471172
 20
603.2843173495
 10
-1059.6911573742
 20
602.9997517984
 10
-1059.3321181649
 20
602.7220412637
 10
-1058.8975410349
 20
602.5296178193
  0
LWPOLYLINE
  5
3B6
330
1F
100
AcDbEntity
  8
0
  6
Continuous
 62
     8
370
    25
100
AcDbPolyline
 90
        7
 70
   128
 43
0.0
 10
-1062.7726095183
 20
566.7941896506
 10
-1062.6248696054
 20
566.4627819978
 10
-1062.1852877138
 20
566.1395347013
 10
-1061.4646878085
 20
565.8324071822
 10
-1060.4808134508
 20
565.5489619396
 10
-1059.2578908925
 20
565.2961783358
 10
-1058.8466697096
 20
565.2269396636
  0
LWPOLYLINE
  5
3B7
330
1F
100
AcDbEntity
  8
0
  6
Continuous
 62
     8
370
    25
100
AcDbPolyline
 90
        7
 70
   128
 43
0.0
 10
-1042.6771146505
 20
565.2303896922
 10
-1042.287328144
 20
565.2961783358
 10
-1041.0644055858
 20
565.5489619396
 10
-1040.080531228
 20
565.8324071822
 10
-1039.3599313227
 20
566.1395347013
 10
-1038.9203494311
 20
566.4627819978
 10
-1038.7726095183
 20
566.7941896506
  0
LINE
  5
3B8
330
1F
100
AcDbEntity
  8
0
  6
Continuous
 62
     8
370
    25
100
AcDbLine
 10
-932.9410443554
 20
545.7356867063
 30
0.0
 11
-932.9410443554
 21
532.3481270174
 31
0.0
  0
LINE
  5
3B9
330
1F
100
AcDbEntity
  8
0
  6
Continuous
 62
     8
370
    25
100
AcDbLine
 10
-844.9548326965
 20
544.7801514436
 30
0.0
 11
-844.9548326965
 21
531.4413641894
 31
0.0
  0
LINE
  5
3BA
330
1F
100
AcDbEntity
  8
0
  6
Continuous
 62
     8
370
    25
100
AcDbLine
 10
-827.4423179347
 20
545.206122792
 30
0.0
 11
-827.4423179347
 21
532.322855024
 31
0.0
  0
LINE
  5
3BB
330
1F
100
AcDbEntity
  8
0
  6
Continuous
 62
     8
370
    25
100
AcDbLine
 10
-946.9054571376
 20
546.0055881848
 30
0.0
 11
-946.9054571376
 21
532.8356352496
 31
0.0
  0
LINE
  5
3BC
330
1F
100
AcDbEntity
  8
0
  6
Continuous
 62
     8
370
    25
100
AcDbLine
 10
-1242.9410443554
 20
489.105270805
 30
0.0
 11
-1242.9410443554
 21
475.717711116
 31
0.0
  0
LINE
  5
3BD
330
1F
100
AcDbEntity
  8
0
  6
Continuous
 62
     8
370
    25
100
AcDbLine
 10
-1154.9548326965
 20
488.1497355423
 30
0.0
 11
-1154.9548326965
 21
474.810948288
 31
0.0
  0
LINE
  5
3BE
330
1F
100
AcDbEntity
  8
0
  6
Continuous
 62
     8
370
    25
100
AcDbLine
 10
-1137.4423179347
 20
488.5757068907
 30
0.0
 11
-1137.4423179347
 21
475.6924391226
 31
0.0
  0
LINE
  5
3BF
330
1F
100
AcDbEntity
  8
0
  6
Continuous
 62
     8
370
    25
100
AcDbLine
 10
-1256.9054571376
 20
489.3751722834
 30
0.0
 11
-1256.9054571376
 21
476.2052193482
 31
0.0
  0
LWPOLYLINE
  5
3C0
330
1F
100
AcDbEntity
  8
0
  6
Continuous
 62
     8
370
    25
100
AcDbPolyline
 90
        9
 70
   128
 43
0.0
 10
-930.0786802451
 20
545.8975806271
 10
-930.0773836998
 20
545.8976788472
 10
-929.8649181155
 20
545.9719258879
 10
-929.6691087115
 20
546.1582947381
 10
-929.4974803335
 20
546.4496233473
 10
-929.3566285638
 20
546.8347161206
 10
-929.2519662569
 20
547.2987741586
 10
-929.1875155265
 20
547.8239639711
 10
-929.1657531781
 20
548.3901028082
  0
LWPOLYLINE
  5
3C1
330
1F
100
AcDbEntity
  8
0
  6
Continuous
 62
     8
370
    25
100
AcDbPolyline
 90
        8
 70
   128
 43
0.0
 10
-848.6158444475
 20
545.0592201432
 10
-848.873009657
 20
545.1372445148
 10
-849.1224194131
 20
545.3282016769
 10
-849.3410288927
 20
545.6235519753
 10
-849.5204370561
 20
546.0119452634
 10
-849.6537493482
 20
546.4784558052
 10
-849.7358426523
 20
547.0051558621
 10
-849.7635621688
 20
547.5718046464
  0
ARC
  5
3C2
330
1F
100
AcDbEntity
  8
0
  6
Continuous
 62
     8
370
    25
100
AcDbCircle
 10
-821.3392374993
 20
548.9559835649
 30
0.0
 40
2.565357341734603
100
AcDbArc
 50
289.4398091639
 51
3.9201090081
  0
LWPOLYLINE
  5
3C3
330
1F
100
AcDbEntity
  8
0
  6
Continuous
 62
     8
370
    25
100
AcDbPolyline
 90
        8
 70
   128
 43
0.0
 10
-818.7798822056
 20
549.1313653537
 10
-816.7141959629
 20
549.844420034
 10
-814.9952219696
 20
550.5866208313
 10
-813.5993899238
 20
551.3762775213
 10
-812.5878140801
 20
552.1846848509
 10
-811.9767709722
 20
552.9759365511
 10
-811.7152060084
 20
553.7734467717
 10
-811.737065468
 20
553.9844274769
  0
LWPOLYLINE
  5
3C4
330
1F
100
AcDbEntity
  8
0
  6
Continuous
 62
     8
370
    25
100
AcDbPolyline
 90
        7
 70
   128
 43
0.0
 10
-811.7467690387
 20
562.8379956176
 10
-811.7828145192
 20
562.2915823645
 10
-812.2423820095
 20
561.4273648155
 10
-813.1189371639
 20
560.57370113
 10
-814.9457891972
 20
559.4643113365
 10
-816.6759804989
 20
558.7123005705
 10
-818.7798822056
 20
557.984728418
  0
LWPOLYLINE
  5
3C5
330
1F
100
AcDbEntity
  8
0
  6
Continuous
 62
     8
370
    25
100
AcDbPolyline
 90
        3
 70
   128
 43
0.0
 10
-865.5971432976
 20
578.6410444902
 10
-865.331140722
 20
578.6780637239
 10
-865.3237669178
 20
578.6774414314
  0
ARC
  5
3C6
330
1F
100
AcDbEntity
  8
0
  6
Continuous
 62
     8
370
    25
100
AcDbCircle
 10
-951.4489607268
 20
548.9709714115
 30
0.0
 40
2.43937494505704
100
AcDbArc
 50
173.3699431182
 51
249.6163673238
  0
LWPOLYLINE
  5
3C7
330
1F
100
AcDbEntity
  8
0
  6
Continuous
 62
     8
370
    25
100
AcDbPolyline
 90
       11
 70
   128
 43
0.0
 10
-953.8720219466
 20
558.1059804371
 10
-959.2735267687
 20
559.1248293012
 10
-964.2048679578
 20
560.2178179902
 10
-968.7257124678
 20
561.4175590657
 10
-972.6049117171
 20
562.6874818446
 10
-974.8894033408
 20
563.6139078835
 10
-976.7844387815
 20
564.5681909149
 10
-978.2860490863
 20
565.5715773844
 10
-979.3034794099
 20
566.5942629272
 10
-979.8107274605
 20
567.6936358779
 10
-979.8253559281
 20
568.0281953064
  0
ARC
  5
3C8
330
1F
100
AcDbEntity
  8
0
  6
Continuous
 62
     8
370
    25
100
AcDbCircle
 10
-976.8670353112
 20
568.1882725477
 30
0.0
 40
2.968858735154834
100
AcDbArc
 50
89.3613825242
 51
173.9811577276
  0
LWPOLYLINE
  5
3C9
330
1F
100
AcDbEntity
  8
0
  6
Continuous
 62
     8
370
    25
100
AcDbPolyline
 90
       11
 70
   128
 43
0.0
 10
-979.8043422412
 20
559.1847789537
 10
-979.6707057269
 20
558.3751744073
 10
-979.0179554002
 20
557.3952333669
 10
-977.8623169462
 20
556.3989366376
 10
-976.2536352867
 20
555.423022276
 10
-973.8038192286
 20
554.2978101201
 10
-970.8236016186
 20
553.214525762
 10
-967.2612530645
 20
552.1493695781
 10
-963.2471938048
 20
551.1372829449
 10
-959.4205035446
 20
550.3014803707
 10
-953.8720219466
 20
549.2526173728
  0
LINE
  5
3CA
330
1F
100
AcDbEntity
  8
0
  6
Continuous
 62
     8
370
    25
100
AcDbLine
 10
-950.1335526219
 20
574.4840191284
 30
0.0
 11
-949.9421439911
 21
574.526785664
 31
0.0
  0
LWPOLYLINE
  5
3CB
330
1F
100
AcDbEntity
  8
0
  6
Continuous
 62
     8
370
    25
100
AcDbPolyline
 90
        3
 70
   128
 43
0.0
 10
-890.5217393034
 20
577.634695779
 10
-890.9851188469
 20
577.6422656786
 10
-891.203536081
 20
577.6050730827
  0
LWPOLYLINE
  5
3CC
330
1F
100
AcDbEntity
  8
0
  6
Continuous
 62
     8
370
    25
100
AcDbPolyline
 90
        9
 70
   128
 43
0.0
 10
-1240.0786802451
 20
489.2671647258
 10
-1240.0773836998
 20
489.2672629458
 10
-1239.8649181155
 20
489.3415099865
 10
-1239.6691087115
 20
489.5278788367
 10
-1239.4974803335
 20
489.819207446
 10
-1239.3566285638
 20
490.2043002192
 10
-1239.2519662569
 20
490.6683582572
 10
-1239.1875155265
 20
491.1935480697
 10
-1239.1657531781
 20
491.7596869068
  0
LWPOLYLINE
  5
3CD
330
1F
100
AcDbEntity
  8
0
  6
Continuous
 62
     8
370
    25
100
AcDbPolyline
 90
        8
 70
   128
 43
0.0
 10
-1158.6158444475
 20
488.4288042418
 10
-1158.873009657
 20
488.5068286134
 10
-1159.1224194131
 20
488.6977857756
 10
-1159.3410288927
 20
488.9931360739
 10
-1159.5204370561
 20
489.3815293621
 10
-1159.6537493482
 20
489.8480399039
 10
-1159.7358426523
 20
490.3747399608
 10
-1159.7635621688
 20
490.941388745
  0
ARC
  5
3CE
330
1F
100
AcDbEntity
  8
0
  6
Continuous
 62
     8
370
    25
100
AcDbCircle
 10
-1131.3392374993
 20
492.3255676635
 30
0.0
 40
2.565357341731972
100
AcDbArc
 50
289.4398091639
 51
3.9201090082
  0
LWPOLYLINE
  5
3CF
330
1F
100
AcDbEntity
  8
0
  6
Continuous
 62
     8
370
    25
100
AcDbPolyline
 90
        3
 70
   128
 43
0.0
 10
-1175.5971432976
 20
522.0106285888
 10
-1175.331140722
 20
522.0476478225
 10
-1175.3237669178
 20
522.04702553
  0
LWPOLYLINE
  5
3D0
330
1F
100
AcDbEntity
  8
0
  6
Continuous
 62
     8
370
    25
100
AcDbPolyline
 90
        7
 70
   128
 43
0.0
 10
-1121.7469681613
 20
506.2045612171
 10
-1121.7828145192
 20
505.6611664631
 10
-1122.2423820095
 20
504.7969489142
 10
-1123.1189371639
 20
503.9432852286
 10
-1124.9457891972
 20
502.8338954352
 10
-1126.6759804989
 20
502.0818846691
 10
-1128.7798822056
 20
501.3543125166
  0
LWPOLYLINE
  5
3D1
330
1F
100
AcDbEntity
  8
0
  6
Continuous
 62
     8
370
    25
100
AcDbPolyline
 90
        8
 70
   128
 43
0.0
 10
-1128.7798822056
 20
492.5009494524
 10
-1126.7141959629
 20
493.2140041326
 10
-1124.9952219696
 20
493.9562049299
 10
-1123.5993899238
 20
494.74586162
 10
-1122.5878140801
 20
495.5542689495
 10
-1121.9767709722
 20
496.3455206498
 10
-1121.7152060084
 20
497.1430308703
 10
-1121.737065468
 20
497.3540115756
  0
ARC
  5
3D2
330
1F
100
AcDbEntity
  8
0
  6
Continuous
 62
     8
370
    25
100
AcDbCircle
 10
-1261.4489607268
 20
492.3405555102
 30
0.0
 40
2.439374945057691
100
AcDbArc
 50
173.3699431182
 51
249.6163673237
  0
LWPOLYLINE
  5
3D3
330
1F
100
AcDbEntity
  8
0
  6
Continuous
 62
     8
370
    25
100
AcDbPolyline
 90
       11
 70
   128
 43
0.0
 10
-1263.8720219466
 20
501.4755645357
 10
-1269.2735267687
 20
502.4944133998
 10
-1274.2048679578
 20
503.5874020888
 10
-1278.7257124678
 20
504.7871431643
 10
-1282.6049117171
 20
506.0570659432
 10
-1284.8894033408
 20
506.9834919822
 10
-1286.7844387815
 20
507.9377750135
 10
-1288.2860490863
 20
508.941161483
 10
-1289.3034794099
 20
509.9638470259
 10
-1289.8107274605
 20
511.0632199765
 10
-1289.8253559281
 20
511.397779405
  0
ARC
  5
3D4
330
1F
100
AcDbEntity
  8
0
  6
Continuous
 62
     8
370
    25
100
AcDbCircle
 10
-1286.8670353112
 20
511.5578566463
 30
0.0
 40
2.968858735155115
100
AcDbArc
 50
89.3613825242
 51
173.9811577276
  0
LWPOLYLINE
  5
3D5
330
1F
100
AcDbEntity
  8
0
  6
Continuous
 62
     8
370
    25
100
AcDbPolyline
 90
       11
 70
   128
 43
0.0
 10
-1289.8043422412
 20
502.5543630523
 10
-1289.6707057269
 20
501.7447585059
 10
-1289.0179554002
 20
500.7648174655
 10
-1287.8623169462
 20
499.7685207362
 10
-1286.2536352867
 20
498.7926063746
 10
-1283.8038192286
 20
497.6673942188
 10
-1280.8236016186
 20
496.5841098607
 10
-1277.2612530645
 20
495.5189536768
 10
-1273.2471938048
 20
494.5068670435
 10
-1269.4205035446
 20
493.6710644694
 10
-1263.8720219466
 20
492.6222014715
  0
LINE
  5
3D6
330
1F
100
AcDbEntity
  8
0
  6
Continuous
 62
     8
370
    25
100
AcDbLine
 10
-1260.1335526219
 20
517.853603227
 30
0.0
 11
-1259.9421439911
 21
517.8963697626
 31
0.0
  0
LWPOLYLINE
  5
3D7
330
1F
100
AcDbEntity
  8
0
  6
Continuous
 62
     8
370
    25
100
AcDbPolyline
 90
        3
 70
   128
 43
0.0
 10
-1200.5217393034
 20
521.0042798776
 10
-1200.9851188469
 20
521.0118497772
 10
-1201.203536081
 20
520.9746571814
  0
LWPOLYLINE
  5
3D8
330
1F
100
AcDbEntity
  8
0
  6
Continuous
 62
     8
370
    25
100
AcDbPolyline
 90
       14
 70
   128
 43
0.0
 10
-1170.4520974739
 20
512.4241174177
 10
-1169.0568309157
 20
512.2914500891
 10
-1167.5497241368
 20
512.2071333595
 10
-1165.9820998509
 20
512.174038534
 10
-1164.4073416231
 20
512.1932926171
 10
-1162.8790759559
 20
512.2642399341
 10
-1161.4493461038
 20
512.3844644593
 10
-1160.1668398021
 20
512.5498720907
 10
-1159.0752312648
 20
512.7548300696
 10
-1158.2116939112
 20
512.9923587981
 10
-1157.6056344703
 20
513.2543695201
 10
-1157.2776915694
 20
513.5319397747
 10
-1157.2390329108
 20
513.8156172399
 10
-1157.4855969718
 20
514.091977756
  0
LWPOLYLINE
  5
3D9
330
1F
100
AcDbEntity
  8
0
  6
Continuous
 62
     8
370
    25
100
AcDbPolyline
 90
        8
 70
   128
 43
0.0
 10
-1174.0596220648
 20
514.091977756
 10
-1174.2675274672
 20
513.8906198873
 10
-1174.3061861258
 20
513.6069424221
 10
-1174.054244068
 20
513.3268180423
 10
-1173.5202808783
 20
513.0597860476
 10
-1172.7224800327
 20
512.8149398922
 10
-1171.6880096822
 20
512.6006175185
 10
-1170.4520974739
 20
512.4241174177
  0
LWPOLYLINE
  5
3DA
330
1F
100
AcDbEntity
  8
0
  6
Continuous
 62
     8
370
    25
100
AcDbPolyline
 90
       14
 70
   128
 43
0.0
 10
-860.4520974739
 20
569.0545333191
 10
-859.0568309157
 20
568.9218659905
 10
-857.5497241368
 20
568.8375492609
 10
-855.9820998509
 20
568.8044544353
 10
-854.4073416231
 20
568.8237085184
 10
-852.8790759559
 20
568.8946558355
 10
-851.4493461038
 20
569.0148803607
 10
-850.1668398021
 20
569.180287992
 10
-849.0752312648
 20
569.385245971
 10
-848.2116939112
 20
569.6227746995
 10
-847.6056344703
 20
569.8847854215
 10
-847.2776915694
 20
570.1623556761
 10
-847.2390329108
 20
570.4460331413
 10
-847.4855969718
 20
570.7223936574
  0
LWPOLYLINE
  5
3DB
330
1F
100
AcDbEntity
  8
0
  6
Continuous
 62
     8
370
    25
100
AcDbPolyline
 90
        8
 70
   128
 43
0.0
 10
-864.0596220648
 20
570.7223936574
 10
-864.2675274672
 20
570.5210357886
 10
-864.3061861258
 20
570.2373583235
 10
-864.054244068
 20
569.9572339437
 10
-863.5202808783
 20
569.6902019489
 10
-862.7224800327
 20
569.4453557936
 10
-861.6880096822
 20
569.2310334199
 10
-860.4520974739
 20
569.0545333191
  0
LWPOLYLINE
  5
3DC
330
1F
100
AcDbEntity
  8
0
  6
Continuous
 62
     8
370
    25
100
AcDbPolyline
 90
       22
 70
   128
 43
0.0
 10
-944.0596220648
 20
570.7223936574
 10
-944.1381344338
 20
570.6621236992
 10
-944.3232000904
 20
570.3803183555
 10
-944.2170856405
 20
570.0971977646
 10
-943.8234046842
 20
569.8224032588
 10
-943.1555635545
 20
569.5652926354
 10
-942.2363047799
 20
569.3346214883
 10
-941.0969326155
 20
569.1382450466
 10
-939.7762470139
 20
568.9828506747
 10
-938.3192223392
 20
568.8737301415
 10
-936.7754758192
 20
568.8145994159
 10
-935.1975778901
 20
568.8074721237
 10
-933.6392619735
 20
568.8525909765
 10
-932.1535946488
 20
568.9484195057
 10
-930.791168535
 20
569.0916943858
 10
-929.5983794192
 20
569.2775365625
 10
-928.6158463044
 20
569.4996174034
 10
-927.8770281772
 20
569.7503742119
 10
-927.4070846028
 20
570.0212677655
 10
-927.2220189461
 20
570.3030731093
 10
-927.3281333961
 20
570.5861937001
 10
-927.4855969718
 20
570.7223936574
  0
LWPOLYLINE
  5
3DD
330
1F
100
AcDbEntity
  8
0
  6
Continuous
 62
     8
370
    25
100
AcDbPolyline
 90
       22
 70
   128
 43
0.0
 10
-1254.0596220648
 20
514.091977756
 10
-1254.1381344338
 20
514.0317077978
 10
-1254.3232000904
 20
513.7499024541
 10
-1254.2170856405
 20
513.4667818633
 10
-1253.8234046842
 20
513.1919873575
 10
-1253.1555635545
 20
512.934876734
 10
-1252.2363047799
 20
512.7042055869
 10
-1251.0969326155
 20
512.5078291453
 10
-1249.7762470139
 20
512.3524347734
 10
-1248.3192223392
 20
512.2433142401
 10
-1246.7754758192
 20
512.1841835145
 10
-1245.1975778901
 20
512.1770562223
 10
-1243.6392619735
 20
512.2221750751
 10
-1242.1535946488
 20
512.3180036043
 10
-1240.791168535
 20
512.4612784844
 10
-1239.5983794192
 20
512.6471206611
 10
-1238.6158463044
 20
512.8692015021
 10
-1237.8770281772
 20
513.1199583105
 10
-1237.4070846028
 20
513.3908518642
 10
-1237.2220189461
 20
513.6726572079
 10
-1237.3281333961
 20
513.9557777987
 10
-1237.4855969718
 20
514.091977756
  0
LINE
  5
3DE
330
1F
100
AcDbEntity
  8
0
  6
Continuous
 62
     8
370
    25
100
AcDbLine
 10
-755.7726095183
 20
572.0470771083
 30
0.0
 11
-824.5274182803
 21
572.0470771083
 31
0.0
  0
LINE
  5
3DF
330
1F
100
AcDbEntity
  8
0
  6
Continuous
 62
     8
370
    25
100
AcDbLine
 10
-976.9914113157
 20
572.0470771083
 30
0.0
 11
-1038.7726095183
 21
572.0470771083
 31
0.0
  0
LINE
  5
3E0
330
1F
100
AcDbEntity
  8
0
  6
Continuous
 62
     8
370
    25
100
AcDbLine
 10
-1062.7726095183
 20
572.0470771083
 30
0.0
 11
-1345.7726095183
 21
572.0470771083
 31
0.0
  0
LINE
  5
3E1
330
1F
100
AcDbEntity
  8
0
  6
Continuous
 62
     8
370
    25
100
AcDbLine
 10
-1147.7726095183
 20
526.8815129148
 30
0.0
 11
-1147.7726095183
 21
526.8326339362
 31
0.0
  0
LINE
  5
3E2
330
1F
100
AcDbEntity
  8
0
  6
Continuous
 62
     8
370
    25
100
AcDbLine
 10
-1223.7726095183
 20
526.8815129148
 30
0.0
 11
-1223.7726095183
 21
526.8326339362
 31
0.0
  0
ARC
  5
3E3
330
1F
100
AcDbEntity
  8
0
  6
Continuous
 62
     8
370
    25
100
AcDbCircle
 10
-1118.7855054275
 20
529.0470963617
 30
0.0
 40
2.999159144667979
100
AcDbArc
 50
89.7536364663
 51
158.0584305112
  0
ARC
  5
3E4
330
1F
100
AcDbEntity
  8
0
  6
Continuous
 62
     8
370
    25
100
AcDbCircle
 10
-1252.7547499392
 20
529.0545573683
 30
0.0
 40
2.991723721098093
100
AcDbArc
 50
21.5989490842
 51
90.3420384633
  0
LINE
  5
3E5
330
1F
100
AcDbEntity
  8
0
  6
Continuous
 62
     8
370
    25
100
AcDbLine
 10
-1223.7726095183
 20
538.5792117016
 30
0.0
 11
-1223.7726095183
 21
536.1185497391
 31
0.0
  0
LINE
  5
3E6
330
1F
100
AcDbEntity
  8
0
  6
Continuous
 62
     8
370
    25
100
AcDbLine
 10
-1147.7726095183
 20
538.5792117016
 30
0.0
 11
-1147.7726095183
 21
536.1185499574
 31
0.0
  0
LINE
  5
3E7
330
1F
100
AcDbEntity
  8
0
  6
Continuous
 62
     8
370
    25
100
AcDbLine
 10
-743.7726095183
 20
510.3750661075
 30
0.0
 11
-743.7726095183
 21
582.6155855783
 31
0.0
  0
LINE
  5
3E8
330
1F
100
AcDbEntity
  8
0
  6
Continuous
 62
     8
370
    25
100
AcDbLine
 10
-752.7726095183
 20
582.6155855783
 30
0.0
 11
-752.7726095183
 21
513.2494324351
 31
0.0
  0
LINE
  5
3E9
330
1F
100
AcDbEntity
  8
0
  6
Continuous
 62
     8
370
    25
100
AcDbLine
 10
-752.7726095183
 20
582.778515507
 30
0.0
 11
-752.7726095183
 21
582.6155855783
 31
0.0
  0
LINE
  5
3EA
330
1F
100
AcDbEntity
  8
0
  6
Continuous
 62
     8
370
    25
100
AcDbLine
 10
-743.7726095183
 20
582.6155855783
 30
0.0
 11
-743.7726095183
 21
582.778515507
 31
0.0
  0
LINE
  5
3EB
330
1F
100
AcDbEntity
  8
0
  6
Continuous
 62
     8
370
    25
100
AcDbLine
 10
-1348.7726095183
 20
503.2549710116
 30
0.0
 11
-1348.7726095183
 21
582.6155855783
 31
0.0
  0
LINE
  5
3EC
330
1F
100
AcDbEntity
  8
0
  6
Continuous
 62
     8
370
    25
100
AcDbLine
 10
-1357.7726095183
 20
582.6155855783
 30
0.0
 11
-1357.7726095183
 21
506.1293373392
 31
0.0
  0
LINE
  5
3ED
330
1F
100
AcDbEntity
  8
0
  6
Continuous
 62
     8
370
    25
100
AcDbLine
 10
-1357.7726095183
 20
582.778515507
 30
0.0
 11
-1357.7726095183
 21
582.6155855783
 31
0.0
  0
LINE
  5
3EE
330
1F
100
AcDbEntity
  8
0
  6
Continuous
 62
     8
370
    25
100
AcDbLine
 10
-1348.7726095183
 20
582.6155855783
 30
0.0
 11
-1348.7726095183
 21
582.778515507
 31
0.0
  0
ARC
  5
3EF
330
1F
100
AcDbEntity
  8
0
  6
Continuous
 62
     8
370
    25
100
AcDbCircle
 10
-1036.0324292694
 20
2.6968461983
 30
0.0
 40
0.7388139062506096
100
AcDbArc
 50
355.5873895865
 51
43.3255881675
  0
ARC
  5
3F0
330
1F
100
AcDbEntity
  8
0
  6
Continuous
 62
     8
370
    25
100
AcDbCircle
 10
-1065.5127082088
 20
2.6968286388
 30
0.0
 40
0.7388938723056653
100
AcDbArc
 50
136.7012028625
 51
184.410766261
  0
ARC
  5
3F1
330
1F
100
AcDbEntity
  8
0
  6
Continuous
 62
     8
370
    25
100
AcDbCircle
 10
-630.7875711759
 20
-402.8754584046
 30
0.0
 40
0.7387458992574035
100
AcDbArc
 50
355.5858209725
 51
43.348392029
  0
ARC
  5
3F2
330
1F
100
AcDbEntity
  8
0
  6
Continuous
 62
     8
370
    25
100
AcDbCircle
 10
-1467.249446318
 20
-399.3644214298
 30
0.0
 40
0.7387458992602456
100
AcDbArc
 50
136.6516079711
 51
184.4141790274
  0
ARC
  5
3F3
330
1F
100
AcDbEntity
  8
0
  6
Continuous
 62
     8
370
    25
100
AcDbCircle
 10
-1452.5616678385
 20
-418.847461565
 30
0.0
 40
22.21309144939764
100
AcDbArc
 50
133.9778555315
 51
178.9174610393
  0
LWPOLYLINE
  5
3F4
330
1F
100
AcDbEntity
  8
0
  6
Continuous
 62
     8
370
    25
100
AcDbPolyline
 90
        7
 70
   128
 43
0.0
 10
-1455.491371773
 20
-441.8918707733
 10
-1455.4846749122
 20
-441.8938189419
 10
-1455.3491500579
 20
-441.8698323873
 10
-1455.1840125451
 20
-441.7368705418
 10
-1454.9956085159
 20
-441.5000430545
 10
-1454.7911782314
 20
-441.168451073
 10
-1454.5785778329
 20
-440.7548374911
  0
ARC
  5
3F5
330
1F
100
AcDbEntity
  8
0
  6
Continuous
 62
     8
370
    25
100
AcDbCircle
 10
-1452.7951428838
 20
-415.3164619457
 30
0.0
 40
21.98679126051306
100
AcDbArc
 50
133.7020569665
 51
177.491744395
  0
ARC
  5
3F6
330
1F
100
AcDbEntity
  8
0
  6
Continuous
 62
     8
370
    25
100
AcDbCircle
 10
-645.1551356141
 20
-422.2189175412
 30
0.0
 40
21.89070460887087
100
AcDbArc
 50
0.7331030371
 51
46.371580392
  0
LWPOLYLINE
  5
3F7
330
1F
100
AcDbEntity
  8
0
  6
Continuous
 62
     8
370
    25
100
AcDbPolyline
 90
        7
 70
   128
 43
0.0
 10
-640.0528966866
 20
-442.9472094118
 10
-639.7664753463
 20
-443.3322386836
 10
-639.4910610175
 20
-443.6363448341
 10
-639.2372377184
 20
-443.8478412345
 10
-639.0147597359
 20
-443.9586001966
 10
-638.8321767744
 20
-443.9643653158
 10
-638.7997740029
 20
-443.9522246553
  0
ARC
  5
3F8
330
1F
100
AcDbEntity
  8
0
  6
Continuous
 62
     8
370
    25
100
AcDbCircle
 10
-645.4469843006
 20
-418.9046754903
 30
0.0
 40
22.18450071150981
100
AcDbArc
 50
1.0519951788
 51
46.0526882503
  0
LWPOLYLINE
  5
3F9
330
1F
100
AcDbEntity
  8
0
  6
Continuous
 62
     8
370
    25
100
AcDbPolyline
 90
        7
 70
   128
 43
0.0
 10
-889.2166510076
 20
-420.9753709703
 10
-889.4292514062
 20
-421.3889845521
 10
-889.6336816907
 20
-421.7205765337
 10
-889.8220857199
 20
-421.957404021
 10
-889.9872232327
 20
-422.0903658665
 10
-890.1227480869
 20
-422.1143524211
 10
-890.1293199015
 20
-422.1124442191
  0
ARC
  5
3FA
330
1F
100
AcDbEntity
  8
0
  6
Continuous
 62
     8
370
    25
100
AcDbCircle
 10
-904.7628792357
 20
-419.3580664951
 30
0.0
 40
2.579324784159846
100
AcDbArc
 50
185.3566222257
 51
215.1441691179
  0
ARC
  5
3FB
330
1F
100
AcDbEntity
  8
0
  6
Continuous
 62
     8
370
    25
100
AcDbCircle
 10
-1310.3797515562
 20
-482.1394789417
 30
0.0
 40
2.580395962944841
100
AcDbArc
 50
185.3607666651
 51
215.1354148073
  0
LWPOLYLINE
  5
3FC
330
1F
100
AcDbEntity
  8
0
  6
Continuous
 62
     8
370
    25
100
AcDbPolyline
 90
        7
 70
   128
 43
0.0
 10
-725.885009484
 20
-473.1392565955
 10
-726.0976098825
 20
-473.5528701774
 10
-726.302040167
 20
-473.8844621589
 10
-726.4904441962
 20
-474.1212896462
 10
-726.655581709
 20
-474.2542514917
 10
-726.7911065633
 20
-474.2782380463
 10
-726.7977138098
 20
-474.2763185338
  0
LWPOLYLINE
  5
3FD
330
1F
100
AcDbEntity
  8
0
  6
Continuous
 62
     8
370
    25
100
AcDbPolyline
 90
        7
 70
   128
 43
0.0
 10
-1328.682347475
 20
-482.391380751
 10
-1328.6757402284
 20
-482.3933002635
 10
-1328.5402153741
 20
-482.3693137089
 10
-1328.3750778614
 20
-482.2363518633
 10
-1328.1866738322
 20
-481.999524376
 10
-1327.9822435477
 20
-481.6679323945
 10
-1327.7696431491
 20
-481.2543188127
  0
LWPOLYLINE
  5
3FE
330
1F
100
AcDbEntity
  8
0
  6
Continuous
 62
     8
370
    25
100
AcDbPolyline
 90
        7
 70
   128
 43
0.0
 10
-702.863900064
 20
-471.8205915414
 10
-702.5774787237
 20
-472.2056208133
 10
-702.3020643948
 20
-472.5097269638
 10
-702.0482410957
 20
-472.7212233642
 10
-701.8257631133
 20
-472.8319823263
 10
-701.6431801517
 20
-472.8377474454
 10
-701.6108881539
 20
-472.8256577407
  0
ARC
  5
3FF
330
1F
100
AcDbEntity
  8
0
  6
Continuous
 62
     8
370
    25
100
AcDbCircle
 10
-1065.5127897672
 20
34.5775135669
 30
0.0
 40
0.7388139062492427
100
AcDbArc
 50
175.5873895865
 51
223.3255881676
  0
ARC
  5
400
330
1F
100
AcDbEntity
  8
0
  6
Continuous
 62
     8
370
    25
100
AcDbCircle
 10
-1036.0325108278
 20
34.5775311264
 30
0.0
 40
0.7388938723056824
100
AcDbArc
 50
316.7012028625
 51
4.410766261
  0
ARC
  5
401
330
1F
100
AcDbEntity
  8
0
  6
Continuous
 62
     8
370
    25
100
AcDbCircle
 10
-634.2957727186
 20
436.638781195
 30
0.0
 40
0.7387458992483503
100
AcDbArc
 50
316.6516079707
 51
4.4141790278
  0
ARC
  5
402
330
1F
100
AcDbEntity
  8
0
  6
Continuous
 62
     8
370
    25
100
AcDbCircle
 10
-1470.7576478607
 20
440.1498181698
 30
0.0
 40
0.7387458992516625
100
AcDbArc
 50
175.5858209723
 51
223.3483920292
  0
ARC
  5
403
330
1F
100
AcDbEntity
  8
0
  6
Continuous
 62
     8
370
    25
100
AcDbCircle
 10
-648.9835511981
 20
456.1218213302
 30
0.0
 40
22.21309144939543
100
AcDbArc
 50
313.9778555315
 51
358.9174610394
  0
LWPOLYLINE
  5
404
330
1F
100
AcDbEntity
  8
0
  6
Continuous
 62
     8
370
    25
100
AcDbPolyline
 90
        7
 70
   128
 43
0.0
 10
-646.0538472636
 20
479.1662305385
 10
-646.0605441244
 20
479.1681787071
 10
-646.1960689787
 20
479.1441921525
 10
-646.3612064915
 20
479.011230307
 10
-646.5496105207
 20
478.7744028197
 10
-646.7540408052
 20
478.4428108382
 10
-646.9666412037
 20
478.0291972563
  0
ARC
  5
405
330
1F
100
AcDbEntity
  8
0
  6
Continuous
 62
     8
370
    25
100
AcDbCircle
 10
-648.7500761528
 20
452.5908217109
 30
0.0
 40
21.98679126051458
100
AcDbArc
 50
313.7020569665
 51
357.491744395
  0
ARC
  5
406
330
1F
100
AcDbEntity
  8
0
  6
Continuous
 62
     8
370
    25
100
AcDbCircle
 10
-1456.3900834225
 20
459.4932773064
 30
0.0
 40
21.89070460886946
100
AcDbArc
 50
180.7331030371
 51
226.371580392
  0
LWPOLYLINE
  5
407
330
1F
100
AcDbEntity
  8
0
  6
Continuous
 62
     8
370
    25
100
AcDbPolyline
 90
        7
 70
   128
 43
0.0
 10
-1461.49232235
 20
480.221569177
 10
-1461.7787436903
 20
480.6065984488
 10
-1462.0541580191
 20
480.9107045993
 10
-1462.3079813182
 20
481.1222009997
 10
-1462.5304593006
 20
481.2329599618
 10
-1462.7130422622
 20
481.238725081
 10
-1462.7454450337
 20
481.2265844205
  0
ARC
  5
408
330
1F
100
AcDbEntity
  8
0
  6
Continuous
 62
     8
370
    25
100
AcDbCircle
 10
-1456.098234736
 20
456.1790352555
 30
0.0
 40
22.18450071150514
100
AcDbArc
 50
181.0519951788
 51
226.0526882503
  0
LWPOLYLINE
  5
409
330
1F
100
AcDbEntity
  8
0
  6
Continuous
 62
     8
370
    25
100
AcDbPolyline
 90
        7
 70
   128
 43
0.0
 10
-1212.328568029
 20
458.2497307355
 10
-1212.1159676304
 20
458.6633443173
 10
-1211.9115373459
 20
458.9949362989
 10
-1211.7231333167
 20
459.2317637862
 10
-1211.5579958039
 20
459.3647256317
 10
-1211.4224709497
 20
459.3887121863
 10
-1211.4158991351
 20
459.3868039843
  0
ARC
  5
40A
330
1F
100
AcDbEntity
  8
0
  6
Continuous
 62
     8
370
    25
100
AcDbCircle
 10
-1196.7823398009
 20
456.6324262603
 30
0.0
 40
2.57932478416097
100
AcDbArc
 50
5.3566222257
 51
35.1441691179
  0
ARC
  5
40B
330
1F
100
AcDbEntity
  8
0
  6
Continuous
 62
     8
370
    25
100
AcDbCircle
 10
-791.1654674803
 20
519.413838707
 30
0.0
 40
2.580395962941937
100
AcDbArc
 50
5.3607666651
 51
35.1354148073
  0
LWPOLYLINE
  5
40C
330
1F
100
AcDbEntity
  8
0
  6
Continuous
 62
     8
370
    25
100
AcDbPolyline
 90
        7
 70
   128
 43
0.0
 10
-1375.6602095526
 20
510.4136163607
 10
-1375.4476091541
 20
510.8272299426
 10
-1375.2431788696
 20
511.1588219241
 10
-1375.0547748404
 20
511.3956494114
 10
-1374.8896373276
 20
511.5286112569
 10
-1374.7541124733
 20
511.5525978115
 10
-1374.7475052268
 20
511.550678299
  0
LWPOLYLINE
  5
40D
330
1F
100
AcDbEntity
  8
0
  6
Continuous
 62
     8
370
    25
100
AcDbPolyline
 90
        7
 70
   128
 43
0.0
 10
-772.8628715616
 20
519.6657405162
 10
-772.8694788082
 20
519.6676600287
 10
-773.0050036625
 20
519.6436734741
 10
-773.1701411752
 20
519.5107116285
 10
-773.3585452044
 20
519.2738841412
 10
-773.5629754889
 20
518.9422921597
 10
-773.7755758875
 20
518.5286785779
  0
LWPOLYLINE
  5
40E
330
1F
100
AcDbEntity
  8
0
  6
Continuous
 62
     8
370
    25
100
AcDbPolyline
 90
        7
 70
   128
 43
0.0
 10
-1398.6813189726
 20
509.0949513066
 10
-1398.9677403129
 20
509.4799805785
 10
-1399.2431546417
 20
509.784086729
 10
-1399.4969779409
 20
509.9955831294
 10
-1399.7194559233
 20
510.1063420915
 10
-1399.9020388849
 20
510.1121072106
 10
-1399.9343308827
 20
510.1000175059
  0
ARC
  5
40F
330
1F
100
AcDbEntity
  8
0
  6
Continuous
 62
     8
370
    25
100
AcDbCircle
 10
-1066.7129432026
 20
3.8969996337
 30
0.0
 40
0.7388139062431781
100
AcDbArc
 50
265.5873895864
 51
313.3255881678
  0
ARC
  5
410
330
1F
100
AcDbEntity
  8
0
  6
Continuous
 62
     8
370
    25
100
AcDbCircle
 10
-1066.7129607621
 20
33.3772785731
 30
0.0
 40
0.7388938723050842
100
AcDbArc
 50
46.7012028625
 51
94.4107662611
  0
ARC
  5
411
330
1F
100
AcDbEntity
  8
0
  6
Continuous
 62
     8
370
    25
100
AcDbCircle
 10
-1468.7742108307
 20
435.1140166823
 30
0.0
 40
0.738745899263598
100
AcDbArc
 50
46.6516079712
 51
94.4141790273
  0
ARC
  5
412
330
1F
100
AcDbEntity
  8
0
  6
Continuous
 62
     8
370
    25
100
AcDbCircle
 10
-1472.2852478055
 20
-401.3478584598
 30
0.0
 40
0.7387458992589205
100
AcDbArc
 50
265.5858209725
 51
313.3483920289
  0
ARC
  5
413
330
1F
100
AcDbEntity
  8
0
  6
Continuous
 62
     8
370
    25
100
AcDbCircle
 10
-1488.2572509659
 20
420.4262382028
 30
0.0
 40
22.21309144939141
100
AcDbArc
 50
43.9778555315
 51
88.9174610394
  0
LWPOLYLINE
  5
414
330
1F
100
AcDbEntity
  8
0
  6
Continuous
 62
     8
370
    25
100
AcDbPolyline
 90
        7
 70
   128
 43
0.0
 10
-1511.3016601742
 20
423.3559421373
 10
-1511.3036083428
 20
423.3492452765
 10
-1511.2796217882
 20
423.2137204222
 10
-1511.1466599427
 20
423.0485829094
 10
-1510.9098324554
 20
422.8601788802
 10
-1510.5782404739
 20
422.6557485957
 10
-1510.164626892
 20
422.4431481972
  0
ARC
  5
415
330
1F
100
AcDbEntity
  8
0
  6
Continuous
 62
     8
370
    25
100
AcDbCircle
 10
-1484.7262513466
 20
420.6597132481
 30
0.0
 40
21.98679126051682
100
AcDbArc
 50
43.7020569665
 51
87.491744395
  0
ARC
  5
416
330
1F
100
AcDbEntity
  8
0
  6
Continuous
 62
     8
370
    25
100
AcDbCircle
 10
-1491.6287069421
 20
-386.9802940216
 30
0.0
 40
21.8907046088709
100
AcDbArc
 50
270.7331030371
 51
316.371580392
  0
LWPOLYLINE
  5
417
330
1F
100
AcDbEntity
  8
0
  6
Continuous
 62
     8
370
    25
100
AcDbPolyline
 90
        7
 70
   128
 43
0.0
 10
-1512.3569988127
 20
-392.0825329491
 10
-1512.7420280845
 20
-392.3689542894
 10
-1513.046134235
 20
-392.6443686182
 10
-1513.2576306354
 20
-392.8981919173
 10
-1513.3683895975
 20
-393.1206698997
 10
-1513.3741547167
 20
-393.3032528613
 10
-1513.3620140562
 20
-393.3356556328
  0
ARC
  5
418
330
1F
100
AcDbEntity
  8
0
  6
Continuous
 62
     8
370
    25
100
AcDbCircle
 10
-1488.3144648911
 20
-386.6884453351
 30
0.0
 40
22.18450071150744
100
AcDbArc
 50
271.0519951788
 51
316.0526882503
  0
LWPOLYLINE
  5
419
330
1F
100
AcDbEntity
  8
0
  6
Continuous
 62
     8
370
    25
100
AcDbPolyline
 90
        7
 70
   128
 43
0.0
 10
-1490.3851603712
 20
-142.9187786281
 10
-1490.798773953
 20
-142.7061782295
 10
-1491.1303659346
 20
-142.501747945
 10
-1491.3671934219
 20
-142.3133439158
 10
-1491.5001552674
 20
-142.148206403
 10
-1491.524141822
 20
-142.0126815488
 10
-1491.52223362
 20
-142.0061097342
  0
ARC
  5
41A
330
1F
100
AcDbEntity
  8
0
  6
Continuous
 62
     8
370
    25
100
AcDbCircle
 10
-1488.767855896
 20
-127.3725504
 30
0.0
 40
2.579324784157335
100
AcDbArc
 50
95.3566222257
 51
125.1441691179
  0
ARC
  5
41B
330
1F
100
AcDbEntity
  8
0
  6
Continuous
 62
     8
370
    25
100
AcDbCircle
 10
-1551.5492683426
 20
278.2443219205
 30
0.0
 40
2.580395962942545
100
AcDbArc
 50
95.3607666651
 51
125.1354148073
  0
LWPOLYLINE
  5
41C
330
1F
100
AcDbEntity
  8
0
  6
Continuous
 62
     8
370
    25
100
AcDbPolyline
 90
        7
 70
   128
 43
0.0
 10
-1542.5490459964
 20
-306.2504201517
 10
-1542.9626595783
 20
-306.0378197532
 10
-1543.2942515598
 20
-305.8333894687
 10
-1543.5310790471
 20
-305.6449854395
 10
-1543.6640408926
 20
-305.4798479267
 10
-1543.6880274472
 20
-305.3443230724
 10
-1543.6861079347
 20
-305.3377158259
  0
LWPOLYLINE
  5
41D
330
1F
100
AcDbEntity
  8
0
  6
Continuous
 62
     8
370
    25
100
AcDbPolyline
 90
        7
 70
   128
 43
0.0
 10
-1551.8011701519
 20
296.5469178393
 10
-1551.8030896644
 20
296.5403105927
 10
-1551.7791031097
 20
296.4047857384
 10
-1551.6461412642
 20
296.2396482257
 10
-1551.4093137769
 20
296.0512441965
 10
-1551.0777217954
 20
295.846813912
 10
-1550.6641082135
 20
295.6342135134
  0
LWPOLYLINE
  5
41E
330
1F
100
AcDbEntity
  8
0
  6
Continuous
 62
     8
370
    25
100
AcDbPolyline
 90
        7
 70
   128
 43
0.0
 10
-1541.2303809423
 20
-329.2715295717
 10
-1541.6154102142
 20
-329.557950912
 10
-1541.9195163647
 20
-329.8333652408
 10
-1542.1310127651
 20
-330.08718854
 10
-1542.2417717272
 20
-330.3096665224
 10
-1542.2475368463
 20
-330.492249484
 10
-1542.2354471416
 20
-330.5245414818
  0
ARC
  5
41F
330
1F
100
AcDbEntity
  8
0
  6
Continuous
 62
     8
370
    25
100
AcDbCircle
 10
-1034.832275834
 20
33.3773601315
 30
0.0
 40
0.7388139062466745
100
AcDbArc
 50
85.5873895865
 51
133.3255881677
  0
ARC
  5
420
330
1F
100
AcDbEntity
  8
0
  6
Continuous
 62
     8
370
    25
100
AcDbCircle
 10
-1034.8322582745
 20
3.8970811921
 30
0.0
 40
0.738893872308814
100
AcDbArc
 50
226.7012028627
 51
274.410766261
  0
ARC
  5
421
330
1F
100
AcDbEntity
  8
0
  6
Continuous
 62
     8
370
    25
100
AcDbCircle
 10
-629.2599712311
 20
438.622218225
 30
0.0
 40
0.7387458992550414
100
AcDbArc
 50
85.5858209724
 51
133.3483920291
  0
ARC
  5
422
330
1F
100
AcDbEntity
  8
0
  6
Continuous
 62
     8
370
    25
100
AcDbCircle
 10
-632.7710082059
 20
-397.8396569171
 30
0.0
 40
0.7387458992521159
100
AcDbArc
 50
226.6516079708
 51
274.4141790277
  0
ARC
  5
423
330
1F
100
AcDbEntity
  8
0
  6
Continuous
 62
     8
370
    25
100
AcDbCircle
 10
-613.2879680707
 20
-383.1518784376
 30
0.0
 40
22.21309144939951
100
AcDbArc
 50
223.9778555315
 51
268.9174610393
  0
LWPOLYLINE
  5
424
330
1F
100
AcDbEntity
  8
0
  6
Continuous
 62
     8
370
    25
100
AcDbPolyline
 90
        7
 70
   128
 43
0.0
 10
-590.2435588624
 20
-386.0815823721
 10
-590.2416106938
 20
-386.0748855113
 10
-590.2655972484
 20
-385.939360657
 10
-590.3985590939
 20
-385.7742231442
 10
-590.6353865812
 20
-385.585819115
 10
-590.9669785627
 20
-385.3813888305
 10
-591.3805921446
 20
-385.168788432
  0
ARC
  5
425
330
1F
100
AcDbEntity
  8
0
  6
Continuous
 62
     8
370
    25
100
AcDbCircle
 10
-616.81896769
 20
-383.3853534829
 30
0.0
 40
21.98679126051377
100
AcDbArc
 50
223.7020569665
 51
267.491744395
  0
ARC
  5
426
330
1F
100
AcDbEntity
  8
0
  6
Continuous
 62
     8
370
    25
100
AcDbCircle
 10
-609.9165120945
 20
424.2546537868
 30
0.0
 40
21.89070460887127
100
AcDbArc
 50
90.7331030371
 51
136.371580392
  0
LWPOLYLINE
  5
427
330
1F
100
AcDbEntity
  8
0
  6
Continuous
 62
     8
370
    25
100
AcDbPolyline
 90
        7
 70
   128
 43
0.0
 10
-589.1882202239
 20
429.3568927143
 10
-588.8031909521
 20
429.6433140546
 10
-588.4990848015
 20
429.9187283834
 10
-588.2875884012
 20
430.1725516825
 10
-588.176829439
 20
430.3950296649
 10
-588.1710643199
 20
430.5776126265
 10
-588.1832049804
 20
430.610015398
  0
ARC
  5
428
330
1F
100
AcDbEntity
  8
0
  6
Continuous
 62
     8
370
    25
100
AcDbCircle
 10
-613.2307541454
 20
423.9628051003
 30
0.0
 40
22.18450071150887
100
AcDbArc
 50
91.0519951788
 51
136.0526882503
  0
LWPOLYLINE
  5
429
330
1F
100
AcDbEntity
  8
0
  6
Continuous
 62
     8
370
    25
100
AcDbPolyline
 90
        7
 70
   128
 43
0.0
 10
-611.1600586654
 20
180.1931383933
 10
-610.7464450835
 20
179.9805379947
 10
-610.414853102
 20
179.7761077102
 10
-610.1780256147
 20
179.587703681
 10
-610.0450637692
 20
179.4225661682
 10
-610.0210772146
 20
179.287041314
 10
-610.0229854166
 20
179.2804694994
  0
ARC
  5
42A
330
1F
100
AcDbEntity
  8
0
  6
Continuous
 62
     8
370
    25
100
AcDbCircle
 10
-612.7773631406
 20
164.6469101652
 30
0.0
 40
2.579324784156384
100
AcDbArc
 50
275.3566222257
 51
305.1441691179
  0
ARC
  5
42B
330
1F
100
AcDbEntity
  8
0
  6
Continuous
 62
     8
370
    25
100
AcDbCircle
 10
-549.9959506939
 20
-240.9699621553
 30
0.0
 40
2.580395962942096
100
AcDbArc
 50
275.3607666651
 51
305.1354148073
  0
LWPOLYLINE
  5
42C
330
1F
100
AcDbEntity
  8
0
  6
Continuous
 62
     8
370
    25
100
AcDbPolyline
 90
        7
 70
   128
 43
0.0
 10
-558.9961730402
 20
343.5247799169
 10
-558.5825594583
 20
343.3121795184
 10
-558.2509674768
 20
343.1077492339
 10
-558.0141399895
 20
342.9193452047
 10
-557.881178144
 20
342.7542076919
 10
-557.8571915894
 20
342.6186828376
 10
-557.8591111018
 20
342.6120755911
  0
LWPOLYLINE
  5
42D
330
1F
100
AcDbEntity
  8
0
  6
Continuous
 62
     8
370
    25
100
AcDbPolyline
 90
        7
 70
   128
 43
0.0
 10
-549.7440488847
 20
-259.2725580741
 10
-549.7421293722
 20
-259.2659508275
 10
-549.7661159268
 20
-259.1304259732
 10
-549.8990777724
 20
-258.9652884605
 10
-550.1359052597
 20
-258.7768844313
 10
-550.4674972412
 20
-258.5724541468
 10
-550.881110823
 20
-258.3598537482
  0
LWPOLYLINE
  5
42E
330
1F
100
AcDbEntity
  8
0
  6
Continuous
 62
     8
370
    25
100
AcDbPolyline
 90
        7
 70
   128
 43
0.0
 10
-560.3148380943
 20
366.5458893369
 10
-559.9298088224
 20
366.8323106772
 10
-559.6257026719
 20
367.107725006
 10
-559.4142062715
 20
367.3615483052
 10
-559.3034473094
 20
367.5840262876
 10
-559.2976821903
 20
367.7666092492
 10
-559.309771895
 20
367.798901247
  0
LINE
  5
42F
330
1F
100
AcDbEntity
  8
0
  6
Continuous
 62
     8
370
    25
100
AcDbLine
 10
-549.2410619175
 20
-238.3628201174
 30
0.0
 11
559.5189072785
 21
-238.3628201174
 31
0.0
  0
LINE
  5
430
330
1F
100
AcDbEntity
  8
0
  6
Continuous
 62
     8
370
    25
100
AcDbLine
 10
559.5189072785
 20
-229.3628201174
 30
0.0
 11
-550.634085388
 21
-229.3628201174
 31
0.0
  0
LINE
  5
431
330
1F
100
AcDbEntity
  8
0
  6
Continuous
 62
     8
370
    25
100
AcDbLine
 10
1340.7023765427
 20
-229.3628201174
 30
0.0
 11
1292.4854943722
 21
-229.3628201174
 31
0.0
  0
LINE
  5
432
330
1F
100
AcDbEntity
  8
0
  6
Continuous
 62
     8
370
    25
100
AcDbLine
 10
1292.4854943722
 20
-238.3628201174
 30
0.0
 11
1340.7023765427
 21
-238.3628201174
 31
0.0
  0
LINE
  5
433
330
1F
100
AcDbEntity
  8
0
  6
Continuous
 62
     8
370
    25
100
AcDbLine
 10
1236.8592925754
 20
279.6371798826
 30
0.0
 11
1213.3104263031
 21
279.6371798826
 31
0.0
  0
LWPOLYLINE
  5
434
330
1F
100
AcDbEntity
  8
0
  6
Continuous
 62
     8
370
    25
100
AcDbPolyline
 90
       25
 70
   128
 43
0.0
 10
-1437.7503020836
 20
-305.8628201174
 10
-1436.0214136546
 20
-306.0071879538
 10
-1434.3247311458
 20
-306.4376021635
 10
-1432.6918605421
 20
-307.1460449441
 10
-1431.1532191334
 20
-308.1193193469
 10
-1429.737468898
 20
-309.3392951115
 10
-1428.4709825839
 20
-310.7832463975
 10
-1427.3773524349
 20
-312.4242751246
 10
-1426.4769507115
 20
-314.2318120326
 10
-1425.7865501942
 20
-316.1721861287
 10
-1425.3190117383
 20
-318.2092519151
 10
-1425.0830447006
 20
-320.3050627102
 10
-1425.0830447006
 20
-322.4205775246
 10
-1425.3190117383
 20
-324.5163883197
 10
-1425.7865501942
 20
-326.553454106
 10
-1426.4769507115
 20
-328.4938282022
 10
-1427.3773524349
 20
-330.3013651102
 10
-1428.4709825839
 20
-331.9423938373
 10
-1429.737468898
 20
-333.3863451233
 10
-1431.1532191334
 20
-334.6063208879
 10
-1432.6918605421
 20
-335.5795952907
 10
-1434.3247311458
 20
-336.2880380713
 10
-1436.0214136546
 20
-336.718452281
 10
-1437.7503020836
 20
-336.8628201174
 10
-1437.7541829543
 20
-336.8628193934
  0
LWPOLYLINE
  5
435
330
1F
100
AcDbEntity
  8
0
  6
Continuous
 62
     8
370
    25
100
AcDbPolyline
 90
       25
 70
   128
 43
0.0
 10
-1437.7503020836
 20
374.1371798826
 10
-1436.0214136546
 20
373.9928120462
 10
-1434.3247311458
 20
373.5623978365
 10
-1432.6918605421
 20
372.8539550559
 10
-1431.1532191334
 20
371.8806806531
 10
-1429.737468898
 20
370.6607048885
 10
-1428.4709825839
 20
369.2167536025
 10
-1427.3773524349
 20
367.5757248754
 10
-1426.4769507115
 20
365.7681879674
 10
-1425.7865501942
 20
363.8278138713
 10
-1425.3190117383
 20
361.7907480849
 10
-1425.0830447006
 20
359.6949372898
 10
-1425.0830447006
 20
357.5794224754
 10
-1425.3190117383
 20
355.4836116803
 10
-1425.7865501942
 20
353.4465458939
 10
-1426.4769507115
 20
351.5061717978
 10
-1427.3773524349
 20
349.6986348898
 10
-1428.4709825839
 20
348.0576061627
 10
-1429.737468898
 20
346.6136548767
 10
-1431.1532191334
 20
345.3936791121
 10
-1432.6918605421
 20
344.4204047093
 10
-1434.3247311458
 20
343.7119619287
 10
-1436.0214136546
 20
343.281547719
 10
-1437.7503020836
 20
343.1371798826
 10
-1437.7541829543
 20
343.1371806066
  0
LWPOLYLINE
  5
436
330
1F
100
AcDbEntity
  8
0
  6
Continuous
 62
     8
370
    25
100
AcDbPolyline
 90
       24
 70
   128
 43
0.0
 10
-663.7987978236
 20
-336.8628193934
 10
-665.523805382
 20
-336.718452281
 10
-667.2204878908
 20
-336.2880380713
 10
-668.8533584945
 20
-335.5795952907
 10
-670.3919999032
 20
-334.6063208879
 10
-671.8077501386
 20
-333.3863451233
 10
-673.0742364527
 20
-331.9423938373
 10
-674.1678666017
 20
-330.3013651102
 10
-675.0682683251
 20
-328.4938282022
 10
-675.7586688424
 20
-326.553454106
 10
-676.2262072983
 20
-324.5163883197
 10
-676.4621743359
 20
-322.4205775246
 10
-676.4621743359
 20
-320.3050627102
 10
-676.2262072983
 20
-318.2092519151
 10
-675.7586688424
 20
-316.1721861287
 10
-675.0682683251
 20
-314.2318120326
 10
-674.1678666017
 20
-312.4242751246
 10
-673.0742364527
 20
-310.7832463975
 10
-671.8077501386
 20
-309.3392951115
 10
-670.3919999032
 20
-308.1193193469
 10
-668.8533584945
 20
-307.1460449441
 10
-667.2204878908
 20
-306.4376021635
 10
-665.523805382
 20
-306.0071879538
 10
-663.794916953
 20
-305.8628201174
  0
LWPOLYLINE
  5
437
330
1F
100
AcDbEntity
  8
0
  6
Continuous
 62
     8
370
    25
100
AcDbPolyline
 90
       13
 70
   128
 43
0.0
 10
-710.7726095183
 20
-355.6436559963
 10
-708.6620264573
 20
-355.7619152046
 10
-706.5907595654
 20
-356.1144898844
 10
-704.5973926257
 20
-356.6948122363
 10
-702.7190582927
 20
-357.4920719531
 10
-700.9907463812
 20
-358.4914175946
 10
-699.444652072
 20
-359.6742332424
 10
-698.1095761766
 20
-361.0184852789
 10
-697.0103886331
 20
-362.4991328322
 10
-696.1675652255
 20
-364.0885942398
 10
-695.5968061592
 20
-365.757260843
 10
-695.3087435958
 20
-367.4740485403
 10
-695.2726157518
 20
-368.3518997129
  0
LWPOLYLINE
  5
438
330
1F
100
AcDbEntity
  8
0
  6
Continuous
 62
     8
370
    25
100
AcDbPolyline
 90
       13
 70
   128
 43
0.0
 10
-726.2725927741
 20
-368.3591755249
 10
-726.2364754408
 20
-367.4740485403
 10
-725.9484128774
 20
-365.757260843
 10
-725.3776538111
 20
-364.0885942398
 10
-724.5348304035
 20
-362.4991328322
 10
-723.43564286
 20
-361.0184852789
 10
-722.1005669646
 20
-359.6742332424
 10
-720.5544726554
 20
-358.4914175946
 10
-718.8261607438
 20
-357.4920719531
 10
-716.9478264109
 20
-356.6948122363
 10
-714.9544594712
 20
-356.1144898844
 10
-712.8831925793
 20
-355.7619152046
 10
-710.7726095183
 20
-355.6436559963
  0
LWPOLYLINE
  5
439
330
1F
100
AcDbEntity
  8
0
  6
Continuous
 62
     8
370
    25
100
AcDbPolyline
 90
       25
 70
   128
 43
0.0
 10
-1375.2726157518
 20
405.6034854178
 10
-1375.3087435958
 20
404.7484083055
 10
-1375.5968061592
 20
403.0316206082
 10
-1376.1675652255
 20
401.362954005
 10
-1377.0103886331
 20
399.7734925974
 10
-1378.1095761766
 20
398.2928450441
 10
-1379.444652072
 20
396.9485930076
 10
-1380.9907463812
 20
395.7657773598
 10
-1382.7190582927
 20
394.7664317183
 10
-1384.5973926257
 20
393.9691720015
 10
-1386.5907595654
 20
393.3888496496
 10
-1388.6620264573
 20
393.0362749698
 10
-1390.7726095183
 20
392.9180157615
 10
-1392.8831925793
 20
393.0362749698
 10
-1394.9544594712
 20
393.3888496496
 10
-1396.9478264109
 20
393.9691720015
 10
-1398.8261607438
 20
394.7664317183
 10
-1400.5544726554
 20
395.7657773598
 10
-1402.1005669646
 20
396.9485930076
 10
-1403.43564286
 20
398.2928450441
 10
-1404.5348304035
 20
399.7734925974
 10
-1405.3776538111
 20
401.362954005
 10
-1405.9484128774
 20
403.0316206082
 10
-1406.2364754407
 20
404.7484083055
 10
-1406.2725927741
 20
405.5962096058
  0
LINE
  5
43A
330
1F
100
AcDbEntity
  8
0
  6
Continuous
 62
     8
370
    25
100
AcDbLine
 10
1227.2965522049
 20
-242.3628201174
 30
0.0
 11
1236.8592925754
 21
-242.3628201174
 31
0.0
  0
LINE
  5
43B
330
1F
100
AcDbEntity
  8
0
  6
Continuous
 62
     8
370
    25
100
AcDbLine
 10
1213.3104263031
 20
-242.3628201174
 30
0.0
 11
1227.2965522049
 21
-242.3628201174
 31
0.0
  0
LWPOLYLINE
  5
43C
330
1F
100
AcDbEntity
  8
0
  6
Continuous
 62
     8
370
    25
100
AcDbPolyline
 90
       24
 70
   128
 43
0.0
 10
-663.7987978236
 20
343.1371806066
 10
-665.523805382
 20
343.281547719
 10
-667.2204878908
 20
343.7119619287
 10
-668.8533584945
 20
344.4204047093
 10
-670.3919999032
 20
345.3936791121
 10
-671.8077501386
 20
346.6136548767
 10
-673.0742364527
 20
348.0576061627
 10
-674.1678666017
 20
349.6986348898
 10
-675.0682683251
 20
351.5061717978
 10
-675.7586688424
 20
353.446545894
 10
-676.2262072983
 20
355.4836116803
 10
-676.4621743359
 20
357.5794224754
 10
-676.4621743359
 20
359.6949372898
 10
-676.2262072983
 20
361.7907480849
 10
-675.7586688424
 20
363.8278138713
 10
-675.0682683251
 20
365.7681879674
 10
-674.1678666017
 20
367.5757248754
 10
-673.0742364527
 20
369.2167536025
 10
-671.8077501386
 20
370.6607048885
 10
-670.3919999032
 20
371.8806806531
 10
-668.8533584945
 20
372.8539550559
 10
-667.2204878908
 20
373.5623978365
 10
-665.523805382
 20
373.9928120462
 10
-663.794916953
 20
374.1371798826
  0
LWPOLYLINE
  5
43D
330
1F
100
AcDbEntity
  8
0
  6
Continuous
 62
     8
370
    25
100
AcDbPolyline
 90
       13
 70
   128
 43
0.0
 10
-1390.7726095183
 20
-355.6436559963
 10
-1388.6620264573
 20
-355.7619152046
 10
-1386.5907595654
 20
-356.1144898844
 10
-1384.5973926257
 20
-356.6948122363
 10
-1382.7190582927
 20
-357.4920719531
 10
-1380.9907463812
 20
-358.4914175946
 10
-1379.444652072
 20
-359.6742332424
 10
-1378.1095761766
 20
-361.0184852789
 10
-1377.0103886331
 20
-362.4991328322
 10
-1376.1675652255
 20
-364.0885942398
 10
-1375.5968061592
 20
-365.757260843
 10
-1375.3087435958
 20
-367.4740485403
 10
-1375.2726157518
 20
-368.3518997129
  0
LWPOLYLINE
  5
43E
330
1F
100
AcDbEntity
  8
0
  6
Continuous
 62
     8
370
    25
100
AcDbPolyline
 90
       13
 70
   128
 43
0.0
 10
-1406.2725927741
 20
-368.3591755249
 10
-1406.2364754408
 20
-367.4740485403
 10
-1405.9484128774
 20
-365.757260843
 10
-1405.3776538111
 20
-364.0885942398
 10
-1404.5348304035
 20
-362.4991328322
 10
-1403.43564286
 20
-361.0184852789
 10
-1402.1005669646
 20
-359.6742332424
 10
-1400.5544726554
 20
-358.4914175946
 10
-1398.8261607438
 20
-357.4920719531
 10
-1396.9478264109
 20
-356.6948122363
 10
-1394.9544594712
 20
-356.1144898844
 10
-1392.8831925793
 20
-355.7619152046
 10
-1390.7726095183
 20
-355.6436559963
  0
LWPOLYLINE
  5
43F
330
1F
100
AcDbEntity
  8
0
  6
Continuous
 62
     8
370
    25
100
AcDbPolyline
 90
       25
 70
   128
 43
0.0
 10
-695.2726157518
 20
405.6034854178
 10
-695.3087435958
 20
404.7484083055
 10
-695.5968061592
 20
403.0316206082
 10
-696.1675652255
 20
401.362954005
 10
-697.0103886331
 20
399.7734925974
 10
-698.1095761766
 20
398.2928450441
 10
-699.444652072
 20
396.9485930076
 10
-700.9907463812
 20
395.7657773598
 10
-702.7190582927
 20
394.7664317183
 10
-704.5973926257
 20
393.9691720015
 10
-706.5907595654
 20
393.3888496496
 10
-708.6620264573
 20
393.0362749698
 10
-710.7726095183
 20
392.9180157615
 10
-712.8831925793
 20
393.0362749698
 10
-714.9544594712
 20
393.3888496496
 10
-716.9478264109
 20
393.9691720015
 10
-718.8261607438
 20
394.7664317183
 10
-720.5544726554
 20
395.7657773598
 10
-722.1005669646
 20
396.9485930076
 10
-723.43564286
 20
398.2928450441
 10
-724.5348304035
 20
399.7734925974
 10
-725.3776538111
 20
401.362954005
 10
-725.9484128774
 20
403.0316206082
 10
-726.2364754408
 20
404.7484083055
 10
-726.2725927741
 20
405.5962096058
  0
LINE
  5
440
330
1F
100
AcDbEntity
  8
0
  6
Continuous
 62
     8
370
    25
100
AcDbLine
 10
1225.4770694152
 20
-254.4479701363
 30
0.0
 11
1232.1092925754
 21
-254.4479701363
 31
0.0
  0
LINE
  5
441
330
1F
100
AcDbEntity
  8
0
  6
Continuous
 62
     8
370
    25
100
AcDbLine
 10
1210.6092925754
 20
-254.4479701363
 30
0.0
 11
1225.4770694152
 21
-254.4479701363
 31
0.0
  0
LINE
  5
442
330
1F
100
AcDbEntity
  8
0
  6
Continuous
 62
     8
370
    25
100
AcDbLine
 10
1225.326882164
 20
-255.0107940778
 30
0.0
 11
1231.7172089308
 21
-255.0107940778
 31
0.0
  0
LINE
  5
443
330
1F
100
AcDbEntity
  8
0
  6
Continuous
 62
     8
370
    25
100
AcDbLine
 10
1211.0013762199
 20
-255.0107940778
 30
0.0
 11
1225.326882164
 21
-255.0107940778
 31
0.0
  0
ARC
  5
444
330
1F
100
AcDbEntity
  8
0
  6
Continuous
 62
     8
370
    25
100
AcDbCircle
 10
-1390.6223147502
 20
-378.5835576106
 30
0.0
 40
12.11810417451851
100
AcDbArc
 50
56.331237862
 51
90.7106290352
  0
ARC
  5
445
330
1F
100
AcDbEntity
  8
0
  6
Continuous
 62
     8
370
    25
100
AcDbCircle
 10
-1390.8995871044
 20
-378.6637828957
 30
0.0
 40
12.19805832284998
100
AcDbArc
 50
89.4035598959
 51
123.4574147437
  0
ARC
  5
446
330
1F
100
AcDbEntity
  8
0
  6
Continuous
 62
     8
370
    25
100
AcDbCircle
 10
-710.6223147502
 20
-378.5835576106
 30
0.0
 40
12.11810417451184
100
AcDbArc
 50
56.331237862
 51
90.7106290352
  0
ARC
  5
447
330
1F
100
AcDbEntity
  8
0
  6
Continuous
 62
     8
370
    25
100
AcDbCircle
 10
-710.8995871044
 20
-378.6637828957
 30
0.0
 40
12.19805832283968
100
AcDbArc
 50
89.4035598958
 51
123.4574147437
  0
LINE
  5
448
330
1F
100
AcDbEntity
  8
0
  6
Continuous
 62
     8
370
    25
100
AcDbLine
 10
1232.1092925754
 20
291.7223299015
 30
0.0
 11
1210.6092925754
 21
291.7223299015
 31
0.0
  0
LINE
  5
449
330
1F
100
AcDbEntity
  8
0
  6
Continuous
 62
     8
370
    25
100
AcDbLine
 10
1231.7172089308
 20
292.285153843
 30
0.0
 11
1211.0013762199
 21
292.285153843
 31
0.0
  0
LINE
  5
44A
330
1F
100
AcDbEntity
  8
0
  6
Continuous
 62
     8
370
    25
100
AcDbLine
 10
-361.2151048999
 20
-243.3628201174
 30
0.0
 11
-348.8760850671
 21
-243.3628201174
 31
0.0
  0
LINE
  5
44B
330
1F
100
AcDbEntity
  8
0
  6
Continuous
 62
     8
370
    25
100
AcDbLine
 10
-388.8760850671
 20
-243.3628201174
 30
0.0
 11
-361.2151048999
 21
-243.3628201174
 31
0.0
  0
LINE
  5
44C
330
1F
100
AcDbEntity
  8
0
  6
Continuous
 62
     8
370
    25
100
AcDbLine
 10
-348.8760850671
 20
280.6371798826
 30
0.0
 11
-388.8760850671
 21
280.6371798826
 31
0.0
  0
LINE
  5
44D
330
1F
100
AcDbEntity
  8
0
  6
Continuous
 62
     8
370
    25
100
AcDbLine
 10
513.4760219016
 20
-243.3628201174
 30
0.0
 11
525.8150417344
 21
-243.3628201174
 31
0.0
  0
LINE
  5
44E
330
1F
100
AcDbEntity
  8
0
  6
Continuous
 62
     8
370
    25
100
AcDbLine
 10
485.8150417344
 20
-243.3628201174
 30
0.0
 11
513.4760219016
 21
-243.3628201174
 31
0.0
  0
LINE
  5
44F
330
1F
100
AcDbEntity
  8
0
  6
Continuous
 62
     8
370
    25
100
AcDbLine
 10
1213.3104263031
 20
280.6371798826
 30
0.0
 11
1173.3104263031
 21
280.6371798826
 31
0.0
  0
LINE
  5
450
330
1F
100
AcDbEntity
  8
0
  6
Continuous
 62
     8
370
    25
100
AcDbLine
 10
801.7718470345
 20
-243.3628201174
 30
0.0
 11
814.1108668673
 21
-243.3628201174
 31
0.0
  0
LINE
  5
451
330
1F
100
AcDbEntity
  8
0
  6
Continuous
 62
     8
370
    25
100
AcDbLine
 10
774.1108668673
 20
-243.3628201174
 30
0.0
 11
801.7718470345
 21
-243.3628201174
 31
0.0
  0
LINE
  5
452
330
1F
100
AcDbEntity
  8
0
  6
Continuous
 62
     8
370
    25
100
AcDbLine
 10
525.8150417344
 20
280.6371798826
 30
0.0
 11
485.8150417344
 21
280.6371798826
 31
0.0
  0
LINE
  5
453
330
1F
100
AcDbEntity
  8
0
  6
Continuous
 62
     8
370
    25
100
AcDbLine
 10
1270.1519980218
 20
-243.3628201174
 30
0.0
 11
1287.6315654972
 21
-243.3628201174
 31
0.0
  0
LINE
  5
454
330
1F
100
AcDbEntity
  8
0
  6
Continuous
 62
     8
370
    25
100
AcDbLine
 10
1247.6315654972
 20
-243.3628201174
 30
0.0
 11
1270.1519980218
 21
-243.3628201174
 31
0.0
  0
LINE
  5
455
330
1F
100
AcDbEntity
  8
0
  6
Continuous
 62
     8
370
    25
100
AcDbLine
 10
814.1108668673
 20
280.6371798826
 30
0.0
 11
774.1108668673
 21
280.6371798826
 31
0.0
  0
LINE
  5
456
330
1F
100
AcDbEntity
  8
0
  6
Continuous
 62
     8
370
    25
100
AcDbLine
 10
-69.6513959661
 20
-243.3628201174
 30
0.0
 11
-57.3123761333
 21
-243.3628201174
 31
0.0
  0
LINE
  5
457
330
1F
100
AcDbEntity
  8
0
  6
Continuous
 62
     8
370
    25
100
AcDbLine
 10
-97.3123761333
 20
-243.3628201174
 30
0.0
 11
-69.6513959661
 21
-243.3628201174
 31
0.0
  0
LINE
  5
458
330
1F
100
AcDbEntity
  8
0
  6
Continuous
 62
     8
370
    25
100
AcDbLine
 10
1200.9714064703
 20
-243.3628201174
 30
0.0
 11
1213.3104263031
 21
-243.3628201174
 31
0.0
  0
LINE
  5
459
330
1F
100
AcDbEntity
  8
0
  6
Continuous
 62
     8
370
    25
100
AcDbLine
 10
1173.3104263031
 20
-243.3628201174
 30
0.0
 11
1200.9714064703
 21
-243.3628201174
 31
0.0
  0
LINE
  5
45A
330
1F
100
AcDbEntity
  8
0
  6
Continuous
 62
     8
370
    25
100
AcDbLine
 10
-57.3123761333
 20
280.6371798826
 30
0.0
 11
-97.3123761333
 21
280.6371798826
 31
0.0
  0
LINE
  5
45B
330
1F
100
AcDbEntity
  8
0
  6
Continuous
 62
     8
370
    25
100
AcDbLine
 10
221.9123129678
 20
-243.3628201174
 30
0.0
 11
234.2513328006
 21
-243.3628201174
 31
0.0
  0
LINE
  5
45C
330
1F
100
AcDbEntity
  8
0
  6
Continuous
 62
     8
370
    25
100
AcDbLine
 10
194.2513328006
 20
-243.3628201174
 30
0.0
 11
221.9123129678
 21
-243.3628201174
 31
0.0
  0
LINE
  5
45D
330
1F
100
AcDbEntity
  8
0
  6
Continuous
 62
     8
370
    25
100
AcDbLine
 10
1287.6315654972
 20
280.6371798826
 30
0.0
 11
1247.6315654972
 21
280.6371798826
 31
0.0
  0
LINE
  5
45E
330
1F
100
AcDbEntity
  8
0
  6
Continuous
 62
     8
370
    25
100
AcDbLine
 10
234.2513328006
 20
280.6371798826
 30
0.0
 11
194.2513328006
 21
280.6371798826
 31
0.0
  0
LINE
  5
45F
330
1F
100
AcDbEntity
  8
0
  6
Continuous
 62
     8
370
    25
100
AcDbLine
 10
-355.1760850671
 20
295.767571201
 30
0.0
 11
-382.5760850671
 21
295.767571201
 31
0.0
  0
LINE
  5
460
330
1F
100
AcDbEntity
  8
0
  6
Continuous
 62
     8
370
    25
100
AcDbLine
 10
-355.5095348667
 20
296.3051128186
 30
0.0
 11
-382.2426352675
 21
296.3051128186
 31
0.0
  0
LINE
  5
461
330
1F
100
AcDbEntity
  8
0
  6
Continuous
 62
     8
370
    25
100
AcDbLine
 10
799.3586382818
 20
-258.4932114358
 30
0.0
 11
807.8108668673
 21
-258.4932114358
 31
0.0
  0
LINE
  5
462
330
1F
100
AcDbEntity
  8
0
  6
Continuous
 62
     8
370
    25
100
AcDbLine
 10
780.4108668673
 20
-258.4932114358
 30
0.0
 11
799.3586382818
 21
-258.4932114358
 31
0.0
  0
LINE
  5
463
330
1F
100
AcDbEntity
  8
0
  6
Continuous
 62
     8
370
    25
100
AcDbLine
 10
799.2309106668
 20
-259.0307530534
 30
0.0
 11
807.4774170677
 21
-259.0307530534
 31
0.0
  0
LINE
  5
464
330
1F
100
AcDbEntity
  8
0
  6
Continuous
 62
     8
370
    25
100
AcDbLine
 10
780.7443166669
 20
-259.0307530534
 30
0.0
 11
799.2309106668
 21
-259.0307530534
 31
0.0
  0
LINE
  5
465
330
1F
100
AcDbEntity
  8
0
  6
Continuous
 62
     8
370
    25
100
AcDbLine
 10
1207.0104263031
 20
295.767571201
 30
0.0
 11
1179.6104263031
 21
295.767571201
 31
0.0
  0
LINE
  5
466
330
1F
100
AcDbEntity
  8
0
  6
Continuous
 62
     8
370
    25
100
AcDbLine
 10
1206.6769765035
 20
296.3051128186
 30
0.0
 11
1179.9438761027
 21
296.3051128186
 31
0.0
  0
LINE
  5
467
330
1F
100
AcDbEntity
  8
0
  6
Continuous
 62
     8
370
    25
100
AcDbLine
 10
-363.6283136526
 20
-258.4932114358
 30
0.0
 11
-355.1760850671
 21
-258.4932114358
 31
0.0
  0
LINE
  5
468
330
1F
100
AcDbEntity
  8
0
  6
Continuous
 62
     8
370
    25
100
AcDbLine
 10
-382.5760850671
 20
-258.4932114358
 30
0.0
 11
-363.6283136526
 21
-258.4932114358
 31
0.0
  0
LINE
  5
469
330
1F
100
AcDbEntity
  8
0
  6
Continuous
 62
     8
370
    25
100
AcDbLine
 10
-363.7560412676
 20
-259.0307530534
 30
0.0
 11
-355.5095348667
 21
-259.0307530534
 31
0.0
  0
LINE
  5
46A
330
1F
100
AcDbEntity
  8
0
  6
Continuous
 62
     8
370
    25
100
AcDbLine
 10
-382.2426352675
 20
-259.0307530534
 30
0.0
 11
-363.7560412676
 21
-259.0307530534
 31
0.0
  0
LINE
  5
46B
330
1F
100
AcDbEntity
  8
0
  6
Continuous
 62
     8
370
    25
100
AcDbLine
 10
227.9513328006
 20
295.767571201
 30
0.0
 11
200.5513328006
 21
295.767571201
 31
0.0
  0
LINE
  5
46C
330
1F
100
AcDbEntity
  8
0
  6
Continuous
 62
     8
370
    25
100
AcDbLine
 10
227.617883001
 20
296.3051128186
 30
0.0
 11
200.8847826002
 21
296.3051128186
 31
0.0
  0
LINE
  5
46D
330
1F
100
AcDbEntity
  8
0
  6
Continuous
 62
     8
370
    25
100
AcDbLine
 10
511.0628131489
 20
-258.4932114358
 30
0.0
 11
519.5150417344
 21
-258.4932114358
 31
0.0
  0
LINE
  5
46E
330
1F
100
AcDbEntity
  8
0
  6
Continuous
 62
     8
370
    25
100
AcDbLine
 10
492.1150417344
 20
-258.4932114358
 30
0.0
 11
511.0628131489
 21
-258.4932114358
 31
0.0
  0
LINE
  5
46F
330
1F
100
AcDbEntity
  8
0
  6
Continuous
 62
     8
370
    25
100
AcDbLine
 10
510.9350855339
 20
-259.0307530534
 30
0.0
 11
519.1815919348
 21
-259.0307530534
 31
0.0
  0
LINE
  5
470
330
1F
100
AcDbEntity
  8
0
  6
Continuous
 62
     8
370
    25
100
AcDbLine
 10
492.448491534
 20
-259.0307530534
 30
0.0
 11
510.9350855339
 21
-259.0307530534
 31
0.0
  0
LINE
  5
471
330
1F
100
AcDbEntity
  8
0
  6
Continuous
 62
     8
370
    25
100
AcDbLine
 10
1198.5581977176
 20
-258.4932114358
 30
0.0
 11
1207.0104263031
 21
-258.4932114358
 31
0.0
  0
LINE
  5
472
330
1F
100
AcDbEntity
  8
0
  6
Continuous
 62
     8
370
    25
100
AcDbLine
 10
1179.6104263031
 20
-258.4932114358
 30
0.0
 11
1198.5581977176
 21
-258.4932114358
 31
0.0
  0
LINE
  5
473
330
1F
100
AcDbEntity
  8
0
  6
Continuous
 62
     8
370
    25
100
AcDbLine
 10
1198.4304701026
 20
-259.0307530534
 30
0.0
 11
1206.6769765035
 21
-259.0307530534
 31
0.0
  0
LINE
  5
474
330
1F
100
AcDbEntity
  8
0
  6
Continuous
 62
     8
370
    25
100
AcDbLine
 10
1179.9438761027
 20
-259.0307530534
 30
0.0
 11
1198.4304701026
 21
-259.0307530534
 31
0.0
  0
LINE
  5
475
330
1F
100
AcDbEntity
  8
0
  6
Continuous
 62
     8
370
    25
100
AcDbLine
 10
219.4991042151
 20
-258.4932114358
 30
0.0
 11
227.9513328006
 21
-258.4932114358
 31
0.0
  0
LINE
  5
476
330
1F
100
AcDbEntity
  8
0
  6
Continuous
 62
     8
370
    25
100
AcDbLine
 10
200.5513328006
 20
-258.4932114358
 30
0.0
 11
219.4991042151
 21
-258.4932114358
 31
0.0
  0
LINE
  5
477
330
1F
100
AcDbEntity
  8
0
  6
Continuous
 62
     8
370
    25
100
AcDbLine
 10
219.3713766
 20
-259.0307530534
 30
0.0
 11
227.617883001
 21
-259.0307530534
 31
0.0
  0
LINE
  5
478
330
1F
100
AcDbEntity
  8
0
  6
Continuous
 62
     8
370
    25
100
AcDbLine
 10
200.8847826002
 20
-259.0307530534
 30
0.0
 11
219.3713766
 21
-259.0307530534
 31
0.0
  0
LINE
  5
479
330
1F
100
AcDbEntity
  8
0
  6
Continuous
 62
     8
370
    25
100
AcDbLine
 10
-63.6123761333
 20
295.767571201
 30
0.0
 11
-91.0123761333
 21
295.767571201
 31
0.0
  0
LINE
  5
47A
330
1F
100
AcDbEntity
  8
0
  6
Continuous
 62
     8
370
    25
100
AcDbLine
 10
-63.9458259329
 20
296.3051128186
 30
0.0
 11
-90.6789263336
 21
296.3051128186
 31
0.0
  0
LINE
  5
47B
330
1F
100
AcDbEntity
  8
0
  6
Continuous
 62
     8
370
    25
100
AcDbLine
 10
1281.3315654972
 20
295.767571201
 30
0.0
 11
1253.9315654972
 21
295.767571201
 31
0.0
  0
LINE
  5
47C
330
1F
100
AcDbEntity
  8
0
  6
Continuous
 62
     8
370
    25
100
AcDbLine
 10
1280.9981156976
 20
296.3051128186
 30
0.0
 11
1254.2650152968
 21
296.3051128186
 31
0.0
  0
LINE
  5
47D
330
1F
100
AcDbEntity
  8
0
  6
Continuous
 62
     8
370
    25
100
AcDbLine
 10
807.8108668673
 20
295.767571201
 30
0.0
 11
780.4108668673
 21
295.767571201
 31
0.0
  0
LINE
  5
47E
330
1F
100
AcDbEntity
  8
0
  6
Continuous
 62
     8
370
    25
100
AcDbLine
 10
807.4774170677
 20
296.3051128186
 30
0.0
 11
780.7443166669
 21
296.3051128186
 31
0.0
  0
LINE
  5
47F
330
1F
100
AcDbEntity
  8
0
  6
Continuous
 62
     8
370
    25
100
AcDbLine
 10
-72.0646047187
 20
-258.4932114358
 30
0.0
 11
-63.6123761333
 21
-258.4932114358
 31
0.0
  0
LINE
  5
480
330
1F
100
AcDbEntity
  8
0
  6
Continuous
 62
     8
370
    25
100
AcDbLine
 10
-91.0123761333
 20
-258.4932114358
 30
0.0
 11
-72.0646047187
 21
-258.4932114358
 31
0.0
  0
LINE
  5
481
330
1F
100
AcDbEntity
  8
0
  6
Continuous
 62
     8
370
    25
100
AcDbLine
 10
-72.1923323338
 20
-259.0307530534
 30
0.0
 11
-63.9458259329
 21
-259.0307530534
 31
0.0
  0
LINE
  5
482
330
1F
100
AcDbEntity
  8
0
  6
Continuous
 62
     8
370
    25
100
AcDbLine
 10
-90.6789263336
 20
-259.0307530534
 30
0.0
 11
-72.1923323338
 21
-259.0307530534
 31
0.0
  0
LINE
  5
483
330
1F
100
AcDbEntity
  8
0
  6
Continuous
 62
     8
370
    25
100
AcDbLine
 10
1269.3580617766
 20
-258.4932114358
 30
0.0
 11
1281.3315654972
 21
-258.4932114358
 31
0.0
  0
LINE
  5
484
330
1F
100
AcDbEntity
  8
0
  6
Continuous
 62
     8
370
    25
100
AcDbLine
 10
1253.9315654972
 20
-258.4932114358
 30
0.0
 11
1269.3580617766
 21
-258.4932114358
 31
0.0
  0
LINE
  5
485
330
1F
100
AcDbEntity
  8
0
  6
Continuous
 62
     8
370
    25
100
AcDbLine
 10
1269.3160398906
 20
-259.0307530534
 30
0.0
 11
1280.9981156976
 21
-259.0307530534
 31
0.0
  0
LINE
  5
486
330
1F
100
AcDbEntity
  8
0
  6
Continuous
 62
     8
370
    25
100
AcDbLine
 10
1254.2650152968
 20
-259.0307530534
 30
0.0
 11
1269.3160398906
 21
-259.0307530534
 31
0.0
  0
LINE
  5
487
330
1F
100
AcDbEntity
  8
0
  6
Continuous
 62
     8
370
    25
100
AcDbLine
 10
519.5150417344
 20
295.767571201
 30
0.0
 11
492.1150417344
 21
295.767571201
 31
0.0
  0
LINE
  5
488
330
1F
100
AcDbEntity
  8
0
  6
Continuous
 62
     8
370
    25
100
AcDbLine
 10
519.1815919348
 20
296.3051128186
 30
0.0
 11
492.448491534
 21
296.3051128186
 31
0.0
  0
LINE
  5
489
330
1F
100
AcDbEntity
  8
0
  6
Continuous
 62
     8
370
    25
100
AcDbLine
 10
-579.2491538817
 20
275.6371798826
 30
0.0
 11
559.5189072785
 21
275.6371798826
 31
0.0
  0
LINE
  5
48A
330
1F
100
AcDbEntity
  8
0
  6
Continuous
 62
     8
370
    25
100
AcDbLine
 10
559.5189072785
 20
266.6371798826
 30
0.0
 11
-582.1235202093
 21
266.6371798826
 31
0.0
  0
LINE
  5
48B
330
1F
100
AcDbEntity
  8
0
  6
Continuous
 62
     8
370
    25
100
AcDbLine
 10
1292.4854943722
 20
275.6371798826
 30
0.0
 11
1340.7023765427
 21
275.6371798826
 31
0.0
  0
LINE
  5
48C
330
1F
100
AcDbEntity
  8
0
  6
Continuous
 62
     8
370
    25
100
AcDbLine
 10
1340.7023765427
 20
266.6371798826
 30
0.0
 11
1292.4854943722
 21
266.6371798826
 31
0.0
  0
LINE
  5
48D
330
1F
100
AcDbEntity
  8
0
  6
Continuous
 62
     8
370
    25
100
AcDbLine
 10
522.7243742212
 20
263.6371798826
 30
0.0
 11
522.7243742212
 21
-226.3628201174
 31
0.0
  0
LINE
  5
48E
330
1F
100
AcDbEntity
  8
0
  6
Continuous
 62
     8
370
    25
100
AcDbLine
 10
817.9914450484
 20
263.6371798826
 30
0.0
 11
817.9914450484
 21
-226.3628201174
 31
0.0
  0
LINE
  5
48F
330
1F
100
AcDbEntity
  8
0
  6
Continuous
 62
     8
370
    25
100
AcDbLine
 10
1169.8591663498
 20
263.6371798826
 30
0.0
 11
1169.8591663498
 21
-226.3628201174
 31
0.0
  0
LWPOLYLINE
  5
490
330
1F
100
AcDbEntity
  8
0
  6
Continuous
 62
     8
370
    25
100
AcDbPolyline
 90
        3
 70
   128
 43
0.0
 10
-1359.7309185792
 20
-289.9283264199
 10
-1359.5299688312
 20
-290.1201794303
 10
-1359.3381158208
 20
-290.3211291783
  0
LWPOLYLINE
  5
491
330
1F
100
AcDbEntity
  8
0
  6
Continuous
 62
     8
370
    25
100
AcDbPolyline
 90
        3
 70
   128
 43
0.0
 10
-742.2071032158
 20
-290.3211291783
 10
-742.0152502054
 20
-290.1201794303
 10
-741.8143004574
 20
-289.9283264199
  0
ENDSEC
  0
SECTION
  2
OBJECTS
  0
DICTIONARY
  5
C
330
0
100
AcDbDictionary
281
     1
  3
ACAD_GROUP
350
D
  3
ACAD_LAYOUT
350
1A
  3
ACAD_MLINESTYLE
350
17
  3
ACAD_PLOTSETTINGS
350
19
  3
ACAD_PLOTSTYLENAME
350
E
  3
ACAD_SCALELIST
350
47
  3
DWGPROPS
350
492
  0
DICTIONARY
  5
D
102
{ACAD_REACTORS
330
C
102
}
330
C
100
AcDbDictionary
281
     1
  0
DICTIONARY
  5
1A
102
{ACAD_REACTORS
330
C
102
}
330
C
100
AcDbDictionary
281
     1
  3
Layout1
350
1E
  3
Layout2
350
26
  3
Model
350
22
  0
DICTIONARY
  5
17
102
{ACAD_REACTORS
330
C
102
}
330
C
100
AcDbDictionary
281
     1
  3
Standard
350
18
  0
DICTIONARY
  5
19
102
{ACAD_REACTORS
330
C
102
}
330
C
100
AcDbDictionary
281
     1
  0
ACDBDICTIONARYWDFLT
  5
E
102
{ACAD_REACTORS
330
C
102
}
330
C
100
AcDbDictionary
281
     1
  3
Normal
350
F
100
AcDbDictionaryWithDefault
340
F
  0
DICTIONARY
  5
47
102
{ACAD_REACTORS
330
C
102
}
330
C
100
AcDbDictionary
281
     1
  3
A0
350
48
  3
A1
350
49
  3
A2
350
4A
  3
A3
350
4B
  3
A4
350
4C
  3
A5
350
4D
  3
A6
350
4E
  3
A7
350
4F
  3
A8
350
50
  3
A9
350
51
  3
B0
350
52
  3
B1
350
53
  3
B2
350
54
  3
B3
350
55
  3
B4
350
56
  3
B5
350
57
  3
B6
350
58
  3
B7
350
59
  3
B8
350
5A
  3
B9
350
5B
  3
C0
350
5C
  3
C1
350
5D
  3
C2
350
5E
  3
C3
350
5F
  3
C4
350
60
  3
C5
350
61
  3
C6
350
62
  3
C7
350
63
  3
C8
350
64
  3
C9
350
65
  3
D0
350
66
  3
D1
350
67
  3
D2
350
68
  0
XRECORD
  5
492
102
{ACAD_REACTORS
330
C
102
}
330
C
100
AcDbXrecord
280
     1
  1
DWGPROPS COOKIE
  2

  3

  4

  6

  7

  8
Swing
  9

300
=
301
=
302
=
303
=
304
=
305
=
306
=
307
=
308
=
309
=
 40
0.0
 41
2459587.382014548
 42
2459587.382014931
  1

 90
        0
  0
LAYOUT
  5
1E
102
{ACAD_REACTORS
330
1A
102
}
330
1A
100
AcDbPlotSettings
  1

  2
none_device
  4

  6

 40
0.0
 41
0.0
 42
0.0
 43
0.0
 44
0.0
 45
0.0
 46
0.0
 47
0.0
 48
0.0
 49
0.0
140
0.0
141
0.0
142
1.0
143
1.0
 70
   688
 72
     1
 73
     0
 74
     5
  7

 75
    16
147
1.0
148
0.0
149
0.0
100
AcDbLayout
  1
Layout1
 70
     1
 71
     1
 10
0.0
 20
0.0
 11
420.0
 21
297.0
 12
0.0
 22
0.0
 32
0.0
 14
1.0000000000E+20
 24
1.0000000000E+20
 34
1.0000000000E+20
 15
-1.0000000000E+20
 25
-1.0000000000E+20
 35
-1.0000000000E+20
146
0.0
 13
0.0
 23
0.0
 33
0.0
 16
1.0
 26
0.0
 36
0.0
 17
0.0
 27
1.0
 37
0.0
 76
     0
330
1B
  0
LAYOUT
  5
26
102
{ACAD_REACTORS
330
1A
102
}
330
1A
100
AcDbPlotSettings
  1

  2
none_device
  4

  6

 40
0.0
 41
0.0
 42
0.0
 43
0.0
 44
0.0
 45
0.0
 46
0.0
 47
0.0
 48
0.0
 49
0.0
140
0.0
141
0.0
142
1.0
143
1.0
 70
   688
 72
     1
 73
     0
 74
     5
  7

 75
    16
147
1.0
148
0.0
149
0.0
100
AcDbLayout
  1
Layout2
 70
     1
 71
     2
 10
0.0
 20
0.0
 11
0.0
 21
0.0
 12
0.0
 22
0.0
 32
0.0
 14
0.0
 24
0.0
 34
0.0
 15
0.0
 25
0.0
 35
0.0
146
0.0
 13
0.0
 23
0.0
 33
0.0
 16
1.0
 26
0.0
 36
0.0
 17
0.0
 27
1.0
 37
0.0
 76
     0
330
23
  0
LAYOUT
  5
22
102
{ACAD_REACTORS
330
1A
102
}
330
1A
100
AcDbPlotSettings
  1

  2
none_device
  4
Letter_(8.50_x_11.00_Inches)
  6

 40
6.35
 41
6.35
 42
6.35000508
 43
6.35000508
 44
215.9
 45
279.4
 46
0.0
 47
0.0
 48
0.0
 49
0.0
140
0.0
141
0.0
142
1.0
143
1.0
 70
  1712
 72
     1
 73
     0
 74
     0
  7

 75
     0
147
1.0
148
0.0
149
0.0
100
AcDbLayout
  1
Model
 70
     1
 71
     0
 10
0.0
 20
0.0
 11
431.8
 21
279.4
 12
0.0
 22
0.0
 32
0.0
 14
0.0
 24
0.0
 34
0.0
 15
431.8
 25
279.4
 35
0.0
146
0.0
 13
0.0
 23
0.0
 33
0.0
 16
1.0
 26
0.0
 36
0.0
 17
0.0
 27
1.0
 37
0.0
 76
     0
330
1F
331
29
  0
MLINESTYLE
  5
18
102
{ACAD_REACTORS
330
17
102
}
330
17
100
AcDbMlineStyle
  2
Standard
 70
     0
  3

 62
   256
 51
90.0
 52
90.0
 71
     2
 49
0.5
 62
   256
  6
BYLAYER
 49
-0.5
 62
   256
  6
BYLAYER
  0
ACDBPLACEHOLDER
  5
F
102
{ACAD_REACTORS
330
E
102
}
330
E
  0
SCALE
  5
48
102
{ACAD_REACTORS
330
47
102
}
330
47
100
AcDbScale
 70
     0
300
1:1
140
1.0
141
1.0
290
     1
  0
SCALE
  5
49
102
{ACAD_REACTORS
330
47
102
}
330
47
100
AcDbScale
 70
     0
300
1:2
140
1.0
141
2.0
290
     0
  0
SCALE
  5
4A
102
{ACAD_REACTORS
330
47
102
}
330
47
100
AcDbScale
 70
     0
300
1:4
140
1.0
141
4.0
290
     0
  0
SCALE
  5
4B
102
{ACAD_REACTORS
330
47
102
}
330
47
100
AcDbScale
 70
     0
300
1:5
140
1.0
141
5.0
290
     0
  0
SCALE
  5
4C
102
{ACAD_REACTORS
330
47
102
}
330
47
100
AcDbScale
 70
     0
300
1:8
140
1.0
141
8.0
290
     0
  0
SCALE
  5
4D
102
{ACAD_REACTORS
330
47
102
}
330
47
100
AcDbScale
 70
     0
300
1:10
140
1.0
141
10.0
290
     0
  0
SCALE
  5
4E
102
{ACAD_REACTORS
330
47
102
}
330
47
100
AcDbScale
 70
     0
300
1:16
140
1.0
141
16.0
290
     0
  0
SCALE
  5
4F
102
{ACAD_REACTORS
330
47
102
}
330
47
100
AcDbScale
 70
     0
300
1:20
140
1.0
141
20.0
290
     0
  0
SCALE
  5
50
102
{ACAD_REACTORS
330
47
102
}
330
47
100
AcDbScale
 70
     0
300
1:30
140
1.0
141
30.0
290
     0
  0
SCALE
  5
51
102
{ACAD_REACTORS
330
47
102
}
330
47
100
AcDbScale
 70
     0
300
1:40
140
1.0
141
40.0
290
     0
  0
SCALE
  5
52
102
{ACAD_REACTORS
330
47
102
}
330
47
100
AcDbScale
 70
     0
300
1:50
140
1.0
141
50.0
290
     0
  0
SCALE
  5
53
102
{ACAD_REACTORS
330
47
102
}
330
47
100
AcDbScale
 70
     0
300
1:100
140
1.0
141
100.0
290
     0
  0
SCALE
  5
54
102
{ACAD_REACTORS
330
47
102
}
330
47
100
AcDbScale
 70
     0
300
2:1
140
2.0
141
1.0
290
     0
  0
SCALE
  5
55
102
{ACAD_REACTORS
330
47
102
}
330
47
100
AcDbScale
 70
     0
300
4:1
140
4.0
141
1.0
290
     0
  0
SCALE
  5
56
102
{ACAD_REACTORS
330
47
102
}
330
47
100
AcDbScale
 70
     0
300
8:1
140
8.0
141
1.0
290
     0
  0
SCALE
  5
57
102
{ACAD_REACTORS
330
47
102
}
330
47
100
AcDbScale
 70
     0
300
10:1
140
10.0
141
1.0
290
     0
  0
SCALE
  5
58
102
{ACAD_REACTORS
330
47
102
}
330
47
100
AcDbScale
 70
     0
300
100:1
140
100.0
141
1.0
290
     0
  0
SCALE
  5
59
102
{ACAD_REACTORS
330
47
102
}
330
47
100
AcDbScale
 70
     0
300
1/128" = 1'-0"
140
0.0078125
141
12.0
290
     0
  0
SCALE
  5
5A
102
{ACAD_REACTORS
330
47
102
}
330
47
100
AcDbScale
 70
     0
300
1/64" = 1'-0"
140
0.015625
141
12.0
290
     0
  0
SCALE
  5
5B
102
{ACAD_REACTORS
330
47
102
}
330
47
100
AcDbScale
 70
     0
300
1/32" = 1'-0"
140
0.03125
141
12.0
290
     0
  0
SCALE
  5
5C
102
{ACAD_REACTORS
330
47
102
}
330
47
100
AcDbScale
 70
     0
300
1/16" = 1'-0"
140
0.0625
141
12.0
290
     0
  0
SCALE
  5
5D
102
{ACAD_REACTORS
330
47
102
}
330
47
100
AcDbScale
 70
     0
300
3/32" = 1'-0"
140
0.09375
141
12.0
290
     0
  0
SCALE
  5
5E
102
{ACAD_REACTORS
330
47
102
}
330
47
100
AcDbScale
 70
     0
300
1/8" = 1'-0"
140
0.125
141
12.0
290
     0
  0
SCALE
  5
5F
102
{ACAD_REACTORS
330
47
102
}
330
47
100
AcDbScale
 70
     0
300
3/16" = 1'-0"
140
0.1875
141
12.0
290
     0
  0
SCALE
  5
60
102
{ACAD_REACTORS
330
47
102
}
330
47
100
AcDbScale
 70
     0
300
1/4" = 1'-0"
140
0.25
141
12.0
290
     0
  0
SCALE
  5
61
102
{ACAD_REACTORS
330
47
102
}
330
47
100
AcDbScale
 70
     0
300
3/8" = 1'-0"
140
0.375
141
12.0
290
     0
  0
SCALE
  5
62
102
{ACAD_REACTORS
330
47
102
}
330
47
100
AcDbScale
 70
     0
300
1/2" = 1'-0"
140
0.5
141
12.0
290
     0
  0
SCALE
  5
63
102
{ACAD_REACTORS
330
47
102
}
330
47
100
AcDbScale
 70
     0
300
3/4" = 1'-0"
140
0.75
141
12.0
290
     0
  0
SCALE
  5
64
102
{ACAD_REACTORS
330
47
102
}
330
47
100
AcDbScale
 70
     0
300
1" = 1'-0"
140
1.0
141
12.0
290
     0
  0
SCALE
  5
65
102
{ACAD_REACTORS
330
47
102
}
330
47
100
AcDbScale
 70
     0
300
1-1/2" = 1'-0"
140
1.5
141
12.0
290
     0
  0
SCALE
  5
66
102
{ACAD_REACTORS
330
47
102
}
330
47
100
AcDbScale
 70
     0
300
3" = 1'-0"
140
3.0
141
12.0
290
     0
  0
SCALE
  5
67
102
{ACAD_REACTORS
330
47
102
}
330
47
100
AcDbScale
 70
     0
300
6" = 1'-0"
140
6.0
141
12.0
290
     0
  0
SCALE
  5
68
102
{ACAD_REACTORS
330
47
102
}
330
47
100
AcDbScale
 70
     0
300
1'-0" = 1'-0"
140
12.0
141
12.0
290
     0
  0
ENDSEC
  0
EOF
