  0
SECTION
  2
HEADER
  9
$ACADVER
  1
AC1015
  9
$ACADMAINTVER
 70
     6
  9
$DWGCODEPAGE
  3
ANSI_1250
  9
$INSBASE
 10
0.0
 20
0.0
 30
0.0
  9
$EXTMIN
 10
0.0
 20
0.0
 30
0.0
  9
$EXTMAX
 10
431.8
 20
279.4
 30
0.0
  9
$LIMMIN
 10
0.0
 20
0.0
  9
$LIMMAX
 10
431.8
 20
279.4
  9
$ORTHOMODE
 70
     0
  9
$REGENMODE
 70
     1
  9
$FILLMODE
 70
     1
  9
$QTEXTMODE
 70
     0
  9
$MIRRTEXT
 70
     1
  9
$LTSCALE
 40
1.0
  9
$ATTMODE
 70
     1
  9
$TEXTSIZE
 40
3.8805555556
  9
$TRACEWID
 40
1.0
  9
$TEXTSTYLE
  7
Standard
  9
$CLAYER
  8
0
  9
$CELTYPE
  6
ByLayer
  9
$CECOLOR
 62
   256
  9
$CELTSCALE
 40
1.0
  9
$DISPSILH
 70
     0
  9
$DIMSCALE
 40
1.0
  9
$DIMASZ
 40
3.302
  9
$DIMEXO
 40
1.0
  9
$DIMDLI
 40
3.75
  9
$DIMRND
 40
0.0
  9
$DIMDLE
 40
0.0
  9
$DIMEXE
 40
1.0
  9
$DIMTP
 40
0.0
  9
$DIMTM
 40
0.0
  9
$DIMTXT
 40
3.8805555556
  9
$DIMCEN
 40
2.5
  9
$DIMTSZ
 40
0.0
  9
$DIMTOL
 70
     0
  9
$DIMLIM
 70
     0
  9
$DIMTIH
 70
     1
  9
$DIMTOH
 70
     1
  9
$DIMSE1
 70
     0
  9
$DIMSE2
 70
     0
  9
$DIMTAD
 70
     1
  9
$DIMZIN
 70
     0
  9
$DIMBLK
  1

  9
$DIMASO
 70
     1
  9
$DIMSHO
 70
     1
  9
$DIMPOST
  1

  9
$DIMAPOST
  1

  9
$DIMALT
 70
     0
  9
$DIMALTD
 70
     3
  9
$DIMALTF
 40
0.0393700787
  9
$DIMLFAC
 40
1.0
  9
$DIMTOFL
 70
     1
  9
$DIMTVP
 40
0.0
  9
$DIMTIX
 70
     0
  9
$DIMSOXD
 70
     0
  9
$DIMSAH
 70
     0
  9
$DIMBLK1
  1

  9
$DIMBLK2
  1

  9
$DIMSTYLE
  2
ISO-25
  9
$DIMCLRD
 70
     0
  9
$DIMCLRE
 70
     0
  9
$DIMCLRT
 70
     0
  9
$DIMTFAC
 40
1.0
  9
$DIMGAP
 40
1.524
  9
$DIMJUST
 70
     0
  9
$DIMSD1
 70
     0
  9
$DIMSD2
 70
     0
  9
$DIMTOLJ
 70
     0
  9
$DIMTZIN
 70
     0
  9
$DIMALTZ
 70
     0
  9
$DIMALTTZ
 70
     0
  9
$DIMUPT
 70
     0
  9
$DIMDEC
 70
     1
  9
$DIMTDEC
 70
     1
  9
$DIMALTU
 70
     2
  9
$DIMALTTD
 70
     3
  9
$DIMTXSTY
  7
Standard
  9
$DIMAUNIT
 70
     0
  9
$DIMADEC
 70
     1
  9
$DIMALTRND
 40
0.0
  9
$DIMAZIN
 70
     0
  9
$DIMDSEP
 70
    44
  9
$DIMATFIT
 70
     3
  9
$DIMFRAC
 70
     0
  9
$DIMLDRBLK
  1

  9
$DIMLUNIT
 70
     2
  9
$DIMLWD
 70
    -2
  9
$DIMLWE
 70
    -2
  9
$DIMTMOVE
 70
     0
  9
$LUNITS
 70
     2
  9
$LUPREC
 70
     1
  9
$SKETCHINC
 40
1.0
  9
$FILLETRAD
 40
10.0
  9
$AUNITS
 70
     0
  9
$AUPREC
 70
     1
  9
$MENU
  1
.
  9
$ELEVATION
 40
0.0
  9
$PELEVATION
 40
0.0
  9
$THICKNESS
 40
0.0
  9
$LIMCHECK
 70
     0
  9
$CHAMFERA
 40
0.0
  9
$CHAMFERB
 40
0.0
  9
$CHAMFERC
 40
0.0
  9
$CHAMFERD
 40
0.0
  9
$SKPOLY
 70
     0
  9
$TDCREATE
 40
2459587.427942697
  9
$TDUCREATE
 40
2459587.38627603
  9
$TDUPDATE
 40
2459587.427942928
  9
$TDUUPDATE
 40
2459587.386276261
  9
$TDINDWG
 40
0.0000000116
  9
$TDUSRTIMER
 40
0.0000000116
  9
$USRTIMER
 70
     1
  9
$ANGBASE
 50
0.0
  9
$ANGDIR
 70
     0
  9
$PDMODE
 70
     0
  9
$PDSIZE
 40
-1.0
  9
$PLINEWID
 40
0.0
  9
$SPLFRAME
 70
     0
  9
$SPLINETYPE
 70
     6
  9
$SPLINESEGS
 70
     8
  9
$HANDSEED
  5
4B7
  9
$SURFTAB1
 70
     6
  9
$SURFTAB2
 70
     6
  9
$SURFTYPE
 70
     6
  9
$SURFU
 70
     6
  9
$SURFV
 70
     6
  9
$UCSBASE
  2

  9
$UCSNAME
  2

  9
$UCSORG
 10
0.0
 20
0.0
 30
0.0
  9
$UCSXDIR
 10
1.0
 20
0.0
 30
0.0
  9
$UCSYDIR
 10
0.0
 20
1.0
 30
0.0
  9
$UCSORTHOREF
  2

  9
$UCSORTHOVIEW
 70
     0
  9
$UCSORGTOP
 10
0.0
 20
0.0
 30
0.0
  9
$UCSORGBOTTOM
 10
0.0
 20
0.0
 30
0.0
  9
$UCSORGLEFT
 10
0.0
 20
0.0
 30
0.0
  9
$UCSORGRIGHT
 10
0.0
 20
0.0
 30
0.0
  9
$UCSORGFRONT
 10
0.0
 20
0.0
 30
0.0
  9
$UCSORGBACK
 10
0.0
 20
0.0
 30
0.0
  9
$PUCSBASE
  2

  9
$PUCSNAME
  2

  9
$PUCSORG
 10
0.0
 20
0.0
 30
0.0
  9
$PUCSXDIR
 10
1.0
 20
0.0
 30
0.0
  9
$PUCSYDIR
 10
0.0
 20
1.0
 30
0.0
  9
$PUCSORTHOREF
  2

  9
$PUCSORTHOVIEW
 70
     0
  9
$PUCSORGTOP
 10
0.0
 20
0.0
 30
0.0
  9
$PUCSORGBOTTOM
 10
0.0
 20
0.0
 30
0.0
  9
$PUCSORGLEFT
 10
0.0
 20
0.0
 30
0.0
  9
$PUCSORGRIGHT
 10
0.0
 20
0.0
 30
0.0
  9
$PUCSORGFRONT
 10
0.0
 20
0.0
 30
0.0
  9
$PUCSORGBACK
 10
0.0
 20
0.0
 30
0.0
  9
$USERI1
 70
     0
  9
$USERI2
 70
     0
  9
$USERI3
 70
     0
  9
$USERI4
 70
     0
  9
$USERI5
 70
     0
  9
$USERR1
 40
0.0
  9
$USERR2
 40
0.0
  9
$USERR3
 40
0.0
  9
$USERR4
 40
0.0
  9
$USERR5
 40
0.0
  9
$WORLDVIEW
 70
     1
  9
$SHADEDGE
 70
     3
  9
$SHADEDIF
 70
    70
  9
$TILEMODE
 70
     1
  9
$MAXACTVP
 70
    64
  9
$PINSBASE
 10
0.0
 20
0.0
 30
0.0
  9
$PLIMCHECK
 70
     0
  9
$PEXTMIN
 10
1.0000000000E+20
 20
1.0000000000E+20
 30
1.0000000000E+20
  9
$PEXTMAX
 10
-1.0000000000E+20
 20
-1.0000000000E+20
 30
-1.0000000000E+20
  9
$PLIMMIN
 10
0.0
 20
0.0
  9
$PLIMMAX
 10
420.0
 20
297.0
  9
$UNITMODE
 70
     0
  9
$VISRETAIN
 70
     1
  9
$PLINEGEN
 70
     0
  9
$PSLTSCALE
 70
     1
  9
$TREEDEPTH
 70
  3020
  9
$CMLSTYLE
  2
Standard
  9
$CMLJUST
 70
     0
  9
$CMLSCALE
 40
20.0
  9
$PROXYGRAPHICS
 70
     1
  9
$MEASUREMENT
 70
     1
  9
$CELWEIGHT
370
    -1
  9
$ENDCAPS
280
     0
  9
$JOINSTYLE
280
     0
  9
$LWDISPLAY
290
     1
  9
$INSUNITS
 70
     4
  9
$HYPERLINKBASE
  1

  9
$STYLESHEET
  1

  9
$XEDIT
290
     1
  9
$CEPSNTYPE
380
     0
  9
$PSTYLEMODE
290
     1
  9
$FINGERPRINTGUID
  2
{373d241b-ae0c-4e1b-97b2-028544ce218b}
  9
$VERSIONGUID
  2
{FAEB1C32-E019-11D5-929B-00C0DF256EC4}
  9
$EXTNAMES
290
     1
  9
$PSVPSCALE
 40
0.0
  9
$OLESTARTUP
290
     0
  0
ENDSEC
  0
SECTION
  2
CLASSES
  0
CLASS
  1
ACDBDICTIONARYWDFLT
  2
AcDbDictionaryWithDefault
  3
ObjectDBX Classes
 90
        0
280
     0
281
     0
  0
CLASS
  1
VISUALSTYLE
  2
AcDbVisualStyle
  3
ObjectDBX Classes
 90
     4095
280
     0
281
     0
  0
CLASS
  1
MATERIAL
  2
AcDbMaterial
  3
ObjectDBX Classes
 90
     1153
280
     0
281
     0
  0
CLASS
  1
SCALE
  2
AcDbScale
  3
ObjectDBX Classes
 90
     1153
280
     0
281
     0
  0
CLASS
  1
TABLESTYLE
  2
AcDbTableStyle
  3
ObjectDBX Classes
 90
     4095
280
     0
281
     0
  0
CLASS
  1
MLEADERSTYLE
  2
AcDbMLeaderStyle
  3
ACDB_MLEADERSTYLE_CLASS
 90
     4095
280
     0
281
     0
  0
CLASS
  1
SUN
  2
AcDbSun
  3
SCENEOE
 90
     1153
280
     0
281
     0
  0
CLASS
  1
ACDBPLACEHOLDER
  2
AcDbPlaceHolder
  3
ObjectDBX Classes
 90
        0
280
     0
281
     0
  0
CLASS
  1
LAYOUT
  2
AcDbLayout
  3
ObjectDBX Classes
 90
        0
280
     0
281
     0
  0
ENDSEC
  0
SECTION
  2
TABLES
  0
TABLE
  2
VPORT
  5
8
330
0
100
AcDbSymbolTable
 70
     1
  0
VPORT
  5
29
330
8
100
AcDbSymbolTableRecord
100
AcDbViewportTableRecord
  2
*Active
 70
     0
 10
0.0
 20
0.0
 11
1.0
 21
1.0
 12
215.9
 22
139.7
 13
0.0
 23
0.0
 14
10.0
 24
10.0
 15
10.0
 25
10.0
 16
0.0
 26
0.0
 36
1.0
 17
0.0
 27
0.0
 37
0.0
 40
279.4
 41
1.5454545455
 42
50.0
 43
0.0
 44
0.0
 50
0.0
 51
0.0
 71
     0
 72
  2000
 73
     1
 74
     3
 75
     0
 76
     0
 77
     0
 78
     0
281
     0
 65
     1
110
0.0
120
0.0
130
0.0
111
1.0
121
0.0
131
0.0
112
0.0
122
1.0
132
0.0
 79
     0
146
0.0
  0
ENDTAB
  0
TABLE
  2
LTYPE
  5
5
330
0
100
AcDbSymbolTable
 70
     6
  0
LTYPE
  5
14
330
5
100
AcDbSymbolTableRecord
100
AcDbLinetypeTableRecord
  2
ByBlock
 70
     0
  3

 72
    65
 73
     0
 40
0.0
  0
LTYPE
  5
15
330
5
100
AcDbSymbolTableRecord
100
AcDbLinetypeTableRecord
  2
ByLayer
 70
     0
  3

 72
    65
 73
     0
 40
0.0
  0
LTYPE
  5
16
330
5
100
AcDbSymbolTableRecord
100
AcDbLinetypeTableRecord
  2
Continuous
 70
     0
  3
Solid line
 72
    65
 73
     0
 40
0.0
  0
LTYPE
  5
6E
330
5
100
AcDbSymbolTableRecord
100
AcDbLinetypeTableRecord
  2
HIDDEN
 70
     0
  3
Hidden __ __ __ __ __ __ __ __ __ __ __ __ __ __
 72
    65
 73
     2
 40
1.905
 49
1.27
 74
     0
 49
-0.635
 74
     0
  0
LTYPE
  5
6F
330
5
100
AcDbSymbolTableRecord
100
AcDbLinetypeTableRecord
  2
PHANTOM
 70
     0
  3
Phantom ______  __  __  ______  __  __  ______
 72
    65
 73
     6
 40
12.7
 49
6.35
 74
     0
 49
-1.27
 74
     0
 49
1.27
 74
     0
 49
-1.27
 74
     0
 49
1.27
 74
     0
 49
-1.27
 74
     0
  0
LTYPE
  5
70
330
5
100
AcDbSymbolTableRecord
100
AcDbLinetypeTableRecord
  2
CENTER
 70
     0
  3
Center ____ _ ____ _ ____ _ ____ _ ____ _ ____
 72
    65
 73
     4
 40
10.16
 49
6.35
 74
     0
 49
-1.27
 74
     0
 49
1.27
 74
     0
 49
-1.27
 74
     0
  0
LTYPE
  5
71
330
5
100
AcDbSymbolTableRecord
100
AcDbLinetypeTableRecord
  2
CENTERX2
 70
     0
  3
Center (2x) ________  __  ________  __  _____
 72
    65
 73
     4
 40
20.32
 49
12.7
 74
     0
 49
-2.54
 74
     0
 49
2.54
 74
     0
 49
-2.54
 74
     0
  0
LTYPE
  5
72
330
5
100
AcDbSymbolTableRecord
100
AcDbLinetypeTableRecord
  2
DOT2
 70
     0
  3
Dot (.5x) ........................................
 72
    65
 73
     2
 40
0.635
 49
0.0
 74
     0
 49
-0.635
 74
     0
  0
ENDTAB
  0
TABLE
  2
LAYER
  5
2
330
0
100
AcDbSymbolTable
 70
     3
  0
LAYER
  5
10
330
2
100
AcDbSymbolTableRecord
100
AcDbLayerTableRecord
  2
0
 70
     0
 62
     7
  6
Continuous
370
    -3
390
F
  0
LAYER
  5
73
330
2
100
AcDbSymbolTableRecord
100
AcDbLayerTableRecord
  2
FRAME_&_TABLE
 70
     0
 62
     8
  6
Continuous
370
    50
390
F
  0
LAYER
  5
74
330
2
100
AcDbSymbolTableRecord
100
AcDbLayerTableRecord
  2
DIMENSIONS
 70
     0
 62
     7
  6
Continuous
370
    -3
390
F
  0
ENDTAB
  0
TABLE
  2
STYLE
  5
3
330
0
100
AcDbSymbolTable
 70
     1
  0
STYLE
  5
11
330
3
100
AcDbSymbolTableRecord
100
AcDbTextStyleTableRecord
  2
Standard
 70
     0
 40
0.0
 41
1.0
 50
0.0
 71
     0
 42
3.8805555556
  3
txt
  4

  0
ENDTAB
  0
TABLE
  2
VIEW
  5
6
330
0
100
AcDbSymbolTable
 70
     0
  0
ENDTAB
  0
TABLE
  2
UCS
  5
7
330
0
100
AcDbSymbolTable
 70
     0
  0
ENDTAB
  0
TABLE
  2
APPID
  5
9
330
0
100
AcDbSymbolTable
 70
     1
  0
APPID
  5
12
330
9
100
AcDbSymbolTableRecord
100
AcDbRegAppTableRecord
  2
ACAD
 70
     0
  0
ENDTAB
  0
TABLE
  2
DIMSTYLE
  5
A
330
0
100
AcDbSymbolTable
 70
     1
100
AcDbDimStyleTable
  0
DIMSTYLE
105
27
330
A
100
AcDbSymbolTableRecord
100
AcDbDimStyleTableRecord
  2
ISO-25
 70
     0
 41
2.5
 42
0.625
 43
3.75
 44
1.25
 73
     0
 74
     0
 77
     1
 78
     8
140
2.5
141
2.5
143
0.0393700787
147
0.625
171
     3
172
     1
178
     0
271
     2
272
     2
274
     3
278
    44
283
     0
284
     8
340
11
  0
ENDTAB
  0
TABLE
  2
BLOCK_RECORD
  5
1
330
0
100
AcDbSymbolTable
 70
     1
  0
BLOCK_RECORD
  5
1F
330
1
100
AcDbSymbolTableRecord
100
AcDbBlockTableRecord
  2
*Model_Space
340
22
  0
BLOCK_RECORD
  5
1B
330
1
100
AcDbSymbolTableRecord
100
AcDbBlockTableRecord
  2
*Paper_Space
340
1E
  0
BLOCK_RECORD
  5
23
330
1
100
AcDbSymbolTableRecord
100
AcDbBlockTableRecord
  2
*Paper_Space0
340
26
  0
ENDTAB
  0
ENDSEC
  0
SECTION
  2
BLOCKS
  0
BLOCK
  5
20
330
1F
100
AcDbEntity
  8
0
100
AcDbBlockBegin
  2
*Model_Space
 70
     0
 10
0.0
 20
0.0
 30
0.0
  3
*Model_Space
  1

  0
ENDBLK
  5
21
330
1F
100
AcDbEntity
  8
0
100
AcDbBlockEnd
  0
BLOCK
  5
1C
330
1B
100
AcDbEntity
 67
     1
  8
0
100
AcDbBlockBegin
  2
*Paper_Space
 70
     0
 10
0.0
 20
0.0
 30
0.0
  3
*Paper_Space
  1

  0
ENDBLK
  5
1D
330
1B
100
AcDbEntity
 67
     1
  8
0
100
AcDbBlockEnd
  0
BLOCK
  5
24
330
23
100
AcDbEntity
  8
0
100
AcDbBlockBegin
  2
*Paper_Space0
 70
     0
 10
0.0
 20
0.0
 30
0.0
  3
*Paper_Space0
  1

  0
ENDBLK
  5
25
330
23
100
AcDbEntity
  8
0
100
AcDbBlockEnd
  0
ENDSEC
  0
SECTION
  2
ENTITIES
  0
LINE
  5
75
330
1F
100
AcDbEntity
  8
0
  6
Continuous
 62
     7
370
    25
100
AcDbLine
 10
-683.7641633441
 20
-297.587384134
 30
0.0
 11
-683.7165179447
 21
-297.7869474338
 31
0.0
  0
LWPOLYLINE
  5
76
330
1F
100
AcDbEntity
  8
0
  6
Continuous
 62
     7
370
    25
100
AcDbPolyline
 90
        3
 70
   128
 43
0.0
 10
-682.4808995347
 20
-299.0399895626
 10
-682.4717565747
 20
-299.0064117175
 10
-682.3013935772
 20
-298.3603382937
  0
LWPOLYLINE
  5
77
330
1F
100
AcDbEntity
  8
0
  6
Continuous
 62
     7
370
    25
100
AcDbPolyline
 90
        3
 70
   128
 43
0.0
 10
-682.3013935772
 20
402.0594483674
 10
-682.4717565747
 20
402.7055217912
 10
-682.4808995323
 20
402.7390996275
  0
LINE
  5
78
330
1F
100
AcDbEntity
  8
0
  6
Continuous
 62
     7
370
    25
100
AcDbLine
 10
-683.7165179447
 20
401.4860575077
 30
0.0
 11
-683.7641633439
 21
401.2864942084
 31
0.0
  0
ARC
  5
79
330
1F
100
AcDbEntity
  8
0
  6
Continuous
 62
     7
370
    25
100
AcDbCircle
 10
-1334.9377478893
 20
353.6283116485
 30
0.0
 40
1.000000000000021
100
AcDbArc
 50
109.4921549962
 51
141.7643341699
  0
ARC
  5
7A
330
1F
100
AcDbEntity
  8
0
  6
Continuous
 62
     7
370
    25
100
AcDbCircle
 10
-730.9377478893
 20
353.6283116485
 30
0.0
 40
1.00000000000004
100
AcDbArc
 50
38.2356658299
 51
70.5078450036
  0
LINE
  5
7B
330
1F
100
AcDbEntity
  8
0
  6
Continuous
 62
     7
370
    25
100
AcDbLine
 10
-1024.9377478894
 20
514.840786622
 30
0.0
 11
-1024.9377478894
 21
599.0892925257
 31
0.0
  0
LINE
  5
7C
330
1F
100
AcDbEntity
  8
0
  6
Continuous
 62
     7
370
    25
100
AcDbLine
 10
-1040.9377478894
 20
599.0892925257
 30
0.0
 11
-1040.9377478894
 21
512.3643004523
 31
0.0
  0
LINE
  5
7D
330
1F
100
AcDbEntity
  8
0
  6
Continuous
 62
     7
370
    25
100
AcDbLine
 10
-1024.9377478894
 20
599.3781889413
 30
0.0
 11
-1024.9377478894
 21
770.4226069638
 31
0.0
  0
ARC
  5
7E
330
1F
100
AcDbEntity
  8
0
  6
Continuous
 62
     7
370
    25
100
AcDbCircle
 10
-1032.9377478894
 20
599.370015881
 30
0.0
 40
8.004923834877351
100
AcDbArc
 50
357.9902916724
 51
182.0097083276
  0
LWPOLYLINE
  5
7F
330
1F
100
AcDbEntity
  8
0
  6
Continuous
 62
     7
370
    25
100
AcDbPolyline
 90
       33
 70
   128
 43
0.0
 10
-1024.9377478894
 20
769.8737638233
 10
-1025.0199315952
 20
771.1930010562
 10
-1025.251885779
 20
772.3988029304
 10
-1025.6073091729
 20
773.4758093903
 10
-1026.0570871308
 20
774.417284458
 10
-1026.5725848491
 20
775.2243089893
 10
-1027.1279702261
 20
775.9040622245
 10
-1027.7014957565
 20
776.4677760769
 10
-1028.2759102195
 20
776.9287943618
 10
-1028.8382684306
 20
777.3009753255
 10
-1029.1119313388
 20
777.4579251037
 10
-1029.2464854919
 20
777.5297985345
 10
-1029.379400255
 20
777.5975145412
 10
-1029.8978193836
 20
777.8324388225
 10
-1031.125106296
 20
778.2244738375
 10
-1032.2289277794
 20
778.4010773812
 10
-1033.1068181769
 20
778.4307553261
 10
-1033.4898866621
 20
778.4134650979
 10
-1033.8003719074
 20
778.3858825509
 10
-1033.9053043755
 20
778.373722604
 10
-1034.0139268699
 20
778.3595863209
 10
-1034.2425056985
 20
778.3246646796
 10
-1034.7466800033
 20
778.2223775227
 10
-1035.3159871227
 20
778.0633481107
 10
-1035.9513514417
 20
777.8273993785
 10
-1036.6497768075
 20
777.4893824082
 10
-1037.4018392183
 20
777.0192213657
 10
-1038.1883969954
 20
776.383037705
 10
-1038.9768360104
 20
775.5461658752
 10
-1039.7178474598
 20
774.4789501878
 10
-1040.3447237356
 20
773.165739131
 10
-1040.777992074
 20
771.6159852489
 10
-1040.9377478894
 20
769.8737638233
  0
LINE
  5
80
330
1F
100
AcDbEntity
  8
0
  6
Continuous
 62
     7
370
    25
100
AcDbLine
 10
-1040.9377478894
 20
599.3781889413
 30
0.0
 11
-1040.9377478894
 21
770.4230099856
 31
0.0
  0
ARC
  5
81
330
1F
100
AcDbEntity
  8
0
  6
Continuous
 62
     7
370
    25
100
AcDbCircle
 10
-1025.2749880525
 20
632.9818653626
 30
0.0
 40
4.347752317457267
100
AcDbArc
 50
6.4551388623
 51
85.5512952282
  0
LWPOLYLINE
  5
82
330
1F
100
AcDbEntity
  8
0
  6
Continuous
 62
     7
370
    25
100
AcDbPolyline
 90
        9
 70
   128
 43
0.0
 10
-1040.9377478894
 20
637.3159484244
 10
-1041.0200755849
 20
637.2987340999
 10
-1042.2007450233
 20
636.9328553715
 10
-1042.9748595292
 20
636.5746146448
 10
-1043.5774749117
 20
636.1757186335
 10
-1044.1281041886
 20
635.6463234413
 10
-1044.5789075031
 20
634.9683171062
 10
-1044.8644309087
 20
634.1625373965
 10
-1044.9182853512
 20
633.472602539
  0
LINE
  5
83
330
1F
100
AcDbEntity
  8
0
  6
Continuous
 62
     7
370
    25
100
AcDbLine
 10
-1020.9377478894
 20
600.0065648049
 30
0.0
 11
-1020.9377478894
 21
633.472528482
 31
0.0
  0
LINE
  5
84
330
1F
100
AcDbEntity
  8
0
  6
Continuous
 62
     7
370
    25
100
AcDbLine
 10
-1044.9377478894
 20
633.472528482
 30
0.0
 11
-1044.9377478894
 21
600.0065648049
 31
0.0
  0
ARC
  5
85
330
1F
100
AcDbEntity
  8
0
  6
Continuous
 62
     7
370
    25
100
AcDbCircle
 10
-1040.6007744328
 20
600.4966553967
 30
0.0
 40
4.347160832972885
100
AcDbArc
 50
186.4309647074
 51
265.55421453
  0
ARC
  5
86
330
1F
100
AcDbEntity
  8
0
  6
Continuous
 62
     7
370
    25
100
AcDbCircle
 10
-1025.2733930721
 20
600.4942045356
 30
0.0
 40
4.344045992019622
100
AcDbArc
 50
274.4314076794
 51
353.4077303777
  0
LINE
  5
87
330
1F
100
AcDbEntity
  8
0
  6
Continuous
 62
     7
370
    25
100
AcDbLine
 10
-722.9377478893
 20
581.6268919401
 30
0.0
 11
-722.4377478893
 21
581.6268919401
 31
0.0
  0
LINE
  5
88
330
1F
100
AcDbEntity
  8
0
  6
Continuous
 62
     7
370
    25
100
AcDbLine
 10
-722.4377478893
 20
589.3268919401
 30
0.0
 11
-722.9377478893
 21
589.3268919401
 31
0.0
  0
ARC
  5
89
330
1F
100
AcDbEntity
  8
0
  6
Continuous
 62
     7
370
    25
100
AcDbCircle
 10
-731.1226485796
 20
585.4768919401
 30
0.0
 40
9.499999999999972
100
AcDbArc
 50
13.7002334884
 51
23.9076190177
  0
ARC
  5
8A
330
1F
100
AcDbEntity
  8
0
  6
Continuous
 62
     7
370
    25
100
AcDbCircle
 10
-731.1226485796
 20
585.4768919401
 30
0.0
 40
9.500000000000082
100
AcDbArc
 50
336.0923809823
 51
346.2997665116
  0
ARC
  5
8B
330
1F
100
AcDbEntity
  8
0
  6
Continuous
 62
     7
370
    25
100
AcDbCircle
 10
-1335.602847199
 20
585.4768919402
 30
0.0
 40
9.500000000000082
100
AcDbArc
 50
193.7002334884
 51
203.9076190177
  0
ARC
  5
8C
330
1F
100
AcDbEntity
  8
0
  6
Continuous
 62
     7
370
    25
100
AcDbCircle
 10
-1335.602847199
 20
585.4768919402
 30
0.0
 40
9.500000000000037
100
AcDbArc
 50
156.0923809823
 51
166.2997665116
  0
LINE
  5
8D
330
1F
100
AcDbEntity
  8
0
  6
Continuous
 62
     7
370
    25
100
AcDbLine
 10
-1343.7877478893
 20
581.6268919402
 30
0.0
 11
-1342.9377478893
 21
582.4768919401
 31
0.0
  0
LINE
  5
8E
330
1F
100
AcDbEntity
  8
0
  6
Continuous
 62
     7
370
    25
100
AcDbLine
 10
-1342.9377478893
 20
588.4768919402
 30
0.0
 11
-1343.7877478893
 21
589.3268919402
 31
0.0
  0
LINE
  5
8F
330
1F
100
AcDbEntity
  8
0
  6
Continuous
 62
     7
370
    25
100
AcDbLine
 10
-1343.7877478893
 20
589.3268919402
 30
0.0
 11
-1344.2877478893
 21
589.3268919402
 31
0.0
  0
LINE
  5
90
330
1F
100
AcDbEntity
  8
0
  6
Continuous
 62
     7
370
    25
100
AcDbLine
 10
-1344.2877478893
 20
581.6268919402
 30
0.0
 11
-1343.7877478893
 21
581.6268919402
 31
0.0
  0
LINE
  5
91
330
1F
100
AcDbEntity
  8
0
  6
Continuous
 62
     7
370
    25
100
AcDbLine
 10
-1113.868659547
 20
512.858647762
 30
0.0
 11
-1113.868659547
 21
522.7834087707
 31
0.0
  0
LINE
  5
92
330
1F
100
AcDbEntity
  8
0
  6
Continuous
 62
     7
370
    25
100
AcDbLine
 10
-1262.0070013621
 20
527.4585145903
 30
0.0
 11
-1262.0070013621
 21
518.058828718
 31
0.0
  0
LINE
  5
93
330
1F
100
AcDbEntity
  8
0
  6
Continuous
 62
     7
370
    25
100
AcDbLine
 10
-803.868659547
 20
569.4890636633
 30
0.0
 11
-803.868659547
 21
579.413824672
 31
0.0
  0
LINE
  5
94
330
1F
100
AcDbEntity
  8
0
  6
Continuous
 62
     7
370
    25
100
AcDbLine
 10
-952.0070013621
 20
584.0889304916
 30
0.0
 11
-952.0070013621
 21
574.6892446193
 31
0.0
  0
ARC
  5
95
330
1F
100
AcDbEntity
  8
0
  6
Continuous
 62
     7
370
    25
100
AcDbCircle
 10
-1186.5890198789
 20
28.7707942595
 30
0.0
 40
494.9945349543933
100
AcDbArc
 50
84.6900454566
 51
94.1306736796
  0
LWPOLYLINE
  5
96
330
1F
100
AcDbEntity
  8
0
  6
Continuous
 62
     7
370
    25
100
AcDbPolyline
 90
       15
 70
   128
 43
0.0
 10
-1140.7804521375
 20
521.6411268585
 10
-1139.6716262174
 20
521.5394469532
 10
-1137.4714789991
 20
521.3794979714
 10
-1135.197417144
 20
521.2665538177
 10
-1132.8758332515
 20
521.2013124828
 10
-1130.5326013397
 20
521.1841331615
 10
-1128.19429369
 20
521.2150699107
 10
-1125.8879998702
 20
521.2938044515
 10
-1123.6400211626
 20
521.4196597462
 10
-1121.4751962582
 20
521.5917115463
 10
-1119.4164266633
 20
521.8089760461
 10
-1117.483731313
 20
522.0707878952
 10
-1115.6928599877
 20
522.3775831535
 10
-1114.0529096013
 20
522.7326739387
 10
-1112.6510122379
 20
523.1186983953
  0
LINE
  5
97
330
1F
100
AcDbEntity
  8
0
  6
Continuous
 62
     7
370
    25
100
AcDbLine
 10
-1103.8685613692
 20
530.5664993881
 30
0.0
 11
-1103.8685613692
 21
539.4198624523
 31
0.0
  0
LWPOLYLINE
  5
98
330
1F
100
AcDbEntity
  8
0
  6
Continuous
 62
     7
370
    25
100
AcDbPolyline
 90
       23
 70
   128
 43
0.0
 10
-1103.8932875476
 20
539.4163064969
 10
-1103.8763605142
 20
539.6885025998
 10
-1104.0568672671
 20
540.7526717147
 10
-1104.4437364633
 20
541.7265962672
 10
-1105.0096814791
 20
542.6210914095
 10
-1105.7694514305
 20
543.4757939791
 10
-1106.7856888113
 20
544.3364019524
 10
-1108.1479584415
 20
545.2320588612
 10
-1109.8731634777
 20
546.1369003299
 10
-1111.8757460992
 20
547.0014573233
 10
-1114.1028677731
 20
547.8164863193
 10
-1116.5511718082
 20
548.5923242226
 10
-1119.2154469854
 20
549.3336767145
 10
-1122.0859698681
 20
550.0430833317
 10
-1125.2693436505
 20
550.7478228576
 10
-1128.6642118858
 20
551.4232443719
 10
-1132.282157281
 20
552.0722787929
 10
-1136.1187487296
 20
552.6939519817
 10
-1140.1671976008
 20
553.2867909519
 10
-1144.4180835234
 20
553.8489380503
 10
-1148.8592079144
 20
554.3782606175
 10
-1153.4748713779
 20
554.8724516515
 10
-1157.4936486412
 20
555.2572538907
  0
ARC
  5
99
330
1F
100
AcDbEntity
  8
0
  6
Continuous
 62
     7
370
    25
100
AcDbCircle
 10
-1229.8769965176
 20
621.0667939142
 30
0.0
 40
98.88231287983793
100
AcDbArc
 50
261.5173451743
 51
274.4271180375
  0
LWPOLYLINE
  5
9A
330
1F
100
AcDbEntity
  8
0
  6
Continuous
 62
     7
370
    25
100
AcDbPolyline
 90
       11
 70
   128
 43
0.0
 10
-1112.6786243701
 20
523.1230696209
 10
-1111.9676401281
 20
523.3386634483
 10
-1110.1284501915
 20
524.0087405342
 10
-1108.4864106048
 20
524.7477422223
 10
-1107.0412290969
 20
525.5795597697
 10
-1105.8883548847
 20
526.4626747669
 10
-1105.0485216656
 20
527.3492581619
 10
-1104.4461189728
 20
528.270125913
 10
-1104.0528528954
 20
529.2498673789
 10
-1103.8712337214
 20
530.4082091456
 10
-1103.8843472686
 20
530.5674109276
  0
LINE
  5
9B
330
1F
100
AcDbEntity
  8
0
  6
Continuous
 62
     7
370
    25
100
AcDbLine
 10
-1271.9449365894
 20
545.0749927635
 30
0.0
 11
-1271.9682831532
 21
544.6077039789
 31
0.0
  0
LINE
  5
9C
330
1F
100
AcDbEntity
  8
0
  6
Continuous
 62
     7
370
    25
100
AcDbLine
 10
-1272.0069344095
 20
544.6199014566
 30
0.0
 11
-1272.0069344095
 21
535.7665383923
 31
0.0
  0
LWPOLYLINE
  5
9D
330
1F
100
AcDbEntity
  8
0
  6
Continuous
 62
     7
370
    25
100
AcDbPolyline
 90
       17
 70
   128
 43
0.0
 10
-1271.9628055974
 20
535.7557394226
 10
-1271.9722425399
 20
535.2846044901
 10
-1271.747064455
 20
534.2194267433
 10
-1271.319830552
 20
533.2514134922
 10
-1270.7094355777
 20
532.3571526824
 10
-1269.8960413461
 20
531.5007381478
 10
-1268.8232376582
 20
530.6443558983
 10
-1267.3813949269
 20
529.7453470813
 10
-1265.5921484512
 20
528.8502272625
 10
-1263.5431008054
 20
528.0009864484
 10
-1261.2685964326
 20
527.1977476875
 10
-1258.7713690593
 20
526.4312454055
 10
-1256.0461016586
 20
525.6945012369
 10
-1253.0765841189
 20
524.9801698386
 10
-1249.8563851821
 20
524.2858230306
 10
-1246.3976456523
 20
523.614209861
 10
-1244.4395094391
 20
523.270889275
  0
LWPOLYLINE
  5
9E
330
1F
100
AcDbEntity
  8
0
  6
Continuous
 62
     7
370
    25
100
AcDbPolyline
 90
       20
 70
   128
 43
0.0
 10
-1242.107219948
 20
551.1087409312
 10
-1243.284449324
 20
551.1769540059
 10
-1245.5787179192
 20
551.2711867897
 10
-1247.9119207191
 20
551.3176199829
 10
-1250.2564055738
 20
551.3159295468
 10
-1252.5854794469
 20
551.2661981724
 10
-1254.8719686052
 20
551.1688981191
 10
-1257.0902267566
 20
551.0248175478
 10
-1259.2160782317
 20
550.834934241
 10
-1261.2276216014
 20
550.6001676318
 10
-1263.1063085807
 20
550.3208798131
 10
-1264.8386256424
 20
549.9958106452
 10
-1266.4191760843
 20
549.6195477481
 10
-1267.8573026838
 20
549.1755370723
 10
-1269.1929502154
 20
548.6125306811
 10
-1270.1476203566
 20
548.0411263193
 10
-1270.8259589944
 20
547.4663765238
 10
-1271.3725773096
 20
546.7940826453
 10
-1271.772336785
 20
546.0043888008
 10
-1271.9860070503
 20
545.0675848697
  0
LWPOLYLINE
  5
9F
330
1F
100
AcDbEntity
  8
0
  6
Continuous
 62
     7
370
    25
100
AcDbPolyline
 90
       20
 70
   128
 43
0.0
 10
-1183.3676698834
 20
554.1872667101
 10
-1184.5418193618
 20
553.9238879273
 10
-1186.8854873557
 20
553.4516681344
 10
-1189.430519273
 20
553.0050291275
 10
-1192.1656294216
 20
552.5874012102
 10
-1195.0744377255
 20
552.2024190711
 10
-1198.1401920846
 20
551.8530975575
 10
-1201.3457512592
 20
551.5419604181
 10
-1204.6735917759
 20
551.2711220529
 10
-1208.1058279731
 20
551.0423404615
 10
-1211.6242456152
 20
550.8570514294
 10
-1215.2103473478
 20
550.7163905368
 10
-1218.8454076852
 20
550.6212072618
 10
-1222.5105352507
 20
550.572073932
 10
-1226.1867401911
 20
550.5692912714
 10
-1229.8550049058
 20
550.6128916086
 10
-1233.4961965355
 20
550.702635351
 10
-1237.0914484254
 20
550.8380140124
 10
-1240.6220889419
 20
551.0182495618
 10
-1242.107219948
 20
551.1087409312
  0
ARC
  5
A0
330
1F
100
AcDbEntity
  8
0
  6
Continuous
 62
     7
370
    25
100
AcDbCircle
 10
-1166.6792285664
 20
464.230516246
 30
0.0
 40
91.49164457841414
100
AcDbArc
 50
84.2345059499
 51
100.50981703
  0
ARC
  5
A1
330
1F
100
AcDbEntity
  8
0
  6
Continuous
 62
     7
370
    25
100
AcDbCircle
 10
-876.5890198789
 20
85.4012101608
 30
0.0
 40
494.994534954433
100
AcDbArc
 50
84.6900454566
 51
94.1306736796
  0
LWPOLYLINE
  5
A2
330
1F
100
AcDbEntity
  8
0
  6
Continuous
 62
     7
370
    25
100
AcDbPolyline
 90
       15
 70
   128
 43
0.0
 10
-830.7804521375
 20
578.2715427598
 10
-829.6716262174
 20
578.1698628545
 10
-827.4714789991
 20
578.0099138727
 10
-825.197417144
 20
577.896969719
 10
-822.8758332515
 20
577.8317283842
 10
-820.5326013397
 20
577.8145490628
 10
-818.19429369
 20
577.8454858121
 10
-815.8879998702
 20
577.9242203529
 10
-813.6400211626
 20
578.0500756476
 10
-811.4751962582
 20
578.2221274476
 10
-809.4164266633
 20
578.4393919475
 10
-807.483731313
 20
578.7012037965
 10
-805.6928599877
 20
579.0079990548
 10
-804.0529096013
 20
579.3630898401
 10
-802.6510122379
 20
579.7491142967
  0
LWPOLYLINE
  5
A3
330
1F
100
AcDbEntity
  8
0
  6
Continuous
 62
     7
370
    25
100
AcDbPolyline
 90
       23
 70
   128
 43
0.0
 10
-793.8932875476
 20
596.0467223982
 10
-793.8763605142
 20
596.3189185012
 10
-794.0568672671
 20
597.3830876161
 10
-794.4437364633
 20
598.3570121685
 10
-795.0096814791
 20
599.2515073109
 10
-795.7694514305
 20
600.1062098805
 10
-796.7856888113
 20
600.9668178538
 10
-798.1479584415
 20
601.8624747625
 10
-799.8731634777
 20
602.7673162313
 10
-801.8757460992
 20
603.6318732246
 10
-804.1028677731
 20
604.4469022206
 10
-806.5511718082
 20
605.222740124
 10
-809.2154469854
 20
605.9640926159
 10
-812.0859698681
 20
606.6734992331
 10
-815.2693436505
 20
607.378238759
 10
-818.6642118858
 20
608.0536602732
 10
-822.282157281
 20
608.7026946943
 10
-826.1187487296
 20
609.324367883
 10
-830.1671976008
 20
609.9172068533
 10
-834.4180835234
 20
610.4793539517
 10
-838.8592079144
 20
611.0086765189
 10
-843.4748713779
 20
611.5028675529
 10
-847.4936486412
 20
611.8876697921
  0
LINE
  5
A4
330
1F
100
AcDbEntity
  8
0
  6
Continuous
 62
     7
370
    25
100
AcDbLine
 10
-793.8685613692
 20
587.1969152894
 30
0.0
 11
-793.8685613692
 21
596.0502783536
 31
0.0
  0
ARC
  5
A5
330
1F
100
AcDbEntity
  8
0
  6
Continuous
 62
     7
370
    25
100
AcDbCircle
 10
-919.8769965176
 20
677.6972098156
 30
0.0
 40
98.88231287982238
100
AcDbArc
 50
261.5173451743
 51
274.4271180375
  0
LWPOLYLINE
  5
A6
330
1F
100
AcDbEntity
  8
0
  6
Continuous
 62
     7
370
    25
100
AcDbPolyline
 90
       11
 70
   128
 43
0.0
 10
-802.6786243701
 20
579.7534855223
 10
-801.9676401281
 20
579.9690793497
 10
-800.1284501915
 20
580.6391564355
 10
-798.4864106048
 20
581.3781581236
 10
-797.0412290969
 20
582.2099756711
 10
-795.8883548847
 20
583.0930906682
 10
-795.0485216656
 20
583.9796740633
 10
-794.4461189728
 20
584.9005418144
 10
-794.0528528954
 20
585.8802832802
 10
-793.8712337214
 20
587.0386250469
 10
-793.8843472686
 20
587.1978268289
  0
LINE
  5
A7
330
1F
100
AcDbEntity
  8
0
  6
Continuous
 62
     7
370
    25
100
AcDbLine
 10
-961.9449365894
 20
601.7054086649
 30
0.0
 11
-961.9682831532
 21
601.2381198803
 31
0.0
  0
LINE
  5
A8
330
1F
100
AcDbEntity
  8
0
  6
Continuous
 62
     7
370
    25
100
AcDbLine
 10
-962.0069344095
 20
601.2503173579
 30
0.0
 11
-962.0069344095
 21
592.3969542937
 31
0.0
  0
LWPOLYLINE
  5
A9
330
1F
100
AcDbEntity
  8
0
  6
Continuous
 62
     7
370
    25
100
AcDbPolyline
 90
       17
 70
   128
 43
0.0
 10
-961.9628055974
 20
592.386155324
 10
-961.9722425399
 20
591.9150203915
 10
-961.747064455
 20
590.8498426447
 10
-961.319830552
 20
589.8818293936
 10
-960.7094355777
 20
588.9875685837
 10
-959.8960413461
 20
588.1311540492
 10
-958.8232376582
 20
587.2747717997
 10
-957.3813949269
 20
586.3757629827
 10
-955.5921484512
 20
585.4806431639
 10
-953.5431008054
 20
584.6314023498
 10
-951.2685964326
 20
583.8281635889
 10
-948.7713690593
 20
583.0616613069
 10
-946.0461016586
 20
582.3249171382
 10
-943.0765841189
 20
581.61058574
 10
-939.8563851821
 20
580.916238932
 10
-936.3976456523
 20
580.2446257623
 10
-934.4395094391
 20
579.9013051764
  0
LWPOLYLINE
  5
AA
330
1F
100
AcDbEntity
  8
0
  6
Continuous
 62
     7
370
    25
100
AcDbPolyline
 90
       20
 70
   128
 43
0.0
 10
-932.107219948
 20
607.7391568326
 10
-933.284449324
 20
607.8073699073
 10
-935.5787179192
 20
607.9016026911
 10
-937.9119207191
 20
607.9480358842
 10
-940.2564055738
 20
607.9463454482
 10
-942.5854794469
 20
607.8966140737
 10
-944.8719686052
 20
607.7993140205
 10
-947.0902267566
 20
607.6552334492
 10
-949.2160782317
 20
607.4653501424
 10
-951.2276216014
 20
607.2305835331
 10
-953.1063085807
 20
606.9512957144
 10
-954.8386256424
 20
606.6262265466
 10
-956.4191760843
 20
606.2499636495
 10
-957.8573026838
 20
605.8059529736
 10
-959.1929502154
 20
605.2429465825
 10
-960.1476203566
 20
604.6715422207
 10
-960.8259589944
 20
604.0967924252
 10
-961.3725773096
 20
603.4244985466
 10
-961.772336785
 20
602.6348047021
 10
-961.9860070503
 20
601.6980007711
  0
LWPOLYLINE
  5
AB
330
1F
100
AcDbEntity
  8
0
  6
Continuous
 62
     7
370
    25
100
AcDbPolyline
 90
       20
 70
   128
 43
0.0
 10
-873.3676698834
 20
610.8176826115
 10
-874.5418193618
 20
610.5543038287
 10
-876.8854873557
 20
610.0820840358
 10
-879.430519273
 20
609.6354450288
 10
-882.1656294216
 20
609.2178171115
 10
-885.0744377255
 20
608.8328349725
 10
-888.1401920846
 20
608.4835134589
 10
-891.3457512592
 20
608.1723763195
 10
-894.6735917759
 20
607.9015379543
 10
-898.1058279731
 20
607.6727563629
 10
-901.6242456152
 20
607.4874673308
 10
-905.2103473478
 20
607.3468064381
 10
-908.8454076852
 20
607.2516231631
 10
-912.5105352507
 20
607.2024898334
 10
-916.1867401911
 20
607.1997071727
 10
-919.8550049058
 20
607.2433075099
 10
-923.4961965355
 20
607.3330512524
 10
-927.0914484254
 20
607.4684299138
 10
-930.6220889419
 20
607.6486654631
 10
-932.107219948
 20
607.7391568326
  0
ARC
  5
AC
330
1F
100
AcDbEntity
  8
0
  6
Continuous
 62
     7
370
    25
100
AcDbCircle
 10
-856.6792285664
 20
520.8609321473
 30
0.0
 40
91.49164457841586
100
AcDbArc
 50
84.2345059499
 51
100.50981703
  0
LWPOLYLINE
  5
AD
330
1F
100
AcDbEntity
  8
0
  6
Continuous
 62
     7
370
    25
100
AcDbPolyline
 90
       14
 70
   128
 43
0.0
 10
-916.5347117666
 20
600.1912621228
 10
-915.9038832963
 20
600.2098894426
 10
-914.5128059438
 20
600.2996816285
 10
-913.2223096375
 20
600.4346398453
 10
-912.0652961591
 20
600.6133191219
 10
-911.0633227975
 20
600.8376308105
 10
-910.213295157
 20
601.1256803889
 10
-909.5962990048
 20
601.4717395554
 10
-909.2484014468
 20
601.807861883
 10
-909.0009500627
 20
602.2735198485
 10
-908.9462951358
 20
602.8355131779
 10
-909.1192187015
 20
603.3658870168
 10
-909.4108903747
 20
603.7383925789
 10
-909.7639337645
 20
604.0052558464
  0
ARC
  5
AE
330
1F
100
AcDbEntity
  8
0
  6
Continuous
 62
     7
370
    25
100
AcDbCircle
 10
-918.2069223945
 20
633.8244462942
 30
0.0
 40
33.67472889114264
100
AcDbArc
 50
260.9295270024
 51
272.8463490207
  0
LWPOLYLINE
  5
AF
330
1F
100
AcDbEntity
  8
0
  6
Continuous
 62
     7
370
    25
100
AcDbPolyline
 90
       12
 70
   128
 43
0.0
 10
-925.9864554593
 20
604.0786020486
 10
-926.0216708977
 20
604.0634674097
 10
-926.4380302426
 20
603.7634064302
 10
-926.7521668146
 20
603.3731435202
 10
-926.9268794917
 20
602.8548562224
 10
-926.8630901521
 20
602.2386823609
 10
-926.6172712175
 20
601.7954328282
 10
-926.2825887105
 20
601.4742858517
 10
-925.819958071
 20
601.1975669064
 10
-925.0434459614
 20
600.9038112008
 10
-924.1103430708
 20
600.6719644554
 10
-923.5157160965
 20
600.570813781
  0
ARC
  5
B0
330
1F
100
AcDbEntity
  8
0
  6
Continuous
 62
     7
370
    25
100
AcDbCircle
 10
-917.9377478893
 20
592.1559398644
 30
0.0
 40
14.40192307692304
100
AcDbArc
 50
54.8716405225
 51
125.1283594775
  0
LWPOLYLINE
  5
B1
330
1F
100
AcDbEntity
  8
0
  6
Continuous
 62
     7
370
    25
100
AcDbPolyline
 90
       13
 70
   128
 43
0.0
 10
-845.8980968207
 20
604.122306236
 10
-845.9684784299
 20
604.0932066052
 10
-846.4076480145
 20
603.7908434748
 10
-846.7293982082
 20
603.4117186777
 10
-846.9199007079
 20
602.9028544372
 10
-846.8929871406
 20
602.3375157604
 10
-846.6693081912
 20
601.8643532935
 10
-846.3502492853
 20
601.5273518293
 10
-845.9195416479
 20
601.2476273615
 10
-845.2205458334
 20
600.9597061995
 10
-844.3135507391
 20
600.7153908263
 10
-843.1679369472
 20
600.5060307416
 10
-842.388191203
 20
600.4021618416
  0
LWPOLYLINE
  5
B2
330
1F
100
AcDbEntity
  8
0
  6
Continuous
 62
     7
370
    25
100
AcDbPolyline
 90
       10
 70
   128
 43
0.0
 10
-831.2984545968
 20
600.7838503915
 10
-831.1048821215
 20
600.8264523663
 10
-830.2487683595
 20
601.1105969156
 10
-829.6082405725
 20
601.4628561782
 10
-829.2581813268
 20
601.7954869864
 10
-829.0062434532
 20
602.2570378782
 10
-828.9443986725
 20
602.8176304818
 10
-829.1120852466
 20
603.3530615065
 10
-829.4013078144
 20
603.7291249966
 10
-829.7631832959
 20
604.0064050234
  0
ARC
  5
B3
330
1F
100
AcDbEntity
  8
0
  6
Continuous
 62
     7
370
    25
100
AcDbCircle
 10
-837.9377478893
 20
592.1559398644
 30
0.0
 40
14.40192307692298
100
AcDbArc
 50
54.8716405225
 51
125.1283594775
  0
LWPOLYLINE
  5
B4
330
1F
100
AcDbEntity
  8
0
  6
Continuous
 62
     7
370
    25
100
AcDbPolyline
 90
       13
 70
   128
 43
0.0
 10
-1155.8980968207
 20
547.4918903347
 10
-1155.9684784299
 20
547.4627907038
 10
-1156.4076480145
 20
547.1604275735
 10
-1156.7293982082
 20
546.7813027764
 10
-1156.9199007079
 20
546.2724385358
 10
-1156.8929871406
 20
545.707099859
 10
-1156.6693081912
 20
545.2339373921
 10
-1156.3502492853
 20
544.8969359279
 10
-1155.9195416479
 20
544.6172114602
 10
-1155.2205458334
 20
544.3292902982
 10
-1154.3135507391
 20
544.084974925
 10
-1153.1679369472
 20
543.8756148402
 10
-1152.388191203
 20
543.7717459402
  0
LWPOLYLINE
  5
B5
330
1F
100
AcDbEntity
  8
0
  6
Continuous
 62
     7
370
    25
100
AcDbPolyline
 90
       10
 70
   128
 43
0.0
 10
-1141.2984545968
 20
544.1534344901
 10
-1141.1048821215
 20
544.1960364649
 10
-1140.2487683595
 20
544.4801810142
 10
-1139.6082405725
 20
544.8324402768
 10
-1139.2581813268
 20
545.1650710851
 10
-1139.0062434532
 20
545.6266219769
 10
-1138.9443986725
 20
546.1872145805
 10
-1139.1120852466
 20
546.7226456051
 10
-1139.4013078144
 20
547.0987090952
 10
-1139.7631832959
 20
547.375989122
  0
ARC
  5
B6
330
1F
100
AcDbEntity
  8
0
  6
Continuous
 62
     7
370
    25
100
AcDbCircle
 10
-1147.9377478893
 20
535.5255239631
 30
0.0
 40
14.40192307692304
100
AcDbArc
 50
54.8716405225
 51
125.1283594775
  0
LWPOLYLINE
  5
B7
330
1F
100
AcDbEntity
  8
0
  6
Continuous
 62
     7
370
    25
100
AcDbPolyline
 90
       14
 70
   128
 43
0.0
 10
-1226.5347117666
 20
543.5608462214
 10
-1225.9038832963
 20
543.5794735412
 10
-1224.5128059438
 20
543.6692657271
 10
-1223.2223096375
 20
543.8042239439
 10
-1222.0652961591
 20
543.9829032205
 10
-1221.0633227975
 20
544.2072149091
 10
-1220.213295157
 20
544.4952644876
 10
-1219.5962990048
 20
544.8413236541
 10
-1219.2484014468
 20
545.1774459817
 10
-1219.0009500627
 20
545.6431039471
 10
-1218.9462951358
 20
546.2050972765
 10
-1219.1192187015
 20
546.7354711155
 10
-1219.4108903747
 20
547.1079766775
 10
-1219.7639337645
 20
547.374839945
  0
ARC
  5
B8
330
1F
100
AcDbEntity
  8
0
  6
Continuous
 62
     7
370
    25
100
AcDbCircle
 10
-1228.2069223945
 20
577.1940303928
 30
0.0
 40
33.67472889114548
100
AcDbArc
 50
260.9295270024
 51
272.8463490207
  0
LWPOLYLINE
  5
B9
330
1F
100
AcDbEntity
  8
0
  6
Continuous
 62
     7
370
    25
100
AcDbPolyline
 90
       12
 70
   128
 43
0.0
 10
-1235.9864554593
 20
547.4481861472
 10
-1236.0216708977
 20
547.4330515083
 10
-1236.4380302426
 20
547.1329905288
 10
-1236.7521668146
 20
546.7427276188
 10
-1236.9268794917
 20
546.224440321
 10
-1236.8630901521
 20
545.6082664595
 10
-1236.6172712175
 20
545.1650169269
 10
-1236.2825887105
 20
544.8438699504
 10
-1235.819958071
 20
544.5671510051
 10
-1235.0434459614
 20
544.2733952995
 10
-1234.1103430708
 20
544.041548554
 10
-1233.5157160965
 20
543.9403978797
  0
ARC
  5
BA
330
1F
100
AcDbEntity
  8
0
  6
Continuous
 62
     7
370
    25
100
AcDbCircle
 10
-1227.9377478893
 20
535.5255239631
 30
0.0
 40
14.40192307692304
100
AcDbArc
 50
54.8716405225
 51
125.1283594775
  0
LWPOLYLINE
  5
BB
330
1F
100
AcDbEntity
  8
0
  6
Continuous
 62
     7
370
    25
100
AcDbPolyline
 90
       17
 70
   128
 43
0.0
 10
-1205.9377478893
 20
560.0938880691
 10
-1207.3556814381
 20
560.1002421194
 10
-1210.0407913855
 20
560.1473436763
 10
-1212.6870564413
 20
560.239884424
 10
-1215.2675924495
 20
560.3767846015
 10
-1217.7566902335
 20
560.5563986565
 10
-1220.1291367142
 20
560.7764617201
 10
-1222.3602789931
 20
561.0340042216
 10
-1224.4260305039
 20
561.3251987523
 10
-1226.3027980491
 20
561.6450851412
 10
-1227.9673163295
 20
561.9870722166
 10
-1229.3964185846
 20
562.3420257191
 10
-1230.5669260597
 20
562.6965970465
 10
-1231.4563151786
 20
563.0302433034
 10
-1231.9933562997
 20
563.2820896414
 10
-1232.2871573404
 20
563.4554244459
 10
-1232.364441348
 20
563.5126702594
  0
LWPOLYLINE
  5
BC
330
1F
100
AcDbEntity
  8
0
  6
Continuous
 62
     7
370
    25
100
AcDbPolyline
 90
       18
 70
   128
 43
0.0
 10
-1103.5263596112
 20
563.4976234486
 10
-1103.5214035162
 20
563.5038639411
 10
-1103.6907879469
 20
563.3899655011
 10
-1104.0787948285
 20
563.183162944
 10
-1104.7161998438
 20
562.9101749145
 10
-1105.6194528106
 20
562.5950254009
 10
-1106.7893507876
 20
562.2588938818
 10
-1108.2146133526
 20
561.9191212017
 10
-1109.8767506549
 20
561.5890581893
 10
-1111.7537166713
 20
561.2786697905
 10
-1113.8218732889
 20
560.9953637336
 10
-1116.0568069665
 20
560.7447050221
 10
-1118.433595087
 20
560.5309238068
 10
-1120.9268781593
 20
560.3572435135
 10
-1123.5108968003
 20
560.2260828977
 10
-1126.159548898
 20
560.1391773981
 10
-1128.8464784957
 20
560.0976506928
 10
-1129.9377478893
 20
560.0938880691
  0
LINE
  5
BD
330
1F
100
AcDbEntity
  8
0
  6
Continuous
 62
     7
370
    25
100
AcDbLine
 10
-1129.9377478893
 20
560.0938880691
 30
0.0
 11
-1205.9377478893
 21
560.0938880691
 31
0.0
  0
LWPOLYLINE
  5
BE
330
1F
100
AcDbEntity
  8
0
  6
Continuous
 62
     7
370
    25
100
AcDbPolyline
 90
       15
 70
   128
 43
0.0
 10
-1129.9377478893
 20
569.3309241502
 10
-1128.5198143406
 20
569.3245700999
 10
-1125.8347043932
 20
569.277468543
 10
-1123.1884393375
 20
569.1849277953
 10
-1120.6079033292
 20
569.0480276177
 10
-1118.1188055452
 20
568.8684135628
 10
-1115.7463590645
 20
568.6483504992
 10
-1113.5152167856
 20
568.3908079977
 10
-1111.4494652748
 20
568.099613467
 10
-1109.5726977296
 20
567.779727078
 10
-1107.9081794492
 20
567.4377400026
 10
-1106.4790771941
 20
567.0827865002
 10
-1105.308569719
 20
566.7282151727
 10
-1104.4191806001
 20
566.3945689158
 10
-1103.9377478893
 20
566.1688002355
  0
LWPOLYLINE
  5
BF
330
1F
100
AcDbEntity
  8
0
  6
Continuous
 62
     7
370
    25
100
AcDbPolyline
 90
       16
 70
   128
 43
0.0
 10
-1231.9377478893
 20
566.1664731146
 10
-1231.7967009502
 20
566.2416492753
 10
-1231.1592959349
 20
566.5146373048
 10
-1230.2560429681
 20
566.8297868184
 10
-1229.0861449911
 20
567.1659183374
 10
-1227.6608824261
 20
567.5056910176
 10
-1225.9987451238
 20
567.83575403
 10
-1224.1217791074
 20
568.1461424287
 10
-1222.0536224898
 20
568.4294484857
 10
-1219.8186888122
 20
568.6801071972
 10
-1217.4419006917
 20
568.8938884124
 10
-1214.9486176194
 20
569.0675687058
 10
-1212.3645989784
 20
569.1987293215
 10
-1209.7159468807
 20
569.2856348212
 10
-1207.029017283
 20
569.3271615265
 10
-1205.9377478893
 20
569.3309241502
  0
LINE
  5
C0
330
1F
100
AcDbEntity
  8
0
  6
Continuous
 62
     7
370
    25
100
AcDbLine
 10
-1205.9377478893
 20
569.3309241502
 30
0.0
 11
-1129.9377478893
 21
569.3309241502
 31
0.0
  0
LINE
  5
C1
330
1F
100
AcDbEntity
  8
0
  6
Continuous
 62
     7
370
    25
100
AcDbLine
 10
-737.9377478893
 20
605.3083312411
 30
0.0
 11
-806.8587694641
 21
605.3083312411
 31
0.0
  0
LINE
  5
C2
330
1F
100
AcDbEntity
  8
0
  6
Continuous
 62
     7
370
    25
100
AcDbLine
 10
-959.0378349995
 20
605.3083312411
 30
0.0
 11
-1020.9377478894
 21
605.3083312411
 31
0.0
  0
LINE
  5
C3
330
1F
100
AcDbEntity
  8
0
  6
Continuous
 62
     7
370
    25
100
AcDbLine
 10
-1044.9377478894
 20
605.3083312411
 30
0.0
 11
-1327.9377478893
 21
605.3083312411
 31
0.0
  0
LINE
  5
C4
330
1F
100
AcDbEntity
  8
0
  6
Continuous
 62
     7
370
    25
100
AcDbLine
 10
-1330.9377478893
 20
615.9908906612
 30
0.0
 11
-1339.9377478893
 21
615.9908906612
 31
0.0
  0
ARC
  5
C5
330
1F
100
AcDbEntity
  8
0
  6
Continuous
 62
     7
370
    25
100
AcDbCircle
 10
-1330.9377478893
 20
612.9908906612
 30
0.0
 40
3.000000000000114
100
AcDbArc
 50
0.0
 51
90.0
  0
ARC
  5
C6
330
1F
100
AcDbEntity
  8
0
  6
Continuous
 62
     7
370
    25
100
AcDbCircle
 10
-1339.9377478893
 20
612.9908906612
 30
0.0
 40
3.000000000000114
100
AcDbArc
 50
90.0
 51
180.0
  0
ARC
  5
C7
330
1F
100
AcDbEntity
  8
0
  6
Continuous
 62
     7
370
    25
100
AcDbCircle
 10
-734.9377478893
 20
612.9908906612
 30
0.0
 40
3.000000000000114
100
AcDbArc
 50
90.0
 51
180.0
  0
ARC
  5
C8
330
1F
100
AcDbEntity
  8
0
  6
Continuous
 62
     7
370
    25
100
AcDbCircle
 10
-725.9377478893
 20
612.9908906612
 30
0.0
 40
3.000000000000114
100
AcDbArc
 50
0.0
 51
90.0
  0
LINE
  5
C9
330
1F
100
AcDbEntity
  8
0
  6
Continuous
 62
     7
370
    25
100
AcDbLine
 10
-725.9377478893
 20
615.9908906612
 30
0.0
 11
-734.9377478893
 21
615.9908906612
 31
0.0
  0
ARC
  5
CA
330
1F
100
AcDbEntity
  8
0
  6
Continuous
 62
     7
370
    25
100
AcDbCircle
 10
-1064.6325488985
 20
51.8495550369
 30
0.0
 40
22.31232488952347
100
AcDbArc
 50
316.7872353559
 51
43.2127646441
  0
LINE
  5
CB
330
1F
100
AcDbEntity
  8
0
  6
Continuous
 62
     7
370
    25
100
AcDbLine
 10
-1048.3709672357
 20
67.1270156832
 30
0.0
 11
-1450.4322497965
 21
468.8636028723
 31
0.0
  0
LINE
  5
CC
330
1F
100
AcDbEntity
  8
0
  6
Continuous
 62
     7
370
    25
100
AcDbLine
 10
-1453.9432867713
 20
-368.6726943412
 30
0.0
 11
-1048.3709672357
 21
36.5720943905
 31
0.0
  0
LWPOLYLINE
  5
CD
330
1F
100
AcDbEntity
  8
0
  6
Continuous
 62
     7
370
    25
100
AcDbPolyline
 90
       15
 70
   128
 43
0.0
 10
-1470.2207994344
 20
475.8418577558
 10
-1470.309599788
 20
475.845510274
 10
-1472.6515646896
 20
475.6811399962
 10
-1474.9675411087
 20
475.2582050234
 10
-1477.2383280636
 20
474.5808942736
 10
-1479.4455091648
 20
473.654960018
 10
-1481.5709699079
 20
472.4878115934
 10
-1483.5968698436
 20
471.0886991447
 10
-1485.5057558473
 20
469.4689046797
 10
-1487.2808000677
 20
467.6418573603
 10
-1488.9061084705
 20
465.6231231583
 10
-1490.3670331504
 20
463.4302640683
 10
-1491.6504343031
 20
461.0825988203
 10
-1492.744864738
 20
458.6009130427
 10
-1493.4668272014
 20
456.5682276773
  0
LINE
  5
CE
330
1F
100
AcDbEntity
  8
0
  6
Continuous
 62
     7
370
    25
100
AcDbLine
 10
-1466.5612644454
 20
475.8477401286
 30
0.0
 11
-1470.0027230635
 21
475.8477401286
 31
0.0
  0
LWPOLYLINE
  5
CF
330
1F
100
AcDbEntity
  8
0
  6
Continuous
 62
     7
370
    25
100
AcDbPolyline
 90
       13
 70
   128
 43
0.0
 10
-1495.527203383
 20
-360.1231697049
 10
-1494.8817581521
 20
-361.4459926686
 10
-1493.5496070856
 20
-363.7703498226
 10
-1492.0380861055
 20
-365.9377805085
 10
-1490.3611384749
 20
-367.9267278477
 10
-1488.5337365566
 20
-369.7187319024
 10
-1486.5726347023
 20
-371.2971492716
 10
-1484.4961845428
 20
-372.6475016953
 10
-1482.3240240894
 20
-373.7577912722
 10
-1480.0766575549
 20
-374.6187133677
 10
-1477.7749821307
 20
-375.2237120254
 10
-1475.4398466605
 20
-375.5688618143
 10
-1474.0627713526
 20
-375.6179790258
  0
LINE
  5
D0
330
1F
100
AcDbEntity
  8
0
  6
Continuous
 62
     7
370
    25
100
AcDbLine
 10
-1473.5137600383
 20
-375.6568315976
 30
0.0
 11
-1470.0723014201
 21
-375.6568315976
 31
0.0
  0
ARC
  5
D1
330
1F
100
AcDbEntity
  8
0
  6
Continuous
 62
     7
370
    25
100
AcDbCircle
 10
-1466.774794837
 20
453.1536172811
 30
0.0
 40
22.66897495862237
100
AcDbArc
 50
43.8694096255
 51
87.8054322098
  0
ARC
  5
D2
330
1F
100
AcDbEntity
  8
0
  6
Continuous
 62
     7
370
    25
100
AcDbCircle
 10
-1470.2371134416
 20
-353.0357253474
 30
0.0
 40
22.58325899592038
100
AcDbArc
 50
268.6522228404
 51
316.1784819131
  0
ARC
  5
D3
330
1F
100
AcDbEntity
  8
0
  6
Continuous
 62
     7
370
    25
100
AcDbCircle
 10
-1508.7175128854
 20
-97.7178571617
 30
0.0
 40
36.73943166679559
100
AcDbArc
 50
342.4540748295
 51
8.8729986206
  0
LINE
  5
D4
330
1F
100
AcDbEntity
  8
0
  6
Continuous
 62
     7
370
    25
100
AcDbLine
 10
-1535.1994525737
 20
313.5669297916
 30
0.0
 11
-1472.4177542927
 21
-92.0509915983
 31
0.0
  0
LINE
  5
D5
330
1F
100
AcDbEntity
  8
0
  6
Continuous
 62
     7
370
    25
100
AcDbLine
 10
-1473.6873606806
 20
-108.7936991479
 30
0.0
 11
-1525.8512463058
 21
-272.1253406716
 31
0.0
  0
LINE
  5
D6
330
1F
100
AcDbEntity
  8
0
  6
Continuous
 62
     7
370
    25
100
AcDbLine
 10
-1493.4668272014
 20
456.5682276773
 30
0.0
 11
-1533.9663085229
 21
329.7592929935
 31
0.0
  0
LINE
  5
D7
330
1F
100
AcDbEntity
  8
0
  6
Continuous
 62
     7
370
    25
100
AcDbLine
 10
-1524.4005855126
 20
-297.3121663276
 30
0.0
 11
-1495.527203383
 21
-360.1231697049
 31
0.0
  0
ARC
  5
D8
330
1F
100
AcDbEntity
  8
0
  6
Continuous
 62
     7
370
    25
100
AcDbCircle
 10
-1492.2807020963
 20
-282.8270000658
 30
0.0
 40
35.23502451129174
100
AcDbArc
 50
162.318694693
 51
204.2740388923
  0
ARC
  5
D9
330
1F
100
AcDbEntity
  8
0
  6
Continuous
 62
     7
370
    25
100
AcDbCircle
 10
-1500.0221564826
 20
319.0311082229
 30
0.0
 40
35.59914895343175
100
AcDbArc
 50
162.4606511977
 51
188.8293376647
  0
ARC
  5
DA
330
1F
100
AcDbEntity
  8
0
  6
Continuous
 62
     7
370
    25
100
AcDbCircle
 10
-1032.9377478893
 20
20.1547540277
 30
0.0
 40
22.31232488952331
100
AcDbArc
 50
46.7872353559
 51
133.2127646441
  0
LINE
  5
DB
330
1F
100
AcDbEntity
  8
0
  6
Continuous
 62
     7
370
    25
100
AcDbLine
 10
-612.4154985113
 20
-369.155983845
 30
0.0
 11
-1017.660287243
 21
36.4163356905
 31
0.0
  0
LINE
  5
DC
330
1F
100
AcDbEntity
  8
0
  6
Continuous
 62
     7
370
    25
100
AcDbLine
 10
-1048.2152085357
 20
36.4163356905
 30
0.0
 11
-1449.9517957247
 21
-365.6449468703
 31
0.0
  0
LWPOLYLINE
  5
DD
330
1F
100
AcDbEntity
  8
0
  6
Continuous
 62
     7
370
    25
100
AcDbPolyline
 90
       15
 70
   128
 43
0.0
 10
-1456.9300506083
 20
-385.4334965082
 10
-1456.9337031265
 20
-385.5222968618
 10
-1456.7693328487
 20
-387.8642617634
 10
-1456.3463978759
 20
-390.1802381825
 10
-1455.6690871261
 20
-392.4510251373
 10
-1454.7431528705
 20
-394.6582062386
 10
-1453.5760044459
 20
-396.7836669817
 10
-1452.1768919972
 20
-398.8095669174
 10
-1450.5570975321
 20
-400.7184529211
 10
-1448.7300502128
 20
-402.4934971415
 10
-1446.7113160108
 20
-404.1188055443
 10
-1444.5184569208
 20
-405.5797302242
 10
-1442.1707916728
 20
-406.8631313769
 10
-1439.6891058952
 20
-407.9575618118
 10
-1437.6564205298
 20
-408.6795242752
  0
LINE
  5
DE
330
1F
100
AcDbEntity
  8
0
  6
Continuous
 62
     7
370
    25
100
AcDbLine
 10
-1456.9359329811
 20
-381.7739615192
 30
0.0
 11
-1456.9359329811
 21
-385.2154201373
 31
0.0
  0
LWPOLYLINE
  5
DF
330
1F
100
AcDbEntity
  8
0
  6
Continuous
 62
     7
370
    25
100
AcDbPolyline
 90
       13
 70
   128
 43
0.0
 10
-620.9650231476
 20
-410.7399004568
 10
-619.6422001839
 20
-410.0944552259
 10
-617.3178430299
 20
-408.7623041594
 10
-615.150412344
 20
-407.2507831793
 10
-613.1614650048
 20
-405.5738355487
 10
-611.3694609501
 20
-403.7464336304
 10
-609.7910435809
 20
-401.7853317761
 10
-608.4406911572
 20
-399.7088816166
 10
-607.3304015803
 20
-397.5367211632
 10
-606.4694794848
 20
-395.2893546287
 10
-605.8644808271
 20
-392.9876792045
 10
-605.5193310382
 20
-390.6525437343
 10
-605.4702138267
 20
-389.2754684264
  0
LINE
  5
E0
330
1F
100
AcDbEntity
  8
0
  6
Continuous
 62
     7
370
    25
100
AcDbLine
 10
-605.4313612549
 20
-388.726457112
 30
0.0
 11
-605.4313612549
 21
-385.2849984939
 31
0.0
  0
ARC
  5
E1
330
1F
100
AcDbEntity
  8
0
  6
Continuous
 62
     7
370
    25
100
AcDbCircle
 10
-1434.2418101336
 20
-381.9874919108
 30
0.0
 40
22.66897495862294
100
AcDbArc
 50
133.8694096255
 51
177.8054322098
  0
ARC
  5
E2
330
1F
100
AcDbEntity
  8
0
  6
Continuous
 62
     7
370
    25
100
AcDbCircle
 10
-628.0524675051
 20
-385.4498105154
 30
0.0
 40
22.58325899591856
100
AcDbArc
 50
358.6522228404
 51
46.1784819131
  0
ARC
  5
E3
330
1F
100
AcDbEntity
  8
0
  6
Continuous
 62
     7
370
    25
100
AcDbCircle
 10
-883.3703356908
 20
-423.9302099592
 30
0.0
 40
36.73943166679718
100
AcDbArc
 50
72.4540748295
 51
98.8729986206
  0
LINE
  5
E4
330
1F
100
AcDbEntity
  8
0
  6
Continuous
 62
     7
370
    25
100
AcDbLine
 10
-1294.6551226441
 20
-450.4121496475
 30
0.0
 11
-889.0372012542
 21
-387.6304513665
 31
0.0
  0
LINE
  5
E5
330
1F
100
AcDbEntity
  8
0
  6
Continuous
 62
     7
370
    25
100
AcDbLine
 10
-872.2944937045
 20
-388.9000577543
 30
0.0
 11
-708.9628521809
 21
-441.0639433796
 31
0.0
  0
LINE
  5
E6
330
1F
100
AcDbEntity
  8
0
  6
Continuous
 62
     7
370
    25
100
AcDbLine
 10
-1437.6564205298
 20
-408.6795242752
 30
0.0
 11
-1310.847485846
 21
-449.1790055967
 31
0.0
  0
LINE
  5
E7
330
1F
100
AcDbEntity
  8
0
  6
Continuous
 62
     7
370
    25
100
AcDbLine
 10
-683.7760265249
 20
-439.6132825864
 30
0.0
 11
-620.9650231476
 21
-410.7399004568
 31
0.0
  0
ARC
  5
E8
330
1F
100
AcDbEntity
  8
0
  6
Continuous
 62
     7
370
    25
100
AcDbCircle
 10
-698.2611927867
 20
-407.4933991701
 30
0.0
 40
35.23502451129465
100
AcDbArc
 50
252.318694693
 51
294.2740388923
  0
ARC
  5
E9
330
1F
100
AcDbEntity
  8
0
  6
Continuous
 62
     7
370
    25
100
AcDbCircle
 10
-1300.1193010753
 20
-415.2348535564
 30
0.0
 40
35.59914895345486
100
AcDbArc
 50
252.4606511977
 51
278.8293376647
  0
ARC
  5
EA
330
1F
100
AcDbEntity
  8
0
  6
Continuous
 62
     7
370
    25
100
AcDbCircle
 10
-1001.2429468802
 20
51.8495550369
 30
0.0
 40
22.31232488952324
100
AcDbArc
 50
136.7872353559
 51
223.2127646441
  0
LINE
  5
EB
330
1F
100
AcDbEntity
  8
0
  6
Continuous
 62
     7
370
    25
100
AcDbLine
 10
-611.9322090074
 20
472.3718044149
 30
0.0
 11
-1017.504528543
 21
67.1270156832
 31
0.0
  0
LINE
  5
EC
330
1F
100
AcDbEntity
  8
0
  6
Continuous
 62
     7
370
    25
100
AcDbLine
 10
-1017.504528543
 20
36.5720943905
 30
0.0
 11
-615.4432459822
 21
-365.1644927985
 31
0.0
  0
LWPOLYLINE
  5
ED
330
1F
100
AcDbEntity
  8
0
  6
Continuous
 62
     7
370
    25
100
AcDbPolyline
 90
       15
 70
   128
 43
0.0
 10
-595.6546963443
 20
-372.1427476821
 10
-595.5658959907
 20
-372.1464002003
 10
-593.2239310891
 20
-371.9820299225
 10
-590.90795467
 20
-371.5590949497
 10
-588.6371677151
 20
-370.8817841999
 10
-586.4299866139
 20
-369.9558499442
 10
-584.3045258708
 20
-368.7887015197
 10
-582.2786259351
 20
-367.389589071
 10
-580.3697399314
 20
-365.7697946059
 10
-578.594695711
 20
-363.9427472866
 10
-576.9693873082
 20
-361.9240130846
 10
-575.5084626283
 20
-359.7311539946
 10
-574.2250614756
 20
-357.3834887466
 10
-573.1306310407
 20
-354.901802969
 10
-572.4086685773
 20
-352.8691176036
  0
LINE
  5
EE
330
1F
100
AcDbEntity
  8
0
  6
Continuous
 62
     7
370
    25
100
AcDbLine
 10
-599.3142313333
 20
-372.1486300549
 30
0.0
 11
-595.8727727152
 21
-372.1486300549
 31
0.0
  0
LWPOLYLINE
  5
EF
330
1F
100
AcDbEntity
  8
0
  6
Continuous
 62
     7
370
    25
100
AcDbPolyline
 90
       13
 70
   128
 43
0.0
 10
-570.3482923957
 20
463.8222797787
 10
-570.9937376266
 20
465.1451027423
 10
-572.3258886931
 20
467.4694598963
 10
-573.8374096732
 20
469.6368905822
 10
-575.5143573038
 20
471.6258379214
 10
-577.3417592221
 20
473.4178419762
 10
-579.3028610764
 20
474.9962593453
 10
-581.3793112359
 20
476.346611769
 10
-583.5514716893
 20
477.4569013459
 10
-585.7988382238
 20
478.3178234414
 10
-588.100513648
 20
478.9228220991
 10
-590.4356491182
 20
479.267971888
 10
-591.8127244261
 20
479.3170890995
  0
LINE
  5
F0
330
1F
100
AcDbEntity
  8
0
  6
Continuous
 62
     7
370
    25
100
AcDbLine
 10
-592.3617357404
 20
479.3559416713
 30
0.0
 11
-595.8031943586
 21
479.3559416713
 31
0.0
  0
ARC
  5
F1
330
1F
100
AcDbEntity
  8
0
  6
Continuous
 62
     7
370
    25
100
AcDbCircle
 10
-599.1007009417
 20
-349.4545072074
 30
0.0
 40
22.66897495861896
100
AcDbArc
 50
223.8694096255
 51
267.8054322098
  0
ARC
  5
F2
330
1F
100
AcDbEntity
  8
0
  6
Continuous
 62
     7
370
    25
100
AcDbCircle
 10
-595.6383823371
 20
456.7348354211
 30
0.0
 40
22.58325899591899
100
AcDbArc
 50
88.6522228404
 51
136.1784819131
  0
ARC
  5
F3
330
1F
100
AcDbEntity
  8
0
  6
Continuous
 62
     7
370
    25
100
AcDbCircle
 10
-557.1579828933
 20
201.4169672354
 30
0.0
 40
36.73943166679178
100
AcDbArc
 50
162.4540748295
 51
188.8729986206
  0
LINE
  5
F4
330
1F
100
AcDbEntity
  8
0
  6
Continuous
 62
     7
370
    25
100
AcDbLine
 10
-530.676043205
 20
-209.8678197179
 30
0.0
 11
-593.457741486
 21
195.750101672
 31
0.0
  0
LINE
  5
F5
330
1F
100
AcDbEntity
  8
0
  6
Continuous
 62
     7
370
    25
100
AcDbLine
 10
-592.1881350981
 20
212.4928092217
 30
0.0
 11
-540.0242494729
 21
375.8244507453
 31
0.0
  0
LINE
  5
F6
330
1F
100
AcDbEntity
  8
0
  6
Continuous
 62
     7
370
    25
100
AcDbLine
 10
-572.4086685773
 20
-352.8691176036
 30
0.0
 11
-531.9091872558
 21
-226.0601829198
 31
0.0
  0
LINE
  5
F7
330
1F
100
AcDbEntity
  8
0
  6
Continuous
 62
     7
370
    25
100
AcDbLine
 10
-541.4749102661
 20
401.0112764013
 30
0.0
 11
-570.3482923957
 21
463.8222797787
 31
0.0
  0
ARC
  5
F8
330
1F
100
AcDbEntity
  8
0
  6
Continuous
 62
     7
370
    25
100
AcDbCircle
 10
-573.5947936824
 20
386.5261101395
 30
0.0
 40
35.23502451129399
100
AcDbArc
 50
342.318694693
 51
24.2740388923
  0
ARC
  5
F9
330
1F
100
AcDbEntity
  8
0
  6
Continuous
 62
     7
370
    25
100
AcDbCircle
 10
-565.8533392961
 20
-215.3319981491
 30
0.0
 40
35.59914895345443
100
AcDbArc
 50
342.4606511977
 51
8.8293376647
  0
ARC
  5
FA
330
1F
100
AcDbEntity
  8
0
  6
Continuous
 62
     7
370
    25
100
AcDbCircle
 10
-1032.9377478893
 20
83.544356046
 30
0.0
 40
22.31232488952317
100
AcDbArc
 50
226.7872353559
 51
313.2127646441
  0
LINE
  5
FB
330
1F
100
AcDbEntity
  8
0
  6
Continuous
 62
     7
370
    25
100
AcDbLine
 10
-1017.660287243
 20
67.2827743832
 30
0.0
 11
-615.923700054
 21
469.344056944
 31
0.0
  0
LINE
  5
FC
330
1F
100
AcDbEntity
  8
0
  6
Continuous
 62
     7
370
    25
100
AcDbLine
 10
-1453.4599972674
 20
472.8550939188
 30
0.0
 11
-1048.2152085357
 21
67.2827743832
 31
0.0
  0
LWPOLYLINE
  5
FD
330
1F
100
AcDbEntity
  8
0
  6
Continuous
 62
     7
370
    25
100
AcDbPolyline
 90
       15
 70
   128
 43
0.0
 10
-608.9454451704
 20
489.1326065819
 10
-608.9417926522
 20
489.2214069355
 10
-609.10616293
 20
491.5633718371
 10
-609.5290979028
 20
493.8793482563
 10
-610.2064086526
 20
496.1501352111
 10
-611.1323429082
 20
498.3573163123
 10
-612.2994913328
 20
500.4827770554
 10
-613.6986037815
 20
502.5086769912
 10
-615.3183982466
 20
504.4175629948
 10
-617.1454455659
 20
506.1926072152
 10
-619.1641797679
 20
507.817915618
 10
-621.3570388579
 20
509.2788402979
 10
-623.7047041059
 20
510.5622414506
 10
-626.1863898835
 20
511.6566718855
 10
-628.2190752489
 20
512.3786343489
  0
LINE
  5
FE
330
1F
100
AcDbEntity
  8
0
  6
Continuous
 62
     7
370
    25
100
AcDbLine
 10
-608.9395627976
 20
485.4730715929
 30
0.0
 11
-608.9395627976
 21
488.914530211
 31
0.0
  0
LWPOLYLINE
  5
FF
330
1F
100
AcDbEntity
  8
0
  6
Continuous
 62
     7
370
    25
100
AcDbPolyline
 90
       13
 70
   128
 43
0.0
 10
-1444.9104726311
 20
514.4390105305
 10
-1446.2332955948
 20
513.7935652996
 10
-1448.5576527488
 20
512.4614142332
 10
-1450.7250834347
 20
510.949893253
 10
-1452.7140307739
 20
509.2729456224
 10
-1454.5060348286
 20
507.4455437041
 10
-1456.0844521978
 20
505.4844418498
 10
-1457.4348046215
 20
503.4079916903
 10
-1458.5450941984
 20
501.2358312369
 10
-1459.4060162939
 20
498.9884647024
 10
-1460.0110149516
 20
496.6867892782
 10
-1460.3561647405
 20
494.351653808
 10
-1460.405281952
 20
492.9745785001
  0
LINE
  5
100
330
1F
100
AcDbEntity
  8
0
  6
Continuous
 62
     7
370
    25
100
AcDbLine
 10
-1460.4441345238
 20
492.4255671858
 30
0.0
 11
-1460.4441345238
 21
488.9841085677
 31
0.0
  0
ARC
  5
101
330
1F
100
AcDbEntity
  8
0
  6
Continuous
 62
     7
370
    25
100
AcDbCircle
 10
-631.6336856451
 20
485.6866019845
 30
0.0
 40
22.66897495862066
100
AcDbArc
 50
313.8694096255
 51
357.8054322098
  0
ARC
  5
102
330
1F
100
AcDbEntity
  8
0
  6
Continuous
 62
     7
370
    25
100
AcDbCircle
 10
-1437.8230282736
 20
489.1489205891
 30
0.0
 40
22.58325899591681
100
AcDbArc
 50
178.6522228404
 51
226.1784819131
  0
ARC
  5
103
330
1F
100
AcDbEntity
  8
0
  6
Continuous
 62
     7
370
    25
100
AcDbCircle
 10
-1182.5051600879
 20
527.6293200329
 30
0.0
 40
36.73943166678313
100
AcDbArc
 50
252.4540748295
 51
278.8729986206
  0
LINE
  5
104
330
1F
100
AcDbEntity
  8
0
  6
Continuous
 62
     7
370
    25
100
AcDbLine
 10
-771.2203731346
 20
554.1112597212
 30
0.0
 11
-1176.8382945245
 21
491.3295614402
 31
0.0
  0
LINE
  5
105
330
1F
100
AcDbEntity
  8
0
  6
Continuous
 62
     7
370
    25
100
AcDbLine
 10
-1193.5810020742
 20
492.5991678281
 30
0.0
 11
-1356.9126435978
 21
544.7630534533
 31
0.0
  0
LINE
  5
106
330
1F
100
AcDbEntity
  8
0
  6
Continuous
 62
     7
370
    25
100
AcDbLine
 10
-628.2190752489
 20
512.3786343489
 30
0.0
 11
-755.0280099327
 21
552.8781156704
 31
0.0
  0
LINE
  5
107
330
1F
100
AcDbEntity
  8
0
  6
Continuous
 62
     7
370
    25
100
AcDbLine
 10
-1382.0994692538
 20
543.3123926601
 30
0.0
 11
-1444.9104726311
 21
514.4390105305
 31
0.0
  0
ARC
  5
108
330
1F
100
AcDbEntity
  8
0
  6
Continuous
 62
     7
370
    25
100
AcDbCircle
 10
-1367.614302992
 20
511.1925092438
 30
0.0
 40
35.23502451129423
100
AcDbArc
 50
72.318694693
 51
114.2740388923
  0
ARC
  5
109
330
1F
100
AcDbEntity
  8
0
  6
Continuous
 62
     7
370
    25
100
AcDbCircle
 10
-765.7561947034
 20
518.9339636301
 30
0.0
 40
35.59914895344948
100
AcDbArc
 50
72.4606511977
 51
98.8293376647
  0
ARC
  5
10A
330
1F
100
AcDbEntity
  8
0
  6
Continuous
 62
     7
370
    25
100
AcDbCircle
 10
1355.5372381716
 20
-196.1504449631
 30
0.0
 40
3.0
100
AcDbArc
 50
0.0
 51
90.0
  0
LINE
  5
10B
330
1F
100
AcDbEntity
  8
0
  6
Continuous
 62
     7
370
    25
100
AcDbLine
 10
1358.5372381716
 20
-205.1504449631
 30
0.0
 11
1358.5372381716
 21
-196.1504449631
 31
0.0
  0
ARC
  5
10C
330
1F
100
AcDbEntity
  8
0
  6
Continuous
 62
     7
370
    25
100
AcDbCircle
 10
1355.5372381716
 20
-205.1504449631
 30
0.0
 40
3.000000000000028
100
AcDbArc
 50
270.0
 51
0.0
  0
ARC
  5
10D
330
1F
100
AcDbEntity
  8
0
  6
Continuous
 62
     7
370
    25
100
AcDbCircle
 10
-1372.8787896333
 20
439.0064707214
 30
0.0
 40
15.40962349711517
100
AcDbArc
 50
359.283469817
 51
70.5361662492
  0
ARC
  5
10E
330
1F
100
AcDbEntity
  8
0
  6
Continuous
 62
     7
370
    25
100
AcDbCircle
 10
-1372.929569317
 20
438.9377721987
 30
0.0
 40
15.4960167149078
100
AcDbArc
 50
109.9265528359
 51
180.5137771935
  0
LINE
  5
10F
330
1F
100
AcDbEntity
  8
0
  6
Continuous
 62
     7
370
    25
100
AcDbLine
 10
-1357.4377478893
 20
438.2536711658
 30
0.0
 11
-1357.4377478893
 21
438.8272476022
 31
0.0
  0
LINE
  5
110
330
1F
100
AcDbEntity
  8
0
  6
Continuous
 62
     7
370
    25
100
AcDbLine
 10
-1388.4377478893
 20
438.8272476022
 30
0.0
 11
-1388.4377478893
 21
438.2536711658
 31
0.0
  0
ARC
  5
111
330
1F
100
AcDbEntity
  8
0
  6
Continuous
 62
     7
370
    25
100
AcDbCircle
 10
-645.8038901409
 20
-288.1493389539
 30
0.0
 40
15.46889792053933
100
AcDbArc
 50
269.4213955223
 51
353.6926962416
  0
ARC
  5
112
330
1F
100
AcDbEntity
  8
0
  6
Continuous
 62
     7
370
    25
100
AcDbCircle
 10
-645.8809777362
 20
-288.1870404507
 30
0.0
 40
15.53679672935417
100
AcDbArc
 50
12.092877842
 51
90.2916194166
  0
LINE
  5
113
330
1F
100
AcDbEntity
  8
0
  6
Continuous
 62
     7
370
    25
100
AcDbLine
 10
-646.5336317604
 20
-303.6504449631
 30
0.0
 11
-645.960055324
 21
-303.6504449631
 31
0.0
  0
LINE
  5
114
330
1F
100
AcDbEntity
  8
0
  6
Continuous
 62
     7
370
    25
100
AcDbLine
 10
-645.960055324
 20
-272.6504449631
 30
0.0
 11
-646.5336317604
 21
-272.6504449631
 31
0.0
  0
ARC
  5
115
330
1F
100
AcDbEntity
  8
0
  6
Continuous
 62
     7
370
    25
100
AcDbCircle
 10
-692.8787896333
 20
439.0064707214
 30
0.0
 40
15.40962349711438
100
AcDbArc
 50
359.283469817
 51
70.5361662492
  0
ARC
  5
116
330
1F
100
AcDbEntity
  8
0
  6
Continuous
 62
     7
370
    25
100
AcDbCircle
 10
-692.929569317
 20
438.9377721987
 30
0.0
 40
15.49601671490746
100
AcDbArc
 50
109.9265528359
 51
180.5137771935
  0
LINE
  5
117
330
1F
100
AcDbEntity
  8
0
  6
Continuous
 62
     7
370
    25
100
AcDbLine
 10
-677.4377478893
 20
438.2536711658
 30
0.0
 11
-677.4377478893
 21
438.8272476022
 31
0.0
  0
LINE
  5
118
330
1F
100
AcDbEntity
  8
0
  6
Continuous
 62
     7
370
    25
100
AcDbLine
 10
-708.4377478893
 20
438.8272476022
 30
0.0
 11
-708.4377478893
 21
438.2536711658
 31
0.0
  0
ARC
  5
119
330
1F
100
AcDbEntity
  8
0
  6
Continuous
 62
     7
370
    25
100
AcDbCircle
 10
-645.8038901409
 20
391.8506610461
 30
0.0
 40
15.46889792053993
100
AcDbArc
 50
269.4213955223
 51
353.6926962416
  0
ARC
  5
11A
330
1F
100
AcDbEntity
  8
0
  6
Continuous
 62
     7
370
    25
100
AcDbCircle
 10
-645.8809777362
 20
391.8129595493
 30
0.0
 40
15.53679672935415
100
AcDbArc
 50
12.092877842
 51
90.2916194166
  0
LINE
  5
11B
330
1F
100
AcDbEntity
  8
0
  6
Continuous
 62
     7
370
    25
100
AcDbLine
 10
-646.5336317604
 20
376.3495550369
 30
0.0
 11
-645.960055324
 21
376.3495550369
 31
0.0
  0
LINE
  5
11C
330
1F
100
AcDbEntity
  8
0
  6
Continuous
 62
     7
370
    25
100
AcDbLine
 10
-645.960055324
 20
407.3495550369
 30
0.0
 11
-646.5336317604
 21
407.3495550369
 31
0.0
  0
ARC
  5
11D
330
1F
100
AcDbEntity
  8
0
  6
Continuous
 62
     7
370
    25
100
AcDbCircle
 10
1238.3981015727
 20
-209.1504449631
 30
0.0
 40
16.29605263157875
100
AcDbArc
 50
315.1144932694
 51
0.0
  0
LINE
  5
11E
330
1F
100
AcDbEntity
  8
0
  6
Continuous
 62
     7
370
    25
100
AcDbLine
 10
1228.2601877024
 20
-220.4627383867
 30
0.0
 11
1228.4441542043
 21
-220.6504449631
 31
0.0
  0
LINE
  5
11F
330
1F
100
AcDbEntity
  8
0
  6
Continuous
 62
     7
370
    25
100
AcDbLine
 10
1254.6941542043
 20
-209.1504449631
 30
0.0
 11
1254.6941542043
 21
-208.1504449631
 31
0.0
  0
ARC
  5
120
330
1F
100
AcDbEntity
  8
0
  6
Continuous
 62
     7
370
    25
100
AcDbCircle
 10
-1419.989856225
 20
391.7890897876
 30
0.0
 40
15.56064318982077
100
AcDbArc
 50
89.7259929574
 51
169.526110992
  0
ARC
  5
121
330
1F
100
AcDbEntity
  8
0
  6
Continuous
 62
     7
370
    25
100
AcDbCircle
 10
-1420.0771019914
 20
391.8303058898
 30
0.0
 40
15.44859940314106
100
AcDbArc
 50
188.050957895
 51
270.59941208
  0
LINE
  5
122
330
1F
100
AcDbEntity
  8
0
  6
Continuous
 62
     7
370
    25
100
AcDbLine
 10
-1419.3418640183
 20
407.3495550369
 30
0.0
 11
-1419.9154404547
 21
407.3495550369
 31
0.0
  0
LINE
  5
123
330
1F
100
AcDbEntity
  8
0
  6
Continuous
 62
     7
370
    25
100
AcDbLine
 10
-1419.9154404547
 20
376.3495550369
 30
0.0
 11
-1419.3418640183
 21
376.3495550369
 31
0.0
  0
ARC
  5
124
330
1F
100
AcDbEntity
  8
0
  6
Continuous
 62
     7
370
    25
100
AcDbCircle
 10
-692.9312527807
 20
-335.2466414977
 30
0.0
 40
15.49397208227203
100
AcDbArc
 50
179.6669023305
 51
261.2043529263
  0
ARC
  5
125
330
1F
100
AcDbEntity
  8
0
  6
Continuous
 62
     7
370
    25
100
AcDbCircle
 10
-692.9652699657
 20
-335.2677001149
 30
0.0
 40
15.49541179600907
100
AcDbArc
 50
279.576754608
 51
0.4662013999
  0
LINE
  5
126
330
1F
100
AcDbEntity
  8
0
  6
Continuous
 62
     7
370
    25
100
AcDbLine
 10
-708.4377478894
 20
-334.5545610921
 30
0.0
 11
-708.4377478894
 21
-335.1281375285
 31
0.0
  0
LINE
  5
127
330
1F
100
AcDbEntity
  8
0
  6
Continuous
 62
     7
370
    25
100
AcDbLine
 10
-677.4377478894
 20
-335.1281375285
 30
0.0
 11
-677.4377478894
 21
-334.5545610921
 31
0.0
  0
ARC
  5
128
330
1F
100
AcDbEntity
  8
0
  6
Continuous
 62
     7
370
    25
100
AcDbCircle
 10
-1372.9312527807
 20
-335.2466414977
 30
0.0
 40
15.49397208227215
100
AcDbArc
 50
179.6669023305
 51
261.2043529263
  0
ARC
  5
129
330
1F
100
AcDbEntity
  8
0
  6
Continuous
 62
     7
370
    25
100
AcDbCircle
 10
-1372.9652699657
 20
-335.2677001149
 30
0.0
 40
15.49541179600929
100
AcDbArc
 50
279.5767546081
 51
0.4662013999
  0
LINE
  5
12A
330
1F
100
AcDbEntity
  8
0
  6
Continuous
 62
     7
370
    25
100
AcDbLine
 10
-1388.4377478893
 20
-334.5545610921
 30
0.0
 11
-1388.4377478893
 21
-335.1281375285
 31
0.0
  0
LINE
  5
12B
330
1F
100
AcDbEntity
  8
0
  6
Continuous
 62
     7
370
    25
100
AcDbLine
 10
-1357.4377478893
 20
-335.1281375285
 30
0.0
 11
-1357.4377478893
 21
-334.5545610921
 31
0.0
  0
LINE
  5
12C
330
1F
100
AcDbEntity
  8
0
  6
Continuous
 62
     7
370
    25
100
AcDbLine
 10
1228.4441542043
 20
324.3495550369
 30
0.0
 11
1228.2601877021
 21
324.1618484601
 31
0.0
  0
ARC
  5
12D
330
1F
100
AcDbEntity
  8
0
  6
Continuous
 62
     7
370
    25
100
AcDbCircle
 10
1238.3981015727
 20
312.8495550369
 30
0.0
 40
16.2960526315788
100
AcDbArc
 50
0.0
 51
44.8855067306
  0
LINE
  5
12E
330
1F
100
AcDbEntity
  8
0
  6
Continuous
 62
     7
370
    25
100
AcDbLine
 10
1254.6941542043
 20
311.8495550369
 30
0.0
 11
1254.6941542043
 21
312.8495550369
 31
0.0
  0
ARC
  5
12F
330
1F
100
AcDbEntity
  8
0
  6
Continuous
 62
     7
370
    25
100
AcDbCircle
 10
-1419.989856225
 20
-288.2109102124
 30
0.0
 40
15.56064318982055
100
AcDbArc
 50
89.7259929574
 51
169.526110992
  0
ARC
  5
130
330
1F
100
AcDbEntity
  8
0
  6
Continuous
 62
     7
370
    25
100
AcDbCircle
 10
-1420.0771019914
 20
-288.1696941102
 30
0.0
 40
15.44859940314039
100
AcDbArc
 50
188.050957895
 51
270.59941208
  0
LINE
  5
131
330
1F
100
AcDbEntity
  8
0
  6
Continuous
 62
     7
370
    25
100
AcDbLine
 10
-1419.3418640183
 20
-272.6504449631
 30
0.0
 11
-1419.9154404547
 21
-272.6504449631
 31
0.0
  0
LINE
  5
132
330
1F
100
AcDbEntity
  8
0
  6
Continuous
 62
     7
370
    25
100
AcDbLine
 10
-1419.9154404547
 20
-303.6504449631
 30
0.0
 11
-1419.3418640183
 21
-303.6504449631
 31
0.0
  0
LINE
  5
133
330
1F
100
AcDbEntity
  8
0
  6
Continuous
 62
     7
370
    25
100
AcDbLine
 10
-1426.5115694727
 20
-277.4004449631
 30
0.0
 11
-1426.8471977353
 21
-277.4004449631
 31
0.0
  0
LINE
  5
134
330
1F
100
AcDbEntity
  8
0
  6
Continuous
 62
     7
370
    25
100
AcDbLine
 10
-1426.8471977353
 20
-298.9004449631
 30
0.0
 11
-1426.5115694727
 21
-298.9004449631
 31
0.0
  0
ARC
  5
135
330
1F
100
AcDbEntity
  8
0
  6
Continuous
 62
     7
370
    25
100
AcDbCircle
 10
1227.1654414002
 20
324.9347050558
 30
0.0
 40
0.600000000000076
100
AcDbArc
 50
0.0
 51
69.7249467479
  0
ARC
  5
136
330
1F
100
AcDbEntity
  8
0
  6
Continuous
 62
     7
370
    25
100
AcDbCircle
 10
1249.3441542043
 20
324.9347050558
 30
0.0
 40
0.5999999999999972
100
AcDbArc
 50
0.0
 51
69.724946748
  0
ARC
  5
137
330
1F
100
AcDbEntity
  8
0
  6
Continuous
 62
     7
370
    25
100
AcDbCircle
 10
1229.0441542043
 20
324.9347050558
 30
0.0
 40
0.600000000000076
100
AcDbArc
 50
110.2750532521
 51
180.0
  0
LINE
  5
138
330
1F
100
AcDbEntity
  8
0
  6
Continuous
 62
     7
370
    25
100
AcDbLine
 10
1249.9441542043
 20
324.3495550369
 30
0.0
 11
1249.9441542043
 21
324.9347050558
 31
0.0
  0
LINE
  5
139
330
1F
100
AcDbEntity
  8
0
  6
Continuous
 62
     7
370
    25
100
AcDbLine
 10
1228.4441542043
 20
324.9347050558
 30
0.0
 11
1228.4441542043
 21
324.3495550369
 31
0.0
  0
ARC
  5
13A
330
1F
100
AcDbEntity
  8
0
  6
Continuous
 62
     7
370
    25
100
AcDbCircle
 10
1239.1941542043
 20
297.4589300369
 30
0.0
 40
29.890625
100
AcDbArc
 50
69.724946748
 51
110.275053252
  0
ARC
  5
13B
330
1F
100
AcDbEntity
  8
0
  6
Continuous
 62
     7
370
    25
100
AcDbCircle
 10
-692.7655187347
 20
442.8791265624
 30
0.0
 40
11.79552901513233
100
AcDbArc
 50
56.0408012919
 51
90.8366182074
  0
ARC
  5
13C
330
1F
100
AcDbEntity
  8
0
  6
Continuous
 62
     7
370
    25
100
AcDbCircle
 10
-693.0594598119
 20
442.6006676836
 30
0.0
 40
12.07334395598975
100
AcDbArc
 50
89.4223888901
 51
124.4237989217
  0
LINE
  5
13D
330
1F
100
AcDbEntity
  8
0
  6
Continuous
 62
     7
370
    25
100
AcDbLine
 10
-682.1877478893
 20
445.4233766202
 30
0.0
 11
-682.1877478893
 21
445.7590048828
 31
0.0
  0
LINE
  5
13E
330
1F
100
AcDbEntity
  8
0
  6
Continuous
 62
     7
370
    25
100
AcDbLine
 10
-703.6877478893
 20
445.7590048828
 30
0.0
 11
-703.6877478893
 21
445.4233766202
 31
0.0
  0
ARC
  5
13F
330
1F
100
AcDbEntity
  8
0
  6
Continuous
 62
     7
370
    25
100
AcDbCircle
 10
-1372.7655187347
 20
442.8791265624
 30
0.0
 40
11.7955290151311
100
AcDbArc
 50
56.0408012919
 51
90.8366182074
  0
ARC
  5
140
330
1F
100
AcDbEntity
  8
0
  6
Continuous
 62
     7
370
    25
100
AcDbCircle
 10
-1373.0594598119
 20
442.6006676836
 30
0.0
 40
12.0733439559885
100
AcDbArc
 50
89.4223888901
 51
124.4237989217
  0
LINE
  5
141
330
1F
100
AcDbEntity
  8
0
  6
Continuous
 62
     7
370
    25
100
AcDbLine
 10
-1362.1877478893
 20
445.4233766202
 30
0.0
 11
-1362.1877478893
 21
445.7590048828
 31
0.0
  0
LINE
  5
142
330
1F
100
AcDbEntity
  8
0
  6
Continuous
 62
     7
370
    25
100
AcDbLine
 10
-1383.6877478893
 20
445.7590048828
 30
0.0
 11
-1383.6877478893
 21
445.4233766202
 31
0.0
  0
LINE
  5
143
330
1F
100
AcDbEntity
  8
0
  6
Continuous
 62
     7
370
    25
100
AcDbLine
 10
-1383.6877478893
 20
-341.7242665465
 30
0.0
 11
-1383.6877478893
 21
-342.0598948091
 31
0.0
  0
LINE
  5
144
330
1F
100
AcDbEntity
  8
0
  6
Continuous
 62
     7
370
    25
100
AcDbLine
 10
-1362.1877478893
 20
-342.0598948091
 30
0.0
 11
-1362.1877478893
 21
-341.7242665465
 31
0.0
  0
ARC
  5
145
330
1F
100
AcDbEntity
  8
0
  6
Continuous
 62
     7
370
    25
100
AcDbCircle
 10
1227.1654414002
 20
-221.2355949821
 30
0.0
 40
0.600000000000076
100
AcDbArc
 50
290.2750532521
 51
0.0
  0
LINE
  5
146
330
1F
100
AcDbEntity
  8
0
  6
Continuous
 62
     7
370
    25
100
AcDbLine
 10
-703.6877478894
 20
-341.7242665465
 30
0.0
 11
-703.6877478894
 21
-342.0598948091
 31
0.0
  0
LINE
  5
147
330
1F
100
AcDbEntity
  8
0
  6
Continuous
 62
     7
370
    25
100
AcDbLine
 10
-682.1877478894
 20
-342.0598948091
 30
0.0
 11
-682.1877478894
 21
-341.7242665465
 31
0.0
  0
LINE
  5
148
330
1F
100
AcDbEntity
  8
0
  6
Continuous
 62
     7
370
    25
100
AcDbLine
 10
-639.363926306
 20
-298.9004449631
 30
0.0
 11
-639.0282980434
 21
-298.9004449631
 31
0.0
  0
LINE
  5
149
330
1F
100
AcDbEntity
  8
0
  6
Continuous
 62
     7
370
    25
100
AcDbLine
 10
-639.0282980434
 20
-277.4004449631
 30
0.0
 11
-639.363926306
 21
-277.4004449631
 31
0.0
  0
LINE
  5
14A
330
1F
100
AcDbEntity
  8
0
  6
Continuous
 62
     7
370
    25
100
AcDbLine
 10
-639.363926306
 20
381.0995550369
 30
0.0
 11
-639.0282980434
 21
381.0995550369
 31
0.0
  0
LINE
  5
14B
330
1F
100
AcDbEntity
  8
0
  6
Continuous
 62
     7
370
    25
100
AcDbLine
 10
-639.0282980434
 20
402.5995550369
 30
0.0
 11
-639.363926306
 21
402.5995550369
 31
0.0
  0
LINE
  5
14C
330
1F
100
AcDbEntity
  8
0
  6
Continuous
 62
     7
370
    25
100
AcDbLine
 10
1228.4441542043
 20
-220.6504449631
 30
0.0
 11
1228.4441542043
 21
-221.2355949821
 31
0.0
  0
LINE
  5
14D
330
1F
100
AcDbEntity
  8
0
  6
Continuous
 62
     7
370
    25
100
AcDbLine
 10
1249.9441542043
 20
-221.2355949821
 30
0.0
 11
1249.9441542043
 21
-220.6504449631
 31
0.0
  0
ARC
  5
14E
330
1F
100
AcDbEntity
  8
0
  6
Continuous
 62
     7
370
    25
100
AcDbCircle
 10
1229.0441542043
 20
-221.2355949821
 30
0.0
 40
0.600000000000076
100
AcDbArc
 50
180.0
 51
249.7249467479
  0
ARC
  5
14F
330
1F
100
AcDbEntity
  8
0
  6
Continuous
 62
     7
370
    25
100
AcDbCircle
 10
1249.3441542043
 20
-221.2355949821
 30
0.0
 40
0.5999999999999972
100
AcDbArc
 50
290.275053252
 51
0.0
  0
ARC
  5
150
330
1F
100
AcDbEntity
  8
0
  6
Continuous
 62
     7
370
    25
100
AcDbCircle
 10
1239.1941542043
 20
-193.7598199631
 30
0.0
 40
29.890625
100
AcDbArc
 50
249.724946748
 51
290.275053252
  0
LINE
  5
151
330
1F
100
AcDbEntity
  8
0
  6
Continuous
 62
     7
370
    25
100
AcDbLine
 10
-1426.5115694727
 20
402.5995550369
 30
0.0
 11
-1426.8471977353
 21
402.5995550369
 31
0.0
  0
LINE
  5
152
330
1F
100
AcDbEntity
  8
0
  6
Continuous
 62
     7
370
    25
100
AcDbLine
 10
-1426.8471977353
 20
381.0995550369
 30
0.0
 11
-1426.5115694727
 21
381.0995550369
 31
0.0
  0
ARC
  5
153
330
1F
100
AcDbEntity
  8
0
  6
Continuous
 62
     7
370
    25
100
AcDbCircle
 10
232.2138867372
 20
313.8495550369
 30
0.0
 40
19.87230769230774
100
AcDbArc
 50
0.0
 51
46.9233678463
  0
ARC
  5
154
330
1F
100
AcDbEntity
  8
0
  6
Continuous
 62
     7
370
    25
100
AcDbCircle
 10
231.9585021218
 20
313.8495550369
 30
0.0
 40
19.87230769230774
100
AcDbArc
 50
133.0766321537
 51
180.0
  0
LINE
  5
155
330
1F
100
AcDbEntity
  8
0
  6
Continuous
 62
     7
370
    25
100
AcDbLine
 10
252.0861944295
 20
311.8495550369
 30
0.0
 11
252.0861944295
 21
313.8495550369
 31
0.0
  0
LINE
  5
156
330
1F
100
AcDbEntity
  8
0
  6
Continuous
 62
     7
370
    25
100
AcDbLine
 10
212.0861944295
 20
313.8495550369
 30
0.0
 11
212.0861944295
 21
311.8495550369
 31
0.0
  0
ARC
  5
157
330
1F
100
AcDbEntity
  8
0
  6
Continuous
 62
     7
370
    25
100
AcDbCircle
 10
1211.2729802397
 20
313.8495550369
 30
0.0
 40
19.87230769230766
100
AcDbArc
 50
0.0
 51
46.9233678463
  0
ARC
  5
158
330
1F
100
AcDbEntity
  8
0
  6
Continuous
 62
     7
370
    25
100
AcDbCircle
 10
1211.0175956244
 20
313.8495550369
 30
0.0
 40
19.87230769230766
100
AcDbArc
 50
133.0766321537
 51
180.0
  0
LINE
  5
159
330
1F
100
AcDbEntity
  8
0
  6
Continuous
 62
     7
370
    25
100
AcDbLine
 10
1231.1452879321
 20
311.8495550369
 30
0.0
 11
1231.1452879321
 21
313.8495550369
 31
0.0
  0
LINE
  5
15A
330
1F
100
AcDbEntity
  8
0
  6
Continuous
 62
     7
370
    25
100
AcDbLine
 10
1191.1452879321
 20
313.8495550369
 30
0.0
 11
1191.1452879321
 21
311.8495550369
 31
0.0
  0
LINE
  5
15B
330
1F
100
AcDbEntity
  8
0
  6
Continuous
 62
     7
370
    25
100
AcDbLine
 10
1191.1452879321
 20
-208.1504449631
 30
0.0
 11
1191.1452879321
 21
-210.1504449631
 31
0.0
  0
LINE
  5
15C
330
1F
100
AcDbEntity
  8
0
  6
Continuous
 62
     7
370
    25
100
AcDbLine
 10
1231.1452879321
 20
-210.1504449631
 30
0.0
 11
1231.1452879321
 21
-208.1504449631
 31
0.0
  0
ARC
  5
15D
330
1F
100
AcDbEntity
  8
0
  6
Continuous
 62
     7
370
    25
100
AcDbCircle
 10
1211.0175956244
 20
-210.1504449631
 30
0.0
 40
19.87230769230766
100
AcDbArc
 50
180.0
 51
226.9233678463
  0
ARC
  5
15E
330
1F
100
AcDbEntity
  8
0
  6
Continuous
 62
     7
370
    25
100
AcDbCircle
 10
1211.2729802397
 20
-210.1504449631
 30
0.0
 40
19.87230769230766
100
AcDbArc
 50
313.0766321537
 51
0.0
  0
ARC
  5
15F
330
1F
100
AcDbEntity
  8
0
  6
Continuous
 62
     7
370
    25
100
AcDbCircle
 10
523.777595671
 20
313.8495550369
 30
0.0
 40
19.87230769230769
100
AcDbArc
 50
0.0
 51
46.9233678463
  0
ARC
  5
160
330
1F
100
AcDbEntity
  8
0
  6
Continuous
 62
     7
370
    25
100
AcDbCircle
 10
523.5222110557
 20
313.8495550369
 30
0.0
 40
19.87230769230769
100
AcDbArc
 50
133.0766321537
 51
180.0
  0
LINE
  5
161
330
1F
100
AcDbEntity
  8
0
  6
Continuous
 62
     7
370
    25
100
AcDbLine
 10
543.6499033633
 20
311.8495550369
 30
0.0
 11
543.6499033633
 21
313.8495550369
 31
0.0
  0
LINE
  5
162
330
1F
100
AcDbEntity
  8
0
  6
Continuous
 62
     7
370
    25
100
AcDbLine
 10
503.6499033633
 20
313.8495550369
 30
0.0
 11
503.6499033633
 21
311.8495550369
 31
0.0
  0
LINE
  5
163
330
1F
100
AcDbEntity
  8
0
  6
Continuous
 62
     7
370
    25
100
AcDbLine
 10
-79.4775145043
 20
-208.1504449631
 30
0.0
 11
-79.4775145043
 21
-210.1504449631
 31
0.0
  0
LINE
  5
164
330
1F
100
AcDbEntity
  8
0
  6
Continuous
 62
     7
370
    25
100
AcDbLine
 10
-39.4775145043
 20
-210.1504449631
 30
0.0
 11
-39.4775145043
 21
-208.1504449631
 31
0.0
  0
ARC
  5
165
330
1F
100
AcDbEntity
  8
0
  6
Continuous
 62
     7
370
    25
100
AcDbCircle
 10
-59.605206812
 20
-210.1504449631
 30
0.0
 40
19.87230769230774
100
AcDbArc
 50
180.0
 51
226.9233678463
  0
ARC
  5
166
330
1F
100
AcDbEntity
  8
0
  6
Continuous
 62
     7
370
    25
100
AcDbCircle
 10
-59.3498221966
 20
-210.1504449631
 30
0.0
 40
19.87230769230774
100
AcDbArc
 50
313.0766321537
 51
0.0
  0
LINE
  5
167
330
1F
100
AcDbEntity
  8
0
  6
Continuous
 62
     7
370
    25
100
AcDbLine
 10
503.6499033633
 20
-208.1504449631
 30
0.0
 11
503.6499033633
 21
-210.1504449631
 31
0.0
  0
LINE
  5
168
330
1F
100
AcDbEntity
  8
0
  6
Continuous
 62
     7
370
    25
100
AcDbLine
 10
543.6499033633
 20
-210.1504449631
 30
0.0
 11
543.6499033633
 21
-208.1504449631
 31
0.0
  0
ARC
  5
169
330
1F
100
AcDbEntity
  8
0
  6
Continuous
 62
     7
370
    25
100
AcDbCircle
 10
523.5222110557
 20
-210.1504449631
 30
0.0
 40
19.87230769230769
100
AcDbArc
 50
180.0
 51
226.9233678463
  0
ARC
  5
16A
330
1F
100
AcDbEntity
  8
0
  6
Continuous
 62
     7
370
    25
100
AcDbCircle
 10
523.777595671
 20
-210.1504449631
 30
0.0
 40
19.87230769230769
100
AcDbArc
 50
313.0766321537
 51
0.0
  0
ARC
  5
16B
330
1F
100
AcDbEntity
  8
0
  6
Continuous
 62
     7
370
    25
100
AcDbCircle
 10
812.073420804
 20
313.8495550369
 30
0.0
 40
19.87230769230766
100
AcDbArc
 50
0.0
 51
46.9233678463
  0
ARC
  5
16C
330
1F
100
AcDbEntity
  8
0
  6
Continuous
 62
     7
370
    25
100
AcDbCircle
 10
811.8180361886
 20
313.8495550369
 30
0.0
 40
19.87230769230774
100
AcDbArc
 50
133.0766321537
 51
180.0
  0
LINE
  5
16D
330
1F
100
AcDbEntity
  8
0
  6
Continuous
 62
     7
370
    25
100
AcDbLine
 10
831.9457284963
 20
311.8495550369
 30
0.0
 11
831.9457284963
 21
313.8495550369
 31
0.0
  0
LINE
  5
16E
330
1F
100
AcDbEntity
  8
0
  6
Continuous
 62
     7
370
    25
100
AcDbLine
 10
791.9457284963
 20
313.8495550369
 30
0.0
 11
791.9457284963
 21
311.8495550369
 31
0.0
  0
ARC
  5
16F
330
1F
100
AcDbEntity
  8
0
  6
Continuous
 62
     7
370
    25
100
AcDbCircle
 10
-59.3498221966
 20
313.8495550369
 30
0.0
 40
19.87230769230774
100
AcDbArc
 50
0.0
 51
46.9233678463
  0
ARC
  5
170
330
1F
100
AcDbEntity
  8
0
  6
Continuous
 62
     7
370
    25
100
AcDbCircle
 10
-59.605206812
 20
313.8495550369
 30
0.0
 40
19.87230769230774
100
AcDbArc
 50
133.0766321537
 51
180.0
  0
LINE
  5
171
330
1F
100
AcDbEntity
  8
0
  6
Continuous
 62
     7
370
    25
100
AcDbLine
 10
-39.4775145043
 20
311.8495550369
 30
0.0
 11
-39.4775145043
 21
313.8495550369
 31
0.0
  0
LINE
  5
172
330
1F
100
AcDbEntity
  8
0
  6
Continuous
 62
     7
370
    25
100
AcDbLine
 10
-79.4775145043
 20
313.8495550369
 30
0.0
 11
-79.4775145043
 21
311.8495550369
 31
0.0
  0
LINE
  5
173
330
1F
100
AcDbEntity
  8
0
  6
Continuous
 62
     7
370
    25
100
AcDbLine
 10
-371.0412234381
 20
-208.1504449631
 30
0.0
 11
-371.0412234381
 21
-210.1504449631
 31
0.0
  0
LINE
  5
174
330
1F
100
AcDbEntity
  8
0
  6
Continuous
 62
     7
370
    25
100
AcDbLine
 10
-331.0412234381
 20
-210.1504449631
 30
0.0
 11
-331.0412234381
 21
-208.1504449631
 31
0.0
  0
ARC
  5
175
330
1F
100
AcDbEntity
  8
0
  6
Continuous
 62
     7
370
    25
100
AcDbCircle
 10
-351.1689157458
 20
-210.1504449631
 30
0.0
 40
19.87230769230774
100
AcDbArc
 50
180.0
 51
226.9233678463
  0
ARC
  5
176
330
1F
100
AcDbEntity
  8
0
  6
Continuous
 62
     7
370
    25
100
AcDbCircle
 10
-350.9135311305
 20
-210.1504449631
 30
0.0
 40
19.87230769230774
100
AcDbArc
 50
313.0766321537
 51
0.0
  0
LINE
  5
177
330
1F
100
AcDbEntity
  8
0
  6
Continuous
 62
     7
370
    25
100
AcDbLine
 10
-331.0412234381
 20
311.8495550369
 30
0.0
 11
-331.0412234381
 21
313.8495550369
 31
0.0
  0
LINE
  5
178
330
1F
100
AcDbEntity
  8
0
  6
Continuous
 62
     7
370
    25
100
AcDbLine
 10
-371.0412234381
 20
313.8495550369
 30
0.0
 11
-371.0412234381
 21
311.8495550369
 31
0.0
  0
ARC
  5
179
330
1F
100
AcDbEntity
  8
0
  6
Continuous
 62
     7
370
    25
100
AcDbCircle
 10
-350.9135311305
 20
313.8495550369
 30
0.0
 40
19.87230769230774
100
AcDbArc
 50
0.0
 51
46.9233678463
  0
ARC
  5
17A
330
1F
100
AcDbEntity
  8
0
  6
Continuous
 62
     7
370
    25
100
AcDbCircle
 10
-351.1689157458
 20
313.8495550369
 30
0.0
 40
19.87230769230774
100
AcDbArc
 50
133.0766321537
 51
180.0
  0
ARC
  5
17B
330
1F
100
AcDbEntity
  8
0
  6
Continuous
 62
     7
370
    25
100
AcDbCircle
 10
231.9585021218
 20
-210.1504449631
 30
0.0
 40
19.87230769230774
100
AcDbArc
 50
180.0
 51
226.9233678463
  0
ARC
  5
17C
330
1F
100
AcDbEntity
  8
0
  6
Continuous
 62
     7
370
    25
100
AcDbCircle
 10
232.2138867372
 20
-210.1504449631
 30
0.0
 40
19.87230769230774
100
AcDbArc
 50
313.0766321537
 51
0.0
  0
LINE
  5
17D
330
1F
100
AcDbEntity
  8
0
  6
Continuous
 62
     7
370
    25
100
AcDbLine
 10
212.0861944295
 20
-208.1504449631
 30
0.0
 11
212.0861944295
 21
-210.1504449631
 31
0.0
  0
LINE
  5
17E
330
1F
100
AcDbEntity
  8
0
  6
Continuous
 62
     7
370
    25
100
AcDbLine
 10
252.0861944295
 20
-210.1504449631
 30
0.0
 11
252.0861944295
 21
-208.1504449631
 31
0.0
  0
ARC
  5
17F
330
1F
100
AcDbEntity
  8
0
  6
Continuous
 62
     7
370
    25
100
AcDbCircle
 10
1285.5941194338
 20
313.8495550369
 30
0.0
 40
19.87230769230766
100
AcDbArc
 50
0.0
 51
46.9233678463
  0
ARC
  5
180
330
1F
100
AcDbEntity
  8
0
  6
Continuous
 62
     7
370
    25
100
AcDbCircle
 10
1285.3387348184
 20
313.8495550369
 30
0.0
 40
19.87230769230766
100
AcDbArc
 50
133.0766321537
 51
180.0
  0
LINE
  5
181
330
1F
100
AcDbEntity
  8
0
  6
Continuous
 62
     7
370
    25
100
AcDbLine
 10
1305.4664271261
 20
311.8495550369
 30
0.0
 11
1305.4664271261
 21
313.8495550369
 31
0.0
  0
LINE
  5
182
330
1F
100
AcDbEntity
  8
0
  6
Continuous
 62
     7
370
    25
100
AcDbLine
 10
1265.4664271261
 20
313.8495550369
 30
0.0
 11
1265.4664271261
 21
311.8495550369
 31
0.0
  0
LINE
  5
183
330
1F
100
AcDbEntity
  8
0
  6
Continuous
 62
     7
370
    25
100
AcDbLine
 10
791.9457284963
 20
-208.1504449631
 30
0.0
 11
791.9457284963
 21
-210.1504449631
 31
0.0
  0
LINE
  5
184
330
1F
100
AcDbEntity
  8
0
  6
Continuous
 62
     7
370
    25
100
AcDbLine
 10
831.9457284963
 20
-210.1504449631
 30
0.0
 11
831.9457284963
 21
-208.1504449631
 31
0.0
  0
ARC
  5
185
330
1F
100
AcDbEntity
  8
0
  6
Continuous
 62
     7
370
    25
100
AcDbCircle
 10
811.8180361886
 20
-210.1504449631
 30
0.0
 40
19.87230769230774
100
AcDbArc
 50
180.0
 51
226.9233678463
  0
ARC
  5
186
330
1F
100
AcDbEntity
  8
0
  6
Continuous
 62
     7
370
    25
100
AcDbCircle
 10
812.073420804
 20
-210.1504449631
 30
0.0
 40
19.87230769230766
100
AcDbArc
 50
313.0766321537
 51
0.0
  0
LINE
  5
187
330
1F
100
AcDbEntity
  8
0
  6
Continuous
 62
     7
370
    25
100
AcDbLine
 10
1265.4664271261
 20
-208.1504449631
 30
0.0
 11
1265.4664271261
 21
-210.1504449631
 31
0.0
  0
LINE
  5
188
330
1F
100
AcDbEntity
  8
0
  6
Continuous
 62
     7
370
    25
100
AcDbLine
 10
1305.4664271261
 20
-210.1504449631
 30
0.0
 11
1305.4664271261
 21
-208.1504449631
 31
0.0
  0
ARC
  5
189
330
1F
100
AcDbEntity
  8
0
  6
Continuous
 62
     7
370
    25
100
AcDbCircle
 10
1285.3387348184
 20
-210.1504449631
 30
0.0
 40
19.87230769230766
100
AcDbArc
 50
180.0
 51
226.9233678463
  0
ARC
  5
18A
330
1F
100
AcDbEntity
  8
0
  6
Continuous
 62
     7
370
    25
100
AcDbCircle
 10
1285.5941194338
 20
-210.1504449631
 30
0.0
 40
19.87230769230766
100
AcDbArc
 50
313.0766321537
 51
0.0
  0
ARC
  5
18B
330
1F
100
AcDbEntity
  8
0
  6
Continuous
 62
     7
370
    25
100
AcDbCircle
 10
1224.2452879321
 20
328.9799463553
 30
0.0
 40
0.5999999999999556
100
AcDbArc
 50
0.0
 51
63.6246146768
  0
ARC
  5
18C
330
1F
100
AcDbEntity
  8
0
  6
Continuous
 62
     7
370
    25
100
AcDbCircle
 10
1198.0452879321
 20
328.9799463553
 30
0.0
 40
0.5999999999999556
100
AcDbArc
 50
116.3753853232
 51
180.0
  0
LINE
  5
18D
330
1F
100
AcDbEntity
  8
0
  6
Continuous
 62
     7
370
    25
100
AcDbLine
 10
1224.8452879321
 20
328.3651010797
 30
0.0
 11
1224.8452879321
 21
328.9799463553
 31
0.0
  0
LINE
  5
18E
330
1F
100
AcDbEntity
  8
0
  6
Continuous
 62
     7
370
    25
100
AcDbLine
 10
1197.4452879321
 20
328.9799463553
 30
0.0
 11
1197.4452879321
 21
328.3651010797
 31
0.0
  0
ARC
  5
18F
330
1F
100
AcDbEntity
  8
0
  6
Continuous
 62
     7
370
    25
100
AcDbCircle
 10
1211.1452879321
 20
302.561676249
 30
0.0
 40
30.08787878787884
100
AcDbArc
 50
63.6246146768
 51
116.3753853232
  0
LINE
  5
190
330
1F
100
AcDbEntity
  8
0
  6
Continuous
 62
     7
370
    25
100
AcDbLine
 10
537.3499033633
 20
328.3651010797
 30
0.0
 11
537.3499033633
 21
328.9799463553
 31
0.0
  0
LINE
  5
191
330
1F
100
AcDbEntity
  8
0
  6
Continuous
 62
     7
370
    25
100
AcDbLine
 10
509.9499033633
 20
328.9799463553
 30
0.0
 11
509.9499033633
 21
328.3651010797
 31
0.0
  0
ARC
  5
192
330
1F
100
AcDbEntity
  8
0
  6
Continuous
 62
     7
370
    25
100
AcDbCircle
 10
536.7499033633
 20
328.9799463553
 30
0.0
 40
0.5999999999999556
100
AcDbArc
 50
0.0
 51
63.6246146768
  0
ARC
  5
193
330
1F
100
AcDbEntity
  8
0
  6
Continuous
 62
     7
370
    25
100
AcDbCircle
 10
510.5499033633
 20
328.9799463553
 30
0.0
 40
0.5999999999999808
100
AcDbArc
 50
116.3753853232
 51
180.0
  0
ARC
  5
194
330
1F
100
AcDbEntity
  8
0
  6
Continuous
 62
     7
370
    25
100
AcDbCircle
 10
523.6499033633
 20
302.561676249
 30
0.0
 40
30.08787878787886
100
AcDbArc
 50
63.6246146768
 51
116.3753853232
  0
ARC
  5
195
330
1F
100
AcDbEntity
  8
0
  6
Continuous
 62
     7
370
    25
100
AcDbCircle
 10
1298.5664271261
 20
328.9799463553
 30
0.0
 40
0.5999999999999556
100
AcDbArc
 50
0.0
 51
63.6246146768
  0
ARC
  5
196
330
1F
100
AcDbEntity
  8
0
  6
Continuous
 62
     7
370
    25
100
AcDbCircle
 10
1272.3664271261
 20
328.9799463553
 30
0.0
 40
0.5999999999999556
100
AcDbArc
 50
116.3753853232
 51
180.0
  0
LINE
  5
197
330
1F
100
AcDbEntity
  8
0
  6
Continuous
 62
     7
370
    25
100
AcDbLine
 10
1299.1664271261
 20
328.3651010797
 30
0.0
 11
1299.1664271261
 21
328.9799463553
 31
0.0
  0
LINE
  5
198
330
1F
100
AcDbEntity
  8
0
  6
Continuous
 62
     7
370
    25
100
AcDbLine
 10
1271.7664271261
 20
328.9799463553
 30
0.0
 11
1271.7664271261
 21
328.3651010797
 31
0.0
  0
ARC
  5
199
330
1F
100
AcDbEntity
  8
0
  6
Continuous
 62
     7
370
    25
100
AcDbCircle
 10
1285.4664271261
 20
302.561676249
 30
0.0
 40
30.08787878787884
100
AcDbArc
 50
63.6246146768
 51
116.3753853232
  0
ARC
  5
19A
330
1F
100
AcDbEntity
  8
0
  6
Continuous
 62
     7
370
    25
100
AcDbCircle
 10
245.1861944295
 20
328.9799463553
 30
0.0
 40
0.5999999999999808
100
AcDbArc
 50
0.0
 51
63.6246146768
  0
ARC
  5
19B
330
1F
100
AcDbEntity
  8
0
  6
Continuous
 62
     7
370
    25
100
AcDbCircle
 10
218.9861944295
 20
328.9799463553
 30
0.0
 40
0.5999999999999808
100
AcDbArc
 50
116.3753853232
 51
180.0
  0
LINE
  5
19C
330
1F
100
AcDbEntity
  8
0
  6
Continuous
 62
     7
370
    25
100
AcDbLine
 10
245.7861944295
 20
328.3651010797
 30
0.0
 11
245.7861944295
 21
328.9799463553
 31
0.0
  0
LINE
  5
19D
330
1F
100
AcDbEntity
  8
0
  6
Continuous
 62
     7
370
    25
100
AcDbLine
 10
218.3861944295
 20
328.9799463553
 30
0.0
 11
218.3861944295
 21
328.3651010797
 31
0.0
  0
ARC
  5
19E
330
1F
100
AcDbEntity
  8
0
  6
Continuous
 62
     7
370
    25
100
AcDbCircle
 10
232.0861944295
 20
302.561676249
 30
0.0
 40
30.08787878787886
100
AcDbArc
 50
63.6246146768
 51
116.3753853232
  0
LINE
  5
19F
330
1F
100
AcDbEntity
  8
0
  6
Continuous
 62
     7
370
    25
100
AcDbLine
 10
1271.7664271261
 20
-224.665991006
 30
0.0
 11
1271.7664271261
 21
-225.2808362815
 31
0.0
  0
LINE
  5
1A0
330
1F
100
AcDbEntity
  8
0
  6
Continuous
 62
     7
370
    25
100
AcDbLine
 10
1299.1664271261
 20
-225.2808362815
 30
0.0
 11
1299.1664271261
 21
-224.665991006
 31
0.0
  0
ARC
  5
1A1
330
1F
100
AcDbEntity
  8
0
  6
Continuous
 62
     7
370
    25
100
AcDbCircle
 10
1272.3664271261
 20
-225.2808362815
 30
0.0
 40
0.599999999999909
100
AcDbArc
 50
180.0
 51
243.6246146768
  0
ARC
  5
1A2
330
1F
100
AcDbEntity
  8
0
  6
Continuous
 62
     7
370
    25
100
AcDbCircle
 10
1298.5664271261
 20
-225.2808362815
 30
0.0
 40
0.599999999999909
100
AcDbArc
 50
296.3753853232
 51
0.0
  0
ARC
  5
1A3
330
1F
100
AcDbEntity
  8
0
  6
Continuous
 62
     7
370
    25
100
AcDbCircle
 10
1285.4664271261
 20
-198.8625661753
 30
0.0
 40
30.08787878787871
100
AcDbArc
 50
243.6246146768
 51
296.3753853232
  0
LINE
  5
1A4
330
1F
100
AcDbEntity
  8
0
  6
Continuous
 62
     7
370
    25
100
AcDbLine
 10
798.2457284963
 20
-224.665991006
 30
0.0
 11
798.2457284963
 21
-225.2808362815
 31
0.0
  0
LINE
  5
1A5
330
1F
100
AcDbEntity
  8
0
  6
Continuous
 62
     7
370
    25
100
AcDbLine
 10
825.6457284963
 20
-225.2808362815
 30
0.0
 11
825.6457284963
 21
-224.665991006
 31
0.0
  0
ARC
  5
1A6
330
1F
100
AcDbEntity
  8
0
  6
Continuous
 62
     7
370
    25
100
AcDbCircle
 10
798.8457284963
 20
-225.2808362815
 30
0.0
 40
0.599999999999909
100
AcDbArc
 50
180.0
 51
243.6246146768
  0
ARC
  5
1A7
330
1F
100
AcDbEntity
  8
0
  6
Continuous
 62
     7
370
    25
100
AcDbCircle
 10
825.0457284963
 20
-225.2808362815
 30
0.0
 40
0.5999999999999551
100
AcDbArc
 50
296.3753853232
 51
0.0
  0
ARC
  5
1A8
330
1F
100
AcDbEntity
  8
0
  6
Continuous
 62
     7
370
    25
100
AcDbCircle
 10
811.9457284963
 20
-198.8625661753
 30
0.0
 40
30.08787878787876
100
AcDbArc
 50
243.6246146768
 51
296.3753853232
  0
ARC
  5
1A9
330
1F
100
AcDbEntity
  8
0
  6
Continuous
 62
     7
370
    25
100
AcDbCircle
 10
-72.5775145043
 20
-225.2808362815
 30
0.0
 40
0.6000000000000443
100
AcDbArc
 50
180.0
 51
243.6246146768
  0
ARC
  5
1AA
330
1F
100
AcDbEntity
  8
0
  6
Continuous
 62
     7
370
    25
100
AcDbCircle
 10
-46.3775145043
 20
-225.2808362815
 30
0.0
 40
0.6000000000000412
100
AcDbArc
 50
296.3753853232
 51
0.0
  0
LINE
  5
1AB
330
1F
100
AcDbEntity
  8
0
  6
Continuous
 62
     7
370
    25
100
AcDbLine
 10
-73.1775145043
 20
-224.665991006
 30
0.0
 11
-73.1775145043
 21
-225.2808362815
 31
0.0
  0
LINE
  5
1AC
330
1F
100
AcDbEntity
  8
0
  6
Continuous
 62
     7
370
    25
100
AcDbLine
 10
-45.7775145043
 20
-225.2808362815
 30
0.0
 11
-45.7775145043
 21
-224.665991006
 31
0.0
  0
ARC
  5
1AD
330
1F
100
AcDbEntity
  8
0
  6
Continuous
 62
     7
370
    25
100
AcDbCircle
 10
-59.4775145043
 20
-198.8625661753
 30
0.0
 40
30.08787878787873
100
AcDbArc
 50
243.6246146768
 51
296.3753853232
  0
LINE
  5
1AE
330
1F
100
AcDbEntity
  8
0
  6
Continuous
 62
     7
370
    25
100
AcDbLine
 10
825.6457284963
 20
328.3651010797
 30
0.0
 11
825.6457284963
 21
328.9799463553
 31
0.0
  0
LINE
  5
1AF
330
1F
100
AcDbEntity
  8
0
  6
Continuous
 62
     7
370
    25
100
AcDbLine
 10
798.2457284963
 20
328.9799463553
 30
0.0
 11
798.2457284963
 21
328.3651010797
 31
0.0
  0
ARC
  5
1B0
330
1F
100
AcDbEntity
  8
0
  6
Continuous
 62
     7
370
    25
100
AcDbCircle
 10
825.0457284963
 20
328.9799463553
 30
0.0
 40
0.600000000000006
100
AcDbArc
 50
0.0
 51
63.6246146768
  0
ARC
  5
1B1
330
1F
100
AcDbEntity
  8
0
  6
Continuous
 62
     7
370
    25
100
AcDbCircle
 10
798.8457284963
 20
328.9799463553
 30
0.0
 40
0.5999999999999556
100
AcDbArc
 50
116.3753853232
 51
180.0
  0
ARC
  5
1B2
330
1F
100
AcDbEntity
  8
0
  6
Continuous
 62
     7
370
    25
100
AcDbCircle
 10
811.9457284963
 20
302.561676249
 30
0.0
 40
30.08787878787889
100
AcDbArc
 50
63.6246146768
 51
116.3753853232
  0
LINE
  5
1B3
330
1F
100
AcDbEntity
  8
0
  6
Continuous
 62
     7
370
    25
100
AcDbLine
 10
509.9499033633
 20
-224.665991006
 30
0.0
 11
509.9499033633
 21
-225.2808362815
 31
0.0
  0
LINE
  5
1B4
330
1F
100
AcDbEntity
  8
0
  6
Continuous
 62
     7
370
    25
100
AcDbLine
 10
537.3499033633
 20
-225.2808362815
 30
0.0
 11
537.3499033633
 21
-224.665991006
 31
0.0
  0
ARC
  5
1B5
330
1F
100
AcDbEntity
  8
0
  6
Continuous
 62
     7
370
    25
100
AcDbCircle
 10
510.5499033633
 20
-225.2808362815
 30
0.0
 40
0.5999999999999298
100
AcDbArc
 50
180.0
 51
243.6246146768
  0
ARC
  5
1B6
330
1F
100
AcDbEntity
  8
0
  6
Continuous
 62
     7
370
    25
100
AcDbCircle
 10
536.7499033633
 20
-225.2808362815
 30
0.0
 40
0.599999999999909
100
AcDbArc
 50
296.3753853232
 51
0.0
  0
ARC
  5
1B7
330
1F
100
AcDbEntity
  8
0
  6
Continuous
 62
     7
370
    25
100
AcDbCircle
 10
523.6499033633
 20
-198.8625661753
 30
0.0
 40
30.08787878787873
100
AcDbArc
 50
243.6246146768
 51
296.3753853232
  0
ARC
  5
1B8
330
1F
100
AcDbEntity
  8
0
  6
Continuous
 62
     7
370
    25
100
AcDbCircle
 10
-364.1412234381
 20
-225.2808362815
 30
0.0
 40
0.6000000000000569
100
AcDbArc
 50
180.0
 51
243.6246146768
  0
ARC
  5
1B9
330
1F
100
AcDbEntity
  8
0
  6
Continuous
 62
     7
370
    25
100
AcDbCircle
 10
-337.9412234381
 20
-225.2808362815
 30
0.0
 40
0.6000000000000317
100
AcDbArc
 50
296.3753853232
 51
0.0
  0
LINE
  5
1BA
330
1F
100
AcDbEntity
  8
0
  6
Continuous
 62
     7
370
    25
100
AcDbLine
 10
-364.7412234381
 20
-224.665991006
 30
0.0
 11
-364.7412234381
 21
-225.2808362815
 31
0.0
  0
LINE
  5
1BB
330
1F
100
AcDbEntity
  8
0
  6
Continuous
 62
     7
370
    25
100
AcDbLine
 10
-337.3412234381
 20
-225.2808362815
 30
0.0
 11
-337.3412234381
 21
-224.665991006
 31
0.0
  0
ARC
  5
1BC
330
1F
100
AcDbEntity
  8
0
  6
Continuous
 62
     7
370
    25
100
AcDbCircle
 10
-351.0412234381
 20
-198.8625661753
 30
0.0
 40
30.08787878787873
100
AcDbArc
 50
243.6246146768
 51
296.3753853232
  0
LINE
  5
1BD
330
1F
100
AcDbEntity
  8
0
  6
Continuous
 62
     7
370
    25
100
AcDbLine
 10
-337.3412234381
 20
328.3651010797
 30
0.0
 11
-337.3412234381
 21
328.9799463553
 31
0.0
  0
LINE
  5
1BE
330
1F
100
AcDbEntity
  8
0
  6
Continuous
 62
     7
370
    25
100
AcDbLine
 10
-364.7412234381
 20
328.9799463553
 30
0.0
 11
-364.7412234381
 21
328.3651010797
 31
0.0
  0
ARC
  5
1BF
330
1F
100
AcDbEntity
  8
0
  6
Continuous
 62
     7
370
    25
100
AcDbCircle
 10
-337.9412234381
 20
328.9799463553
 30
0.0
 40
0.5999999999999808
100
AcDbArc
 50
0.0
 51
63.6246146768
  0
ARC
  5
1C0
330
1F
100
AcDbEntity
  8
0
  6
Continuous
 62
     7
370
    25
100
AcDbCircle
 10
-364.1412234381
 20
328.9799463553
 30
0.0
 40
0.600000000000006
100
AcDbArc
 50
116.3753853232
 51
180.0
  0
ARC
  5
1C1
330
1F
100
AcDbEntity
  8
0
  6
Continuous
 62
     7
370
    25
100
AcDbCircle
 10
-351.0412234381
 20
302.561676249
 30
0.0
 40
30.08787878787886
100
AcDbArc
 50
63.6246146768
 51
116.3753853232
  0
LINE
  5
1C2
330
1F
100
AcDbEntity
  8
0
  6
Continuous
 62
     7
370
    25
100
AcDbLine
 10
1197.4452879321
 20
-224.665991006
 30
0.0
 11
1197.4452879321
 21
-225.2808362815
 31
0.0
  0
LINE
  5
1C3
330
1F
100
AcDbEntity
  8
0
  6
Continuous
 62
     7
370
    25
100
AcDbLine
 10
1224.8452879321
 20
-225.2808362815
 30
0.0
 11
1224.8452879321
 21
-224.665991006
 31
0.0
  0
ARC
  5
1C4
330
1F
100
AcDbEntity
  8
0
  6
Continuous
 62
     7
370
    25
100
AcDbCircle
 10
1198.0452879321
 20
-225.2808362815
 30
0.0
 40
0.599999999999909
100
AcDbArc
 50
180.0
 51
243.6246146768
  0
ARC
  5
1C5
330
1F
100
AcDbEntity
  8
0
  6
Continuous
 62
     7
370
    25
100
AcDbCircle
 10
1224.2452879321
 20
-225.2808362815
 30
0.0
 40
0.599999999999909
100
AcDbArc
 50
296.3753853232
 51
0.0
  0
ARC
  5
1C6
330
1F
100
AcDbEntity
  8
0
  6
Continuous
 62
     7
370
    25
100
AcDbCircle
 10
1211.1452879321
 20
-198.8625661753
 30
0.0
 40
30.08787878787871
100
AcDbArc
 50
243.6246146768
 51
296.3753853232
  0
ARC
  5
1C7
330
1F
100
AcDbEntity
  8
0
  6
Continuous
 62
     7
370
    25
100
AcDbCircle
 10
218.9861944295
 20
-225.2808362815
 30
0.0
 40
0.5999999999999298
100
AcDbArc
 50
180.0
 51
243.6246146768
  0
ARC
  5
1C8
330
1F
100
AcDbEntity
  8
0
  6
Continuous
 62
     7
370
    25
100
AcDbCircle
 10
245.1861944295
 20
-225.2808362815
 30
0.0
 40
0.5999999999999375
100
AcDbArc
 50
296.3753853232
 51
0.0
  0
LINE
  5
1C9
330
1F
100
AcDbEntity
  8
0
  6
Continuous
 62
     7
370
    25
100
AcDbLine
 10
218.3861944295
 20
-224.665991006
 30
0.0
 11
218.3861944295
 21
-225.2808362815
 31
0.0
  0
LINE
  5
1CA
330
1F
100
AcDbEntity
  8
0
  6
Continuous
 62
     7
370
    25
100
AcDbLine
 10
245.7861944295
 20
-225.2808362815
 30
0.0
 11
245.7861944295
 21
-224.665991006
 31
0.0
  0
ARC
  5
1CB
330
1F
100
AcDbEntity
  8
0
  6
Continuous
 62
     7
370
    25
100
AcDbCircle
 10
232.0861944295
 20
-198.8625661753
 30
0.0
 40
30.08787878787873
100
AcDbArc
 50
243.6246146768
 51
296.3753853232
  0
ARC
  5
1CC
330
1F
100
AcDbEntity
  8
0
  6
Continuous
 62
     7
370
    25
100
AcDbCircle
 10
-46.3775145043
 20
328.9799463553
 30
0.0
 40
0.5999999999999902
100
AcDbArc
 50
0.0
 51
63.6246146768
  0
ARC
  5
1CD
330
1F
100
AcDbEntity
  8
0
  6
Continuous
 62
     7
370
    25
100
AcDbCircle
 10
-72.5775145043
 20
328.9799463553
 30
0.0
 40
0.5999999999999934
100
AcDbArc
 50
116.3753853232
 51
180.0
  0
LINE
  5
1CE
330
1F
100
AcDbEntity
  8
0
  6
Continuous
 62
     7
370
    25
100
AcDbLine
 10
-45.7775145043
 20
328.3651010797
 30
0.0
 11
-45.7775145043
 21
328.9799463553
 31
0.0
  0
LINE
  5
1CF
330
1F
100
AcDbEntity
  8
0
  6
Continuous
 62
     7
370
    25
100
AcDbLine
 10
-73.1775145043
 20
328.9799463553
 30
0.0
 11
-73.1775145043
 21
328.3651010797
 31
0.0
  0
ARC
  5
1D0
330
1F
100
AcDbEntity
  8
0
  6
Continuous
 62
     7
370
    25
100
AcDbCircle
 10
-59.4775145043
 20
302.561676249
 30
0.0
 40
30.08787878787886
100
AcDbArc
 50
63.6246146768
 51
116.3753853232
  0
ARC
  5
1D1
330
1F
100
AcDbEntity
  8
0
  6
Continuous
 62
     7
370
    25
100
AcDbCircle
 10
1355.5372381716
 20
308.8495550369
 30
0.0
 40
3.0
100
AcDbArc
 50
0.0
 51
90.0
  0
LINE
  5
1D2
330
1F
100
AcDbEntity
  8
0
  6
Continuous
 62
     7
370
    25
100
AcDbLine
 10
1358.5372381716
 20
299.8495550369
 30
0.0
 11
1358.5372381716
 21
308.8495550369
 31
0.0
  0
ARC
  5
1D3
330
1F
100
AcDbEntity
  8
0
  6
Continuous
 62
     7
370
    25
100
AcDbCircle
 10
1355.5372381716
 20
299.8495550369
 30
0.0
 40
3.0
100
AcDbArc
 50
270.0
 51
0.0
  0
LINE
  5
1D4
330
1F
100
AcDbEntity
  8
0
  6
Continuous
 62
     7
370
    25
100
AcDbLine
 10
1302.1244612624
 20
-193.1504449631
 30
0.0
 11
1302.1244612624
 21
296.8495550369
 31
0.0
  0
LINE
  5
1D5
330
1F
100
AcDbEntity
  8
0
  6
Continuous
 62
     7
370
    25
100
AcDbLine
 10
-1382.6494351163
 20
401.9873005806
 30
0.0
 11
-1382.9377478893
 21
401.8495550369
 31
0.0
  0
LINE
  5
1D6
330
1F
100
AcDbEntity
  8
0
  6
Continuous
 62
     7
370
    25
100
AcDbLine
 10
-1382.9377478893
 20
401.8495550369
 30
0.0
 11
-1382.0306080665
 21
401.428725687
 31
0.0
  0
LINE
  5
1D7
330
1F
100
AcDbEntity
  8
0
  6
Continuous
 62
     7
370
    25
100
AcDbLine
 10
-1382.0306080665
 20
-297.7296156133
 30
0.0
 11
-1382.9377478893
 21
-298.1504449631
 31
0.0
  0
LINE
  5
1D8
330
1F
100
AcDbEntity
  8
0
  6
Continuous
 62
     7
370
    25
100
AcDbLine
 10
-1382.9377478893
 20
-298.1504449631
 30
0.0
 11
-1382.6494351163
 21
-298.2881905068
 31
0.0
  0
LINE
  5
1D9
330
1F
100
AcDbEntity
  8
0
  6
Continuous
 62
     7
370
    25
100
AcDbLine
 10
-1422.9377478893
 20
-1838.1504449631
 30
0.0
 11
-642.9377478894
 21
-1838.1504449631
 31
0.0
  0
ARC
  5
1DA
330
1F
100
AcDbEntity
  8
0
  6
Continuous
 62
     7
370
    25
100
AcDbCircle
 10
-1422.9377478893
 20
-338.1504449631
 30
0.0
 40
1500.0
100
AcDbArc
 50
180.0
 51
270.0
  0
LINE
  5
1DB
330
1F
100
AcDbEntity
  8
0
  6
Continuous
 62
     7
370
    25
100
AcDbLine
 10
-2922.9377478893
 20
441.8495550369
 30
0.0
 11
-2922.9377478893
 21
-338.1504449631
 31
0.0
  0
ARC
  5
1DC
330
1F
100
AcDbEntity
  8
0
  6
Continuous
 62
     7
370
    25
100
AcDbCircle
 10
-1422.9377478893
 20
441.8495550369
 30
0.0
 40
1500.0
100
AcDbArc
 50
151.6460619235
 51
180.0
  0
LINE
  5
1DD
330
1F
100
AcDbEntity
  8
0
  6
Continuous
 62
     7
370
    25
100
AcDbLine
 10
-722.9377478893
 20
2115.8279607326
 30
0.0
 11
-1342.9377478893
 21
2115.8279607326
 31
0.0
  0
ARC
  5
1DE
330
1F
100
AcDbEntity
  8
0
  6
Continuous
 62
     7
370
    25
100
AcDbCircle
 10
167.7372442908
 20
311.8495550369
 30
0.0
 40
1500.0
100
AcDbArc
 50
41.8103148958
 51
89.4384759734
  0
LINE
  5
1DF
330
1F
100
AcDbEntity
  8
0
  6
Continuous
 62
     7
370
    25
100
AcDbLine
 10
2358.5372381716
 20
1311.8495550369
 30
0.0
 11
1285.7712330407
 21
1311.8495550369
 31
0.0
  0
ARC
  5
1E0
330
1F
100
AcDbEntity
  8
0
  6
Continuous
 62
     7
370
    25
100
AcDbCircle
 10
2358.5372381716
 20
311.8495550369
 30
0.0
 40
1000.0
100
AcDbArc
 50
0.0
 51
90.0
  0
LINE
  5
1E1
330
1F
100
AcDbEntity
  8
0
  6
Continuous
 62
     7
370
    25
100
AcDbLine
 10
3358.5372381716
 20
-208.1504449631
 30
0.0
 11
3358.5372381716
 21
311.8495550369
 31
0.0
  0
ARC
  5
1E2
330
1F
100
AcDbEntity
  8
0
  6
Continuous
 62
     7
370
    25
100
AcDbCircle
 10
2358.5372381716
 20
-208.1504449631
 30
0.0
 40
1000.000000000001
100
AcDbArc
 50
270.0
 51
0.0
  0
LINE
  5
1E3
330
1F
100
AcDbEntity
  8
0
  6
Continuous
 62
     7
370
    25
100
AcDbLine
 10
1285.7712330407
 20
-1208.1504449631
 30
0.0
 11
2358.5372381716
 21
-1208.1504449631
 31
0.0
  0
ARC
  5
1E4
330
1F
100
AcDbEntity
  8
0
  6
Continuous
 62
     7
370
    25
100
AcDbCircle
 10
167.7372442908
 20
-208.1504449631
 30
0.0
 40
1500.0
100
AcDbArc
 50
270.0
 51
318.1896851042
  0
LINE
  5
1E5
330
1F
100
AcDbEntity
  8
0
  6
Continuous
 62
     7
370
    25
100
AcDbLine
 10
-32.1186257263
 20
-1708.1504449631
 30
0.0
 11
167.7372442908
 21
-1708.1504449631
 31
0.0
  0
ARC
  5
1E6
330
1F
100
AcDbEntity
  8
0
  6
Continuous
 62
     7
370
    25
100
AcDbCircle
 10
-642.9377478893
 20
-338.1504449631
 30
0.0
 40
1500.0
100
AcDbArc
 50
270.0
 51
294.0298638405
  0
ARC
  5
1E7
330
1F
100
AcDbEntity
  8
0
  6
Continuous
 62
     7
370
    25
100
AcDbCircle
 10
-722.9377478893
 20
615.8279607326
 30
0.0
 40
1500.0
100
AcDbArc
 50
52.8730114261
 51
90.0
  0
ARC
  5
1E8
330
1F
100
AcDbEntity
  8
0
  6
Continuous
 62
     7
370
    25
100
AcDbCircle
 10
-1342.9377478893
 20
615.8279607326
 30
0.0
 40
1500.000000000001
100
AcDbArc
 50
90.0
 51
158.9654236068
  0
LINE
  5
1E9
330
1F
100
AcDbEntity
  8
0
  6
Continuous
 62
     7
370
    25
100
AcDbLine
 10
-1335.9377478893
 20
355.2378595887
 30
0.0
 11
-1335.9377478893
 21
354.4615640708
 31
0.0
  0
LINE
  5
1EA
330
1F
100
AcDbEntity
  8
0
  6
Continuous
 62
     7
370
    25
100
AcDbLine
 10
-1342.9377478893
 20
361.455911033
 30
0.0
 11
-1342.9377478893
 21
362.2435171954
 31
0.0
  0
LINE
  5
1EB
330
1F
100
AcDbEntity
  8
0
  6
Continuous
 62
     7
370
    25
100
AcDbLine
 10
-722.9377478893
 20
362.2435171954
 30
0.0
 11
-722.9377478893
 21
361.455911033
 31
0.0
  0
LINE
  5
1EC
330
1F
100
AcDbEntity
  8
0
  6
Continuous
 62
     7
370
    25
100
AcDbLine
 10
-729.9377478893
 20
354.4615640708
 30
0.0
 11
-729.9377478893
 21
355.2378595887
 31
0.0
  0
LINE
  5
1ED
330
1F
100
AcDbEntity
  8
0
  6
Continuous
 62
     7
370
    25
100
AcDbLine
 10
-722.4377478893
 20
585.4698889874
 30
0.0
 11
-722.4377478893
 21
589.3268919401
 31
0.0
  0
LINE
  5
1EE
330
1F
100
AcDbEntity
  8
0
  6
Continuous
 62
     7
370
    25
100
AcDbLine
 10
-722.4377478893
 20
581.6268919401
 30
0.0
 11
-722.4377478893
 21
585.4698889874
 31
0.0
  0
LINE
  5
1EF
330
1F
100
AcDbEntity
  8
0
  6
Continuous
 62
     7
370
    25
100
AcDbLine
 10
-721.8929411086
 20
583.5262916877
 30
0.0
 11
-721.8929411086
 21
585.4727993054
 31
0.0
  0
LINE
  5
1F0
330
1F
100
AcDbEntity
  8
0
  6
Continuous
 62
     7
370
    25
100
AcDbLine
 10
-721.8929411086
 20
583.2268919401
 30
0.0
 11
-721.8929411086
 21
583.5262916877
 31
0.0
  0
LINE
  5
1F1
330
1F
100
AcDbEntity
  8
0
  6
Continuous
 62
     7
370
    25
100
AcDbLine
 10
-721.8929411086
 20
587.4233995578
 30
0.0
 11
-721.8929411086
 21
587.7268919401
 31
0.0
  0
LINE
  5
1F2
330
1F
100
AcDbEntity
  8
0
  6
Continuous
 62
     7
370
    25
100
AcDbLine
 10
-721.8929411086
 20
585.4727993054
 30
0.0
 11
-721.8929411086
 21
587.4233995578
 31
0.0
  0
LINE
  5
1F3
330
1F
100
AcDbEntity
  8
0
  6
Continuous
 62
     7
370
    25
100
AcDbLine
 10
-1344.83255467
 20
587.4274921926
 30
0.0
 11
-1344.83255467
 21
585.4809845749
 31
0.0
  0
LINE
  5
1F4
330
1F
100
AcDbEntity
  8
0
  6
Continuous
 62
     7
370
    25
100
AcDbLine
 10
-1344.83255467
 20
587.7268919402
 30
0.0
 11
-1344.83255467
 21
587.4274921926
 31
0.0
  0
LINE
  5
1F5
330
1F
100
AcDbEntity
  8
0
  6
Continuous
 62
     7
370
    25
100
AcDbLine
 10
-1344.83255467
 20
583.5303843225
 30
0.0
 11
-1344.83255467
 21
583.2268919402
 31
0.0
  0
LINE
  5
1F6
330
1F
100
AcDbEntity
  8
0
  6
Continuous
 62
     7
370
    25
100
AcDbLine
 10
-1344.83255467
 20
585.4809845749
 30
0.0
 11
-1344.83255467
 21
583.5303843225
 31
0.0
  0
LINE
  5
1F7
330
1F
100
AcDbEntity
  8
0
  6
Continuous
 62
     7
370
    25
100
AcDbLine
 10
-1344.2877478893
 20
585.4838948929
 30
0.0
 11
-1344.2877478893
 21
581.6268919402
 31
0.0
  0
LINE
  5
1F8
330
1F
100
AcDbEntity
  8
0
  6
Continuous
 62
     7
370
    25
100
AcDbLine
 10
-1344.2877478893
 20
589.3268919402
 30
0.0
 11
-1344.2877478893
 21
585.4838948929
 31
0.0
  0
LINE
  5
1F9
330
1F
100
AcDbEntity
  8
0
  6
Continuous
 62
     7
370
    25
100
AcDbLine
 10
-1343.7877478893
 20
585.4838948929
 30
0.0
 11
-1343.7877478893
 21
581.6268919402
 31
0.0
  0
LINE
  5
1FA
330
1F
100
AcDbEntity
  8
0
  6
Continuous
 62
     7
370
    25
100
AcDbLine
 10
-1343.7877478893
 20
589.3268919402
 30
0.0
 11
-1343.7877478893
 21
585.4838948929
 31
0.0
  0
LWPOLYLINE
  5
1FB
330
1F
100
AcDbEntity
  8
0
  6
Continuous
 62
     7
370
    25
100
AcDbPolyline
 90
       17
 70
   128
 43
0.0
 10
-1225.1061827265
 20
508.9300862703
 10
-1219.7768308768
 20
509.2900117332
 10
-1214.3445457787
 20
509.5961880169
 10
-1208.8260851972
 20
509.8476706145
 10
-1203.2384727349
 20
510.0436837408
 10
-1197.5989453179
 20
510.1836227255
 10
-1191.9249000216
 20
510.2670558783
 10
-1186.2338404037
 20
510.2937258208
 10
-1180.5433225088
 20
510.2635502803
 10
-1174.8709007102
 20
510.1766223436
 10
-1169.2340735573
 20
510.0332101702
 10
-1163.6502297959
 20
509.8337561645
 10
-1158.1365947259
 20
509.5788756114
 10
-1152.7101770642
 20
509.2693547785
 10
-1147.3877164755
 20
508.9061484897
 10
-1142.1856319328
 20
508.4903771808
 10
-1137.1199710675
 20
508.0233234423
  0
ARC
  5
1FC
330
1F
100
AcDbEntity
  8
0
  6
Continuous
 62
     7
370
    25
100
AcDbCircle
 10
-1131.0034521883
 20
560.9075630646
 30
0.0
 40
53.23677867444786
100
AcDbArc
 50
263.4025620353
 51
282.3605298005
  0
ARC
  5
1FD
330
1F
100
AcDbEntity
  8
0
  6
Continuous
 62
     7
370
    25
100
AcDbCircle
 10
-1229.9366603218
 20
570.8089618393
 30
0.0
 40
62.067131039564
100
AcDbArc
 50
261.5374928184
 51
274.4636530423
  0
LWPOLYLINE
  5
1FE
330
1F
100
AcDbEntity
  8
0
  6
Continuous
 62
     7
370
    25
100
AcDbPolyline
 90
        5
 70
   128
 43
0.0
 10
-1119.6074563058
 20
508.9048142769
 10
-1116.9497414675
 20
509.892304438
 10
-1115.0970558771
 20
510.9469198387
 10
-1114.0754338949
 20
512.0604162912
 10
-1113.9624834852
 20
512.8590766241
  0
LWPOLYLINE
  5
1FF
330
1F
100
AcDbEntity
  8
0
  6
Continuous
 62
     7
370
    25
100
AcDbPolyline
 90
        8
 70
   128
 43
0.0
 10
-1261.9576685631
 20
518.0592880178
 10
-1261.6481505647
 20
516.9847945142
 10
-1260.3534854382
 20
515.7295869261
 10
-1258.1049712654
 20
514.4569707212
 10
-1254.9080604055
 20
513.1856499034
 10
-1250.5687612808
 20
511.8765149897
 10
-1245.2651684621
 20
510.6129878899
 10
-1239.0705955087
 20
509.4175945025
  0
LWPOLYLINE
  5
200
330
1F
100
AcDbEntity
  8
0
  6
Continuous
 62
     7
370
    25
100
AcDbPolyline
 90
       17
 70
   128
 43
0.0
 10
-915.1061827265
 20
565.5605021716
 10
-909.7768308768
 20
565.9204276346
 10
-904.3445457787
 20
566.2266039183
 10
-898.8260851972
 20
566.4780865158
 10
-893.2384727349
 20
566.6740996422
 10
-887.5989453179
 20
566.8140386269
 10
-881.9249000216
 20
566.8974717797
 10
-876.2338404037
 20
566.9241417222
 10
-870.5433225088
 20
566.8939661816
 10
-864.8709007102
 20
566.807038245
 10
-859.2340735573
 20
566.6636260715
 10
-853.6502297959
 20
566.4641720658
 10
-848.1365947259
 20
566.2092915128
 10
-842.7101770642
 20
565.8997706798
 10
-837.3877164755
 20
565.5365643911
 10
-832.1856319328
 20
565.1207930822
 10
-827.1199710675
 20
564.6537393437
  0
ARC
  5
201
330
1F
100
AcDbEntity
  8
0
  6
Continuous
 62
     7
370
    25
100
AcDbCircle
 10
-821.0034521883
 20
617.537978966
 30
0.0
 40
53.23677867444408
100
AcDbArc
 50
263.4025620353
 51
282.3605298005
  0
ARC
  5
202
330
1F
100
AcDbEntity
  8
0
  6
Continuous
 62
     7
370
    25
100
AcDbCircle
 10
-919.9366603218
 20
627.4393777406
 30
0.0
 40
62.06713103955405
100
AcDbArc
 50
261.5374928184
 51
274.4636530423
  0
LWPOLYLINE
  5
203
330
1F
100
AcDbEntity
  8
0
  6
Continuous
 62
     7
370
    25
100
AcDbPolyline
 90
        5
 70
   128
 43
0.0
 10
-809.6074563058
 20
565.5352301783
 10
-806.9497414675
 20
566.5227203393
 10
-805.0970558771
 20
567.5773357401
 10
-804.0754338949
 20
568.6908321926
 10
-803.9624834852
 20
569.4894925255
  0
LWPOLYLINE
  5
204
330
1F
100
AcDbEntity
  8
0
  6
Continuous
 62
     7
370
    25
100
AcDbPolyline
 90
        8
 70
   128
 43
0.0
 10
-951.9576685631
 20
574.6897039192
 10
-951.6481505647
 20
573.6152104156
 10
-950.3534854382
 20
572.3600028275
 10
-948.1049712654
 20
571.0873866226
 10
-944.9080604055
 20
569.8160658047
 10
-940.5687612808
 20
568.5069308911
 10
-935.2651684621
 20
567.2434037912
 10
-929.0705955087
 20
566.0480104038
  0
ARC
  5
205
330
1F
100
AcDbEntity
  8
0
  6
Continuous
 62
     7
370
    25
100
AcDbCircle
 10
-1166.7152067772
 20
467.8019443134
 30
0.0
 40
87.87830505764235
100
AcDbArc
 50
84.1526368848
 51
100.4715690432
  0
LWPOLYLINE
  5
206
330
1F
100
AcDbEntity
  8
0
  6
Continuous
 62
     7
370
    25
100
AcDbPolyline
 90
       16
 70
   128
 43
0.0
 10
-1113.5437512954
 20
537.7872734319
 10
-1110.3751014481
 20
538.9723648073
 10
-1108.20693568
 20
540.2283004485
 10
-1107.20311592
 20
541.2934684955
 10
-1106.8734894739
 20
542.3759565423
 10
-1107.189610158
 20
543.4556220012
 10
-1108.3764235488
 20
544.7364942626
 10
-1110.3596974961
 20
545.9898679432
 10
-1113.0443291755
 20
547.1969163332
 10
-1117.4146611972
 20
548.6712413479
 10
-1122.6908484661
 20
550.053572843
 10
-1128.7138481916
 20
551.3282217547
 10
-1136.1764759239
 20
552.616080492
 10
-1144.3430593669
 20
553.7657494836
 10
-1153.0683640055
 20
554.7663573515
 10
-1157.7622816687
 20
555.2230037431
  0
LWPOLYLINE
  5
207
330
1F
100
AcDbEntity
  8
0
  6
Continuous
 62
     7
370
    25
100
AcDbPolyline
 90
       13
 70
   128
 43
0.0
 10
-1140.4860816982
 20
536.4311336863
 10
-1138.1483270278
 20
536.234762996
 10
-1135.6893981917
 20
536.0941370505
 10
-1133.1502252385
 20
536.011596636
 10
-1130.5730739188
 20
535.9885156773
 10
-1128.000842151
 20
536.025278368
 10
-1125.4763459654
 20
536.1212727755
 10
-1123.0416068107
 20
536.2749010269
 10
-1120.7371520867
 20
536.4836059064
 10
-1118.6013405465
 20
536.7439134211
 10
-1116.6697237965
 20
537.0514906279
 10
-1114.974454523
 20
537.4012177567
 10
-1113.5437512954
 20
537.7872734319
  0
ARC
  5
208
330
1F
100
AcDbEntity
  8
0
  6
Continuous
 62
     7
370
    25
100
AcDbCircle
 10
-1186.6059128819
 20
38.962700032
 30
0.0
 40
499.6017226860478
100
AcDbArc
 50
84.7033024626
 51
94.1157887814
  0
ARC
  5
209
330
1F
100
AcDbEntity
  8
0
  6
Continuous
 62
     7
370
    25
100
AcDbCircle
 10
-1229.8924021059
 20
632.5481666803
 30
0.0
 40
95.56139451924439
100
AcDbArc
 50
261.5424850347
 51
274.458660826
  0
LWPOLYLINE
  5
20A
330
1F
100
AcDbEntity
  8
0
  6
Continuous
 62
     7
370
    25
100
AcDbPolyline
 90
       11
 70
   128
 43
0.0
 10
-1268.9990835345
 20
547.7389061228
 10
-1268.9073632005
 20
546.969152798
 10
-1268.4947889366
 20
546.1984280489
 10
-1267.5501418158
 20
545.2437441727
 10
-1266.1631565989
 20
544.3065361494
 10
-1264.3143200947
 20
543.3676429582
 10
-1262.0728306339
 20
542.4566831414
 10
-1258.4405312269
 20
541.2640578148
 10
-1254.2206817958
 20
540.1353484973
 10
-1249.3258375205
 20
539.0427063183
 10
-1243.947190875
 20
538.0259839129
  0
LWPOLYLINE
  5
20B
330
1F
100
AcDbEntity
  8
0
  6
Continuous
 62
     7
370
    25
100
AcDbPolyline
 90
       16
 70
   128
 43
0.0
 10
-1242.298690993
 20
551.0659783813
 10
-1244.7272665384
 20
551.1908582315
 10
-1247.2240280195
 20
551.2597094754
 10
-1249.749149037
 20
551.2714338512
 10
-1252.2623508223
 20
551.2258443409
 10
-1254.7235447333
 20
551.1236681529
 10
-1257.0934717171
 20
550.9665351223
 10
-1259.3343285398
 20
550.7569517133
 10
-1261.4103707943
 20
550.4982610374
 10
-1263.2884830678
 20
550.1945895274
 10
-1264.9387071725
 20
549.8507811152
 10
-1266.3347200157
 20
549.4723199655
 10
-1267.4542534852
 20
549.0652429965
 10
-1268.2794496528
 20
548.6360435837
 10
-1268.7971456306
 20
548.1915679826
 10
-1268.9990835345
 20
547.7389061228
  0
LWPOLYLINE
  5
20C
330
1F
100
AcDbEntity
  8
0
  6
Continuous
 62
     7
370
    25
100
AcDbPolyline
 90
       17
 70
   128
 43
0.0
 10
-1182.6868776744
 20
554.2166550319
 10
-1185.3486295707
 20
553.644340089
 10
-1188.2517201432
 20
553.1112945457
 10
-1191.3782854893
 20
552.6207984488
 10
-1194.709086575
 20
552.1758700214
 10
-1198.2236276202
 20
551.7792470898
 10
-1201.9002822178
 20
551.4333702371
 10
-1205.7164264096
 20
551.1403677847
 10
-1209.6485779011
 20
550.9020426966
 10
-1213.6725405576
 20
550.7198614844
 10
-1217.7635532924
 20
550.5949451835
 10
-1221.8964424328
 20
550.5280624549
 10
-1226.0457766229
 20
550.5196248555
 10
-1230.1860233141
 20
550.5696843051
 10
-1234.2917058767
 20
550.6779327677
 10
-1238.3375603683
 20
550.8437041461
 10
-1242.298690993
 20
551.0659783813
  0
ARC
  5
20D
330
1F
100
AcDbEntity
  8
0
  6
Continuous
 62
     7
370
    25
100
AcDbCircle
 10
-1186.6014350265
 20
51.0016178039
 30
0.0
 40
484.0712386278285
100
AcDbArc
 50
84.7048986564
 51
94.1141925876
  0
ARC
  5
20E
330
1F
100
AcDbEntity
  8
0
  6
Continuous
 62
     7
370
    25
100
AcDbCircle
 10
-1225.5616488348
 20
534.3478957918
 30
0.0
 40
4.262896058720414
100
AcDbArc
 50
352.9599922819
 51
43.3832207067
  0
ARC
  5
20F
330
1F
100
AcDbEntity
  8
0
  6
Continuous
 62
     7
370
    25
100
AcDbCircle
 10
-1138.2395204366
 20
533.4686928951
 30
0.0
 40
3.717942030646663
100
AcDbArc
 50
127.1747909623
 51
187.1314146466
  0
ARC
  5
210
330
1F
100
AcDbEntity
  8
0
  6
Continuous
 62
     7
370
    25
100
AcDbCircle
 10
-1186.584418007
 20
43.7994727181
 30
0.0
 40
482.4255156587984
100
AcDbArc
 50
84.6888130992
 51
94.1302781448
  0
LINE
  5
211
330
1F
100
AcDbEntity
  8
0
  6
Continuous
 62
     7
370
    25
100
AcDbLine
 10
-1221.3308915491
 20
533.8254251253
 30
0.0
 11
-1221.3308915491
 21
524.9720620611
 31
0.0
  0
LINE
  5
212
330
1F
100
AcDbEntity
  8
0
  6
Continuous
 62
     7
370
    25
100
AcDbLine
 10
-1141.9287005399
 20
524.1537638993
 30
0.0
 11
-1141.9287005399
 21
533.0071269635
 31
0.0
  0
ARC
  5
213
330
1F
100
AcDbEntity
  8
0
  6
Continuous
 62
     7
370
    25
100
AcDbCircle
 10
-1114.0994907515
 20
534.6800733959
 30
0.0
 40
3.156507311306026
100
AcDbArc
 50
357.9414204395
 51
79.8595624275
  0
LWPOLYLINE
  5
214
330
1F
100
AcDbEntity
  8
0
  6
Continuous
 62
     7
370
    25
100
AcDbPolyline
 90
       14
 70
   128
 43
0.0
 10
-1110.9450205767
 20
534.5666876708
 10
-1112.4525839336
 20
534.1554817086
 10
-1114.2213980565
 20
533.7794160324
 10
-1116.2263704677
 20
533.4438255272
 10
-1118.4390585372
 20
533.1534708952
 10
-1120.8280729712
 20
532.9124711203
 10
-1123.359523102
 20
532.7242450364
 10
-1125.9974976628
 20
532.5914628273
 10
-1128.7045742261
 20
532.5160081474
 10
-1131.4423500804
 20
532.4989514003
 10
-1134.1719870128
 20
532.5405345538
 10
-1136.8547622692
 20
532.6401677074
 10
-1139.4526178775
 20
532.7964374605
 10
-1141.9287005399
 20
533.0071269635
  0
LWPOLYLINE
  5
215
330
1F
100
AcDbEntity
  8
0
  6
Continuous
 62
     7
370
    25
100
AcDbPolyline
 90
       14
 70
   128
 43
0.0
 10
-1141.9287005399
 20
524.1537638993
 10
-1139.4526178775
 20
523.9430743963
 10
-1136.8547622692
 20
523.7868046432
 10
-1134.1719870128
 20
523.6871714896
 10
-1131.4423500804
 20
523.6455883361
 10
-1128.7045742261
 20
523.6626450832
 10
-1125.9974976628
 20
523.7380997631
 10
-1123.359523102
 20
523.8708819722
 10
-1120.8280729712
 20
524.0591080561
 10
-1118.4390585372
 20
524.3001078309
 10
-1116.2263704677
 20
524.590462463
 10
-1114.2213980565
 20
524.9260529682
 10
-1112.4525839336
 20
525.3021186444
 10
-1110.9450205767
 20
525.7133246066
  0
LINE
  5
216
330
1F
100
AcDbEntity
  8
0
  6
Continuous
 62
     7
370
    25
100
AcDbLine
 10
-1110.9450205767
 20
534.5666876708
 30
0.0
 11
-1110.9450205767
 21
525.7133246066
 31
0.0
  0
ARC
  5
217
330
1F
100
AcDbEntity
  8
0
  6
Continuous
 62
     7
370
    25
100
AcDbCircle
 10
-1229.9008860972
 20
642.6227012729
 30
0.0
 40
109.1342847307492
100
AcDbArc
 50
261.4972397309
 51
274.5039061297
  0
ARC
  5
218
330
1F
100
AcDbEntity
  8
0
  6
Continuous
 62
     7
370
    25
100
AcDbCircle
 10
-1242.7877547588
 20
534.9767607371
 30
0.0
 40
3.262216130697151
100
AcDbArc
 50
110.8187976702
 51
185.0793453986
  0
ARC
  5
219
330
1F
100
AcDbEntity
  8
0
  6
Continuous
 62
     7
370
    25
100
AcDbCircle
 10
-1229.9008860972
 20
633.7693382087
 30
0.0
 40
109.1342847307765
100
AcDbArc
 50
261.4972397309
 51
274.5039061297
  0
LINE
  5
21A
330
1F
100
AcDbEntity
  8
0
  6
Continuous
 62
     7
370
    25
100
AcDbLine
 10
-1246.0371603177
 20
525.8345766257
 30
0.0
 11
-1246.0371603177
 21
534.6879396899
 31
0.0
  0
ARC
  5
21B
330
1F
100
AcDbEntity
  8
0
  6
Continuous
 62
     7
370
    25
100
AcDbCircle
 10
-856.7152067772
 20
524.4323602148
 30
0.0
 40
87.87830505764103
100
AcDbArc
 50
84.1526368848
 51
100.4715690432
  0
LWPOLYLINE
  5
21C
330
1F
100
AcDbEntity
  8
0
  6
Continuous
 62
     7
370
    25
100
AcDbPolyline
 90
       16
 70
   128
 43
0.0
 10
-803.5437512954
 20
594.4176893332
 10
-800.3751014481
 20
595.6027807087
 10
-798.20693568
 20
596.8587163499
 10
-797.20311592
 20
597.9238843968
 10
-796.8734894739
 20
599.0063724437
 10
-797.189610158
 20
600.0860379026
 10
-798.3764235488
 20
601.366910164
 10
-800.3596974961
 20
602.6202838445
 10
-803.0443291755
 20
603.8273322346
 10
-807.4146611972
 20
605.3016572493
 10
-812.6908484661
 20
606.6839887443
 10
-818.7138481916
 20
607.9586376561
 10
-826.1764759239
 20
609.2464963933
 10
-834.3430593669
 20
610.396165385
 10
-843.0683640055
 20
611.3967732529
 10
-847.7622816687
 20
611.8534196445
  0
LWPOLYLINE
  5
21D
330
1F
100
AcDbEntity
  8
0
  6
Continuous
 62
     7
370
    25
100
AcDbPolyline
 90
       13
 70
   128
 43
0.0
 10
-830.4860816982
 20
593.0615495877
 10
-828.1483270278
 20
592.8651788974
 10
-825.6893981917
 20
592.7245529519
 10
-823.1502252385
 20
592.6420125374
 10
-820.5730739188
 20
592.6189315787
 10
-818.000842151
 20
592.6556942694
 10
-815.4763459654
 20
592.7516886769
 10
-813.0416068107
 20
592.9053169283
 10
-810.7371520867
 20
593.1140218077
 10
-808.6013405465
 20
593.3743293225
 10
-806.6697237965
 20
593.6819065293
 10
-804.974454523
 20
594.0316336581
 10
-803.5437512954
 20
594.4176893332
  0
ARC
  5
21E
330
1F
100
AcDbEntity
  8
0
  6
Continuous
 62
     7
370
    25
100
AcDbCircle
 10
-876.6059128819
 20
95.5931159334
 30
0.0
 40
499.6017226860213
100
AcDbArc
 50
84.7033024626
 51
94.1157887814
  0
ARC
  5
21F
330
1F
100
AcDbEntity
  8
0
  6
Continuous
 62
     7
370
    25
100
AcDbCircle
 10
-919.8924021059
 20
689.1785825817
 30
0.0
 40
95.56139451925674
100
AcDbArc
 50
261.5424850347
 51
274.458660826
  0
LWPOLYLINE
  5
220
330
1F
100
AcDbEntity
  8
0
  6
Continuous
 62
     7
370
    25
100
AcDbPolyline
 90
       11
 70
   128
 43
0.0
 10
-958.9990835345
 20
604.3693220242
 10
-958.9073632005
 20
603.5995686994
 10
-958.4947889366
 20
602.8288439503
 10
-957.5501418158
 20
601.874160074
 10
-956.1631565989
 20
600.9369520508
 10
-954.3143200947
 20
599.9980588596
 10
-952.0728306339
 20
599.0870990428
 10
-948.4405312269
 20
597.8944737162
 10
-944.2206817958
 20
596.7657643987
 10
-939.3258375205
 20
595.6731222196
 10
-933.947190875
 20
594.6563998143
  0
LWPOLYLINE
  5
221
330
1F
100
AcDbEntity
  8
0
  6
Continuous
 62
     7
370
    25
100
AcDbPolyline
 90
       16
 70
   128
 43
0.0
 10
-932.298690993
 20
607.6963942826
 10
-934.7272665384
 20
607.8212741329
 10
-937.2240280195
 20
607.8901253767
 10
-939.749149037
 20
607.9018497526
 10
-942.2623508223
 20
607.8562602423
 10
-944.7235447333
 20
607.7540840542
 10
-947.0934717171
 20
607.5969510237
 10
-949.3343285398
 20
607.3873676147
 10
-951.4103707943
 20
607.1286769388
 10
-953.2884830678
 20
606.8250054288
 10
-954.9387071725
 20
606.4811970166
 10
-956.3347200157
 20
606.1027358669
 10
-957.4542534852
 20
605.6956588978
 10
-958.2794496528
 20
605.266459485
 10
-958.7971456306
 20
604.821983884
 10
-958.9990835345
 20
604.3693220242
  0
LWPOLYLINE
  5
222
330
1F
100
AcDbEntity
  8
0
  6
Continuous
 62
     7
370
    25
100
AcDbPolyline
 90
       17
 70
   128
 43
0.0
 10
-872.6868776744
 20
610.8470709333
 10
-875.3486295707
 20
610.2747559904
 10
-878.2517201432
 20
609.741710447
 10
-881.3782854893
 20
609.2512143502
 10
-884.709086575
 20
608.8062859228
 10
-888.2236276202
 20
608.4096629912
 10
-891.9002822178
 20
608.0637861384
 10
-895.7164264096
 20
607.7707836861
 10
-899.6485779011
 20
607.532458598
 10
-903.6725405576
 20
607.3502773857
 10
-907.7635532924
 20
607.2253610848
 10
-911.8964424328
 20
607.1584783563
 10
-916.0457766229
 20
607.1500407568
 10
-920.1860233141
 20
607.2001002065
 10
-924.2917058767
 20
607.308348669
 10
-928.3375603683
 20
607.4741200474
 10
-932.298690993
 20
607.6963942826
  0
ARC
  5
223
330
1F
100
AcDbEntity
  8
0
  6
Continuous
 62
     7
370
    25
100
AcDbCircle
 10
-876.6014350265
 20
107.6320337053
 30
0.0
 40
484.0712386278256
100
AcDbArc
 50
84.7048986564
 51
94.1141925876
  0
ARC
  5
224
330
1F
100
AcDbEntity
  8
0
  6
Continuous
 62
     7
370
    25
100
AcDbCircle
 10
-915.5616488348
 20
590.9783116932
 30
0.0
 40
4.262896058718987
100
AcDbArc
 50
352.9599922819
 51
43.3832207067
  0
ARC
  5
225
330
1F
100
AcDbEntity
  8
0
  6
Continuous
 62
     7
370
    25
100
AcDbCircle
 10
-828.2395204366
 20
590.0991087965
 30
0.0
 40
3.717942030647283
100
AcDbArc
 50
127.1747909623
 51
187.1314146466
  0
ARC
  5
226
330
1F
100
AcDbEntity
  8
0
  6
Continuous
 62
     7
370
    25
100
AcDbCircle
 10
-876.584418007
 20
100.4298886195
 30
0.0
 40
482.4255156588095
100
AcDbArc
 50
84.6888130992
 51
94.1302781448
  0
LINE
  5
227
330
1F
100
AcDbEntity
  8
0
  6
Continuous
 62
     7
370
    25
100
AcDbLine
 10
-911.3308915491
 20
590.4558410267
 30
0.0
 11
-911.3308915491
 21
581.6024779625
 31
0.0
  0
LINE
  5
228
330
1F
100
AcDbEntity
  8
0
  6
Continuous
 62
     7
370
    25
100
AcDbLine
 10
-831.9287005399
 20
580.7841798006
 30
0.0
 11
-831.9287005399
 21
589.6375428648
 31
0.0
  0
ARC
  5
229
330
1F
100
AcDbEntity
  8
0
  6
Continuous
 62
     7
370
    25
100
AcDbCircle
 10
-804.0994907515
 20
591.3104892973
 30
0.0
 40
3.156507311306259
100
AcDbArc
 50
357.9414204395
 51
79.8595624275
  0
LWPOLYLINE
  5
22A
330
1F
100
AcDbEntity
  8
0
  6
Continuous
 62
     7
370
    25
100
AcDbPolyline
 90
       14
 70
   128
 43
0.0
 10
-800.9450205767
 20
591.1971035722
 10
-802.4525839336
 20
590.78589761
 10
-804.2213980565
 20
590.4098319338
 10
-806.2263704677
 20
590.0742414286
 10
-808.4390585372
 20
589.7838867965
 10
-810.8280729712
 20
589.5428870217
 10
-813.359523102
 20
589.3546609378
 10
-815.9974976628
 20
589.2218787286
 10
-818.7045742261
 20
589.1464240488
 10
-821.4423500804
 20
589.1293673017
 10
-824.1719870128
 20
589.1709504552
 10
-826.8547622692
 20
589.2705836088
 10
-829.4526178775
 20
589.4268533619
 10
-831.9287005399
 20
589.6375428648
  0
LWPOLYLINE
  5
22B
330
1F
100
AcDbEntity
  8
0
  6
Continuous
 62
     7
370
    25
100
AcDbPolyline
 90
       14
 70
   128
 43
0.0
 10
-831.9287005399
 20
580.7841798006
 10
-829.4526178775
 20
580.5734902977
 10
-826.8547622692
 20
580.4172205445
 10
-824.1719870128
 20
580.317587391
 10
-821.4423500804
 20
580.2760042375
 10
-818.7045742261
 20
580.2930609846
 10
-815.9974976628
 20
580.3685156644
 10
-813.359523102
 20
580.5012978735
 10
-810.8280729712
 20
580.6895239574
 10
-808.4390585372
 20
580.9305237323
 10
-806.2263704677
 20
581.2208783644
 10
-804.2213980565
 20
581.5564688696
 10
-802.4525839336
 20
581.9325345457
 10
-800.9450205767
 20
582.343740508
  0
LINE
  5
22C
330
1F
100
AcDbEntity
  8
0
  6
Continuous
 62
     7
370
    25
100
AcDbLine
 10
-800.9450205767
 20
591.1971035722
 30
0.0
 11
-800.9450205767
 21
582.343740508
 31
0.0
  0
ARC
  5
22D
330
1F
100
AcDbEntity
  8
0
  6
Continuous
 62
     7
370
    25
100
AcDbCircle
 10
-919.9008860972
 20
699.2531171743
 30
0.0
 40
109.1342847307602
100
AcDbArc
 50
261.4972397309
 51
274.5039061297
  0
ARC
  5
22E
330
1F
100
AcDbEntity
  8
0
  6
Continuous
 62
     7
370
    25
100
AcDbCircle
 10
-932.7877547588
 20
591.6071766385
 30
0.0
 40
3.262216130696107
100
AcDbArc
 50
110.8187976702
 51
185.0793453986
  0
ARC
  5
22F
330
1F
100
AcDbEntity
  8
0
  6
Continuous
 62
     7
370
    25
100
AcDbCircle
 10
-919.9008860972
 20
690.3997541101
 30
0.0
 40
109.1342847307587
100
AcDbArc
 50
261.4972397309
 51
274.5039061297
  0
LINE
  5
230
330
1F
100
AcDbEntity
  8
0
  6
Continuous
 62
     7
370
    25
100
AcDbLine
 10
-936.0371603177
 20
582.4649925271
 30
0.0
 11
-936.0371603177
 21
591.3183555913
 31
0.0
  0
ARC
  5
231
330
1F
100
AcDbEntity
  8
0
  6
Continuous
 62
     7
370
    25
100
AcDbCircle
 10
-838.048724646
 20
634.9678040851
 30
0.0
 40
34.81088437498298
100
AcDbArc
 50
263.051870619
 51
280.8488391856
  0
ARC
  5
232
330
1F
100
AcDbEntity
  8
0
  6
Continuous
 62
     7
370
    25
100
AcDbCircle
 10
-1148.048724646
 20
578.3373881837
 30
0.0
 40
34.81088437498334
100
AcDbArc
 50
263.051870619
 51
280.8488391856
  0
LWPOLYLINE
  5
233
330
1F
100
AcDbEntity
  8
0
  6
Continuous
 62
     7
370
    25
100
AcDbPolyline
 90
       11
 70
   128
 43
0.0
 10
-1327.9377478893
 20
537.3029531809
 10
-1327.0106969062
 20
537.329350227
 10
-1326.1743921325
 20
537.4059574384
 10
-1325.5106969062
 20
537.5252759676
 10
-1325.0845783405
 20
537.6756260855
 10
-1324.9377478893
 20
537.8422904752
 10
-1325.0845783405
 20
538.0089548648
 10
-1325.5106969062
 20
538.1593049828
 10
-1326.1743921325
 20
538.278623512
 10
-1327.0106969062
 20
538.3552307234
 10
-1327.9377478893
 20
538.3816277695
  0
LWPOLYLINE
  5
234
330
1F
100
AcDbEntity
  8
0
  6
Continuous
 62
     7
370
    25
100
AcDbPolyline
 90
       11
 70
   128
 43
0.0
 10
-1327.9377478893
 20
549.1683736554
 10
-1327.0106969062
 20
549.1947707015
 10
-1326.1743921325
 20
549.271377913
 10
-1325.5106969062
 20
549.3906964421
 10
-1325.0845783405
 20
549.5410465601
 10
-1324.9377478893
 20
549.7077109497
 10
-1325.0845783405
 20
549.8743753394
 10
-1325.5106969062
 20
550.0247254573
 10
-1326.1743921325
 20
550.1440439865
 10
-1327.0106969062
 20
550.220651198
 10
-1327.9377478893
 20
550.247048244
  0
LWPOLYLINE
  5
235
330
1F
100
AcDbEntity
  8
0
  6
Continuous
 62
     7
370
    25
100
AcDbPolyline
 90
       11
 70
   128
 43
0.0
 10
-1327.9377478893
 20
593.9333690822
 10
-1327.0106969062
 20
593.9597661283
 10
-1326.1743921325
 20
594.0363733398
 10
-1325.5106969062
 20
594.1556918689
 10
-1325.0845783405
 20
594.3060419869
 10
-1324.9377478893
 20
594.4727063765
 10
-1325.0845783405
 20
594.6393707662
 10
-1325.5106969062
 20
594.7897208841
 10
-1326.1743921325
 20
594.9090394133
 10
-1327.0106969062
 20
594.9856466248
 10
-1327.9377478893
 20
595.0120436708
  0
LWPOLYLINE
  5
236
330
1F
100
AcDbEntity
  8
0
  6
Continuous
 62
     7
370
    25
100
AcDbPolyline
 90
       16
 70
   128
 43
0.0
 10
-1234.9377478893
 20
578.9218143909
 10
-1234.778882855
 20
579.4667833436
 10
-1234.3040283106
 20
580.0057815025
 10
-1233.5183868619
 20
580.5329034908
 10
-1232.430566161
 20
581.0423740498
 10
-1231.0524845991
 20
581.5286113134
 10
-1229.3992407262
 20
581.9862879644
 10
-1227.4889478282
 20
582.4103896017
 10
-1225.3425354738
 20
582.7962696789
 10
-1222.9835202058
 20
583.1397004132
 10
-1220.4377478893
 20
583.4369191056
 10
-1217.7331105385
 20
583.6846693659
 10
-1214.8992407262
 20
583.8802367904
 10
-1211.9671869231
 20
584.0214787015
 10
-1208.9690733241
 20
584.1068476232
 10
-1205.9377478893
 20
584.1354082358
  0
LINE
  5
237
330
1F
100
AcDbEntity
  8
0
  6
Continuous
 62
     7
370
    25
100
AcDbLine
 10
-1234.9377478893
 20
565.2586029354
 30
0.0
 11
-1234.9377478893
 21
578.9218143909
 31
0.0
  0
LWPOLYLINE
  5
238
330
1F
100
AcDbEntity
  8
0
  6
Continuous
 62
     7
370
    25
100
AcDbPolyline
 90
       16
 70
   128
 43
0.0
 10
-1205.9377478893
 20
560.0450090905
 10
-1208.9690733241
 20
560.0735697031
 10
-1211.9671869231
 20
560.1589386248
 10
-1214.8992407262
 20
560.3001805359
 10
-1217.7331105385
 20
560.4957479604
 10
-1220.4377478893
 20
560.7434982207
 10
-1222.9835202058
 20
561.0407169131
 10
-1225.3425354738
 20
561.3841476474
 10
-1227.4889478282
 20
561.7700277246
 10
-1229.3992407262
 20
562.1941293619
 10
-1231.0524845991
 20
562.6518060129
 10
-1232.430566161
 20
563.1380432765
 10
-1233.5183868619
 20
563.6475138355
 10
-1234.3040283106
 20
564.1746358238
 10
-1234.778882855
 20
564.7136339827
 10
-1234.9377478893
 20
565.2586029354
  0
LINE
  5
239
330
1F
100
AcDbEntity
  8
0
  6
Continuous
 62
     7
370
    25
100
AcDbLine
 10
-1129.9377478893
 20
560.0450090905
 30
0.0
 11
-1205.9377478893
 21
560.0450090905
 31
0.0
  0
LWPOLYLINE
  5
23A
330
1F
100
AcDbEntity
  8
0
  6
Continuous
 62
     7
370
    25
100
AcDbPolyline
 90
       16
 70
   128
 43
0.0
 10
-1100.9377478893
 20
565.2586029354
 10
-1101.0966129237
 20
564.7136339827
 10
-1101.5714674681
 20
564.1746358238
 10
-1102.3571089168
 20
563.6475138355
 10
-1103.4449296177
 20
563.1380432765
 10
-1104.8230111796
 20
562.6518060129
 10
-1106.4762550525
 20
562.1941293619
 10
-1108.3865479505
 20
561.7700277246
 10
-1110.5329603049
 20
561.3841476474
 10
-1112.8919755729
 20
561.0407169131
 10
-1115.4377478893
 20
560.7434982207
 10
-1118.1423852402
 20
560.4957479604
 10
-1120.9762550525
 20
560.3001805359
 10
-1123.9083088556
 20
560.1589386248
 10
-1126.9064224546
 20
560.0735697031
 10
-1129.9377478893
 20
560.0450090905
  0
LINE
  5
23B
330
1F
100
AcDbEntity
  8
0
  6
Continuous
 62
     7
370
    25
100
AcDbLine
 10
-1100.9377478893
 20
578.9218143909
 30
0.0
 11
-1100.9377478893
 21
565.2586029354
 31
0.0
  0
LWPOLYLINE
  5
23C
330
1F
100
AcDbEntity
  8
0
  6
Continuous
 62
     7
370
    25
100
AcDbPolyline
 90
       16
 70
   128
 43
0.0
 10
-1129.9377478893
 20
584.1354082358
 10
-1126.9064224546
 20
584.1068476232
 10
-1123.9083088556
 20
584.0214787015
 10
-1120.9762550525
 20
583.8802367904
 10
-1118.1423852402
 20
583.6846693659
 10
-1115.4377478893
 20
583.4369191056
 10
-1112.8919755729
 20
583.1397004132
 10
-1110.5329603049
 20
582.7962696789
 10
-1108.3865479505
 20
582.4103896017
 10
-1106.4762550525
 20
581.9862879644
 10
-1104.8230111796
 20
581.5286113134
 10
-1103.4449296177
 20
581.0423740498
 10
-1102.3571089168
 20
580.5329034908
 10
-1101.5714674681
 20
580.0057815025
 10
-1101.0966129237
 20
579.4667833436
 10
-1100.9377478893
 20
578.9218143909
  0
LINE
  5
23D
330
1F
100
AcDbEntity
  8
0
  6
Continuous
 62
     7
370
    25
100
AcDbLine
 10
-1205.9377478893
 20
584.1354082358
 30
0.0
 11
-1129.9377478893
 21
584.1354082358
 31
0.0
  0
LINE
  5
23E
330
1F
100
AcDbEntity
  8
0
  6
Continuous
 62
     7
370
    25
100
AcDbLine
 10
-1103.9377478893
 20
563.2583391047
 30
0.0
 11
-1103.9377478893
 21
575.9706933695
 31
0.0
  0
ARC
  5
23F
330
1F
100
AcDbEntity
  8
0
  6
Continuous
 62
     7
370
    25
100
AcDbCircle
 10
-1100.9619882824
 20
575.9460514864
 30
0.0
 40
2.975861633300517
100
AcDbArc
 50
89.5332822059
 51
179.5255518532
  0
ARC
  5
240
330
1F
100
AcDbEntity
  8
0
  6
Continuous
 62
     7
370
    25
100
AcDbCircle
 10
-1234.9135074963
 20
575.9460514864
 30
0.0
 40
2.975861633300291
100
AcDbArc
 50
0.4744481468
 51
90.4667177941
  0
LINE
  5
241
330
1F
100
AcDbEntity
  8
0
  6
Continuous
 62
     7
370
    25
100
AcDbLine
 10
-1231.9377478893
 20
575.9706933695
 30
0.0
 11
-1231.9377478893
 21
563.2560119837
 31
0.0
  0
LINE
  5
242
330
1F
100
AcDbEntity
  8
0
  6
Continuous
 62
     7
370
    25
100
AcDbLine
 10
-1205.9377478893
 20
584.1354082358
 30
0.0
 11
-1205.9377478893
 21
580.6449499201
 31
0.0
  0
LWPOLYLINE
  5
243
330
1F
100
AcDbEntity
  8
0
  6
Continuous
 62
     7
370
    25
100
AcDbPolyline
 90
       15
 70
   128
 43
0.0
 10
-1205.9377478893
 20
580.6449499201
 10
-1208.848824268
 20
580.615559176
 10
-1211.7232921722
 20
580.5277565494
 10
-1214.5250035002
 20
580.3826462092
 10
-1217.2187251064
 20
580.1820530022
 10
-1219.7705818787
 20
579.9284995043
 10
-1222.1484827377
 20
579.6251742979
 10
-1224.3225242002
 20
579.2758918735
 10
-1226.2653664335
 20
578.8850446601
 10
-1227.9525770693
 20
578.4575477883
 10
-1229.3629384548
 20
577.9987772793
 10
-1230.4787144774
 20
577.5145024384
 10
-1231.2858736061
 20
577.0108133027
 10
-1231.7742653466
 20
576.4940440554
 10
-1231.9377478893
 20
575.9706933695
  0
LWPOLYLINE
  5
244
330
1F
100
AcDbEntity
  8
0
  6
Continuous
 62
     7
370
    25
100
AcDbPolyline
 90
       15
 70
   128
 43
0.0
 10
-1103.9377478893
 20
575.9706933695
 10
-1104.1012304321
 20
576.4940440554
 10
-1104.5896221726
 20
577.0108133027
 10
-1105.3967813013
 20
577.5145024384
 10
-1106.5125573239
 20
577.9987772793
 10
-1107.9229187094
 20
578.4575477883
 10
-1109.6101293452
 20
578.8850446601
 10
-1111.5529715785
 20
579.2758918735
 10
-1113.727013041
 20
579.6251742979
 10
-1116.1049139
 20
579.9284995043
 10
-1118.6567706723
 20
580.1820530022
 10
-1121.3504922785
 20
580.3826462092
 10
-1124.1522036065
 20
580.5277565494
 10
-1127.0266715107
 20
580.615559176
 10
-1129.9377478893
 20
580.6449499201
  0
LINE
  5
245
330
1F
100
AcDbEntity
  8
0
  6
Continuous
 62
     7
370
    25
100
AcDbLine
 10
-1129.9377478893
 20
584.1354082358
 30
0.0
 11
-1129.9377478893
 21
580.6449499201
 31
0.0
  0
LINE
  5
246
330
1F
100
AcDbEntity
  8
0
  6
Continuous
 62
     7
370
    25
100
AcDbLine
 10
-1205.9377478893
 20
571.7915868559
 30
0.0
 11
-1205.9377478893
 21
580.6449499201
 31
0.0
  0
LWPOLYLINE
  5
247
330
1F
100
AcDbEntity
  8
0
  6
Continuous
 62
     7
370
    25
100
AcDbPolyline
 90
       15
 70
   128
 43
0.0
 10
-1231.9377478893
 20
567.1173303053
 10
-1231.7742653466
 20
567.6406809912
 10
-1231.2858736061
 20
568.1574502385
 10
-1230.4787144774
 20
568.6611393742
 10
-1229.3629384548
 20
569.1454142151
 10
-1227.9525770693
 20
569.6041847241
 10
-1226.2653664335
 20
570.0316815959
 10
-1224.3225242002
 20
570.4225288092
 10
-1222.1484827377
 20
570.7718112337
 10
-1219.7705818787
 20
571.0751364401
 10
-1217.2187251064
 20
571.328689938
 10
-1214.5250035002
 20
571.529283145
 10
-1211.7232921722
 20
571.6743934852
 10
-1208.848824268
 20
571.7621961118
 10
-1205.9377478893
 20
571.7915868559
  0
LWPOLYLINE
  5
248
330
1F
100
AcDbEntity
  8
0
  6
Continuous
 62
     7
370
    25
100
AcDbPolyline
 90
       15
 70
   128
 43
0.0
 10
-1129.9377478893
 20
571.7915868559
 10
-1127.0266715107
 20
571.7621961118
 10
-1124.1522036065
 20
571.6743934852
 10
-1121.3504922785
 20
571.529283145
 10
-1118.6567706723
 20
571.328689938
 10
-1116.1049139
 20
571.0751364401
 10
-1113.727013041
 20
570.7718112337
 10
-1111.5529715785
 20
570.4225288092
 10
-1109.6101293452
 20
570.0316815959
 10
-1107.9229187094
 20
569.6041847241
 10
-1106.5125573239
 20
569.1454142151
 10
-1105.3967813013
 20
568.6611393742
 10
-1104.5896221726
 20
568.1574502385
 10
-1104.1012304321
 20
567.6406809912
 10
-1103.9377478893
 20
567.1173303053
  0
LINE
  5
249
330
1F
100
AcDbEntity
  8
0
  6
Continuous
 62
     7
370
    25
100
AcDbLine
 10
-1129.9377478893
 20
571.7915868559
 30
0.0
 11
-1129.9377478893
 21
580.6449499201
 31
0.0
  0
LINE
  5
24A
330
1F
100
AcDbEntity
  8
0
  6
Continuous
 62
     7
370
    25
100
AcDbLine
 10
-1129.9377478893
 20
580.6449499201
 30
0.0
 11
-1205.9377478893
 21
580.6449499201
 31
0.0
  0
LINE
  5
24B
330
1F
100
AcDbEntity
  8
0
  6
Continuous
 62
     7
370
    25
100
AcDbLine
 10
-1205.9377478893
 20
571.7915868559
 30
0.0
 11
-1129.9377478893
 21
571.7915868559
 31
0.0
  0
ARC
  5
24C
330
1F
100
AcDbEntity
  8
0
  6
Continuous
 62
     7
370
    25
100
AcDbCircle
 10
-1339.9619882824
 20
612.8521978281
 30
0.0
 40
2.975861633300852
100
AcDbArc
 50
89.5332822059
 51
179.5255518532
  0
LINE
  5
24D
330
1F
100
AcDbEntity
  8
0
  6
Continuous
 62
     7
370
    25
100
AcDbLine
 10
-1342.9377478893
 20
540.2998346026
 30
0.0
 11
-1342.9377478893
 21
612.8768397112
 31
0.0
  0
ARC
  5
24E
330
1F
100
AcDbEntity
  8
0
  6
Continuous
 62
     7
370
    25
100
AcDbCircle
 10
-1330.9135074963
 20
612.8521978281
 30
0.0
 40
2.975861633300178
100
AcDbArc
 50
0.4744481468
 51
90.4667177941
  0
LINE
  5
24F
330
1F
100
AcDbEntity
  8
0
  6
Continuous
 62
     7
370
    25
100
AcDbLine
 10
-1327.9377478893
 20
612.8768397112
 30
0.0
 11
-1327.9377478893
 21
535.5092240566
 31
0.0
  0
LINE
  5
250
330
1F
100
AcDbEntity
  8
0
  6
Continuous
 62
     7
370
    25
100
AcDbLine
 10
-1330.9377478893
 20
615.8279607326
 30
0.0
 11
-1339.9377478893
 21
615.8279607326
 31
0.0
  0
LINE
  5
251
330
1F
100
AcDbEntity
  8
0
  6
Continuous
 62
     7
370
    25
100
AcDbLine
 10
-1327.9377478893
 20
612.9908906612
 30
0.0
 11
-1327.9377478893
 21
612.8768397112
 31
0.0
  0
LINE
  5
252
330
1F
100
AcDbEntity
  8
0
  6
Continuous
 62
     7
370
    25
100
AcDbLine
 10
-1342.9377478893
 20
612.8768397112
 30
0.0
 11
-1342.9377478893
 21
612.9908906612
 31
0.0
  0
LINE
  5
253
330
1F
100
AcDbEntity
  8
0
  6
Continuous
 62
     7
370
    25
100
AcDbLine
 10
-725.9377478893
 20
615.8279607326
 30
0.0
 11
-734.9377478893
 21
615.8279607326
 31
0.0
  0
ARC
  5
254
330
1F
100
AcDbEntity
  8
0
  6
Continuous
 62
     7
370
    25
100
AcDbCircle
 10
-734.9619882824
 20
612.8521978281
 30
0.0
 40
2.975861633300744
100
AcDbArc
 50
89.5332822059
 51
179.5255518532
  0
LINE
  5
255
330
1F
100
AcDbEntity
  8
0
  6
Continuous
 62
     7
370
    25
100
AcDbLine
 10
-737.9377478893
 20
547.4199296985
 30
0.0
 11
-737.9377478893
 21
612.8768397112
 31
0.0
  0
ARC
  5
256
330
1F
100
AcDbEntity
  8
0
  6
Continuous
 62
     7
370
    25
100
AcDbCircle
 10
-725.9135074963
 20
612.8521978281
 30
0.0
 40
2.975861633300742
100
AcDbArc
 50
0.4744481468
 51
90.4667177941
  0
LINE
  5
257
330
1F
100
AcDbEntity
  8
0
  6
Continuous
 62
     7
370
    25
100
AcDbLine
 10
-722.9377478893
 20
612.8768397112
 30
0.0
 11
-722.9377478893
 21
542.6293191525
 31
0.0
  0
LINE
  5
258
330
1F
100
AcDbEntity
  8
0
  6
Continuous
 62
     7
370
    25
100
AcDbLine
 10
-737.9377478893
 20
612.8768397112
 30
0.0
 11
-737.9377478893
 21
612.9908906612
 31
0.0
  0
LINE
  5
259
330
1F
100
AcDbEntity
  8
0
  6
Continuous
 62
     7
370
    25
100
AcDbLine
 10
-722.9377478893
 20
612.9908906612
 30
0.0
 11
-722.9377478893
 21
612.8768397112
 31
0.0
  0
LINE
  5
25A
330
1F
100
AcDbEntity
  8
0
  6
Continuous
 62
     7
370
    25
100
AcDbLine
 10
-1026.9377478893
 20
57.8495550369
 30
0.0
 11
-1038.9377478893
 21
57.8495550369
 31
0.0
  0
LINE
  5
25B
330
1F
100
AcDbEntity
  8
0
  6
Continuous
 62
     7
370
    25
100
AcDbLine
 10
-1038.9377478893
 20
57.8495550369
 30
0.0
 11
-1038.9377478893
 21
62.100387767
 31
0.0
  0
LINE
  5
25C
330
1F
100
AcDbEntity
  8
0
  6
Continuous
 62
     7
370
    25
100
AcDbLine
 10
-1026.9377478893
 20
57.8495550369
 30
0.0
 11
-1026.9377478893
 21
62.0999748021
 31
0.0
  0
LINE
  5
25D
330
1F
100
AcDbEntity
  8
0
  6
Continuous
 62
     7
370
    25
100
AcDbLine
 10
-1026.9377478893
 20
45.8495550369
 30
0.0
 11
-1038.9377478893
 21
45.8495550369
 31
0.0
  0
LINE
  5
25E
330
1F
100
AcDbEntity
  8
0
  6
Continuous
 62
     7
370
    25
100
AcDbLine
 10
-1038.9377478893
 20
41.5991352717
 30
0.0
 11
-1038.9377478893
 21
45.8495550369
 31
0.0
  0
LINE
  5
25F
330
1F
100
AcDbEntity
  8
0
  6
Continuous
 62
     7
370
    25
100
AcDbLine
 10
-1026.9377478893
 20
41.5987223067
 30
0.0
 11
-1026.9377478893
 21
45.8495550369
 31
0.0
  0
LINE
  5
260
330
1F
100
AcDbEntity
  8
0
  6
Continuous
 62
     7
370
    25
100
AcDbLine
 10
-1038.9377478893
 20
100.1155131589
 30
0.0
 11
-1026.9377478893
 21
100.1155131589
 31
0.0
  0
LINE
  5
261
330
1F
100
AcDbEntity
  8
0
  6
Continuous
 62
     7
370
    25
100
AcDbLine
 10
-1026.9377478893
 20
141.0731153733
 30
0.0
 11
-1038.9377478893
 21
141.0731153733
 31
0.0
  0
LINE
  5
262
330
1F
100
AcDbEntity
  8
0
  6
Continuous
 62
     7
370
    25
100
AcDbLine
 10
-1038.9377478893
 20
141.0731153733
 30
0.0
 11
-1038.9377478893
 21
100.1155131589
 31
0.0
  0
LINE
  5
263
330
1F
100
AcDbEntity
  8
0
  6
Continuous
 62
     7
370
    25
100
AcDbLine
 10
-1026.9377478893
 20
100.1155131589
 30
0.0
 11
-1026.9377478893
 21
141.0731153733
 31
0.0
  0
LINE
  5
264
330
1F
100
AcDbEntity
  8
0
  6
Continuous
 62
     7
370
    25
100
AcDbLine
 10
-1038.9377478893
 20
3.5835969149
 30
0.0
 11
-1026.9377478893
 21
3.5835969149
 31
0.0
  0
LINE
  5
265
330
1F
100
AcDbEntity
  8
0
  6
Continuous
 62
     7
370
    25
100
AcDbLine
 10
-1026.9377478893
 20
-37.3740052996
 30
0.0
 11
-1038.9377478893
 21
-37.3740052996
 31
0.0
  0
LINE
  5
266
330
1F
100
AcDbEntity
  8
0
  6
Continuous
 62
     7
370
    25
100
AcDbLine
 10
-1038.9377478893
 20
-37.3740052996
 30
0.0
 11
-1038.9377478893
 21
3.5835969149
 31
0.0
  0
LINE
  5
267
330
1F
100
AcDbEntity
  8
0
  6
Continuous
 62
     7
370
    25
100
AcDbLine
 10
-1026.9377478893
 20
3.5835969149
 30
0.0
 11
-1026.9377478893
 21
-37.3740052996
 31
0.0
  0
LINE
  5
268
330
1F
100
AcDbEntity
  8
0
  6
Continuous
 62
     7
370
    25
100
AcDbLine
 10
-1038.9377478893
 20
222.9883198022
 30
0.0
 11
-1026.9377478893
 21
222.9883198022
 31
0.0
  0
LINE
  5
269
330
1F
100
AcDbEntity
  8
0
  6
Continuous
 62
     7
370
    25
100
AcDbLine
 10
-1026.9377478893
 20
263.9459220167
 30
0.0
 11
-1038.9377478893
 21
263.9459220167
 31
0.0
  0
LINE
  5
26A
330
1F
100
AcDbEntity
  8
0
  6
Continuous
 62
     7
370
    25
100
AcDbLine
 10
-1038.9377478893
 20
263.9459220167
 30
0.0
 11
-1038.9377478893
 21
222.9883198022
 31
0.0
  0
LINE
  5
26B
330
1F
100
AcDbEntity
  8
0
  6
Continuous
 62
     7
370
    25
100
AcDbLine
 10
-1026.9377478893
 20
222.9883198022
 30
0.0
 11
-1026.9377478893
 21
263.9459220167
 31
0.0
  0
LINE
  5
26C
330
1F
100
AcDbEntity
  8
0
  6
Continuous
 62
     7
370
    25
100
AcDbLine
 10
-1038.9377478893
 20
-119.2892097285
 30
0.0
 11
-1026.9377478893
 21
-119.2892097285
 31
0.0
  0
LINE
  5
26D
330
1F
100
AcDbEntity
  8
0
  6
Continuous
 62
     7
370
    25
100
AcDbLine
 10
-1026.9377478893
 20
-160.2468119429
 30
0.0
 11
-1038.9377478893
 21
-160.2468119429
 31
0.0
  0
LINE
  5
26E
330
1F
100
AcDbEntity
  8
0
  6
Continuous
 62
     7
370
    25
100
AcDbLine
 10
-1038.9377478893
 20
-160.2468119429
 30
0.0
 11
-1038.9377478893
 21
-119.2892097285
 31
0.0
  0
LINE
  5
26F
330
1F
100
AcDbEntity
  8
0
  6
Continuous
 62
     7
370
    25
100
AcDbLine
 10
-1026.9377478893
 20
-119.2892097285
 30
0.0
 11
-1026.9377478893
 21
-160.2468119429
 31
0.0
  0
ARC
  5
270
330
1F
100
AcDbEntity
  8
0
  6
Continuous
 62
     7
370
    25
100
AcDbCircle
 10
-1069.7937125582
 20
51.8495550369
 30
0.0
 40
19.313304943531
100
AcDbArc
 50
317.0663214508
 51
42.9336785492
  0
ARC
  5
271
330
1F
100
AcDbEntity
  8
0
  6
Continuous
 62
     7
370
    25
100
AcDbCircle
 10
-1051.4050474865
 20
62.4811902319
 30
0.0
 40
4.941574253021985
100
AcDbArc
 50
101.336106356
 51
149.2897157721
  0
ARC
  5
272
330
1F
100
AcDbEntity
  8
0
  6
Continuous
 62
     7
370
    25
100
AcDbCircle
 10
-1068.9780572878
 20
51.8495550369
 30
0.0
 40
22.69685096712017
100
AcDbArc
 50
317.008321224
 51
42.991678776
  0
ARC
  5
273
330
1F
100
AcDbEntity
  8
0
  6
Continuous
 62
     7
370
    25
100
AcDbCircle
 10
-1051.4050474865
 20
41.2179198418
 30
0.0
 40
4.941574253021834
100
AcDbArc
 50
210.7102842279
 51
258.663893644
  0
ARC
  5
274
330
1F
100
AcDbEntity
  8
0
  6
Continuous
 62
     7
370
    25
100
AcDbCircle
 10
-1119.4026351846
 20
55.0962974831
 30
0.0
 40
2.769685683095899
100
AcDbArc
 50
96.2435463851
 51
185.1110737956
  0
LINE
  5
275
330
1F
100
AcDbEntity
  8
0
  6
Continuous
 62
     7
370
    25
100
AcDbLine
 10
-1122.1613082258
 20
54.8495550369
 30
0.0
 11
-1122.1613082258
 21
48.8495550369
 31
0.0
  0
ARC
  5
276
330
1F
100
AcDbEntity
  8
0
  6
Continuous
 62
     7
370
    25
100
AcDbCircle
 10
-1119.4026351846
 20
48.6028125906
 30
0.0
 40
2.769685683096116
100
AcDbArc
 50
174.8889262044
 51
263.7564536149
  0
LINE
  5
277
330
1F
100
AcDbEntity
  8
0
  6
Continuous
 62
     7
370
    25
100
AcDbLine
 10
-1119.7038520929
 20
45.8495550369
 30
0.0
 11
-1083.6611621442
 21
45.8495550369
 31
0.0
  0
ARC
  5
278
330
1F
100
AcDbEntity
  8
0
  6
Continuous
 62
     7
370
    25
100
AcDbCircle
 10
-1083.9623790526
 20
48.6028125906
 30
0.0
 40
2.769685683095663
100
AcDbArc
 50
276.2435463851
 51
5.1110737956
  0
LINE
  5
279
330
1F
100
AcDbEntity
  8
0
  6
Continuous
 62
     7
370
    25
100
AcDbLine
 10
-1081.2037060113
 20
48.8495550369
 30
0.0
 11
-1081.2037060113
 21
54.8495550369
 31
0.0
  0
ARC
  5
27A
330
1F
100
AcDbEntity
  8
0
  6
Continuous
 62
     7
370
    25
100
AcDbCircle
 10
-1083.9623790526
 20
55.0962974831
 30
0.0
 40
2.769685683095477
100
AcDbArc
 50
354.8889262044
 51
83.7564536149
  0
LINE
  5
27B
330
1F
100
AcDbEntity
  8
0
  6
Continuous
 62
     7
370
    25
100
AcDbLine
 10
-1083.6611621442
 20
57.8495550369
 30
0.0
 11
-1119.7038520929
 21
57.8495550369
 31
0.0
  0
ARC
  5
27C
330
1F
100
AcDbEntity
  8
0
  6
Continuous
 62
     7
370
    25
100
AcDbCircle
 10
-1242.2754418279
 20
55.0962974831
 30
0.0
 40
2.769685683096323
100
AcDbArc
 50
96.2435463851
 51
185.1110737956
  0
LINE
  5
27D
330
1F
100
AcDbEntity
  8
0
  6
Continuous
 62
     7
370
    25
100
AcDbLine
 10
-1245.0341148691
 20
54.8495550369
 30
0.0
 11
-1245.0341148691
 21
48.8495550369
 31
0.0
  0
ARC
  5
27E
330
1F
100
AcDbEntity
  8
0
  6
Continuous
 62
     7
370
    25
100
AcDbCircle
 10
-1242.2754418279
 20
48.6028125906
 30
0.0
 40
2.769685683096117
100
AcDbArc
 50
174.8889262044
 51
263.7564536149
  0
LINE
  5
27F
330
1F
100
AcDbEntity
  8
0
  6
Continuous
 62
     7
370
    25
100
AcDbLine
 10
-1242.5766587363
 20
45.8495550369
 30
0.0
 11
-1206.5339687876
 21
45.8495550369
 31
0.0
  0
ARC
  5
280
330
1F
100
AcDbEntity
  8
0
  6
Continuous
 62
     7
370
    25
100
AcDbCircle
 10
-1206.8351856959
 20
48.6028125906
 30
0.0
 40
2.769685683095264
100
AcDbArc
 50
276.2435463851
 51
5.1110737956
  0
LINE
  5
281
330
1F
100
AcDbEntity
  8
0
  6
Continuous
 62
     7
370
    25
100
AcDbLine
 10
-1204.0765126547
 20
48.8495550369
 30
0.0
 11
-1204.0765126547
 21
54.8495550369
 31
0.0
  0
ARC
  5
282
330
1F
100
AcDbEntity
  8
0
  6
Continuous
 62
     7
370
    25
100
AcDbCircle
 10
-1206.8351856959
 20
55.0962974831
 30
0.0
 40
2.769685683095475
100
AcDbArc
 50
354.8889262044
 51
83.7564536149
  0
LINE
  5
283
330
1F
100
AcDbEntity
  8
0
  6
Continuous
 62
     7
370
    25
100
AcDbLine
 10
-1206.5339687876
 20
57.8495550369
 30
0.0
 11
-1242.5766587363
 21
57.8495550369
 31
0.0
  0
LWPOLYLINE
  5
284
330
1F
100
AcDbEntity
  8
0
  6
Continuous
 62
     7
370
    25
100
AcDbPolyline
 90
       17
 70
   128
 43
0.0
 10
-1494.5221371837
 20
-358.8701577948
 10
-1493.2291530131
 20
-361.3549875742
 10
-1491.7222604532
 20
-363.6532082943
 10
-1490.0193724235
 20
-365.7375002618
 10
-1488.140731705
 20
-367.5830868237
 10
-1486.1086703076
 20
-369.1680288953
 10
-1483.9473440028
 20
-370.4734857575
 10
-1481.6824451756
 20
-371.4839390221
 10
-1479.3408974111
 20
-372.1873771043
 10
-1476.9505354454
 20
-372.5754380079
 10
-1474.5397742845
 20
-372.6435087275
 10
-1472.1372714263
 20
-372.3907800843
 10
-1469.7715861997
 20
-371.8202563456
 10
-1467.4708402703
 20
-370.9387195116
 10
-1465.2623833495
 20
-369.7566486958
 10
-1463.1724680792
 20
-368.2880955566
 10
-1461.2259379584
 20
-366.5505172602
  0
LINE
  5
285
330
1F
100
AcDbEntity
  8
0
  6
Continuous
 62
     7
370
    25
100
AcDbLine
 10
-1523.3955193134
 20
-296.0591544175
 30
0.0
 11
-1494.5221371837
 21
-358.8701577948
 31
0.0
  0
ARC
  5
286
330
1F
100
AcDbEntity
  8
0
  6
Continuous
 62
     7
370
    25
100
AcDbCircle
 10
-1493.9485784711
 20
-282.8240915668
 30
0.0
 40
32.28450423391065
100
AcDbArc
 50
162.3549659556
 51
204.201752952
  0
LINE
  5
287
330
1F
100
AcDbEntity
  8
0
  6
Continuous
 62
     7
370
    25
100
AcDbLine
 10
-1472.5502987422
 20
-109.7064034738
 30
0.0
 11
-1524.7141843675
 21
-273.0380449975
 31
0.0
  0
ARC
  5
288
330
1F
100
AcDbEntity
  8
0
  6
Continuous
 62
     7
370
    25
100
AcDbCircle
 10
-1510.5223810269
 20
-97.7114429652
 30
0.0
 40
39.82157845488164
100
AcDbArc
 50
342.4692499907
 51
8.839590779
  0
LINE
  5
289
330
1F
100
AcDbEntity
  8
0
  6
Continuous
 62
     7
370
    25
100
AcDbLine
 10
-1533.955484282
 20
314.0258068295
 30
0.0
 11
-1471.173786001
 21
-91.5921145605
 31
0.0
  0
ARC
  5
28A
330
1F
100
AcDbEntity
  8
0
  6
Continuous
 62
     7
370
    25
100
AcDbCircle
 10
-1501.7611792608
 20
319.0325300697
 30
0.0
 40
32.58129146308097
100
AcDbArc
 50
162.4692499907
 51
188.839590779
  0
LINE
  5
28B
330
1F
100
AcDbEntity
  8
0
  6
Continuous
 62
     7
370
    25
100
AcDbLine
 10
-1492.3297652631
 20
455.6555233514
 30
0.0
 11
-1532.8292465846
 21
328.8465886677
 31
0.0
  0
LWPOLYLINE
  5
28C
330
1F
100
AcDbEntity
  8
0
  6
Continuous
 62
     7
370
    25
100
AcDbPolyline
 90
       19
 70
   128
 43
0.0
 10
-1457.7149009836
 20
466.7414257913
 10
-1459.580656952
 20
468.4145388856
 10
-1461.579451928
 20
469.8404054103
 10
-1463.6893866957
 20
471.0034032735
 10
-1465.8873443681
 20
471.890790427
 10
-1468.1492436612
 20
472.4928444716
 10
-1470.4503027328
 20
472.8029691772
 10
-1472.7653106983
 20
472.8177667526
 10
-1475.068903846
 20
472.5370750725
 10
-1477.3358435272
 20
471.9639694536
 10
-1479.5412926765
 20
471.1047289611
 10
-1481.6610879314
 20
469.9687676135
 10
-1483.6720043716
 20
468.5685312412
 10
-1485.5520099756
 20
466.9193611268
 10
-1487.2805070088
 20
465.0393259232
 10
-1488.8385576958
 20
462.9490236896
 10
-1490.2090917074
 20
460.6713562146
 10
-1491.377093186
 20
458.2312780997
 10
-1492.3297652631
 20
455.6555233514
  0
LINE
  5
28D
330
1F
100
AcDbEntity
  8
0
  6
Continuous
 62
     7
370
    25
100
AcDbLine
 10
-1055.6536184229
 20
65.0048386022
 30
0.0
 11
-1457.7149009836
 21
466.7414257913
 31
0.0
  0
LINE
  5
28E
330
1F
100
AcDbEntity
  8
0
  6
Continuous
 62
     7
370
    25
100
AcDbLine
 10
-1461.2259379584
 20
-366.5505172602
 30
0.0
 11
-1055.6536184229
 21
38.6942714715
 31
0.0
  0
LINE
  5
28F
330
1F
100
AcDbEntity
  8
0
  6
Continuous
 62
     7
370
    25
100
AcDbLine
 10
-1052.3763834039
 20
67.3263592314
 30
0.0
 11
-1048.9349247858
 21
67.3263592314
 31
0.0
  0
ARC
  5
290
330
1F
100
AcDbEntity
  8
0
  6
Continuous
 62
     7
370
    25
100
AcDbCircle
 10
-1065.5365986697
 20
51.8495550369
 30
0.0
 40
22.69685096712009
100
AcDbArc
 50
317.008321224
 51
42.991678776
  0
LINE
  5
291
330
1F
100
AcDbEntity
  8
0
  6
Continuous
 62
     7
370
    25
100
AcDbLine
 10
-1048.9349247858
 20
36.3727508423
 30
0.0
 11
-1052.3763834039
 21
36.3727508423
 31
0.0
  0
LINE
  5
292
330
1F
100
AcDbEntity
  8
0
  6
Continuous
 62
     7
370
    25
100
AcDbLine
 10
-1454.4376659647
 20
469.0629464204
 30
0.0
 11
-1052.3763834039
 21
67.3263592314
 31
0.0
  0
ARC
  5
293
330
1F
100
AcDbEntity
  8
0
  6
Continuous
 62
     7
370
    25
100
AcDbCircle
 10
-1453.4663300473
 20
464.2177774209
 30
0.0
 40
4.941574253020322
100
AcDbArc
 50
101.336106356
 51
149.2897157721
  0
LINE
  5
294
330
1F
100
AcDbEntity
  8
0
  6
Continuous
 62
     7
370
    25
100
AcDbLine
 10
-1052.3763834039
 20
36.3727508423
 30
0.0
 11
-1457.9487029395
 21
-368.8720378894
 31
0.0
  0
ARC
  5
295
330
1F
100
AcDbEntity
  8
0
  6
Continuous
 62
     7
370
    25
100
AcDbCircle
 10
-1456.9773670221
 20
-364.0268688899
 30
0.0
 40
4.941574253022853
100
AcDbArc
 50
210.7102842279
 51
258.663893644
  0
LINE
  5
296
330
1F
100
AcDbEntity
  8
0
  6
Continuous
 62
     7
370
    25
100
AcDbLine
 10
-1450.9962073466
 20
469.0629464204
 30
0.0
 11
-1454.4376659647
 21
469.0629464204
 31
0.0
  0
LINE
  5
297
330
1F
100
AcDbEntity
  8
0
  6
Continuous
 62
     7
370
    25
100
AcDbLine
 10
-1048.9349247858
 20
67.3263592314
 30
0.0
 11
-1450.9962073466
 21
469.0629464204
 31
0.0
  0
LINE
  5
298
330
1F
100
AcDbEntity
  8
0
  6
Continuous
 62
     7
370
    25
100
AcDbLine
 10
-1454.5072443214
 20
-368.8720378894
 30
0.0
 11
-1048.9349247858
 21
36.3727508423
 31
0.0
  0
LINE
  5
299
330
1F
100
AcDbEntity
  8
0
  6
Continuous
 62
     7
370
    25
100
AcDbLine
 10
-1457.9487029395
 20
-368.8720378894
 30
0.0
 11
-1454.5072443214
 21
-368.8720378894
 31
0.0
  0
LINE
  5
29A
330
1F
100
AcDbEntity
  8
0
  6
Continuous
 62
     7
370
    25
100
AcDbLine
 10
-1470.2111067332
 20
475.8466615424
 30
0.0
 11
-1470.0027230635
 21
475.8477401286
 31
0.0
  0
LINE
  5
29B
330
1F
100
AcDbEntity
  8
0
  6
Continuous
 62
     7
370
    25
100
AcDbLine
 10
-1465.936298211
 20
475.8380371951
 30
0.0
 11
-1466.5612644454
 21
475.8477401286
 31
0.0
  0
LINE
  5
29C
330
1F
100
AcDbEntity
  8
0
  6
Continuous
 62
     7
370
    25
100
AcDbLine
 10
-1473.5137600383
 20
-375.6568315976
 30
0.0
 11
-1474.0379465508
 21
-375.6500059981
 31
0.0
  0
ARC
  5
29D
330
1F
100
AcDbEntity
  8
0
  6
Continuous
 62
     7
370
    25
100
AcDbCircle
 10
-1032.9377478893
 20
14.993590368
 30
0.0
 40
19.31330494353132
100
AcDbArc
 50
47.0663214508
 51
132.9336785492
  0
ARC
  5
29E
330
1F
100
AcDbEntity
  8
0
  6
Continuous
 62
     7
370
    25
100
AcDbCircle
 10
-1043.5693830844
 20
33.3822554397
 30
0.0
 40
4.941574253022753
100
AcDbArc
 50
191.336106356
 51
239.2897157721
  0
ARC
  5
29F
330
1F
100
AcDbEntity
  8
0
  6
Continuous
 62
     7
370
    25
100
AcDbCircle
 10
-1032.9377478893
 20
15.8092456384
 30
0.0
 40
22.69685096712011
100
AcDbArc
 50
47.008321224
 51
132.991678776
  0
ARC
  5
2A0
330
1F
100
AcDbEntity
  8
0
  6
Continuous
 62
     7
370
    25
100
AcDbCircle
 10
-1022.3061126943
 20
33.3822554397
 30
0.0
 40
4.941574253022924
100
AcDbArc
 50
300.7102842279
 51
348.663893644
  0
ARC
  5
2A1
330
1F
100
AcDbEntity
  8
0
  6
Continuous
 62
     7
370
    25
100
AcDbCircle
 10
-1036.1844903356
 20
-34.6153322584
 30
0.0
 40
2.769685683095639
100
AcDbArc
 50
186.2435463851
 51
275.1110737956
  0
LINE
  5
2A2
330
1F
100
AcDbEntity
  8
0
  6
Continuous
 62
     7
370
    25
100
AcDbLine
 10
-1035.9377478893
 20
-37.3740052996
 30
0.0
 11
-1029.9377478893
 21
-37.3740052996
 31
0.0
  0
ARC
  5
2A3
330
1F
100
AcDbEntity
  8
0
  6
Continuous
 62
     7
370
    25
100
AcDbCircle
 10
-1029.6910054431
 20
-34.6153322584
 30
0.0
 40
2.769685683095415
100
AcDbArc
 50
264.8889262044
 51
353.7564536149
  0
LINE
  5
2A4
330
1F
100
AcDbEntity
  8
0
  6
Continuous
 62
     7
370
    25
100
AcDbLine
 10
-1026.9377478893
 20
-34.9165491667
 30
0.0
 11
-1026.9377478893
 21
1.126140782
 31
0.0
  0
ARC
  5
2A5
330
1F
100
AcDbEntity
  8
0
  6
Continuous
 62
     7
370
    25
100
AcDbCircle
 10
-1029.6910054431
 20
0.8249238736
 30
0.0
 40
2.769685683095798
100
AcDbArc
 50
6.2435463851
 51
95.1110737956
  0
LINE
  5
2A6
330
1F
100
AcDbEntity
  8
0
  6
Continuous
 62
     7
370
    25
100
AcDbLine
 10
-1029.9377478893
 20
3.5835969149
 30
0.0
 11
-1035.9377478893
 21
3.5835969149
 31
0.0
  0
ARC
  5
2A7
330
1F
100
AcDbEntity
  8
0
  6
Continuous
 62
     7
370
    25
100
AcDbCircle
 10
-1036.1844903356
 20
0.8249238736
 30
0.0
 40
2.769685683095624
100
AcDbArc
 50
84.8889262044
 51
173.7564536149
  0
LINE
  5
2A8
330
1F
100
AcDbEntity
  8
0
  6
Continuous
 62
     7
370
    25
100
AcDbLine
 10
-1038.9377478893
 20
1.126140782
 30
0.0
 11
-1038.9377478893
 21
-34.9165491667
 31
0.0
  0
ARC
  5
2A9
330
1F
100
AcDbEntity
  8
0
  6
Continuous
 62
     7
370
    25
100
AcDbCircle
 10
-1036.1844903356
 20
-157.4881389017
 30
0.0
 40
2.769685683095692
100
AcDbArc
 50
186.2435463851
 51
275.1110737956
  0
LINE
  5
2AA
330
1F
100
AcDbEntity
  8
0
  6
Continuous
 62
     7
370
    25
100
AcDbLine
 10
-1035.9377478893
 20
-160.2468119429
 30
0.0
 11
-1029.9377478893
 21
-160.2468119429
 31
0.0
  0
ARC
  5
2AB
330
1F
100
AcDbEntity
  8
0
  6
Continuous
 62
     7
370
    25
100
AcDbCircle
 10
-1029.6910054431
 20
-157.4881389017
 30
0.0
 40
2.76968568309567
100
AcDbArc
 50
264.8889262044
 51
353.7564536149
  0
LINE
  5
2AC
330
1F
100
AcDbEntity
  8
0
  6
Continuous
 62
     7
370
    25
100
AcDbLine
 10
-1026.9377478893
 20
-157.7893558101
 30
0.0
 11
-1026.9377478893
 21
-121.7466658613
 31
0.0
  0
ARC
  5
2AD
330
1F
100
AcDbEntity
  8
0
  6
Continuous
 62
     7
370
    25
100
AcDbCircle
 10
-1029.6910054431
 20
-122.0478827697
 30
0.0
 40
2.769685683095172
100
AcDbArc
 50
6.2435463851
 51
95.1110737956
  0
LINE
  5
2AE
330
1F
100
AcDbEntity
  8
0
  6
Continuous
 62
     7
370
    25
100
AcDbLine
 10
-1029.9377478893
 20
-119.2892097285
 30
0.0
 11
-1035.9377478893
 21
-119.2892097285
 31
0.0
  0
ARC
  5
2AF
330
1F
100
AcDbEntity
  8
0
  6
Continuous
 62
     7
370
    25
100
AcDbCircle
 10
-1036.1844903356
 20
-122.0478827697
 30
0.0
 40
2.769685683095677
100
AcDbArc
 50
84.8889262044
 51
173.7564536149
  0
LINE
  5
2B0
330
1F
100
AcDbEntity
  8
0
  6
Continuous
 62
     7
370
    25
100
AcDbLine
 10
-1038.9377478893
 20
-121.7466658613
 30
0.0
 11
-1038.9377478893
 21
-157.7893558101
 31
0.0
  0
LWPOLYLINE
  5
2B1
330
1F
100
AcDbEntity
  8
0
  6
Continuous
 62
     7
370
    25
100
AcDbPolyline
 90
       17
 70
   128
 43
0.0
 10
-622.2180350577
 20
-409.7348342575
 10
-619.7332052783
 20
-408.4418500869
 10
-617.4349845582
 20
-406.934957527
 10
-615.3506925907
 20
-405.2320694973
 10
-613.5051060288
 20
-403.3534287787
 10
-611.9201639572
 20
-401.3213673814
 10
-610.614707095
 20
-399.1600410766
 10
-609.6042538304
 20
-396.8951422493
 10
-608.9008157482
 20
-394.5535944849
 10
-608.5127548446
 20
-392.1632325192
 10
-608.444684125
 20
-389.7524713583
 10
-608.6974127682
 20
-387.3499685001
 10
-609.2679365069
 20
-384.9842832734
 10
-610.1494733409
 20
-382.6835373441
 10
-611.3315441567
 20
-380.4750804232
 10
-612.8000972959
 20
-378.3851651529
 10
-614.5376755923
 20
-376.4386350322
  0
LINE
  5
2B2
330
1F
100
AcDbEntity
  8
0
  6
Continuous
 62
     7
370
    25
100
AcDbLine
 10
-685.029038435
 20
-438.6082163872
 30
0.0
 11
-622.2180350577
 21
-409.7348342575
 31
0.0
  0
ARC
  5
2B3
330
1F
100
AcDbEntity
  8
0
  6
Continuous
 62
     7
370
    25
100
AcDbCircle
 10
-698.2641012857
 20
-409.1612755449
 30
0.0
 40
32.28450423391206
100
AcDbArc
 50
252.3549659556
 51
294.201752952
  0
LINE
  5
2B4
330
1F
100
AcDbEntity
  8
0
  6
Continuous
 62
     7
370
    25
100
AcDbLine
 10
-871.3817893787
 20
-387.762995816
 30
0.0
 11
-708.050147855
 21
-439.9268814413
 31
0.0
  0
ARC
  5
2B5
330
1F
100
AcDbEntity
  8
0
  6
Continuous
 62
     7
370
    25
100
AcDbCircle
 10
-883.3767498873
 20
-425.7350781007
 30
0.0
 40
39.82157845488479
100
AcDbArc
 50
72.4692499907
 51
98.839590779
  0
LINE
  5
2B6
330
1F
100
AcDbEntity
  8
0
  6
Continuous
 62
     7
370
    25
100
AcDbLine
 10
-1295.113999682
 20
-449.1681813558
 30
0.0
 11
-889.496078292
 21
-386.3864830748
 31
0.0
  0
ARC
  5
2B7
330
1F
100
AcDbEntity
  8
0
  6
Continuous
 62
     7
370
    25
100
AcDbCircle
 10
-1300.1207229222
 20
-416.9738763346
 30
0.0
 40
32.58129146307798
100
AcDbArc
 50
252.4692499907
 51
278.839590779
  0
LINE
  5
2B8
330
1F
100
AcDbEntity
  8
0
  6
Continuous
 62
     7
370
    25
100
AcDbLine
 10
-1436.7437162039
 20
-407.5424623369
 30
0.0
 11
-1309.9347815202
 21
-448.0419436584
 31
0.0
  0
LWPOLYLINE
  5
2B9
330
1F
100
AcDbEntity
  8
0
  6
Continuous
 62
     7
370
    25
100
AcDbPolyline
 90
       19
 70
   128
 43
0.0
 10
-1447.8296186438
 20
-372.9275980574
 10
-1449.5027317381
 20
-374.7933540258
 10
-1450.9285982628
 20
-376.7921490018
 10
-1452.0915961259
 20
-378.9020837695
 10
-1452.9789832795
 20
-381.1000414419
 10
-1453.5810373241
 20
-383.361940735
 10
-1453.8911620297
 20
-385.6629998066
 10
-1453.9059596051
 20
-387.9780077721
 10
-1453.625267925
 20
-390.2816009198
 10
-1453.0521623061
 20
-392.548540601
 10
-1452.1929218135
 20
-394.7539897503
 10
-1451.056960466
 20
-396.8737850052
 10
-1449.6567240937
 20
-398.8847014454
 10
-1448.0075539793
 20
-400.7647070494
 10
-1446.1275187757
 20
-402.4932040826
 10
-1444.0372165421
 20
-404.0512547696
 10
-1441.7595490671
 20
-405.4217887812
 10
-1439.3194709522
 20
-406.5897902598
 10
-1436.7437162039
 20
-407.5424623369
  0
LINE
  5
2BA
330
1F
100
AcDbEntity
  8
0
  6
Continuous
 62
     7
370
    25
100
AcDbLine
 10
-1046.0930314547
 20
29.1336845034
 30
0.0
 11
-1447.8296186438
 21
-372.9275980574
 31
0.0
  0
LINE
  5
2BB
330
1F
100
AcDbEntity
  8
0
  6
Continuous
 62
     7
370
    25
100
AcDbLine
 10
-614.5376755923
 20
-376.4386350322
 30
0.0
 11
-1019.782464324
 21
29.1336845034
 31
0.0
  0
LINE
  5
2BC
330
1F
100
AcDbEntity
  8
0
  6
Continuous
 62
     7
370
    25
100
AcDbLine
 10
-1048.4145520839
 20
32.4109195223
 30
0.0
 11
-1048.4145520839
 21
35.8523781404
 31
0.0
  0
ARC
  5
2BD
330
1F
100
AcDbEntity
  8
0
  6
Continuous
 62
     7
370
    25
100
AcDbCircle
 10
-1032.9377478893
 20
19.2507042565
 30
0.0
 40
22.69685096712011
100
AcDbArc
 50
47.008321224
 51
132.991678776
  0
LINE
  5
2BE
330
1F
100
AcDbEntity
  8
0
  6
Continuous
 62
     7
370
    25
100
AcDbLine
 10
-1017.4609436948
 20
35.8523781404
 30
0.0
 11
-1017.4609436948
 21
32.4109195223
 31
0.0
  0
LINE
  5
2BF
330
1F
100
AcDbEntity
  8
0
  6
Continuous
 62
     7
370
    25
100
AcDbLine
 10
-1450.1511392729
 20
-369.6503630385
 30
0.0
 11
-1048.4145520839
 21
32.4109195223
 31
0.0
  0
ARC
  5
2C0
330
1F
100
AcDbEntity
  8
0
  6
Continuous
 62
     7
370
    25
100
AcDbCircle
 10
-1445.3059702734
 20
-368.6790271211
 30
0.0
 40
4.941574253023862
100
AcDbArc
 50
191.336106356
 51
239.2897157721
  0
LINE
  5
2C1
330
1F
100
AcDbEntity
  8
0
  6
Continuous
 62
     7
370
    25
100
AcDbLine
 10
-1017.4609436948
 20
32.4109195223
 30
0.0
 11
-612.2161549631
 21
-373.1614000133
 31
0.0
  0
ARC
  5
2C2
330
1F
100
AcDbEntity
  8
0
  6
Continuous
 62
     7
370
    25
100
AcDbCircle
 10
-617.0613239626
 20
-372.1900640958
 30
0.0
 40
4.941574253023121
100
AcDbArc
 50
300.7102842279
 51
348.663893644
  0
LINE
  5
2C3
330
1F
100
AcDbEntity
  8
0
  6
Continuous
 62
     7
370
    25
100
AcDbLine
 10
-612.2161549631
 20
-369.7199413951
 30
0.0
 11
-1017.4609436948
 21
35.8523781404
 31
0.0
  0
LINE
  5
2C4
330
1F
100
AcDbEntity
  8
0
  6
Continuous
 62
     7
370
    25
100
AcDbLine
 10
-612.2161549631
 20
-373.1614000133
 30
0.0
 11
-612.2161549631
 21
-369.7199413951
 31
0.0
  0
LINE
  5
2C5
330
1F
100
AcDbEntity
  8
0
  6
Continuous
 62
     7
370
    25
100
AcDbLine
 10
-1450.1511392729
 20
-366.2089044204
 30
0.0
 11
-1450.1511392729
 21
-369.6503630385
 31
0.0
  0
LINE
  5
2C6
330
1F
100
AcDbEntity
  8
0
  6
Continuous
 62
     7
370
    25
100
AcDbLine
 10
-1048.4145520839
 20
35.8523781404
 30
0.0
 11
-1450.1511392729
 21
-366.2089044204
 31
0.0
  0
LINE
  5
2C7
330
1F
100
AcDbEntity
  8
0
  6
Continuous
 62
     7
370
    25
100
AcDbLine
 10
-1456.9348543949
 20
-385.4238038069
 30
0.0
 11
-1456.9359329811
 21
-385.2154201373
 31
0.0
  0
LINE
  5
2C8
330
1F
100
AcDbEntity
  8
0
  6
Continuous
 62
     7
370
    25
100
AcDbLine
 10
-1456.9262300476
 20
-381.1489952848
 30
0.0
 11
-1456.9359329811
 21
-381.7739615192
 31
0.0
  0
LINE
  5
2C9
330
1F
100
AcDbEntity
  8
0
  6
Continuous
 62
     7
370
    25
100
AcDbLine
 10
-605.4313612549
 20
-388.726457112
 30
0.0
 11
-605.4381868544
 21
-389.2506436246
 31
0.0
  0
ARC
  5
2CA
330
1F
100
AcDbEntity
  8
0
  6
Continuous
 62
     7
370
    25
100
AcDbCircle
 10
-996.0817832205
 20
51.8495550369
 30
0.0
 40
19.31330494353058
100
AcDbArc
 50
137.0663214508
 51
222.9336785492
  0
ARC
  5
2CB
330
1F
100
AcDbEntity
  8
0
  6
Continuous
 62
     7
370
    25
100
AcDbCircle
 10
-1014.4704482922
 20
41.2179198418
 30
0.0
 40
4.94157425302178
100
AcDbArc
 50
281.336106356
 51
329.2897157721
  0
ARC
  5
2CC
330
1F
100
AcDbEntity
  8
0
  6
Continuous
 62
     7
370
    25
100
AcDbCircle
 10
-996.8974384909
 20
51.8495550369
 30
0.0
 40
22.69685096712044
100
AcDbArc
 50
137.008321224
 51
222.991678776
  0
ARC
  5
2CD
330
1F
100
AcDbEntity
  8
0
  6
Continuous
 62
     7
370
    25
100
AcDbCircle
 10
-1014.4704482922
 20
62.4811902319
 30
0.0
 40
4.941574253023522
100
AcDbArc
 50
30.7102842279
 51
78.663893644
  0
ARC
  5
2CE
330
1F
100
AcDbEntity
  8
0
  6
Continuous
 62
     7
370
    25
100
AcDbCircle
 10
-946.4728605941
 20
48.6028125906
 30
0.0
 40
2.769685683095159
100
AcDbArc
 50
276.2435463851
 51
5.1110737956
  0
LINE
  5
2CF
330
1F
100
AcDbEntity
  8
0
  6
Continuous
 62
     7
370
    25
100
AcDbLine
 10
-943.7141875529
 20
48.8495550369
 30
0.0
 11
-943.7141875529
 21
54.8495550369
 31
0.0
  0
ARC
  5
2D0
330
1F
100
AcDbEntity
  8
0
  6
Continuous
 62
     7
370
    25
100
AcDbCircle
 10
-946.4728605941
 20
55.0962974831
 30
0.0
 40
2.769685683095265
100
AcDbArc
 50
354.8889262044
 51
83.7564536149
  0
LINE
  5
2D1
330
1F
100
AcDbEntity
  8
0
  6
Continuous
 62
     7
370
    25
100
AcDbLine
 10
-946.1716436858
 20
57.8495550369
 30
0.0
 11
-982.2143336345
 21
57.8495550369
 31
0.0
  0
ARC
  5
2D2
330
1F
100
AcDbEntity
  8
0
  6
Continuous
 62
     7
370
    25
100
AcDbCircle
 10
-981.9131167261
 20
55.0962974831
 30
0.0
 40
2.769685683096019
100
AcDbArc
 50
96.2435463851
 51
185.1110737956
  0
LINE
  5
2D3
330
1F
100
AcDbEntity
  8
0
  6
Continuous
 62
     7
370
    25
100
AcDbLine
 10
-984.6717897674
 20
54.8495550369
 30
0.0
 11
-984.6717897674
 21
48.8495550369
 31
0.0
  0
ARC
  5
2D4
330
1F
100
AcDbEntity
  8
0
  6
Continuous
 62
     7
370
    25
100
AcDbCircle
 10
-981.9131167261
 20
48.6028125906
 30
0.0
 40
2.769685683095802
100
AcDbArc
 50
174.8889262044
 51
263.7564536149
  0
LINE
  5
2D5
330
1F
100
AcDbEntity
  8
0
  6
Continuous
 62
     7
370
    25
100
AcDbLine
 10
-982.2143336345
 20
45.8495550369
 30
0.0
 11
-946.1716436858
 21
45.8495550369
 31
0.0
  0
ARC
  5
2D6
330
1F
100
AcDbEntity
  8
0
  6
Continuous
 62
     7
370
    25
100
AcDbCircle
 10
-823.6000539508
 20
48.6028125906
 30
0.0
 40
2.769685683095695
100
AcDbArc
 50
276.2435463851
 51
5.1110737956
  0
LINE
  5
2D7
330
1F
100
AcDbEntity
  8
0
  6
Continuous
 62
     7
370
    25
100
AcDbLine
 10
-820.8413809096
 20
48.8495550369
 30
0.0
 11
-820.8413809096
 21
54.8495550369
 31
0.0
  0
ARC
  5
2D8
330
1F
100
AcDbEntity
  8
0
  6
Continuous
 62
     7
370
    25
100
AcDbCircle
 10
-823.6000539508
 20
55.0962974831
 30
0.0
 40
2.769685683095431
100
AcDbArc
 50
354.8889262044
 51
83.7564536149
  0
LINE
  5
2D9
330
1F
100
AcDbEntity
  8
0
  6
Continuous
 62
     7
370
    25
100
AcDbLine
 10
-823.2988370424
 20
57.8495550369
 30
0.0
 11
-859.3415269911
 21
57.8495550369
 31
0.0
  0
ARC
  5
2DA
330
1F
100
AcDbEntity
  8
0
  6
Continuous
 62
     7
370
    25
100
AcDbCircle
 10
-859.0403100828
 20
55.0962974831
 30
0.0
 40
2.769685683095297
100
AcDbArc
 50
96.2435463851
 51
185.1110737956
  0
LINE
  5
2DB
330
1F
100
AcDbEntity
  8
0
  6
Continuous
 62
     7
370
    25
100
AcDbLine
 10
-861.798983124
 20
54.8495550369
 30
0.0
 11
-861.798983124
 21
48.8495550369
 31
0.0
  0
ARC
  5
2DC
330
1F
100
AcDbEntity
  8
0
  6
Continuous
 62
     7
370
    25
100
AcDbCircle
 10
-859.0403100828
 20
48.6028125906
 30
0.0
 40
2.769685683095406
100
AcDbArc
 50
174.8889262044
 51
263.7564536149
  0
LINE
  5
2DD
330
1F
100
AcDbEntity
  8
0
  6
Continuous
 62
     7
370
    25
100
AcDbLine
 10
-859.3415269911
 20
45.8495550369
 30
0.0
 11
-823.2988370424
 21
45.8495550369
 31
0.0
  0
LWPOLYLINE
  5
2DE
330
1F
100
AcDbEntity
  8
0
  6
Continuous
 62
     7
370
    25
100
AcDbPolyline
 90
       17
 70
   128
 43
0.0
 10
-571.353358595
 20
462.5692678685
 10
-572.6463427656
 20
465.0540976479
 10
-574.1532353255
 20
467.352318368
 10
-575.8561233552
 20
469.4366103355
 10
-577.7347640737
 20
471.2821968974
 10
-579.7668254711
 20
472.867138969
 10
-581.9281517759
 20
474.1725958312
 10
-584.1930506031
 20
475.1830490958
 10
-586.5345983676
 20
475.886487178
 10
-588.9249603333
 20
476.2745480816
 10
-591.3357214942
 20
476.3426188012
 10
-593.7382243524
 20
476.089890158
 10
-596.103909579
 20
475.5193664193
 10
-598.4046555084
 20
474.6378295853
 10
-600.6131124292
 20
473.4557587695
 10
-602.7030276995
 20
471.9872056303
 10
-604.6495578203
 20
470.2496273339
  0
LINE
  5
2DF
330
1F
100
AcDbEntity
  8
0
  6
Continuous
 62
     7
370
    25
100
AcDbLine
 10
-542.4799764653
 20
399.7582644912
 30
0.0
 11
-571.353358595
 21
462.5692678685
 31
0.0
  0
ARC
  5
2E0
330
1F
100
AcDbEntity
  8
0
  6
Continuous
 62
     7
370
    25
100
AcDbCircle
 10
-571.9269173076
 20
386.5232016405
 30
0.0
 40
32.28450423391315
100
AcDbArc
 50
342.3549659556
 51
24.201752952
  0
LINE
  5
2E1
330
1F
100
AcDbEntity
  8
0
  6
Continuous
 62
     7
370
    25
100
AcDbLine
 10
-593.3251970365
 20
213.4055135475
 30
0.0
 11
-541.1613114112
 21
376.7371550712
 31
0.0
  0
ARC
  5
2E2
330
1F
100
AcDbEntity
  8
0
  6
Continuous
 62
     7
370
    25
100
AcDbCircle
 10
-555.3531147518
 20
201.4105530389
 30
0.0
 40
39.821578454881
100
AcDbArc
 50
162.4692499907
 51
188.839590779
  0
LINE
  5
2E3
330
1F
100
AcDbEntity
  8
0
  6
Continuous
 62
     7
370
    25
100
AcDbLine
 10
-531.9200114967
 20
-210.3266967558
 30
0.0
 11
-594.7017097777
 21
195.2912246342
 31
0.0
  0
ARC
  5
2E4
330
1F
100
AcDbEntity
  8
0
  6
Continuous
 62
     7
370
    25
100
AcDbCircle
 10
-564.1143165179
 20
-215.333419996
 30
0.0
 40
32.58129146308073
100
AcDbArc
 50
342.4692499907
 51
8.839590779
  0
LINE
  5
2E5
330
1F
100
AcDbEntity
  8
0
  6
Continuous
 62
     7
370
    25
100
AcDbLine
 10
-573.5457305156
 20
-351.9564132777
 30
0.0
 11
-533.0462491941
 21
-225.147478594
 31
0.0
  0
LWPOLYLINE
  5
2E6
330
1F
100
AcDbEntity
  8
0
  6
Continuous
 62
     7
370
    25
100
AcDbPolyline
 90
       19
 70
   128
 43
0.0
 10
-608.1605947951
 20
-363.0423157175
 10
-606.2948388267
 20
-364.7154288119
 10
-604.2960438507
 20
-366.1412953366
 10
-602.186109083
 20
-367.3042931997
 10
-599.9881514106
 20
-368.1916803533
 10
-597.7262521175
 20
-368.7937343979
 10
-595.4251930459
 20
-369.1038591035
 10
-593.1101850804
 20
-369.1186566789
 10
-590.8065919327
 20
-368.8379649988
 10
-588.5396522515
 20
-368.2648593799
 10
-586.3342031022
 20
-367.4056188873
 10
-584.2144078473
 20
-366.2696575398
 10
-582.2034914071
 20
-364.8694211674
 10
-580.3234858031
 20
-363.2202510531
 10
-578.5949887699
 20
-361.3402158495
 10
-577.0369380829
 20
-359.2499136159
 10
-575.6664040713
 20
-356.9722461409
 10
-574.4984025927
 20
-354.532168026
 10
-573.5457305156
 20
-351.9564132777
  0
LINE
  5
2E7
330
1F
100
AcDbEntity
  8
0
  6
Continuous
 62
     7
370
    25
100
AcDbLine
 10
-1010.2218773558
 20
38.6942714715
 30
0.0
 11
-608.1605947951
 21
-363.0423157175
 31
0.0
  0
LINE
  5
2E8
330
1F
100
AcDbEntity
  8
0
  6
Continuous
 62
     7
370
    25
100
AcDbLine
 10
-604.6495578203
 20
470.2496273339
 30
0.0
 11
-1010.2218773558
 21
65.0048386022
 31
0.0
  0
LINE
  5
2E9
330
1F
100
AcDbEntity
  8
0
  6
Continuous
 62
     7
370
    25
100
AcDbLine
 10
-1013.4991123748
 20
36.3727508423
 30
0.0
 11
-1016.9405709929
 21
36.3727508423
 31
0.0
  0
ARC
  5
2EA
330
1F
100
AcDbEntity
  8
0
  6
Continuous
 62
     7
370
    25
100
AcDbCircle
 10
-1000.338897109
 20
51.8495550369
 30
0.0
 40
22.6968509671205
100
AcDbArc
 50
137.008321224
 51
222.991678776
  0
LINE
  5
2EB
330
1F
100
AcDbEntity
  8
0
  6
Continuous
 62
     7
370
    25
100
AcDbLine
 10
-1016.9405709929
 20
67.3263592314
 30
0.0
 11
-1013.4991123748
 21
67.3263592314
 31
0.0
  0
LINE
  5
2EC
330
1F
100
AcDbEntity
  8
0
  6
Continuous
 62
     7
370
    25
100
AcDbLine
 10
-1013.4991123748
 20
67.3263592314
 30
0.0
 11
-607.9267928392
 21
472.5711479631
 31
0.0
  0
ARC
  5
2ED
330
1F
100
AcDbEntity
  8
0
  6
Continuous
 62
     7
370
    25
100
AcDbCircle
 10
-608.8981287566
 20
467.7259789636
 30
0.0
 40
4.941574253022731
100
AcDbArc
 50
30.7102842279
 51
78.663893644
  0
LINE
  5
2EE
330
1F
100
AcDbEntity
  8
0
  6
Continuous
 62
     7
370
    25
100
AcDbLine
 10
-611.437829814
 20
-365.3638363467
 30
0.0
 11
-1013.4991123748
 21
36.3727508423
 31
0.0
  0
ARC
  5
2EF
330
1F
100
AcDbEntity
  8
0
  6
Continuous
 62
     7
370
    25
100
AcDbCircle
 10
-612.4091657314
 20
-360.5186673472
 30
0.0
 40
4.941574253021947
100
AcDbArc
 50
281.336106356
 51
329.2897157721
  0
LINE
  5
2F0
330
1F
100
AcDbEntity
  8
0
  6
Continuous
 62
     7
370
    25
100
AcDbLine
 10
-611.3682514573
 20
472.5711479631
 30
0.0
 11
-1016.9405709929
 21
67.3263592314
 31
0.0
  0
LINE
  5
2F1
330
1F
100
AcDbEntity
  8
0
  6
Continuous
 62
     7
370
    25
100
AcDbLine
 10
-607.9267928392
 20
472.5711479631
 30
0.0
 11
-611.3682514573
 21
472.5711479631
 31
0.0
  0
LINE
  5
2F2
330
1F
100
AcDbEntity
  8
0
  6
Continuous
 62
     7
370
    25
100
AcDbLine
 10
-614.8792884321
 20
-365.3638363467
 30
0.0
 11
-611.437829814
 21
-365.3638363467
 31
0.0
  0
LINE
  5
2F3
330
1F
100
AcDbEntity
  8
0
  6
Continuous
 62
     7
370
    25
100
AcDbLine
 10
-1016.9405709929
 20
36.3727508423
 30
0.0
 11
-614.8792884321
 21
-365.3638363467
 31
0.0
  0
LINE
  5
2F4
330
1F
100
AcDbEntity
  8
0
  6
Continuous
 62
     7
370
    25
100
AcDbLine
 10
-595.6643890455
 20
-372.1475514687
 30
0.0
 11
-595.8727727152
 21
-372.1486300549
 31
0.0
  0
LINE
  5
2F5
330
1F
100
AcDbEntity
  8
0
  6
Continuous
 62
     7
370
    25
100
AcDbLine
 10
-599.9391975677
 20
-372.1389271214
 30
0.0
 11
-599.3142313333
 21
-372.1486300549
 31
0.0
  0
LINE
  5
2F6
330
1F
100
AcDbEntity
  8
0
  6
Continuous
 62
     7
370
    25
100
AcDbLine
 10
-592.3617357404
 20
479.3559416713
 30
0.0
 11
-591.8375492279
 21
479.3491160718
 31
0.0
  0
ARC
  5
2F7
330
1F
100
AcDbEntity
  8
0
  6
Continuous
 62
     7
370
    25
100
AcDbCircle
 10
-1032.9377478893
 20
88.7055197057
 30
0.0
 40
19.31330494353096
100
AcDbArc
 50
227.0663214508
 51
312.9336785492
  0
ARC
  5
2F8
330
1F
100
AcDbEntity
  8
0
  6
Continuous
 62
     7
370
    25
100
AcDbCircle
 10
-1022.3061126943
 20
70.316854634
 30
0.0
 40
4.941574253024233
100
AcDbArc
 50
11.3361063561
 51
59.2897157721
  0
ARC
  5
2F9
330
1F
100
AcDbEntity
  8
0
  6
Continuous
 62
     7
370
    25
100
AcDbCircle
 10
-1032.9377478893
 20
87.8898644353
 30
0.0
 40
22.69685096712033
100
AcDbArc
 50
227.008321224
 51
312.991678776
  0
ARC
  5
2FA
330
1F
100
AcDbEntity
  8
0
  6
Continuous
 62
     7
370
    25
100
AcDbCircle
 10
-1043.5693830844
 20
70.316854634
 30
0.0
 40
4.9415742530227
100
AcDbArc
 50
120.7102842279
 51
168.663893644
  0
ARC
  5
2FB
330
1F
100
AcDbEntity
  8
0
  6
Continuous
 62
     7
370
    25
100
AcDbCircle
 10
-1029.6910054431
 20
138.3144423321
 30
0.0
 40
2.769685683095307
100
AcDbArc
 50
6.2435463851
 51
95.1110737956
  0
LINE
  5
2FC
330
1F
100
AcDbEntity
  8
0
  6
Continuous
 62
     7
370
    25
100
AcDbLine
 10
-1029.9377478893
 20
141.0731153733
 30
0.0
 11
-1035.9377478893
 21
141.0731153733
 31
0.0
  0
ARC
  5
2FD
330
1F
100
AcDbEntity
  8
0
  6
Continuous
 62
     7
370
    25
100
AcDbCircle
 10
-1036.1844903356
 20
138.3144423321
 30
0.0
 40
2.769685683095554
100
AcDbArc
 50
84.8889262044
 51
173.7564536149
  0
LINE
  5
2FE
330
1F
100
AcDbEntity
  8
0
  6
Continuous
 62
     7
370
    25
100
AcDbLine
 10
-1038.9377478893
 20
138.6156592404
 30
0.0
 11
-1038.9377478893
 21
102.5729692917
 31
0.0
  0
ARC
  5
2FF
330
1F
100
AcDbEntity
  8
0
  6
Continuous
 62
     7
370
    25
100
AcDbCircle
 10
-1036.1844903356
 20
102.8741862001
 30
0.0
 40
2.769685683095845
100
AcDbArc
 50
186.2435463851
 51
275.1110737956
  0
LINE
  5
300
330
1F
100
AcDbEntity
  8
0
  6
Continuous
 62
     7
370
    25
100
AcDbLine
 10
-1035.9377478893
 20
100.1155131589
 30
0.0
 11
-1029.9377478893
 21
100.1155131589
 31
0.0
  0
ARC
  5
301
330
1F
100
AcDbEntity
  8
0
  6
Continuous
 62
     7
370
    25
100
AcDbCircle
 10
-1029.6910054431
 20
102.8741862001
 30
0.0
 40
2.769685683095675
100
AcDbArc
 50
264.8889262044
 51
353.7564536149
  0
LINE
  5
302
330
1F
100
AcDbEntity
  8
0
  6
Continuous
 62
     7
370
    25
100
AcDbLine
 10
-1026.9377478893
 20
102.5729692917
 30
0.0
 11
-1026.9377478893
 21
138.6156592404
 31
0.0
  0
ARC
  5
303
330
1F
100
AcDbEntity
  8
0
  6
Continuous
 62
     7
370
    25
100
AcDbCircle
 10
-1029.6910054431
 20
261.1872489754
 30
0.0
 40
2.76968568309606
100
AcDbArc
 50
6.2435463851
 51
95.1110737956
  0
LINE
  5
304
330
1F
100
AcDbEntity
  8
0
  6
Continuous
 62
     7
370
    25
100
AcDbLine
 10
-1029.9377478894
 20
263.9459220167
 30
0.0
 11
-1035.9377478894
 21
263.9459220167
 31
0.0
  0
ARC
  5
305
330
1F
100
AcDbEntity
  8
0
  6
Continuous
 62
     7
370
    25
100
AcDbCircle
 10
-1036.1844903356
 20
261.1872489754
 30
0.0
 40
2.769685683095477
100
AcDbArc
 50
84.8889262044
 51
173.7564536149
  0
LINE
  5
306
330
1F
100
AcDbEntity
  8
0
  6
Continuous
 62
     7
370
    25
100
AcDbLine
 10
-1038.9377478894
 20
261.4884658838
 30
0.0
 11
-1038.9377478894
 21
225.4457759351
 31
0.0
  0
ARC
  5
307
330
1F
100
AcDbEntity
  8
0
  6
Continuous
 62
     7
370
    25
100
AcDbCircle
 10
-1036.1844903356
 20
225.7469928434
 30
0.0
 40
2.769685683095416
100
AcDbArc
 50
186.2435463851
 51
275.1110737956
  0
LINE
  5
308
330
1F
100
AcDbEntity
  8
0
  6
Continuous
 62
     7
370
    25
100
AcDbLine
 10
-1035.9377478894
 20
222.9883198022
 30
0.0
 11
-1029.9377478894
 21
222.9883198022
 31
0.0
  0
ARC
  5
309
330
1F
100
AcDbEntity
  8
0
  6
Continuous
 62
     7
370
    25
100
AcDbCircle
 10
-1029.6910054431
 20
225.7469928434
 30
0.0
 40
2.76968568309541
100
AcDbArc
 50
264.8889262044
 51
353.7564536149
  0
LINE
  5
30A
330
1F
100
AcDbEntity
  8
0
  6
Continuous
 62
     7
370
    25
100
AcDbLine
 10
-1026.9377478894
 20
225.4457759351
 30
0.0
 11
-1026.9377478894
 21
261.4884658838
 31
0.0
  0
LWPOLYLINE
  5
30B
330
1F
100
AcDbEntity
  8
0
  6
Continuous
 62
     7
370
    25
100
AcDbPolyline
 90
       17
 70
   128
 43
0.0
 10
-1443.657460721
 20
513.4339443312
 10
-1446.1422905004
 20
512.1409601606
 10
-1448.4405112205
 20
510.6340676007
 10
-1450.524803188
 20
508.931179571
 10
-1452.3703897499
 20
507.0525388525
 10
-1453.9553318215
 20
505.0204774551
 10
-1455.2607886837
 20
502.8591511503
 10
-1456.2712419483
 20
500.5942523231
 10
-1456.9746800305
 20
498.2527045586
 10
-1457.3627409341
 20
495.8623425929
 10
-1457.4308116537
 20
493.451581432
 10
-1457.1780830105
 20
491.0490785738
 10
-1456.6075592718
 20
488.6833933472
 10
-1455.7260224378
 20
486.3826474178
 10
-1454.543951622
 20
484.174190497
 10
-1453.0753984828
 20
482.0842752267
 10
-1451.3378201864
 20
480.1377451059
  0
LINE
  5
30C
330
1F
100
AcDbEntity
  8
0
  6
Continuous
 62
     7
370
    25
100
AcDbLine
 10
-1380.8464573437
 20
542.3073264609
 30
0.0
 11
-1443.657460721
 21
513.4339443312
 31
0.0
  0
ARC
  5
30D
330
1F
100
AcDbEntity
  8
0
  6
Continuous
 62
     7
370
    25
100
AcDbCircle
 10
-1367.611394493
 20
512.8603856186
 30
0.0
 40
32.28450423390978
100
AcDbArc
 50
72.3549659556
 51
114.201752952
  0
LINE
  5
30E
330
1F
100
AcDbEntity
  8
0
  6
Continuous
 62
     7
370
    25
100
AcDbLine
 10
-1194.4937064
 20
491.4621058897
 30
0.0
 11
-1357.8253479237
 21
543.625991515
 31
0.0
  0
ARC
  5
30F
330
1F
100
AcDbEntity
  8
0
  6
Continuous
 62
     7
370
    25
100
AcDbCircle
 10
-1182.4987458914
 20
529.4341881744
 30
0.0
 40
39.82157845488057
100
AcDbArc
 50
252.4692499907
 51
278.839590779
  0
LINE
  5
310
330
1F
100
AcDbEntity
  8
0
  6
Continuous
 62
     7
370
    25
100
AcDbLine
 10
-770.7614960967
 20
552.8672914295
 30
0.0
 11
-1176.3794174867
 21
490.0855931485
 31
0.0
  0
ARC
  5
311
330
1F
100
AcDbEntity
  8
0
  6
Continuous
 62
     7
370
    25
100
AcDbCircle
 10
-765.7547728565
 20
520.6729864083
 30
0.0
 40
32.58129146308077
100
AcDbArc
 50
72.4692499907
 51
98.839590779
  0
LINE
  5
312
330
1F
100
AcDbEntity
  8
0
  6
Continuous
 62
     7
370
    25
100
AcDbLine
 10
-629.1317795748
 20
511.2415724106
 30
0.0
 11
-755.9407142585
 21
551.7410537321
 31
0.0
  0
LWPOLYLINE
  5
313
330
1F
100
AcDbEntity
  8
0
  6
Continuous
 62
     7
370
    25
100
AcDbPolyline
 90
       19
 70
   128
 43
0.0
 10
-618.0458771349
 20
476.6267081312
 10
-616.3727640406
 20
478.4924640995
 10
-614.9468975159
 20
480.4912590755
 10
-613.7838996528
 20
482.6011938432
 10
-612.8965124992
 20
484.7991515156
 10
-612.2944584546
 20
487.0610508087
 10
-611.984333749
 20
489.3621098803
 10
-611.9695361736
 20
491.6771178458
 10
-612.2502278537
 20
493.9807109935
 10
-612.8233334726
 20
496.2476506747
 10
-613.6825739652
 20
498.453099824
 10
-614.8185353127
 20
500.5728950789
 10
-616.218771685
 20
502.5838115191
 10
-617.8679417994
 20
504.4638171232
 10
-619.747977003
 20
506.1923141563
 10
-621.8382792366
 20
507.7503648433
 10
-624.1159467116
 20
509.1208988549
 10
-626.5560248265
 20
510.2889003335
 10
-629.1317795748
 20
511.2415724106
  0
LINE
  5
314
330
1F
100
AcDbEntity
  8
0
  6
Continuous
 62
     7
370
    25
100
AcDbLine
 10
-1019.782464324
 20
74.5654255704
 30
0.0
 11
-618.0458771349
 21
476.6267081312
 31
0.0
  0
LINE
  5
315
330
1F
100
AcDbEntity
  8
0
  6
Continuous
 62
     7
370
    25
100
AcDbLine
 10
-1451.3378201864
 20
480.1377451059
 30
0.0
 11
-1046.0930314547
 21
74.5654255704
 31
0.0
  0
LINE
  5
316
330
1F
100
AcDbEntity
  8
0
  6
Continuous
 62
     7
370
    25
100
AcDbLine
 10
-1017.4609436948
 20
71.2881905514
 30
0.0
 11
-1017.4609436948
 21
67.8467319333
 31
0.0
  0
ARC
  5
317
330
1F
100
AcDbEntity
  8
0
  6
Continuous
 62
     7
370
    25
100
AcDbCircle
 10
-1032.9377478893
 20
84.4484058172
 30
0.0
 40
22.69685096712048
100
AcDbArc
 50
227.008321224
 51
312.991678776
  0
LINE
  5
318
330
1F
100
AcDbEntity
  8
0
  6
Continuous
 62
     7
370
    25
100
AcDbLine
 10
-1048.4145520839
 20
67.8467319333
 30
0.0
 11
-1048.4145520839
 21
71.2881905514
 31
0.0
  0
LINE
  5
319
330
1F
100
AcDbEntity
  8
0
  6
Continuous
 62
     7
370
    25
100
AcDbLine
 10
-1048.4145520839
 20
71.2881905514
 30
0.0
 11
-1453.6593408156
 21
476.860510087
 31
0.0
  0
ARC
  5
31A
330
1F
100
AcDbEntity
  8
0
  6
Continuous
 62
     7
370
    25
100
AcDbCircle
 10
-1448.8141718161
 20
475.8891741696
 30
0.0
 40
4.941574253022697
100
AcDbArc
 50
120.7102842279
 51
168.663893644
  0
LINE
  5
31B
330
1F
100
AcDbEntity
  8
0
  6
Continuous
 62
     7
370
    25
100
AcDbLine
 10
-615.7243565058
 20
473.3494731122
 30
0.0
 11
-1017.4609436948
 21
71.2881905514
 31
0.0
  0
ARC
  5
31C
330
1F
100
AcDbEntity
  8
0
  6
Continuous
 62
     7
370
    25
100
AcDbCircle
 10
-620.5695255053
 20
472.3781371948
 30
0.0
 40
4.941574253022485
100
AcDbArc
 50
11.336106356
 51
59.2897157721
  0
LINE
  5
31D
330
1F
100
AcDbEntity
  8
0
  6
Continuous
 62
     7
370
    25
100
AcDbLine
 10
-1453.6593408156
 20
473.4190514689
 30
0.0
 11
-1048.4145520839
 21
67.8467319333
 31
0.0
  0
LINE
  5
31E
330
1F
100
AcDbEntity
  8
0
  6
Continuous
 62
     7
370
    25
100
AcDbLine
 10
-1453.6593408156
 20
476.860510087
 30
0.0
 11
-1453.6593408156
 21
473.4190514689
 31
0.0
  0
LINE
  5
31F
330
1F
100
AcDbEntity
  8
0
  6
Continuous
 62
     7
370
    25
100
AcDbLine
 10
-615.7243565058
 20
469.9080144941
 30
0.0
 11
-615.7243565058
 21
473.3494731122
 31
0.0
  0
LINE
  5
320
330
1F
100
AcDbEntity
  8
0
  6
Continuous
 62
     7
370
    25
100
AcDbLine
 10
-1017.4609436948
 20
67.8467319333
 30
0.0
 11
-615.7243565058
 21
469.9080144941
 31
0.0
  0
LINE
  5
321
330
1F
100
AcDbEntity
  8
0
  6
Continuous
 62
     7
370
    25
100
AcDbLine
 10
-608.9406413838
 20
489.1229138807
 30
0.0
 11
-608.9395627976
 21
488.914530211
 31
0.0
  0
LINE
  5
322
330
1F
100
AcDbEntity
  8
0
  6
Continuous
 62
     7
370
    25
100
AcDbLine
 10
-608.9492657311
 20
484.8481053585
 30
0.0
 11
-608.9395627976
 21
485.4730715929
 31
0.0
  0
LINE
  5
323
330
1F
100
AcDbEntity
  8
0
  6
Continuous
 62
     7
370
    25
100
AcDbLine
 10
-1460.4441345238
 20
492.4255671858
 30
0.0
 11
-1460.4373089243
 21
492.9497536983
 31
0.0
  0
LINE
  5
324
330
1F
100
AcDbEntity
  8
0
  6
Continuous
 62
     7
370
    25
100
AcDbLine
 10
-1043.1881676545
 20
57.8495550369
 30
0.0
 11
-1022.6869151592
 21
57.8495550369
 31
0.0
  0
LINE
  5
325
330
1F
100
AcDbEntity
  8
0
  6
Continuous
 62
     7
370
    25
100
AcDbLine
 10
-1043.1885806195
 20
45.8495550369
 30
0.0
 11
-1022.6873281242
 21
45.8495550369
 31
0.0
  0
LINE
  5
326
330
1F
100
AcDbEntity
  8
0
  6
Continuous
 62
     7
370
    25
100
AcDbLine
 10
-943.7141875529
 20
45.8495550369
 30
0.0
 11
-943.7141875529
 21
57.8495550369
 31
0.0
  0
LINE
  5
327
330
1F
100
AcDbEntity
  8
0
  6
Continuous
 62
     7
370
    25
100
AcDbLine
 10
-984.6717897674
 20
57.8495550369
 30
0.0
 11
-984.6717897674
 21
45.8495550369
 31
0.0
  0
LINE
  5
328
330
1F
100
AcDbEntity
  8
0
  6
Continuous
 62
     7
370
    25
100
AcDbLine
 10
-984.6717897674
 20
45.8495550369
 30
0.0
 11
-943.7141875529
 21
45.8495550369
 31
0.0
  0
LINE
  5
329
330
1F
100
AcDbEntity
  8
0
  6
Continuous
 62
     7
370
    25
100
AcDbLine
 10
-943.7141875529
 20
57.8495550369
 30
0.0
 11
-984.6717897674
 21
57.8495550369
 31
0.0
  0
LINE
  5
32A
330
1F
100
AcDbEntity
  8
0
  6
Continuous
 62
     7
370
    25
100
AcDbLine
 10
-1122.1613082258
 20
45.8495550369
 30
0.0
 11
-1122.1613082258
 21
57.8495550369
 31
0.0
  0
LINE
  5
32B
330
1F
100
AcDbEntity
  8
0
  6
Continuous
 62
     7
370
    25
100
AcDbLine
 10
-1081.2037060113
 20
57.8495550369
 30
0.0
 11
-1081.2037060113
 21
45.8495550369
 31
0.0
  0
LINE
  5
32C
330
1F
100
AcDbEntity
  8
0
  6
Continuous
 62
     7
370
    25
100
AcDbLine
 10
-1081.2037060113
 20
45.8495550369
 30
0.0
 11
-1122.1613082258
 21
45.8495550369
 31
0.0
  0
LINE
  5
32D
330
1F
100
AcDbEntity
  8
0
  6
Continuous
 62
     7
370
    25
100
AcDbLine
 10
-1122.1613082258
 20
57.8495550369
 30
0.0
 11
-1081.2037060113
 21
57.8495550369
 31
0.0
  0
LINE
  5
32E
330
1F
100
AcDbEntity
  8
0
  6
Continuous
 62
     7
370
    25
100
AcDbLine
 10
-861.798983124
 20
57.8495550369
 30
0.0
 11
-861.798983124
 21
45.8495550369
 31
0.0
  0
LINE
  5
32F
330
1F
100
AcDbEntity
  8
0
  6
Continuous
 62
     7
370
    25
100
AcDbLine
 10
-1204.0765126547
 20
57.8495550369
 30
0.0
 11
-1204.0765126547
 21
45.8495550369
 31
0.0
  0
LINE
  5
330
330
1F
100
AcDbEntity
  8
0
  6
Continuous
 62
     7
370
    25
100
AcDbLine
 10
-1245.0341148691
 20
45.8495550369
 30
0.0
 11
-1245.0341148691
 21
57.8495550369
 31
0.0
  0
LINE
  5
331
330
1F
100
AcDbEntity
  8
0
  6
Continuous
 62
     7
370
    25
100
AcDbLine
 10
-1204.0765126547
 20
45.8495550369
 30
0.0
 11
-1245.0341148691
 21
45.8495550369
 31
0.0
  0
LINE
  5
332
330
1F
100
AcDbEntity
  8
0
  6
Continuous
 62
     7
370
    25
100
AcDbLine
 10
-1245.0341148691
 20
57.8495550369
 30
0.0
 11
-1204.0765126547
 21
57.8495550369
 31
0.0
  0
LINE
  5
333
330
1F
100
AcDbEntity
  8
0
  6
Continuous
 62
     7
370
    25
100
AcDbLine
 10
-820.8413809096
 20
45.8495550369
 30
0.0
 11
-820.8413809096
 21
57.8495550369
 31
0.0
  0
LINE
  5
334
330
1F
100
AcDbEntity
  8
0
  6
Continuous
 62
     7
370
    25
100
AcDbLine
 10
-861.798983124
 20
45.8495550369
 30
0.0
 11
-820.8413809096
 21
45.8495550369
 31
0.0
  0
LINE
  5
335
330
1F
100
AcDbEntity
  8
0
  6
Continuous
 62
     7
370
    25
100
AcDbLine
 10
-820.8413809096
 20
57.8495550369
 30
0.0
 11
-861.798983124
 21
57.8495550369
 31
0.0
  0
LINE
  5
336
330
1F
100
AcDbEntity
  8
0
  6
Continuous
 62
     7
370
    25
100
AcDbLine
 10
577.3537689074
 20
-196.1504449631
 30
0.0
 11
577.3537689074
 21
-205.1504449631
 31
0.0
  0
LWPOLYLINE
  5
337
330
1F
100
AcDbEntity
  8
0
  6
Continuous
 62
     7
370
    25
100
AcDbPolyline
 90
        9
 70
   128
 43
0.0
 10
577.3537689074
 20
-196.1504449631
 10
577.3182795658
 20
-195.5651739971
 10
577.2131753763
 20
-195.002394666
 10
577.042495434
 20
-194.4837342641
 10
576.8127988734
 20
-194.0291246196
 10
576.5329128045
 20
-193.6560361262
 10
576.213593092
 20
-193.3788063656
 10
575.8671110133
 20
-193.2080891219
 10
575.5067816805
 20
-193.1504449631
  0
LINE
  5
338
330
1F
100
AcDbEntity
  8
0
  6
Continuous
 62
     7
370
    25
100
AcDbLine
 10
-533.2635649158
 20
-193.1504449631
 30
0.0
 11
575.5067816805
 21
-193.1504449631
 31
0.0
  0
LWPOLYLINE
  5
339
330
1F
100
AcDbEntity
  8
0
  6
Continuous
 62
     7
370
    25
100
AcDbPolyline
 90
        9
 70
   128
 43
0.0
 10
575.5067816805
 20
-208.1504449631
 10
575.8671110133
 20
-208.0928008043
 10
576.213593092
 20
-207.9220835607
 10
576.5329128045
 20
-207.6448538
 10
576.8127988734
 20
-207.2717653067
 10
577.042495434
 20
-206.8171556622
 10
577.2131753763
 20
-206.2984952602
 10
577.3182795658
 20
-205.7357159292
 10
577.3537689074
 20
-205.1504449631
  0
LINE
  5
33A
330
1F
100
AcDbEntity
  8
0
  6
Continuous
 62
     7
370
    25
100
AcDbLine
 10
575.5067816805
 20
-208.1504449631
 30
0.0
 11
-530.9418591318
 21
-208.1504449631
 31
0.0
  0
LINE
  5
33B
330
1F
100
AcDbEntity
  8
0
  6
Continuous
 62
     7
370
    25
100
AcDbLine
 10
894.4117069471
 20
-196.1504449631
 30
0.0
 11
577.3537689074
 21
-196.1504449631
 31
0.0
  0
LWPOLYLINE
  5
33C
330
1F
100
AcDbEntity
  8
0
  6
Continuous
 62
     7
370
    25
100
AcDbPolyline
 90
        9
 70
   128
 43
0.0
 10
894.4117069471
 20
-196.1504449631
 10
894.3943670982
 20
-195.5651739971
 10
894.3430139098
 20
-195.002394666
 10
894.259620856
 20
-194.4837342641
 10
894.1473926853
 20
-194.0291246196
 10
894.0106422632
 20
-193.6560361262
 10
893.8546248318
 20
-193.3788063656
 10
893.6853360535
 20
-193.2080891219
 10
893.509281601
 20
-193.1504449631
  0
LINE
  5
33D
330
1F
100
AcDbEntity
  8
0
  6
Continuous
 62
     7
370
    25
100
AcDbLine
 10
575.5067816805
 20
-193.1504449631
 30
0.0
 11
893.509281601
 21
-193.1504449631
 31
0.0
  0
LINE
  5
33E
330
1F
100
AcDbEntity
  8
0
  6
Continuous
 62
     7
370
    25
100
AcDbLine
 10
577.3537689074
 20
-205.1504449631
 30
0.0
 11
894.4117069471
 21
-205.1504449631
 31
0.0
  0
LINE
  5
33F
330
1F
100
AcDbEntity
  8
0
  6
Continuous
 62
     7
370
    25
100
AcDbLine
 10
894.4117069471
 20
-196.1504449631
 30
0.0
 11
894.4117069471
 21
-205.1504449631
 31
0.0
  0
LWPOLYLINE
  5
340
330
1F
100
AcDbEntity
  8
0
  6
Continuous
 62
     7
370
    25
100
AcDbPolyline
 90
        9
 70
   128
 43
0.0
 10
893.509281601
 20
-208.1504449631
 10
893.6853360524
 20
-208.0928008043
 10
893.8546248299
 20
-207.9220835607
 10
894.0106422608
 20
-207.6448538
 10
894.1473926827
 20
-207.2717653067
 10
894.2596208536
 20
-206.8171556622
 10
894.3430139078
 20
-206.2984952602
 10
894.3943670971
 20
-205.7357159292
 10
894.4117069471
 20
-205.1504449631
  0
LINE
  5
341
330
1F
100
AcDbEntity
  8
0
  6
Continuous
 62
     7
370
    25
100
AcDbLine
 10
893.509281601
 20
-208.1504449631
 30
0.0
 11
575.5067816805
 21
-208.1504449631
 31
0.0
  0
LINE
  5
342
330
1F
100
AcDbEntity
  8
0
  6
Continuous
 62
     7
370
    25
100
AcDbLine
 10
894.4117069471
 20
-205.1504449631
 30
0.0
 11
1305.8267881498
 21
-205.1504449631
 31
0.0
  0
LWPOLYLINE
  5
343
330
1F
100
AcDbEntity
  8
0
  6
Continuous
 62
     7
370
    25
100
AcDbPolyline
 90
        9
 70
   128
 43
0.0
 10
1304.9243627976
 20
-208.1504449631
 10
1305.1004172502
 20
-208.0928008043
 10
1305.2697060288
 20
-207.9220835607
 10
1305.4257234608
 20
-207.6448538
 10
1305.5624738837
 20
-207.2717653067
 10
1305.6747020554
 20
-206.8171556622
 10
1305.7580951101
 20
-206.2984952602
 10
1305.8094482997
 20
-205.7357159292
 10
1305.8267881498
 20
-205.1504449631
  0
LINE
  5
344
330
1F
100
AcDbEntity
  8
0
  6
Continuous
 62
     7
370
    25
100
AcDbLine
 10
1304.9243627976
 20
-208.1504449631
 30
0.0
 11
893.509281601
 21
-208.1504449631
 31
0.0
  0
LINE
  5
345
330
1F
100
AcDbEntity
  8
0
  6
Continuous
 62
     7
370
    25
100
AcDbLine
 10
1305.8267881498
 20
-196.1504449631
 30
0.0
 11
894.4117069471
 21
-196.1504449631
 31
0.0
  0
LINE
  5
346
330
1F
100
AcDbEntity
  8
0
  6
Continuous
 62
     7
370
    25
100
AcDbLine
 10
1305.8267881498
 20
-196.1504449631
 30
0.0
 11
1305.8267881498
 21
-205.1504449631
 31
0.0
  0
LWPOLYLINE
  5
347
330
1F
100
AcDbEntity
  8
0
  6
Continuous
 62
     7
370
    25
100
AcDbPolyline
 90
        9
 70
   128
 43
0.0
 10
1305.8267881498
 20
-196.1504449631
 10
1305.8094483111
 20
-195.5651739971
 10
1305.7580951299
 20
-195.002394666
 10
1305.6747020803
 20
-194.4837342641
 10
1305.5624739104
 20
-194.0291246196
 10
1305.4257234858
 20
-193.6560361262
 10
1305.2697060486
 20
-193.3788063656
 10
1305.1004172615
 20
-193.2080891219
 10
1304.9243627976
 20
-193.1504449631
  0
LINE
  5
348
330
1F
100
AcDbEntity
  8
0
  6
Continuous
 62
     7
370
    25
100
AcDbLine
 10
893.509281601
 20
-193.1504449631
 30
0.0
 11
1304.9243627976
 21
-193.1504449631
 31
0.0
  0
LINE
  5
349
330
1F
100
AcDbEntity
  8
0
  6
Continuous
 62
     7
370
    25
100
AcDbLine
 10
1310.3203560012
 20
-196.1504449631
 30
0.0
 11
1305.8267881498
 21
-196.1504449631
 31
0.0
  0
LWPOLYLINE
  5
34A
330
1F
100
AcDbEntity
  8
0
  6
Continuous
 62
     7
370
    25
100
AcDbPolyline
 90
        9
 70
   128
 43
0.0
 10
1310.3203560012
 20
-196.1504449631
 10
1310.2917540636
 20
-195.5651739971
 10
1310.2070474118
 20
-195.002394666
 10
1310.0694912747
 20
-194.4837342641
 10
1309.8843718576
 20
-194.0291246196
 10
1309.6588031959
 20
-193.6560361262
 10
1309.4014537668
 20
-193.3788063656
 10
1309.1222133644
 20
-193.2080891219
 10
1308.8318130409
 20
-193.1504449631
  0
LINE
  5
34B
330
1F
100
AcDbEntity
  8
0
  6
Continuous
 62
     7
370
    25
100
AcDbLine
 10
1304.9243627976
 20
-193.1504449631
 30
0.0
 11
1308.8318130409
 21
-193.1504449631
 31
0.0
  0
LINE
  5
34C
330
1F
100
AcDbEntity
  8
0
  6
Continuous
 62
     7
370
    25
100
AcDbLine
 10
1305.8267881498
 20
-205.1504449631
 30
0.0
 11
1310.3203560012
 21
-205.1504449631
 31
0.0
  0
LINE
  5
34D
330
1F
100
AcDbEntity
  8
0
  6
Continuous
 62
     7
370
    25
100
AcDbLine
 10
1310.3203560012
 20
-196.1504449631
 30
0.0
 11
1310.3203560012
 21
-205.1504449631
 31
0.0
  0
LWPOLYLINE
  5
34E
330
1F
100
AcDbEntity
  8
0
  6
Continuous
 62
     7
370
    25
100
AcDbPolyline
 90
        9
 70
   128
 43
0.0
 10
1308.8318130409
 20
-208.1504449631
 10
1309.1222133664
 20
-208.0928008043
 10
1309.4014537702
 20
-207.9220835607
 10
1309.6588032002
 20
-207.6448538
 10
1309.8843718622
 20
-207.2717653067
 10
1310.069491279
 20
-206.8171556622
 10
1310.2070474151
 20
-206.2984952602
 10
1310.2917540656
 20
-205.7357159292
 10
1310.3203560012
 20
-205.1504449631
  0
LINE
  5
34F
330
1F
100
AcDbEntity
  8
0
  6
Continuous
 62
     7
370
    25
100
AcDbLine
 10
1308.8318130409
 20
-208.1504449631
 30
0.0
 11
1304.9243627976
 21
-208.1504449631
 31
0.0
  0
LINE
  5
350
330
1F
100
AcDbEntity
  8
0
  6
Continuous
 62
     7
370
    25
100
AcDbLine
 10
1308.8318130409
 20
-193.1504449631
 30
0.0
 11
1355.5372381716
 21
-193.1504449631
 31
0.0
  0
LINE
  5
351
330
1F
100
AcDbEntity
  8
0
  6
Continuous
 62
     7
370
    25
100
AcDbLine
 10
1355.5372381716
 20
-208.1504449631
 30
0.0
 11
1308.8318130409
 21
-208.1504449631
 31
0.0
  0
LWPOLYLINE
  5
352
330
1F
100
AcDbEntity
  8
0
  6
Continuous
 62
     7
370
    25
100
AcDbPolyline
 90
       21
 70
   128
 43
0.0
 10
-1362.1877478893
 20
445.4233766202
 10
-1362.2244645895
 20
444.6961924439
 10
-1362.5166950305
 20
443.2616597799
 10
-1363.0931846278
 20
441.8860931162
 10
-1363.938208248
 20
440.6070143254
 10
-1365.0287158496
 20
439.4593133427
 10
-1366.3349612279
 20
438.4742964591
 10
-1367.8213134142
 20
437.6788323673
 10
-1369.4472285954
 20
437.0946192543
 10
-1371.1683560438
 20
436.7375929308
 10
-1372.9377478893
 20
436.6174921441
 10
-1374.7071397349
 20
436.7375929308
 10
-1376.4282671833
 20
437.0946192543
 10
-1378.0541823645
 20
437.6788323673
 10
-1379.5405345508
 20
438.4742964591
 10
-1380.8467799291
 20
439.4593133427
 10
-1381.9372875307
 20
440.6070143254
 10
-1382.7823111509
 20
441.8860931162
 10
-1383.3588007482
 20
443.2616597799
 10
-1383.6510311892
 20
444.6961924439
 10
-1383.6877478893
 20
445.4233766202
  0
LWPOLYLINE
  5
353
330
1F
100
AcDbEntity
  8
0
  6
Continuous
 62
     7
370
    25
100
AcDbPolyline
 90
       24
 70
   128
 43
0.0
 10
-1357.4377478893
 20
438.2536711658
 10
-1357.5226585111
 20
436.9264882481
 10
-1357.8981641321
 20
435.1820235281
 10
-1358.5663981436
 20
433.4973449354
 10
-1359.5143541307
 20
431.9052428226
 10
-1360.7235812084
 20
430.4367056463
 10
-1362.1705431472
 20
429.1203168121
 10
-1363.8270764788
 20
427.9816983313
 10
-1365.6609386662
 20
427.0430121176
 10
-1367.6364356678
 20
426.3225286304
 10
-1369.7151166817
 20
425.8342712611
 10
-1371.8565225463
 20
425.5877433841
 10
-1374.0189732324
 20
425.5877433841
 10
-1376.160379097
 20
425.8342712611
 10
-1378.2390601109
 20
426.3225286304
 10
-1380.2145571125
 20
427.0430121176
 10
-1382.0484192999
 20
427.9816983313
 10
-1383.7049526315
 20
429.1203168121
 10
-1385.1519145703
 20
430.4367056463
 10
-1386.361141648
 20
431.9052428226
 10
-1387.3090976351
 20
433.4973449354
 10
-1387.9773316466
 20
435.1820235281
 10
-1388.3528372676
 20
436.9264882481
 10
-1388.4377478893
 20
438.2536711658
  0
LWPOLYLINE
  5
354
330
1F
100
AcDbEntity
  8
0
  6
Continuous
 62
     7
370
    25
100
AcDbPolyline
 90
       21
 70
   128
 43
0.0
 10
-639.363926306
 20
-298.9004449631
 10
-640.8133272534
 20
-298.7538289747
 10
-642.2231923212
 20
-298.3179803114
 10
-643.5550640658
 20
-297.6047877886
 10
-644.7726124977
 20
-296.6337054392
 10
-645.8426260697
 20
-295.4312218581
 10
-646.7359176008
 20
-294.030137663
 10
-647.4281204268
 20
-292.4686707782
 10
-647.9003530589
 20
-290.7894139499
 10
-648.1397342221
 20
-289.038172927
 10
-648.1397342221
 20
-287.2627169993
 10
-647.9003530589
 20
-285.5114759764
 10
-647.4281204268
 20
-283.8322191481
 10
-646.7359176008
 20
-282.2707522633
 10
-645.8426260697
 20
-280.8696680682
 10
-644.7726124977
 20
-279.6671844871
 10
-643.5550640658
 20
-278.6961021377
 10
-642.2231923212
 20
-277.9829096149
 10
-640.8133272534
 20
-277.5470609516
 10
-639.363926306
 20
-277.4004449631
 10
-639.363926306
 20
-277.4004449631
  0
LWPOLYLINE
  5
355
330
1F
100
AcDbEntity
  8
0
  6
Continuous
 62
     7
370
    25
100
AcDbPolyline
 90
       24
 70
   128
 43
0.0
 10
-646.5336317604
 20
-303.6504449631
 10
-647.4193197104
 20
-303.6126877422
 10
-649.1734567021
 20
-303.3117327745
 10
-650.8762125041
 20
-302.7156805853
 10
-652.4944449114
 20
-301.8361326525
 10
-653.9966568711
 20
-300.690208376
 10
-655.3536095361
 20
-299.3002118684
 10
-656.5388913663
 20
-297.6931978307
 10
-657.5294321991
 20
-295.9004449631
 10
-658.3059522838
 20
-293.9568471611
 10
-658.8533375404
 20
-291.9002343449
 10
-659.1609337374
 20
-289.7706361438
 10
-659.2227538648
 20
-287.6095027643
 10
-659.0375946641
 20
-285.4588982093
 10
-658.6090600485
 20
-283.3606815503
 10
-657.9454909569
 20
-281.3556921879
 10
-657.0598030068
 20
-279.4829549593
 10
-655.9692351067
 20
-277.7789205646
 10
-654.6950139204
 20
-276.2767560948
 10
-653.2619407137
 20
-275.0056994727
 10
-651.6979086266
 20
-273.9904903697
 10
-650.0333597646
 20
-273.2508886761
 10
-648.3006926779
 20
-272.8012898976
 10
-646.5336317604
 20
-272.6504449631
  0
LWPOLYLINE
  5
356
330
1F
100
AcDbEntity
  8
0
  6
Continuous
 62
     7
370
    25
100
AcDbPolyline
 90
       21
 70
   128
 43
0.0
 10
-682.1877478893
 20
445.4233766202
 10
-682.2244645895
 20
444.6961924439
 10
-682.5166950305
 20
443.2616597799
 10
-683.0931846278
 20
441.8860931162
 10
-683.938208248
 20
440.6070143254
 10
-685.0287158496
 20
439.4593133427
 10
-686.3349612279
 20
438.4742964591
 10
-687.8213134142
 20
437.6788323673
 10
-689.4472285954
 20
437.0946192543
 10
-691.1683560438
 20
436.7375929308
 10
-692.9377478893
 20
436.6174921441
 10
-694.7071397349
 20
436.7375929308
 10
-696.4282671833
 20
437.0946192543
 10
-698.0541823645
 20
437.6788323673
 10
-699.5405345508
 20
438.4742964591
 10
-700.8467799291
 20
439.4593133427
 10
-701.9372875307
 20
440.6070143254
 10
-702.7823111509
 20
441.8860931162
 10
-703.3588007482
 20
443.2616597799
 10
-703.6510311892
 20
444.6961924439
 10
-703.6877478893
 20
445.4233766202
  0
LWPOLYLINE
  5
357
330
1F
100
AcDbEntity
  8
0
  6
Continuous
 62
     7
370
    25
100
AcDbPolyline
 90
       24
 70
   128
 43
0.0
 10
-677.4377478893
 20
438.2536711658
 10
-677.5226585111
 20
436.9264882481
 10
-677.8981641321
 20
435.1820235281
 10
-678.5663981436
 20
433.4973449354
 10
-679.5143541307
 20
431.9052428226
 10
-680.7235812084
 20
430.4367056463
 10
-682.1705431472
 20
429.1203168121
 10
-683.8270764788
 20
427.9816983313
 10
-685.6609386662
 20
427.0430121176
 10
-687.6364356678
 20
426.3225286304
 10
-689.7151166817
 20
425.8342712611
 10
-691.8565225463
 20
425.5877433841
 10
-694.0189732324
 20
425.5877433841
 10
-696.160379097
 20
425.8342712611
 10
-698.2390601109
 20
426.3225286304
 10
-700.2145571125
 20
427.0430121176
 10
-702.0484192999
 20
427.9816983313
 10
-703.7049526315
 20
429.1203168121
 10
-705.1519145703
 20
430.4367056463
 10
-706.361141648
 20
431.9052428226
 10
-707.3090976351
 20
433.4973449354
 10
-707.9773316466
 20
435.1820235281
 10
-708.3528372676
 20
436.9264882481
 10
-708.4377478893
 20
438.2536711658
  0
LWPOLYLINE
  5
358
330
1F
100
AcDbEntity
  8
0
  6
Continuous
 62
     7
370
    25
100
AcDbPolyline
 90
       20
 70
   128
 43
0.0
 10
-639.363926306
 20
381.0995550369
 10
-640.8133272534
 20
381.2461710253
 10
-642.2231923212
 20
381.6820196886
 10
-643.5550640658
 20
382.3952122114
 10
-644.7726124977
 20
383.3662945608
 10
-645.8426260697
 20
384.5687781419
 10
-646.7359176008
 20
385.969862337
 10
-647.4281204268
 20
387.5313292218
 10
-647.9003530589
 20
389.2105860501
 10
-648.1397342221
 20
390.961827073
 10
-648.1397342221
 20
392.7372830007
 10
-647.9003530589
 20
394.4885240236
 10
-647.4281204268
 20
396.1677808519
 10
-646.7359176008
 20
397.7292477367
 10
-645.8426260697
 20
399.1303319318
 10
-644.7726124977
 20
400.3328155129
 10
-643.5550640658
 20
401.3038978623
 10
-642.2231923212
 20
402.0170903851
 10
-640.8133272534
 20
402.4529390484
 10
-639.363926306
 20
402.5995550369
  0
LWPOLYLINE
  5
359
330
1F
100
AcDbEntity
  8
0
  6
Continuous
 62
     7
370
    25
100
AcDbPolyline
 90
       24
 70
   128
 43
0.0
 10
-646.5336317604
 20
376.3495550369
 10
-647.4193197104
 20
376.3873122578
 10
-649.1734567021
 20
376.6882672255
 10
-650.8762125041
 20
377.2843194147
 10
-652.4944449114
 20
378.1638673475
 10
-653.9966568711
 20
379.309791624
 10
-655.3536095361
 20
380.6997881316
 10
-656.5388913663
 20
382.3068021693
 10
-657.5294321991
 20
384.0995550369
 10
-658.3059522838
 20
386.0431528389
 10
-658.8533375404
 20
388.0997656551
 10
-659.1609337374
 20
390.2293638562
 10
-659.2227538648
 20
392.3904972357
 10
-659.0375946641
 20
394.5411017907
 10
-658.6090600485
 20
396.6393184497
 10
-657.9454909569
 20
398.6443078121
 10
-657.0598030068
 20
400.5170450407
 10
-655.9692351067
 20
402.2210794354
 10
-654.6950139204
 20
403.7232439052
 10
-653.2619407137
 20
404.9943005273
 10
-651.6979086266
 20
406.0095096303
 10
-650.0333597646
 20
406.7491113239
 10
-648.3006926779
 20
407.1987101024
 10
-646.5336317604
 20
407.3495550369
  0
LINE
  5
35A
330
1F
100
AcDbEntity
  8
0
  6
Continuous
 62
     7
370
    25
100
AcDbLine
 10
1243.3119310442
 20
-220.6504449631
 30
0.0
 11
1249.9441542043
 21
-220.6504449631
 31
0.0
  0
LINE
  5
35B
330
1F
100
AcDbEntity
  8
0
  6
Continuous
 62
     7
370
    25
100
AcDbLine
 10
1228.4441542043
 20
-220.6504449631
 30
0.0
 11
1243.3119310442
 21
-220.6504449631
 31
0.0
  0
LWPOLYLINE
  5
35C
330
1F
100
AcDbEntity
  8
0
  6
Continuous
 62
     7
370
    25
100
AcDbPolyline
 90
       20
 70
   128
 43
0.0
 10
-1426.5115694727
 20
402.5995550369
 10
-1425.0621685253
 20
402.4529390484
 10
-1423.6523034575
 20
402.0170903851
 10
-1422.3204317129
 20
401.3038978623
 10
-1421.102883281
 20
400.3328155129
 10
-1420.032869709
 20
399.1303319318
 10
-1419.1395781779
 20
397.7292477367
 10
-1418.4473753519
 20
396.1677808519
 10
-1417.9751427198
 20
394.4885240236
 10
-1417.7357615566
 20
392.7372830007
 10
-1417.7357615566
 20
390.961827073
 10
-1417.9751427198
 20
389.2105860501
 10
-1418.4473753519
 20
387.5313292218
 10
-1419.1395781779
 20
385.969862337
 10
-1420.032869709
 20
384.5687781419
 10
-1421.102883281
 20
383.3662945608
 10
-1422.3204317129
 20
382.3952122114
 10
-1423.6523034575
 20
381.6820196886
 10
-1425.0621685253
 20
381.2461710253
 10
-1426.5115694727
 20
381.0995550369
  0
LWPOLYLINE
  5
35D
330
1F
100
AcDbEntity
  8
0
  6
Continuous
 62
     7
370
    25
100
AcDbPolyline
 90
       24
 70
   128
 43
0.0
 10
-1419.3418640183
 20
407.3495550369
 10
-1417.5748031008
 20
407.1987101024
 10
-1415.8421360141
 20
406.7491113239
 10
-1414.1775871521
 20
406.0095096303
 10
-1412.613555065
 20
404.9943005273
 10
-1411.1804818583
 20
403.7232439052
 10
-1409.906260672
 20
402.2210794354
 10
-1408.8156927719
 20
400.5170450407
 10
-1407.9300048218
 20
398.6443078121
 10
-1407.2664357302
 20
396.6393184497
 10
-1406.8379011146
 20
394.5411017907
 10
-1406.6527419139
 20
392.3904972357
 10
-1406.7145620413
 20
390.2293638562
 10
-1407.0221582383
 20
388.0997656551
 10
-1407.5695434949
 20
386.0431528389
 10
-1408.3460635796
 20
384.0995550369
 10
-1409.3366044124
 20
382.3068021693
 10
-1410.5218862426
 20
380.6997881316
 10
-1411.8788389076
 20
379.309791624
 10
-1413.3810508673
 20
378.1638673475
 10
-1414.9992832746
 20
377.2843194147
 10
-1416.7020390766
 20
376.6882672255
 10
-1418.4561760683
 20
376.3873122578
 10
-1419.3418640183
 20
376.3495550369
  0
LWPOLYLINE
  5
35E
330
1F
100
AcDbEntity
  8
0
  6
Continuous
 62
     7
370
    25
100
AcDbPolyline
 90
       11
 70
   128
 43
0.0
 10
-692.9377478894
 20
-332.9183820704
 10
-691.1683560438
 20
-333.0384828571
 10
-689.4472285954
 20
-333.3955091806
 10
-687.8213134142
 20
-333.9797222936
 10
-686.3349612279
 20
-334.7751863854
 10
-685.0287158496
 20
-335.760203269
 10
-683.938208248
 20
-336.9079042517
 10
-683.0931846278
 20
-338.1869830424
 10
-682.5166950305
 20
-339.5625497062
 10
-682.2244645895
 20
-340.9970823702
 10
-682.1877478894
 20
-341.7242665465
  0
LWPOLYLINE
  5
35F
330
1F
100
AcDbEntity
  8
0
  6
Continuous
 62
     7
370
    25
100
AcDbPolyline
 90
       11
 70
   128
 43
0.0
 10
-703.6877478894
 20
-341.7242665465
 10
-703.6510311892
 20
-340.9970823702
 10
-703.3588007482
 20
-339.5625497062
 10
-702.7823111509
 20
-338.1869830424
 10
-701.9372875307
 20
-336.9079042517
 10
-700.8467799291
 20
-335.760203269
 10
-699.5405345508
 20
-334.7751863854
 10
-698.0541823645
 20
-333.9797222936
 10
-696.4282671833
 20
-333.3955091806
 10
-694.7071397349
 20
-333.0384828571
 10
-692.9377478894
 20
-332.9183820704
  0
LWPOLYLINE
  5
360
330
1F
100
AcDbEntity
  8
0
  6
Continuous
 62
     7
370
    25
100
AcDbPolyline
 90
       13
 70
   128
 43
0.0
 10
-692.9377478894
 20
-321.8577044056
 10
-690.7805648245
 20
-321.9812693421
 10
-688.6653688742
 20
-322.3495591006
 10
-686.6333299217
 20
-322.9554053399
 10
-684.7239992937
 20
-323.787015952
 10
-682.9745399392
 20
-324.8282045824
 10
-681.4190030945
 20
-326.0587056787
 10
-680.0876655147
 20
-327.4545689367
 10
-679.0064401717
 20
-328.9886254659
 10
-678.1963718868
 20
-330.6310166009
 10
-677.6732277177
 20
-332.3497750664
 10
-677.4471900706
 20
-334.1114471841
 10
-677.4377478894
 20
-334.5545610921
  0
LWPOLYLINE
  5
361
330
1F
100
AcDbEntity
  8
0
  6
Continuous
 62
     7
370
    25
100
AcDbPolyline
 90
       13
 70
   128
 43
0.0
 10
-708.4377478894
 20
-334.5545610921
 10
-708.4283057081
 20
-334.1114471841
 10
-708.202268061
 20
-332.3497750664
 10
-707.6791238919
 20
-330.6310166009
 10
-706.869055607
 20
-328.9886254659
 10
-705.787830264
 20
-327.4545689367
 10
-704.4564926842
 20
-326.0587056787
 10
-702.9009558395
 20
-324.8282045824
 10
-701.151496485
 20
-323.787015952
 10
-699.242165857
 20
-322.9554053399
 10
-697.2101269045
 20
-322.3495591006
 10
-695.0949309542
 20
-321.9812693421
 10
-692.9377478894
 20
-321.8577044056
  0
LWPOLYLINE
  5
362
330
1F
100
AcDbEntity
  8
0
  6
Continuous
 62
     7
370
    25
100
AcDbPolyline
 90
       11
 70
   128
 43
0.0
 10
-1372.9377478893
 20
-332.9183820704
 10
-1371.1683560438
 20
-333.0384828571
 10
-1369.4472285954
 20
-333.3955091806
 10
-1367.8213134142
 20
-333.9797222936
 10
-1366.3349612279
 20
-334.7751863854
 10
-1365.0287158496
 20
-335.760203269
 10
-1363.938208248
 20
-336.9079042517
 10
-1363.0931846278
 20
-338.1869830424
 10
-1362.5166950305
 20
-339.5625497062
 10
-1362.2244645895
 20
-340.9970823702
 10
-1362.1877478893
 20
-341.7242665465
  0
LWPOLYLINE
  5
363
330
1F
100
AcDbEntity
  8
0
  6
Continuous
 62
     7
370
    25
100
AcDbPolyline
 90
       11
 70
   128
 43
0.0
 10
-1383.6877478893
 20
-341.7242665465
 10
-1383.6510311892
 20
-340.9970823702
 10
-1383.3588007482
 20
-339.5625497062
 10
-1382.7823111509
 20
-338.1869830424
 10
-1381.9372875307
 20
-336.9079042517
 10
-1380.8467799291
 20
-335.760203269
 10
-1379.5405345508
 20
-334.7751863854
 10
-1378.0541823645
 20
-333.9797222936
 10
-1376.4282671833
 20
-333.3955091806
 10
-1374.7071397349
 20
-333.0384828571
 10
-1372.9377478893
 20
-332.9183820704
  0
LWPOLYLINE
  5
364
330
1F
100
AcDbEntity
  8
0
  6
Continuous
 62
     7
370
    25
100
AcDbPolyline
 90
       13
 70
   128
 43
0.0
 10
-1372.9377478893
 20
-321.8577044056
 10
-1370.7805648245
 20
-321.9812693421
 10
-1368.6653688742
 20
-322.3495591006
 10
-1366.6333299217
 20
-322.9554053399
 10
-1364.7239992937
 20
-323.787015952
 10
-1362.9745399392
 20
-324.8282045824
 10
-1361.4190030944
 20
-326.0587056787
 10
-1360.0876655147
 20
-327.4545689367
 10
-1359.0064401717
 20
-328.9886254659
 10
-1358.1963718868
 20
-330.6310166009
 10
-1357.6732277177
 20
-332.3497750664
 10
-1357.4471900706
 20
-334.1114471841
 10
-1357.4377478893
 20
-334.5545610921
  0
LWPOLYLINE
  5
365
330
1F
100
AcDbEntity
  8
0
  6
Continuous
 62
     7
370
    25
100
AcDbPolyline
 90
       13
 70
   128
 43
0.0
 10
-1388.4377478893
 20
-334.5545610921
 10
-1388.4283057081
 20
-334.1114471841
 10
-1388.202268061
 20
-332.3497750664
 10
-1387.6791238919
 20
-330.6310166009
 10
-1386.869055607
 20
-328.9886254659
 10
-1385.787830264
 20
-327.4545689367
 10
-1384.4564926842
 20
-326.0587056787
 10
-1382.9009558395
 20
-324.8282045824
 10
-1381.151496485
 20
-323.787015952
 10
-1379.242165857
 20
-322.9554053399
 10
-1377.2101269045
 20
-322.3495591006
 10
-1375.0949309542
 20
-321.9812693421
 10
-1372.9377478893
 20
-321.8577044056
  0
LINE
  5
366
330
1F
100
AcDbEntity
  8
0
  6
Continuous
 62
     7
370
    25
100
AcDbLine
 10
1249.9441542043
 20
324.3495550369
 30
0.0
 11
1228.4441542043
 21
324.3495550369
 31
0.0
  0
LWPOLYLINE
  5
367
330
1F
100
AcDbEntity
  8
0
  6
Continuous
 62
     7
370
    25
100
AcDbPolyline
 90
       21
 70
   128
 43
0.0
 10
-1426.5115694727
 20
-277.4004449631
 10
-1425.0621685253
 20
-277.5470609516
 10
-1423.6523034575
 20
-277.9829096149
 10
-1422.3204317129
 20
-278.6961021377
 10
-1421.102883281
 20
-279.6671844871
 10
-1420.032869709
 20
-280.8696680682
 10
-1419.1395781779
 20
-282.2707522633
 10
-1418.4473753519
 20
-283.8322191481
 10
-1417.9751427198
 20
-285.5114759764
 10
-1417.7357615566
 20
-287.2627169993
 10
-1417.7357615566
 20
-289.038172927
 10
-1417.9751427198
 20
-290.7894139499
 10
-1418.4473753519
 20
-292.4686707782
 10
-1419.1395781779
 20
-294.030137663
 10
-1420.032869709
 20
-295.4312218581
 10
-1421.102883281
 20
-296.6337054392
 10
-1422.3204317129
 20
-297.6047877886
 10
-1423.6523034575
 20
-298.3179803114
 10
-1425.0621685253
 20
-298.7538289747
 10
-1426.5115694727
 20
-298.9004449631
 10
-1426.5115694727
 20
-298.9004449631
  0
LWPOLYLINE
  5
368
330
1F
100
AcDbEntity
  8
0
  6
Continuous
 62
     7
370
    25
100
AcDbPolyline
 90
       24
 70
   128
 43
0.0
 10
-1419.3418640183
 20
-272.6504449631
 10
-1417.5748031008
 20
-272.8012898976
 10
-1415.8421360141
 20
-273.2508886761
 10
-1414.1775871521
 20
-273.9904903697
 10
-1412.613555065
 20
-275.0056994727
 10
-1411.1804818583
 20
-276.2767560948
 10
-1409.906260672
 20
-277.7789205646
 10
-1408.8156927719
 20
-279.4829549593
 10
-1407.9300048218
 20
-281.3556921879
 10
-1407.2664357302
 20
-283.3606815503
 10
-1406.8379011146
 20
-285.4588982093
 10
-1406.6527419139
 20
-287.6095027643
 10
-1406.7145620413
 20
-289.7706361438
 10
-1407.0221582383
 20
-291.9002343449
 10
-1407.5695434949
 20
-293.9568471611
 10
-1408.3460635796
 20
-295.9004449631
 10
-1409.3366044124
 20
-297.6931978307
 10
-1410.5218862426
 20
-299.3002118684
 10
-1411.8788389076
 20
-300.690208376
 10
-1413.3810508673
 20
-301.8361326525
 10
-1414.9992832746
 20
-302.7156805853
 10
-1416.7020390766
 20
-303.3117327745
 10
-1418.4561760683
 20
-303.6126877422
 10
-1419.3418640183
 20
-303.6504449631
  0
LWPOLYLINE
  5
369
330
1F
100
AcDbEntity
  8
0
  6
Continuous
 62
     7
370
    25
100
AcDbPolyline
 90
       38
 70
   128
 43
0.0
 10
-1427.170020286
 20
-277.7925286077
 10
-1425.7360976134
 20
-277.9415178051
 10
-1424.3434262854
 20
-278.3841992496
 10
-1423.0320709204
 20
-279.1078378019
 10
-1421.8397568248
 20
-280.0916156983
 10
-1420.8007847041
 20
-281.3072314401
 10
-1419.9450438947
 20
-282.7197139755
 10
-1419.2971525015
 20
-284.2884287537
 10
-1418.8757491805
 20
-285.9682467067
 10
-1418.6929569378
 20
-287.7108425304
 10
-1418.7540343734
 20
-289.4660849157
 10
-1419.0572244009
 20
-291.183478735
 10
-1419.593804795
 20
-292.8136176949
 10
-1420.3483391148
 20
-294.3096056655
 10
-1421.2991207817
 20
-295.6284057967
 10
-1422.4187975382
 20
-296.7320786097
 10
-1423.6751583227
 20
-297.5888734473
 10
-1425.0320599227
 20
-298.1741418819
 10
-1426.4504667498
 20
-298.4710468063
 10
-1427.8895738221
 20
-298.4710468063
 10
-1429.3079806492
 20
-298.1741418819
 10
-1430.6648822493
 20
-297.5888734473
 10
-1431.9212430337
 20
-296.7320786097
 10
-1433.0409197902
 20
-295.6284057967
 10
-1433.9917014571
 20
-294.3096056655
 10
-1434.7462357769
 20
-292.8136176949
 10
-1435.2828161711
 20
-291.183478735
 10
-1435.5860061985
 20
-289.4660849157
 10
-1435.6470836342
 20
-287.7108425304
 10
-1435.4642913915
 20
-285.9682467067
 10
-1435.0428880704
 20
-284.2884287537
 10
-1434.3949966773
 20
-282.7197139755
 10
-1433.5392558678
 20
-281.3072314401
 10
-1432.5002837472
 20
-280.0916156983
 10
-1431.3079696515
 20
-279.1078378019
 10
-1429.9966142865
 20
-278.3841992496
 10
-1428.6039429585
 20
-277.9415178051
 10
-1427.170020286
 20
-277.7925286077
  0
LWPOLYLINE
  5
36A
330
1F
100
AcDbEntity
  8
0
  6
Continuous
 62
     7
370
    25
100
AcDbPolyline
 90
       21
 70
   128
 43
0.0
 10
-1426.8471977353
 20
-277.4004449631
 10
-1425.3977967879
 20
-277.5470609516
 10
-1423.98793172
 20
-277.9829096149
 10
-1422.6560599755
 20
-278.6961021377
 10
-1421.4385115436
 20
-279.6671844871
 10
-1420.3684979716
 20
-280.8696680682
 10
-1419.4752064405
 20
-282.2707522633
 10
-1418.7830036145
 20
-283.8322191481
 10
-1418.3107709823
 20
-285.5114759764
 10
-1418.0713898192
 20
-287.2627169993
 10
-1418.0713898192
 20
-289.038172927
 10
-1418.3107709823
 20
-290.7894139499
 10
-1418.7830036145
 20
-292.4686707782
 10
-1419.4752064405
 20
-294.030137663
 10
-1420.3684979716
 20
-295.4312218581
 10
-1421.4385115436
 20
-296.6337054392
 10
-1422.6560599755
 20
-297.6047877886
 10
-1423.98793172
 20
-298.3179803114
 10
-1425.3977967879
 20
-298.7538289747
 10
-1426.8471977353
 20
-298.9004449631
 10
-1426.8471977353
 20
-298.9004449631
  0
LWPOLYLINE
  5
36B
330
1F
100
AcDbEntity
  8
0
  6
Continuous
 62
     7
370
    25
100
AcDbPolyline
 90
       38
 70
   128
 43
0.0
 10
-692.9377478893
 20
454.5665357907
 10
-691.1872515284
 20
454.444490985
 10
-689.4871137607
 20
454.0818675748
 10
-687.8862444543
 20
453.4890975753
 10
-686.4306977045
 20
452.6832339003
 10
-685.1623469412
 20
451.6874597804
 10
-684.1176803064
 20
450.530421824
 10
-683.3267509574
 20
449.2454059065
 10
-682.8123124915
 20
447.8693795963
 10
-682.5891643665
 20
446.4419286649
 10
-682.663726148
 20
445.0041182768
 10
-683.033852829
 20
443.5973116189
 10
-683.688896539
 20
442.2619799574
 10
-684.610012863
 20
441.036538353
 10
-685.7707029614
 20
439.9562405296
 10
-687.1375758934
 20
439.0521646885
 10
-688.6713092133
 20
438.3503194458
 10
-690.3277802061
 20
437.8708956111
 10
-692.0593352172
 20
437.6276853354
 10
-693.8161605615
 20
437.6276853354
 10
-695.5477155726
 20
437.8708956111
 10
-697.2041865654
 20
438.3503194458
 10
-698.7379198853
 20
439.0521646885
 10
-700.1047928173
 20
439.9562405296
 10
-701.2654829157
 20
441.036538353
 10
-702.1865992397
 20
442.2619799574
 10
-702.8416429497
 20
443.5973116189
 10
-703.2117696307
 20
445.0041182768
 10
-703.2863314122
 20
446.4419286649
 10
-703.0631832872
 20
447.8693795963
 10
-702.5487448213
 20
449.2454059065
 10
-701.7578154723
 20
450.530421824
 10
-700.7131488375
 20
451.6874597804
 10
-699.4447980742
 20
452.6832339003
 10
-697.9892513244
 20
453.4890975753
 10
-696.388382018
 20
454.0818675748
 10
-694.6882442503
 20
454.444490985
 10
-692.9377478893
 20
454.5665357907
  0
LWPOLYLINE
  5
36C
330
1F
100
AcDbEntity
  8
0
  6
Continuous
 62
     7
370
    25
100
AcDbPolyline
 90
       31
 70
   128
 43
0.0
 10
-686.1045194227
 20
452.5569546152
 10
-685.0287158496
 20
451.7230681604
 10
-683.938208248
 20
450.5753671777
 10
-683.0931846278
 20
449.2962883869
 10
-682.5166950305
 20
447.9207217231
 10
-682.2244645895
 20
446.4861890592
 10
-682.2244645895
 20
445.0318207065
 10
-682.5166950305
 20
443.5972880425
 10
-683.0931846278
 20
442.2217213787
 10
-683.938208248
 20
440.942642588
 10
-685.0287158496
 20
439.7949416053
 10
-686.3349612279
 20
438.8099247217
 10
-687.8213134142
 20
438.0144606299
 10
-689.4472285954
 20
437.4302475169
 10
-691.1683560438
 20
437.0732211934
 10
-692.9377478893
 20
436.9531204067
 10
-694.7071397349
 20
437.0732211934
 10
-696.4282671833
 20
437.4302475169
 10
-698.0541823645
 20
438.0144606299
 10
-699.5405345508
 20
438.8099247217
 10
-700.8467799291
 20
439.7949416053
 10
-701.9372875307
 20
440.942642588
 10
-702.7823111509
 20
442.2217213787
 10
-703.3588007482
 20
443.5972880425
 10
-703.6510311892
 20
445.0318207065
 10
-703.6510311892
 20
446.4861890592
 10
-703.3588007482
 20
447.9207217231
 10
-702.7823111509
 20
449.2962883869
 10
-701.9372875307
 20
450.5753671777
 10
-700.8467799291
 20
451.7230681604
 10
-699.9422884575
 20
452.4389329755
  0
LWPOLYLINE
  5
36D
330
1F
100
AcDbEntity
  8
0
  6
Continuous
 62
     7
370
    25
100
AcDbPolyline
 90
       38
 70
   128
 43
0.0
 10
-1372.9377478893
 20
454.5665357907
 10
-1371.1872515284
 20
454.444490985
 10
-1369.4871137607
 20
454.0818675748
 10
-1367.8862444543
 20
453.4890975753
 10
-1366.4306977045
 20
452.6832339003
 10
-1365.1623469412
 20
451.6874597804
 10
-1364.1176803064
 20
450.530421824
 10
-1363.3267509574
 20
449.2454059065
 10
-1362.8123124915
 20
447.8693795963
 10
-1362.5891643665
 20
446.4419286649
 10
-1362.663726148
 20
445.0041182768
 10
-1363.033852829
 20
443.5973116189
 10
-1363.688896539
 20
442.2619799574
 10
-1364.610012863
 20
441.036538353
 10
-1365.7707029614
 20
439.9562405296
 10
-1367.1375758934
 20
439.0521646885
 10
-1368.6713092133
 20
438.3503194458
 10
-1370.3277802061
 20
437.8708956111
 10
-1372.0593352172
 20
437.6276853354
 10
-1373.8161605615
 20
437.6276853354
 10
-1375.5477155726
 20
437.8708956111
 10
-1377.2041865654
 20
438.3503194458
 10
-1378.7379198853
 20
439.0521646885
 10
-1380.1047928173
 20
439.9562405296
 10
-1381.2654829157
 20
441.036538353
 10
-1382.1865992397
 20
442.2619799574
 10
-1382.8416429497
 20
443.5973116189
 10
-1383.2117696307
 20
445.0041182768
 10
-1383.2863314122
 20
446.4419286649
 10
-1383.0631832872
 20
447.8693795963
 10
-1382.5487448213
 20
449.2454059065
 10
-1381.7578154723
 20
450.530421824
 10
-1380.7131488375
 20
451.6874597804
 10
-1379.4447980742
 20
452.6832339003
 10
-1377.9892513244
 20
453.4890975753
 10
-1376.388382018
 20
454.0818675748
 10
-1374.6882442503
 20
454.444490985
 10
-1372.9377478893
 20
454.5665357907
  0
LWPOLYLINE
  5
36E
330
1F
100
AcDbEntity
  8
0
  6
Continuous
 62
     7
370
    25
100
AcDbPolyline
 90
       31
 70
   128
 43
0.0
 10
-1366.1045194227
 20
452.5569546152
 10
-1365.0287158496
 20
451.7230681604
 10
-1363.938208248
 20
450.5753671777
 10
-1363.0931846278
 20
449.2962883869
 10
-1362.5166950305
 20
447.9207217231
 10
-1362.2244645895
 20
446.4861890592
 10
-1362.2244645895
 20
445.0318207065
 10
-1362.5166950305
 20
443.5972880425
 10
-1363.0931846278
 20
442.2217213787
 10
-1363.938208248
 20
440.942642588
 10
-1365.0287158496
 20
439.7949416053
 10
-1366.3349612279
 20
438.8099247217
 10
-1367.8213134142
 20
438.0144606299
 10
-1369.4472285954
 20
437.4302475169
 10
-1371.1683560438
 20
437.0732211934
 10
-1372.9377478893
 20
436.9531204067
 10
-1374.7071397349
 20
437.0732211934
 10
-1376.4282671833
 20
437.4302475169
 10
-1378.0541823645
 20
438.0144606299
 10
-1379.5405345508
 20
438.8099247217
 10
-1380.8467799291
 20
439.7949416053
 10
-1381.9372875307
 20
440.942642588
 10
-1382.7823111509
 20
442.2217213787
 10
-1383.3588007482
 20
443.5972880425
 10
-1383.6510311892
 20
445.0318207065
 10
-1383.6510311892
 20
446.4861890592
 10
-1383.3588007482
 20
447.9207217231
 10
-1382.7823111509
 20
449.2962883869
 10
-1381.9372875307
 20
450.5753671777
 10
-1380.8467799291
 20
451.7230681604
 10
-1379.9422884575
 20
452.4389329755
  0
LWPOLYLINE
  5
36F
330
1F
100
AcDbEntity
  8
0
  6
Continuous
 62
     7
370
    25
100
AcDbPolyline
 90
       38
 70
   128
 43
0.0
 10
-1372.9377478893
 20
-333.8980090026
 10
-1371.1872515284
 20
-334.0200538083
 10
-1369.4871137607
 20
-334.3826772185
 10
-1367.8862444543
 20
-334.9754472179
 10
-1366.4306977045
 20
-335.7813108929
 10
-1365.1623469412
 20
-336.7770850128
 10
-1364.1176803064
 20
-337.9341229692
 10
-1363.3267509574
 20
-339.2191388867
 10
-1362.8123124915
 20
-340.5951651969
 10
-1362.5891643665
 20
-342.0226161283
 10
-1362.663726148
 20
-343.4604265165
 10
-1363.033852829
 20
-344.8672331744
 10
-1363.688896539
 20
-346.2025648358
 10
-1364.610012863
 20
-347.4280064402
 10
-1365.7707029614
 20
-348.5083042636
 10
-1367.1375758934
 20
-349.4123801047
 10
-1368.6713092133
 20
-350.1142253474
 10
-1370.3277802061
 20
-350.5936491821
 10
-1372.0593352172
 20
-350.8368594579
 10
-1373.8161605615
 20
-350.8368594579
 10
-1375.5477155726
 20
-350.5936491821
 10
-1377.2041865654
 20
-350.1142253474
 10
-1378.7379198853
 20
-349.4123801047
 10
-1380.1047928173
 20
-348.5083042636
 10
-1381.2654829157
 20
-347.4280064402
 10
-1382.1865992397
 20
-346.2025648358
 10
-1382.8416429497
 20
-344.8672331744
 10
-1383.2117696307
 20
-343.4604265165
 10
-1383.2863314122
 20
-342.0226161283
 10
-1383.0631832872
 20
-340.5951651969
 10
-1382.5487448213
 20
-339.2191388867
 10
-1381.7578154723
 20
-337.9341229692
 10
-1380.7131488375
 20
-336.7770850128
 10
-1379.4447980742
 20
-335.7813108929
 10
-1377.9892513244
 20
-334.9754472179
 10
-1376.388382018
 20
-334.3826772185
 10
-1374.6882442503
 20
-334.0200538083
 10
-1372.9377478893
 20
-333.8980090026
  0
ARC
  5
370
330
1F
100
AcDbEntity
  8
0
  6
Continuous
 62
     7
370
    25
100
AcDbCircle
 10
-1370.4793150184
 20
-342.3099061009
 30
0.0
 40
8.295335502614153
100
AcDbArc
 50
1.7270864266
 51
58.1713850264
  0
ARC
  5
371
330
1F
100
AcDbEntity
  8
0
  6
Continuous
 62
     7
370
    25
100
AcDbCircle
 10
-1375.427296059
 20
-342.3015492637
 30
0.0
 40
8.263985800862374
100
AcDbArc
 50
123.1166662453
 51
178.3243250091
  0
LWPOLYLINE
  5
372
330
1F
100
AcDbEntity
  8
0
  6
Continuous
 62
     7
370
    25
100
AcDbPolyline
 90
       38
 70
   128
 43
0.0
 10
-692.9377478894
 20
-333.8980090026
 10
-691.1872515284
 20
-334.0200538083
 10
-689.4871137607
 20
-334.3826772185
 10
-687.8862444543
 20
-334.9754472179
 10
-686.4306977045
 20
-335.7813108929
 10
-685.1623469412
 20
-336.7770850128
 10
-684.1176803064
 20
-337.9341229692
 10
-683.3267509574
 20
-339.2191388867
 10
-682.8123124915
 20
-340.5951651969
 10
-682.5891643665
 20
-342.0226161283
 10
-682.663726148
 20
-343.4604265165
 10
-683.033852829
 20
-344.8672331744
 10
-683.688896539
 20
-346.2025648358
 10
-684.610012863
 20
-347.4280064402
 10
-685.7707029614
 20
-348.5083042636
 10
-687.1375758934
 20
-349.4123801047
 10
-688.6713092133
 20
-350.1142253474
 10
-690.3277802061
 20
-350.5936491821
 10
-692.0593352172
 20
-350.8368594579
 10
-693.8161605615
 20
-350.8368594579
 10
-695.5477155726
 20
-350.5936491821
 10
-697.2041865654
 20
-350.1142253474
 10
-698.7379198853
 20
-349.4123801047
 10
-700.1047928173
 20
-348.5083042636
 10
-701.2654829157
 20
-347.4280064402
 10
-702.1865992397
 20
-346.2025648358
 10
-702.8416429497
 20
-344.8672331744
 10
-703.2117696307
 20
-343.4604265165
 10
-703.2863314122
 20
-342.0226161283
 10
-703.0631832872
 20
-340.5951651969
 10
-702.5487448213
 20
-339.2191388867
 10
-701.7578154723
 20
-337.9341229692
 10
-700.7131488375
 20
-336.7770850128
 10
-699.4447980742
 20
-335.7813108929
 10
-697.9892513244
 20
-334.9754472179
 10
-696.388382018
 20
-334.3826772185
 10
-694.6882442503
 20
-334.0200538083
 10
-692.9377478894
 20
-333.8980090026
  0
ARC
  5
373
330
1F
100
AcDbEntity
  8
0
  6
Continuous
 62
     7
370
    25
100
AcDbCircle
 10
-690.4793150184
 20
-342.3099061009
 30
0.0
 40
8.295335502614464
100
AcDbArc
 50
1.7270864266
 51
58.1713850264
  0
ARC
  5
374
330
1F
100
AcDbEntity
  8
0
  6
Continuous
 62
     7
370
    25
100
AcDbCircle
 10
-695.427296059
 20
-342.3015492637
 30
0.0
 40
8.263985800859679
100
AcDbArc
 50
123.1166662453
 51
178.3243250091
  0
LWPOLYLINE
  5
375
330
1F
100
AcDbEntity
  8
0
  6
Continuous
 62
     7
370
    25
100
AcDbPolyline
 90
       38
 70
   128
 43
0.0
 10
-638.7054754927
 20
-277.7925286077
 10
-637.2715528202
 20
-277.9415178051
 10
-635.8788814922
 20
-278.3841992496
 10
-634.5675261272
 20
-279.1078378019
 10
-633.3752120315
 20
-280.0916156983
 10
-632.3362399109
 20
-281.3072314401
 10
-631.4804991014
 20
-282.7197139755
 10
-630.8326077083
 20
-284.2884287537
 10
-630.4112043872
 20
-285.9682467067
 10
-630.2284121445
 20
-287.7108425304
 10
-630.2894895802
 20
-289.4660849157
 10
-630.5926796076
 20
-291.183478735
 10
-631.1292600018
 20
-292.8136176949
 10
-631.8837943216
 20
-294.3096056655
 10
-632.8345759885
 20
-295.6284057967
 10
-633.954252745
 20
-296.7320786097
 10
-635.2106135294
 20
-297.5888734473
 10
-636.5675151295
 20
-298.1741418819
 10
-637.9859219566
 20
-298.4710468063
 10
-639.4250290289
 20
-298.4710468063
 10
-640.843435856
 20
-298.1741418819
 10
-642.200337456
 20
-297.5888734473
 10
-643.4566982405
 20
-296.7320786097
 10
-644.576374997
 20
-295.6284057967
 10
-645.5271566639
 20
-294.3096056655
 10
-646.2816909837
 20
-292.8136176949
 10
-646.8182713778
 20
-291.183478735
 10
-647.1214614053
 20
-289.4660849157
 10
-647.1825388409
 20
-287.7108425304
 10
-646.9997465982
 20
-285.9682467067
 10
-646.5783432772
 20
-284.2884287537
 10
-645.930451884
 20
-282.7197139755
 10
-645.0747110746
 20
-281.3072314401
 10
-644.0357389539
 20
-280.0916156983
 10
-642.8434248583
 20
-279.1078378019
 10
-641.5320694933
 20
-278.3841992496
 10
-640.1393981653
 20
-277.9415178051
 10
-638.7054754927
 20
-277.7925286077
  0
LWPOLYLINE
  5
376
330
1F
100
AcDbEntity
  8
0
  6
Continuous
 62
     7
370
    25
100
AcDbPolyline
 90
       21
 70
   128
 43
0.0
 10
-639.0282980434
 20
-298.9004449631
 10
-640.4776989908
 20
-298.7538289747
 10
-641.8875640587
 20
-298.3179803114
 10
-643.2194358032
 20
-297.6047877886
 10
-644.4369842351
 20
-296.6337054392
 10
-645.5069978071
 20
-295.4312218581
 10
-646.4002893382
 20
-294.030137663
 10
-647.0924921642
 20
-292.4686707782
 10
-647.5647247964
 20
-290.7894139499
 10
-647.8041059595
 20
-289.038172927
 10
-647.8041059595
 20
-287.2627169993
 10
-647.5647247964
 20
-285.5114759764
 10
-647.0924921642
 20
-283.8322191481
 10
-646.4002893382
 20
-282.2707522633
 10
-645.5069978071
 20
-280.8696680682
 10
-644.4369842351
 20
-279.6671844871
 10
-643.2194358032
 20
-278.6961021377
 10
-641.8875640587
 20
-277.9829096149
 10
-640.4776989908
 20
-277.5470609516
 10
-639.0282980434
 20
-277.4004449631
 10
-639.0282980434
 20
-277.4004449631
  0
LWPOLYLINE
  5
377
330
1F
100
AcDbEntity
  8
0
  6
Continuous
 62
     7
370
    25
100
AcDbPolyline
 90
       38
 70
   128
 43
0.0
 10
-638.7054754927
 20
402.2074713923
 10
-637.2715528202
 20
402.0584821949
 10
-635.8788814922
 20
401.6158007504
 10
-634.5675261272
 20
400.8921621981
 10
-633.3752120315
 20
399.9083843017
 10
-632.3362399109
 20
398.6927685599
 10
-631.4804991014
 20
397.2802860245
 10
-630.8326077083
 20
395.7115712463
 10
-630.4112043872
 20
394.0317532933
 10
-630.2284121445
 20
392.2891574696
 10
-630.2894895802
 20
390.5339150843
 10
-630.5926796076
 20
388.816521265
 10
-631.1292600018
 20
387.1863823051
 10
-631.8837943216
 20
385.6903943345
 10
-632.8345759885
 20
384.3715942033
 10
-633.954252745
 20
383.2679213903
 10
-635.2106135294
 20
382.4111265527
 10
-636.5675151295
 20
381.8258581181
 10
-637.9859219566
 20
381.5289531937
 10
-639.4250290289
 20
381.5289531937
 10
-640.843435856
 20
381.8258581181
 10
-642.200337456
 20
382.4111265527
 10
-643.4566982405
 20
383.2679213903
 10
-644.576374997
 20
384.3715942033
 10
-645.5271566639
 20
385.6903943345
 10
-646.2816909837
 20
387.1863823051
 10
-646.8182713778
 20
388.816521265
 10
-647.1214614053
 20
390.5339150843
 10
-647.1825388409
 20
392.2891574696
 10
-646.9997465982
 20
394.0317532933
 10
-646.5783432772
 20
395.7115712463
 10
-645.930451884
 20
397.2802860245
 10
-645.0747110746
 20
398.6927685599
 10
-644.0357389539
 20
399.9083843017
 10
-642.8434248583
 20
400.8921621981
 10
-641.5320694933
 20
401.6158007504
 10
-640.1393981653
 20
402.0584821949
 10
-638.7054754927
 20
402.2074713923
  0
LWPOLYLINE
  5
378
330
1F
100
AcDbEntity
  8
0
  6
Continuous
 62
     7
370
    25
100
AcDbPolyline
 90
       20
 70
   128
 43
0.0
 10
-639.0282980434
 20
381.0995550369
 10
-640.4776989908
 20
381.2461710253
 10
-641.8875640587
 20
381.6820196886
 10
-643.2194358032
 20
382.3952122114
 10
-644.4369842351
 20
383.3662945608
 10
-645.5069978071
 20
384.5687781419
 10
-646.4002893382
 20
385.969862337
 10
-647.0924921642
 20
387.5313292218
 10
-647.5647247964
 20
389.2105860501
 10
-647.8041059595
 20
390.961827073
 10
-647.8041059595
 20
392.7372830007
 10
-647.5647247964
 20
394.4885240236
 10
-647.0924921642
 20
396.1677808519
 10
-646.4002893382
 20
397.7292477367
 10
-645.5069978071
 20
399.1303319318
 10
-644.4369842351
 20
400.3328155129
 10
-643.2194358032
 20
401.3038978623
 10
-641.8875640587
 20
402.0170903851
 10
-640.4776989908
 20
402.4529390484
 10
-639.0282980434
 20
402.5995550369
  0
LWPOLYLINE
  5
379
330
1F
100
AcDbEntity
  8
0
  6
Continuous
 62
     7
370
    25
100
AcDbPolyline
 90
       38
 70
   128
 43
0.0
 10
-1427.170020286
 20
402.2074713923
 10
-1425.7360976134
 20
402.0584821949
 10
-1424.3434262854
 20
401.6158007504
 10
-1423.0320709204
 20
400.8921621981
 10
-1421.8397568248
 20
399.9083843017
 10
-1420.8007847041
 20
398.6927685599
 10
-1419.9450438947
 20
397.2802860245
 10
-1419.2971525015
 20
395.7115712463
 10
-1418.8757491805
 20
394.0317532933
 10
-1418.6929569378
 20
392.2891574696
 10
-1418.7540343734
 20
390.5339150843
 10
-1419.0572244009
 20
388.816521265
 10
-1419.593804795
 20
387.1863823051
 10
-1420.3483391148
 20
385.6903943345
 10
-1421.2991207817
 20
384.3715942033
 10
-1422.4187975382
 20
383.2679213903
 10
-1423.6751583227
 20
382.4111265527
 10
-1425.0320599227
 20
381.8258581181
 10
-1426.4504667498
 20
381.5289531937
 10
-1427.8895738221
 20
381.5289531937
 10
-1429.3079806492
 20
381.8258581181
 10
-1430.6648822493
 20
382.4111265527
 10
-1431.9212430337
 20
383.2679213903
 10
-1433.0409197902
 20
384.3715942033
 10
-1433.9917014571
 20
385.6903943345
 10
-1434.7462357769
 20
387.1863823051
 10
-1435.2828161711
 20
388.816521265
 10
-1435.5860061985
 20
390.5339150843
 10
-1435.6470836342
 20
392.2891574696
 10
-1435.4642913915
 20
394.0317532933
 10
-1435.0428880704
 20
395.7115712463
 10
-1434.3949966773
 20
397.2802860245
 10
-1433.5392558678
 20
398.6927685599
 10
-1432.5002837472
 20
399.9083843017
 10
-1431.3079696515
 20
400.8921621981
 10
-1429.9966142865
 20
401.6158007504
 10
-1428.6039429585
 20
402.0584821949
 10
-1427.170020286
 20
402.2074713923
  0
LWPOLYLINE
  5
37A
330
1F
100
AcDbEntity
  8
0
  6
Continuous
 62
     7
370
    25
100
AcDbPolyline
 90
       20
 70
   128
 43
0.0
 10
-1426.8471977353
 20
402.5995550369
 10
-1425.3977967879
 20
402.4529390484
 10
-1423.98793172
 20
402.0170903851
 10
-1422.6560599755
 20
401.3038978623
 10
-1421.4385115436
 20
400.3328155129
 10
-1420.3684979716
 20
399.1303319318
 10
-1419.4752064405
 20
397.7292477367
 10
-1418.7830036145
 20
396.1677808519
 10
-1418.3107709823
 20
394.4885240236
 10
-1418.0713898192
 20
392.7372830007
 10
-1418.0713898192
 20
390.961827073
 10
-1418.3107709823
 20
389.2105860501
 10
-1418.7830036145
 20
387.5313292218
 10
-1419.4752064405
 20
385.969862337
 10
-1420.3684979716
 20
384.5687781419
 10
-1421.4385115436
 20
383.3662945608
 10
-1422.6560599755
 20
382.3952122114
 10
-1423.98793172
 20
381.6820196886
 10
-1425.3977967879
 20
381.2461710253
 10
-1426.8471977353
 20
381.0995550369
  0
LINE
  5
37B
330
1F
100
AcDbEntity
  8
0
  6
Continuous
 62
     7
370
    25
100
AcDbLine
 10
245.5861944295
 20
328.5495550369
 30
0.0
 11
218.5861944295
 21
328.5495550369
 31
0.0
  0
LINE
  5
37C
330
1F
100
AcDbEntity
  8
0
  6
Continuous
 62
     7
370
    25
100
AcDbLine
 10
1224.6452879321
 20
328.5495550369
 30
0.0
 11
1197.6452879321
 21
328.5495550369
 31
0.0
  0
LINE
  5
37D
330
1F
100
AcDbEntity
  8
0
  6
Continuous
 62
     7
370
    25
100
AcDbLine
 10
1197.6452879321
 20
-224.8504449631
 30
0.0
 11
1216.3164495449
 21
-224.8504449631
 31
0.0
  0
LINE
  5
37E
330
1F
100
AcDbEntity
  8
0
  6
Continuous
 62
     7
370
    25
100
AcDbLine
 10
537.1499033633
 20
328.5495550369
 30
0.0
 11
510.1499033633
 21
328.5495550369
 31
0.0
  0
LINE
  5
37F
330
1F
100
AcDbEntity
  8
0
  6
Continuous
 62
     7
370
    25
100
AcDbLine
 10
-72.9775145043
 20
-224.8504449631
 30
0.0
 11
-54.3063528915
 21
-224.8504449631
 31
0.0
  0
LINE
  5
380
330
1F
100
AcDbEntity
  8
0
  6
Continuous
 62
     7
370
    25
100
AcDbLine
 10
510.1499033633
 20
-224.8504449631
 30
0.0
 11
528.8210649762
 21
-224.8504449631
 31
0.0
  0
LINE
  5
381
330
1F
100
AcDbEntity
  8
0
  6
Continuous
 62
     7
370
    25
100
AcDbLine
 10
825.4457284963
 20
328.5495550369
 30
0.0
 11
798.4457284963
 21
328.5495550369
 31
0.0
  0
LINE
  5
382
330
1F
100
AcDbEntity
  8
0
  6
Continuous
 62
     7
370
    25
100
AcDbLine
 10
-45.9775145043
 20
328.5495550369
 30
0.0
 11
-72.9775145043
 21
328.5495550369
 31
0.0
  0
LINE
  5
383
330
1F
100
AcDbEntity
  8
0
  6
Continuous
 62
     7
370
    25
100
AcDbLine
 10
-364.5412234381
 20
-224.8504449631
 30
0.0
 11
-345.8700618253
 21
-224.8504449631
 31
0.0
  0
LINE
  5
384
330
1F
100
AcDbEntity
  8
0
  6
Continuous
 62
     7
370
    25
100
AcDbLine
 10
-337.5412234381
 20
328.5495550369
 30
0.0
 11
-364.5412234381
 21
328.5495550369
 31
0.0
  0
LINE
  5
385
330
1F
100
AcDbEntity
  8
0
  6
Continuous
 62
     7
370
    25
100
AcDbLine
 10
218.5861944295
 20
-224.8504449631
 30
0.0
 11
237.2573560424
 21
-224.8504449631
 31
0.0
  0
LINE
  5
386
330
1F
100
AcDbEntity
  8
0
  6
Continuous
 62
     7
370
    25
100
AcDbLine
 10
1298.9664271261
 20
328.5495550369
 30
0.0
 11
1271.9664271261
 21
328.5495550369
 31
0.0
  0
LINE
  5
387
330
1F
100
AcDbEntity
  8
0
  6
Continuous
 62
     7
370
    25
100
AcDbLine
 10
798.4457284963
 20
-224.8504449631
 30
0.0
 11
817.1168901091
 21
-224.8504449631
 31
0.0
  0
LWPOLYLINE
  5
388
330
1F
100
AcDbEntity
  8
0
  6
Continuous
 62
     7
370
    25
100
AcDbPolyline
 90
        9
 70
   128
 43
0.0
 10
575.5067816805
 20
311.8495550369
 10
575.8671110133
 20
311.7919108781
 10
576.213593092
 20
311.6211936344
 10
576.5329128045
 20
311.3439638738
 10
576.8127988734
 20
310.9708753804
 10
577.042495434
 20
310.5162657359
 10
577.2131753763
 20
309.997605334
 10
577.3182795658
 20
309.4348260029
 10
577.3537689074
 20
308.8495550369
  0
LINE
  5
389
330
1F
100
AcDbEntity
  8
0
  6
Continuous
 62
     7
370
    25
100
AcDbLine
 10
575.5067816805
 20
311.8495550369
 30
0.0
 11
-560.4561701436
 21
311.8495550369
 31
0.0
  0
LINE
  5
38A
330
1F
100
AcDbEntity
  8
0
  6
Continuous
 62
     7
370
    25
100
AcDbLine
 10
577.3537689074
 20
299.8495550369
 30
0.0
 11
577.3537689074
 21
308.8495550369
 31
0.0
  0
LWPOLYLINE
  5
38B
330
1F
100
AcDbEntity
  8
0
  6
Continuous
 62
     7
370
    25
100
AcDbPolyline
 90
        9
 70
   128
 43
0.0
 10
577.3537689074
 20
299.8495550369
 10
577.3182795658
 20
299.2642840708
 10
577.2131753763
 20
298.7015047398
 10
577.042495434
 20
298.1828443378
 10
576.8127988734
 20
297.7282346933
 10
576.5329128045
 20
297.3551462
 10
576.213593092
 20
297.0779164393
 10
575.8671110133
 20
296.9071991957
 10
575.5067816805
 20
296.8495550369
  0
LINE
  5
38C
330
1F
100
AcDbEntity
  8
0
  6
Continuous
 62
     7
370
    25
100
AcDbLine
 10
-565.2467806896
 20
296.8495550369
 30
0.0
 11
575.5067816805
 21
296.8495550369
 31
0.0
  0
LINE
  5
38D
330
1F
100
AcDbEntity
  8
0
  6
Continuous
 62
     7
370
    25
100
AcDbLine
 10
894.4117069471
 20
299.8495550369
 30
0.0
 11
577.3537689074
 21
299.8495550369
 31
0.0
  0
LWPOLYLINE
  5
38E
330
1F
100
AcDbEntity
  8
0
  6
Continuous
 62
     7
370
    25
100
AcDbPolyline
 90
        9
 70
   128
 43
0.0
 10
894.4117069471
 20
299.8495550369
 10
894.3943670982
 20
299.2642840708
 10
894.3430139098
 20
298.7015047398
 10
894.259620856
 20
298.1828443378
 10
894.1473926853
 20
297.7282346933
 10
894.0106422632
 20
297.3551462
 10
893.8546248318
 20
297.0779164393
 10
893.6853360535
 20
296.9071991957
 10
893.509281601
 20
296.8495550369
  0
LINE
  5
38F
330
1F
100
AcDbEntity
  8
0
  6
Continuous
 62
     7
370
    25
100
AcDbLine
 10
575.5067816805
 20
296.8495550369
 30
0.0
 11
893.509281601
 21
296.8495550369
 31
0.0
  0
LINE
  5
390
330
1F
100
AcDbEntity
  8
0
  6
Continuous
 62
     7
370
    25
100
AcDbLine
 10
577.3537689074
 20
308.8495550369
 30
0.0
 11
894.4117069471
 21
308.8495550369
 31
0.0
  0
LWPOLYLINE
  5
391
330
1F
100
AcDbEntity
  8
0
  6
Continuous
 62
     7
370
    25
100
AcDbPolyline
 90
        9
 70
   128
 43
0.0
 10
893.509281601
 20
311.8495550369
 10
893.6853360524
 20
311.7919108781
 10
893.8546248299
 20
311.6211936344
 10
894.0106422608
 20
311.3439638738
 10
894.1473926827
 20
310.9708753804
 10
894.2596208536
 20
310.5162657359
 10
894.3430139078
 20
309.997605334
 10
894.3943670971
 20
309.4348260029
 10
894.4117069471
 20
308.8495550369
  0
LINE
  5
392
330
1F
100
AcDbEntity
  8
0
  6
Continuous
 62
     7
370
    25
100
AcDbLine
 10
893.509281601
 20
311.8495550369
 30
0.0
 11
575.5067816805
 21
311.8495550369
 31
0.0
  0
LINE
  5
393
330
1F
100
AcDbEntity
  8
0
  6
Continuous
 62
     7
370
    25
100
AcDbLine
 10
894.4117069471
 20
299.8495550369
 30
0.0
 11
894.4117069471
 21
308.8495550369
 31
0.0
  0
LINE
  5
394
330
1F
100
AcDbEntity
  8
0
  6
Continuous
 62
     7
370
    25
100
AcDbLine
 10
1305.8267881498
 20
299.8495550369
 30
0.0
 11
894.4117069471
 21
299.8495550369
 31
0.0
  0
LINE
  5
395
330
1F
100
AcDbEntity
  8
0
  6
Continuous
 62
     7
370
    25
100
AcDbLine
 10
894.4117069471
 20
308.8495550369
 30
0.0
 11
1305.8267881498
 21
308.8495550369
 31
0.0
  0
LINE
  5
396
330
1F
100
AcDbEntity
  8
0
  6
Continuous
 62
     7
370
    25
100
AcDbLine
 10
1305.8267881498
 20
299.8495550369
 30
0.0
 11
1305.8267881498
 21
308.8495550369
 31
0.0
  0
LWPOLYLINE
  5
397
330
1F
100
AcDbEntity
  8
0
  6
Continuous
 62
     7
370
    25
100
AcDbPolyline
 90
        9
 70
   128
 43
0.0
 10
1304.9243627976
 20
311.8495550369
 10
1305.1004172502
 20
311.7919108781
 10
1305.2697060288
 20
311.6211936344
 10
1305.4257234608
 20
311.3439638738
 10
1305.5624738837
 20
310.9708753804
 10
1305.6747020554
 20
310.5162657359
 10
1305.7580951101
 20
309.997605334
 10
1305.8094482997
 20
309.4348260029
 10
1305.8267881498
 20
308.8495550369
  0
LINE
  5
398
330
1F
100
AcDbEntity
  8
0
  6
Continuous
 62
     7
370
    25
100
AcDbLine
 10
1304.9243627976
 20
311.8495550369
 30
0.0
 11
893.509281601
 21
311.8495550369
 31
0.0
  0
LWPOLYLINE
  5
399
330
1F
100
AcDbEntity
  8
0
  6
Continuous
 62
     7
370
    25
100
AcDbPolyline
 90
        9
 70
   128
 43
0.0
 10
1305.8267881498
 20
299.8495550369
 10
1305.8094483111
 20
299.2642840708
 10
1305.7580951299
 20
298.7015047398
 10
1305.6747020803
 20
298.1828443378
 10
1305.5624739104
 20
297.7282346933
 10
1305.4257234858
 20
297.3551462
 10
1305.2697060486
 20
297.0779164393
 10
1305.1004172615
 20
296.9071991957
 10
1304.9243627976
 20
296.8495550369
  0
LINE
  5
39A
330
1F
100
AcDbEntity
  8
0
  6
Continuous
 62
     7
370
    25
100
AcDbLine
 10
893.509281601
 20
296.8495550369
 30
0.0
 11
1304.9243627976
 21
296.8495550369
 31
0.0
  0
LINE
  5
39B
330
1F
100
AcDbEntity
  8
0
  6
Continuous
 62
     7
370
    25
100
AcDbLine
 10
1310.3203560012
 20
299.8495550369
 30
0.0
 11
1305.8267881498
 21
299.8495550369
 31
0.0
  0
LINE
  5
39C
330
1F
100
AcDbEntity
  8
0
  6
Continuous
 62
     7
370
    25
100
AcDbLine
 10
1305.8267881498
 20
308.8495550369
 30
0.0
 11
1310.3203560012
 21
308.8495550369
 31
0.0
  0
LINE
  5
39D
330
1F
100
AcDbEntity
  8
0
  6
Continuous
 62
     7
370
    25
100
AcDbLine
 10
1310.3203560012
 20
299.8495550369
 30
0.0
 11
1310.3203560012
 21
308.8495550369
 31
0.0
  0
LWPOLYLINE
  5
39E
330
1F
100
AcDbEntity
  8
0
  6
Continuous
 62
     7
370
    25
100
AcDbPolyline
 90
        9
 70
   128
 43
0.0
 10
1308.8318130409
 20
311.8495550369
 10
1309.1222133664
 20
311.7919108781
 10
1309.4014537702
 20
311.6211936344
 10
1309.6588032002
 20
311.3439638738
 10
1309.8843718622
 20
310.9708753804
 10
1310.069491279
 20
310.5162657359
 10
1310.2070474151
 20
309.997605334
 10
1310.2917540656
 20
309.4348260029
 10
1310.3203560012
 20
308.8495550369
  0
LINE
  5
39F
330
1F
100
AcDbEntity
  8
0
  6
Continuous
 62
     7
370
    25
100
AcDbLine
 10
1308.8318130409
 20
311.8495550369
 30
0.0
 11
1304.9243627976
 21
311.8495550369
 31
0.0
  0
LWPOLYLINE
  5
3A0
330
1F
100
AcDbEntity
  8
0
  6
Continuous
 62
     7
370
    25
100
AcDbPolyline
 90
        9
 70
   128
 43
0.0
 10
1310.3203560012
 20
299.8495550369
 10
1310.2917540636
 20
299.2642840708
 10
1310.2070474118
 20
298.7015047398
 10
1310.0694912747
 20
298.1828443378
 10
1309.8843718576
 20
297.7282346933
 10
1309.6588031959
 20
297.3551462
 10
1309.4014537668
 20
297.0779164393
 10
1309.1222133644
 20
296.9071991957
 10
1308.8318130409
 20
296.8495550369
  0
LINE
  5
3A1
330
1F
100
AcDbEntity
  8
0
  6
Continuous
 62
     7
370
    25
100
AcDbLine
 10
1304.9243627976
 20
296.8495550369
 30
0.0
 11
1308.8318130409
 21
296.8495550369
 31
0.0
  0
LINE
  5
3A2
330
1F
100
AcDbEntity
  8
0
  6
Continuous
 62
     7
370
    25
100
AcDbLine
 10
1355.5372381716
 20
311.8495550369
 30
0.0
 11
1308.8318130409
 21
311.8495550369
 31
0.0
  0
LINE
  5
3A3
330
1F
100
AcDbEntity
  8
0
  6
Continuous
 62
     7
370
    25
100
AcDbLine
 10
1308.8318130409
 20
296.8495550369
 30
0.0
 11
1355.5372381716
 21
296.8495550369
 31
0.0
  0
LWPOLYLINE
  5
3A4
330
1F
100
AcDbEntity
  8
0
  6
Continuous
 62
     7
370
    25
100
AcDbPolyline
 90
        3
 70
   128
 43
0.0
 10
-1343.7344865368
 20
-258.5528961791
 10
-1343.523534327
 20
-258.7362314008
 10
-1343.3401991053
 20
-258.9471836106
  0
LWPOLYLINE
  5
3A5
330
1F
100
AcDbEntity
  8
0
  6
Continuous
 62
     7
370
    25
100
AcDbPolyline
 90
        3
 70
   128
 43
0.0
 10
-1383.8252381515
 20
-298.6112714322
 10
-1383.6448546705
 20
-298.8575517443
 10
-1383.3985743584
 20
-299.0379352253
  0
LWPOLYLINE
  5
3A6
330
1F
100
AcDbEntity
  8
0
  6
Continuous
 62
     7
370
    25
100
AcDbPolyline
 90
        3
 70
   128
 43
0.0
 10
-1382.0506302199
 20
-297.6889016386
 10
-1382.2306411082
 20
-297.443338182
 10
-1382.4762045648
 20
-297.2633272936
  0
LWPOLYLINE
  5
3A7
330
1F
100
AcDbEntity
  8
0
  6
Continuous
 62
     7
370
    25
100
AcDbPolyline
 90
        3
 70
   128
 43
0.0
 10
-1422.1043284928
 20
-337.7749724931
 10
-1422.3519614517
 20
-337.5646585255
 10
-1422.5622754193
 20
-337.3170255666
  0
LWPOLYLINE
  5
3A8
330
1F
100
AcDbEntity
  8
0
  6
Continuous
 62
     7
370
    25
100
AcDbPolyline
 90
        3
 70
   128
 43
0.0
 10
-722.5352966734
 20
-258.9471836106
 10
-722.3519614517
 20
-258.7362314008
 10
-722.1410092419
 20
-258.5528961791
  0
LWPOLYLINE
  5
3A9
330
1F
100
AcDbEntity
  8
0
  6
Continuous
 62
     7
370
    25
100
AcDbPolyline
 90
        3
 70
   128
 43
0.0
 10
-682.4808995325
 20
-299.0399895538
 10
-682.2306411082
 20
-298.8575517443
 10
-682.0502576272
 20
-298.6112714322
  0
LWPOLYLINE
  5
3AA
330
1F
100
AcDbEntity
  8
0
  6
Continuous
 62
     7
370
    25
100
AcDbPolyline
 90
        3
 70
   128
 43
0.0
 10
-683.3992912139
 20
-297.2633272937
 10
-683.6448546705
 20
-297.443338182
 10
-683.8248655588
 20
-297.6889016386
  0
LWPOLYLINE
  5
3AB
330
1F
100
AcDbEntity
  8
0
  6
Continuous
 62
     7
370
    25
100
AcDbPolyline
 90
        3
 70
   128
 43
0.0
 10
-643.3132203594
 20
-337.3170255666
 10
-643.523534327
 20
-337.5646585255
 10
-643.7711672859
 20
-337.7749724931
  0
LWPOLYLINE
  5
3AC
330
1F
100
AcDbEntity
  8
0
  6
Continuous
 62
     7
370
    25
100
AcDbPolyline
 90
        3
 70
   128
 43
0.0
 10
-722.1410092419
 20
362.2520062528
 10
-722.3519614517
 20
362.4353414745
 10
-722.5352966734
 20
362.6462936843
  0
LWPOLYLINE
  5
3AD
330
1F
100
AcDbEntity
  8
0
  6
Continuous
 62
     7
370
    25
100
AcDbPolyline
 90
        3
 70
   128
 43
0.0
 10
-682.0502576272
 20
402.3103815059
 10
-682.2306411082
 20
402.5566618181
 10
-682.4769214203
 20
402.737045299
  0
LWPOLYLINE
  5
3AE
330
1F
100
AcDbEntity
  8
0
  6
Continuous
 62
     7
370
    25
100
AcDbPolyline
 90
        3
 70
   128
 43
0.0
 10
-683.8248655588
 20
401.3880117123
 10
-683.6448546705
 20
401.1424482557
 10
-683.3992912139
 20
400.9624373674
  0
LWPOLYLINE
  5
3AF
330
1F
100
AcDbEntity
  8
0
  6
Continuous
 62
     7
370
    25
100
AcDbPolyline
 90
        3
 70
   128
 43
0.0
 10
-643.7711672859
 20
441.4740825668
 10
-643.523534327
 20
441.2637685992
 10
-643.3132203594
 20
441.0161356403
  0
LWPOLYLINE
  5
3B0
330
1F
100
AcDbEntity
  8
0
  6
Continuous
 62
     7
370
    25
100
AcDbPolyline
 90
        3
 70
   128
 43
0.0
 10
-1343.3401991053
 20
362.6462936843
 10
-1343.523534327
 20
362.4353414745
 10
-1343.7344865368
 20
362.2520062528
  0
LWPOLYLINE
  5
3B1
330
1F
100
AcDbEntity
  8
0
  6
Continuous
 62
     7
370
    25
100
AcDbPolyline
 90
        3
 70
   128
 43
0.0
 10
-1383.3985743584
 20
402.737045299
 10
-1383.6448546705
 20
402.5566618181
 10
-1383.8252381515
 20
402.3103815059
  0
LWPOLYLINE
  5
3B2
330
1F
100
AcDbEntity
  8
0
  6
Continuous
 62
     7
370
    25
100
AcDbPolyline
 90
        3
 70
   128
 43
0.0
 10
-1382.4762045648
 20
400.9624373674
 10
-1382.2306411082
 20
401.1424482557
 10
-1382.0506302199
 20
401.3880117123
  0
LWPOLYLINE
  5
3B3
330
1F
100
AcDbEntity
  8
0
  6
Continuous
 62
     7
370
    25
100
AcDbPolyline
 90
        3
 70
   128
 43
0.0
 10
-1422.5622754193
 20
441.0161356403
 10
-1422.3519614517
 20
441.2637685992
 10
-1422.1043284928
 20
441.4740825668
  0
LINE
  5
3B4
330
1F
100
AcDbEntity
  8
0
  6
Continuous
 62
     8
370
    25
100
AcDbLine
 10
-1336.9377478893
 20
355.460756494
 30
0.0
 11
-1336.9377478893
 21
356.2386678182
 31
0.0
  0
LINE
  5
3B5
330
1F
100
AcDbEntity
  8
0
  6
Continuous
 62
     8
370
    25
100
AcDbLine
 10
-728.9377478893
 20
356.2386678182
 30
0.0
 11
-728.9377478893
 21
355.4607564939
 31
0.0
  0
LWPOLYLINE
  5
3B6
330
1F
100
AcDbEntity
  8
0
  6
Continuous
 62
     8
370
    25
100
AcDbPolyline
 90
        8
 70
   128
 43
0.0
 10
-1041.0322859865
 20
631.9085741687
 10
-1041.4230292636
 20
631.9745171673
 10
-1042.6459518218
 20
632.227300771
 10
-1043.6298261796
 20
632.5107460137
 10
-1044.3504260849
 20
632.8178735327
 10
-1044.7900079765
 20
633.1411208292
 10
-1044.9377478894
 20
633.472528482
 10
-1044.9377476135
 20
633.4729826902
  0
LWPOLYLINE
  5
3B7
330
1F
100
AcDbEntity
  8
0
  6
Continuous
 62
     8
370
    25
100
AcDbPolyline
 90
        7
 70
   128
 43
0.0
 10
-1020.9377479722
 20
633.4722795316
 10
-1021.0854878022
 20
633.1411208292
 10
-1021.5250696938
 20
632.8178735327
 10
-1022.2456695991
 20
632.5107460137
 10
-1023.2295439569
 20
632.227300771
 10
-1024.4524665151
 20
631.9745171673
 10
-1024.8872937236
 20
631.9014982888
  0
LWPOLYLINE
  5
3B8
330
1F
100
AcDbEntity
  8
0
  6
Continuous
 62
     8
370
    25
100
AcDbPolyline
 90
        7
 70
   128
 43
0.0
 10
-1024.8989716381
 20
635.7109437273
 10
-1024.3782392427
 20
635.934416418
 10
-1024.0192000334
 20
636.2121269527
 10
-1023.9468102905
 20
636.4966925038
 10
-1024.1633966797
 20
636.7789669004
 10
-1024.6619979364
 20
637.0498776111
 10
-1024.8129047603
 20
637.1088550365
  0
LWPOLYLINE
  5
3B9
330
1F
100
AcDbEntity
  8
0
  6
Continuous
 62
     8
370
    25
100
AcDbPolyline
 90
        7
 70
   128
 43
0.0
 10
-1041.0006372903
 20
637.1313521289
 10
-1041.2134978423
 20
637.0498776111
 10
-1041.712099099
 20
636.7789669004
 10
-1041.9286854882
 20
636.4966925038
 10
-1041.8562957453
 20
636.2121269527
 10
-1041.497256536
 20
635.934416418
 10
-1041.0582456666
 20
635.7403525204
  0
LWPOLYLINE
  5
3BA
330
1F
100
AcDbEntity
  8
0
  6
Continuous
 62
     8
370
    25
100
AcDbPolyline
 90
        7
 70
   128
 43
0.0
 10
-1044.9377478894
 20
600.0065648049
 10
-1044.7900079765
 20
599.675157152
 10
-1044.3504260849
 20
599.3519098555
 10
-1043.6298261796
 20
599.0447823365
 10
-1042.6459518218
 20
598.7613370938
 10
-1041.4230292636
 20
598.5085534901
 10
-1041.0173607749
 20
598.4402069478
  0
LWPOLYLINE
  5
3BB
330
1F
100
AcDbEntity
  8
0
  6
Continuous
 62
     8
370
    25
100
AcDbPolyline
 90
        7
 70
   128
 43
0.0
 10
-1024.8402320485
 20
598.4430909984
 10
-1024.4524665151
 20
598.5085534901
 10
-1023.2295439569
 20
598.7613370938
 10
-1022.2456695991
 20
599.0447823365
 10
-1021.5250696938
 20
599.3519098555
 10
-1021.0854878022
 20
599.675157152
 10
-1020.9377478894
 20
600.0065648049
  0
LINE
  5
3BC
330
1F
100
AcDbEntity
  8
0
  6
Continuous
 62
     8
370
    25
100
AcDbLine
 10
-1225.1061827265
 20
522.3173992061
 30
0.0
 11
-1225.1061827265
 21
508.9300862703
 31
0.0
  0
LINE
  5
3BD
330
1F
100
AcDbEntity
  8
0
  6
Continuous
 62
     8
370
    25
100
AcDbLine
 10
-1137.1199710675
 20
521.3620398861
 30
0.0
 11
-1137.1199710675
 21
508.0233234423
 31
0.0
  0
LINE
  5
3BE
330
1F
100
AcDbEntity
  8
0
  6
Continuous
 62
     8
370
    25
100
AcDbLine
 10
-1119.6074563058
 20
521.7888164519
 30
0.0
 11
-1119.6074563058
 21
508.9048142769
 31
0.0
  0
LINE
  5
3BF
330
1F
100
AcDbEntity
  8
0
  6
Continuous
 62
     8
370
    25
100
AcDbLine
 10
-1239.0705955087
 20
522.58743353
 30
0.0
 11
-1239.0705955087
 21
509.4175945025
 31
0.0
  0
LINE
  5
3C0
330
1F
100
AcDbEntity
  8
0
  6
Continuous
 62
     8
370
    25
100
AcDbLine
 10
-915.1061827265
 20
578.9478151074
 30
0.0
 11
-915.1061827265
 21
565.5605021716
 31
0.0
  0
LINE
  5
3C1
330
1F
100
AcDbEntity
  8
0
  6
Continuous
 62
     8
370
    25
100
AcDbLine
 10
-827.1199710675
 20
577.9924557874
 30
0.0
 11
-827.1199710675
 21
564.6537393437
 31
0.0
  0
LINE
  5
3C2
330
1F
100
AcDbEntity
  8
0
  6
Continuous
 62
     8
370
    25
100
AcDbLine
 10
-809.6074563058
 20
578.4192323532
 30
0.0
 11
-809.6074563058
 21
565.5352301783
 31
0.0
  0
LINE
  5
3C3
330
1F
100
AcDbEntity
  8
0
  6
Continuous
 62
     8
370
    25
100
AcDbLine
 10
-929.0705955087
 20
579.2178494314
 30
0.0
 11
-929.0705955087
 21
566.0480104038
 31
0.0
  0
LWPOLYLINE
  5
3C4
330
1F
100
AcDbEntity
  8
0
  6
Continuous
 62
     8
370
    25
100
AcDbPolyline
 90
        9
 70
   128
 43
0.0
 10
-1222.2438150797
 20
522.4795401423
 10
-1222.2425220709
 20
522.4796381001
 10
-1222.0300564865
 20
522.5538851408
 10
-1221.8342470826
 20
522.7402539909
 10
-1221.6626187046
 20
523.0315826002
 10
-1221.5217669349
 20
523.4166753735
 10
-1221.4171046279
 20
523.8807334115
 10
-1221.3526538975
 20
524.405923224
 10
-1221.3308915491
 20
524.9720620611
  0
LWPOLYLINE
  5
3C5
330
1F
100
AcDbEntity
  8
0
  6
Continuous
 62
     8
370
    25
100
AcDbPolyline
 90
        8
 70
   128
 43
0.0
 10
-1140.7809226905
 20
521.641173422
 10
-1141.0381480281
 20
521.7192037677
 10
-1141.2875577842
 20
521.9101609298
 10
-1141.5061672638
 20
522.2055112281
 10
-1141.6855754272
 20
522.5939045163
 10
-1141.8188877192
 20
523.0604150581
 10
-1141.9009810233
 20
523.587115115
 10
-1141.9287005399
 20
524.1537638993
  0
ARC
  5
3C6
330
1F
100
AcDbEntity
  8
0
  6
Continuous
 62
     8
370
    25
100
AcDbCircle
 10
-1113.5043759378
 20
525.5379428416
 30
0.0
 40
2.565357407428489
100
AcDbArc
 50
289.4398229761
 51
3.9201083747
  0
LWPOLYLINE
  5
3C7
330
1F
100
AcDbEntity
  8
0
  6
Continuous
 62
     8
370
    25
100
AcDbPolyline
 90
        8
 70
   128
 43
0.0
 10
-1110.9450205767
 20
525.7133246066
 10
-1108.879334334
 20
526.4263792869
 10
-1107.1603603407
 20
527.1685800842
 10
-1105.7645282949
 20
527.9582367742
 10
-1104.7529524512
 20
528.7666441038
 10
-1104.1419093433
 20
529.557895804
 10
-1103.8803443795
 20
530.3554060245
 10
-1103.902203839
 20
530.5663867298
  0
LWPOLYLINE
  5
3C8
330
1F
100
AcDbEntity
  8
0
  6
Continuous
 62
     8
370
    25
100
AcDbPolyline
 90
        7
 70
   128
 43
0.0
 10
-1103.9119074097
 20
539.4199548704
 10
-1103.9479528903
 20
538.8735416174
 10
-1104.4075203806
 20
538.0093240684
 10
-1105.2840755349
 20
537.1556603828
 10
-1107.1109275683
 20
536.0462705894
 10
-1108.8411188699
 20
535.2942598234
 10
-1110.9450205767
 20
534.5666876708
  0
LWPOLYLINE
  5
3C9
330
1F
100
AcDbEntity
  8
0
  6
Continuous
 62
     8
370
    25
100
AcDbPolyline
 90
        3
 70
   128
 43
0.0
 10
-1157.7622816687
 20
555.2230037431
 10
-1157.4962790931
 20
555.2600229768
 10
-1157.4936156612
 20
555.2598087738
  0
ARC
  5
3CA
330
1F
100
AcDbEntity
  8
0
  6
Continuous
 62
     8
370
    25
100
AcDbCircle
 10
-1243.6140991243
 20
525.5529306589
 30
0.0
 40
2.439374919439727
100
AcDbArc
 50
173.3699429166
 51
249.6163692846
  0
LWPOLYLINE
  5
3CB
330
1F
100
AcDbEntity
  8
0
  6
Continuous
 62
     8
370
    25
100
AcDbPolyline
 90
       11
 70
   128
 43
0.0
 10
-1246.0371603177
 20
534.6879396899
 10
-1251.4386651398
 20
535.7067885541
 10
-1256.3700063289
 20
536.7997772431
 10
-1260.8908508389
 20
537.9995183186
 10
-1264.7700500882
 20
539.2694410975
 10
-1267.0545417118
 20
540.1958671364
 10
-1268.9495771526
 20
541.1501501678
 10
-1270.4511874574
 20
542.1535366373
 10
-1271.4686177809
 20
543.1762221801
 10
-1271.9758658315
 20
544.2755951308
 10
-1271.9904912238
 20
544.6100842232
  0
ARC
  5
3CC
330
1F
100
AcDbEntity
  8
0
  6
Continuous
 62
     8
370
    25
100
AcDbCircle
 10
-1269.0321735538
 20
544.7702314701
 30
0.0
 40
2.968859064161155
100
AcDbArc
 50
89.3613850758
 51
173.9806802933
  0
LWPOLYLINE
  5
3CD
330
1F
100
AcDbEntity
  8
0
  6
Continuous
 62
     8
370
    25
100
AcDbPolyline
 90
       11
 70
   128
 43
0.0
 10
-1271.9694806123
 20
535.7667382066
 10
-1271.835844098
 20
534.9571336602
 10
-1271.1830937713
 20
533.9771926198
 10
-1270.0274553173
 20
532.9808958905
 10
-1268.4187736577
 20
532.0049815289
 10
-1265.9689575996
 20
530.879769373
 10
-1262.9887399896
 20
529.7964850149
 10
-1259.4263914355
 20
528.731328831
 10
-1255.4123321759
 20
527.7192421978
 10
-1251.5856419157
 20
526.8834396236
 10
-1246.0371603177
 20
525.8345766257
  0
LINE
  5
3CE
330
1F
100
AcDbEntity
  8
0
  6
Continuous
 62
     8
370
    25
100
AcDbLine
 10
-1242.298690993
 20
551.0659783813
 30
0.0
 11
-1242.1072823872
 21
551.1087449184
 31
0.0
  0
LWPOLYLINE
  5
3CF
330
1F
100
AcDbEntity
  8
0
  6
Continuous
 62
     8
370
    25
100
AcDbPolyline
 90
        3
 70
   128
 43
0.0
 10
-1182.6868776744
 20
554.2166550319
 10
-1183.1502572179
 20
554.2242249315
 10
-1183.3686785907
 20
554.1870313688
  0
LWPOLYLINE
  5
3D0
330
1F
100
AcDbEntity
  8
0
  6
Continuous
 62
     8
370
    25
100
AcDbPolyline
 90
        9
 70
   128
 43
0.0
 10
-912.2438150797
 20
579.1099560437
 10
-912.2425220709
 20
579.1100540014
 10
-912.0300564865
 20
579.1843010421
 10
-911.8342470826
 20
579.3706698923
 10
-911.6626187046
 20
579.6619985016
 10
-911.5217669349
 20
580.0470912749
 10
-911.4171046279
 20
580.5111493128
 10
-911.3526538975
 20
581.0363391254
 10
-911.3308915491
 20
581.6024779625
  0
LWPOLYLINE
  5
3D1
330
1F
100
AcDbEntity
  8
0
  6
Continuous
 62
     8
370
    25
100
AcDbPolyline
 90
        8
 70
   128
 43
0.0
 10
-830.7809226905
 20
578.2715893234
 10
-831.0381480281
 20
578.3496196691
 10
-831.2875577842
 20
578.5405768312
 10
-831.5061672638
 20
578.8359271295
 10
-831.6855754272
 20
579.2243204177
 10
-831.8188877192
 20
579.6908309595
 10
-831.9009810233
 20
580.2175310164
 10
-831.9287005399
 20
580.7841798006
  0
ARC
  5
3D2
330
1F
100
AcDbEntity
  8
0
  6
Continuous
 62
     8
370
    25
100
AcDbCircle
 10
-803.5043759378
 20
582.1683587429
 30
0.0
 40
2.565357407428043
100
AcDbArc
 50
289.4398229761
 51
3.9201083747
  0
LWPOLYLINE
  5
3D3
330
1F
100
AcDbEntity
  8
0
  6
Continuous
 62
     8
370
    25
100
AcDbPolyline
 90
        3
 70
   128
 43
0.0
 10
-847.7622816687
 20
611.8534196445
 10
-847.4962790931
 20
611.8904388782
 10
-847.4936156612
 20
611.8902246752
  0
LWPOLYLINE
  5
3D4
330
1F
100
AcDbEntity
  8
0
  6
Continuous
 62
     8
370
    25
100
AcDbPolyline
 90
        7
 70
   128
 43
0.0
 10
-793.9120737892
 20
596.0478486259
 10
-793.9479528903
 20
595.5039575188
 10
-794.4075203806
 20
594.6397399698
 10
-795.2840755349
 20
593.7860762842
 10
-797.1109275683
 20
592.6766864908
 10
-798.8411188699
 20
591.9246757248
 10
-800.9450205767
 20
591.1971035722
  0
LWPOLYLINE
  5
3D5
330
1F
100
AcDbEntity
  8
0
  6
Continuous
 62
     8
370
    25
100
AcDbPolyline
 90
        8
 70
   128
 43
0.0
 10
-800.9450205767
 20
582.343740508
 10
-798.879334334
 20
583.0567951883
 10
-797.1603603407
 20
583.7989959856
 10
-795.7645282949
 20
584.5886526756
 10
-794.7529524512
 20
585.3970600051
 10
-794.1419093433
 20
586.1883117054
 10
-793.8803443795
 20
586.9858219259
 10
-793.902203839
 20
587.1968026312
  0
ARC
  5
3D6
330
1F
100
AcDbEntity
  8
0
  6
Continuous
 62
     8
370
    25
100
AcDbCircle
 10
-933.6140991243
 20
582.1833465602
 30
0.0
 40
2.439374919437465
100
AcDbArc
 50
173.3699429165
 51
249.6163692846
  0
LWPOLYLINE
  5
3D7
330
1F
100
AcDbEntity
  8
0
  6
Continuous
 62
     8
370
    25
100
AcDbPolyline
 90
       11
 70
   128
 43
0.0
 10
-936.0371603177
 20
591.3183555913
 10
-941.4386651398
 20
592.3372044555
 10
-946.3700063289
 20
593.4301931445
 10
-950.8908508389
 20
594.62993422
 10
-954.7700500882
 20
595.8998569988
 10
-957.0545417118
 20
596.8262830378
 10
-958.9495771526
 20
597.7805660691
 10
-960.4511874574
 20
598.7839525386
 10
-961.4686177809
 20
599.8066380815
 10
-961.9758658315
 20
600.9060110321
 10
-961.9904912238
 20
601.2405001246
  0
ARC
  5
3D8
330
1F
100
AcDbEntity
  8
0
  6
Continuous
 62
     8
370
    25
100
AcDbCircle
 10
-959.0321735538
 20
601.4006473715
 30
0.0
 40
2.968859064160667
100
AcDbArc
 50
89.3613850758
 51
173.9806802933
  0
LWPOLYLINE
  5
3D9
330
1F
100
AcDbEntity
  8
0
  6
Continuous
 62
     8
370
    25
100
AcDbPolyline
 90
       11
 70
   128
 43
0.0
 10
-961.9694806123
 20
592.397154108
 10
-961.835844098
 20
591.5875495616
 10
-961.1830937713
 20
590.6076085212
 10
-960.0274553173
 20
589.6113117919
 10
-958.4187736577
 20
588.6353974302
 10
-955.9689575996
 20
587.5101852744
 10
-952.9887399896
 20
586.4269009163
 10
-949.4263914355
 20
585.3617447324
 10
-945.4123321759
 20
584.3496580992
 10
-941.5856419157
 20
583.513855525
 10
-936.0371603177
 20
582.4649925271
  0
LINE
  5
3DA
330
1F
100
AcDbEntity
  8
0
  6
Continuous
 62
     8
370
    25
100
AcDbLine
 10
-932.298690993
 20
607.6963942826
 30
0.0
 11
-932.1072823872
 21
607.7391608198
 31
0.0
  0
LWPOLYLINE
  5
3DB
330
1F
100
AcDbEntity
  8
0
  6
Continuous
 62
     8
370
    25
100
AcDbPolyline
 90
        3
 70
   128
 43
0.0
 10
-872.6868776744
 20
610.8470709333
 10
-873.1502572179
 20
610.8546408328
 10
-873.3686785907
 20
610.8174472702
  0
LWPOLYLINE
  5
3DC
330
1F
100
AcDbEntity
  8
0
  6
Continuous
 62
     8
370
    25
100
AcDbPolyline
 90
       22
 70
   128
 43
0.0
 10
-926.2247604359
 20
603.9347688117
 10
-926.3032728048
 20
603.8744988535
 10
-926.4883384615
 20
603.5926935097
 10
-926.3822240116
 20
603.3095729189
 10
-925.9885430553
 20
603.0347784131
 10
-925.3207019255
 20
602.7776677897
 10
-924.401443151
 20
602.5469966425
 10
-923.2620709866
 20
602.3506202009
 10
-921.941385385
 20
602.195225829
 10
-920.4843607102
 20
602.0861052958
 10
-918.9406141902
 20
602.0269745701
 10
-917.3627162612
 20
602.019847278
 10
-915.8044003445
 20
602.0649661307
 10
-914.3187330199
 20
602.16079466
 10
-912.956306906
 20
602.30406954
 10
-911.7635177903
 20
602.4899117168
 10
-910.7809846754
 20
602.7119925577
 10
-910.0421665482
 20
602.9627493662
 10
-909.5722229739
 20
603.2336429198
 10
-909.3871573172
 20
603.5154482635
 10
-909.4932717671
 20
603.7985688544
 10
-909.6507353428
 20
603.9347688117
  0
LWPOLYLINE
  5
3DD
330
1F
100
AcDbEntity
  8
0
  6
Continuous
 62
     8
370
    25
100
AcDbPolyline
 90
       14
 70
   128
 43
0.0
 10
-842.617235845
 20
602.2669084733
 10
-841.2219692868
 20
602.1342411448
 10
-839.7148625078
 20
602.0499244152
 10
-838.147238222
 20
602.0168295896
 10
-836.5724799941
 20
602.0360836727
 10
-835.044214327
 20
602.1070309897
 10
-833.6144844749
 20
602.2272555149
 10
-832.3319781732
 20
602.3926631463
 10
-831.2403696358
 20
602.5976211253
 10
-830.3768322822
 20
602.8351498537
 10
-829.7707728413
 20
603.0971605757
 10
-829.4428299405
 20
603.3747308304
 10
-829.4041712818
 20
603.6584082955
 10
-829.6507353428
 20
603.9347688117
  0
LWPOLYLINE
  5
3DE
330
1F
100
AcDbEntity
  8
0
  6
Continuous
 62
     8
370
    25
100
AcDbPolyline
 90
        8
 70
   128
 43
0.0
 10
-846.2247604359
 20
603.9347688117
 10
-846.4326658382
 20
603.7334109429
 10
-846.4713244969
 20
603.4497334777
 10
-846.219382439
 20
603.1696090979
 10
-845.6854192493
 20
602.9025771032
 10
-844.8876184038
 20
602.6577309479
 10
-843.8531480533
 20
602.4434085741
 10
-842.617235845
 20
602.2669084733
  0
LWPOLYLINE
  5
3DF
330
1F
100
AcDbEntity
  8
0
  6
Continuous
 62
     8
370
    25
100
AcDbPolyline
 90
       14
 70
   128
 43
0.0
 10
-1152.617235845
 20
545.636492572
 10
-1151.2219692867
 20
545.5038252434
 10
-1149.7148625078
 20
545.4195085138
 10
-1148.147238222
 20
545.3864136882
 10
-1146.5724799941
 20
545.4056677713
 10
-1145.044214327
 20
545.4766150884
 10
-1143.6144844749
 20
545.5968396136
 10
-1142.3319781732
 20
545.7622472449
 10
-1141.2403696358
 20
545.9672052239
 10
-1140.3768322822
 20
546.2047339524
 10
-1139.7707728413
 20
546.4667446744
 10
-1139.4428299405
 20
546.744314929
 10
-1139.4041712818
 20
547.0279923942
 10
-1139.6507353428
 20
547.3043529103
  0
LWPOLYLINE
  5
3E0
330
1F
100
AcDbEntity
  8
0
  6
Continuous
 62
     8
370
    25
100
AcDbPolyline
 90
        8
 70
   128
 43
0.0
 10
-1156.2247604359
 20
547.3043529103
 10
-1156.4326658382
 20
547.1029950415
 10
-1156.4713244969
 20
546.8193175764
 10
-1156.219382439
 20
546.5391931965
 10
-1155.6854192493
 20
546.2721612018
 10
-1154.8876184038
 20
546.0273150465
 10
-1153.8531480533
 20
545.8129926728
 10
-1152.617235845
 20
545.636492572
  0
LWPOLYLINE
  5
3E1
330
1F
100
AcDbEntity
  8
0
  6
Continuous
 62
     8
370
    25
100
AcDbPolyline
 90
       22
 70
   128
 43
0.0
 10
-1236.2247604359
 20
547.3043529103
 10
-1236.3032728048
 20
547.2440829521
 10
-1236.4883384615
 20
546.9622776084
 10
-1236.3822240116
 20
546.6791570175
 10
-1235.9885430553
 20
546.4043625117
 10
-1235.3207019255
 20
546.1472518883
 10
-1234.401443151
 20
545.9165807411
 10
-1233.2620709866
 20
545.7202042995
 10
-1231.941385385
 20
545.5648099276
 10
-1230.4843607102
 20
545.4556893944
 10
-1228.9406141902
 20
545.3965586687
 10
-1227.3627162612
 20
545.3894313766
 10
-1225.8044003445
 20
545.4345502293
 10
-1224.3187330199
 20
545.5303787586
 10
-1222.956306906
 20
545.6736536387
 10
-1221.7635177903
 20
545.8594958154
 10
-1220.7809846754
 20
546.0815766563
 10
-1220.0421665482
 20
546.3323334648
 10
-1219.5722229739
 20
546.6032270184
 10
-1219.3871573172
 20
546.8850323622
 10
-1219.4932717671
 20
547.168152953
 10
-1219.6507353428
 20
547.3043529103
  0
LINE
  5
3E2
330
1F
100
AcDbEntity
  8
0
  6
Continuous
 62
     8
370
    25
100
AcDbLine
 10
-737.9377478893
 20
605.2594522625
 30
0.0
 11
-806.6831080199
 21
605.2594522625
 31
0.0
  0
LINE
  5
3E3
330
1F
100
AcDbEntity
  8
0
  6
Continuous
 62
     8
370
    25
100
AcDbLine
 10
-959.1537929853
 20
605.2594522625
 30
0.0
 11
-1020.9377478894
 21
605.2594522625
 31
0.0
  0
LINE
  5
3E4
330
1F
100
AcDbEntity
  8
0
  6
Continuous
 62
     8
370
    25
100
AcDbLine
 10
-1044.9377478894
 20
605.2594522625
 30
0.0
 11
-1327.9377478893
 21
605.2594522625
 31
0.0
  0
LINE
  5
3E5
330
1F
100
AcDbEntity
  8
0
  6
Continuous
 62
     8
370
    25
100
AcDbLine
 10
-1205.9377478893
 20
560.0938870918
 30
0.0
 11
-1205.9377478893
 21
560.0450090905
 31
0.0
  0
ARC
  5
3E6
330
1F
100
AcDbEntity
  8
0
  6
Continuous
 62
     8
370
    25
100
AcDbCircle
 10
-1234.9198873104
 20
562.266934981
 30
0.0
 40
2.991721268721712
100
AcDbArc
 50
21.5957745029
 51
90.3420578928
  0
ARC
  5
3E7
330
1F
100
AcDbEntity
  8
0
  6
Continuous
 62
     8
370
    25
100
AcDbCircle
 10
-1100.950645051
 20
562.259475683
 30
0.0
 40
2.999154983107818
100
AcDbArc
 50
89.7536121967
 51
158.0636361352
  0
LINE
  5
3E8
330
1F
100
AcDbEntity
  8
0
  6
Continuous
 62
     8
370
    25
100
AcDbLine
 10
-1129.9377478893
 20
560.0938874991
 30
0.0
 11
-1129.9377478893
 21
560.0450090905
 31
0.0
  0
LINE
  5
3E9
330
1F
100
AcDbEntity
  8
0
  6
Continuous
 62
     8
370
    25
100
AcDbLine
 10
-1129.9377478893
 20
571.7915868559
 30
0.0
 11
-1129.9377478893
 21
569.3309251274
 31
0.0
  0
LINE
  5
3EA
330
1F
100
AcDbEntity
  8
0
  6
Continuous
 62
     8
370
    25
100
AcDbLine
 10
-1205.9377478893
 20
571.7915868559
 30
0.0
 11
-1205.9377478893
 21
569.3309247202
 31
0.0
  0
LINE
  5
3EB
330
1F
100
AcDbEntity
  8
0
  6
Continuous
 62
     8
370
    25
100
AcDbLine
 10
-1339.9377478893
 20
615.8279607326
 30
0.0
 11
-1339.9377478893
 21
539.3417124934
 31
0.0
  0
LINE
  5
3EC
330
1F
100
AcDbEntity
  8
0
  6
Continuous
 62
     8
370
    25
100
AcDbLine
 10
-1330.9377478893
 20
536.4673461658
 30
0.0
 11
-1330.9377478893
 21
615.8279607326
 31
0.0
  0
LINE
  5
3ED
330
1F
100
AcDbEntity
  8
0
  6
Continuous
 62
     8
370
    25
100
AcDbLine
 10
-1339.9377478893
 20
615.9908906612
 30
0.0
 11
-1339.9377478893
 21
615.8279607326
 31
0.0
  0
LINE
  5
3EE
330
1F
100
AcDbEntity
  8
0
  6
Continuous
 62
     8
370
    25
100
AcDbLine
 10
-1330.9377478893
 20
615.8279607326
 30
0.0
 11
-1330.9377478893
 21
615.9908906612
 31
0.0
  0
LINE
  5
3EF
330
1F
100
AcDbEntity
  8
0
  6
Continuous
 62
     8
370
    25
100
AcDbLine
 10
-734.9377478893
 20
615.8279607326
 30
0.0
 11
-734.9377478893
 21
546.4618075893
 31
0.0
  0
LINE
  5
3F0
330
1F
100
AcDbEntity
  8
0
  6
Continuous
 62
     8
370
    25
100
AcDbLine
 10
-725.9377478893
 20
543.5874412617
 30
0.0
 11
-725.9377478893
 21
615.8279607326
 31
0.0
  0
LINE
  5
3F1
330
1F
100
AcDbEntity
  8
0
  6
Continuous
 62
     8
370
    25
100
AcDbLine
 10
-734.9377478893
 20
615.9908906612
 30
0.0
 11
-734.9377478893
 21
615.8279607326
 31
0.0
  0
LINE
  5
3F2
330
1F
100
AcDbEntity
  8
0
  6
Continuous
 62
     8
370
    25
100
AcDbLine
 10
-725.9377478893
 20
615.8279607326
 30
0.0
 11
-725.9377478893
 21
615.9908906612
 31
0.0
  0
ARC
  5
3F3
330
1F
100
AcDbEntity
  8
0
  6
Continuous
 62
     8
370
    25
100
AcDbCircle
 10
-1048.8780815716
 20
37.1093747785
 30
0.0
 40
0.7388138969477774
100
AcDbArc
 50
265.587389372
 51
313.3255912856
  0
ARC
  5
3F4
330
1F
100
AcDbEntity
  8
0
  6
Continuous
 62
     8
370
    25
100
AcDbCircle
 10
-1048.8780992785
 20
66.5896530522
 30
0.0
 40
0.7388945342786106
100
AcDbArc
 50
46.7014245372
 51
94.4107509961
  0
ARC
  5
3F5
330
1F
100
AcDbEntity
  8
0
  6
Continuous
 62
     8
370
    25
100
AcDbCircle
 10
-1450.9393492018
 20
468.3263918366
 30
0.0
 40
0.7387458992653418
100
AcDbArc
 50
46.6516079713
 51
94.4141790272
  0
ARC
  5
3F6
330
1F
100
AcDbEntity
  8
0
  6
Continuous
 62
     8
370
    25
100
AcDbCircle
 10
-1454.4503861765
 20
-368.1354833055
 30
0.0
 40
0.738745899256327
100
AcDbArc
 50
265.5858209725
 51
313.3483920291
  0
ARC
  5
3F7
330
1F
100
AcDbEntity
  8
0
  6
Continuous
 62
     8
370
    25
100
AcDbCircle
 10
-1470.422389337
 20
453.638613357
 30
0.0
 40
22.21309144939291
100
AcDbArc
 50
43.9778555315
 51
88.9174610394
  0
LWPOLYLINE
  5
3F8
330
1F
100
AcDbEntity
  8
0
  6
Continuous
 62
     8
370
    25
100
AcDbPolyline
 90
        7
 70
   128
 43
0.0
 10
-1493.4667983418
 20
456.5683179268
 10
-1493.4687467139
 20
456.5616204307
 10
-1493.4447601593
 20
456.4260955764
 10
-1493.3117983137
 20
456.2609580637
 10
-1493.0749708265
 20
456.0725540345
 10
-1492.7433788449
 20
455.86812375
 10
-1492.3297652631
 20
455.6555233514
  0
ARC
  5
3F9
330
1F
100
AcDbEntity
  8
0
  6
Continuous
 62
     8
370
    25
100
AcDbCircle
 10
-1466.8909818784
 20
453.8727011269
 30
0.0
 40
21.98607308035774
100
AcDbArc
 50
43.701636918
 51
87.5113087059
  0
ARC
  5
3FA
330
1F
100
AcDbEntity
  8
0
  6
Continuous
 62
     8
370
    25
100
AcDbCircle
 10
-1473.7938453131
 20
-353.7679188674
 30
0.0
 40
21.89070460886995
100
AcDbArc
 50
270.7331030371
 51
316.371580392
  0
LWPOLYLINE
  5
3FB
330
1F
100
AcDbEntity
  8
0
  6
Continuous
 62
     8
370
    25
100
AcDbPolyline
 90
        7
 70
   128
 43
0.0
 10
-1494.5221371837
 20
-358.8701577948
 10
-1494.9071664556
 20
-359.1565791351
 10
-1495.2112726061
 20
-359.4319934639
 10
-1495.4227690065
 20
-359.6858167631
 10
-1495.5335279686
 20
-359.9082947455
 10
-1495.5392930877
 20
-360.0908777071
 10
-1495.5271524272
 20
-360.1232804785
  0
ARC
  5
3FC
330
1F
100
AcDbEntity
  8
0
  6
Continuous
 62
     8
370
    25
100
AcDbCircle
 10
-1470.4796032622
 20
-353.4760701808
 30
0.0
 40
22.18450071151076
100
AcDbArc
 50
271.0519951788
 51
316.0526882503
  0
LWPOLYLINE
  5
3FD
330
1F
100
AcDbEntity
  8
0
  6
Continuous
 62
     8
370
    25
100
AcDbPolyline
 90
        7
 70
   128
 43
0.0
 10
-1472.5502987422
 20
-109.7064034738
 10
-1472.9639123241
 20
-109.4938030752
 10
-1473.2955043056
 20
-109.2893727907
 10
-1473.5323317929
 20
-109.1009687615
 10
-1473.6652936384
 20
-108.9358312488
 10
-1473.689280193
 20
-108.8003063945
 10
-1473.6873793196
 20
-108.7937575566
  0
ARC
  5
3FE
330
1F
100
AcDbEntity
  8
0
  6
Continuous
 62
     8
370
    25
100
AcDbCircle
 10
-1470.9329982358
 20
-94.1601606794
 30
0.0
 40
2.57930991101001
100
AcDbArc
 50
95.3565646564
 51
125.1442907108
  0
ARC
  5
3FF
330
1F
100
AcDbEntity
  8
0
  6
Continuous
 62
     8
370
    25
100
AcDbCircle
 10
-1533.7144067137
 20
311.4566970748
 30
0.0
 40
2.580395962937544
100
AcDbArc
 50
95.3607666651
 51
125.1354148073
  0
LWPOLYLINE
  5
400
330
1F
100
AcDbEntity
  8
0
  6
Continuous
 62
     8
370
    25
100
AcDbPolyline
 90
        7
 70
   128
 43
0.0
 10
-1524.7141843675
 20
-273.0380449975
 10
-1525.1277979493
 20
-272.8254445989
 10
-1525.4593899309
 20
-272.6210143144
 10
-1525.6962174182
 20
-272.4326102852
 10
-1525.8291792637
 20
-272.2674727724
 10
-1525.8531658183
 20
-272.1319479182
 10
-1525.8512463058
 20
-272.1253406716
  0
LWPOLYLINE
  5
401
330
1F
100
AcDbEntity
  8
0
  6
Continuous
 62
     8
370
    25
100
AcDbPolyline
 90
        7
 70
   128
 43
0.0
 10
-1533.9663085229
 20
329.7592929935
 10
-1533.9682280354
 20
329.752685747
 10
-1533.9442414808
 20
329.6171608927
 10
-1533.8112796353
 20
329.45202338
 10
-1533.574452148
 20
329.2636193507
 10
-1533.2428601665
 20
329.0591890663
 10
-1532.8292465846
 20
328.8465886677
  0
LWPOLYLINE
  5
402
330
1F
100
AcDbEntity
  8
0
  6
Continuous
 62
     8
370
    25
100
AcDbPolyline
 90
        7
 70
   128
 43
0.0
 10
-1523.3955193134
 20
-296.0591544175
 10
-1523.7805485852
 20
-296.3455757578
 10
-1524.0846547358
 20
-296.6209900866
 10
-1524.2961511361
 20
-296.8748133857
 10
-1524.4069100983
 20
-297.0972913681
 10
-1524.4126752174
 20
-297.2798743297
 10
-1524.4005855126
 20
-297.3121663276
  0
ARC
  5
403
330
1F
100
AcDbEntity
  8
0
  6
Continuous
 62
     8
370
    25
100
AcDbCircle
 10
-1018.197567631
 20
35.9092213546
 30
0.0
 40
0.7388138969478025
100
AcDbArc
 50
355.587389372
 51
43.3255912856
  0
ARC
  5
404
330
1F
100
AcDbEntity
  8
0
  6
Continuous
 62
     8
370
    25
100
AcDbCircle
 10
-1047.6778459047
 20
35.9092036477
 30
0.0
 40
0.7388945342735154
100
AcDbArc
 50
136.701424537
 51
184.4107509963
  0
ARC
  5
405
330
1F
100
AcDbEntity
  8
0
  6
Continuous
 62
     8
370
    25
100
AcDbCircle
 10
-612.952709547
 20
-369.6630832503
 30
0.0
 40
0.738745899255529
100
AcDbArc
 50
355.5858209724
 51
43.3483920291
  0
ARC
  5
406
330
1F
100
AcDbEntity
  8
0
  6
Continuous
 62
     8
370
    25
100
AcDbCircle
 10
-1449.414584689
 20
-366.1520462755
 30
0.0
 40
0.7387458992620242
100
AcDbArc
 50
136.6516079712
 51
184.4141790273
  0
ARC
  5
407
330
1F
100
AcDbEntity
  8
0
  6
Continuous
 62
     8
370
    25
100
AcDbCircle
 10
-1434.7268062095
 20
-385.6350864108
 30
0.0
 40
22.21309144939405
100
AcDbArc
 50
133.9778555315
 51
178.9174610394
  0
LWPOLYLINE
  5
408
330
1F
100
AcDbEntity
  8
0
  6
Continuous
 62
     8
370
    25
100
AcDbPolyline
 90
        7
 70
   128
 43
0.0
 10
-1437.6565107793
 20
-408.6794954156
 10
-1437.6498132832
 20
-408.6814437877
 10
-1437.5142884289
 20
-408.6574572331
 10
-1437.3491509162
 20
-408.5244953875
 10
-1437.160746887
 20
-408.2876679003
 10
-1436.9563166025
 20
-407.9560759187
 10
-1436.7437162039
 20
-407.5424623369
  0
ARC
  5
409
330
1F
100
AcDbEntity
  8
0
  6
Continuous
 62
     8
370
    25
100
AcDbCircle
 10
-1434.9608939794
 20
-382.1036789522
 30
0.0
 40
21.98607308035802
100
AcDbArc
 50
133.701636918
 51
177.5113087059
  0
ARC
  5
40A
330
1F
100
AcDbEntity
  8
0
  6
Continuous
 62
     8
370
    25
100
AcDbCircle
 10
-627.3202739851
 20
-389.0065423869
 30
0.0
 40
21.89070460887374
100
AcDbArc
 50
0.7331030371
 51
46.371580392
  0
LWPOLYLINE
  5
40B
330
1F
100
AcDbEntity
  8
0
  6
Continuous
 62
     8
370
    25
100
AcDbPolyline
 90
        7
 70
   128
 43
0.0
 10
-622.2180350577
 20
-409.7348342575
 10
-621.9316137174
 20
-410.1198635294
 10
-621.6561993886
 20
-410.4239696799
 10
-621.4023760894
 20
-410.6354660802
 10
-621.179898107
 20
-410.7462250424
 10
-620.9973151454
 20
-410.7519901615
 10
-620.964912374
 20
-410.739849501
  0
ARC
  5
40C
330
1F
100
AcDbEntity
  8
0
  6
Continuous
 62
     8
370
    25
100
AcDbCircle
 10
-627.6121226717
 20
-385.692300336
 30
0.0
 40
22.18450071150881
100
AcDbArc
 50
1.0519951788
 51
46.0526882503
  0
LWPOLYLINE
  5
40D
330
1F
100
AcDbEntity
  8
0
  6
Continuous
 62
     8
370
    25
100
AcDbPolyline
 90
        7
 70
   128
 43
0.0
 10
-871.3817893787
 20
-387.762995816
 10
-871.5943897773
 20
-388.1766093979
 10
-871.7988200618
 20
-388.5082013794
 10
-871.987224091
 20
-388.7450288667
 10
-872.1523616037
 20
-388.8779907122
 10
-872.287886458
 20
-388.9019772668
 10
-872.2944352959
 20
-388.9000763934
  0
ARC
  5
40E
330
1F
100
AcDbEntity
  8
0
  6
Continuous
 62
     8
370
    25
100
AcDbCircle
 10
-886.928032173
 20
-386.1456953096
 30
0.0
 40
2.579309911030342
100
AcDbArc
 50
185.3565646565
 51
215.1442907106
  0
ARC
  5
40F
330
1F
100
AcDbEntity
  8
0
  6
Continuous
 62
     8
370
    25
100
AcDbCircle
 10
-1292.5448899273
 20
-448.9271037875
 30
0.0
 40
2.580395962943904
100
AcDbArc
 50
185.3607666651
 51
215.1354148073
  0
LWPOLYLINE
  5
410
330
1F
100
AcDbEntity
  8
0
  6
Continuous
 62
     8
370
    25
100
AcDbPolyline
 90
        7
 70
   128
 43
0.0
 10
-708.050147855
 20
-439.9268814413
 10
-708.2627482536
 20
-440.3404950231
 10
-708.4671785381
 20
-440.6720870047
 10
-708.6555825673
 20
-440.9089144919
 10
-708.82072008
 20
-441.0418763375
 10
-708.9562449343
 20
-441.0658628921
 10
-708.9628521809
 20
-441.0639433796
  0
LWPOLYLINE
  5
411
330
1F
100
AcDbEntity
  8
0
  6
Continuous
 62
     8
370
    25
100
AcDbPolyline
 90
        7
 70
   128
 43
0.0
 10
-1310.847485846
 20
-449.1790055967
 10
-1310.8408785995
 20
-449.1809251092
 10
-1310.7053537452
 20
-449.1569385546
 10
-1310.5402162324
 20
-449.0239767091
 10
-1310.3518122032
 20
-448.7871492218
 10
-1310.1473819187
 20
-448.4555572403
 10
-1309.9347815202
 20
-448.0419436584
  0
LWPOLYLINE
  5
412
330
1F
100
AcDbEntity
  8
0
  6
Continuous
 62
     8
370
    25
100
AcDbPolyline
 90
        7
 70
   128
 43
0.0
 10
-685.029038435
 20
-438.6082163872
 10
-684.7426170947
 20
-438.993245659
 10
-684.4672027659
 20
-439.2973518095
 10
-684.2133794668
 20
-439.5088482099
 10
-683.9909014843
 20
-439.619607172
 10
-683.8083185228
 20
-439.6253722912
 10
-683.7760265249
 20
-439.6132825864
  0
ARC
  5
413
330
1F
100
AcDbEntity
  8
0
  6
Continuous
 62
     8
370
    25
100
AcDbCircle
 10
-1016.9974142071
 20
66.5897352952
 30
0.0
 40
0.7388138969448401
100
AcDbArc
 50
85.5873893719
 51
133.3255912857
  0
ARC
  5
414
330
1F
100
AcDbEntity
  8
0
  6
Continuous
 62
     8
370
    25
100
AcDbCircle
 10
-1016.9973965002
 20
37.1094570215
 30
0.0
 40
0.738894534272127
100
AcDbArc
 50
226.701424537
 51
274.4107509963
  0
ARC
  5
415
330
1F
100
AcDbEntity
  8
0
  6
Continuous
 62
     8
370
    25
100
AcDbCircle
 10
-611.4251096022
 20
471.8345933792
 30
0.0
 40
0.738745899253271
100
AcDbArc
 50
85.5858209724
 51
133.3483920291
  0
ARC
  5
416
330
1F
100
AcDbEntity
  8
0
  6
Continuous
 62
     8
370
    25
100
AcDbCircle
 10
-614.9361465769
 20
-364.6272817628
 30
0.0
 40
0.7387458992521436
100
AcDbArc
 50
226.6516079708
 51
274.4141790277
  0
ARC
  5
417
330
1F
100
AcDbEntity
  8
0
  6
Continuous
 62
     8
370
    25
100
AcDbCircle
 10
-595.4531064417
 20
-349.9395032833
 30
0.0
 40
22.21309144939538
100
AcDbArc
 50
223.9778555315
 51
268.9174610393
  0
LWPOLYLINE
  5
418
330
1F
100
AcDbEntity
  8
0
  6
Continuous
 62
     8
370
    25
100
AcDbPolyline
 90
        7
 70
   128
 43
0.0
 10
-572.4086974369
 20
-352.8692078531
 10
-572.4067490648
 20
-352.862510357
 10
-572.4307356194
 20
-352.7269855027
 10
-572.5636974649
 20
-352.56184799
 10
-572.8005249522
 20
-352.3734439608
 10
-573.1321169338
 20
-352.1690136763
 10
-573.5457305156
 20
-351.9564132777
  0
ARC
  5
419
330
1F
100
AcDbEntity
  8
0
  6
Continuous
 62
     8
370
    25
100
AcDbCircle
 10
-598.9845139003
 20
-350.1735910532
 30
0.0
 40
21.98607308035745
100
AcDbArc
 50
223.701636918
 51
267.5113087059
  0
ARC
  5
41A
330
1F
100
AcDbEntity
  8
0
  6
Continuous
 62
     8
370
    25
100
AcDbCircle
 10
-592.0816504656
 20
457.4670289411
 30
0.0
 40
21.89070460887094
100
AcDbArc
 50
90.7331030371
 51
136.371580392
  0
LWPOLYLINE
  5
41B
330
1F
100
AcDbEntity
  8
0
  6
Continuous
 62
     8
370
    25
100
AcDbPolyline
 90
        7
 70
   128
 43
0.0
 10
-571.353358595
 20
462.5692678685
 10
-570.9683293231
 20
462.8556892088
 10
-570.6642231726
 20
463.1311035377
 10
-570.4527267722
 20
463.3849268368
 10
-570.3419678101
 20
463.6074048192
 10
-570.336202691
 20
463.7899877808
 10
-570.3483433515
 20
463.8223905522
  0
ARC
  5
41C
330
1F
100
AcDbEntity
  8
0
  6
Continuous
 62
     8
370
    25
100
AcDbCircle
 10
-595.3958925165
 20
457.1751802545
 30
0.0
 40
22.18450071150966
100
AcDbArc
 50
91.0519951788
 51
136.0526882503
  0
LWPOLYLINE
  5
41D
330
1F
100
AcDbEntity
  8
0
  6
Continuous
 62
     8
370
    25
100
AcDbPolyline
 90
        7
 70
   128
 43
0.0
 10
-593.3251970365
 20
213.4055135475
 10
-592.9115834546
 20
213.1929131489
 10
-592.5799914731
 20
212.9884828645
 10
-592.3431639858
 20
212.8000788352
 10
-592.2102021403
 20
212.6349413225
 10
-592.1862155857
 20
212.4994164682
 10
-592.1881164591
 20
212.4928676303
  0
ARC
  5
41E
330
1F
100
AcDbEntity
  8
0
  6
Continuous
 62
     8
370
    25
100
AcDbCircle
 10
-594.9424975429
 20
197.8592707532
 30
0.0
 40
2.579309911014158
100
AcDbArc
 50
275.3565646564
 51
305.1442907107
  0
ARC
  5
41F
330
1F
100
AcDbEntity
  8
0
  6
Continuous
 62
     8
370
    25
100
AcDbCircle
 10
-532.161089065
 20
-207.7575870011
 30
0.0
 40
2.580395962942676
100
AcDbArc
 50
275.3607666651
 51
305.1354148073
  0
LWPOLYLINE
  5
420
330
1F
100
AcDbEntity
  8
0
  6
Continuous
 62
     8
370
    25
100
AcDbPolyline
 90
        7
 70
   128
 43
0.0
 10
-541.1613114112
 20
376.7371550712
 10
-540.7476978294
 20
376.5245546726
 10
-540.4161058478
 20
376.3201243881
 10
-540.1792783605
 20
376.1317203589
 10
-540.046316515
 20
375.9665828462
 10
-540.0223299604
 20
375.8310579919
 10
-540.0242494729
 20
375.8244507453
  0
LWPOLYLINE
  5
421
330
1F
100
AcDbEntity
  8
0
  6
Continuous
 62
     8
370
    25
100
AcDbPolyline
 90
        7
 70
   128
 43
0.0
 10
-531.9091872558
 20
-226.0601829198
 10
-531.9072677433
 20
-226.0535756733
 10
-531.9312542979
 20
-225.918050819
 10
-532.0642161434
 20
-225.7529133062
 10
-532.3010436307
 20
-225.564509277
 10
-532.6326356122
 20
-225.3600789925
 10
-533.0462491941
 20
-225.147478594
  0
LWPOLYLINE
  5
422
330
1F
100
AcDbEntity
  8
0
  6
Continuous
 62
     8
370
    25
100
AcDbPolyline
 90
        7
 70
   128
 43
0.0
 10
-542.4799764653
 20
399.7582644912
 10
-542.0949471935
 20
400.0446858315
 10
-541.7908410429
 20
400.3201001603
 10
-541.5793446426
 20
400.5739234594
 10
-541.4685856804
 20
400.7964014419
 10
-541.4628205613
 20
400.9789844035
 10
-541.4749102661
 20
401.0112764013
  0
ARC
  5
423
330
1F
100
AcDbEntity
  8
0
  6
Continuous
 62
     8
370
    25
100
AcDbCircle
 10
-1047.6779281477
 20
67.7898887191
 30
0.0
 40
0.7388138969438143
100
AcDbArc
 50
175.5873893719
 51
223.3255912858
  0
ARC
  5
424
330
1F
100
AcDbEntity
  8
0
  6
Continuous
 62
     8
370
    25
100
AcDbCircle
 10
-1018.197649874
 20
67.789906426
 30
0.0
 40
0.738894534274499
100
AcDbArc
 50
316.7014245371
 51
4.4107509962
  0
ARC
  5
425
330
1F
100
AcDbEntity
  8
0
  6
Continuous
 62
     8
370
    25
100
AcDbCircle
 10
-616.4609110896
 20
469.8511563493
 30
0.0
 40
0.7387458992515579
100
AcDbArc
 50
316.6516079708
 51
4.4141790277
  0
ARC
  5
426
330
1F
100
AcDbEntity
  8
0
  6
Continuous
 62
     8
370
    25
100
AcDbCircle
 10
-1452.9227862317
 20
473.362193324
 30
0.0
 40
0.7387458992589554
100
AcDbArc
 50
175.5858209725
 51
223.3483920289
  0
ARC
  5
427
330
1F
100
AcDbEntity
  8
0
  6
Continuous
 62
     8
370
    25
100
AcDbCircle
 10
-631.1486895692
 20
489.3341964845
 30
0.0
 40
22.21309144939499
100
AcDbArc
 50
313.9778555315
 51
358.9174610393
  0
LWPOLYLINE
  5
428
330
1F
100
AcDbEntity
  8
0
  6
Continuous
 62
     8
370
    25
100
AcDbPolyline
 90
        7
 70
   128
 43
0.0
 10
-628.2189849994
 20
512.3786054894
 10
-628.2256824955
 20
512.3805538614
 10
-628.3612073498
 20
512.3565673068
 10
-628.5263448625
 20
512.2236054613
 10
-628.7147488917
 20
511.986777974
 10
-628.9191791762
 20
511.6551859925
 10
-629.1317795748
 20
511.2415724106
  0
ARC
  5
429
330
1F
100
AcDbEntity
  8
0
  6
Continuous
 62
     8
370
    25
100
AcDbCircle
 10
-630.9146017993
 20
485.8027890259
 30
0.0
 40
21.98607308035739
100
AcDbArc
 50
313.701636918
 51
357.5113087059
  0
ARC
  5
42A
330
1F
100
AcDbEntity
  8
0
  6
Continuous
 62
     8
370
    25
100
AcDbCircle
 10
-1438.5552217936
 20
492.7056524606
 30
0.0
 40
21.89070460886928
100
AcDbArc
 50
180.7331030371
 51
226.371580392
  0
LWPOLYLINE
  5
42B
330
1F
100
AcDbEntity
  8
0
  6
Continuous
 62
     8
370
    25
100
AcDbPolyline
 90
        7
 70
   128
 43
0.0
 10
-1443.657460721
 20
513.4339443312
 10
-1443.9438820613
 20
513.8189736031
 10
-1444.2192963901
 20
514.1230797536
 10
-1444.4731196893
 20
514.334576154
 10
-1444.6955976717
 20
514.4453351161
 10
-1444.8781806333
 20
514.4511002352
 10
-1444.9105834047
 20
514.4389595747
  0
ARC
  5
42C
330
1F
100
AcDbEntity
  8
0
  6
Continuous
 62
     8
370
    25
100
AcDbCircle
 10
-1438.263373107
 20
489.3914104097
 30
0.0
 40
22.18450071150583
100
AcDbArc
 50
181.0519951788
 51
226.0526882503
  0
LWPOLYLINE
  5
42D
330
1F
100
AcDbEntity
  8
0
  6
Continuous
 62
     8
370
    25
100
AcDbPolyline
 90
        7
 70
   128
 43
0.0
 10
-1194.4937064
 20
491.4621058897
 10
-1194.2811060014
 20
491.8757194716
 10
-1194.0766757169
 20
492.2073114531
 10
-1193.8882716877
 20
492.4441389404
 10
-1193.723134175
 20
492.5771007859
 10
-1193.5876093207
 20
492.6010873406
 10
-1193.5810604828
 20
492.5991864671
  0
ARC
  5
42E
330
1F
100
AcDbEntity
  8
0
  6
Continuous
 62
     8
370
    25
100
AcDbCircle
 10
-1178.9474636057
 20
489.8448053833
 30
0.0
 40
2.57930991101124
100
AcDbArc
 50
5.3565646564
 51
35.1442907107
  0
ARC
  5
42F
330
1F
100
AcDbEntity
  8
0
  6
Continuous
 62
     8
370
    25
100
AcDbCircle
 10
-773.3306058514
 20
552.6262138612
 30
0.0
 40
2.580395962936776
100
AcDbArc
 50
5.3607666651
 51
35.1354148073
  0
LWPOLYLINE
  5
430
330
1F
100
AcDbEntity
  8
0
  6
Continuous
 62
     8
370
    25
100
AcDbPolyline
 90
        7
 70
   128
 43
0.0
 10
-1357.8253479237
 20
543.625991515
 10
-1357.6127475251
 20
544.0396050969
 10
-1357.4083172406
 20
544.3711970784
 10
-1357.2199132114
 20
544.6080245657
 10
-1357.0547756987
 20
544.7409864112
 10
-1356.9192508444
 20
544.7649729658
 10
-1356.9126435978
 20
544.7630534533
  0
LWPOLYLINE
  5
431
330
1F
100
AcDbEntity
  8
0
  6
Continuous
 62
     8
370
    25
100
AcDbPolyline
 90
        7
 70
   128
 43
0.0
 10
-755.0280099327
 20
552.8781156704
 10
-755.0346171792
 20
552.8800351829
 10
-755.1701420335
 20
552.8560486283
 10
-755.3352795463
 20
552.7230867828
 10
-755.5236835755
 20
552.4862592955
 10
-755.72811386
 20
552.154667314
 10
-755.9407142585
 20
551.7410537321
  0
LWPOLYLINE
  5
432
330
1F
100
AcDbEntity
  8
0
  6
Continuous
 62
     8
370
    25
100
AcDbPolyline
 90
        7
 70
   128
 43
0.0
 10
-1380.8464573437
 20
542.3073264609
 10
-1381.132878684
 20
542.6923557327
 10
-1381.4082930128
 20
542.9964618833
 10
-1381.6621163119
 20
543.2079582836
 10
-1381.8845942943
 20
543.3187172458
 10
-1382.0671772559
 20
543.3244823649
 10
-1382.0994692538
 20
543.3123926601
  0
LINE
  5
433
330
1F
100
AcDbEntity
  8
0
  6
Continuous
 62
     8
370
    25
100
AcDbLine
 10
-531.4062002886
 20
-205.1504449631
 30
0.0
 11
577.3537689074
 21
-205.1504449631
 31
0.0
  0
LINE
  5
434
330
1F
100
AcDbEntity
  8
0
  6
Continuous
 62
     8
370
    25
100
AcDbLine
 10
577.3537689074
 20
-196.1504449631
 30
0.0
 11
-532.799223759
 21
-196.1504449631
 31
0.0
  0
LINE
  5
435
330
1F
100
AcDbEntity
  8
0
  6
Continuous
 62
     8
370
    25
100
AcDbLine
 10
1358.5372381716
 20
-196.1504449631
 30
0.0
 11
1310.3203560012
 21
-196.1504449631
 31
0.0
  0
LINE
  5
436
330
1F
100
AcDbEntity
  8
0
  6
Continuous
 62
     8
370
    25
100
AcDbLine
 10
1310.3203560012
 20
-205.1504449631
 30
0.0
 11
1358.5372381716
 21
-205.1504449631
 31
0.0
  0
LWPOLYLINE
  5
437
330
1F
100
AcDbEntity
  8
0
  6
Continuous
 62
     8
370
    25
100
AcDbPolyline
 90
       24
 70
   128
 43
0.0
 10
-1357.437751876
 20
438.8181411572
 10
-1357.5226585111
 20
437.5000646844
 10
-1357.8981641321
 20
435.7555999644
 10
-1358.5663981436
 20
434.0709213718
 10
-1359.5143541307
 20
432.478819259
 10
-1360.7235812084
 20
431.0102820826
 10
-1362.1705431472
 20
429.6938932484
 10
-1363.8270764788
 20
428.5552747677
 10
-1365.6609386662
 20
427.616588554
 10
-1367.6364356678
 20
426.8961050667
 10
-1369.7151166817
 20
426.4078476975
 10
-1371.8565225463
 20
426.1613198205
 10
-1374.0189732324
 20
426.1613198205
 10
-1376.160379097
 20
426.4078476975
 10
-1378.2390601109
 20
426.8961050667
 10
-1380.2145571125
 20
427.616588554
 10
-1382.0484192999
 20
428.5552747677
 10
-1383.7049526315
 20
429.6938932484
 10
-1385.1519145703
 20
431.0102820826
 10
-1386.361141648
 20
432.478819259
 10
-1387.3090976351
 20
434.0709213718
 10
-1387.9773316466
 20
435.7555999645
 10
-1388.3528372676
 20
437.5000646844
 10
-1388.4377285143
 20
438.807172099
  0
LWPOLYLINE
  5
438
330
1F
100
AcDbEntity
  8
0
  6
Continuous
 62
     8
370
    25
100
AcDbPolyline
 90
       24
 70
   128
 43
0.0
 10
-645.9600744032
 20
-303.6504449631
 10
-646.8457432741
 20
-303.6126877422
 10
-648.5998802658
 20
-303.3117327745
 10
-650.3026360677
 20
-302.7156805853
 10
-651.9208684751
 20
-301.8361326525
 10
-653.4230804348
 20
-300.690208376
 10
-654.7800330998
 20
-299.3002118684
 10
-655.96531493
 20
-297.6931978307
 10
-656.9558557627
 20
-295.9004449631
 10
-657.7323758475
 20
-293.9568471611
 10
-658.279761104
 20
-291.9002343449
 10
-658.5873573011
 20
-289.7706361438
 10
-658.6491774285
 20
-287.6095027643
 10
-658.4640182277
 20
-285.4588982093
 10
-658.0354836122
 20
-283.3606815503
 10
-657.3719145205
 20
-281.3556921879
 10
-656.4862265704
 20
-279.4829549593
 10
-655.3956586704
 20
-277.7789205646
 10
-654.121437484
 20
-276.2767560948
 10
-652.6883642774
 20
-275.0056994727
 10
-651.1243321903
 20
-273.9904903697
 10
-649.4597833283
 20
-273.2508886761
 10
-647.7271162415
 20
-272.8012898976
 10
-645.960055324
 20
-272.6504449631
  0
LWPOLYLINE
  5
439
330
1F
100
AcDbEntity
  8
0
  6
Continuous
 62
     8
370
    25
100
AcDbPolyline
 90
       24
 70
   128
 43
0.0
 10
-677.437751876
 20
438.8181411572
 10
-677.5226585111
 20
437.5000646844
 10
-677.8981641321
 20
435.7555999645
 10
-678.5663981436
 20
434.0709213718
 10
-679.5143541307
 20
432.478819259
 10
-680.7235812084
 20
431.0102820826
 10
-682.1705431472
 20
429.6938932484
 10
-683.8270764788
 20
428.5552747677
 10
-685.6609386662
 20
427.616588554
 10
-687.6364356678
 20
426.8961050667
 10
-689.7151166817
 20
426.4078476975
 10
-691.8565225463
 20
426.1613198205
 10
-694.0189732324
 20
426.1613198205
 10
-696.160379097
 20
426.4078476975
 10
-698.2390601109
 20
426.8961050667
 10
-700.2145571125
 20
427.616588554
 10
-702.0484192999
 20
428.5552747677
 10
-703.7049526315
 20
429.6938932484
 10
-705.1519145703
 20
431.0102820826
 10
-706.361141648
 20
432.478819259
 10
-707.3090976351
 20
434.0709213718
 10
-707.9773316466
 20
435.7555999645
 10
-708.3528372676
 20
437.5000646844
 10
-708.4377285143
 20
438.807172099
  0
LWPOLYLINE
  5
43A
330
1F
100
AcDbEntity
  8
0
  6
Continuous
 62
     8
370
    25
100
AcDbPolyline
 90
       24
 70
   128
 43
0.0
 10
-645.9600744032
 20
376.3495550369
 10
-646.8457432741
 20
376.3873122578
 10
-648.5998802658
 20
376.6882672255
 10
-650.3026360677
 20
377.2843194147
 10
-651.9208684751
 20
378.1638673475
 10
-653.4230804348
 20
379.309791624
 10
-654.7800330998
 20
380.6997881316
 10
-655.96531493
 20
382.3068021693
 10
-656.9558557627
 20
384.0995550369
 10
-657.7323758475
 20
386.0431528389
 10
-658.279761104
 20
388.0997656551
 10
-658.5873573011
 20
390.2293638562
 10
-658.6491774285
 20
392.3904972357
 10
-658.4640182277
 20
394.5411017907
 10
-658.0354836122
 20
396.6393184497
 10
-657.3719145205
 20
398.6443078121
 10
-656.4862265704
 20
400.5170450407
 10
-655.3956586704
 20
402.2210794354
 10
-654.121437484
 20
403.7232439052
 10
-652.6883642774
 20
404.9943005273
 10
-651.1243321903
 20
406.0095096303
 10
-649.4597833283
 20
406.7491113239
 10
-647.7271162415
 20
407.1987101024
 10
-645.960055324
 20
407.3495550369
  0
LINE
  5
43B
330
1F
100
AcDbEntity
  8
0
  6
Continuous
 62
     8
370
    25
100
AcDbLine
 10
1245.1314138339
 20
-209.1504449631
 30
0.0
 11
1254.6941542043
 21
-209.1504449631
 31
0.0
  0
LINE
  5
43C
330
1F
100
AcDbEntity
  8
0
  6
Continuous
 62
     8
370
    25
100
AcDbLine
 10
1231.1452879321
 20
-209.1504449631
 30
0.0
 11
1245.1314138339
 21
-209.1504449631
 31
0.0
  0
LWPOLYLINE
  5
43D
330
1F
100
AcDbEntity
  8
0
  6
Continuous
 62
     8
370
    25
100
AcDbPolyline
 90
       24
 70
   128
 43
0.0
 10
-1419.9154404547
 20
407.3495550369
 10
-1418.1483795372
 20
407.1987101024
 10
-1416.4157124504
 20
406.7491113239
 10
-1414.7511635884
 20
406.0095096303
 10
-1413.1871315013
 20
404.9943005273
 10
-1411.7540582947
 20
403.7232439052
 10
-1410.4798371083
 20
402.2210794354
 10
-1409.3892692083
 20
400.5170450407
 10
-1408.5035812582
 20
398.6443078121
 10
-1407.8400121665
 20
396.6393184497
 10
-1407.411477551
 20
394.5411017907
 10
-1407.2263183502
 20
392.3904972357
 10
-1407.2881384776
 20
390.2293638562
 10
-1407.5957346747
 20
388.0997656551
 10
-1408.1431199312
 20
386.0431528389
 10
-1408.919640016
 20
384.0995550369
 10
-1409.9101808487
 20
382.3068021693
 10
-1411.0954626789
 20
380.6997881316
 10
-1412.4524153439
 20
379.309791624
 10
-1413.9546273036
 20
378.1638673475
 10
-1415.572859711
 20
377.2843194147
 10
-1417.2756155129
 20
376.6882672255
 10
-1419.0297525046
 20
376.3873122578
 10
-1419.9154595339
 20
376.3495550369
  0
LWPOLYLINE
  5
43E
330
1F
100
AcDbEntity
  8
0
  6
Continuous
 62
     8
370
    25
100
AcDbPolyline
 90
       13
 70
   128
 43
0.0
 10
-692.9377478894
 20
-322.431280842
 10
-690.7805648245
 20
-322.5548457785
 10
-688.6653688742
 20
-322.9231355369
 10
-686.6333299217
 20
-323.5289817762
 10
-684.7239992937
 20
-324.3605923883
 10
-682.9745399392
 20
-325.4017810187
 10
-681.4190030945
 20
-326.632282115
 10
-680.0876655147
 20
-328.028145373
 10
-679.0064401717
 20
-329.5622019022
 10
-678.1963718868
 20
-331.2045930372
 10
-677.6732277177
 20
-332.9233515028
 10
-677.4471900706
 20
-334.6850236204
 10
-677.437751876
 20
-335.1372439735
  0
LWPOLYLINE
  5
43F
330
1F
100
AcDbEntity
  8
0
  6
Continuous
 62
     8
370
    25
100
AcDbPolyline
 90
       13
 70
   128
 43
0.0
 10
-708.4377285143
 20
-335.1482130317
 10
-708.4283057081
 20
-334.6850236204
 10
-708.202268061
 20
-332.9233515028
 10
-707.6791238919
 20
-331.2045930372
 10
-706.869055607
 20
-329.5622019022
 10
-705.787830264
 20
-328.028145373
 10
-704.4564926842
 20
-326.632282115
 10
-702.9009558395
 20
-325.4017810187
 10
-701.151496485
 20
-324.3605923883
 10
-699.242165857
 20
-323.5289817762
 10
-697.2101269045
 20
-322.9231355369
 10
-695.0949309542
 20
-322.5548457785
 10
-692.9377478894
 20
-322.431280842
  0
LWPOLYLINE
  5
440
330
1F
100
AcDbEntity
  8
0
  6
Continuous
 62
     8
370
    25
100
AcDbPolyline
 90
       13
 70
   128
 43
0.0
 10
-1372.9377478893
 20
-322.431280842
 10
-1370.7805648245
 20
-322.5548457785
 10
-1368.6653688742
 20
-322.9231355369
 10
-1366.6333299217
 20
-323.5289817762
 10
-1364.7239992937
 20
-324.3605923883
 10
-1362.9745399392
 20
-325.4017810187
 10
-1361.4190030944
 20
-326.632282115
 10
-1360.0876655147
 20
-328.028145373
 10
-1359.0064401717
 20
-329.5622019022
 10
-1358.1963718868
 20
-331.2045930372
 10
-1357.6732277177
 20
-332.9233515028
 10
-1357.4471900706
 20
-334.6850236204
 10
-1357.437751876
 20
-335.1372439735
  0
LWPOLYLINE
  5
441
330
1F
100
AcDbEntity
  8
0
  6
Continuous
 62
     8
370
    25
100
AcDbPolyline
 90
       13
 70
   128
 43
0.0
 10
-1388.4377285143
 20
-335.1482130317
 10
-1388.4283057081
 20
-334.6850236204
 10
-1388.202268061
 20
-332.9233515028
 10
-1387.6791238919
 20
-331.2045930372
 10
-1386.869055607
 20
-329.5622019022
 10
-1385.787830264
 20
-328.028145373
 10
-1384.4564926842
 20
-326.632282115
 10
-1382.9009558395
 20
-325.4017810187
 10
-1381.151496485
 20
-324.3605923883
 10
-1379.242165857
 20
-323.5289817762
 10
-1377.2101269045
 20
-322.9231355369
 10
-1375.0949309542
 20
-322.5548457785
 10
-1372.9377478893
 20
-322.431280842
  0
LINE
  5
442
330
1F
100
AcDbEntity
  8
0
  6
Continuous
 62
     8
370
    25
100
AcDbLine
 10
1254.6941542043
 20
312.8495550369
 30
0.0
 11
1231.1452879321
 21
312.8495550369
 31
0.0
  0
LWPOLYLINE
  5
443
330
1F
100
AcDbEntity
  8
0
  6
Continuous
 62
     8
370
    25
100
AcDbPolyline
 90
       24
 70
   128
 43
0.0
 10
-1419.9154404547
 20
-272.6504449631
 10
-1418.1483795372
 20
-272.8012898976
 10
-1416.4157124504
 20
-273.2508886761
 10
-1414.7511635884
 20
-273.9904903697
 10
-1413.1871315013
 20
-275.0056994727
 10
-1411.7540582947
 20
-276.2767560948
 10
-1410.4798371083
 20
-277.7789205646
 10
-1409.3892692083
 20
-279.4829549593
 10
-1408.5035812582
 20
-281.3556921879
 10
-1407.8400121665
 20
-283.3606815503
 10
-1407.411477551
 20
-285.4588982093
 10
-1407.2263183502
 20
-287.6095027643
 10
-1407.2881384776
 20
-289.7706361438
 10
-1407.5957346747
 20
-291.9002343449
 10
-1408.1431199312
 20
-293.9568471611
 10
-1408.919640016
 20
-295.9004449631
 10
-1409.9101808487
 20
-297.6931978307
 10
-1411.0954626789
 20
-299.3002118684
 10
-1412.4524153439
 20
-300.690208376
 10
-1413.9546273036
 20
-301.8361326525
 10
-1415.572859711
 20
-302.7156805853
 10
-1417.2756155129
 20
-303.3117327745
 10
-1419.0297525046
 20
-303.6126877422
 10
-1419.9154595339
 20
-303.6504449631
  0
LINE
  5
444
330
1F
100
AcDbEntity
  8
0
  6
Continuous
 62
     8
370
    25
100
AcDbLine
 10
1249.9441542043
 20
324.9347050558
 30
0.0
 11
1228.4441542043
 21
324.9347050558
 31
0.0
  0
LINE
  5
445
330
1F
100
AcDbEntity
  8
0
  6
Continuous
 62
     8
370
    25
100
AcDbLine
 10
1249.5520705598
 20
325.4975289973
 30
0.0
 11
1228.8362378488
 21
325.4975289973
 31
0.0
  0
ARC
  5
446
330
1F
100
AcDbEntity
  8
0
  6
Continuous
 62
     8
370
    25
100
AcDbCircle
 10
-1372.7887886434
 20
-345.378176281
 30
0.0
 40
12.12508098080225
100
AcDbArc
 50
56.5453865573
 51
90.703908768
  0
ARC
  5
447
330
1F
100
AcDbEntity
  8
0
  6
Continuous
 62
     8
370
    25
100
AcDbCircle
 10
-1373.069781912
 20
-345.4211470115
 30
0.0
 40
12.16785305373801
100
AcDbArc
 50
89.3782682384
 51
124.3889926334
  0
ARC
  5
448
330
1F
100
AcDbEntity
  8
0
  6
Continuous
 62
     8
370
    25
100
AcDbCircle
 10
-692.7887886434
 20
-345.378176281
 30
0.0
 40
12.1250809808055
100
AcDbArc
 50
56.5453865574
 51
90.703908768
  0
ARC
  5
449
330
1F
100
AcDbEntity
  8
0
  6
Continuous
 62
     8
370
    25
100
AcDbCircle
 10
-693.069781912
 20
-345.4211470115
 30
0.0
 40
12.16785305373379
100
AcDbArc
 50
89.3782682384
 51
124.3889926334
  0
LINE
  5
44A
330
1F
100
AcDbEntity
  8
0
  6
Continuous
 62
     8
370
    25
100
AcDbLine
 10
1243.3119310442
 20
-221.2355949821
 30
0.0
 11
1249.9441542043
 21
-221.2355949821
 31
0.0
  0
LINE
  5
44B
330
1F
100
AcDbEntity
  8
0
  6
Continuous
 62
     8
370
    25
100
AcDbLine
 10
1228.4441542043
 20
-221.2355949821
 30
0.0
 11
1243.3119310442
 21
-221.2355949821
 31
0.0
  0
LINE
  5
44C
330
1F
100
AcDbEntity
  8
0
  6
Continuous
 62
     8
370
    25
100
AcDbLine
 10
1243.1617437929
 20
-221.7984189236
 30
0.0
 11
1249.5520705598
 21
-221.7984189236
 31
0.0
  0
LINE
  5
44D
330
1F
100
AcDbEntity
  8
0
  6
Continuous
 62
     8
370
    25
100
AcDbLine
 10
1228.8362378488
 20
-221.7984189236
 30
0.0
 11
1243.1617437929
 21
-221.7984189236
 31
0.0
  0
LINE
  5
44E
330
1F
100
AcDbEntity
  8
0
  6
Continuous
 62
     8
370
    25
100
AcDbLine
 10
252.0861944295
 20
313.8495550369
 30
0.0
 11
212.0861944295
 21
313.8495550369
 31
0.0
  0
LINE
  5
44F
330
1F
100
AcDbEntity
  8
0
  6
Continuous
 62
     8
370
    25
100
AcDbLine
 10
1231.1452879321
 20
313.8495550369
 30
0.0
 11
1191.1452879321
 21
313.8495550369
 31
0.0
  0
LINE
  5
450
330
1F
100
AcDbEntity
  8
0
  6
Continuous
 62
     8
370
    25
100
AcDbLine
 10
1218.8062680992
 20
-210.1504449631
 30
0.0
 11
1231.1452879321
 21
-210.1504449631
 31
0.0
  0
LINE
  5
451
330
1F
100
AcDbEntity
  8
0
  6
Continuous
 62
     8
370
    25
100
AcDbLine
 10
1191.1452879321
 20
-210.1504449631
 30
0.0
 11
1218.8062680992
 21
-210.1504449631
 31
0.0
  0
LINE
  5
452
330
1F
100
AcDbEntity
  8
0
  6
Continuous
 62
     8
370
    25
100
AcDbLine
 10
543.6499033633
 20
313.8495550369
 30
0.0
 11
503.6499033633
 21
313.8495550369
 31
0.0
  0
LINE
  5
453
330
1F
100
AcDbEntity
  8
0
  6
Continuous
 62
     8
370
    25
100
AcDbLine
 10
-51.8165343371
 20
-210.1504449631
 30
0.0
 11
-39.4775145043
 21
-210.1504449631
 31
0.0
  0
LINE
  5
454
330
1F
100
AcDbEntity
  8
0
  6
Continuous
 62
     8
370
    25
100
AcDbLine
 10
-79.4775145043
 20
-210.1504449631
 30
0.0
 11
-51.8165343371
 21
-210.1504449631
 31
0.0
  0
LINE
  5
455
330
1F
100
AcDbEntity
  8
0
  6
Continuous
 62
     8
370
    25
100
AcDbLine
 10
531.3108835305
 20
-210.1504449631
 30
0.0
 11
543.6499033633
 21
-210.1504449631
 31
0.0
  0
LINE
  5
456
330
1F
100
AcDbEntity
  8
0
  6
Continuous
 62
     8
370
    25
100
AcDbLine
 10
503.6499033633
 20
-210.1504449631
 30
0.0
 11
531.3108835305
 21
-210.1504449631
 31
0.0
  0
LINE
  5
457
330
1F
100
AcDbEntity
  8
0
  6
Continuous
 62
     8
370
    25
100
AcDbLine
 10
831.9457284963
 20
313.8495550369
 30
0.0
 11
791.9457284963
 21
313.8495550369
 31
0.0
  0
LINE
  5
458
330
1F
100
AcDbEntity
  8
0
  6
Continuous
 62
     8
370
    25
100
AcDbLine
 10
-39.4775145043
 20
313.8495550369
 30
0.0
 11
-79.4775145043
 21
313.8495550369
 31
0.0
  0
LINE
  5
459
330
1F
100
AcDbEntity
  8
0
  6
Continuous
 62
     8
370
    25
100
AcDbLine
 10
-343.380243271
 20
-210.1504449631
 30
0.0
 11
-331.0412234381
 21
-210.1504449631
 31
0.0
  0
LINE
  5
45A
330
1F
100
AcDbEntity
  8
0
  6
Continuous
 62
     8
370
    25
100
AcDbLine
 10
-371.0412234381
 20
-210.1504449631
 30
0.0
 11
-343.380243271
 21
-210.1504449631
 31
0.0
  0
LINE
  5
45B
330
1F
100
AcDbEntity
  8
0
  6
Continuous
 62
     8
370
    25
100
AcDbLine
 10
-331.0412234381
 20
313.8495550369
 30
0.0
 11
-371.0412234381
 21
313.8495550369
 31
0.0
  0
LINE
  5
45C
330
1F
100
AcDbEntity
  8
0
  6
Continuous
 62
     8
370
    25
100
AcDbLine
 10
239.7471745967
 20
-210.1504449631
 30
0.0
 11
252.0861944295
 21
-210.1504449631
 31
0.0
  0
LINE
  5
45D
330
1F
100
AcDbEntity
  8
0
  6
Continuous
 62
     8
370
    25
100
AcDbLine
 10
212.0861944295
 20
-210.1504449631
 30
0.0
 11
239.7471745967
 21
-210.1504449631
 31
0.0
  0
LINE
  5
45E
330
1F
100
AcDbEntity
  8
0
  6
Continuous
 62
     8
370
    25
100
AcDbLine
 10
1305.4664271261
 20
313.8495550369
 30
0.0
 11
1265.4664271261
 21
313.8495550369
 31
0.0
  0
LINE
  5
45F
330
1F
100
AcDbEntity
  8
0
  6
Continuous
 62
     8
370
    25
100
AcDbLine
 10
819.6067086634
 20
-210.1504449631
 30
0.0
 11
831.9457284963
 21
-210.1504449631
 31
0.0
  0
LINE
  5
460
330
1F
100
AcDbEntity
  8
0
  6
Continuous
 62
     8
370
    25
100
AcDbLine
 10
791.9457284963
 20
-210.1504449631
 30
0.0
 11
819.6067086634
 21
-210.1504449631
 31
0.0
  0
LINE
  5
461
330
1F
100
AcDbEntity
  8
0
  6
Continuous
 62
     8
370
    25
100
AcDbLine
 10
1287.9868596508
 20
-210.1504449631
 30
0.0
 11
1305.4664271261
 21
-210.1504449631
 31
0.0
  0
LINE
  5
462
330
1F
100
AcDbEntity
  8
0
  6
Continuous
 62
     8
370
    25
100
AcDbLine
 10
1265.4664271261
 20
-210.1504449631
 30
0.0
 11
1287.9868596508
 21
-210.1504449631
 31
0.0
  0
LINE
  5
463
330
1F
100
AcDbEntity
  8
0
  6
Continuous
 62
     8
370
    25
100
AcDbLine
 10
1224.8452879321
 20
328.9799463553
 30
0.0
 11
1197.4452879321
 21
328.9799463553
 31
0.0
  0
LINE
  5
464
330
1F
100
AcDbEntity
  8
0
  6
Continuous
 62
     8
370
    25
100
AcDbLine
 10
1224.5118381324
 20
329.5174879729
 30
0.0
 11
1197.7787377317
 21
329.5174879729
 31
0.0
  0
LINE
  5
465
330
1F
100
AcDbEntity
  8
0
  6
Continuous
 62
     8
370
    25
100
AcDbLine
 10
537.3499033633
 20
328.9799463553
 30
0.0
 11
509.9499033633
 21
328.9799463553
 31
0.0
  0
LINE
  5
466
330
1F
100
AcDbEntity
  8
0
  6
Continuous
 62
     8
370
    25
100
AcDbLine
 10
537.0164535637
 20
329.5174879729
 30
0.0
 11
510.283353163
 21
329.5174879729
 31
0.0
  0
LINE
  5
467
330
1F
100
AcDbEntity
  8
0
  6
Continuous
 62
     8
370
    25
100
AcDbLine
 10
1299.1664271261
 20
328.9799463553
 30
0.0
 11
1271.7664271261
 21
328.9799463553
 31
0.0
  0
LINE
  5
468
330
1F
100
AcDbEntity
  8
0
  6
Continuous
 62
     8
370
    25
100
AcDbLine
 10
1298.8329773265
 20
329.5174879729
 30
0.0
 11
1272.0998769257
 21
329.5174879729
 31
0.0
  0
LINE
  5
469
330
1F
100
AcDbEntity
  8
0
  6
Continuous
 62
     8
370
    25
100
AcDbLine
 10
245.7861944295
 20
328.9799463553
 30
0.0
 11
218.3861944295
 21
328.9799463553
 31
0.0
  0
LINE
  5
46A
330
1F
100
AcDbEntity
  8
0
  6
Continuous
 62
     8
370
    25
100
AcDbLine
 10
245.4527446299
 20
329.5174879729
 30
0.0
 11
218.7196442291
 21
329.5174879729
 31
0.0
  0
LINE
  5
46B
330
1F
100
AcDbEntity
  8
0
  6
Continuous
 62
     8
370
    25
100
AcDbLine
 10
1287.1929234055
 20
-225.2808362815
 30
0.0
 11
1299.1664271261
 21
-225.2808362815
 31
0.0
  0
LINE
  5
46C
330
1F
100
AcDbEntity
  8
0
  6
Continuous
 62
     8
370
    25
100
AcDbLine
 10
1271.7664271261
 20
-225.2808362815
 30
0.0
 11
1287.1929234055
 21
-225.2808362815
 31
0.0
  0
LINE
  5
46D
330
1F
100
AcDbEntity
  8
0
  6
Continuous
 62
     8
370
    25
100
AcDbLine
 10
1287.1509015195
 20
-225.8183778992
 30
0.0
 11
1298.8329773265
 21
-225.8183778992
 31
0.0
  0
LINE
  5
46E
330
1F
100
AcDbEntity
  8
0
  6
Continuous
 62
     8
370
    25
100
AcDbLine
 10
1272.0998769257
 20
-225.8183778992
 30
0.0
 11
1287.1509015195
 21
-225.8183778992
 31
0.0
  0
LINE
  5
46F
330
1F
100
AcDbEntity
  8
0
  6
Continuous
 62
     8
370
    25
100
AcDbLine
 10
817.1934999108
 20
-225.2808362815
 30
0.0
 11
825.6457284963
 21
-225.2808362815
 31
0.0
  0
LINE
  5
470
330
1F
100
AcDbEntity
  8
0
  6
Continuous
 62
     8
370
    25
100
AcDbLine
 10
798.2457284963
 20
-225.2808362815
 30
0.0
 11
817.1934999108
 21
-225.2808362815
 31
0.0
  0
LINE
  5
471
330
1F
100
AcDbEntity
  8
0
  6
Continuous
 62
     8
370
    25
100
AcDbLine
 10
817.0657722957
 20
-225.8183778992
 30
0.0
 11
825.3122786966
 21
-225.8183778992
 31
0.0
  0
LINE
  5
472
330
1F
100
AcDbEntity
  8
0
  6
Continuous
 62
     8
370
    25
100
AcDbLine
 10
798.5791782959
 20
-225.8183778992
 30
0.0
 11
817.0657722957
 21
-225.8183778992
 31
0.0
  0
LINE
  5
473
330
1F
100
AcDbEntity
  8
0
  6
Continuous
 62
     8
370
    25
100
AcDbLine
 10
-54.2297430898
 20
-225.2808362815
 30
0.0
 11
-45.7775145043
 21
-225.2808362815
 31
0.0
  0
LINE
  5
474
330
1F
100
AcDbEntity
  8
0
  6
Continuous
 62
     8
370
    25
100
AcDbLine
 10
-73.1775145043
 20
-225.2808362815
 30
0.0
 11
-54.2297430898
 21
-225.2808362815
 31
0.0
  0
LINE
  5
475
330
1F
100
AcDbEntity
  8
0
  6
Continuous
 62
     8
370
    25
100
AcDbLine
 10
-54.3574707049
 20
-225.8183778992
 30
0.0
 11
-46.1109643039
 21
-225.8183778992
 31
0.0
  0
LINE
  5
476
330
1F
100
AcDbEntity
  8
0
  6
Continuous
 62
     8
370
    25
100
AcDbLine
 10
-72.8440647047
 20
-225.8183778992
 30
0.0
 11
-54.3574707049
 21
-225.8183778992
 31
0.0
  0
LINE
  5
477
330
1F
100
AcDbEntity
  8
0
  6
Continuous
 62
     8
370
    25
100
AcDbLine
 10
825.6457284963
 20
328.9799463553
 30
0.0
 11
798.2457284963
 21
328.9799463553
 31
0.0
  0
LINE
  5
478
330
1F
100
AcDbEntity
  8
0
  6
Continuous
 62
     8
370
    25
100
AcDbLine
 10
825.3122786966
 20
329.5174879729
 30
0.0
 11
798.5791782959
 21
329.5174879729
 31
0.0
  0
LINE
  5
479
330
1F
100
AcDbEntity
  8
0
  6
Continuous
 62
     8
370
    25
100
AcDbLine
 10
528.8976747779
 20
-225.2808362815
 30
0.0
 11
537.3499033633
 21
-225.2808362815
 31
0.0
  0
LINE
  5
47A
330
1F
100
AcDbEntity
  8
0
  6
Continuous
 62
     8
370
    25
100
AcDbLine
 10
509.9499033633
 20
-225.2808362815
 30
0.0
 11
528.8976747779
 21
-225.2808362815
 31
0.0
  0
LINE
  5
47B
330
1F
100
AcDbEntity
  8
0
  6
Continuous
 62
     8
370
    25
100
AcDbLine
 10
528.7699471628
 20
-225.8183778992
 30
0.0
 11
537.0164535637
 21
-225.8183778992
 31
0.0
  0
LINE
  5
47C
330
1F
100
AcDbEntity
  8
0
  6
Continuous
 62
     8
370
    25
100
AcDbLine
 10
510.283353163
 20
-225.8183778992
 30
0.0
 11
528.7699471628
 21
-225.8183778992
 31
0.0
  0
LINE
  5
47D
330
1F
100
AcDbEntity
  8
0
  6
Continuous
 62
     8
370
    25
100
AcDbLine
 10
-345.7934520236
 20
-225.2808362815
 30
0.0
 11
-337.3412234381
 21
-225.2808362815
 31
0.0
  0
LINE
  5
47E
330
1F
100
AcDbEntity
  8
0
  6
Continuous
 62
     8
370
    25
100
AcDbLine
 10
-364.7412234381
 20
-225.2808362815
 30
0.0
 11
-345.7934520236
 21
-225.2808362815
 31
0.0
  0
LINE
  5
47F
330
1F
100
AcDbEntity
  8
0
  6
Continuous
 62
     8
370
    25
100
AcDbLine
 10
-345.9211796387
 20
-225.8183778992
 30
0.0
 11
-337.6746732378
 21
-225.8183778992
 31
0.0
  0
LINE
  5
480
330
1F
100
AcDbEntity
  8
0
  6
Continuous
 62
     8
370
    25
100
AcDbLine
 10
-364.4077736385
 20
-225.8183778992
 30
0.0
 11
-345.9211796387
 21
-225.8183778992
 31
0.0
  0
LINE
  5
481
330
1F
100
AcDbEntity
  8
0
  6
Continuous
 62
     8
370
    25
100
AcDbLine
 10
-337.3412234381
 20
328.9799463553
 30
0.0
 11
-364.7412234381
 21
328.9799463553
 31
0.0
  0
LINE
  5
482
330
1F
100
AcDbEntity
  8
0
  6
Continuous
 62
     8
370
    25
100
AcDbLine
 10
-337.6746732378
 20
329.5174879729
 30
0.0
 11
-364.4077736385
 21
329.5174879729
 31
0.0
  0
LINE
  5
483
330
1F
100
AcDbEntity
  8
0
  6
Continuous
 62
     8
370
    25
100
AcDbLine
 10
1216.3930593466
 20
-225.2808362815
 30
0.0
 11
1224.8452879321
 21
-225.2808362815
 31
0.0
  0
LINE
  5
484
330
1F
100
AcDbEntity
  8
0
  6
Continuous
 62
     8
370
    25
100
AcDbLine
 10
1197.4452879321
 20
-225.2808362815
 30
0.0
 11
1216.3930593466
 21
-225.2808362815
 31
0.0
  0
LINE
  5
485
330
1F
100
AcDbEntity
  8
0
  6
Continuous
 62
     8
370
    25
100
AcDbLine
 10
1216.2653317315
 20
-225.8183778992
 30
0.0
 11
1224.5118381324
 21
-225.8183778992
 31
0.0
  0
LINE
  5
486
330
1F
100
AcDbEntity
  8
0
  6
Continuous
 62
     8
370
    25
100
AcDbLine
 10
1197.7787377317
 20
-225.8183778992
 30
0.0
 11
1216.2653317315
 21
-225.8183778992
 31
0.0
  0
LINE
  5
487
330
1F
100
AcDbEntity
  8
0
  6
Continuous
 62
     8
370
    25
100
AcDbLine
 10
237.333965844
 20
-225.2808362815
 30
0.0
 11
245.7861944295
 21
-225.2808362815
 31
0.0
  0
LINE
  5
488
330
1F
100
AcDbEntity
  8
0
  6
Continuous
 62
     8
370
    25
100
AcDbLine
 10
218.3861944295
 20
-225.2808362815
 30
0.0
 11
237.333965844
 21
-225.2808362815
 31
0.0
  0
LINE
  5
489
330
1F
100
AcDbEntity
  8
0
  6
Continuous
 62
     8
370
    25
100
AcDbLine
 10
237.206238229
 20
-225.8183778992
 30
0.0
 11
245.4527446299
 21
-225.8183778992
 31
0.0
  0
LINE
  5
48A
330
1F
100
AcDbEntity
  8
0
  6
Continuous
 62
     8
370
    25
100
AcDbLine
 10
218.7196442291
 20
-225.8183778992
 30
0.0
 11
237.206238229
 21
-225.8183778992
 31
0.0
  0
LINE
  5
48B
330
1F
100
AcDbEntity
  8
0
  6
Continuous
 62
     8
370
    25
100
AcDbLine
 10
-45.7775145043
 20
328.9799463553
 30
0.0
 11
-73.1775145043
 21
328.9799463553
 31
0.0
  0
LINE
  5
48C
330
1F
100
AcDbEntity
  8
0
  6
Continuous
 62
     8
370
    25
100
AcDbLine
 10
-46.1109643039
 20
329.5174879729
 30
0.0
 11
-72.8440647047
 21
329.5174879729
 31
0.0
  0
LINE
  5
48D
330
1F
100
AcDbEntity
  8
0
  6
Continuous
 62
     8
370
    25
100
AcDbLine
 10
-561.4142922528
 20
308.8495550369
 30
0.0
 11
577.3537689074
 21
308.8495550369
 31
0.0
  0
LINE
  5
48E
330
1F
100
AcDbEntity
  8
0
  6
Continuous
 62
     8
370
    25
100
AcDbLine
 10
577.3537689074
 20
299.8495550369
 30
0.0
 11
-564.2886585804
 21
299.8495550369
 31
0.0
  0
LINE
  5
48F
330
1F
100
AcDbEntity
  8
0
  6
Continuous
 62
     8
370
    25
100
AcDbLine
 10
1310.3203560012
 20
308.8495550369
 30
0.0
 11
1358.5372381716
 21
308.8495550369
 31
0.0
  0
LINE
  5
490
330
1F
100
AcDbEntity
  8
0
  6
Continuous
 62
     8
370
    25
100
AcDbLine
 10
1358.5372381716
 20
299.8495550369
 30
0.0
 11
1310.3203560012
 21
299.8495550369
 31
0.0
  0
LINE
  5
491
330
1F
100
AcDbEntity
  8
0
  6
Continuous
 62
     8
370
    25
100
AcDbLine
 10
540.5592358501
 20
296.8495550369
 30
0.0
 11
540.5592358501
 21
-193.1504449631
 31
0.0
  0
LINE
  5
492
330
1F
100
AcDbEntity
  8
0
  6
Continuous
 62
     8
370
    25
100
AcDbLine
 10
835.8263066773
 20
296.8495550369
 30
0.0
 11
835.8263066773
 21
-193.1504449631
 31
0.0
  0
LINE
  5
493
330
1F
100
AcDbEntity
  8
0
  6
Continuous
 62
     8
370
    25
100
AcDbLine
 10
1187.6940279787
 20
296.8495550369
 30
0.0
 11
1187.6940279787
 21
-193.1504449631
 31
0.0
  0
LWPOLYLINE
  5
494
330
1F
100
AcDbEntity
  8
0
  6
Continuous
 62
     8
370
    25
100
AcDbPolyline
 90
        3
 70
   128
 43
0.0
 10
-1341.8960569503
 20
-256.7159512657
 10
-1341.6951072022
 20
-256.907804276
 10
-1341.5032541919
 20
-257.108754024
  0
LWPOLYLINE
  5
495
330
1F
100
AcDbEntity
  8
0
  6
Continuous
 62
     8
370
    25
100
AcDbPolyline
 90
        3
 70
   128
 43
0.0
 10
-724.3722415868
 20
-257.1087540241
 10
-724.1803885765
 20
-256.907804276
 10
-723.9794388284
 20
-256.7159512657
  0
LINE
  5
496
330
1F
100
AcDbEntity
  8
0
  6
Continuous
 62
     8
370
    25
100
AcDbLine
 10
-1345.9377478893
 20
-261.1504449631
 30
0.0
 11
-1345.7397944535
 21
-260.5565846556
 31
0.0
  0
LINE
  5
497
330
1F
100
AcDbEntity
  8
0
  6
Continuous
 62
     8
370
    25
100
AcDbLine
 10
-1345.9377478893
 20
-261.1504449631
 30
0.0
 11
-1345.3438875819
 21
-260.9524915273
 31
0.0
  0
LINE
  5
498
330
1F
100
AcDbEntity
  8
0
  6
Continuous
 62
     8
370
    25
100
AcDbLine
 10
-1345.9377478893
 20
-261.5468318102
 30
0.0
 11
-1345.9377478893
 21
-261.1504449631
 31
0.0
  0
LINE
  5
499
330
1F
100
AcDbEntity
  8
0
  6
Continuous
 62
     8
370
    25
100
AcDbLine
 10
-1345.9377478893
 20
-261.1504449631
 30
0.0
 11
-1346.3341347365
 21
-261.1504449631
 31
0.0
  0
LINE
  5
49A
330
1F
100
AcDbEntity
  8
0
  6
Continuous
 62
     8
370
    25
100
AcDbLine
 10
-1419.9377478893
 20
-334.6946175442
 30
0.0
 11
-1419.9377478893
 21
-335.1504449631
 31
0.0
  0
LINE
  5
49B
330
1F
100
AcDbEntity
  8
0
  6
Continuous
 62
     8
370
    25
100
AcDbLine
 10
-1420.6223182825
 20
-335.3786350942
 30
0.0
 11
-1419.9377478893
 21
-335.1504449631
 31
0.0
  0
LINE
  5
49C
330
1F
100
AcDbEntity
  8
0
  6
Continuous
 62
     8
370
    25
100
AcDbLine
 10
-1419.9377478893
 20
-335.1504449631
 30
0.0
 11
-1419.4819204704
 21
-335.1504449631
 31
0.0
  0
LINE
  5
49D
330
1F
100
AcDbEntity
  8
0
  6
Continuous
 62
     8
370
    25
100
AcDbLine
 10
-1420.1659380204
 20
-335.8350153563
 30
0.0
 11
-1419.9377478893
 21
-335.1504449631
 31
0.0
  0
LINE
  5
49E
330
1F
100
AcDbEntity
  8
0
  6
Continuous
 62
     8
370
    25
100
AcDbLine
 10
-719.5413610422
 20
-261.1504449631
 30
0.0
 11
-719.9377478894
 21
-261.1504449631
 31
0.0
  0
LINE
  5
49F
330
1F
100
AcDbEntity
  8
0
  6
Continuous
 62
     8
370
    25
100
AcDbLine
 10
-719.9377478894
 20
-261.1504449631
 30
0.0
 11
-720.1357013252
 21
-260.5565846556
 31
0.0
  0
LINE
  5
4A0
330
1F
100
AcDbEntity
  8
0
  6
Continuous
 62
     8
370
    25
100
AcDbLine
 10
-645.9377478893
 20
-335.1504449631
 30
0.0
 11
-645.9377478893
 21
-334.6946175442
 31
0.0
  0
LINE
  5
4A1
330
1F
100
AcDbEntity
  8
0
  6
Continuous
 62
     8
370
    25
100
AcDbLine
 10
-645.2531774962
 20
-335.3786350942
 30
0.0
 11
-645.9377478893
 21
-335.1504449632
 31
0.0
  0
LINE
  5
4A2
330
1F
100
AcDbEntity
  8
0
  6
Continuous
 62
     8
370
    25
100
AcDbLine
 10
-719.9377478894
 20
-261.1504449631
 30
0.0
 11
-719.9377478894
 21
-261.5468318103
 31
0.0
  0
LINE
  5
4A3
330
1F
100
AcDbEntity
  8
0
  6
Continuous
 62
     8
370
    25
100
AcDbLine
 10
-719.9377478894
 20
-261.1504449631
 30
0.0
 11
-720.5316081969
 21
-260.9524915273
 31
0.0
  0
LINE
  5
4A4
330
1F
100
AcDbEntity
  8
0
  6
Continuous
 62
     8
370
    25
100
AcDbLine
 10
-646.3935753083
 20
-335.1504449631
 30
0.0
 11
-645.9377478893
 21
-335.1504449631
 31
0.0
  0
LINE
  5
4A5
330
1F
100
AcDbEntity
  8
0
  6
Continuous
 62
     8
370
    25
100
AcDbLine
 10
-645.7095577583
 20
-335.8350153563
 30
0.0
 11
-645.9377478893
 21
-335.1504449631
 31
0.0
  0
LINE
  5
4A6
330
1F
100
AcDbEntity
  8
0
  6
Continuous
 62
     8
370
    25
100
AcDbLine
 10
-719.9377478894
 20
364.8495550369
 30
0.0
 11
-719.5413610422
 21
364.8495550369
 31
0.0
  0
LINE
  5
4A7
330
1F
100
AcDbEntity
  8
0
  6
Continuous
 62
     8
370
    25
100
AcDbLine
 10
-719.9377478894
 20
364.8495550369
 30
0.0
 11
-720.1357013252
 21
364.2556947293
 31
0.0
  0
LINE
  5
4A8
330
1F
100
AcDbEntity
  8
0
  6
Continuous
 62
     8
370
    25
100
AcDbLine
 10
-719.9377478894
 20
364.8495550369
 30
0.0
 11
-720.5316081968
 21
364.651601601
 31
0.0
  0
LINE
  5
4A9
330
1F
100
AcDbEntity
  8
0
  6
Continuous
 62
     8
370
    25
100
AcDbLine
 10
-719.9377478894
 20
365.245941884
 30
0.0
 11
-719.9377478894
 21
364.8495550369
 31
0.0
  0
LINE
  5
4AA
330
1F
100
AcDbEntity
  8
0
  6
Continuous
 62
     8
370
    25
100
AcDbLine
 10
-645.9377478894
 20
438.3937276179
 30
0.0
 11
-645.9377478894
 21
438.8495550369
 31
0.0
  0
LINE
  5
4AB
330
1F
100
AcDbEntity
  8
0
  6
Continuous
 62
     8
370
    25
100
AcDbLine
 10
-645.2531774962
 20
439.0777451679
 30
0.0
 11
-645.9377478894
 21
438.8495550369
 31
0.0
  0
LINE
  5
4AC
330
1F
100
AcDbEntity
  8
0
  6
Continuous
 62
     8
370
    25
100
AcDbLine
 10
-645.9377478894
 20
438.8495550369
 30
0.0
 11
-646.3935753083
 21
438.8495550369
 31
0.0
  0
LINE
  5
4AD
330
1F
100
AcDbEntity
  8
0
  6
Continuous
 62
     8
370
    25
100
AcDbLine
 10
-645.7095577583
 20
439.53412543
 30
0.0
 11
-645.9377478894
 21
438.8495550369
 31
0.0
  0
LINE
  5
4AE
330
1F
100
AcDbEntity
  8
0
  6
Continuous
 62
     8
370
    25
100
AcDbLine
 10
-1346.3341347365
 20
364.8495550369
 30
0.0
 11
-1345.9377478893
 21
364.8495550369
 31
0.0
  0
LINE
  5
4AF
330
1F
100
AcDbEntity
  8
0
  6
Continuous
 62
     8
370
    25
100
AcDbLine
 10
-1345.9377478893
 20
364.8495550369
 30
0.0
 11
-1345.7397944535
 21
364.2556947293
 31
0.0
  0
LINE
  5
4B0
330
1F
100
AcDbEntity
  8
0
  6
Continuous
 62
     8
370
    25
100
AcDbLine
 10
-1419.9377478893
 20
438.8495550369
 30
0.0
 11
-1419.9377478893
 21
438.3937276179
 31
0.0
  0
LINE
  5
4B1
330
1F
100
AcDbEntity
  8
0
  6
Continuous
 62
     8
370
    25
100
AcDbLine
 10
-1420.6223182825
 20
439.0777451679
 30
0.0
 11
-1419.9377478893
 21
438.8495550369
 31
0.0
  0
LINE
  5
4B2
330
1F
100
AcDbEntity
  8
0
  6
Continuous
 62
     8
370
    25
100
AcDbLine
 10
-1345.9377478893
 20
364.8495550369
 30
0.0
 11
-1345.9377478893
 21
365.245941884
 31
0.0
  0
LINE
  5
4B3
330
1F
100
AcDbEntity
  8
0
  6
Continuous
 62
     8
370
    25
100
AcDbLine
 10
-1345.9377478893
 20
364.8495550369
 30
0.0
 11
-1345.3438875818
 21
364.651601601
 31
0.0
  0
LINE
  5
4B4
330
1F
100
AcDbEntity
  8
0
  6
Continuous
 62
     8
370
    25
100
AcDbLine
 10
-1419.4819204704
 20
438.8495550369
 30
0.0
 11
-1419.9377478893
 21
438.8495550369
 31
0.0
  0
LINE
  5
4B5
330
1F
100
AcDbEntity
  8
0
  6
Continuous
 62
     8
370
    25
100
AcDbLine
 10
-1420.1659380204
 20
439.53412543
 30
0.0
 11
-1419.9377478893
 21
438.8495550369
 31
0.0
  0
ENDSEC
  0
SECTION
  2
OBJECTS
  0
DICTIONARY
  5
C
330
0
100
AcDbDictionary
281
     1
  3
ACAD_GROUP
350
D
  3
ACAD_LAYOUT
350
1A
  3
ACAD_MLINESTYLE
350
17
  3
ACAD_PLOTSETTINGS
350
19
  3
ACAD_PLOTSTYLENAME
350
E
  3
ACAD_SCALELIST
350
47
  3
DWGPROPS
350
4B6
  0
DICTIONARY
  5
D
102
{ACAD_REACTORS
330
C
102
}
330
C
100
AcDbDictionary
281
     1
  0
DICTIONARY
  5
1A
102
{ACAD_REACTORS
330
C
102
}
330
C
100
AcDbDictionary
281
     1
  3
Layout1
350
1E
  3
Layout2
350
26
  3
Model
350
22
  0
DICTIONARY
  5
17
102
{ACAD_REACTORS
330
C
102
}
330
C
100
AcDbDictionary
281
     1
  3
Standard
350
18
  0
DICTIONARY
  5
19
102
{ACAD_REACTORS
330
C
102
}
330
C
100
AcDbDictionary
281
     1
  0
ACDBDICTIONARYWDFLT
  5
E
102
{ACAD_REACTORS
330
C
102
}
330
C
100
AcDbDictionary
281
     1
  3
Normal
350
F
100
AcDbDictionaryWithDefault
340
F
  0
DICTIONARY
  5
47
102
{ACAD_REACTORS
330
C
102
}
330
C
100
AcDbDictionary
281
     1
  3
A0
350
48
  3
A1
350
49
  3
A2
350
4A
  3
A3
350
4B
  3
A4
350
4C
  3
A5
350
4D
  3
A6
350
4E
  3
A7
350
4F
  3
A8
350
50
  3
A9
350
51
  3
B0
350
52
  3
B1
350
53
  3
B2
350
54
  3
B3
350
55
  3
B4
350
56
  3
B5
350
57
  3
B6
350
58
  3
B7
350
59
  3
B8
350
5A
  3
B9
350
5B
  3
C0
350
5C
  3
C1
350
5D
  3
C2
350
5E
  3
C3
350
5F
  3
C4
350
60
  3
C5
350
61
  3
C6
350
62
  3
C7
350
63
  3
C8
350
64
  3
C9
350
65
  3
D0
350
66
  3
D1
350
67
  3
D2
350
68
  0
XRECORD
  5
4B6
102
{ACAD_REACTORS
330
C
102
}
330
C
100
AcDbXrecord
280
     1
  1
DWGPROPS COOKIE
  2

  3

  4

  6

  7

  8
Swing
  9

300
=
301
=
302
=
303
=
304
=
305
=
306
=
307
=
308
=
309
=
 40
0.0
 41
2459587.38627603
 42
2459587.386276261
  1

 90
        0
  0
LAYOUT
  5
1E
102
{ACAD_REACTORS
330
1A
102
}
330
1A
100
AcDbPlotSettings
  1

  2
none_device
  4

  6

 40
0.0
 41
0.0
 42
0.0
 43
0.0
 44
0.0
 45
0.0
 46
0.0
 47
0.0
 48
0.0
 49
0.0
140
0.0
141
0.0
142
1.0
143
1.0
 70
   688
 72
     1
 73
     0
 74
     5
  7

 75
    16
147
1.0
148
0.0
149
0.0
100
AcDbLayout
  1
Layout1
 70
     1
 71
     1
 10
0.0
 20
0.0
 11
420.0
 21
297.0
 12
0.0
 22
0.0
 32
0.0
 14
1.0000000000E+20
 24
1.0000000000E+20
 34
1.0000000000E+20
 15
-1.0000000000E+20
 25
-1.0000000000E+20
 35
-1.0000000000E+20
146
0.0
 13
0.0
 23
0.0
 33
0.0
 16
1.0
 26
0.0
 36
0.0
 17
0.0
 27
1.0
 37
0.0
 76
     0
330
1B
  0
LAYOUT
  5
26
102
{ACAD_REACTORS
330
1A
102
}
330
1A
100
AcDbPlotSettings
  1

  2
none_device
  4

  6

 40
0.0
 41
0.0
 42
0.0
 43
0.0
 44
0.0
 45
0.0
 46
0.0
 47
0.0
 48
0.0
 49
0.0
140
0.0
141
0.0
142
1.0
143
1.0
 70
   688
 72
     1
 73
     0
 74
     5
  7

 75
    16
147
1.0
148
0.0
149
0.0
100
AcDbLayout
  1
Layout2
 70
     1
 71
     2
 10
0.0
 20
0.0
 11
0.0
 21
0.0
 12
0.0
 22
0.0
 32
0.0
 14
0.0
 24
0.0
 34
0.0
 15
0.0
 25
0.0
 35
0.0
146
0.0
 13
0.0
 23
0.0
 33
0.0
 16
1.0
 26
0.0
 36
0.0
 17
0.0
 27
1.0
 37
0.0
 76
     0
330
23
  0
LAYOUT
  5
22
102
{ACAD_REACTORS
330
1A
102
}
330
1A
100
AcDbPlotSettings
  1

  2
none_device
  4
Letter_(8.50_x_11.00_Inches)
  6

 40
6.35
 41
6.35
 42
6.35000508
 43
6.35000508
 44
215.9
 45
279.4
 46
0.0
 47
0.0
 48
0.0
 49
0.0
140
0.0
141
0.0
142
1.0
143
1.0
 70
  1712
 72
     1
 73
     0
 74
     0
  7

 75
     0
147
1.0
148
0.0
149
0.0
100
AcDbLayout
  1
Model
 70
     1
 71
     0
 10
0.0
 20
0.0
 11
431.8
 21
279.4
 12
0.0
 22
0.0
 32
0.0
 14
0.0
 24
0.0
 34
0.0
 15
431.8
 25
279.4
 35
0.0
146
0.0
 13
0.0
 23
0.0
 33
0.0
 16
1.0
 26
0.0
 36
0.0
 17
0.0
 27
1.0
 37
0.0
 76
     0
330
1F
331
29
  0
MLINESTYLE
  5
18
102
{ACAD_REACTORS
330
17
102
}
330
17
100
AcDbMlineStyle
  2
Standard
 70
     0
  3

 62
   256
 51
90.0
 52
90.0
 71
     2
 49
0.5
 62
   256
  6
BYLAYER
 49
-0.5
 62
   256
  6
BYLAYER
  0
ACDBPLACEHOLDER
  5
F
102
{ACAD_REACTORS
330
E
102
}
330
E
  0
SCALE
  5
48
102
{ACAD_REACTORS
330
47
102
}
330
47
100
AcDbScale
 70
     0
300
1:1
140
1.0
141
1.0
290
     1
  0
SCALE
  5
49
102
{ACAD_REACTORS
330
47
102
}
330
47
100
AcDbScale
 70
     0
300
1:2
140
1.0
141
2.0
290
     0
  0
SCALE
  5
4A
102
{ACAD_REACTORS
330
47
102
}
330
47
100
AcDbScale
 70
     0
300
1:4
140
1.0
141
4.0
290
     0
  0
SCALE
  5
4B
102
{ACAD_REACTORS
330
47
102
}
330
47
100
AcDbScale
 70
     0
300
1:5
140
1.0
141
5.0
290
     0
  0
SCALE
  5
4C
102
{ACAD_REACTORS
330
47
102
}
330
47
100
AcDbScale
 70
     0
300
1:8
140
1.0
141
8.0
290
     0
  0
SCALE
  5
4D
102
{ACAD_REACTORS
330
47
102
}
330
47
100
AcDbScale
 70
     0
300
1:10
140
1.0
141
10.0
290
     0
  0
SCALE
  5
4E
102
{ACAD_REACTORS
330
47
102
}
330
47
100
AcDbScale
 70
     0
300
1:16
140
1.0
141
16.0
290
     0
  0
SCALE
  5
4F
102
{ACAD_REACTORS
330
47
102
}
330
47
100
AcDbScale
 70
     0
300
1:20
140
1.0
141
20.0
290
     0
  0
SCALE
  5
50
102
{ACAD_REACTORS
330
47
102
}
330
47
100
AcDbScale
 70
     0
300
1:30
140
1.0
141
30.0
290
     0
  0
SCALE
  5
51
102
{ACAD_REACTORS
330
47
102
}
330
47
100
AcDbScale
 70
     0
300
1:40
140
1.0
141
40.0
290
     0
  0
SCALE
  5
52
102
{ACAD_REACTORS
330
47
102
}
330
47
100
AcDbScale
 70
     0
300
1:50
140
1.0
141
50.0
290
     0
  0
SCALE
  5
53
102
{ACAD_REACTORS
330
47
102
}
330
47
100
AcDbScale
 70
     0
300
1:100
140
1.0
141
100.0
290
     0
  0
SCALE
  5
54
102
{ACAD_REACTORS
330
47
102
}
330
47
100
AcDbScale
 70
     0
300
2:1
140
2.0
141
1.0
290
     0
  0
SCALE
  5
55
102
{ACAD_REACTORS
330
47
102
}
330
47
100
AcDbScale
 70
     0
300
4:1
140
4.0
141
1.0
290
     0
  0
SCALE
  5
56
102
{ACAD_REACTORS
330
47
102
}
330
47
100
AcDbScale
 70
     0
300
8:1
140
8.0
141
1.0
290
     0
  0
SCALE
  5
57
102
{ACAD_REACTORS
330
47
102
}
330
47
100
AcDbScale
 70
     0
300
10:1
140
10.0
141
1.0
290
     0
  0
SCALE
  5
58
102
{ACAD_REACTORS
330
47
102
}
330
47
100
AcDbScale
 70
     0
300
100:1
140
100.0
141
1.0
290
     0
  0
SCALE
  5
59
102
{ACAD_REACTORS
330
47
102
}
330
47
100
AcDbScale
 70
     0
300
1/128" = 1'-0"
140
0.0078125
141
12.0
290
     0
  0
SCALE
  5
5A
102
{ACAD_REACTORS
330
47
102
}
330
47
100
AcDbScale
 70
     0
300
1/64" = 1'-0"
140
0.015625
141
12.0
290
     0
  0
SCALE
  5
5B
102
{ACAD_REACTORS
330
47
102
}
330
47
100
AcDbScale
 70
     0
300
1/32" = 1'-0"
140
0.03125
141
12.0
290
     0
  0
SCALE
  5
5C
102
{ACAD_REACTORS
330
47
102
}
330
47
100
AcDbScale
 70
     0
300
1/16" = 1'-0"
140
0.0625
141
12.0
290
     0
  0
SCALE
  5
5D
102
{ACAD_REACTORS
330
47
102
}
330
47
100
AcDbScale
 70
     0
300
3/32" = 1'-0"
140
0.09375
141
12.0
290
     0
  0
SCALE
  5
5E
102
{ACAD_REACTORS
330
47
102
}
330
47
100
AcDbScale
 70
     0
300
1/8" = 1'-0"
140
0.125
141
12.0
290
     0
  0
SCALE
  5
5F
102
{ACAD_REACTORS
330
47
102
}
330
47
100
AcDbScale
 70
     0
300
3/16" = 1'-0"
140
0.1875
141
12.0
290
     0
  0
SCALE
  5
60
102
{ACAD_REACTORS
330
47
102
}
330
47
100
AcDbScale
 70
     0
300
1/4" = 1'-0"
140
0.25
141
12.0
290
     0
  0
SCALE
  5
61
102
{ACAD_REACTORS
330
47
102
}
330
47
100
AcDbScale
 70
     0
300
3/8" = 1'-0"
140
0.375
141
12.0
290
     0
  0
SCALE
  5
62
102
{ACAD_REACTORS
330
47
102
}
330
47
100
AcDbScale
 70
     0
300
1/2" = 1'-0"
140
0.5
141
12.0
290
     0
  0
SCALE
  5
63
102
{ACAD_REACTORS
330
47
102
}
330
47
100
AcDbScale
 70
     0
300
3/4" = 1'-0"
140
0.75
141
12.0
290
     0
  0
SCALE
  5
64
102
{ACAD_REACTORS
330
47
102
}
330
47
100
AcDbScale
 70
     0
300
1" = 1'-0"
140
1.0
141
12.0
290
     0
  0
SCALE
  5
65
102
{ACAD_REACTORS
330
47
102
}
330
47
100
AcDbScale
 70
     0
300
1-1/2" = 1'-0"
140
1.5
141
12.0
290
     0
  0
SCALE
  5
66
102
{ACAD_REACTORS
330
47
102
}
330
47
100
AcDbScale
 70
     0
300
3" = 1'-0"
140
3.0
141
12.0
290
     0
  0
SCALE
  5
67
102
{ACAD_REACTORS
330
47
102
}
330
47
100
AcDbScale
 70
     0
300
6" = 1'-0"
140
6.0
141
12.0
290
     0
  0
SCALE
  5
68
102
{ACAD_REACTORS
330
47
102
}
330
47
100
AcDbScale
 70
     0
300
1'-0" = 1'-0"
140
12.0
141
12.0
290
     0
  0
ENDSEC
  0
EOF
