  0
SECTION
  2
HEADER
  9
$ACADVER
  1
AC1015
  9
$ACADMAINTVER
 70
     6
  9
$DWGCODEPAGE
  3
ANSI_1250
  9
$INSBASE
 10
0.0
 20
0.0
 30
0.0
  9
$EXTMIN
 10
0.0
 20
0.0
 30
0.0
  9
$EXTMAX
 10
297.0
 20
210.0
 30
0.0
  9
$LIMMIN
 10
0.0
 20
0.0
  9
$LIMMAX
 10
297.0
 20
210.0
  9
$ORTHOMODE
 70
     0
  9
$REGENMODE
 70
     1
  9
$FILLMODE
 70
     1
  9
$QTEXTMODE
 70
     0
  9
$MIRRTEXT
 70
     1
  9
$LTSCALE
 40
1.0
  9
$ATTMODE
 70
     1
  9
$TEXTSIZE
 40
3.5277777778
  9
$TRACEWID
 40
1.0
  9
$TEXTSTYLE
  7
Standard
  9
$CLAYER
  8
0
  9
$CELTYPE
  6
ByLayer
  9
$CECOLOR
 62
   256
  9
$CELTSCALE
 40
1.0
  9
$DISPSILH
 70
     0
  9
$DIMSCALE
 40
1.0
  9
$DIMASZ
 40
2.0
  9
$DIMEXO
 40
1.0
  9
$DIMDLI
 40
3.75
  9
$DIMRND
 40
0.0
  9
$DIMDLE
 40
0.0
  9
$DIMEXE
 40
1.0
  9
$DIMTP
 40
0.0
  9
$DIMTM
 40
0.0
  9
$DIMTXT
 40
3.5277777778
  9
$DIMCEN
 40
2.5
  9
$DIMTSZ
 40
0.0
  9
$DIMTOL
 70
     0
  9
$DIMLIM
 70
     0
  9
$DIMTIH
 70
     1
  9
$DIMTOH
 70
     1
  9
$DIMSE1
 70
     0
  9
$DIMSE2
 70
     0
  9
$DIMTAD
 70
     1
  9
$DIMZIN
 70
     1
  9
$DIMBLK
  1

  9
$DIMASO
 70
     1
  9
$DIMSHO
 70
     1
  9
$DIMPOST
  1

  9
$DIMAPOST
  1

  9
$DIMALT
 70
     0
  9
$DIMALTD
 70
     3
  9
$DIMALTF
 40
0.0393700787
  9
$DIMLFAC
 40
1.0
  9
$DIMTOFL
 70
     1
  9
$DIMTVP
 40
0.0
  9
$DIMTIX
 70
     0
  9
$DIMSOXD
 70
     0
  9
$DIMSAH
 70
     0
  9
$DIMBLK1
  1

  9
$DIMBLK2
  1

  9
$DIMSTYLE
  2
ISO-25
  9
$DIMCLRD
 70
     0
  9
$DIMCLRE
 70
     0
  9
$DIMCLRT
 70
     0
  9
$DIMTFAC
 40
1.0
  9
$DIMGAP
 40
1.524
  9
$DIMJUST
 70
     0
  9
$DIMSD1
 70
     0
  9
$DIMSD2
 70
     0
  9
$DIMTOLJ
 70
     0
  9
$DIMTZIN
 70
     1
  9
$DIMALTZ
 70
     0
  9
$DIMALTTZ
 70
     0
  9
$DIMUPT
 70
     0
  9
$DIMDEC
 70
     0
  9
$DIMTDEC
 70
     0
  9
$DIMALTU
 70
     2
  9
$DIMALTTD
 70
     3
  9
$DIMTXSTY
  7
Standard
  9
$DIMAUNIT
 70
     0
  9
$DIMADEC
 70
     1
  9
$DIMALTRND
 40
0.0
  9
$DIMAZIN
 70
     0
  9
$DIMDSEP
 70
    44
  9
$DIMATFIT
 70
     3
  9
$DIMFRAC
 70
     0
  9
$DIMLDRBLK
  1

  9
$DIMLUNIT
 70
     2
  9
$DIMLWD
 70
    -2
  9
$DIMLWE
 70
    -2
  9
$DIMTMOVE
 70
     0
  9
$LUNITS
 70
     2
  9
$LUPREC
 70
     1
  9
$SKETCHINC
 40
1.0
  9
$FILLETRAD
 40
0.0
  9
$AUNITS
 70
     0
  9
$AUPREC
 70
     1
  9
$MENU
  1
.
  9
$ELEVATION
 40
0.0
  9
$PELEVATION
 40
0.0
  9
$THICKNESS
 40
0.0
  9
$LIMCHECK
 70
     0
  9
$CHAMFERA
 40
0.0
  9
$CHAMFERB
 40
0.0
  9
$CHAMFERC
 40
0.0
  9
$CHAMFERD
 40
0.0
  9
$SKPOLY
 70
     0
  9
$TDCREATE
 40
2460014.398980324
  9
$TDUCREATE
 40
2460014.357313657
  9
$TDUPDATE
 40
2460014.398980671
  9
$TDUUPDATE
 40
2460014.357314005
  9
$TDINDWG
 40
0.0000000116
  9
$TDUSRTIMER
 40
0.0000000116
  9
$USRTIMER
 70
     1
  9
$ANGBASE
 50
0.0
  9
$ANGDIR
 70
     0
  9
$PDMODE
 70
     0
  9
$PDSIZE
 40
-1.0
  9
$PLINEWID
 40
0.0
  9
$SPLFRAME
 70
     0
  9
$SPLINETYPE
 70
     6
  9
$SPLINESEGS
 70
     8
  9
$HANDSEED
  5
209
  9
$SURFTAB1
 70
     6
  9
$SURFTAB2
 70
     6
  9
$SURFTYPE
 70
     6
  9
$SURFU
 70
     6
  9
$SURFV
 70
     6
  9
$UCSBASE
  2

  9
$UCSNAME
  2

  9
$UCSORG
 10
0.0
 20
0.0
 30
0.0
  9
$UCSXDIR
 10
1.0
 20
0.0
 30
0.0
  9
$UCSYDIR
 10
0.0
 20
1.0
 30
0.0
  9
$UCSORTHOREF
  2

  9
$UCSORTHOVIEW
 70
     0
  9
$UCSORGTOP
 10
0.0
 20
0.0
 30
0.0
  9
$UCSORGBOTTOM
 10
0.0
 20
0.0
 30
0.0
  9
$UCSORGLEFT
 10
0.0
 20
0.0
 30
0.0
  9
$UCSORGRIGHT
 10
0.0
 20
0.0
 30
0.0
  9
$UCSORGFRONT
 10
0.0
 20
0.0
 30
0.0
  9
$UCSORGBACK
 10
0.0
 20
0.0
 30
0.0
  9
$PUCSBASE
  2

  9
$PUCSNAME
  2

  9
$PUCSORG
 10
0.0
 20
0.0
 30
0.0
  9
$PUCSXDIR
 10
1.0
 20
0.0
 30
0.0
  9
$PUCSYDIR
 10
0.0
 20
1.0
 30
0.0
  9
$PUCSORTHOREF
  2

  9
$PUCSORTHOVIEW
 70
     0
  9
$PUCSORGTOP
 10
0.0
 20
0.0
 30
0.0
  9
$PUCSORGBOTTOM
 10
0.0
 20
0.0
 30
0.0
  9
$PUCSORGLEFT
 10
0.0
 20
0.0
 30
0.0
  9
$PUCSORGRIGHT
 10
0.0
 20
0.0
 30
0.0
  9
$PUCSORGFRONT
 10
0.0
 20
0.0
 30
0.0
  9
$PUCSORGBACK
 10
0.0
 20
0.0
 30
0.0
  9
$USERI1
 70
     0
  9
$USERI2
 70
     0
  9
$USERI3
 70
     0
  9
$USERI4
 70
     0
  9
$USERI5
 70
     0
  9
$USERR1
 40
0.0
  9
$USERR2
 40
0.0
  9
$USERR3
 40
0.0
  9
$USERR4
 40
0.0
  9
$USERR5
 40
0.0
  9
$WORLDVIEW
 70
     1
  9
$SHADEDGE
 70
     3
  9
$SHADEDIF
 70
    70
  9
$TILEMODE
 70
     1
  9
$MAXACTVP
 70
    64
  9
$PINSBASE
 10
0.0
 20
0.0
 30
0.0
  9
$PLIMCHECK
 70
     0
  9
$PEXTMIN
 10
1.0000000000E+20
 20
1.0000000000E+20
 30
1.0000000000E+20
  9
$PEXTMAX
 10
-1.0000000000E+20
 20
-1.0000000000E+20
 30
-1.0000000000E+20
  9
$PLIMMIN
 10
0.0
 20
0.0
  9
$PLIMMAX
 10
420.0
 20
297.0
  9
$UNITMODE
 70
     0
  9
$VISRETAIN
 70
     1
  9
$PLINEGEN
 70
     0
  9
$PSLTSCALE
 70
     1
  9
$TREEDEPTH
 70
  3020
  9
$CMLSTYLE
  2
Standard
  9
$CMLJUST
 70
     0
  9
$CMLSCALE
 40
20.0
  9
$PROXYGRAPHICS
 70
     1
  9
$MEASUREMENT
 70
     1
  9
$CELWEIGHT
370
    -1
  9
$ENDCAPS
280
     0
  9
$JOINSTYLE
280
     0
  9
$LWDISPLAY
290
     1
  9
$INSUNITS
 70
     4
  9
$HYPERLINKBASE
  1

  9
$STYLESHEET
  1

  9
$XEDIT
290
     1
  9
$CEPSNTYPE
380
     0
  9
$PSTYLEMODE
290
     1
  9
$FINGERPRINTGUID
  2
{b8b885a5-2267-441f-a5c6-1291e334c433}
  9
$VERSIONGUID
  2
{FAEB1C32-E019-11D5-929B-00C0DF256EC4}
  9
$EXTNAMES
290
     1
  9
$PSVPSCALE
 40
0.0
  9
$OLESTARTUP
290
     0
  0
ENDSEC
  0
SECTION
  2
CLASSES
  0
CLASS
  1
ACDBDICTIONARYWDFLT
  2
AcDbDictionaryWithDefault
  3
ObjectDBX Classes
 90
        0
280
     0
281
     0
  0
CLASS
  1
VISUALSTYLE
  2
AcDbVisualStyle
  3
ObjectDBX Classes
 90
     4095
280
     0
281
     0
  0
CLASS
  1
MATERIAL
  2
AcDbMaterial
  3
ObjectDBX Classes
 90
     1153
280
     0
281
     0
  0
CLASS
  1
SCALE
  2
AcDbScale
  3
ObjectDBX Classes
 90
     1153
280
     0
281
     0
  0
CLASS
  1
TABLESTYLE
  2
AcDbTableStyle
  3
ObjectDBX Classes
 90
     4095
280
     0
281
     0
  0
CLASS
  1
MLEADERSTYLE
  2
AcDbMLeaderStyle
  3
ACDB_MLEADERSTYLE_CLASS
 90
     4095
280
     0
281
     0
  0
CLASS
  1
SUN
  2
AcDbSun
  3
SCENEOE
 90
     1153
280
     0
281
     0
  0
CLASS
  1
ACDBPLACEHOLDER
  2
AcDbPlaceHolder
  3
ObjectDBX Classes
 90
        0
280
     0
281
     0
  0
CLASS
  1
LAYOUT
  2
AcDbLayout
  3
ObjectDBX Classes
 90
        0
280
     0
281
     0
  0
ENDSEC
  0
SECTION
  2
TABLES
  0
TABLE
  2
VPORT
  5
8
330
0
100
AcDbSymbolTable
 70
     1
  0
VPORT
  5
29
330
8
100
AcDbSymbolTableRecord
100
AcDbViewportTableRecord
  2
*Active
 70
     0
 10
0.0
 20
0.0
 11
1.0
 21
1.0
 12
148.5
 22
105.0
 13
0.0
 23
0.0
 14
10.0
 24
10.0
 15
10.0
 25
10.0
 16
0.0
 26
0.0
 36
1.0
 17
0.0
 27
0.0
 37
0.0
 40
210.0
 41
1.4142857143
 42
50.0
 43
0.0
 44
0.0
 50
0.0
 51
0.0
 71
     0
 72
  2000
 73
     1
 74
     3
 75
     0
 76
     0
 77
     0
 78
     0
281
     0
 65
     1
110
0.0
120
0.0
130
0.0
111
1.0
121
0.0
131
0.0
112
0.0
122
1.0
132
0.0
 79
     0
146
0.0
  0
ENDTAB
  0
TABLE
  2
LTYPE
  5
5
330
0
100
AcDbSymbolTable
 70
     6
  0
LTYPE
  5
14
330
5
100
AcDbSymbolTableRecord
100
AcDbLinetypeTableRecord
  2
ByBlock
 70
     0
  3

 72
    65
 73
     0
 40
0.0
  0
LTYPE
  5
15
330
5
100
AcDbSymbolTableRecord
100
AcDbLinetypeTableRecord
  2
ByLayer
 70
     0
  3

 72
    65
 73
     0
 40
0.0
  0
LTYPE
  5
16
330
5
100
AcDbSymbolTableRecord
100
AcDbLinetypeTableRecord
  2
Continuous
 70
     0
  3
Solid line
 72
    65
 73
     0
 40
0.0
  0
LTYPE
  5
5E
330
5
100
AcDbSymbolTableRecord
100
AcDbLinetypeTableRecord
  2
HIDDEN
 70
     0
  3
Hidden __ __ __ __ __ __ __ __ __ __ __ __ __ __
 72
    65
 73
     2
 40
1.905
 49
1.27
 74
     0
 49
-0.635
 74
     0
  0
LTYPE
  5
5F
330
5
100
AcDbSymbolTableRecord
100
AcDbLinetypeTableRecord
  2
PHANTOM
 70
     0
  3
Phantom ______  __  __  ______  __  __  ______
 72
    65
 73
     6
 40
12.7
 49
6.35
 74
     0
 49
-1.27
 74
     0
 49
1.27
 74
     0
 49
-1.27
 74
     0
 49
1.27
 74
     0
 49
-1.27
 74
     0
  0
LTYPE
  5
60
330
5
100
AcDbSymbolTableRecord
100
AcDbLinetypeTableRecord
  2
CENTER
 70
     0
  3
Center ____ _ ____ _ ____ _ ____ _ ____ _ ____
 72
    65
 73
     4
 40
10.16
 49
6.35
 74
     0
 49
-1.27
 74
     0
 49
1.27
 74
     0
 49
-1.27
 74
     0
  0
LTYPE
  5
61
330
5
100
AcDbSymbolTableRecord
100
AcDbLinetypeTableRecord
  2
CENTERX2
 70
     0
  3
Center (2x) ________  __  ________  __  _____
 72
    65
 73
     4
 40
20.32
 49
12.7
 74
     0
 49
-2.54
 74
     0
 49
2.54
 74
     0
 49
-2.54
 74
     0
  0
LTYPE
  5
62
330
5
100
AcDbSymbolTableRecord
100
AcDbLinetypeTableRecord
  2
DOT2
 70
     0
  3
Dot (.5x) ........................................
 72
    65
 73
     2
 40
0.635
 49
0.0
 74
     0
 49
-0.635
 74
     0
  0
ENDTAB
  0
TABLE
  2
LAYER
  5
2
330
0
100
AcDbSymbolTable
 70
     4
  0
LAYER
  5
10
330
2
100
AcDbSymbolTableRecord
100
AcDbLayerTableRecord
  2
0
 70
     0
 62
     7
  6
Continuous
370
    -3
390
F
  0
LAYER
  5
63
330
2
100
AcDbSymbolTableRecord
100
AcDbLayerTableRecord
  2
FRAME_&_TABLE
 70
     0
 62
     8
  6
Continuous
370
    50
390
F
  0
LAYER
  5
64
330
2
100
AcDbSymbolTableRecord
100
AcDbLayerTableRecord
  2
DIMENSIONS
 70
     0
 62
     7
  6
Continuous
370
    -3
390
F
  0
LAYER
  5
65
330
2
100
AcDbSymbolTableRecord
100
AcDbLayerTableRecord
  2
FORMAT
 70
     0
 62
     7
  6
Continuous
370
    -3
390
F
  0
ENDTAB
  0
TABLE
  2
STYLE
  5
3
330
0
100
AcDbSymbolTable
 70
     1
  0
STYLE
  5
11
330
3
100
AcDbSymbolTableRecord
100
AcDbTextStyleTableRecord
  2
Standard
 70
     0
 40
0.0
 41
1.0
 50
0.0
 71
     0
 42
3.5277777778
  3
txt
  4

  0
ENDTAB
  0
TABLE
  2
VIEW
  5
6
330
0
100
AcDbSymbolTable
 70
     0
  0
ENDTAB
  0
TABLE
  2
UCS
  5
7
330
0
100
AcDbSymbolTable
 70
     0
  0
ENDTAB
  0
TABLE
  2
APPID
  5
9
330
0
100
AcDbSymbolTable
 70
     1
  0
APPID
  5
12
330
9
100
AcDbSymbolTableRecord
100
AcDbRegAppTableRecord
  2
ACAD
 70
     0
  0
ENDTAB
  0
TABLE
  2
DIMSTYLE
  5
A
330
0
100
AcDbSymbolTable
 70
     1
100
AcDbDimStyleTable
  0
DIMSTYLE
105
27
330
A
100
AcDbSymbolTableRecord
100
AcDbDimStyleTableRecord
  2
ISO-25
 70
     0
 41
2.5
 42
0.625
 43
3.75
 44
1.25
 73
     0
 74
     0
 77
     1
 78
     8
140
2.5
141
2.5
143
0.0393700787
147
0.625
171
     3
172
     1
178
     0
271
     2
272
     2
274
     3
278
    44
283
     0
284
     8
340
11
  0
ENDTAB
  0
TABLE
  2
BLOCK_RECORD
  5
1
330
0
100
AcDbSymbolTable
 70
     1
  0
BLOCK_RECORD
  5
1F
330
1
100
AcDbSymbolTableRecord
100
AcDbBlockTableRecord
  2
*Model_Space
340
22
  0
BLOCK_RECORD
  5
1B
330
1
100
AcDbSymbolTableRecord
100
AcDbBlockTableRecord
  2
*Paper_Space
340
1E
  0
BLOCK_RECORD
  5
23
330
1
100
AcDbSymbolTableRecord
100
AcDbBlockTableRecord
  2
*Paper_Space0
340
26
  0
ENDTAB
  0
ENDSEC
  0
SECTION
  2
BLOCKS
  0
BLOCK
  5
20
330
1F
100
AcDbEntity
  8
0
100
AcDbBlockBegin
  2
*Model_Space
 70
     0
 10
0.0
 20
0.0
 30
0.0
  3
*Model_Space
  1

  0
ENDBLK
  5
21
330
1F
100
AcDbEntity
  8
0
100
AcDbBlockEnd
  0
BLOCK
  5
1C
330
1B
100
AcDbEntity
 67
     1
  8
0
100
AcDbBlockBegin
  2
*Paper_Space
 70
     0
 10
0.0
 20
0.0
 30
0.0
  3
*Paper_Space
  1

  0
ENDBLK
  5
1D
330
1B
100
AcDbEntity
 67
     1
  8
0
100
AcDbBlockEnd
  0
BLOCK
  5
24
330
23
100
AcDbEntity
  8
0
100
AcDbBlockBegin
  2
*Paper_Space0
 70
     0
 10
0.0
 20
0.0
 30
0.0
  3
*Paper_Space0
  1

  0
ENDBLK
  5
25
330
23
100
AcDbEntity
  8
0
100
AcDbBlockEnd
  0
ENDSEC
  0
SECTION
  2
ENTITIES
  0
ARC
  5
66
330
1F
100
AcDbEntity
  8
0
  6
Continuous
 62
     7
370
    25
100
AcDbCircle
 10
207.3632727273
 20
-295.2256363636
 30
0.0
 40
1.25
100
AcDbArc
 50
306.8698976458
 51
90.0
  0
ARC
  5
67
330
1F
100
AcDbEntity
  8
0
  6
Continuous
 62
     7
370
    25
100
AcDbCircle
 10
187.5632727273
 20
-295.2256363636
 30
0.0
 40
1.25
100
AcDbArc
 50
90.0
 51
233.1301023542
  0
ARC
  5
68
330
1F
100
AcDbEntity
  8
0
  6
Continuous
 62
     7
370
    25
100
AcDbCircle
 10
197.4632727273
 20
-282.0256363636
 30
0.0
 40
17.74999999999999
100
AcDbArc
 50
233.1301023542
 51
306.8698976458
  0
LINE
  5
69
330
1F
100
AcDbEntity
  8
0
  6
Continuous
 62
     7
370
    25
100
AcDbLine
 10
221.9632727273
 20
-198.4756363636
 30
0.0
 11
221.9632727273
 21
-194.9756363636
 31
0.0
  0
ARC
  5
6A
330
1F
100
AcDbEntity
  8
0
  6
Continuous
 62
     7
370
    25
100
AcDbCircle
 10
220.9632727273
 20
-194.9756363636
 30
0.0
 40
1.0
100
AcDbArc
 50
0.0
 51
90.0
  0
ARC
  5
6B
330
1F
100
AcDbEntity
  8
0
  6
Continuous
 62
     7
370
    25
100
AcDbCircle
 10
173.9632727273
 20
-194.9756363636
 30
0.0
 40
1.0
100
AcDbArc
 50
90.0
 51
180.0
  0
LINE
  5
6C
330
1F
100
AcDbEntity
  8
0
  6
Continuous
 62
     7
370
    25
100
AcDbLine
 10
172.9632727273
 20
-194.9756363636
 30
0.0
 11
172.9632727273
 21
-198.4756363636
 31
0.0
  0
ARC
  5
6D
330
1F
100
AcDbEntity
  8
0
  6
Continuous
 62
     7
370
    25
100
AcDbCircle
 10
174.2420293389
 20
-192.9756363636
 30
0.0
 40
1.000000000000019
100
AcDbArc
 50
270.0
 51
358.0
  0
ARC
  5
6E
330
1F
100
AcDbEntity
  8
0
  6
Continuous
 62
     7
370
    25
100
AcDbCircle
 10
220.6845161156
 20
-192.9756363636
 30
0.0
 40
1.0
100
AcDbArc
 50
182.0
 51
270.0
  0
LINE
  5
6F
330
1F
100
AcDbEntity
  8
0
  6
Continuous
 62
     7
370
    25
100
AcDbLine
 10
218.8073952571
 20
-167.8756363636
 30
0.0
 11
218.4255401524
 21
-156.9407368669
 31
0.0
  0
LINE
  5
70
330
1F
100
AcDbEntity
  8
0
  6
Continuous
 62
     7
370
    25
100
AcDbLine
 10
219.6851252886
 20
-193.0105358603
 30
0.0
 11
219.0205204648
 21
-173.9787437937
 31
0.0
  0
LINE
  5
71
330
1F
100
AcDbEntity
  8
0
  6
Continuous
 62
     7
370
    25
100
AcDbLine
 10
176.5010053022
 20
-156.9407368669
 30
0.0
 11
175.2414201659
 21
-193.0105358603
 31
0.0
  0
ARC
  5
72
330
1F
100
AcDbEntity
  8
0
  6
Continuous
 62
     7
370
    25
100
AcDbCircle
 10
177.5003961292
 20
-156.9756363636
 30
0.0
 40
1.000000000000018
100
AcDbArc
 50
90.0
 51
178.0
  0
ARC
  5
73
330
1F
100
AcDbEntity
  8
0
  6
Continuous
 62
     7
370
    25
100
AcDbCircle
 10
217.4261493253
 20
-156.9756363636
 30
0.0
 40
1.0
100
AcDbArc
 50
2.0
 51
90.0
  0
ARC
  5
74
330
1F
100
AcDbEntity
  8
0
  6
Continuous
 62
     7
370
    25
100
AcDbCircle
 10
173.9632727273
 20
413.0243636364
 30
0.0
 40
1.0
100
AcDbArc
 50
180.0
 51
270.0
  0
ARC
  5
75
330
1F
100
AcDbEntity
  8
0
  6
Continuous
 62
     7
370
    25
100
AcDbCircle
 10
220.9632727273
 20
413.0243636364
 30
0.0
 40
1.0
100
AcDbArc
 50
270.0
 51
0.0
  0
LINE
  5
76
330
1F
100
AcDbEntity
  8
0
  6
Continuous
 62
     7
370
    25
100
AcDbLine
 10
221.9632727273
 20
413.0243636364
 30
0.0
 11
221.9632727273
 21
416.5243636364
 31
0.0
  0
LINE
  5
77
330
1F
100
AcDbEntity
  8
0
  6
Continuous
 62
     7
370
    25
100
AcDbLine
 10
172.9632727273
 20
416.5243636364
 30
0.0
 11
172.9632727273
 21
413.0243636364
 31
0.0
  0
ARC
  5
78
330
1F
100
AcDbEntity
  8
0
  6
Continuous
 62
     7
370
    25
100
AcDbCircle
 10
220.6845161156
 20
411.0243636364
 30
0.0
 40
1.0
100
AcDbArc
 50
90.0
 51
178.0
  0
ARC
  5
79
330
1F
100
AcDbEntity
  8
0
  6
Continuous
 62
     7
370
    25
100
AcDbCircle
 10
174.2420293389
 20
411.0243636364
 30
0.0
 40
1.000000000000017
100
AcDbArc
 50
2.0
 51
90.0
  0
LINE
  5
7A
330
1F
100
AcDbEntity
  8
0
  6
Continuous
 62
     7
370
    25
100
AcDbLine
 10
175.2414201659
 20
411.0592631331
 30
0.0
 11
176.5010053022
 21
374.9894641397
 31
0.0
  0
LINE
  5
7B
330
1F
100
AcDbEntity
  8
0
  6
Continuous
 62
     7
370
    25
100
AcDbLine
 10
219.0205204648
 20
392.0274710665
 30
0.0
 11
219.6851252886
 21
411.0592631331
 31
0.0
  0
LINE
  5
7C
330
1F
100
AcDbEntity
  8
0
  6
Continuous
 62
     7
370
    25
100
AcDbLine
 10
218.4255401524
 20
374.9894641397
 30
0.0
 11
218.8073952571
 21
385.9243636364
 31
0.0
  0
ARC
  5
7D
330
1F
100
AcDbEntity
  8
0
  6
Continuous
 62
     7
370
    25
100
AcDbCircle
 10
217.4261493253
 20
375.0243636364
 30
0.0
 40
1.0
100
AcDbArc
 50
270.0
 51
358.0
  0
ARC
  5
7E
330
1F
100
AcDbEntity
  8
0
  6
Continuous
 62
     7
370
    25
100
AcDbCircle
 10
177.5003961292
 20
375.0243636364
 30
0.0
 40
1.0
100
AcDbArc
 50
182.0
 51
270.0
  0
LINE
  5
7F
330
1F
100
AcDbEntity
  8
0
  6
Continuous
 62
     7
370
    25
100
AcDbLine
 10
179.9632727273
 20
374.0243636364
 30
0.0
 11
179.9632727273
 21
-155.9756363636
 31
0.0
  0
LINE
  5
80
330
1F
100
AcDbEntity
  8
0
  6
Continuous
 62
     7
370
    25
100
AcDbLine
 10
214.9632727273
 20
-155.9756363636
 30
0.0
 11
214.9632727273
 21
374.0243636364
 31
0.0
  0
ARC
  5
81
330
1F
100
AcDbEntity
  8
0
  6
Continuous
 62
     7
370
    25
100
AcDbCircle
 10
217.5076517436
 20
388.9826019014
 30
0.0
 40
3.400000000000013
100
AcDbArc
 50
0.7037739198
 51
63.5791315536
  0
ARC
  5
82
330
1F
100
AcDbEntity
  8
0
  6
Continuous
 62
     7
370
    25
100
AcDbCircle
 10
217.5076517436
 20
389.0661253713
 30
0.0
 40
3.400000000000014
100
AcDbArc
 50
292.4748280291
 51
359.2962260802
  0
ARC
  5
83
330
1F
100
AcDbEntity
  8
0
  6
Continuous
 62
     7
370
    25
100
AcDbCircle
 10
217.5076517436
 20
-171.0173980986
 30
0.0
 40
3.400000000000014
100
AcDbArc
 50
0.7037739198
 51
67.5251719709
  0
ARC
  5
84
330
1F
100
AcDbEntity
  8
0
  6
Continuous
 62
     7
370
    25
100
AcDbCircle
 10
217.5076517436
 20
-170.9338746287
 30
0.0
 40
3.400000000000014
100
AcDbArc
 50
296.4208684464
 51
359.2962260802
  0
LINE
  5
85
330
1F
100
AcDbEntity
  8
0
  6
Continuous
 62
     7
370
    25
100
AcDbLine
 10
-461.0367272727
 20
521.0243636364
 30
0.0
 11
-461.0367272727
 21
522.0243636364
 31
0.0
  0
LINE
  5
86
330
1F
100
AcDbEntity
  8
0
  6
Continuous
 62
     7
370
    25
100
AcDbLine
 10
-492.0367272727
 20
522.0243636364
 30
0.0
 11
-492.0367272727
 21
521.0243636364
 31
0.0
  0
ARC
  5
87
330
1F
100
AcDbEntity
  8
0
  6
Continuous
 62
     7
370
    25
100
AcDbCircle
 10
-475.7406746411
 20
522.0243636364
 30
0.0
 40
16.29605263157907
100
AcDbArc
 50
135.1144932694
 51
180.0
  0
ARC
  5
88
330
1F
100
AcDbEntity
  8
0
  6
Continuous
 62
     7
370
    25
100
AcDbCircle
 10
-477.3327799043
 20
522.0243636364
 30
0.0
 40
16.29605263157907
100
AcDbArc
 50
0.0
 51
44.8855067306
  0
ARC
  5
89
330
1F
100
AcDbEntity
  8
0
  6
Continuous
 62
     7
370
    25
100
AcDbCircle
 10
198.2593253589
 20
522.0243636364
 30
0.0
 40
16.29605263157899
100
AcDbArc
 50
135.1144932694
 51
180.0
  0
ARC
  5
8A
330
1F
100
AcDbEntity
  8
0
  6
Continuous
 62
     7
370
    25
100
AcDbCircle
 10
196.6672200957
 20
522.0243636364
 30
0.0
 40
16.29605263157902
100
AcDbArc
 50
0.0
 51
44.8855067306
  0
LINE
  5
8B
330
1F
100
AcDbEntity
  8
0
  6
Continuous
 62
     7
370
    25
100
AcDbLine
 10
212.9632727273
 20
521.0243636364
 30
0.0
 11
212.9632727273
 21
522.0243636364
 31
0.0
  0
LINE
  5
8C
330
1F
100
AcDbEntity
  8
0
  6
Continuous
 62
     7
370
    25
100
AcDbLine
 10
181.9632727273
 20
522.0243636364
 30
0.0
 11
181.9632727273
 21
521.0243636364
 31
0.0
  0
LINE
  5
8D
330
1F
100
AcDbEntity
  8
0
  6
Continuous
 62
     7
370
    25
100
AcDbLine
 10
-465.7867272727
 20
533.5243636364
 30
0.0
 11
-465.7867272727
 21
534.1095136553
 31
0.0
  0
LINE
  5
8E
330
1F
100
AcDbEntity
  8
0
  6
Continuous
 62
     7
370
    25
100
AcDbLine
 10
-487.2867272727
 20
534.1095136553
 30
0.0
 11
-487.2867272727
 21
533.5243636364
 31
0.0
  0
ARC
  5
8F
330
1F
100
AcDbEntity
  8
0
  6
Continuous
 62
     7
370
    25
100
AcDbCircle
 10
-466.3867272727
 20
534.1095136553
 30
0.0
 40
0.6000000000001768
100
AcDbArc
 50
0.0
 51
69.724946748
  0
ARC
  5
90
330
1F
100
AcDbEntity
  8
0
  6
Continuous
 62
     7
370
    25
100
AcDbCircle
 10
-486.6867272727
 20
534.1095136553
 30
0.0
 40
0.6000000000001768
100
AcDbArc
 50
110.275053252
 51
180.0
  0
ARC
  5
91
330
1F
100
AcDbEntity
  8
0
  6
Continuous
 62
     7
370
    25
100
AcDbCircle
 10
-476.5367272727
 20
506.6337386364
 30
0.0
 40
29.89062499999998
100
AcDbArc
 50
69.724946748
 51
110.275053252
  0
LINE
  5
92
330
1F
100
AcDbEntity
  8
0
  6
Continuous
 62
     7
370
    25
100
AcDbLine
 10
208.2132727273
 20
533.5243636364
 30
0.0
 11
208.2132727273
 21
534.1095136553
 31
0.0
  0
LINE
  5
93
330
1F
100
AcDbEntity
  8
0
  6
Continuous
 62
     7
370
    25
100
AcDbLine
 10
186.7132727273
 20
534.1095136553
 30
0.0
 11
186.7132727273
 21
533.5243636364
 31
0.0
  0
ARC
  5
94
330
1F
100
AcDbEntity
  8
0
  6
Continuous
 62
     7
370
    25
100
AcDbCircle
 10
207.6132727273
 20
534.1095136553
 30
0.0
 40
0.6000000000000227
100
AcDbArc
 50
0.0
 51
69.7249467479
  0
ARC
  5
95
330
1F
100
AcDbEntity
  8
0
  6
Continuous
 62
     7
370
    25
100
AcDbCircle
 10
187.3132727273
 20
534.1095136553
 30
0.0
 40
0.5999999999999659
100
AcDbArc
 50
110.2750532521
 51
180.0
  0
ARC
  5
96
330
1F
100
AcDbEntity
  8
0
  6
Continuous
 62
     7
370
    25
100
AcDbCircle
 10
197.4632727273
 20
506.6337386364
 30
0.0
 40
29.89062499999999
100
AcDbArc
 50
69.724946748
 51
110.275053252
  0
LINE
  5
97
330
1F
100
AcDbEntity
  8
0
  6
Continuous
 62
     7
370
    25
100
AcDbLine
 10
1259.9632727273
 20
-290.9756363636
 30
0.0
 11
1259.9632727273
 21
509.0243636364
 31
0.0
  0
ARC
  5
98
330
1F
100
AcDbEntity
  8
0
  6
Continuous
 62
     7
370
    25
100
AcDbCircle
 10
259.9632727273
 20
-290.9756363636
 30
0.0
 40
1000.0
100
AcDbArc
 50
270.0
 51
0.0
  0
LINE
  5
99
330
1F
100
AcDbEntity
  8
0
  6
Continuous
 62
     7
370
    25
100
AcDbLine
 10
259.9632727273
 20
-1290.9756363636
 30
0.0
 11
134.9632727273
 21
-1290.9756363636
 31
0.0
  0
ARC
  5
9A
330
1F
100
AcDbEntity
  8
0
  6
Continuous
 62
     7
370
    25
100
AcDbCircle
 10
134.9632727273
 20
-290.9756363636
 30
0.0
 40
1000.0
100
AcDbArc
 50
193.8436532155
 51
270.0
  0
ARC
  5
9B
330
1F
100
AcDbEntity
  8
0
  6
Continuous
 62
     7
370
    25
100
AcDbCircle
 10
-521.5367272727
 20
419.0243636364
 30
0.0
 40
1000.0
100
AcDbArc
 50
180.0
 51
251.6722495194
  0
LINE
  5
9C
330
1F
100
AcDbEntity
  8
0
  6
Continuous
 62
     7
370
    25
100
AcDbLine
 10
-1521.5367272727
 20
419.0243636364
 30
0.0
 11
-1521.5367272727
 21
521.0243636364
 31
0.0
  0
LINE
  5
9D
330
1F
100
AcDbEntity
  8
0
  6
Continuous
 62
     7
370
    25
100
AcDbLine
 10
-521.5367272727
 20
1521.0243636364
 30
0.0
 11
242.4632727273
 21
1521.0243636364
 31
0.0
  0
ARC
  5
9E
330
1F
100
AcDbEntity
  8
0
  6
Continuous
 62
     7
370
    25
100
AcDbCircle
 10
242.4632727273
 20
521.0243636364
 30
0.0
 40
1000.0
100
AcDbArc
 50
54.9531169872
 51
90.0
  0
ARC
  5
9F
330
1F
100
AcDbEntity
  8
0
  6
Continuous
 62
     7
370
    25
100
AcDbCircle
 10
259.9632727273
 20
509.0243636364
 30
0.0
 40
1000.0
100
AcDbArc
 50
0.0
 51
56.1689043952
  0
ARC
  5
A0
330
1F
100
AcDbEntity
  8
0
  6
Continuous
 62
     7
370
    25
100
AcDbCircle
 10
-521.5367272727
 20
521.0243636364
 30
0.0
 40
1000.0
100
AcDbArc
 50
90.0
 51
180.0
  0
LINE
  5
A1
330
1F
100
AcDbEntity
  8
0
  6
Continuous
 62
     7
370
    25
100
AcDbLine
 10
244.9632727273
 20
479.0243636364
 30
0.0
 11
245.9632727273
 21
479.0243636364
 31
0.0
  0
LINE
  5
A2
330
1F
100
AcDbEntity
  8
0
  6
Continuous
 62
     7
370
    25
100
AcDbLine
 10
245.9632727273
 20
479.0243636364
 30
0.0
 11
245.9632727273
 21
504.0243636364
 31
0.0
  0
ARC
  5
A3
330
1F
100
AcDbEntity
  8
0
  6
Continuous
 62
     7
370
    25
100
AcDbCircle
 10
237.9632727273
 20
504.0243636364
 30
0.0
 40
8.000000000000057
100
AcDbArc
 50
62.3873162905
 51
90.0
  0
ARC
  5
A4
330
1F
100
AcDbEntity
  8
0
  6
Continuous
 62
     7
370
    25
100
AcDbCircle
 10
237.9632727273
 20
504.0243636364
 30
0.0
 40
8.000000000000105
100
AcDbArc
 50
0.0
 51
39.5329608667
  0
LINE
  5
A5
330
1F
100
AcDbEntity
  8
0
  6
Continuous
 62
     7
370
    25
100
AcDbLine
 10
237.9632727273
 20
512.0243636364
 30
0.0
 11
215.4632727273
 21
512.0243636364
 31
0.0
  0
LINE
  5
A6
330
1F
100
AcDbEntity
  8
0
  6
Continuous
 62
     7
370
    25
100
AcDbLine
 10
149.9632727273
 20
479.0243636364
 30
0.0
 11
148.9632727273
 21
479.0243636364
 31
0.0
  0
LINE
  5
A7
330
1F
100
AcDbEntity
  8
0
  6
Continuous
 62
     7
370
    25
100
AcDbLine
 10
148.9632727273
 20
504.0243636364
 30
0.0
 11
148.9632727273
 21
479.0243636364
 31
0.0
  0
ARC
  5
A8
330
1F
100
AcDbEntity
  8
0
  6
Continuous
 62
     7
370
    25
100
AcDbCircle
 10
156.9632727273
 20
504.0243636364
 30
0.0
 40
8.0
100
AcDbArc
 50
141.3178125465
 51
180.0
  0
LINE
  5
A9
330
1F
100
AcDbEntity
  8
0
  6
Continuous
 62
     7
370
    25
100
AcDbLine
 10
245.9632727273
 20
-285.9756363636
 30
0.0
 11
245.9632727273
 21
-260.9756363636
 31
0.0
  0
LINE
  5
AA
330
1F
100
AcDbEntity
  8
0
  6
Continuous
 62
     7
370
    25
100
AcDbLine
 10
244.9632727273
 20
-260.9756363636
 30
0.0
 11
245.9632727273
 21
-260.9756363636
 31
0.0
  0
ARC
  5
AB
330
1F
100
AcDbEntity
  8
0
  6
Continuous
 62
     7
370
    25
100
AcDbCircle
 10
237.9632727273
 20
-285.9756363636
 30
0.0
 40
8.0
100
AcDbArc
 50
318.6379930459
 51
0.0
  0
ARC
  5
AC
330
1F
100
AcDbEntity
  8
0
  6
Continuous
 62
     7
370
    25
100
AcDbCircle
 10
237.9632727273
 20
-285.9756363636
 30
0.0
 40
8.0
100
AcDbArc
 50
270.0
 51
296.9411569222
  0
LINE
  5
AD
330
1F
100
AcDbEntity
  8
0
  6
Continuous
 62
     7
370
    25
100
AcDbLine
 10
156.9632727273
 20
-293.9756363636
 30
0.0
 11
237.9632727273
 21
-293.9756363636
 31
0.0
  0
ARC
  5
AE
330
1F
100
AcDbEntity
  8
0
  6
Continuous
 62
     7
370
    25
100
AcDbCircle
 10
156.9632727273
 20
-285.9756363636
 30
0.0
 40
8.000000000000034
100
AcDbArc
 50
242.3873162905
 51
270.0
  0
ARC
  5
AF
330
1F
100
AcDbEntity
  8
0
  6
Continuous
 62
     7
370
    25
100
AcDbCircle
 10
156.9632727273
 20
-285.9756363636
 30
0.0
 40
8.000000000000009
100
AcDbArc
 50
180.0
 51
219.5329608667
  0
LINE
  5
B0
330
1F
100
AcDbEntity
  8
0
  6
Continuous
 62
     7
370
    25
100
AcDbLine
 10
148.9632727273
 20
-260.9756363636
 30
0.0
 11
148.9632727273
 21
-285.9756363636
 31
0.0
  0
LINE
  5
B1
330
1F
100
AcDbEntity
  8
0
  6
Continuous
 62
     7
370
    25
100
AcDbLine
 10
149.9632727273
 20
-260.9756363636
 30
0.0
 11
148.9632727273
 21
-260.9756363636
 31
0.0
  0
LINE
  5
B2
330
1F
100
AcDbEntity
  8
0
  6
Continuous
 62
     7
370
    25
100
AcDbLine
 10
-13.5014838761
 20
512.0243636364
 30
0.0
 11
-5.5294992359
 21
512.0243636364
 31
0.0
  0
ARC
  5
B3
330
1F
100
AcDbEntity
  8
0
  6
Continuous
 62
     7
370
    25
100
AcDbCircle
 10
-10.239285498
 20
511.2969789036
 30
0.0
 40
4.765624322610505
100
AcDbArc
 50
331.5183868198
 51
8.7794609471
  0
LINE
  5
B4
330
1F
100
AcDbEntity
  8
0
  6
Continuous
 62
     7
370
    25
100
AcDbLine
 10
-6.0504437689
 20
509.0243636364
 30
0.0
 11
-12.8266307131
 21
509.0243636364
 31
0.0
  0
ARC
  5
B5
330
1F
100
AcDbEntity
  8
0
  6
Continuous
 62
     7
370
    25
100
AcDbCircle
 10
-9.6612853919
 20
511.312315869
 30
0.0
 40
3.905654416504335
100
AcDbArc
 50
169.4955421976
 51
215.8598862324
  0
LINE
  5
B6
330
1F
100
AcDbEntity
  8
0
  6
Continuous
 62
     7
370
    25
100
AcDbLine
 10
-12.8266307131
 20
521.0243636364
 30
0.0
 11
-6.0504437689
 21
521.0243636364
 31
0.0
  0
ARC
  5
B7
330
1F
100
AcDbEntity
  8
0
  6
Continuous
 62
     7
370
    25
100
AcDbCircle
 10
-10.239285498
 20
518.7517483692
 30
0.0
 40
4.7656243226095
100
AcDbArc
 50
351.2205390529
 51
28.4816131802
  0
LINE
  5
B8
330
1F
100
AcDbEntity
  8
0
  6
Continuous
 62
     7
370
    25
100
AcDbLine
 10
-5.5294992359
 20
518.0243636364
 30
0.0
 11
-13.5014838761
 21
518.0243636364
 31
0.0
  0
ARC
  5
B9
330
1F
100
AcDbEntity
  8
0
  6
Continuous
 62
     7
370
    25
100
AcDbCircle
 10
-9.6612853919
 20
518.7364114037
 30
0.0
 40
3.905654416504159
100
AcDbArc
 50
144.1401137676
 51
190.5044578024
  0
LINE
  5
BA
330
1F
100
AcDbEntity
  8
0
  6
Continuous
 62
     7
370
    25
100
AcDbLine
 10
-5.5294992359
 20
518.0243636364
 30
0.0
 11
-5.5294992359
 21
512.0243636364
 31
0.0
  0
LINE
  5
BB
330
1F
100
AcDbEntity
  8
0
  6
Continuous
 62
     7
370
    25
100
AcDbLine
 10
-13.5014838761
 20
512.0243636364
 30
0.0
 11
-13.5014838761
 21
518.0243636364
 31
0.0
  0
LINE
  5
BC
330
1F
100
AcDbEntity
  8
0
  6
Continuous
 62
     7
370
    25
100
AcDbLine
 10
198.9362362806
 20
518.0243636364
 30
0.0
 11
-5.5294992359
 21
518.0243636364
 31
0.0
  0
LINE
  5
BD
330
1F
100
AcDbEntity
  8
0
  6
Continuous
 62
     7
370
    25
100
AcDbLine
 10
198.9362362806
 20
512.0243636364
 30
0.0
 11
198.9362362806
 21
518.0243636364
 31
0.0
  0
LINE
  5
BE
330
1F
100
AcDbEntity
  8
0
  6
Continuous
 62
     7
370
    25
100
AcDbLine
 10
-5.5294992359
 20
512.0243636364
 30
0.0
 11
198.9362362806
 21
512.0243636364
 31
0.0
  0
LINE
  5
BF
330
1F
100
AcDbEntity
  8
0
  6
Continuous
 62
     7
370
    25
100
AcDbLine
 10
150.9186996772
 20
509.0243636364
 30
0.0
 11
-6.0504437689
 21
509.0243636364
 31
0.0
  0
LINE
  5
C0
330
1F
100
AcDbEntity
  8
0
  6
Continuous
 62
     7
370
    25
100
AcDbLine
 10
-6.0504437689
 20
521.0243636364
 30
0.0
 11
198.4152917476
 21
521.0243636364
 31
0.0
  0
ARC
  5
C1
330
1F
100
AcDbEntity
  8
0
  6
Continuous
 62
     7
370
    25
100
AcDbCircle
 10
194.2264500185
 20
518.7517483692
 30
0.0
 40
4.765624322609703
100
AcDbArc
 50
351.2205390529
 51
28.4816131802
  0
LINE
  5
C2
330
1F
100
AcDbEntity
  8
0
  6
Continuous
 62
     7
370
    25
100
AcDbLine
 10
-171.2963090576
 20
521.0243636364
 30
0.0
 11
-12.8266307131
 21
521.0243636364
 31
0.0
  0
LINE
  5
C3
330
1F
100
AcDbEntity
  8
0
  6
Continuous
 62
     7
370
    25
100
AcDbLine
 10
-13.5014838761
 20
518.0243636364
 30
0.0
 11
-171.9711622207
 21
518.0243636364
 31
0.0
  0
ARC
  5
C4
330
1F
100
AcDbEntity
  8
0
  6
Continuous
 62
     7
370
    25
100
AcDbCircle
 10
-168.1309637364
 20
518.7364114037
 30
0.0
 40
3.905654416504432
100
AcDbArc
 50
144.1401137676
 51
190.5044578024
  0
LINE
  5
C5
330
1F
100
AcDbEntity
  8
0
  6
Continuous
 62
     7
370
    25
100
AcDbLine
 10
-171.9711622207
 20
512.0243636364
 30
0.0
 11
-13.5014838761
 21
512.0243636364
 31
0.0
  0
LINE
  5
C6
330
1F
100
AcDbEntity
  8
0
  6
Continuous
 62
     7
370
    25
100
AcDbLine
 10
-171.9711622207
 20
518.0243636364
 30
0.0
 11
-171.9711622207
 21
512.0243636364
 31
0.0
  0
LINE
  5
C7
330
1F
100
AcDbEntity
  8
0
  6
Continuous
 62
     7
370
    25
100
AcDbLine
 10
-12.8266307131
 20
509.0243636364
 30
0.0
 11
-171.2963090576
 21
509.0243636364
 31
0.0
  0
ARC
  5
C8
330
1F
100
AcDbEntity
  8
0
  6
Continuous
 62
     7
370
    25
100
AcDbCircle
 10
-168.1309637364
 20
511.312315869
 30
0.0
 40
3.905654416504349
100
AcDbArc
 50
169.4955421976
 51
215.8598862325
  0
LINE
  5
C9
330
1F
100
AcDbEntity
  8
0
  6
Continuous
 62
     7
370
    25
100
AcDbLine
 10
-494.4947671643
 20
511.5243636364
 30
0.0
 11
-494.5367272727
 21
512.0243636364
 31
0.0
  0
LINE
  5
CA
330
1F
100
AcDbEntity
  8
0
  6
Continuous
 62
     7
370
    25
100
AcDbLine
 10
-494.5367272727
 20
512.0243636364
 30
0.0
 11
-473.8387373387
 21
512.0243636364
 31
0.0
  0
LINE
  5
CB
330
1F
100
AcDbEntity
  8
0
  6
Continuous
 62
     7
370
    25
100
AcDbLine
 10
-473.8387373387
 20
518.0243636364
 30
0.0
 11
-494.5367272727
 21
518.0243636364
 31
0.0
  0
LINE
  5
CC
330
1F
100
AcDbEntity
  8
0
  6
Continuous
 62
     7
370
    25
100
AcDbLine
 10
-473.8387373387
 20
518.0243636364
 30
0.0
 11
-473.8387373387
 21
512.0243636364
 31
0.0
  0
LINE
  5
CD
330
1F
100
AcDbEntity
  8
0
  6
Continuous
 62
     7
370
    25
100
AcDbLine
 10
-494.5367272727
 20
512.0243636364
 30
0.0
 11
-494.5367272727
 21
518.0243636364
 31
0.0
  0
ARC
  5
CE
330
1F
100
AcDbEntity
  8
0
  6
Continuous
 62
     7
370
    25
100
AcDbCircle
 10
-495.4075424671
 20
518.7734501552
 30
0.0
 40
21.58180912902177
100
AcDbArc
 50
358.0109119609
 51
5.9866533242
  0
ARC
  5
CF
330
1F
100
AcDbEntity
  8
0
  6
Continuous
 62
     7
370
    25
100
AcDbCircle
 10
-491.5367272727
 20
518.0243636364
 30
0.0
 40
3.000000000000114
100
AcDbArc
 50
90.0
 51
180.0
  0
LINE
  5
D0
330
1F
100
AcDbEntity
  8
0
  6
Continuous
 62
     7
370
    25
100
AcDbLine
 10
-491.5367272727
 20
521.0243636364
 30
0.0
 11
-473.9434358288
 21
521.0243636364
 31
0.0
  0
LINE
  5
D1
330
1F
100
AcDbEntity
  8
0
  6
Continuous
 62
     7
370
    25
100
AcDbLine
 10
-473.8387373387
 20
512.0243636364
 30
0.0
 11
-177.1681732416
 21
512.0243636364
 31
0.0
  0
ARC
  5
D2
330
1F
100
AcDbEntity
  8
0
  6
Continuous
 62
     7
370
    25
100
AcDbCircle
 10
-198.7369783701
 20
511.2752771175
 30
0.0
 40
21.581809129048
100
AcDbArc
 50
354.0133466758
 51
1.9890880391
  0
LINE
  5
D3
330
1F
100
AcDbEntity
  8
0
  6
Continuous
 62
     7
370
    25
100
AcDbLine
 10
-177.2728717317
 20
509.0243636364
 30
0.0
 11
-429.9346515446
 21
509.0243636364
 31
0.0
  0
LINE
  5
D4
330
1F
100
AcDbEntity
  8
0
  6
Continuous
 62
     7
370
    25
100
AcDbLine
 10
-177.1681732416
 20
518.0243636364
 30
0.0
 11
-473.8387373387
 21
518.0243636364
 31
0.0
  0
LINE
  5
D5
330
1F
100
AcDbEntity
  8
0
  6
Continuous
 62
     7
370
    25
100
AcDbLine
 10
-177.1681732416
 20
512.0243636364
 30
0.0
 11
-177.1681732416
 21
518.0243636364
 31
0.0
  0
ARC
  5
D6
330
1F
100
AcDbEntity
  8
0
  6
Continuous
 62
     7
370
    25
100
AcDbCircle
 10
-198.73697837
 20
518.7734501552
 30
0.0
 40
21.58180912902356
100
AcDbArc
 50
358.0109119609
 51
5.9866533242
  0
LINE
  5
D7
330
1F
100
AcDbEntity
  8
0
  6
Continuous
 62
     7
370
    25
100
AcDbLine
 10
-473.9434358288
 20
521.0243636364
 30
0.0
 11
-177.2728717317
 21
521.0243636364
 31
0.0
  0
LINE
  5
D8
330
1F
100
AcDbEntity
  8
0
  6
Continuous
 62
     7
370
    25
100
AcDbLine
 10
215.4632727273
 20
518.0243636364
 30
0.0
 11
198.9362362806
 21
518.0243636364
 31
0.0
  0
LINE
  5
D9
330
1F
100
AcDbEntity
  8
0
  6
Continuous
 62
     7
370
    25
100
AcDbLine
 10
215.4632727273
 20
518.0243636364
 30
0.0
 11
215.4632727273
 21
512.0243636364
 31
0.0
  0
LINE
  5
DA
330
1F
100
AcDbEntity
  8
0
  6
Continuous
 62
     7
370
    25
100
AcDbLine
 10
198.9362362806
 20
512.0243636364
 30
0.0
 11
215.4632727273
 21
512.0243636364
 31
0.0
  0
LINE
  5
DB
330
1F
100
AcDbEntity
  8
0
  6
Continuous
 62
     7
370
    25
100
AcDbLine
 10
215.4213126188
 20
511.5243636364
 30
0.0
 11
215.4632727273
 21
512.0243636364
 31
0.0
  0
ARC
  5
DC
330
1F
100
AcDbEntity
  8
0
  6
Continuous
 62
     7
370
    25
100
AcDbCircle
 10
212.4632727273
 20
518.0243636364
 30
0.0
 40
3.0
100
AcDbArc
 50
0.0
 51
90.0
  0
LINE
  5
DD
330
1F
100
AcDbEntity
  8
0
  6
Continuous
 62
     7
370
    25
100
AcDbLine
 10
198.4152917476
 20
521.0243636364
 30
0.0
 11
212.4632727273
 21
521.0243636364
 31
0.0
  0
LINE
  5
DE
330
1F
100
AcDbEntity
  8
0
  6
Continuous
 62
     7
370
    25
100
AcDbLine
 10
-177.1681732416
 20
512.0243636364
 30
0.0
 11
-171.9711622207
 21
512.0243636364
 31
0.0
  0
LINE
  5
DF
330
1F
100
AcDbEntity
  8
0
  6
Continuous
 62
     7
370
    25
100
AcDbLine
 10
-171.2963090576
 20
509.0243636364
 30
0.0
 11
-177.2728717317
 21
509.0243636364
 31
0.0
  0
LINE
  5
E0
330
1F
100
AcDbEntity
  8
0
  6
Continuous
 62
     7
370
    25
100
AcDbLine
 10
-171.9711622207
 20
518.0243636364
 30
0.0
 11
-177.1681732416
 21
518.0243636364
 31
0.0
  0
LINE
  5
E1
330
1F
100
AcDbEntity
  8
0
  6
Continuous
 62
     7
370
    25
100
AcDbLine
 10
-177.2728717317
 20
521.0243636364
 30
0.0
 11
-171.2963090576
 21
521.0243636364
 31
0.0
  0
LINE
  5
E2
330
1F
100
AcDbEntity
  8
0
  6
Continuous
 62
     7
370
    25
100
AcDbLine
 10
192.8387791156
 20
-193.9756363636
 30
0.0
 11
202.087766339
 21
-193.9756363636
 31
0.0
  0
LWPOLYLINE
  5
E3
330
1F
100
AcDbEntity
  8
0
  6
Continuous
 62
     7
370
    25
100
AcDbPolyline
 90
        9
 70
   128
 43
0.0
 10
202.7484082835
 20
-194.9756363636
 10
202.7357142338
 20
-194.7805460416
 10
202.6981199099
 20
-194.5929529313
 10
202.6370700405
 20
-194.4200661306
 10
202.5549107379
 20
-194.2685295824
 10
202.4547993381
 20
-194.1441667513
 10
202.3405830659
 20
-194.0517568311
 10
202.2166511887
 20
-193.9948510832
 10
202.087766339
 20
-193.9756363636
  0
LINE
  5
E4
330
1F
100
AcDbEntity
  8
0
  6
Continuous
 62
     7
370
    25
100
AcDbLine
 10
202.7484082835
 20
-194.9756363636
 30
0.0
 11
192.178137171
 21
-194.9756363636
 31
0.0
  0
LWPOLYLINE
  5
E5
330
1F
100
AcDbEntity
  8
0
  6
Continuous
 62
     7
370
    25
100
AcDbPolyline
 90
        9
 70
   128
 43
0.0
 10
192.8387791156
 20
-193.9756363636
 10
192.7098942659
 20
-193.9948510832
 10
192.5859623887
 20
-194.0517568311
 10
192.4717461165
 20
-194.1441667513
 10
192.3716347166
 20
-194.2685295824
 10
192.2894754141
 20
-194.4200661306
 10
192.2284255447
 20
-194.5929529313
 10
192.1908312207
 20
-194.7805460416
 10
192.178137171
 20
-194.9756363636
  0
LINE
  5
E6
330
1F
100
AcDbEntity
  8
0
  6
Continuous
 62
     7
370
    25
100
AcDbLine
 10
202.087766339
 20
-193.9756363636
 30
0.0
 11
220.9632727273
 21
-193.9756363636
 31
0.0
  0
LINE
  5
E7
330
1F
100
AcDbEntity
  8
0
  6
Continuous
 62
     7
370
    25
100
AcDbLine
 10
173.9632727273
 20
-193.9756363636
 30
0.0
 11
192.8387791156
 21
-193.9756363636
 31
0.0
  0
LINE
  5
E8
330
1F
100
AcDbEntity
  8
0
  6
Continuous
 62
     7
370
    25
100
AcDbLine
 10
177.5003961292
 20
-155.9756363636
 30
0.0
 11
217.4261493253
 21
-155.9756363636
 31
0.0
  0
LINE
  5
E9
330
1F
100
AcDbEntity
  8
0
  6
Continuous
 62
     7
370
    25
100
AcDbLine
 10
202.087766339
 20
412.0243636364
 30
0.0
 11
192.8387791156
 21
412.0243636364
 31
0.0
  0
LWPOLYLINE
  5
EA
330
1F
100
AcDbEntity
  8
0
  6
Continuous
 62
     7
370
    25
100
AcDbPolyline
 90
        9
 70
   128
 43
0.0
 10
192.8387791156
 20
412.0243636364
 10
192.7098942659
 20
412.043578356
 10
192.5859623887
 20
412.1004841039
 10
192.4717461165
 20
412.1928940241
 10
192.3716347166
 20
412.3172568552
 10
192.2894754141
 20
412.4687934033
 10
192.2284255447
 20
412.641680204
 10
192.1908312207
 20
412.8292733143
 10
192.178137171
 20
413.0243636364
  0
LINE
  5
EB
330
1F
100
AcDbEntity
  8
0
  6
Continuous
 62
     7
370
    25
100
AcDbLine
 10
192.178137171
 20
413.0243636364
 30
0.0
 11
202.7484082835
 21
413.0243636364
 31
0.0
  0
LWPOLYLINE
  5
EC
330
1F
100
AcDbEntity
  8
0
  6
Continuous
 62
     7
370
    25
100
AcDbPolyline
 90
        9
 70
   128
 43
0.0
 10
202.7484082835
 20
413.0243636364
 10
202.7357142338
 20
412.8292733143
 10
202.6981199099
 20
412.641680204
 10
202.6370700405
 20
412.4687934033
 10
202.5549107379
 20
412.3172568552
 10
202.4547993381
 20
412.1928940241
 10
202.3405830659
 20
412.1004841039
 10
202.2166511887
 20
412.043578356
 10
202.087766339
 20
412.0243636364
  0
LINE
  5
ED
330
1F
100
AcDbEntity
  8
0
  6
Continuous
 62
     7
370
    25
100
AcDbLine
 10
192.8387791156
 20
412.0243636364
 30
0.0
 11
173.9632727273
 21
412.0243636364
 31
0.0
  0
LINE
  5
EE
330
1F
100
AcDbEntity
  8
0
  6
Continuous
 62
     7
370
    25
100
AcDbLine
 10
220.9632727273
 20
412.0243636364
 30
0.0
 11
202.087766339
 21
412.0243636364
 31
0.0
  0
LINE
  5
EF
330
1F
100
AcDbEntity
  8
0
  6
Continuous
 62
     7
370
    25
100
AcDbLine
 10
197.4632727273
 20
374.0243636364
 30
0.0
 11
177.5003961292
 21
374.0243636364
 31
0.0
  0
LINE
  5
F0
330
1F
100
AcDbEntity
  8
0
  6
Continuous
 62
     7
370
    25
100
AcDbLine
 10
217.4261493253
 20
374.0243636364
 30
0.0
 11
197.4632727273
 21
374.0243636364
 31
0.0
  0
LINE
  5
F1
330
1F
100
AcDbEntity
  8
0
  6
Continuous
 62
     7
370
    25
100
AcDbLine
 10
222.2085877568
 20
-12.71278899
 30
0.0
 11
221.8176665083
 21
-13.6332131191
 31
0.0
  0
ARC
  5
F2
330
1F
100
AcDbEntity
  8
0
  6
Continuous
 62
     7
370
    25
100
AcDbCircle
 10
197.8122922551
 20
-70.0687052801
 30
0.0
 40
62.32880848924309
100
AcDbArc
 50
66.9575614079
 51
74.0278907988
  0
LINE
  5
F3
330
1F
100
AcDbEntity
  8
0
  6
Continuous
 62
     7
370
    25
100
AcDbLine
 10
167.2960370808
 20
-15.3264863841
 30
0.0
 11
167.7726126834
 21
-16.205619875
 31
0.0
  0
ARC
  5
F4
330
1F
100
AcDbEntity
  8
0
  6
Continuous
 62
     7
370
    25
100
AcDbCircle
 10
197.405945302
 20
-70.858910192
 30
0.0
 40
63.17006147751023
100
AcDbArc
 50
106.0289164279
 51
118.4667310108
  0
LINE
  5
F5
330
1F
100
AcDbEntity
  8
0
  6
Continuous
 62
     7
370
    25
100
AcDbLine
 10
170.4347537252
 20
-128.2150385317
 30
0.0
 11
170.8617445467
 21
-127.3107825733
 31
0.0
  0
ARC
  5
F6
330
1F
100
AcDbEntity
  8
0
  6
Continuous
 62
     7
370
    25
100
AcDbCircle
 10
197.4632727273
 20
-70.9756363636
 30
0.0
 40
63.29999999999996
100
AcDbArc
 50
244.723258864
 51
253.9508832292
  0
LINE
  5
F7
330
1F
100
AcDbEntity
  8
0
  6
Continuous
 62
     7
370
    25
100
AcDbLine
 10
219.0642996873
 20
-130.4759358105
 30
0.0
 11
218.7230512362
 21
-129.5359626755
 31
0.0
  0
LINE
  5
F8
330
1F
100
AcDbEntity
  8
0
  6
Continuous
 62
     7
370
    25
100
AcDbLine
 10
214.9632727273
 20
-131.7298627056
 30
0.0
 11
219.0642996873
 21
-130.4759358105
 31
0.0
  0
LINE
  5
F9
330
1F
100
AcDbEntity
  8
0
  6
Continuous
 62
     7
370
    25
100
AcDbLine
 10
229.0564525814
 20
-125.8278103106
 30
0.0
 11
228.557350214
 21
-124.9612672783
 31
0.0
  0
ARC
  5
FA
330
1F
100
AcDbEntity
  8
0
  6
Continuous
 62
     7
370
    25
100
AcDbCircle
 10
197.4632727273
 20
-70.9756363636
 30
0.0
 40
63.29999999999997
100
AcDbArc
 50
289.9529547207
 51
299.9406308507
  0
LINE
  5
FB
330
1F
100
AcDbEntity
  8
0
  6
Continuous
 62
     7
370
    25
100
AcDbLine
 10
229.9481711671
 20
-125.3044627209
 30
0.0
 11
229.4349816183
 21
-124.446187423
 31
0.0
  0
LINE
  5
FC
330
1F
100
AcDbEntity
  8
0
  6
Continuous
 62
     7
370
    25
100
AcDbLine
 10
229.0256103499
 20
-125.7742619356
 30
0.0
 11
229.9481711671
 21
-125.3044627209
 31
0.0
  0
LINE
  5
FD
330
1F
100
AcDbEntity
  8
0
  6
Continuous
 62
     7
370
    25
100
AcDbLine
 10
169.503434186
 20
-127.7659298014
 30
0.0
 11
169.9451377964
 21
-126.8687687676
 31
0.0
  0
LINE
  5
FE
330
1F
100
AcDbEntity
  8
0
  6
Continuous
 62
     7
370
    25
100
AcDbLine
 10
169.503434186
 20
-127.7659298014
 30
0.0
 11
170.4611397947
 21
-128.1591596712
 31
0.0
  0
LINE
  5
FF
330
1F
100
AcDbEntity
  8
0
  6
Continuous
 62
     7
370
    25
100
AcDbLine
 10
134.4840509459
 20
-77.3401963494
 30
0.0
 11
135.4789833595
 21
-77.239650378
 31
0.0
  0
LINE
  5
100
330
1F
100
AcDbEntity
  8
0
  6
Continuous
 62
     7
370
    25
100
AcDbLine
 10
143.0034858041
 20
-103.240502833
 30
0.0
 11
143.8638299893
 21
-102.7307893027
 31
0.0
  0
ARC
  5
101
330
1F
100
AcDbEntity
  8
0
  6
Continuous
 62
     7
370
    25
100
AcDbCircle
 10
197.4632727273
 20
-70.9756363636
 30
0.0
 40
63.2999999999986
100
AcDbArc
 50
185.7706107915
 51
210.6447500259
  0
LINE
  5
102
330
1F
100
AcDbEntity
  8
0
  6
Continuous
 62
     7
370
    25
100
AcDbLine
 10
163.2144153339
 20
-124.2100779147
 30
0.0
 11
163.7554715329
 21
-123.3690914763
 31
0.0
  0
ARC
  5
103
330
1F
100
AcDbEntity
  8
0
  6
Continuous
 62
     7
370
    25
100
AcDbCircle
 10
197.4632727273
 20
-70.9756363636
 30
0.0
 40
63.30000000000055
100
AcDbArc
 50
210.6447500259
 51
237.2444321205
  0
LINE
  5
104
330
1F
100
AcDbEntity
  8
0
  6
Continuous
 62
     7
370
    25
100
AcDbLine
 10
230.3270461206
 20
-16.8751520927
 30
0.0
 11
229.8078711854
 21
-17.7298200906
 31
0.0
  0
ARC
  5
105
330
1F
100
AcDbEntity
  8
0
  6
Continuous
 62
     7
370
    25
100
AcDbCircle
 10
197.4632727273
 20
-70.9756363636
 30
0.0
 40
63.29999999999994
100
AcDbArc
 50
48.7353998348
 51
58.7230759648
  0
LINE
  5
106
330
1F
100
AcDbEntity
  8
0
  6
Continuous
 62
     7
370
    25
100
AcDbLine
 10
239.2119887691
 20
-23.394813453
 30
0.0
 11
238.5524513909
 21
-24.1464852209
 31
0.0
  0
LINE
  5
107
330
1F
100
AcDbEntity
  8
0
  6
Continuous
 62
     7
370
    25
100
AcDbLine
 10
251.7067925719
 20
-38.3484919151
 30
0.0
 11
250.8498649282
 21
-38.8639286362
 31
0.0
  0
LINE
  5
108
330
1F
100
AcDbEntity
  8
0
  6
Continuous
 62
     7
370
    25
100
AcDbLine
 10
259.0609426516
 20
-56.394242058
 30
0.0
 11
258.0878357017
 21
-56.6245958385
 31
0.0
  0
ARC
  5
109
330
1F
100
AcDbEntity
  8
0
  6
Continuous
 62
     7
370
    25
100
AcDbCircle
 10
197.4632727273
 20
-70.9756363636
 30
0.0
 40
63.29999999999922
100
AcDbArc
 50
13.3179011717
 51
31.0266503618
  0
ARC
  5
10A
330
1F
100
AcDbEntity
  8
0
  6
Continuous
 62
     7
370
    25
100
AcDbCircle
 10
197.4632727273
 20
-70.9756363636
 30
0.0
 40
63.29999999999738
100
AcDbArc
 50
31.0266505658
 51
48.7353998348
  0
ARC
  5
10B
330
1F
100
AcDbEntity
  8
0
  6
Continuous
 62
     7
370
    25
100
AcDbCircle
 10
197.4632727273
 20
-70.9756363636
 30
0.0
 40
63.29999999999993
100
AcDbArc
 50
5.0704062808
 51
13.3179011717
  0
LINE
  5
10C
330
1F
100
AcDbEntity
  8
0
  6
Continuous
 62
     7
370
    25
100
AcDbLine
 10
229.4390066392
 20
-16.3455856517
 30
0.0
 11
228.9338607639
 21
-17.2086196282
 31
0.0
  0
LINE
  5
10D
330
1F
100
AcDbEntity
  8
0
  6
Continuous
 62
     7
370
    25
100
AcDbLine
 10
248.4652753785
 20
-33.4831607776
 30
0.0
 11
248.2804035531
 21
-33.2644723204
 31
0.0
  0
LINE
  5
10E
330
1F
100
AcDbEntity
  8
0
  6
Continuous
 62
     7
370
    25
100
AcDbLine
 10
230.2949634967
 20
-16.9279666452
 30
0.0
 11
229.4390066392
 21
-16.3455856517
 31
0.0
  0
LINE
  5
10F
330
1F
100
AcDbEntity
  8
0
  6
Continuous
 62
     7
370
    25
100
AcDbLine
 10
260.6996137279
 20
-68.1374720177
 30
0.0
 11
260.5831406784
 21
-67.1087525262
 31
0.0
  0
LINE
  5
110
330
1F
100
AcDbEntity
  8
0
  6
Continuous
 62
     7
370
    25
100
AcDbLine
 10
254.5387266992
 20
-43.6577646553
 30
0.0
 11
254.4011704423
 21
-43.3176211819
 31
0.0
  0
ARC
  5
111
330
1F
100
AcDbEntity
  8
0
  6
Continuous
 62
     7
370
    25
100
AcDbCircle
 10
197.4632727273
 20
109.0243636364
 30
0.0
 40
62.50000000000008
100
AcDbArc
 50
222.5839696099
 51
253.7397952917
  0
ARC
  5
112
330
1F
100
AcDbEntity
  8
0
  6
Continuous
 62
     7
370
    25
100
AcDbCircle
 10
197.4632727273
 20
109.0243636364
 30
0.0
 40
62.50000000000009
100
AcDbArc
 50
286.2602047083
 51
73.7397952917
  0
ARC
  5
113
330
1F
100
AcDbEntity
  8
0
  6
Continuous
 62
     7
370
    25
100
AcDbCircle
 10
197.4632727273
 20
109.0243636364
 30
0.0
 40
62.50000000000007
100
AcDbArc
 50
106.2602047083
 51
222.5839696099
  0
LINE
  5
114
330
1F
100
AcDbEntity
  8
0
  6
Continuous
 62
     7
370
    25
100
AcDbLine
 10
215.8087507256
 20
48.4410867605
 30
0.0
 11
215.5189327478
 21
49.3981685437
 31
0.0
  0
LINE
  5
115
330
1F
100
AcDbEntity
  8
0
  6
Continuous
 62
     7
370
    25
100
AcDbLine
 10
239.5898372632
 20
61.7777493619
 30
0.0
 11
238.9243307144
 21
62.5241413725
 31
0.0
  0
ARC
  5
116
330
1F
100
AcDbEntity
  8
0
  6
Continuous
 62
     7
370
    25
100
AcDbCircle
 10
197.4632727273
 20
109.0243636364
 30
0.0
 40
63.29999999999755
100
AcDbArc
 50
286.8470589381
 51
311.7211981726
  0
LINE
  5
117
330
1F
100
AcDbEntity
  8
0
  6
Continuous
 62
     7
370
    25
100
AcDbLine
 10
256.2858900649
 20
85.6408290543
 30
0.0
 11
255.3566228084
 21
86.0102371836
 31
0.0
  0
ARC
  5
118
330
1F
100
AcDbEntity
  8
0
  6
Continuous
 62
     7
370
    25
100
AcDbCircle
 10
197.4632727273
 20
109.0243636364
 30
0.0
 40
63.29999999999182
100
AcDbArc
 50
311.7211981726
 51
338.3208802672
  0
LINE
  5
119
330
1F
100
AcDbEntity
  8
0
  6
Continuous
 62
     7
370
    25
100
AcDbLine
 10
155.0227277529
 20
155.9891391844
 30
0.0
 11
155.6931944981
 21
155.2471996023
 31
0.0
  0
ARC
  5
11A
330
1F
100
AcDbEntity
  8
0
  6
Continuous
 62
     7
370
    25
100
AcDbCircle
 10
197.4632727273
 20
109.0243636364
 30
0.0
 40
63.30000000000062
100
AcDbArc
 50
114.3943493184
 51
132.1030985084
  0
LINE
  5
11B
330
1F
100
AcDbEntity
  8
0
  6
Continuous
 62
     7
370
    25
100
AcDbLine
 10
171.3194476952
 20
166.6732180282
 30
0.0
 11
171.7324623086
 21
165.7624936302
 31
0.0
  0
LINE
  5
11C
330
1F
100
AcDbEntity
  8
0
  6
Continuous
 62
     7
370
    25
100
AcDbLine
 10
142.7480946176
 20
140.8542125902
 30
0.0
 11
143.6124734187
 21
140.3513713745
 31
0.0
  0
ARC
  5
11D
330
1F
100
AcDbEntity
  8
0
  6
Continuous
 62
     7
370
    25
100
AcDbCircle
 10
197.4632727273
 20
109.0243636364
 30
0.0
 40
63.30000000000052
100
AcDbArc
 50
132.1030987125
 51
149.8118479815
  0
ARC
  5
11E
330
1F
100
AcDbEntity
  8
0
  6
Continuous
 62
     7
370
    25
100
AcDbCircle
 10
197.4632727273
 20
109.0243636364
 30
0.0
 40
63.29999999999993
100
AcDbArc
 50
106.0491167708
 51
114.3943493184
  0
LINE
  5
11F
330
1F
100
AcDbEntity
  8
0
  6
Continuous
 62
     7
370
    25
100
AcDbLine
 10
138.0568459321
 20
130.8822330529
 30
0.0
 11
138.9953360869
 21
130.536927059
 31
0.0
  0
ARC
  5
120
330
1F
100
AcDbEntity
  8
0
  6
Continuous
 62
     7
370
    25
100
AcDbCircle
 10
197.4632727273
 20
109.0243636364
 30
0.0
 40
63.29999999999993
100
AcDbArc
 50
149.8118479815
 51
159.7995241115
  0
LINE
  5
121
330
1F
100
AcDbEntity
  8
0
  6
Continuous
 62
     7
370
    25
100
AcDbLine
 10
137.7077532903
 20
129.9089966668
 30
0.0
 11
138.6517583367
 21
129.5790656553
 31
0.0
  0
LINE
  5
122
330
1F
100
AcDbEntity
  8
0
  6
Continuous
 62
     7
370
    25
100
AcDbLine
 10
150.8707850616
 20
151.8732853629
 30
0.0
 11
150.6916877075
 21
151.6498432654
 31
0.0
  0
LINE
  5
123
330
1F
100
AcDbEntity
  8
0
  6
Continuous
 62
     7
370
    25
100
AcDbLine
 10
138.1148403085
 20
130.8608947302
 30
0.0
 11
137.7077532903
 21
129.9089966668
 31
0.0
  0
LINE
  5
124
330
1F
100
AcDbEntity
  8
0
  6
Continuous
 62
     7
370
    25
100
AcDbLine
 10
159.689030696
 20
159.7883291999
 30
0.0
 11
159.3816506241
 21
159.5879874977
 31
0.0
  0
LWPOLYLINE
  5
125
330
1F
100
AcDbEntity
  8
0
  6
Continuous
 62
     7
370
    25
100
AcDbPolyline
 90
        3
 70
   128
 43
0.0
 10
221.0259272915
 20
-13.087370628
 10
216.5804279768
 20
-11.4711459855
 10
214.9632727273
 20
-10.9756363636
  0
ARC
  5
126
330
1F
100
AcDbEntity
  8
0
  6
Continuous
 62
     7
370
    25
100
AcDbCircle
 10
197.4632727273
 20
-70.9756363636
 30
0.0
 40
62.50000000000006
100
AcDbArc
 50
106.2602047083
 51
253.7397952917
  0
ARC
  5
127
330
1F
100
AcDbEntity
  8
0
  6
Continuous
 62
     7
370
    25
100
AcDbCircle
 10
197.4632727273
 20
-70.9756363636
 30
0.0
 40
62.50000000000006
100
AcDbArc
 50
286.2602047083
 51
67.8518679163
  0
LINE
  5
128
330
1F
100
AcDbEntity
  8
0
  6
Continuous
 62
     7
370
    25
100
AcDbLine
 10
155.0130082909
 20
-24.0196458056
 30
0.0
 11
155.6836285822
 21
-24.7614466043
 31
0.0
  0
LINE
  5
129
330
1F
100
AcDbEntity
  8
0
  6
Continuous
 62
     7
370
    25
100
AcDbLine
 10
139.20002336
 20
-46.2312678495
 30
0.0
 11
140.1204538397
 21
-46.6221741452
 31
0.0
  0
ARC
  5
12A
330
1F
100
AcDbEntity
  8
0
  6
Continuous
 62
     7
370
    25
100
AcDbCircle
 10
197.4632727273
 20
-70.9756363636
 30
0.0
 40
63.30000000000097
100
AcDbArc
 50
132.1149572446
 51
156.989096479
  0
LINE
  5
12B
330
1F
100
AcDbEntity
  8
0
  6
Continuous
 62
     7
370
    25
100
AcDbLine
 10
134.2874035938
 20
-74.937903295
 30
0.0
 11
135.2854426007
 21
-74.8753082408
 31
0.0
  0
ARC
  5
12C
330
1F
100
AcDbEntity
  8
0
  6
Continuous
 62
     7
370
    25
100
AcDbCircle
 10
197.4632727273
 20
-70.9756363636
 30
0.0
 40
63.29999999999813
100
AcDbArc
 50
156.989096479
 51
183.5887785736
  0
LINE
  5
12D
330
1F
100
AcDbEntity
  8
0
  6
Continuous
 62
     7
370
    25
100
AcDbLine
 10
260.5158614149
 20
-65.3844772899
 30
0.0
 11
259.5197699664
 21
-65.4728052373
 31
0.0
  0
LINE
  5
12E
330
1F
100
AcDbEntity
  8
0
  6
Continuous
 62
     7
370
    25
100
AcDbLine
 10
260.5300147323
 20
-76.4048216495
 30
0.0
 11
259.5336996928
 21
-76.3190525296
 31
0.0
  0
ARC
  5
12F
330
1F
100
AcDbEntity
  8
0
  6
Continuous
 62
     7
370
    25
100
AcDbCircle
 10
197.4632727273
 20
-70.9756363636
 30
0.0
 40
63.29999999999993
100
AcDbArc
 50
355.0797462879
 51
5.0674224179
  0
LINE
  5
130
330
1F
100
AcDbEntity
  8
0
  6
Continuous
 62
     7
370
    25
100
AcDbLine
 10
245.7131908388
 20
-111.9492303265
 30
0.0
 11
244.9509488465
 21
-111.3019381628
 31
0.0
  0
LINE
  5
131
330
1F
100
AcDbEntity
  8
0
  6
Continuous
 62
     7
370
    25
100
AcDbLine
 10
238.0246837743
 20
-119.5725697429
 30
0.0
 11
237.3839031891
 21
-118.8048456769
 31
0.0
  0
ARC
  5
132
330
1F
100
AcDbEntity
  8
0
  6
Continuous
 62
     7
370
    25
100
AcDbCircle
 10
197.4632727273
 20
-70.9756363636
 30
0.0
 40
63.29999999999995
100
AcDbArc
 50
309.8500504312
 51
319.6622476248
  0
LINE
  5
133
330
1F
100
AcDbEntity
  8
0
  6
Continuous
 62
     7
370
    25
100
AcDbLine
 10
255.8901582503
 20
-95.331109015
 30
0.0
 11
254.9671426813
 21
-94.9463464139
 31
0.0
  0
ARC
  5
134
330
1F
100
AcDbEntity
  8
0
  6
Continuous
 62
     7
370
    25
100
AcDbCircle
 10
197.4632727273
 20
-70.9756363636
 30
0.0
 40
63.29999999999733
100
AcDbArc
 50
337.3709970189
 51
355.0797462879
  0
ARC
  5
135
330
1F
100
AcDbEntity
  8
0
  6
Continuous
 62
     7
370
    25
100
AcDbCircle
 10
197.4632727273
 20
-70.9756363636
 30
0.0
 40
63.29999999999887
100
AcDbArc
 50
319.6622476248
 51
337.3709968149
  0
LINE
  5
136
330
1F
100
AcDbEntity
  8
0
  6
Continuous
 62
     7
370
    25
100
AcDbLine
 10
260.4161263433
 20
-64.3553477298
 30
0.0
 11
259.4216104884
 21
-64.4599336482
 31
0.0
  0
LINE
  5
137
330
1F
100
AcDbEntity
  8
0
  6
Continuous
 62
     7
370
    25
100
AcDbLine
 10
257.8879933611
 20
-89.8367905257
 30
0.0
 11
257.9545784712
 21
-89.5582790246
 31
0.0
  0
LINE
  5
138
330
1F
100
AcDbEntity
  8
0
  6
Continuous
 62
     7
370
    25
100
AcDbLine
 10
260.4543075434
 20
-65.3899355509
 30
0.0
 11
260.4161263433
 21
-64.3553477298
 31
0.0
  0
LINE
  5
139
330
1F
100
AcDbEntity
  8
0
  6
Continuous
 62
     7
370
    25
100
AcDbLine
 10
237.2255101823
 20
-120.228600463
 30
0.0
 11
236.5973547723
 21
-119.4505125625
 31
0.0
  0
LINE
  5
13A
330
1F
100
AcDbEntity
  8
0
  6
Continuous
 62
     7
370
    25
100
AcDbLine
 10
237.2255101823
 20
-120.228600463
 30
0.0
 11
237.9850864805
 21
-119.5251279256
 31
0.0
  0
LINE
  5
13B
330
1F
100
AcDbEntity
  8
0
  6
Continuous
 62
     7
370
    25
100
AcDbLine
 10
253.2920075826
 20
-100.7586168261
 30
0.0
 11
253.4844619899
 21
-100.4462378777
 31
0.0
  0
LINE
  5
13C
330
1F
100
AcDbEntity
  8
0
  6
Continuous
 62
     7
370
    25
100
AcDbLine
 10
256.2389844742
 20
312.5255488967
 30
0.0
 11
255.3104582223
 21
312.1542821469
 31
0.0
  0
ARC
  5
13D
330
1F
100
AcDbEntity
  8
0
  6
Continuous
 62
     7
370
    25
100
AcDbCircle
 10
209.2009042967
 20
288.4455009796
 30
0.0
 40
51.54824846173155
100
AcDbArc
 50
356.8610284123
 51
358.1760628061
  0
ARC
  5
13E
330
1F
100
AcDbEntity
  8
0
  6
Continuous
 62
     7
370
    25
100
AcDbCircle
 10
197.477831057
 20
289.0291698695
 30
0.0
 40
63.28469782109315
100
AcDbArc
 50
9.643446581
 51
21.7946153849
  0
LINE
  5
13F
330
1F
100
AcDbEntity
  8
0
  6
Continuous
 62
     7
370
    25
100
AcDbLine
 10
239.4952177373
 20
336.3551738838
 30
0.0
 11
238.8312059678
 21
335.6074517629
 31
0.0
  0
ARC
  5
140
330
1F
100
AcDbEntity
  8
0
  6
Continuous
 62
     7
370
    25
100
AcDbCircle
 10
197.4632727273
 20
289.0243636364
 30
0.0
 40
63.30000000000398
100
AcDbArc
 50
21.7937622498
 51
48.3934443444
  0
LINE
  5
141
330
1F
100
AcDbEntity
  8
0
  6
Continuous
 62
     7
370
    25
100
AcDbLine
 10
156.6666640853
 20
240.624707405
 30
0.0
 11
157.3111602724
 21
241.3893149284
 31
0.0
  0
ARC
  5
142
330
1F
100
AcDbEntity
  8
0
  6
Continuous
 62
     7
370
    25
100
AcDbCircle
 10
197.4632727273
 20
289.0243636364
 30
0.0
 40
63.29999999999996
100
AcDbArc
 50
219.8844120587
 51
229.8720881887
  0
LINE
  5
143
330
1F
100
AcDbEntity
  8
0
  6
Continuous
 62
     7
370
    25
100
AcDbLine
 10
148.8906737188
 20
248.4338151606
 30
0.0
 11
149.6580133556
 21
249.0750560528
 31
0.0
  0
ARC
  5
144
330
1F
100
AcDbEntity
  8
0
  6
Continuous
 62
     7
370
    25
100
AcDbCircle
 10
197.4632727273
 20
289.0243636364
 30
0.0
 40
63.30000000000017
100
AcDbArc
 50
202.1756627897
 51
219.8844120587
  0
LINE
  5
145
330
1F
100
AcDbEntity
  8
0
  6
Continuous
 62
     7
370
    25
100
AcDbLine
 10
138.8455107421
 20
265.13193848
 30
0.0
 11
139.7715417371
 21
265.5093859549
 31
0.0
  0
LINE
  5
146
330
1F
100
AcDbEntity
  8
0
  6
Continuous
 62
     7
370
    25
100
AcDbLine
 10
134.355548041
 20
284.0943448822
 30
0.0
 11
134.3991654789
 21
283.7593502429
 31
0.0
  0
LWPOLYLINE
  5
147
330
1F
100
AcDbEntity
  8
0
  6
Continuous
 62
     7
370
    25
100
AcDbPolyline
 90
        3
 70
   128
 43
0.0
 10
135.5720903621
 20
276.0469762314
 10
136.6991537917
 20
271.2870625456
 10
138.8455106831
 20
265.1319386248
  0
LINE
  5
148
330
1F
100
AcDbEntity
  8
0
  6
Continuous
 62
     7
370
    25
100
AcDbLine
 10
157.4626468082
 20
239.9648087456
 30
0.0
 11
158.0945682287
 21
240.7398412083
 31
0.0
  0
LINE
  5
149
330
1F
100
AcDbEntity
  8
0
  6
Continuous
 62
     7
370
    25
100
AcDbLine
 10
141.2998222834
 20
259.8257877424
 30
0.0
 11
141.4488440826
 21
259.5812581195
 31
0.0
  0
LINE
  5
14A
330
1F
100
AcDbEntity
  8
0
  6
Continuous
 62
     7
370
    25
100
AcDbLine
 10
156.7064909863
 20
240.6719566342
 30
0.0
 11
157.4626468082
 21
239.9648087456
 31
0.0
  0
LINE
  5
14B
330
1F
100
AcDbEntity
  8
0
  6
Continuous
 62
     7
370
    25
100
AcDbLine
 10
134.5432649897
 20
295.9498691274
 30
0.0
 11
134.5022445019
 21
294.9676213518
 31
0.0
  0
LINE
  5
14C
330
1F
100
AcDbEntity
  8
0
  6
Continuous
 62
     7
370
    25
100
AcDbLine
 10
136.8642120548
 20
270.8137237139
 30
0.0
 11
136.9477940257
 21
270.4564655993
 31
0.0
  0
ARC
  5
14D
330
1F
100
AcDbEntity
  8
0
  6
Continuous
 62
     7
370
    25
100
AcDbCircle
 10
197.4632727273
 20
289.0243636364
 30
0.0
 40
62.50000000000011
100
AcDbArc
 50
219.7871961827
 51
253.7397952917
  0
ARC
  5
14E
330
1F
100
AcDbEntity
  8
0
  6
Continuous
 62
     7
370
    25
100
AcDbCircle
 10
197.4632727273
 20
289.0243636364
 30
0.0
 40
62.50000000000011
100
AcDbArc
 50
286.2602047083
 51
73.7397952917
  0
ARC
  5
14F
330
1F
100
AcDbEntity
  8
0
  6
Continuous
 62
     7
370
    25
100
AcDbCircle
 10
197.4632727273
 20
289.0243636364
 30
0.0
 40
62.50000000000011
100
AcDbArc
 50
106.2602047083
 51
219.7871961827
  0
LINE
  5
150
330
1F
100
AcDbEntity
  8
0
  6
Continuous
 62
     7
370
    25
100
AcDbLine
 10
255.0748606392
 20
262.7985187831
 30
0.0
 11
254.1647249692
 21
263.2128291283
 31
0.0
  0
LINE
  5
151
330
1F
100
AcDbEntity
  8
0
  6
Continuous
 62
     7
370
    25
100
AcDbLine
 10
237.234331009
 20
239.7785219525
 30
0.0
 11
236.6060362494
 21
240.5564973346
 31
0.0
  0
ARC
  5
152
330
1F
100
AcDbEntity
  8
0
  6
Continuous
 62
     7
370
    25
100
AcDbCircle
 10
197.4632727273
 20
289.0243636364
 30
0.0
 40
63.30000000000647
100
AcDbArc
 50
308.9244247454
 51
335.5241068399
  0
ARC
  5
153
330
1F
100
AcDbEntity
  8
0
  6
Continuous
 62
     7
370
    25
100
AcDbCircle
 10
197.529833663
 20
288.9132145144
 30
0.0
 40
63.17171141147653
100
AcDbArc
 50
286.0197733064
 51
308.9407973093
  0
LINE
  5
154
330
1F
100
AcDbEntity
  8
0
  6
Continuous
 62
     7
370
    25
100
AcDbLine
 10
157.364856089
 20
338.0040225072
 30
0.0
 11
157.9983223867
 21
337.2302522249
 31
0.0
  0
ARC
  5
155
330
1F
100
AcDbEntity
  8
0
  6
Continuous
 62
     7
370
    25
100
AcDbCircle
 10
197.4632727273
 20
289.0243636364
 30
0.0
 40
63.3000000000023
100
AcDbArc
 50
111.5975758912
 51
129.3063250812
  0
LINE
  5
156
330
1F
100
AcDbEntity
  8
0
  6
Continuous
 62
     7
370
    25
100
AcDbLine
 10
174.1634786343
 20
347.8802010293
 30
0.0
 11
174.531563849
 21
346.9504089694
 31
0.0
  0
ARC
  5
157
330
1F
100
AcDbEntity
  8
0
  6
Continuous
 62
     7
370
    25
100
AcDbCircle
 10
197.4632727273
 20
289.0243636364
 30
0.0
 40
63.29999999999993
100
AcDbArc
 50
106.0491167708
 51
111.5975758912
  0
ARC
  5
158
330
1F
100
AcDbEntity
  8
0
  6
Continuous
 62
     7
370
    25
100
AcDbCircle
 10
197.4632727273
 20
289.0243636364
 30
0.0
 40
63.29999999999993
100
AcDbArc
 50
147.0150745542
 51
157.0027506843
  0
LINE
  5
159
330
1F
100
AcDbEntity
  8
0
  6
Continuous
 62
     7
370
    25
100
AcDbLine
 10
144.3663570492
 20
323.4860459151
 30
0.0
 11
145.205170883
 21
322.9416275537
 31
0.0
  0
LINE
  5
15A
330
1F
100
AcDbEntity
  8
0
  6
Continuous
 62
     7
370
    25
100
AcDbLine
 10
139.1941281633
 20
313.7548466842
 30
0.0
 11
140.1146517741
 21
313.3641597482
 31
0.0
  0
ARC
  5
15B
330
1F
100
AcDbEntity
  8
0
  6
Continuous
 62
     7
370
    25
100
AcDbCircle
 10
197.4632727273
 20
289.0243636364
 30
0.0
 40
63.299999999999
100
AcDbArc
 50
129.3063252852
 51
147.0150745542
  0
LINE
  5
15C
330
1F
100
AcDbEntity
  8
0
  6
Continuous
 62
     7
370
    25
100
AcDbLine
 10
138.7979636987
 20
312.7998029926
 30
0.0
 11
139.7247458319
 21
312.4242036347
 31
0.0
  0
LINE
  5
15D
330
1F
100
AcDbEntity
  8
0
  6
Continuous
 62
     7
370
    25
100
AcDbLine
 10
153.0170318253
 20
334.0956590436
 30
0.0
 11
152.8272452695
 21
333.8812218818
 31
0.0
  0
LINE
  5
15E
330
1F
100
AcDbEntity
  8
0
  6
Continuous
 62
     7
370
    25
100
AcDbLine
 10
139.2510122898
 20
313.7307040279
 30
0.0
 11
138.7979636987
 21
312.7998029926
 31
0.0
  0
LINE
  5
15F
330
1F
100
AcDbEntity
  8
0
  6
Continuous
 62
     7
370
    25
100
AcDbLine
 10
162.2109768007
 20
341.5710018988
 30
0.0
 11
161.8941874759
 21
341.3858969827
 31
0.0
  0
LINE
  5
160
330
1F
100
AcDbEntity
  8
0
  6
Continuous
 62
     7
370
    25
100
AcDbLine
 10
214.9632727273
 20
48.1969876949
 30
0.0
 11
216.0426883814
 21
48.5124605082
 31
0.0
  0
LINE
  5
161
330
1F
100
AcDbEntity
  8
0
  6
Continuous
 62
     7
370
    25
100
AcDbLine
 10
220.8471071806
 20
50.2045595607
 30
0.0
 11
221.0348278396
 21
50.2768378196
 31
0.0
  0
LINE
  5
162
330
1F
100
AcDbEntity
  8
0
  6
Continuous
 62
     7
370
    25
100
AcDbLine
 10
239.3450326647
 20
61.565565272
 30
0.0
 11
239.7210762185
 21
61.8981862326
 31
0.0
  0
ARC
  5
163
330
1F
100
AcDbEntity
  8
0
  6
Continuous
 62
     7
370
    25
100
AcDbCircle
 10
206.5758235099
 20
100.9269036807
 30
0.0
 40
51.10955210662424
100
AcDbArc
 50
318.186670359
 51
318.4826944227
  0
ARC
  5
164
330
1F
100
AcDbEntity
  8
0
  6
Continuous
 62
     7
370
    25
100
AcDbCircle
 10
197.4632727273
 20
109.0243636364
 30
0.0
 40
63.29999999999994
100
AcDbArc
 50
129.9530264898
 51
139.9407026198
  0
LINE
  5
165
330
1F
100
AcDbEntity
  8
0
  6
Continuous
 62
     7
370
    25
100
AcDbLine
 10
173.5006670879
 20
167.6134712501
 30
0.0
 11
172.981045671
 21
167.3690032097
 31
0.0
  0
LINE
  5
166
330
1F
100
AcDbEntity
  8
0
  6
Continuous
 62
     7
370
    25
100
AcDbLine
 10
158.4701651226
 20
158.7959585886
 30
0.0
 11
156.8145853653
 21
157.5483187075
 31
0.0
  0
LINE
  5
167
330
1F
100
AcDbEntity
  8
0
  6
Continuous
 62
     7
370
    25
100
AcDbLine
 10
173.9944672892
 20
167.786328156
 30
0.0
 11
173.5006672965
 21
167.6134713354
 31
0.0
  0
LINE
  5
168
330
1F
100
AcDbEntity
  8
0
  6
Continuous
 62
     7
370
    25
100
AcDbLine
 10
168.1974593735
 20
165.1528071276
 30
0.0
 11
167.9531083866
 21
165.0034925993
 31
0.0
  0
LINE
  5
169
330
1F
100
AcDbEntity
  8
0
  6
Continuous
 62
     7
370
    25
100
AcDbLine
 10
149.0620922166
 20
149.7232118505
 30
0.0
 11
148.3558503675
 21
148.9662097277
 31
0.0
  0
LINE
  5
16A
330
1F
100
AcDbEntity
  8
0
  6
Continuous
 62
     7
370
    25
100
AcDbLine
 10
179.1800756123
 20
169.6015727502
 30
0.0
 11
178.8229178472
 21
169.5175630058
 31
0.0
  0
LINE
  5
16B
330
1F
100
AcDbEntity
  8
0
  6
Continuous
 62
     7
370
    25
100
AcDbLine
 10
260.6192467191
 20
104.7567004419
 30
0.0
 11
259.6215220115
 21
104.8241200816
 31
0.0
  0
ARC
  5
16C
330
1F
100
AcDbEntity
  8
0
  6
Continuous
 62
     7
370
    25
100
AcDbCircle
 10
201.4462807535
 20
106.855481571
 30
0.0
 40
58.764781487544
100
AcDbArc
 50
331.246935955
 51
332.0020530864
  0
ARC
  5
16D
330
1F
100
AcDbEntity
  8
0
  6
Continuous
 62
     7
370
    25
100
AcDbCircle
 10
197.4666827511
 20
109.0237917921
 30
0.0
 40
63.29655918237641
100
AcDbArc
 50
337.8877731914
 51
356.1345151524
  0
LINE
  5
16E
330
1F
100
AcDbEntity
  8
0
  6
Continuous
 62
     7
370
    25
100
AcDbLine
 10
255.8454751571
 20
133.4867518975
 30
0.0
 11
254.9231654821
 21
133.1003002662
 31
0.0
  0
ARC
  5
16F
330
1F
100
AcDbEntity
  8
0
  6
Continuous
 62
     7
370
    25
100
AcDbCircle
 10
197.4632727273
 20
109.0243636364
 30
0.0
 40
63.29999999999895
100
AcDbArc
 50
356.134206806
 51
22.7338889006
  0
ARC
  5
170
330
1F
100
AcDbEntity
  8
0
  6
Continuous
 62
     7
370
    25
100
AcDbCircle
 10
197.4632727273
 20
109.0243636364
 30
0.0
 40
63.29999999999993
100
AcDbArc
 50
194.2248566149
 51
204.2125327449
  0
LINE
  5
171
330
1F
100
AcDbEntity
  8
0
  6
Continuous
 62
     7
370
    25
100
AcDbLine
 10
136.1041243437
 20
93.4697852221
 30
0.0
 11
137.0734631808
 21
93.7155131591
 31
0.0
  0
LINE
  5
172
330
1F
100
AcDbEntity
  8
0
  6
Continuous
 62
     7
370
    25
100
AcDbLine
 10
139.7317465876
 20
83.0636069142
 30
0.0
 11
140.6437770164
 21
83.4737294532
 31
0.0
  0
LINE
  5
173
330
1F
100
AcDbEntity
  8
0
  6
Continuous
 62
     7
370
    25
100
AcDbLine
 10
134.2802561116
 20
112.8709740075
 30
0.0
 11
135.2784080329
 21
112.8102060712
 31
0.0
  0
ARC
  5
174
330
1F
100
AcDbEntity
  8
0
  6
Continuous
 62
     7
370
    25
100
AcDbCircle
 10
197.4632727273
 20
109.0243636364
 30
0.0
 40
63.3000000000001
100
AcDbArc
 50
158.8073579518
 51
176.5161071418
  0
ARC
  5
175
330
1F
100
AcDbEntity
  8
0
  6
Continuous
 62
     7
370
    25
100
AcDbCircle
 10
197.4632727273
 20
109.0243636364
 30
0.0
 40
63.29999999999963
100
AcDbArc
 50
176.5161073459
 51
194.2248566149
  0
LINE
  5
176
330
1F
100
AcDbEntity
  8
0
  6
Continuous
 62
     7
370
    25
100
AcDbLine
 10
140.1634805719
 20
82.1241067797
 30
0.0
 11
141.0686905586
 21
82.549071343
 31
0.0
  0
LINE
  5
177
330
1F
100
AcDbEntity
  8
0
  6
Continuous
 62
     7
370
    25
100
AcDbLine
 10
134.1948457389
 20
107.0253272632
 30
0.0
 11
134.2232845123
 21
106.7403825855
 31
0.0
  0
LINE
  5
178
330
1F
100
AcDbEntity
  8
0
  6
Continuous
 62
     7
370
    25
100
AcDbLine
 10
139.7881058746
 20
83.0889506013
 30
0.0
 11
140.1634805719
 21
82.1241067797
 31
0.0
  0
LINE
  5
179
330
1F
100
AcDbEntity
  8
0
  6
Continuous
 62
     7
370
    25
100
AcDbLine
 10
143.7471554593
 20
142.5127010936
 30
0.0
 11
143.2603026762
 21
141.5990249304
 31
0.0
  0
LINE
  5
17A
330
1F
100
AcDbEntity
  8
0
  6
Continuous
 62
     7
370
    25
100
AcDbLine
 10
134.9546905328
 20
118.8503858635
 30
0.0
 11
134.875328943
 21
118.4921665949
 31
0.0
  0
LINE
  5
17B
330
1F
100
AcDbEntity
  8
0
  6
Continuous
 62
     7
370
    25
100
AcDbLine
 10
258.2387335526
 20
271.3259636672
 30
0.0
 11
257.2786156881
 21
271.6055592433
 31
0.0
  0
ARC
  5
17C
330
1F
100
AcDbEntity
  8
0
  6
Continuous
 62
     7
370
    25
100
AcDbCircle
 10
203.2658074571
 20
283.9925553022
 30
0.0
 40
55.61964535160983
100
AcDbArc
 50
318.8650433367
 51
319.572869932
  0
ARC
  5
17D
330
1F
100
AcDbEntity
  8
0
  6
Continuous
 62
     7
370
    25
100
AcDbCircle
 10
197.5727594158
 20
288.9877009553
 30
0.0
 40
63.18462931756466
100
AcDbArc
 50
334.4269331316
 51
343.7680919312
  0
LINE
  5
17E
330
1F
100
AcDbEntity
  8
0
  6
Continuous
 62
     7
370
    25
100
AcDbLine
 10
259.7305911271
 20
300.4116837467
 30
0.0
 11
258.7469052124
 21
300.2317892742
 31
0.0
  0
ARC
  5
17F
330
1F
100
AcDbEntity
  8
0
  6
Continuous
 62
     7
370
    25
100
AcDbCircle
 10
197.4632727273
 20
289.0243636364
 30
0.0
 40
63.29999999999308
100
AcDbArc
 50
343.7639310813
 51
10.3636131759
  0
LINE
  5
180
330
1F
100
AcDbEntity
  8
0
  6
Continuous
 62
     7
370
    25
100
AcDbLine
 10
134.1964302512
 20
286.9757926446
 30
0.0
 11
135.1959064357
 21
287.0081555354
 31
0.0
  0
LINE
  5
181
330
1F
100
AcDbEntity
  8
0
  6
Continuous
 62
     7
370
    25
100
AcDbLine
 10
135.5105308247
 20
276.0340683836
 30
0.0
 11
136.4892471265
 21
276.2392863181
 31
0.0
  0
ARC
  5
182
330
1F
100
AcDbEntity
  8
0
  6
Continuous
 62
     7
370
    25
100
AcDbCircle
 10
197.4632727273
 20
289.0243636364
 30
0.0
 40
63.29999999999992
100
AcDbArc
 50
181.8545808902
 51
191.8422570202
  0
LINE
  5
183
330
1F
100
AcDbEntity
  8
0
  6
Continuous
 62
     7
370
    25
100
AcDbLine
 10
136.5711955492
 20
306.3172794384
 30
0.0
 11
137.5331556942
 21
306.0440896153
 31
0.0
  0
ARC
  5
184
330
1F
100
AcDbEntity
  8
0
  6
Continuous
 62
     7
370
    25
100
AcDbCircle
 10
197.4632727273
 20
289.0243636364
 30
0.0
 40
63.29999999999912
100
AcDbArc
 50
164.1458316212
 51
181.8545808902
  0
LINE
  5
185
330
1F
100
AcDbEntity
  8
0
  6
Continuous
 62
     7
370
    25
100
AcDbLine
 10
144.7166977784
 20
324.019918085
 30
0.0
 11
143.9336610244
 21
322.6964794347
 31
0.0
  0
LWPOLYLINE
  5
186
330
1F
100
AcDbEntity
  8
0
  6
Continuous
 62
     7
370
    25
100
AcDbPolyline
 90
        3
 70
   128
 43
0.0
 10
139.1292572541
 20
313.480528018
 10
138.6725289956
 20
312.4879194513
 10
136.5711955919
 20
306.3172795888
  0
LINE
  5
187
330
1F
100
AcDbEntity
  8
0
  6
Continuous
 62
     7
370
    25
100
AcDbLine
 10
135.7309736664
 20
275.0238903352
 30
0.0
 11
136.7062074588
 21
275.2450668487
 31
0.0
  0
LINE
  5
188
330
1F
100
AcDbEntity
  8
0
  6
Continuous
 62
     7
370
    25
100
AcDbLine
 10
135.2354633027
 20
300.6256452129
 30
0.0
 11
135.2021985253
 21
300.3412235405
 31
0.0
  0
LINE
  5
189
330
1F
100
AcDbEntity
  8
0
  6
Continuous
 62
     7
370
    25
100
AcDbLine
 10
135.571010992
 20
276.0467499083
 30
0.0
 11
135.7309736664
 21
275.0238903352
 31
0.0
  0
LINE
  5
18A
330
1F
100
AcDbEntity
  8
0
  6
Continuous
 62
     7
370
    25
100
AcDbLine
 10
152.168413197
 20
333.2427500852
 30
0.0
 11
151.4971278299
 21
332.4545840371
 31
0.0
  0
LINE
  5
18B
330
1F
100
AcDbEntity
  8
0
  6
Continuous
 62
     7
370
    25
100
AcDbLine
 10
138.5109331104
 20
312.0133874189
 30
0.0
 11
138.3566731978
 21
311.6804862539
 31
0.0
  0
LINE
  5
18C
330
1F
100
AcDbEntity
  8
0
  6
Continuous
 62
     7
370
    25
100
AcDbLine
 10
218.8073952571
 20
385.9243636364
 30
0.0
 11
218.8073952571
 21
390.6279214693
 31
0.0
  0
LINE
  5
18D
330
1F
100
AcDbEntity
  8
0
  6
Continuous
 62
     7
370
    25
100
AcDbLine
 10
218.8073952571
 20
-168.335246614
 30
0.0
 11
218.8073952571
 21
-167.8756363636
 31
0.0
  0
LINE
  5
18E
330
1F
100
AcDbEntity
  8
0
  6
Continuous
 62
     7
370
    25
100
AcDbLine
 10
218.8073952571
 20
-172.5791941966
 30
0.0
 11
218.8073952571
 21
-168.335246614
 31
0.0
  0
LINE
  5
18F
330
1F
100
AcDbEntity
  8
0
  6
Continuous
 62
     7
370
    25
100
AcDbLine
 10
-491.5367272727
 20
521.0243636364
 30
0.0
 11
-492.0367272727
 21
521.0243636364
 31
0.0
  0
LINE
  5
190
330
1F
100
AcDbEntity
  8
0
  6
Continuous
 62
     7
370
    25
100
AcDbLine
 10
-465.7867272727
 20
533.5243636364
 30
0.0
 11
-487.2867272727
 21
533.5243636364
 31
0.0
  0
LINE
  5
191
330
1F
100
AcDbEntity
  8
0
  6
Continuous
 62
     7
370
    25
100
AcDbLine
 10
208.2132727273
 20
533.5243636364
 30
0.0
 11
186.7132727273
 21
533.5243636364
 31
0.0
  0
LINE
  5
192
330
1F
100
AcDbEntity
  8
0
  6
Continuous
 62
     7
370
    25
100
AcDbLine
 10
212.9632727273
 20
521.0243636364
 30
0.0
 11
212.4632727273
 21
521.0243636364
 31
0.0
  0
ARC
  5
193
330
1F
100
AcDbEntity
  8
0
  6
Continuous
 62
     7
370
    25
100
AcDbCircle
 10
-519.1671519907
 20
421.3939389184
 30
0.0
 40
2.740527303296687
100
AcDbArc
 50
180.0
 51
270.0
  0
LINE
  5
194
330
1F
100
AcDbEntity
  8
0
  6
Continuous
 62
     7
370
    25
100
AcDbLine
 10
-521.907679294
 20
506.6547883543
 30
0.0
 11
-521.907679294
 21
421.3939389184
 31
0.0
  0
ARC
  5
195
330
1F
100
AcDbEntity
  8
0
  6
Continuous
 62
     7
370
    25
100
AcDbCircle
 10
-519.1671519907
 20
506.6547883543
 30
0.0
 40
2.740527303296915
100
AcDbArc
 50
90.0
 51
180.0
  0
LINE
  5
196
330
1F
100
AcDbEntity
  8
0
  6
Continuous
 62
     7
370
    25
100
AcDbLine
 10
-433.9063025548
 20
509.3953156576
 30
0.0
 11
-519.1671519907
 21
509.3953156576
 31
0.0
  0
ARC
  5
197
330
1F
100
AcDbEntity
  8
0
  6
Continuous
 62
     7
370
    25
100
AcDbCircle
 10
-433.9063025548
 20
506.6547883543
 30
0.0
 40
2.740527303297199
100
AcDbArc
 50
0.0
 51
90.0
  0
LINE
  5
198
330
1F
100
AcDbEntity
  8
0
  6
Continuous
 62
     7
370
    25
100
AcDbLine
 10
-431.1657752515
 20
421.3939389184
 30
0.0
 11
-431.1657752515
 21
506.6547883543
 31
0.0
  0
ARC
  5
199
330
1F
100
AcDbEntity
  8
0
  6
Continuous
 62
     7
370
    25
100
AcDbCircle
 10
-433.9063025548
 20
421.3939389184
 30
0.0
 40
2.740527303297199
100
AcDbArc
 50
270.0
 51
360.0
  0
LINE
  5
19A
330
1F
100
AcDbEntity
  8
0
  6
Continuous
 62
     7
370
    25
100
AcDbLine
 10
-519.1671519907
 20
418.6534116151
 30
0.0
 11
-433.9063025548
 21
418.6534116151
 31
0.0
  0
LINE
  5
19B
330
1F
100
AcDbEntity
  8
0
  6
Continuous
 62
     7
370
    25
100
AcDbLine
 10
-518.5367272727
 20
511.5243636364
 30
0.0
 11
-434.5367272727
 21
511.5243636364
 31
0.0
  0
ARC
  5
19C
330
1F
100
AcDbEntity
  8
0
  6
Continuous
 62
     7
370
    25
100
AcDbCircle
 10
-436.4963915192
 20
509.7862341403
 30
0.0
 40
2.61942323880317
100
AcDbArc
 50
351.4172077991
 51
41.5715089093
  0
ARC
  5
19D
330
1F
100
AcDbEntity
  8
0
  6
Continuous
 62
     7
370
    25
100
AcDbCircle
 10
-516.5770630262
 20
509.7862341403
 30
0.0
 40
2.619423238803063
100
AcDbArc
 50
138.4284910907
 51
188.5827922009
  0
ARC
  5
19E
330
1F
100
AcDbEntity
  8
0
  6
Continuous
 62
     7
370
    25
100
AcDbCircle
 10
-522.2985977767
 20
423.9840278829
 30
0.0
 40
2.619423238804839
100
AcDbArc
 50
228.4284910908
 51
278.5827922009
  0
LINE
  5
19F
330
1F
100
AcDbEntity
  8
0
  6
Continuous
 62
     7
370
    25
100
AcDbLine
 10
-524.0367272727
 20
422.0243636364
 30
0.0
 11
-524.0367272727
 21
506.0243636364
 31
0.0
  0
ARC
  5
1A0
330
1F
100
AcDbEntity
  8
0
  6
Continuous
 62
     7
370
    25
100
AcDbCircle
 10
-522.2985977767
 20
504.0646993898
 30
0.0
 40
2.619423238804881
100
AcDbArc
 50
81.4172077991
 51
131.5715089092
  0
ARC
  5
1A1
330
1F
100
AcDbEntity
  8
0
  6
Continuous
 62
     7
370
    25
100
AcDbCircle
 10
-436.4963915192
 20
418.2624931324
 30
0.0
 40
2.619423238804139
100
AcDbArc
 50
318.4284910907
 51
8.5827922009
  0
LINE
  5
1A2
330
1F
100
AcDbEntity
  8
0
  6
Continuous
 62
     7
370
    25
100
AcDbLine
 10
-434.5367272727
 20
416.5243636364
 30
0.0
 11
-518.5367272727
 21
416.5243636364
 31
0.0
  0
ARC
  5
1A3
330
1F
100
AcDbEntity
  8
0
  6
Continuous
 62
     7
370
    25
100
AcDbCircle
 10
-516.5770630262
 20
418.2624931324
 30
0.0
 40
2.619423238804139
100
AcDbArc
 50
171.4172077991
 51
221.5715089093
  0
LINE
  5
1A4
330
1F
100
AcDbEntity
  8
0
  6
Continuous
 62
     7
370
    25
100
AcDbLine
 10
-429.0367272727
 20
506.0243636364
 30
0.0
 11
-429.0367272727
 21
422.0243636364
 31
0.0
  0
ARC
  5
1A5
330
1F
100
AcDbEntity
  8
0
  6
Continuous
 62
     7
370
    25
100
AcDbCircle
 10
-430.7748567687
 20
423.9840278829
 30
0.0
 40
2.619423238802114
100
AcDbArc
 50
261.4172077991
 51
311.5715089093
  0
ARC
  5
1A6
330
1F
100
AcDbEntity
  8
0
  6
Continuous
 62
     7
370
    25
100
AcDbCircle
 10
-430.7748567687
 20
504.0646993899
 30
0.0
 40
2.619423238802072
100
AcDbArc
 50
48.4284910907
 51
98.5827922009
  0
ARC
  5
1A7
330
1F
100
AcDbEntity
  8
0
  6
Continuous
 62
     7
370
    25
100
AcDbCircle
 10
-518.5367272727
 20
422.0243636364
 30
0.0
 40
5.500000000000284
100
AcDbArc
 50
180.0
 51
270.0
  0
ARC
  5
1A8
330
1F
100
AcDbEntity
  8
0
  6
Continuous
 62
     7
370
    25
100
AcDbCircle
 10
-434.5367272727
 20
506.0243636364
 30
0.0
 40
5.500000000000227
100
AcDbArc
 50
0.0
 51
90.0
  0
ARC
  5
1A9
330
1F
100
AcDbEntity
  8
0
  6
Continuous
 62
     7
370
    25
100
AcDbCircle
 10
-434.5367272727
 20
422.0243636364
 30
0.0
 40
5.499999999999943
100
AcDbArc
 50
270.0
 51
0.0
  0
ARC
  5
1AA
330
1F
100
AcDbEntity
  8
0
  6
Continuous
 62
     7
370
    25
100
AcDbCircle
 10
-518.5367272727
 20
506.0243636364
 30
0.0
 40
5.500000000000455
100
AcDbArc
 50
90.0
 51
180.0
  0
ARC
  5
1AB
330
1F
100
AcDbEntity
  8
0
  6
Continuous
 62
     7
370
    25
100
AcDbCircle
 10
240.0936974452
 20
506.6547883543
 30
0.0
 40
2.740527303296432
100
AcDbArc
 50
360.0
 51
90.0
  0
LINE
  5
1AC
330
1F
100
AcDbEntity
  8
0
  6
Continuous
 62
     7
370
    25
100
AcDbLine
 10
242.8342247485
 20
421.3939389184
 30
0.0
 11
242.8342247485
 21
506.6547883543
 31
0.0
  0
ARC
  5
1AD
330
1F
100
AcDbEntity
  8
0
  6
Continuous
 62
     7
370
    25
100
AcDbCircle
 10
240.0936974452
 20
421.3939389184
 30
0.0
 40
2.740527303296687
100
AcDbArc
 50
270.0
 51
0.0
  0
LINE
  5
1AE
330
1F
100
AcDbEntity
  8
0
  6
Continuous
 62
     7
370
    25
100
AcDbLine
 10
154.8328480093
 20
418.6534116151
 30
0.0
 11
240.0936974452
 21
418.6534116151
 31
0.0
  0
ARC
  5
1AF
330
1F
100
AcDbEntity
  8
0
  6
Continuous
 62
     7
370
    25
100
AcDbCircle
 10
154.8328480093
 20
421.3939389184
 30
0.0
 40
2.740527303297
100
AcDbArc
 50
180.0
 51
270.0
  0
LINE
  5
1B0
330
1F
100
AcDbEntity
  8
0
  6
Continuous
 62
     7
370
    25
100
AcDbLine
 10
152.092320706
 20
506.6547883543
 30
0.0
 11
152.092320706
 21
421.3939389184
 31
0.0
  0
ARC
  5
1B1
330
1F
100
AcDbEntity
  8
0
  6
Continuous
 62
     7
370
    25
100
AcDbCircle
 10
154.8328480093
 20
506.6547883543
 30
0.0
 40
2.740527303297029
100
AcDbArc
 50
90.0
 51
180.0
  0
LINE
  5
1B2
330
1F
100
AcDbEntity
  8
0
  6
Continuous
 62
     7
370
    25
100
AcDbLine
 10
240.0936974452
 20
509.3953156576
 30
0.0
 11
154.8328480093
 21
509.3953156576
 31
0.0
  0
LINE
  5
1B3
330
1F
100
AcDbEntity
  8
0
  6
Continuous
 62
     7
370
    25
100
AcDbLine
 10
149.9632727273
 20
422.0243636364
 30
0.0
 11
149.9632727273
 21
506.0243636364
 31
0.0
  0
ARC
  5
1B4
330
1F
100
AcDbEntity
  8
0
  6
Continuous
 62
     7
370
    25
100
AcDbCircle
 10
151.7014022233
 20
504.0646993899
 30
0.0
 40
2.619423238802322
100
AcDbArc
 50
81.4172077991
 51
131.5715089093
  0
ARC
  5
1B5
330
1F
100
AcDbEntity
  8
0
  6
Continuous
 62
     7
370
    25
100
AcDbCircle
 10
151.7014022233
 20
423.9840278829
 30
0.0
 40
2.619423238802469
100
AcDbArc
 50
228.4284910907
 51
278.5827922009
  0
ARC
  5
1B6
330
1F
100
AcDbEntity
  8
0
  6
Continuous
 62
     7
370
    25
100
AcDbCircle
 10
157.4229369738
 20
509.7862341403
 30
0.0
 40
2.619423238804243
100
AcDbArc
 50
138.4284910907
 51
188.5827922009
  0
LINE
  5
1B7
330
1F
100
AcDbEntity
  8
0
  6
Continuous
 62
     7
370
    25
100
AcDbLine
 10
155.4632727273
 20
511.5243636364
 30
0.0
 11
239.4632727273
 21
511.5243636364
 31
0.0
  0
ARC
  5
1B8
330
1F
100
AcDbEntity
  8
0
  6
Continuous
 62
     7
370
    25
100
AcDbCircle
 10
237.5036084808
 20
509.7862341403
 30
0.0
 40
2.619423238804271
100
AcDbArc
 50
351.4172077991
 51
41.5715089093
  0
LINE
  5
1B9
330
1F
100
AcDbEntity
  8
0
  6
Continuous
 62
     7
370
    25
100
AcDbLine
 10
239.4632727273
 20
416.5243636364
 30
0.0
 11
155.4632727273
 21
416.5243636364
 31
0.0
  0
ARC
  5
1BA
330
1F
100
AcDbEntity
  8
0
  6
Continuous
 62
     7
370
    25
100
AcDbCircle
 10
157.4229369738
 20
418.2624931324
 30
0.0
 40
2.619423238801986
100
AcDbArc
 50
171.4172077991
 51
221.5715089093
  0
ARC
  5
1BB
330
1F
100
AcDbEntity
  8
0
  6
Continuous
 62
     7
370
    25
100
AcDbCircle
 10
237.5036084808
 20
418.2624931324
 30
0.0
 40
2.61942323880205
100
AcDbArc
 50
318.4284910907
 51
8.5827922009
  0
ARC
  5
1BC
330
1F
100
AcDbEntity
  8
0
  6
Continuous
 62
     7
370
    25
100
AcDbCircle
 10
243.2251432313
 20
504.0646993898
 30
0.0
 40
2.619423238804654
100
AcDbArc
 50
48.4284910908
 51
98.5827922009
  0
LINE
  5
1BD
330
1F
100
AcDbEntity
  8
0
  6
Continuous
 62
     7
370
    25
100
AcDbLine
 10
244.9632727273
 20
506.0243636364
 30
0.0
 11
244.9632727273
 21
422.0243636364
 31
0.0
  0
ARC
  5
1BE
330
1F
100
AcDbEntity
  8
0
  6
Continuous
 62
     7
370
    25
100
AcDbCircle
 10
243.2251432313
 20
423.9840278829
 30
0.0
 40
2.619423238804857
100
AcDbArc
 50
261.4172077991
 51
311.5715089092
  0
ARC
  5
1BF
330
1F
100
AcDbEntity
  8
0
  6
Continuous
 62
     7
370
    25
100
AcDbCircle
 10
239.4632727273
 20
422.0243636364
 30
0.0
 40
5.499999999999886
100
AcDbArc
 50
270.0
 51
0.0
  0
ARC
  5
1C0
330
1F
100
AcDbEntity
  8
0
  6
Continuous
 62
     7
370
    25
100
AcDbCircle
 10
239.4632727273
 20
506.0243636364
 30
0.0
 40
5.500000000000057
100
AcDbArc
 50
0.0
 51
90.0
  0
ARC
  5
1C1
330
1F
100
AcDbEntity
  8
0
  6
Continuous
 62
     7
370
    25
100
AcDbCircle
 10
155.4632727273
 20
422.0243636364
 30
0.0
 40
5.500000000000227
100
AcDbArc
 50
180.0
 51
270.0
  0
ARC
  5
1C2
330
1F
100
AcDbEntity
  8
0
  6
Continuous
 62
     7
370
    25
100
AcDbCircle
 10
155.4632727273
 20
506.0243636364
 30
0.0
 40
5.499999999999773
100
AcDbArc
 50
90.0
 51
180.0
  0
ARC
  5
1C3
330
1F
100
AcDbEntity
  8
0
  6
Continuous
 62
     7
370
    25
100
AcDbCircle
 10
154.8328480093
 20
-288.6060610816
 30
0.0
 40
2.740527303296489
100
AcDbArc
 50
180.0
 51
270.0
  0
LINE
  5
1C4
330
1F
100
AcDbEntity
  8
0
  6
Continuous
 62
     7
370
    25
100
AcDbLine
 10
152.092320706
 20
-203.3452116457
 30
0.0
 11
152.092320706
 21
-288.6060610816
 31
0.0
  0
ARC
  5
1C5
330
1F
100
AcDbEntity
  8
0
  6
Continuous
 62
     7
370
    25
100
AcDbCircle
 10
154.8328480093
 20
-203.3452116457
 30
0.0
 40
2.740527303296631
100
AcDbArc
 50
90.0
 51
180.0
  0
LINE
  5
1C6
330
1F
100
AcDbEntity
  8
0
  6
Continuous
 62
     7
370
    25
100
AcDbLine
 10
240.0936974452
 20
-200.6046843424
 30
0.0
 11
154.8328480093
 21
-200.6046843424
 31
0.0
  0
ARC
  5
1C7
330
1F
100
AcDbEntity
  8
0
  6
Continuous
 62
     7
370
    25
100
AcDbCircle
 10
240.0936974452
 20
-203.3452116457
 30
0.0
 40
2.740527303297085
100
AcDbArc
 50
0.0
 51
90.0
  0
LINE
  5
1C8
330
1F
100
AcDbEntity
  8
0
  6
Continuous
 62
     7
370
    25
100
AcDbLine
 10
242.8342247485
 20
-288.6060610816
 30
0.0
 11
242.8342247485
 21
-203.3452116457
 31
0.0
  0
ARC
  5
1C9
330
1F
100
AcDbEntity
  8
0
  6
Continuous
 62
     7
370
    25
100
AcDbCircle
 10
240.0936974452
 20
-288.6060610816
 30
0.0
 40
2.740527303297085
100
AcDbArc
 50
270.0
 51
360.0
  0
LINE
  5
1CA
330
1F
100
AcDbEntity
  8
0
  6
Continuous
 62
     7
370
    25
100
AcDbLine
 10
154.8328480093
 20
-291.3465883849
 30
0.0
 11
240.0936974452
 21
-291.3465883849
 31
0.0
  0
ARC
  5
1CB
330
1F
100
AcDbEntity
  8
0
  6
Continuous
 62
     7
370
    25
100
AcDbCircle
 10
151.7014022233
 20
-286.0159721171
 30
0.0
 40
2.619423238805345
100
AcDbArc
 50
228.4284910908
 51
278.5827922009
  0
LINE
  5
1CC
330
1F
100
AcDbEntity
  8
0
  6
Continuous
 62
     7
370
    25
100
AcDbLine
 10
149.9632727273
 20
-287.9756363636
 30
0.0
 11
149.9632727273
 21
-203.9756363636
 31
0.0
  0
ARC
  5
1CD
330
1F
100
AcDbEntity
  8
0
  6
Continuous
 62
     7
370
    25
100
AcDbCircle
 10
151.7014022233
 20
-205.9353006102
 30
0.0
 40
2.619423238804734
100
AcDbArc
 50
81.4172077991
 51
131.5715089092
  0
LINE
  5
1CE
330
1F
100
AcDbEntity
  8
0
  6
Continuous
 62
     7
370
    25
100
AcDbLine
 10
155.4632727273
 20
-198.4756363636
 30
0.0
 11
239.4632727273
 21
-198.4756363636
 31
0.0
  0
ARC
  5
1CF
330
1F
100
AcDbEntity
  8
0
  6
Continuous
 62
     7
370
    25
100
AcDbCircle
 10
237.5036084808
 20
-200.2137658597
 30
0.0
 40
2.619423238802105
100
AcDbArc
 50
351.4172077991
 51
41.5715089093
  0
ARC
  5
1D0
330
1F
100
AcDbEntity
  8
0
  6
Continuous
 62
     7
370
    25
100
AcDbCircle
 10
157.4229369738
 20
-200.2137658597
 30
0.0
 40
2.619423238802105
100
AcDbArc
 50
138.4284910907
 51
188.5827922009
  0
ARC
  5
1D1
330
1F
100
AcDbEntity
  8
0
  6
Continuous
 62
     7
370
    25
100
AcDbCircle
 10
237.5036084808
 20
-291.7375068676
 30
0.0
 40
2.619423238804148
100
AcDbArc
 50
318.4284910907
 51
8.5827922009
  0
LINE
  5
1D2
330
1F
100
AcDbEntity
  8
0
  6
Continuous
 62
     7
370
    25
100
AcDbLine
 10
239.4632727273
 20
-293.4756363636
 30
0.0
 11
155.4632727273
 21
-293.4756363636
 31
0.0
  0
ARC
  5
1D3
330
1F
100
AcDbEntity
  8
0
  6
Continuous
 62
     7
370
    25
100
AcDbCircle
 10
157.4229369738
 20
-291.7375068676
 30
0.0
 40
2.61942323880414
100
AcDbArc
 50
171.4172077991
 51
221.5715089093
  0
LINE
  5
1D4
330
1F
100
AcDbEntity
  8
0
  6
Continuous
 62
     7
370
    25
100
AcDbLine
 10
244.9632727273
 20
-203.9756363636
 30
0.0
 11
244.9632727273
 21
-287.9756363636
 31
0.0
  0
ARC
  5
1D5
330
1F
100
AcDbEntity
  8
0
  6
Continuous
 62
     7
370
    25
100
AcDbCircle
 10
243.2251432313
 20
-286.0159721171
 30
0.0
 40
2.61942323880253
100
AcDbArc
 50
261.4172077991
 51
311.5715089093
  0
ARC
  5
1D6
330
1F
100
AcDbEntity
  8
0
  6
Continuous
 62
     7
370
    25
100
AcDbCircle
 10
243.2251432313
 20
-205.9353006101
 30
0.0
 40
2.619423238801781
100
AcDbArc
 50
48.4284910907
 51
98.5827922009
  0
ARC
  5
1D7
330
1F
100
AcDbEntity
  8
0
  6
Continuous
 62
     7
370
    25
100
AcDbCircle
 10
155.4632727273
 20
-287.9756363636
 30
0.0
 40
5.500000000000284
100
AcDbArc
 50
180.0
 51
270.0
  0
ARC
  5
1D8
330
1F
100
AcDbEntity
  8
0
  6
Continuous
 62
     7
370
    25
100
AcDbCircle
 10
155.4632727273
 20
-203.9756363636
 30
0.0
 40
5.500000000000085
100
AcDbArc
 50
90.0
 51
180.0
  0
ARC
  5
1D9
330
1F
100
AcDbEntity
  8
0
  6
Continuous
 62
     7
370
    25
100
AcDbCircle
 10
239.4632727273
 20
-287.9756363636
 30
0.0
 40
5.499999999999943
100
AcDbArc
 50
270.0
 51
0.0
  0
ARC
  5
1DA
330
1F
100
AcDbEntity
  8
0
  6
Continuous
 62
     7
370
    25
100
AcDbCircle
 10
239.4632727273
 20
-203.9756363636
 30
0.0
 40
5.500000000000199
100
AcDbArc
 50
0.0
 51
90.0
  0
CIRCLE
  5
1DB
330
1F
100
AcDbEntity
  8
0
  6
Continuous
 62
     7
370
    25
100
AcDbCircle
 10
-476.5367272727
 20
464.0243636364
 30
0.0
 40
8.60000000000008
  0
CIRCLE
  5
1DC
330
1F
100
AcDbEntity
  8
0
  6
Continuous
 62
     7
370
    25
100
AcDbCircle
 10
-476.5367272727
 20
464.0243636364
 30
0.0
 40
11.10000000000002
  0
CIRCLE
  5
1DD
330
1F
100
AcDbEntity
  8
0
  6
Continuous
 62
     7
370
    25
100
AcDbCircle
 10
197.4632727273
 20
-245.9756363636
 30
0.0
 40
8.599999999999994
  0
CIRCLE
  5
1DE
330
1F
100
AcDbEntity
  8
0
  6
Continuous
 62
     7
370
    25
100
AcDbCircle
 10
197.4632727273
 20
-245.9756363636
 30
0.0
 40
11.09999999999997
  0
CIRCLE
  5
1DF
330
1F
100
AcDbEntity
  8
0
  6
Continuous
 62
     7
370
    25
100
AcDbCircle
 10
197.4632727273
 20
464.0243636364
 30
0.0
 40
8.60000000000008
  0
CIRCLE
  5
1E0
330
1F
100
AcDbEntity
  8
0
  6
Continuous
 62
     7
370
    25
100
AcDbCircle
 10
197.4632727273
 20
464.0243636364
 30
0.0
 40
11.10000000000002
  0
LINE
  5
1E1
330
1F
100
AcDbEntity
  8
0
  6
Continuous
 62
     7
370
    25
100
AcDbLine
 10
208.1132727273
 20
-296.2256363636
 30
0.0
 11
186.8132727273
 21
-296.2256363636
 31
0.0
  0
LINE
  5
1E2
330
1F
100
AcDbEntity
  8
0
  6
Continuous
 62
     7
370
    25
100
AcDbLine
 10
244.9632727273
 20
504.0243636364
 30
0.0
 11
245.9632727273
 21
504.0243636364
 31
0.0
  0
LINE
  5
1E3
330
1F
100
AcDbEntity
  8
0
  6
Continuous
 62
     7
370
    25
100
AcDbLine
 10
237.9632727273
 20
511.5243636364
 30
0.0
 11
237.9632727273
 21
512.0243636364
 31
0.0
  0
LINE
  5
1E4
330
1F
100
AcDbEntity
  8
0
  6
Continuous
 62
     7
370
    25
100
AcDbLine
 10
149.9632727273
 20
504.0243636364
 30
0.0
 11
148.9632727273
 21
504.0243636364
 31
0.0
  0
LINE
  5
1E5
330
1F
100
AcDbEntity
  8
0
  6
Continuous
 62
     7
370
    25
100
AcDbLine
 10
244.9632727273
 20
-285.9756363636
 30
0.0
 11
245.9632727273
 21
-285.9756363636
 31
0.0
  0
LINE
  5
1E6
330
1F
100
AcDbEntity
  8
0
  6
Continuous
 62
     7
370
    25
100
AcDbLine
 10
237.9632727273
 20
-293.4756363636
 30
0.0
 11
237.9632727273
 21
-293.9756363636
 31
0.0
  0
LINE
  5
1E7
330
1F
100
AcDbEntity
  8
0
  6
Continuous
 62
     7
370
    25
100
AcDbLine
 10
156.9632727273
 20
-293.4756363636
 30
0.0
 11
156.9632727273
 21
-293.9756363636
 31
0.0
  0
LINE
  5
1E8
330
1F
100
AcDbEntity
  8
0
  6
Continuous
 62
     7
370
    25
100
AcDbLine
 10
149.9632727273
 20
-285.9756363636
 30
0.0
 11
148.9632727273
 21
-285.9756363636
 31
0.0
  0
LINE
  5
1E9
330
1F
100
AcDbEntity
  8
0
  6
Continuous
 62
     7
370
    25
100
AcDbLine
 10
198.9362362806
 20
512.0243636364
 30
0.0
 11
198.9289499842
 21
511.5243636364
 31
0.0
  0
LINE
  5
1EA
330
1F
100
AcDbEntity
  8
0
  6
Continuous
 62
     7
370
    25
100
AcDbLine
 10
-473.8387373387
 20
512.0243636364
 30
0.0
 11
-473.8402017253
 21
511.5243636364
 31
0.0
  0
LINE
  5
1EB
330
1F
100
AcDbEntity
  8
0
  6
Continuous
 62
     7
370
    25
100
AcDbLine
 10
192.178137171
 20
-194.9756363636
 30
0.0
 11
192.178137171
 21
-198.4756363636
 31
0.0
  0
LINE
  5
1EC
330
1F
100
AcDbEntity
  8
0
  6
Continuous
 62
     7
370
    25
100
AcDbLine
 10
202.7484082835
 20
-194.9756363636
 30
0.0
 11
202.7484082835
 21
-198.4756363636
 31
0.0
  0
LINE
  5
1ED
330
1F
100
AcDbEntity
  8
0
  6
Continuous
 62
     7
370
    25
100
AcDbLine
 10
221.9632727273
 20
-194.9756363636
 30
0.0
 11
202.7484082835
 21
-194.9756363636
 31
0.0
  0
LINE
  5
1EE
330
1F
100
AcDbEntity
  8
0
  6
Continuous
 62
     7
370
    25
100
AcDbLine
 10
192.178137171
 20
-194.9756363636
 30
0.0
 11
172.9632727273
 21
-194.9756363636
 31
0.0
  0
LINE
  5
1EF
330
1F
100
AcDbEntity
  8
0
  6
Continuous
 62
     7
370
    25
100
AcDbLine
 10
175.2414201659
 20
-193.0105358603
 30
0.0
 11
219.6851252886
 21
-193.0105358603
 31
0.0
  0
LINE
  5
1F0
330
1F
100
AcDbEntity
  8
0
  6
Continuous
 62
     7
370
    25
100
AcDbLine
 10
197.4632727273
 20
-156.9407368669
 30
0.0
 11
176.5010053022
 21
-156.9407368669
 31
0.0
  0
LINE
  5
1F1
330
1F
100
AcDbEntity
  8
0
  6
Continuous
 62
     7
370
    25
100
AcDbLine
 10
218.4255401524
 20
-156.9407368669
 30
0.0
 11
197.4632727273
 21
-156.9407368669
 31
0.0
  0
LINE
  5
1F2
330
1F
100
AcDbEntity
  8
0
  6
Continuous
 62
     7
370
    25
100
AcDbLine
 10
202.7484082835
 20
413.0243636364
 30
0.0
 11
202.7484082835
 21
416.5243636364
 31
0.0
  0
LINE
  5
1F3
330
1F
100
AcDbEntity
  8
0
  6
Continuous
 62
     7
370
    25
100
AcDbLine
 10
192.178137171
 20
413.0243636364
 30
0.0
 11
192.178137171
 21
416.5243636364
 31
0.0
  0
LINE
  5
1F4
330
1F
100
AcDbEntity
  8
0
  6
Continuous
 62
     7
370
    25
100
AcDbLine
 10
172.9632727273
 20
413.0243636364
 30
0.0
 11
192.178137171
 21
413.0243636364
 31
0.0
  0
LINE
  5
1F5
330
1F
100
AcDbEntity
  8
0
  6
Continuous
 62
     7
370
    25
100
AcDbLine
 10
202.7484082835
 20
413.0243636364
 30
0.0
 11
221.9632727273
 21
413.0243636364
 31
0.0
  0
LINE
  5
1F6
330
1F
100
AcDbEntity
  8
0
  6
Continuous
 62
     7
370
    25
100
AcDbLine
 10
197.4632727273
 20
411.0592631331
 30
0.0
 11
175.2414201659
 21
411.0592631331
 31
0.0
  0
LINE
  5
1F7
330
1F
100
AcDbEntity
  8
0
  6
Continuous
 62
     7
370
    25
100
AcDbLine
 10
219.6851252886
 20
411.0592631331
 30
0.0
 11
197.4632727273
 21
411.0592631331
 31
0.0
  0
LINE
  5
1F8
330
1F
100
AcDbEntity
  8
0
  6
Continuous
 62
     7
370
    25
100
AcDbLine
 10
176.5010053022
 20
374.9894641397
 30
0.0
 11
218.4255401524
 21
374.9894641397
 31
0.0
  0
ARC
  5
1F9
330
1F
100
AcDbEntity
  8
0
  6
Continuous
 62
     7
370
    25
100
AcDbCircle
 10
197.4632727273
 20
109.0243636364
 30
0.0
 40
59.4747723228306
100
AcDbArc
 50
222.5839696099
 51
252.8878858175
  0
ARC
  5
1FA
330
1F
100
AcDbEntity
  8
0
  6
Continuous
 62
     7
370
    25
100
AcDbCircle
 10
197.4632727273
 20
109.0243636364
 30
0.0
 40
59.47477232283059
100
AcDbArc
 50
287.1121141825
 51
72.8878858175
  0
ARC
  5
1FB
330
1F
100
AcDbEntity
  8
0
  6
Continuous
 62
     7
370
    25
100
AcDbCircle
 10
197.4632727273
 20
109.0243636364
 30
0.0
 40
59.4747723228306
100
AcDbArc
 50
107.1121141825
 51
222.5839696099
  0
LWPOLYLINE
  5
1FC
330
1F
100
AcDbEntity
  8
0
  6
Continuous
 62
     7
370
    25
100
AcDbPolyline
 90
        3
 70
   128
 43
0.0
 10
219.8854089758
 20
-15.8893735669
 10
215.549216443
 20
-14.3174755855
 10
214.9632727273
 20
-14.1337632167
  0
ARC
  5
1FD
330
1F
100
AcDbEntity
  8
0
  6
Continuous
 62
     7
370
    25
100
AcDbCircle
 10
197.4632727273
 20
-70.9756363636
 30
0.0
 40
59.47477232283059
100
AcDbArc
 50
107.1121141825
 51
252.8878858175
  0
ARC
  5
1FE
330
1F
100
AcDbEntity
  8
0
  6
Continuous
 62
     7
370
    25
100
AcDbCircle
 10
197.4632727273
 20
-70.9756363636
 30
0.0
 40
59.47477232283057
100
AcDbArc
 50
287.1121141825
 51
67.8518679163
  0
ARC
  5
1FF
330
1F
100
AcDbEntity
  8
0
  6
Continuous
 62
     7
370
    25
100
AcDbCircle
 10
197.4632727273
 20
289.0243636364
 30
0.0
 40
59.47477232283065
100
AcDbArc
 50
219.7871961827
 51
252.8878858175
  0
ARC
  5
200
330
1F
100
AcDbEntity
  8
0
  6
Continuous
 62
     7
370
    25
100
AcDbCircle
 10
197.4632727273
 20
289.0243636364
 30
0.0
 40
59.47477232283061
100
AcDbArc
 50
287.1121141825
 51
72.8878858175
  0
ARC
  5
201
330
1F
100
AcDbEntity
  8
0
  6
Continuous
 62
     7
370
    25
100
AcDbCircle
 10
197.4632727273
 20
289.0243636364
 30
0.0
 40
59.47477232283065
100
AcDbArc
 50
107.1121141825
 51
219.7871961827
  0
LINE
  5
202
330
1F
100
AcDbEntity
  8
0
  6
Continuous
 62
     7
370
    25
100
AcDbLine
 10
-461.0367272727
 20
522.0243636364
 30
0.0
 11
-492.0367272727
 21
522.0243636364
 31
0.0
  0
LINE
  5
203
330
1F
100
AcDbEntity
  8
0
  6
Continuous
 62
     7
370
    25
100
AcDbLine
 10
212.9632727273
 20
522.0243636364
 30
0.0
 11
181.9632727273
 21
522.0243636364
 31
0.0
  0
LINE
  5
204
330
1F
100
AcDbEntity
  8
0
  6
Continuous
 62
     7
370
    25
100
AcDbLine
 10
-465.7867272727
 20
534.1095136553
 30
0.0
 11
-487.2867272727
 21
534.1095136553
 31
0.0
  0
LINE
  5
205
330
1F
100
AcDbEntity
  8
0
  6
Continuous
 62
     7
370
    25
100
AcDbLine
 10
-466.1788109172
 20
534.6723375968
 30
0.0
 11
-486.8946436282
 21
534.6723375968
 31
0.0
  0
LINE
  5
206
330
1F
100
AcDbEntity
  8
0
  6
Continuous
 62
     7
370
    25
100
AcDbLine
 10
208.2132727273
 20
534.1095136553
 30
0.0
 11
186.7132727273
 21
534.1095136553
 31
0.0
  0
LINE
  5
207
330
1F
100
AcDbEntity
  8
0
  6
Continuous
 62
     7
370
    25
100
AcDbLine
 10
207.8211890828
 20
534.6723375968
 30
0.0
 11
187.1053563718
 21
534.6723375968
 31
0.0
  0
ENDSEC
  0
SECTION
  2
OBJECTS
  0
DICTIONARY
  5
C
330
0
100
AcDbDictionary
281
     1
  3
ACAD_GROUP
350
D
  3
ACAD_LAYOUT
350
1A
  3
ACAD_MLINESTYLE
350
17
  3
ACAD_PLOTSETTINGS
350
19
  3
ACAD_PLOTSTYLENAME
350
E
  3
ACAD_SCALELIST
350
47
  3
DWGPROPS
350
208
  0
DICTIONARY
  5
D
102
{ACAD_REACTORS
330
C
102
}
330
C
100
AcDbDictionary
281
     1
  0
DICTIONARY
  5
1A
102
{ACAD_REACTORS
330
C
102
}
330
C
100
AcDbDictionary
281
     1
  3
Layout1
350
1E
  3
Layout2
350
26
  3
Model
350
22
  0
DICTIONARY
  5
17
102
{ACAD_REACTORS
330
C
102
}
330
C
100
AcDbDictionary
281
     1
  3
Standard
350
18
  0
DICTIONARY
  5
19
102
{ACAD_REACTORS
330
C
102
}
330
C
100
AcDbDictionary
281
     1
  0
ACDBDICTIONARYWDFLT
  5
E
102
{ACAD_REACTORS
330
C
102
}
330
C
100
AcDbDictionary
281
     1
  3
Normal
350
F
100
AcDbDictionaryWithDefault
340
F
  0
DICTIONARY
  5
47
102
{ACAD_REACTORS
330
C
102
}
330
C
100
AcDbDictionary
281
     1
  3
A0
350
48
  3
A1
350
49
  3
A2
350
4A
  3
A3
350
4B
  3
A4
350
4C
  3
A5
350
4D
  3
A6
350
4E
  3
A7
350
4F
  3
A8
350
50
  3
A9
350
51
  3
B0
350
52
  3
B1
350
53
  3
B2
350
54
  3
B3
350
55
  3
B4
350
56
  3
B5
350
57
  3
B6
350
58
  0
XRECORD
  5
208
102
{ACAD_REACTORS
330
C
102
}
330
C
100
AcDbXrecord
280
     1
  1
DWGPROPS COOKIE
  2

  3

  4

  6

  7

  8
Swing
  9

300
=
301
=
302
=
303
=
304
=
305
=
306
=
307
=
308
=
309
=
 40
0.0
 41
2460014.357313657
 42
2460014.357314005
  1

 90
        0
  0
LAYOUT
  5
1E
102
{ACAD_REACTORS
330
1A
102
}
330
1A
100
AcDbPlotSettings
  1

  2
none_device
  4

  6

 40
0.0
 41
0.0
 42
0.0
 43
0.0
 44
0.0
 45
0.0
 46
0.0
 47
0.0
 48
0.0
 49
0.0
140
0.0
141
0.0
142
1.0
143
1.0
 70
   688
 72
     1
 73
     0
 74
     5
  7

 75
    16
147
1.0
148
0.0
149
0.0
100
AcDbLayout
  1
Layout1
 70
     1
 71
     1
 10
0.0
 20
0.0
 11
420.0
 21
297.0
 12
0.0
 22
0.0
 32
0.0
 14
1.0000000000E+20
 24
1.0000000000E+20
 34
1.0000000000E+20
 15
-1.0000000000E+20
 25
-1.0000000000E+20
 35
-1.0000000000E+20
146
0.0
 13
0.0
 23
0.0
 33
0.0
 16
1.0
 26
0.0
 36
0.0
 17
0.0
 27
1.0
 37
0.0
 76
     0
330
1B
  0
LAYOUT
  5
26
102
{ACAD_REACTORS
330
1A
102
}
330
1A
100
AcDbPlotSettings
  1

  2
none_device
  4

  6

 40
0.0
 41
0.0
 42
0.0
 43
0.0
 44
0.0
 45
0.0
 46
0.0
 47
0.0
 48
0.0
 49
0.0
140
0.0
141
0.0
142
1.0
143
1.0
 70
   688
 72
     1
 73
     0
 74
     5
  7

 75
    16
147
1.0
148
0.0
149
0.0
100
AcDbLayout
  1
Layout2
 70
     1
 71
     2
 10
0.0
 20
0.0
 11
0.0
 21
0.0
 12
0.0
 22
0.0
 32
0.0
 14
0.0
 24
0.0
 34
0.0
 15
0.0
 25
0.0
 35
0.0
146
0.0
 13
0.0
 23
0.0
 33
0.0
 16
1.0
 26
0.0
 36
0.0
 17
0.0
 27
1.0
 37
0.0
 76
     0
330
23
  0
LAYOUT
  5
22
102
{ACAD_REACTORS
330
1A
102
}
330
1A
100
AcDbPlotSettings
  1

  2
none_device
  4
Letter_(8.50_x_11.00_Inches)
  6

 40
6.35
 41
6.35
 42
6.35000508
 43
6.35000508
 44
215.9
 45
279.4
 46
0.0
 47
0.0
 48
0.0
 49
0.0
140
0.0
141
0.0
142
1.0
143
1.0
 70
  1712
 72
     1
 73
     0
 74
     0
  7

 75
     0
147
1.0
148
0.0
149
0.0
100
AcDbLayout
  1
Model
 70
     1
 71
     0
 10
0.0
 20
0.0
 11
297.0
 21
210.0
 12
0.0
 22
0.0
 32
0.0
 14
0.0
 24
0.0
 34
0.0
 15
297.0
 25
210.0
 35
0.0
146
0.0
 13
0.0
 23
0.0
 33
0.0
 16
1.0
 26
0.0
 36
0.0
 17
0.0
 27
1.0
 37
0.0
 76
     0
330
1F
331
29
  0
MLINESTYLE
  5
18
102
{ACAD_REACTORS
330
17
102
}
330
17
100
AcDbMlineStyle
  2
Standard
 70
     0
  3

 62
   256
 51
90.0
 52
90.0
 71
     2
 49
0.5
 62
   256
  6
BYLAYER
 49
-0.5
 62
   256
  6
BYLAYER
  0
ACDBPLACEHOLDER
  5
F
102
{ACAD_REACTORS
330
E
102
}
330
E
  0
SCALE
  5
48
102
{ACAD_REACTORS
330
47
102
}
330
47
100
AcDbScale
 70
     0
300
1:1
140
1.0
141
1.0
290
     1
  0
SCALE
  5
49
102
{ACAD_REACTORS
330
47
102
}
330
47
100
AcDbScale
 70
     0
300
1:2
140
1.0
141
2.0
290
     0
  0
SCALE
  5
4A
102
{ACAD_REACTORS
330
47
102
}
330
47
100
AcDbScale
 70
     0
300
1:4
140
1.0
141
4.0
290
     0
  0
SCALE
  5
4B
102
{ACAD_REACTORS
330
47
102
}
330
47
100
AcDbScale
 70
     0
300
1:5
140
1.0
141
5.0
290
     0
  0
SCALE
  5
4C
102
{ACAD_REACTORS
330
47
102
}
330
47
100
AcDbScale
 70
     0
300
1:8
140
1.0
141
8.0
290
     0
  0
SCALE
  5
4D
102
{ACAD_REACTORS
330
47
102
}
330
47
100
AcDbScale
 70
     0
300
1:10
140
1.0
141
10.0
290
     0
  0
SCALE
  5
4E
102
{ACAD_REACTORS
330
47
102
}
330
47
100
AcDbScale
 70
     0
300
1:16
140
1.0
141
16.0
290
     0
  0
SCALE
  5
4F
102
{ACAD_REACTORS
330
47
102
}
330
47
100
AcDbScale
 70
     0
300
1:20
140
1.0
141
20.0
290
     0
  0
SCALE
  5
50
102
{ACAD_REACTORS
330
47
102
}
330
47
100
AcDbScale
 70
     0
300
1:30
140
1.0
141
30.0
290
     0
  0
SCALE
  5
51
102
{ACAD_REACTORS
330
47
102
}
330
47
100
AcDbScale
 70
     0
300
1:40
140
1.0
141
40.0
290
     0
  0
SCALE
  5
52
102
{ACAD_REACTORS
330
47
102
}
330
47
100
AcDbScale
 70
     0
300
1:50
140
1.0
141
50.0
290
     0
  0
SCALE
  5
53
102
{ACAD_REACTORS
330
47
102
}
330
47
100
AcDbScale
 70
     0
300
1:100
140
1.0
141
100.0
290
     0
  0
SCALE
  5
54
102
{ACAD_REACTORS
330
47
102
}
330
47
100
AcDbScale
 70
     0
300
2:1
140
2.0
141
1.0
290
     0
  0
SCALE
  5
55
102
{ACAD_REACTORS
330
47
102
}
330
47
100
AcDbScale
 70
     0
300
4:1
140
4.0
141
1.0
290
     0
  0
SCALE
  5
56
102
{ACAD_REACTORS
330
47
102
}
330
47
100
AcDbScale
 70
     0
300
8:1
140
8.0
141
1.0
290
     0
  0
SCALE
  5
57
102
{ACAD_REACTORS
330
47
102
}
330
47
100
AcDbScale
 70
     0
300
10:1
140
10.0
141
1.0
290
     0
  0
SCALE
  5
58
102
{ACAD_REACTORS
330
47
102
}
330
47
100
AcDbScale
 70
     0
300
100:1
140
100.0
141
1.0
290
     0
  0
ENDSEC
  0
EOF
