  0
SECTION
  2
HEADER
  9
$ACADVER
  1
AC1015
  9
$ACADMAINTVER
 70
     6
  9
$DWGCODEPAGE
  3
ANSI_1250
  9
$INSBASE
 10
0.0
 20
0.0
 30
0.0
  9
$EXTMIN
 10
0.0
 20
0.0
 30
0.0
  9
$EXTMAX
 10
431.8
 20
279.4
 30
0.0
  9
$LIMMIN
 10
0.0
 20
0.0
  9
$LIMMAX
 10
431.8
 20
279.4
  9
$ORTHOMODE
 70
     0
  9
$REGENMODE
 70
     1
  9
$FILLMODE
 70
     1
  9
$QTEXTMODE
 70
     0
  9
$MIRRTEXT
 70
     1
  9
$LTSCALE
 40
1.0
  9
$ATTMODE
 70
     1
  9
$TEXTSIZE
 40
3.8805555556
  9
$TRACEWID
 40
1.0
  9
$TEXTSTYLE
  7
Standard
  9
$CLAYER
  8
0
  9
$CELTYPE
  6
ByLayer
  9
$CECOLOR
 62
   256
  9
$CELTSCALE
 40
1.0
  9
$DISPSILH
 70
     0
  9
$DIMSCALE
 40
1.0
  9
$DIMASZ
 40
3.302
  9
$DIMEXO
 40
1.0
  9
$DIMDLI
 40
3.75
  9
$DIMRND
 40
0.0
  9
$DIMDLE
 40
0.0
  9
$DIMEXE
 40
1.0
  9
$DIMTP
 40
0.0
  9
$DIMTM
 40
0.0
  9
$DIMTXT
 40
3.8805555556
  9
$DIMCEN
 40
2.5
  9
$DIMTSZ
 40
0.0
  9
$DIMTOL
 70
     0
  9
$DIMLIM
 70
     0
  9
$DIMTIH
 70
     1
  9
$DIMTOH
 70
     1
  9
$DIMSE1
 70
     0
  9
$DIMSE2
 70
     0
  9
$DIMTAD
 70
     1
  9
$DIMZIN
 70
     0
  9
$DIMBLK
  1

  9
$DIMASO
 70
     1
  9
$DIMSHO
 70
     1
  9
$DIMPOST
  1

  9
$DIMAPOST
  1

  9
$DIMALT
 70
     0
  9
$DIMALTD
 70
     3
  9
$DIMALTF
 40
0.0393700787
  9
$DIMLFAC
 40
1.0
  9
$DIMTOFL
 70
     1
  9
$DIMTVP
 40
0.0
  9
$DIMTIX
 70
     0
  9
$DIMSOXD
 70
     0
  9
$DIMSAH
 70
     0
  9
$DIMBLK1
  1

  9
$DIMBLK2
  1

  9
$DIMSTYLE
  2
ISO-25
  9
$DIMCLRD
 70
     0
  9
$DIMCLRE
 70
     0
  9
$DIMCLRT
 70
     0
  9
$DIMTFAC
 40
1.0
  9
$DIMGAP
 40
1.524
  9
$DIMJUST
 70
     0
  9
$DIMSD1
 70
     0
  9
$DIMSD2
 70
     0
  9
$DIMTOLJ
 70
     0
  9
$DIMTZIN
 70
     0
  9
$DIMALTZ
 70
     0
  9
$DIMALTTZ
 70
     0
  9
$DIMUPT
 70
     0
  9
$DIMDEC
 70
     1
  9
$DIMTDEC
 70
     1
  9
$DIMALTU
 70
     2
  9
$DIMALTTD
 70
     3
  9
$DIMTXSTY
  7
Standard
  9
$DIMAUNIT
 70
     0
  9
$DIMADEC
 70
     1
  9
$DIMALTRND
 40
0.0
  9
$DIMAZIN
 70
     0
  9
$DIMDSEP
 70
    44
  9
$DIMATFIT
 70
     3
  9
$DIMFRAC
 70
     0
  9
$DIMLDRBLK
  1

  9
$DIMLUNIT
 70
     2
  9
$DIMLWD
 70
    -2
  9
$DIMLWE
 70
    -2
  9
$DIMTMOVE
 70
     0
  9
$LUNITS
 70
     2
  9
$LUPREC
 70
     1
  9
$SKETCHINC
 40
1.0
  9
$FILLETRAD
 40
10.0
  9
$AUNITS
 70
     0
  9
$AUPREC
 70
     1
  9
$MENU
  1
.
  9
$ELEVATION
 40
0.0
  9
$PELEVATION
 40
0.0
  9
$THICKNESS
 40
0.0
  9
$LIMCHECK
 70
     0
  9
$CHAMFERA
 40
0.0
  9
$CHAMFERB
 40
0.0
  9
$CHAMFERC
 40
0.0
  9
$CHAMFERD
 40
0.0
  9
$SKPOLY
 70
     0
  9
$TDCREATE
 40
2459730.455363669
  9
$TDUCREATE
 40
2459730.372030335
  9
$TDUPDATE
 40
2459730.455364282
  9
$TDUUPDATE
 40
2459730.372030949
  9
$TDINDWG
 40
0.0000000116
  9
$TDUSRTIMER
 40
0.0000000116
  9
$USRTIMER
 70
     1
  9
$ANGBASE
 50
0.0
  9
$ANGDIR
 70
     0
  9
$PDMODE
 70
     0
  9
$PDSIZE
 40
-1.0
  9
$PLINEWID
 40
0.0
  9
$SPLFRAME
 70
     0
  9
$SPLINETYPE
 70
     6
  9
$SPLINESEGS
 70
     8
  9
$HANDSEED
  5
4DC
  9
$SURFTAB1
 70
     6
  9
$SURFTAB2
 70
     6
  9
$SURFTYPE
 70
     6
  9
$SURFU
 70
     6
  9
$SURFV
 70
     6
  9
$UCSBASE
  2

  9
$UCSNAME
  2

  9
$UCSORG
 10
0.0
 20
0.0
 30
0.0
  9
$UCSXDIR
 10
1.0
 20
0.0
 30
0.0
  9
$UCSYDIR
 10
0.0
 20
1.0
 30
0.0
  9
$UCSORTHOREF
  2

  9
$UCSORTHOVIEW
 70
     0
  9
$UCSORGTOP
 10
0.0
 20
0.0
 30
0.0
  9
$UCSORGBOTTOM
 10
0.0
 20
0.0
 30
0.0
  9
$UCSORGLEFT
 10
0.0
 20
0.0
 30
0.0
  9
$UCSORGRIGHT
 10
0.0
 20
0.0
 30
0.0
  9
$UCSORGFRONT
 10
0.0
 20
0.0
 30
0.0
  9
$UCSORGBACK
 10
0.0
 20
0.0
 30
0.0
  9
$PUCSBASE
  2

  9
$PUCSNAME
  2

  9
$PUCSORG
 10
0.0
 20
0.0
 30
0.0
  9
$PUCSXDIR
 10
1.0
 20
0.0
 30
0.0
  9
$PUCSYDIR
 10
0.0
 20
1.0
 30
0.0
  9
$PUCSORTHOREF
  2

  9
$PUCSORTHOVIEW
 70
     0
  9
$PUCSORGTOP
 10
0.0
 20
0.0
 30
0.0
  9
$PUCSORGBOTTOM
 10
0.0
 20
0.0
 30
0.0
  9
$PUCSORGLEFT
 10
0.0
 20
0.0
 30
0.0
  9
$PUCSORGRIGHT
 10
0.0
 20
0.0
 30
0.0
  9
$PUCSORGFRONT
 10
0.0
 20
0.0
 30
0.0
  9
$PUCSORGBACK
 10
0.0
 20
0.0
 30
0.0
  9
$USERI1
 70
     0
  9
$USERI2
 70
     0
  9
$USERI3
 70
     0
  9
$USERI4
 70
     0
  9
$USERI5
 70
     0
  9
$USERR1
 40
0.0
  9
$USERR2
 40
0.0
  9
$USERR3
 40
0.0
  9
$USERR4
 40
0.0
  9
$USERR5
 40
0.0
  9
$WORLDVIEW
 70
     1
  9
$SHADEDGE
 70
     3
  9
$SHADEDIF
 70
    70
  9
$TILEMODE
 70
     1
  9
$MAXACTVP
 70
    64
  9
$PINSBASE
 10
0.0
 20
0.0
 30
0.0
  9
$PLIMCHECK
 70
     0
  9
$PEXTMIN
 10
1.0000000000E+20
 20
1.0000000000E+20
 30
1.0000000000E+20
  9
$PEXTMAX
 10
-1.0000000000E+20
 20
-1.0000000000E+20
 30
-1.0000000000E+20
  9
$PLIMMIN
 10
0.0
 20
0.0
  9
$PLIMMAX
 10
420.0
 20
297.0
  9
$UNITMODE
 70
     0
  9
$VISRETAIN
 70
     1
  9
$PLINEGEN
 70
     0
  9
$PSLTSCALE
 70
     1
  9
$TREEDEPTH
 70
  3020
  9
$CMLSTYLE
  2
Standard
  9
$CMLJUST
 70
     0
  9
$CMLSCALE
 40
20.0
  9
$PROXYGRAPHICS
 70
     1
  9
$MEASUREMENT
 70
     1
  9
$CELWEIGHT
370
    -1
  9
$ENDCAPS
280
     0
  9
$JOINSTYLE
280
     0
  9
$LWDISPLAY
290
     1
  9
$INSUNITS
 70
     4
  9
$HYPERLINKBASE
  1

  9
$STYLESHEET
  1

  9
$XEDIT
290
     1
  9
$CEPSNTYPE
380
     0
  9
$PSTYLEMODE
290
     1
  9
$FINGERPRINTGUID
  2
{7384249f-f51d-44a4-ad76-45878f1646ac}
  9
$VERSIONGUID
  2
{FAEB1C32-E019-11D5-929B-00C0DF256EC4}
  9
$EXTNAMES
290
     1
  9
$PSVPSCALE
 40
0.0
  9
$OLESTARTUP
290
     0
  0
ENDSEC
  0
SECTION
  2
CLASSES
  0
CLASS
  1
ACDBDICTIONARYWDFLT
  2
AcDbDictionaryWithDefault
  3
ObjectDBX Classes
 90
        0
280
     0
281
     0
  0
CLASS
  1
VISUALSTYLE
  2
AcDbVisualStyle
  3
ObjectDBX Classes
 90
     4095
280
     0
281
     0
  0
CLASS
  1
MATERIAL
  2
AcDbMaterial
  3
ObjectDBX Classes
 90
     1153
280
     0
281
     0
  0
CLASS
  1
SCALE
  2
AcDbScale
  3
ObjectDBX Classes
 90
     1153
280
     0
281
     0
  0
CLASS
  1
TABLESTYLE
  2
AcDbTableStyle
  3
ObjectDBX Classes
 90
     4095
280
     0
281
     0
  0
CLASS
  1
MLEADERSTYLE
  2
AcDbMLeaderStyle
  3
ACDB_MLEADERSTYLE_CLASS
 90
     4095
280
     0
281
     0
  0
CLASS
  1
SUN
  2
AcDbSun
  3
SCENEOE
 90
     1153
280
     0
281
     0
  0
CLASS
  1
ACDBPLACEHOLDER
  2
AcDbPlaceHolder
  3
ObjectDBX Classes
 90
        0
280
     0
281
     0
  0
CLASS
  1
LAYOUT
  2
AcDbLayout
  3
ObjectDBX Classes
 90
        0
280
     0
281
     0
  0
ENDSEC
  0
SECTION
  2
TABLES
  0
TABLE
  2
VPORT
  5
8
330
0
100
AcDbSymbolTable
 70
     1
  0
VPORT
  5
29
330
8
100
AcDbSymbolTableRecord
100
AcDbViewportTableRecord
  2
*Active
 70
     0
 10
0.0
 20
0.0
 11
1.0
 21
1.0
 12
215.9
 22
139.7
 13
0.0
 23
0.0
 14
10.0
 24
10.0
 15
10.0
 25
10.0
 16
0.0
 26
0.0
 36
1.0
 17
0.0
 27
0.0
 37
0.0
 40
279.4
 41
1.5454545455
 42
50.0
 43
0.0
 44
0.0
 50
0.0
 51
0.0
 71
     0
 72
  2000
 73
     1
 74
     3
 75
     0
 76
     0
 77
     0
 78
     0
281
     0
 65
     1
110
0.0
120
0.0
130
0.0
111
1.0
121
0.0
131
0.0
112
0.0
122
1.0
132
0.0
 79
     0
146
0.0
  0
ENDTAB
  0
TABLE
  2
LTYPE
  5
5
330
0
100
AcDbSymbolTable
 70
     6
  0
LTYPE
  5
14
330
5
100
AcDbSymbolTableRecord
100
AcDbLinetypeTableRecord
  2
ByBlock
 70
     0
  3

 72
    65
 73
     0
 40
0.0
  0
LTYPE
  5
15
330
5
100
AcDbSymbolTableRecord
100
AcDbLinetypeTableRecord
  2
ByLayer
 70
     0
  3

 72
    65
 73
     0
 40
0.0
  0
LTYPE
  5
16
330
5
100
AcDbSymbolTableRecord
100
AcDbLinetypeTableRecord
  2
Continuous
 70
     0
  3
Solid line
 72
    65
 73
     0
 40
0.0
  0
LTYPE
  5
6E
330
5
100
AcDbSymbolTableRecord
100
AcDbLinetypeTableRecord
  2
HIDDEN
 70
     0
  3
Hidden __ __ __ __ __ __ __ __ __ __ __ __ __ __
 72
    65
 73
     2
 40
1.905
 49
1.27
 74
     0
 49
-0.635
 74
     0
  0
LTYPE
  5
6F
330
5
100
AcDbSymbolTableRecord
100
AcDbLinetypeTableRecord
  2
PHANTOM
 70
     0
  3
Phantom ______  __  __  ______  __  __  ______
 72
    65
 73
     6
 40
12.7
 49
6.35
 74
     0
 49
-1.27
 74
     0
 49
1.27
 74
     0
 49
-1.27
 74
     0
 49
1.27
 74
     0
 49
-1.27
 74
     0
  0
LTYPE
  5
70
330
5
100
AcDbSymbolTableRecord
100
AcDbLinetypeTableRecord
  2
CENTER
 70
     0
  3
Center ____ _ ____ _ ____ _ ____ _ ____ _ ____
 72
    65
 73
     4
 40
10.16
 49
6.35
 74
     0
 49
-1.27
 74
     0
 49
1.27
 74
     0
 49
-1.27
 74
     0
  0
LTYPE
  5
71
330
5
100
AcDbSymbolTableRecord
100
AcDbLinetypeTableRecord
  2
CENTERX2
 70
     0
  3
Center (2x) ________  __  ________  __  _____
 72
    65
 73
     4
 40
20.32
 49
12.7
 74
     0
 49
-2.54
 74
     0
 49
2.54
 74
     0
 49
-2.54
 74
     0
  0
LTYPE
  5
72
330
5
100
AcDbSymbolTableRecord
100
AcDbLinetypeTableRecord
  2
DOT2
 70
     0
  3
Dot (.5x) ........................................
 72
    65
 73
     2
 40
0.635
 49
0.0
 74
     0
 49
-0.635
 74
     0
  0
ENDTAB
  0
TABLE
  2
LAYER
  5
2
330
0
100
AcDbSymbolTable
 70
     3
  0
LAYER
  5
10
330
2
100
AcDbSymbolTableRecord
100
AcDbLayerTableRecord
  2
0
 70
     0
 62
     7
  6
Continuous
370
    -3
390
F
  0
LAYER
  5
73
330
2
100
AcDbSymbolTableRecord
100
AcDbLayerTableRecord
  2
FRAME_&_TABLE
 70
     0
 62
     8
  6
Continuous
370
    50
390
F
  0
LAYER
  5
74
330
2
100
AcDbSymbolTableRecord
100
AcDbLayerTableRecord
  2
DIMENSIONS
 70
     0
 62
     7
  6
Continuous
370
    -3
390
F
  0
ENDTAB
  0
TABLE
  2
STYLE
  5
3
330
0
100
AcDbSymbolTable
 70
     1
  0
STYLE
  5
11
330
3
100
AcDbSymbolTableRecord
100
AcDbTextStyleTableRecord
  2
Standard
 70
     0
 40
0.0
 41
1.0
 50
0.0
 71
     0
 42
3.8805555556
  3
txt
  4

  0
ENDTAB
  0
TABLE
  2
VIEW
  5
6
330
0
100
AcDbSymbolTable
 70
     0
  0
ENDTAB
  0
TABLE
  2
UCS
  5
7
330
0
100
AcDbSymbolTable
 70
     0
  0
ENDTAB
  0
TABLE
  2
APPID
  5
9
330
0
100
AcDbSymbolTable
 70
     1
  0
APPID
  5
12
330
9
100
AcDbSymbolTableRecord
100
AcDbRegAppTableRecord
  2
ACAD
 70
     0
  0
ENDTAB
  0
TABLE
  2
DIMSTYLE
  5
A
330
0
100
AcDbSymbolTable
 70
     1
100
AcDbDimStyleTable
  0
DIMSTYLE
105
27
330
A
100
AcDbSymbolTableRecord
100
AcDbDimStyleTableRecord
  2
ISO-25
 70
     0
 41
2.5
 42
0.625
 43
3.75
 44
1.25
 73
     0
 74
     0
 77
     1
 78
     8
140
2.5
141
2.5
143
0.0393700787
147
0.625
171
     3
172
     1
178
     0
271
     2
272
     2
274
     3
278
    44
283
     0
284
     8
340
11
  0
ENDTAB
  0
TABLE
  2
BLOCK_RECORD
  5
1
330
0
100
AcDbSymbolTable
 70
     1
  0
BLOCK_RECORD
  5
1F
330
1
100
AcDbSymbolTableRecord
100
AcDbBlockTableRecord
  2
*Model_Space
340
22
  0
BLOCK_RECORD
  5
1B
330
1
100
AcDbSymbolTableRecord
100
AcDbBlockTableRecord
  2
*Paper_Space
340
1E
  0
BLOCK_RECORD
  5
23
330
1
100
AcDbSymbolTableRecord
100
AcDbBlockTableRecord
  2
*Paper_Space0
340
26
  0
ENDTAB
  0
ENDSEC
  0
SECTION
  2
BLOCKS
  0
BLOCK
  5
20
330
1F
100
AcDbEntity
  8
0
100
AcDbBlockBegin
  2
*Model_Space
 70
     0
 10
0.0
 20
0.0
 30
0.0
  3
*Model_Space
  1

  0
ENDBLK
  5
21
330
1F
100
AcDbEntity
  8
0
100
AcDbBlockEnd
  0
BLOCK
  5
1C
330
1B
100
AcDbEntity
 67
     1
  8
0
100
AcDbBlockBegin
  2
*Paper_Space
 70
     0
 10
0.0
 20
0.0
 30
0.0
  3
*Paper_Space
  1

  0
ENDBLK
  5
1D
330
1B
100
AcDbEntity
 67
     1
  8
0
100
AcDbBlockEnd
  0
BLOCK
  5
24
330
23
100
AcDbEntity
  8
0
100
AcDbBlockBegin
  2
*Paper_Space0
 70
     0
 10
0.0
 20
0.0
 30
0.0
  3
*Paper_Space0
  1

  0
ENDBLK
  5
25
330
23
100
AcDbEntity
  8
0
100
AcDbBlockEnd
  0
ENDSEC
  0
SECTION
  2
ENTITIES
  0
CIRCLE
  5
75
330
1F
100
AcDbEntity
  8
0
  6
Continuous
 62
     7
370
    25
100
AcDbCircle
 10
-434.996818253
 20
804.7630828971
 30
0.0
 40
7.099999999999891
  0
CIRCLE
  5
76
330
1F
100
AcDbEntity
  8
0
  6
Continuous
 62
     7
370
    25
100
AcDbCircle
 10
873.1816135855
 20
804.7630828971
 30
0.0
 40
7.100000000000056
  0
CIRCLE
  5
77
330
1F
100
AcDbEntity
  8
0
  6
Continuous
 62
     7
370
    25
100
AcDbCircle
 10
873.1816135855
 20
-503.4153489414
 30
0.0
 40
7.099999999999914
  0
CIRCLE
  5
78
330
1F
100
AcDbEntity
  8
0
  6
Continuous
 62
     7
370
    25
100
AcDbCircle
 10
-434.996818253
 20
-503.4153489414
 30
0.0
 40
7.100000000000044
  0
ARC
  5
79
330
1F
100
AcDbEntity
  8
0
  6
Continuous
 62
     7
370
    25
100
AcDbCircle
 10
934.4923976663
 20
-590.4261330222
 30
0.0
 40
1.100000000000072
100
AcDbArc
 50
306.4341903956
 51
90.0
  0
ARC
  5
7A
330
1F
100
AcDbEntity
  8
0
  6
Continuous
 62
     7
370
    25
100
AcDbCircle
 10
918.6923976663
 20
-590.4261330222
 30
0.0
 40
1.100000000000072
100
AcDbArc
 50
90.0
 51
233.5658096044
  0
ARC
  5
7B
330
1F
100
AcDbEntity
  8
0
  6
Continuous
 62
     7
370
    25
100
AcDbCircle
 10
926.5923976663
 20
-579.7242099453
 30
0.0
 40
14.40192307692322
100
AcDbArc
 50
233.5658096044
 51
306.4341903957
  0
ARC
  5
7C
330
1F
100
AcDbEntity
  8
0
  6
Continuous
 62
     7
370
    25
100
AcDbCircle
 10
960.1923976663
 20
866.0738669778
 30
0.0
 40
1.10000000000014
100
AcDbArc
 50
36.4341903956
 51
180.0
  0
ARC
  5
7D
330
1F
100
AcDbEntity
  8
0
  6
Continuous
 62
     7
370
    25
100
AcDbCircle
 10
960.1923976663
 20
850.2738669778
 30
0.0
 40
1.100000000000072
100
AcDbArc
 50
180.0
 51
323.5658096044
  0
ARC
  5
7E
330
1F
100
AcDbEntity
  8
0
  6
Continuous
 62
     7
370
    25
100
AcDbCircle
 10
949.4904745894
 20
858.1738669778
 30
0.0
 40
14.40192307692313
100
AcDbArc
 50
323.5658096044
 51
36.4341903956
  0
ARC
  5
7F
330
1F
100
AcDbEntity
  8
0
  6
Continuous
 62
     7
370
    25
100
AcDbCircle
 10
960.1923976663
 20
-548.9261330222
 30
0.0
 40
1.100000000000072
100
AcDbArc
 50
36.4341903956
 51
180.0
  0
ARC
  5
80
330
1F
100
AcDbEntity
  8
0
  6
Continuous
 62
     7
370
    25
100
AcDbCircle
 10
960.1923976663
 20
-564.7261330222
 30
0.0
 40
1.100000000000072
100
AcDbArc
 50
180.0
 51
323.5658096044
  0
ARC
  5
81
330
1F
100
AcDbEntity
  8
0
  6
Continuous
 62
     7
370
    25
100
AcDbCircle
 10
949.4904745894
 20
-556.8261330222
 30
0.0
 40
14.40192307692313
100
AcDbArc
 50
323.5658096044
 51
36.4341903956
  0
ARC
  5
82
330
1F
100
AcDbEntity
  8
0
  6
Continuous
 62
     7
370
    25
100
AcDbCircle
 10
-522.0076023337
 20
850.2738669778
 30
0.0
 40
1.100000000000023
100
AcDbArc
 50
216.4341903956
 51
0.0
  0
ARC
  5
83
330
1F
100
AcDbEntity
  8
0
  6
Continuous
 62
     7
370
    25
100
AcDbCircle
 10
-522.0076023337
 20
866.0738669778
 30
0.0
 40
1.100000000000049
100
AcDbArc
 50
0.0
 51
143.5658096043
  0
ARC
  5
84
330
1F
100
AcDbEntity
  8
0
  6
Continuous
 62
     7
370
    25
100
AcDbCircle
 10
-511.3056792568
 20
858.1738669778
 30
0.0
 40
14.40192307692317
100
AcDbArc
 50
143.5658096044
 51
216.4341903957
  0
ARC
  5
85
330
1F
100
AcDbEntity
  8
0
  6
Continuous
 62
     7
370
    25
100
AcDbCircle
 10
-496.3076023337
 20
891.7738669778
 30
0.0
 40
1.100000000000106
100
AcDbArc
 50
126.4341903956
 51
270.0
  0
ARC
  5
86
330
1F
100
AcDbEntity
  8
0
  6
Continuous
 62
     7
370
    25
100
AcDbCircle
 10
-480.5076023337
 20
891.7738669778
 30
0.0
 40
1.100000000000106
100
AcDbArc
 50
270.0
 51
53.5658096044
  0
ARC
  5
87
330
1F
100
AcDbEntity
  8
0
  6
Continuous
 62
     7
370
    25
100
AcDbCircle
 10
-488.4076023337
 20
881.0719439009
 30
0.0
 40
14.40192307692322
100
AcDbArc
 50
53.5658096044
 51
126.4341903956
  0
ARC
  5
88
330
1F
100
AcDbEntity
  8
0
  6
Continuous
 62
     7
370
    25
100
AcDbCircle
 10
918.6923976663
 20
891.7738669778
 30
0.0
 40
1.100000000000072
100
AcDbArc
 50
126.4341903956
 51
270.0
  0
ARC
  5
89
330
1F
100
AcDbEntity
  8
0
  6
Continuous
 62
     7
370
    25
100
AcDbCircle
 10
934.4923976663
 20
891.7738669778
 30
0.0
 40
1.100000000000072
100
AcDbArc
 50
270.0
 51
53.5658096044
  0
ARC
  5
8A
330
1F
100
AcDbEntity
  8
0
  6
Continuous
 62
     7
370
    25
100
AcDbCircle
 10
926.5923976663
 20
881.0719439009
 30
0.0
 40
14.40192307692322
100
AcDbArc
 50
53.5658096044
 51
126.4341903956
  0
ARC
  5
8B
330
1F
100
AcDbEntity
  8
0
  6
Continuous
 62
     7
370
    25
100
AcDbCircle
 10
-522.0076023337
 20
-564.7261330222
 30
0.0
 40
1.100000000000164
100
AcDbArc
 50
216.4341903956
 51
0.0
  0
ARC
  5
8C
330
1F
100
AcDbEntity
  8
0
  6
Continuous
 62
     7
370
    25
100
AcDbCircle
 10
-522.0076023337
 20
-548.9261330222
 30
0.0
 40
1.100000000000164
100
AcDbArc
 50
0.0
 51
143.5658096044
  0
ARC
  5
8D
330
1F
100
AcDbEntity
  8
0
  6
Continuous
 62
     7
370
    25
100
AcDbCircle
 10
-511.3056792568
 20
-556.8261330222
 30
0.0
 40
14.40192307692317
100
AcDbArc
 50
143.5658096044
 51
216.4341903957
  0
ARC
  5
8E
330
1F
100
AcDbEntity
  8
0
  6
Continuous
 62
     7
370
    25
100
AcDbCircle
 10
-480.5076023337
 20
-590.4261330222
 30
0.0
 40
1.100000000000106
100
AcDbArc
 50
306.4341903956
 51
90.0
  0
ARC
  5
8F
330
1F
100
AcDbEntity
  8
0
  6
Continuous
 62
     7
370
    25
100
AcDbCircle
 10
-496.3076023337
 20
-590.4261330222
 30
0.0
 40
1.100000000000106
100
AcDbArc
 50
90.0
 51
233.5658096044
  0
ARC
  5
90
330
1F
100
AcDbEntity
  8
0
  6
Continuous
 62
     7
370
    25
100
AcDbCircle
 10
-488.4076023337
 20
-579.7242099453
 30
0.0
 40
14.40192307692322
100
AcDbArc
 50
233.5658096044
 51
306.4341903957
  0
LINE
  5
91
330
1F
100
AcDbEntity
  8
0
  6
Continuous
 62
     7
370
    25
100
AcDbLine
 10
-2070.9076023337
 20
-639.3261330222
 30
0.0
 11
-2070.9076023337
 21
940.6738669778
 31
0.0
  0
ARC
  5
92
330
1F
100
AcDbEntity
  8
0
  6
Continuous
 62
     7
370
    25
100
AcDbCircle
 10
-570.9076023337
 20
940.6738669778
 30
0.0
 40
1500.0
100
AcDbArc
 50
90.0
 51
180.0
  0
LINE
  5
93
330
1F
100
AcDbEntity
  8
0
  6
Continuous
 62
     7
370
    25
100
AcDbLine
 10
-570.9076023337
 20
2440.6738669778
 30
0.0
 11
1009.0923976663
 21
2440.6738669778
 31
0.0
  0
ARC
  5
94
330
1F
100
AcDbEntity
  8
0
  6
Continuous
 62
     7
370
    25
100
AcDbCircle
 10
1009.0923976663
 20
940.6738669778
 30
0.0
 40
1500.0
100
AcDbArc
 50
0.0
 51
90.0
  0
LINE
  5
95
330
1F
100
AcDbEntity
  8
0
  6
Continuous
 62
     7
370
    25
100
AcDbLine
 10
2509.0923976663
 20
940.6738669778
 30
0.0
 11
2509.0923976663
 21
-639.3261330222
 31
0.0
  0
ARC
  5
96
330
1F
100
AcDbEntity
  8
0
  6
Continuous
 62
     7
370
    25
100
AcDbCircle
 10
1009.0923976663
 20
-639.3261330222
 30
0.0
 40
1500.0
100
AcDbArc
 50
270.0
 51
0.0
  0
LINE
  5
97
330
1F
100
AcDbEntity
  8
0
  6
Continuous
 62
     7
370
    25
100
AcDbLine
 10
1009.0923976663
 20
-2139.3261330222
 30
0.0
 11
-570.9076023337
 21
-2139.3261330222
 31
0.0
  0
ARC
  5
98
330
1F
100
AcDbEntity
  8
0
  6
Continuous
 62
     7
370
    25
100
AcDbCircle
 10
-570.9076023337
 20
-639.3261330222
 30
0.0
 40
1500.0
100
AcDbArc
 50
180.0
 51
270.0
  0
LWPOLYLINE
  5
99
330
1F
100
AcDbEntity
  8
0
  6
Continuous
 62
     7
370
    25
100
AcDbPolyline
 90
       39
 70
   128
 43
0.0
 10
-25.7417807456
 20
713.6319489689
 10
-14.5727591362
 20
717.1989893442
 10
-3.235514441
 20
720.2344114849
 10
4.2335863813
 20
721.8694231818
 10
11.8026315787
 20
723.1773433189
 10
19.4577265123
 20
724.0829995553
 10
27.1849765436
 20
724.5112195499
 10
33.6016253925
 20
724.4378780888
 10
40.0563824966
 20
723.9123387604
 10
46.4828569557
 20
722.8817102521
 10
52.8146578694
 20
721.2931012517
 10
59.0624135559
 20
719.0551749136
 10
65.1263773844
 20
716.1980510265
 10
70.9430667467
 20
712.8003063557
 10
76.4489990343
 20
708.9405176664
 10
82.6064485456
 20
703.8663926409
 10
88.4208797388
 20
698.368794345
 10
93.9224523377
 20
692.5309855517
 10
99.1413260663
 20
686.4362290337
 10
104.1076606484
 20
680.167787564
 10
112.0770478348
 20
669.2746196404
 10
119.5958023151
 20
658.0726565554
 10
126.7286766257
 20
646.6209700007
 10
133.5404233028
 20
634.9786316682
 10
140.0957948828
 20
623.2047132497
 10
146.4595439019
 20
611.3582864369
 10
158.9584150367
 20
587.1030738299
 10
170.9619708054
 20
562.6309424497
 10
182.6005926255
 20
538.0105840973
 10
198.739284282
 20
502.7950283197
 10
214.4879545276
 20
467.4070121559
 10
229.954501066
 20
431.874772902
 10
245.227008846
 20
396.2105517784
 10
260.3390433818
 20
360.4139968921
 10
275.3188116775
 20
324.4896165911
 10
286.5663182313
 20
297.3324870638
 10
297.7554546902
 20
270.1004663845
 10
308.801998618
 20
242.7747428657
 10
319.6217275783
 20
215.3365048196
  0
LWPOLYLINE
  5
9A
330
1F
100
AcDbEntity
  8
0
  6
Continuous
 62
     7
370
    25
100
AcDbPolyline
 90
        3
 70
   128
 43
0.0
 10
-99.6697359498
 20
820.7179940114
 10
-81.6695842231
 20
794.884486201
 10
-25.7417807456
 20
713.6319489689
  0
LWPOLYLINE
  5
9B
330
1F
100
AcDbEntity
  8
0
  6
Continuous
 62
     7
370
    25
100
AcDbPolyline
 90
       11
 70
   128
 43
0.0
 10
553.9872440074
 20
366.0854705664
 10
553.918729642
 20
366.1919864862
 10
550.4054520196
 20
371.6496459249
 10
523.3355505355
 20
413.6569646288
 10
496.2624493745
 20
455.6555217261
 10
469.1976387725
 20
497.6426851289
 10
442.1526089655
 20
539.6158227494
 10
406.1316877666
 20
595.5468912697
 10
370.1403704618
 20
651.4509493634
 10
334.1790033401
 20
707.326677877
 10
302.1050581291
 20
757.177996452
  0
LINE
  5
9C
330
1F
100
AcDbEntity
  8
0
  6
Continuous
 62
     7
370
    25
100
AcDbLine
 10
319.6217275783
 20
215.3365048196
 30
0.0
 11
553.9872440074
 21
366.0854705664
 31
0.0
  0
LINE
  5
9D
330
1F
100
AcDbEntity
  8
0
  6
Continuous
 62
     7
370
    25
100
AcDbLine
 10
337.3853534387
 20
167.8255292833
 30
0.0
 11
323.4556623394
 21
189.6936927401
 31
0.0
  0
LINE
  5
9E
330
1F
100
AcDbEntity
  8
0
  6
Continuous
 62
     7
370
    25
100
AcDbLine
 10
319.6217275783
 20
215.3365048196
 30
0.0
 11
323.4556623394
 21
189.6936927401
 31
0.0
  0
LWPOLYLINE
  5
9F
330
1F
100
AcDbEntity
  8
0
  6
Continuous
 62
     7
370
    25
100
AcDbPolyline
 90
        4
 70
   128
 43
0.0
 10
553.9872440074
 20
366.0854705664
 10
554.0557569249
 20
365.9789537154
 10
577.3667076167
 20
329.6611270935
 10
600.6755417491
 20
293.3419585001
  0
LWPOLYLINE
  5
A0
330
1F
100
AcDbEntity
  8
0
  6
Continuous
 62
     7
370
    25
100
AcDbPolyline
 90
        4
 70
   128
 43
0.0
 10
613.1634740508
 20
207.8114537628
 10
613.1453000639
 20
207.9367915688
 10
606.9116598067
 20
250.6395629291
 10
600.6755417491
 20
293.3419585001
  0
LINE
  5
A1
330
1F
100
AcDbEntity
  8
0
  6
Continuous
 62
     7
370
    25
100
AcDbLine
 10
337.3853534387
 20
167.8255292833
 30
0.0
 11
613.1634740508
 21
207.8114537628
 31
0.0
  0
LWPOLYLINE
  5
A2
330
1F
100
AcDbEntity
  8
0
  6
Continuous
 62
     7
370
    25
100
AcDbPolyline
 90
        3
 70
   128
 43
0.0
 10
413.2519074311
 20
-519.6038099203
 10
411.6113402749
 20
-504.552719769
 10
403.6474302863
 20
-434.8216641172
  0
LWPOLYLINE
  5
A3
330
1F
100
AcDbEntity
  8
0
  6
Continuous
 62
     7
370
    25
100
AcDbPolyline
 90
       39
 70
   128
 43
0.0
 10
403.6474302863
 20
-434.8216641172
 10
413.3674496763
 20
-430.6750848811
 10
422.9243722746
 20
-426.116447514
 10
432.2460194739
 20
-421.0546967277
 10
441.2602126665
 20
-415.3987772339
 10
446.8385996738
 20
-411.4022119419
 10
452.2122352802
 20
-407.0509413327
 10
457.2984189146
 20
-402.3188353783
 10
462.0144500061
 20
-397.1797640505
 10
465.4954912904
 20
-392.7028089229
 10
468.6467695305
 20
-387.9254411318
 10
471.4193856164
 20
-382.8889342131
 10
473.764440438
 20
-377.6345617027
 10
476.0362501536
 20
-370.959551513
 10
477.7288682242
 20
-364.0687049573
 10
478.9129476151
 20
-357.0483839567
 10
479.6591412912
 20
-349.9849504326
 10
480.1079719804
 20
-340.2669998655
 10
480.0066066487
 20
-330.5287413324
 10
479.4540576191
 20
-320.8028585568
 10
478.5493372145
 20
-311.1220352623
 10
476.8772170709
 20
-297.9639493229
 10
474.7872152144
 20
-284.8749012433
 10
472.3705883593
 20
-271.8572574317
 10
467.4822180667
 20
-248.720999462
 10
462.0170003664
 20
-225.7409043129
 10
456.0922434686
 20
-202.893934355
 10
449.8252555834
 20
-180.1570519588
 10
443.3333449211
 20
-157.5072194949
 10
432.184676968
 20
-119.9543727981
 10
420.6473921313
 20
-82.5169400201
 10
408.8134378572
 20
-45.1468376208
 10
396.5863189637
 20
-7.2899317787
 10
384.1484591117
 20
30.5680601648
 10
371.5225315755
 20
68.4395053684
 10
363.1682794929
 20
93.3014972034
 10
354.7370184027
 20
118.1757308603
 10
346.1642193648
 20
143.0283577499
 10
337.3853534387
 20
167.8255292833
  0
LWPOLYLINE
  5
A4
330
1F
100
AcDbEntity
  8
0
  6
Continuous
 62
     7
370
    25
100
AcDbPolyline
 90
       14
 70
   128
 43
0.0
 10
613.1634740508
 20
207.8114537628
 10
613.1816463338
 20
207.6861157098
 10
614.110688806
 20
201.2622503407
 10
621.7301542847
 20
148.400907541
 10
629.3412522665
 20
95.5451948834
 10
636.9512572576
 20
42.7061686742
 10
644.5674437643
 20
-10.1051147806
 10
652.1891257103
 20
-62.8753680353
 10
659.8137566092
 20
-115.620133728
 10
667.4411839093
 20
-168.3394851369
 10
675.071255059
 20
-221.0334955401
 10
685.3034736787
 20
-291.6309059995
 10
695.544606937
 20
-362.2015598243
 10
705.7987108809
 20
-432.7566810449
  0
LWPOLYLINE
  5
A5
330
1F
100
AcDbEntity
  8
0
  6
Continuous
 62
     7
370
    25
100
AcDbPolyline
 90
       11
 70
   128
 43
0.0
 10
705.7987108809
 20
-432.7566810449
 10
699.4756156613
 20
-438.6464392039
 10
693.3531994778
 20
-444.7957708383
 10
687.4858382223
 20
-451.2276247415
 10
681.9279077869
 20
-457.9649497073
 10
676.6687735598
 20
-465.1671061379
 10
671.850390837
 20
-472.7740456675
 10
667.5533510425
 20
-480.7392011503
 10
663.8582456006
 20
-489.0160054405
 10
660.8456659352
 20
-497.5578913924
 10
659.7622657185
 20
-501.7146571374
  0
LINE
  5
A6
330
1F
100
AcDbEntity
  8
0
  6
Continuous
 62
     7
370
    25
100
AcDbLine
 10
795.1415347662
 20
366.0498139699
 30
0.0
 11
619.6401715421
 21
300.4325430317
 31
0.0
  0
LWPOLYLINE
  5
A7
330
1F
100
AcDbEntity
  8
0
  6
Continuous
 62
     7
370
    25
100
AcDbPolyline
 90
        7
 70
   128
 43
0.0
 10
651.9767022697
 20
213.4391040236
 10
688.5077673614
 20
156.5668364922
 10
725.0271208361
 20
99.7327615679
 10
761.534043508
 20
42.9373225696
 10
798.0278161913
 20
-13.8190371839
 10
846.7070109471
 20
-89.4985867258
 10
890.6334875586
 20
-157.7520945184
  0
LWPOLYLINE
  5
A8
330
1F
100
AcDbEntity
  8
0
  6
Continuous
 62
     7
370
    25
100
AcDbPolyline
 90
        6
 70
   128
 43
0.0
 10
619.6401715421
 20
300.4325430317
 10
619.6730472502
 20
300.3446074162
 10
627.7578945066
 20
278.6152056762
 10
635.8174171612
 20
256.8889675803
 10
643.8992668868
 20
235.1496843233
 10
651.9767022697
 20
213.4391040236
  0
LWPOLYLINE
  5
A9
330
1F
100
AcDbEntity
  8
0
  6
Continuous
 62
     7
370
    25
100
AcDbPolyline
 90
        4
 70
   128
 43
0.0
 10
45.2182845515
 20
85.6649999252
 10
45.1809621989
 20
85.7648312897
 10
38.2540103318
 20
104.5851995475
 10
31.5178113532
 20
123.4768463224
  0
LINE
  5
AA
330
1F
100
AcDbEntity
  8
0
  6
Continuous
 62
     7
370
    25
100
AcDbLine
 10
-177.5063482818
 20
2.391671965
 30
0.0
 11
45.2182845515
 21
85.6649999252
 31
0.0
  0
LWPOLYLINE
  5
AB
330
1F
100
AcDbEntity
  8
0
  6
Continuous
 62
     7
370
    25
100
AcDbPolyline
 90
        4
 70
   128
 43
0.0
 10
-232.3253752302
 20
85.22140492
 10
-207.2989987629
 20
47.4684520013
 10
-182.3075941035
 20
9.6712568192
 10
-177.5063482818
 20
2.391671965
  0
LWPOLYLINE
  5
AC
330
1F
100
AcDbEntity
  8
0
  6
Continuous
 62
     7
370
    25
100
AcDbPolyline
 90
       27
 70
   128
 43
0.0
 10
-446.6693620668
 20
499.0047271929
 10
-443.9583880279
 20
498.1084782633
 10
-437.6068959179
 20
495.4558009451
 10
-431.4878997796
 20
492.2883981268
 10
-425.6896988839
 20
488.5967447192
 10
-420.2563148352
 20
484.3873910535
 10
-415.1683481436
 20
479.7306737051
 10
-410.4208847997
 20
474.7141004403
 10
-406.009010794
 20
469.4251790255
 10
-400.2946577771
 20
461.6906984304
 10
-394.9980298721
 20
453.6591224868
 10
-390.0400758966
 20
445.4041545385
 10
-385.3417446682
 20
436.9994979293
 10
-380.8239850044
 20
428.518856003
 10
-373.4354913996
 20
414.0223327993
 10
-366.3342754073
 20
399.3988512478
 10
-359.438051369
 20
384.6961182381
 10
-345.9463768992
 20
355.0610024912
 10
-332.8093149335
 20
325.3191609885
 10
-319.9392563196
 20
295.4952505077
 10
-307.248591905
 20
265.6139278264
 10
-294.6497125373
 20
235.6998497223
 10
-282.0911802973
 20
205.7389912396
 10
-269.5844120845
 20
175.715859813
 10
-257.124476261
 20
145.6253131476
 10
-244.7064411888
 20
115.4622089482
 10
-232.3253752302
 20
85.22140492
  0
LWPOLYLINE
  5
AD
330
1F
100
AcDbEntity
  8
0
  6
Continuous
 62
     7
370
    25
100
AcDbPolyline
 90
       24
 70
   128
 43
0.0
 10
-274.8336456804
 20
623.4785152046
 10
-279.4351135369
 20
621.4140392243
 10
-292.3889020043
 20
615.826822637
 10
-305.49284693
 20
610.5635797492
 10
-318.7822944127
 20
605.7015104183
 10
-326.6081062028
 20
603.0818360573
 10
-334.5416452054
 20
600.6708482151
 10
-342.5838336627
 20
598.5705057144
 10
-350.735593817
 20
596.882767378
 10
-358.9978479103
 20
595.7095920284
 10
-365.145650659
 20
595.267039289
 10
-371.3370235143
 20
595.3110447171
 10
-377.4966410624
 20
595.9585308123
 10
-382.5474811302
 20
597.0497550632
 10
-387.4786062368
 20
598.6824455282
 10
-392.1875994618
 20
600.8548250012
 10
-396.608744981
 20
603.548378911
 10
-400.7547185314
 20
606.682746456
 10
-404.6178868071
 20
610.1511810657
 10
-409.6970020365
 20
615.4820973168
 10
-414.3827872922
 20
621.1761834344
 10
-418.7311945273
 20
627.1591053756
 10
-422.7981756953
 20
633.3565290979
 10
-426.3603889759
 20
639.2333509156
  0
LWPOLYLINE
  5
AE
330
1F
100
AcDbEntity
  8
0
  6
Continuous
 62
     7
370
    25
100
AcDbPolyline
 90
       10
 70
   128
 43
0.0
 10
31.5178113532
 20
123.4768463224
 10
0.3893057302
 20
173.2308408391
 10
-30.4960167834
 20
223.1186735653
 10
-61.205396091
 20
273.0931686987
 10
-91.8060720959
 20
323.1071504371
 10
-122.3652847011
 20
373.1134429784
 10
-160.5791217788
 20
435.6749066667
 10
-198.7272086854
 20
498.2487651606
 10
-236.8114238447
 20
560.84623062
 10
-274.8336456804
 20
623.4785152046
  0
LWPOLYLINE
  5
AF
330
1F
100
AcDbEntity
  8
0
  6
Continuous
 62
     7
370
    25
100
AcDbPolyline
 90
       14
 70
   128
 43
0.0
 10
-58.5182346225
 20
-424.5318108019
 10
-59.5451120913
 20
-420.7834116552
 10
-63.6517651258
 20
-406.5545975659
 10
-67.8474135875
 20
-392.3777716943
 10
-76.4786433726
 20
-363.9027839014
 10
-85.3541058565
 20
-335.5412416152
 10
-94.3909477928
 20
-307.2592886554
 10
-104.1527785625
 20
-277.0843815088
 10
-114.0090663497
 20
-246.9318436761
 10
-123.9549608222
 20
-216.7896907115
 10
-133.9856116479
 20
-186.6459381689
 10
-144.0961684949
 20
-156.4886016023
 10
-154.2817810311
 20
-126.3056965658
 10
-164.5375989243
 20
-96.0852386135
  0
LWPOLYLINE
  5
B0
330
1F
100
AcDbEntity
  8
0
  6
Continuous
 62
     7
370
    25
100
AcDbPolyline
 90
        3
 70
   128
 43
0.0
 10
-164.5375989243
 20
-96.0852386135
 10
-170.9862873242
 20
-46.8528599584
 10
-177.5063482818
 20
2.391671965
  0
LWPOLYLINE
  5
B1
330
1F
100
AcDbEntity
  8
0
  6
Continuous
 62
     7
370
    25
100
AcDbPolyline
 90
        5
 70
   128
 43
0.0
 10
45.2182845515
 20
85.6649999252
 10
45.2556122823
 20
85.5651705715
 10
48.2976048333
 20
77.4841273938
 10
53.9329951979
 20
62.7890475179
 10
59.6852094068
 20
48.1397180601
  0
LWPOLYLINE
  5
B2
330
1F
100
AcDbEntity
  8
0
  6
Continuous
 62
     7
370
    25
100
AcDbPolyline
 90
        9
 70
   128
 43
0.0
 10
59.6852094068
 20
48.1397180601
 10
68.8337853262
 20
-9.8322354289
 10
78.2536996336
 20
-67.7456554222
 10
87.863255619
 20
-125.6090512357
 10
97.5807565721
 20
-183.430932185
 10
107.3245057829
 20
-241.2198075858
 10
119.5281699629
 20
-313.5060764312
 10
131.789588151
 20
-385.7585637619
 10
144.0599993547
 20
-457.666412303
  0
LINE
  5
B3
330
1F
100
AcDbEntity
  8
0
  6
Continuous
 62
     7
370
    25
100
AcDbLine
 10
219.0923976663
 20
150.6738669778
 30
0.0
 11
73.717617947
 21
57.1656665298
 31
0.0
  0
LINE
  5
B4
330
1F
100
AcDbEntity
  8
0
  6
Continuous
 62
     7
370
    25
100
AcDbLine
 10
323.4556623394
 20
189.6936927401
 30
0.0
 11
219.0923976663
 21
150.6738669778
 31
0.0
  0
LWPOLYLINE
  5
B5
330
1F
100
AcDbEntity
  8
0
  6
Continuous
 62
     7
370
    25
100
AcDbPolyline
 90
       12
 70
   128
 43
0.0
 10
73.717617947
 20
57.1656665298
 10
73.7954008612
 20
57.0447417996
 10
79.3953513923
 20
48.3511607165
 10
107.5762212293
 20
5.0123600877
 10
136.0266085441
 20
-38.1454847675
 10
164.6741977749
 20
-81.1594330631
 10
193.4466733599
 20
-124.0665440127
 10
231.9475456617
 20
-181.2598727728
 10
270.5027420926
 20
-238.3789319576
 10
309.0953074026
 20
-295.4359381756
 10
356.3426509413
 20
-365.1603908394
 10
403.6474302863
 20
-434.8216641172
  0
LWPOLYLINE
  5
B6
330
1F
100
AcDbEntity
  8
0
  6
Continuous
 62
     7
370
    25
100
AcDbPolyline
 90
        3
 70
   128
 43
0.0
 10
739.2848775525
 20
-490.1975892166
 10
726.4108713046
 20
-467.9437658207
 10
705.7987108809
 20
-432.7566810449
  0
LINE
  5
B7
330
1F
100
AcDbEntity
  8
0
  6
Continuous
 62
     7
370
    25
100
AcDbLine
 10
651.9767022697
 20
213.4391040236
 30
0.0
 11
613.1634740508
 21
207.8114537628
 31
0.0
  0
LINE
  5
B8
330
1F
100
AcDbEntity
  8
0
  6
Continuous
 62
     7
370
    25
100
AcDbLine
 10
219.0923976663
 20
150.6738669778
 30
0.0
 11
48.0297595008
 21
125.870964863
 31
0.0
  0
LWPOLYLINE
  5
B9
330
1F
100
AcDbEntity
  8
0
  6
Continuous
 62
     7
370
    25
100
AcDbPolyline
 90
       12
 70
   128
 43
0.0
 10
48.0297595008
 20
125.870964863
 10
48.0091292505
 20
126.0132580986
 10
45.703091488
 20
142.0321806715
 10
37.768274703
 20
199.1150096703
 10
30.2091052401
 20
256.2430508217
 10
22.9281227761
 20
313.3947384062
 10
15.8278669876
 20
370.5485067046
 10
8.8108775516
 20
427.6827899975
 10
0.071708188
 20
499.1946921331
 10
-8.5974105967
 20
570.6852490146
 10
-17.2005498815
 20
642.1618661304
 10
-25.7417807456
 20
713.6319489689
  0
LWPOLYLINE
  5
BA
330
1F
100
AcDbEntity
  8
0
  6
Continuous
 62
     7
370
    25
100
AcDbPolyline
 90
        6
 70
   128
 43
0.0
 10
774.4810133403
 20
766.1094595927
 10
785.5885558401
 20
732.602496715
 10
797.5988737621
 20
697.5120650556
 10
809.845715154
 20
662.4987970871
 10
822.5098579907
 20
626.8054241598
 10
822.8942749458
 20
625.7344481934
  0
LWPOLYLINE
  5
BB
330
1F
100
AcDbEntity
  8
0
  6
Continuous
 62
     7
370
    25
100
AcDbPolyline
 90
        7
 70
   128
 43
0.0
 10
619.6401715421
 20
300.4325430317
 10
619.6072921991
 20
300.5204772883
 10
617.0531115118
 20
307.321904916
 10
609.5234744227
 20
327.323207145
 10
602.0011353196
 20
347.3142195145
 10
594.4799337555
 20
367.3187430927
 10
586.9720299492
 20
387.3019978178
  0
LWPOLYLINE
  5
BC
330
1F
100
AcDbEntity
  8
0
  6
Continuous
 62
     7
370
    25
100
AcDbPolyline
 90
        8
 70
   128
 43
0.0
 10
586.9720299492
 20
387.3019978178
 10
584.4681540217
 20
404.4877898302
 10
575.8823652093
 20
463.4562169933
 10
567.3091894521
 20
522.3956785527
 10
558.748433426
 20
581.3057424894
 10
550.1999038072
 20
640.1859767848
 10
538.81247068
 20
718.7024857243
 10
536.9293261986
 20
731.7054221446
  0
LINE
  5
BD
330
1F
100
AcDbEntity
  8
0
  6
Continuous
 62
     7
370
    25
100
AcDbLine
 10
-164.5375989243
 20
-96.0852386135
 30
0.0
 11
-344.7925363762
 21
-212.0291104154
 31
0.0
  0
LWPOLYLINE
  5
BE
330
1F
100
AcDbEntity
  8
0
  6
Continuous
 62
     7
370
    25
100
AcDbPolyline
 90
        4
 70
   128
 43
0.0
 10
-344.7925363762
 20
-212.0291104154
 10
-344.8730426581
 20
-211.9039518958
 10
-347.9815036338
 20
-207.0752458791
 10
-364.1115807908
 20
-182.1631271307
  0
LINE
  5
BF
330
1F
100
AcDbEntity
  8
0
  6
Continuous
 62
     7
370
    25
100
AcDbLine
 10
-232.3253752302
 20
85.22140492
 30
0.0
 11
-386.3148606055
 21
62.8939921463
 31
0.0
  0
LWPOLYLINE
  5
C0
330
1F
100
AcDbEntity
  8
0
  6
Continuous
 62
     7
370
    25
100
AcDbPolyline
 90
        8
 70
   128
 43
0.0
 10
-344.7925363762
 20
-212.0291104154
 10
-344.7120323821
 20
-212.1542704064
 10
-336.0290239175
 20
-225.6834012634
 10
-308.3748017982
 20
-269.1043603092
 10
-280.8926178392
 20
-312.6295787229
 10
-253.5138432679
 20
-356.209345647
 10
-226.1698493113
 20
-399.7939502237
 10
-197.9901637921
 20
-444.7311936472
  0
LINE
  5
C1
330
1F
100
AcDbEntity
  8
0
  6
Continuous
 62
     7
370
    25
100
AcDbLine
 10
31.5178113532
 20
123.4768463224
 30
0.0
 11
48.0297595008
 21
125.870964863
 31
0.0
  0
LWPOLYLINE
  5
C2
330
1F
100
AcDbEntity
  8
0
  6
Continuous
 62
     7
370
    25
100
AcDbPolyline
 90
        4
 70
   128
 43
0.0
 10
-303.0346317866
 20
791.2651470282
 10
-295.9158589202
 20
749.6166798363
 10
-285.3122424796
 20
686.5551175126
 10
-274.8336456804
 20
623.4785152046
  0
LINE
  5
C3
330
1F
100
AcDbEntity
  8
0
  6
Continuous
 62
     7
370
    25
100
AcDbLine
 10
586.9720299492
 20
387.3019978178
 30
0.0
 11
553.9872440074
 21
366.0854705664
 31
0.0
  0
LWPOLYLINE
  5
C4
330
1F
100
AcDbEntity
  8
0
  6
Continuous
 62
     7
370
    25
100
AcDbPolyline
 90
        3
 70
   128
 43
0.0
 10
-389.2369720419
 20
-355.6479714834
 10
-381.9212478276
 20
-411.9256951185
 10
-374.4757940542
 20
-470.2911814782
  0
LWPOLYLINE
  5
C5
330
1F
100
AcDbEntity
  8
0
  6
Continuous
 62
     7
370
    25
100
AcDbPolyline
 90
        4
 70
   128
 43
0.0
 10
73.717617947
 20
57.1656665298
 10
73.6398371748
 20
57.2865926378
 10
69.4058769026
 20
63.8762643521
 10
53.4981033979
 20
88.7606973408
  0
LWPOLYLINE
  5
C6
330
1F
100
AcDbEntity
  8
0
  6
Continuous
 62
     7
370
    25
100
AcDbPolyline
 90
        4
 70
   128
 43
0.0
 10
48.0297595008
 20
125.870964863
 10
48.0503922719
 20
125.7286719929
 10
49.7586575587
 20
114.0086613908
 10
53.4981033979
 20
88.7606973408
  0
LINE
  5
C7
330
1F
100
AcDbEntity
  8
0
  6
Continuous
 62
     7
370
    25
100
AcDbLine
 10
59.6852094068
 20
48.1397180601
 30
0.0
 11
73.717617947
 21
57.1656665298
 31
0.0
  0
LINE
  5
C8
330
1F
100
AcDbEntity
  8
0
  6
Continuous
 62
     7
370
    25
100
AcDbLine
 10
-370.865894945
 20
-228.8000581952
 30
0.0
 11
-344.7925363762
 21
-212.0291104154
 31
0.0
  0
LINE
  5
C9
330
1F
100
AcDbEntity
  8
0
  6
Continuous
 62
     7
370
    25
100
AcDbLine
 10
53.4981033979
 20
88.7606973408
 30
0.0
 11
45.2182845515
 21
85.6649999252
 31
0.0
  0
LINE
  5
CA
330
1F
100
AcDbEntity
  8
0
  6
Continuous
 62
     7
370
    25
100
AcDbLine
 10
600.6755417491
 20
293.3419585001
 30
0.0
 11
619.6401715421
 21
300.4325430317
 31
0.0
  0
LINE
  5
CB
330
1F
100
AcDbEntity
  8
0
  6
Continuous
 62
     7
370
    25
100
AcDbLine
 10
731.5923976663
 20
-574.3261330222
 30
0.0
 11
731.5923976663
 21
-589.3261330222
 31
0.0
  0
LINE
  5
CC
330
1F
100
AcDbEntity
  8
0
  6
Continuous
 62
     7
370
    25
100
AcDbLine
 10
731.5923976663
 20
-589.3261330222
 30
0.0
 11
791.5923976663
 21
-589.3261330222
 31
0.0
  0
LINE
  5
CD
330
1F
100
AcDbEntity
  8
0
  6
Continuous
 62
     7
370
    25
100
AcDbLine
 10
791.5923976663
 20
-574.3261330222
 30
0.0
 11
791.5923976663
 21
-589.3261330222
 31
0.0
  0
LINE
  5
CE
330
1F
100
AcDbEntity
  8
0
  6
Continuous
 62
     7
370
    25
100
AcDbLine
 10
731.5923976663
 20
-574.3261330222
 30
0.0
 11
791.5923976663
 21
-574.3261330222
 31
0.0
  0
LINE
  5
CF
330
1F
100
AcDbEntity
  8
0
  6
Continuous
 62
     7
370
    25
100
AcDbLine
 10
-353.4076023337
 20
-574.3261330222
 30
0.0
 11
-293.4076023337
 21
-574.3261330222
 31
0.0
  0
LINE
  5
D0
330
1F
100
AcDbEntity
  8
0
  6
Continuous
 62
     7
370
    25
100
AcDbLine
 10
-353.4076023337
 20
-589.3261330222
 30
0.0
 11
-353.4076023337
 21
-574.3261330222
 31
0.0
  0
LINE
  5
D1
330
1F
100
AcDbEntity
  8
0
  6
Continuous
 62
     7
370
    25
100
AcDbLine
 10
-353.4076023337
 20
-589.3261330222
 30
0.0
 11
-293.4076023337
 21
-589.3261330222
 31
0.0
  0
LINE
  5
D2
330
1F
100
AcDbEntity
  8
0
  6
Continuous
 62
     7
370
    25
100
AcDbLine
 10
-293.4076023337
 20
-589.3261330222
 30
0.0
 11
-293.4076023337
 21
-574.3261330222
 31
0.0
  0
LINE
  5
D3
330
1F
100
AcDbEntity
  8
0
  6
Continuous
 62
     7
370
    25
100
AcDbLine
 10
-113.4076023337
 20
-589.3261330222
 30
0.0
 11
-173.4076023337
 21
-589.3261330222
 31
0.0
  0
LINE
  5
D4
330
1F
100
AcDbEntity
  8
0
  6
Continuous
 62
     7
370
    25
100
AcDbLine
 10
-113.4076023337
 20
-574.3261330222
 30
0.0
 11
-113.4076023337
 21
-589.3261330222
 31
0.0
  0
LINE
  5
D5
330
1F
100
AcDbEntity
  8
0
  6
Continuous
 62
     7
370
    25
100
AcDbLine
 10
-113.4076023337
 20
-574.3261330222
 30
0.0
 11
-173.4076023337
 21
-574.3261330222
 31
0.0
  0
LINE
  5
D6
330
1F
100
AcDbEntity
  8
0
  6
Continuous
 62
     7
370
    25
100
AcDbLine
 10
-173.4076023337
 20
-574.3261330222
 30
0.0
 11
-173.4076023337
 21
-589.3261330222
 31
0.0
  0
LINE
  5
D7
330
1F
100
AcDbEntity
  8
0
  6
Continuous
 62
     7
370
    25
100
AcDbLine
 10
66.5923976663
 20
-589.3261330222
 30
0.0
 11
6.5923976663
 21
-589.3261330222
 31
0.0
  0
LINE
  5
D8
330
1F
100
AcDbEntity
  8
0
  6
Continuous
 62
     7
370
    25
100
AcDbLine
 10
66.5923976663
 20
-574.3261330222
 30
0.0
 11
66.5923976663
 21
-589.3261330222
 31
0.0
  0
LINE
  5
D9
330
1F
100
AcDbEntity
  8
0
  6
Continuous
 62
     7
370
    25
100
AcDbLine
 10
66.5923976663
 20
-574.3261330222
 30
0.0
 11
6.5923976663
 21
-574.3261330222
 31
0.0
  0
LINE
  5
DA
330
1F
100
AcDbEntity
  8
0
  6
Continuous
 62
     7
370
    25
100
AcDbLine
 10
6.5923976663
 20
-574.3261330222
 30
0.0
 11
6.5923976663
 21
-589.3261330222
 31
0.0
  0
LINE
  5
DB
330
1F
100
AcDbEntity
  8
0
  6
Continuous
 62
     7
370
    25
100
AcDbLine
 10
431.5923976663
 20
-589.3261330222
 30
0.0
 11
371.5923976663
 21
-589.3261330222
 31
0.0
  0
LINE
  5
DC
330
1F
100
AcDbEntity
  8
0
  6
Continuous
 62
     7
370
    25
100
AcDbLine
 10
431.5923976663
 20
-574.3261330222
 30
0.0
 11
431.5923976663
 21
-589.3261330222
 31
0.0
  0
LINE
  5
DD
330
1F
100
AcDbEntity
  8
0
  6
Continuous
 62
     7
370
    25
100
AcDbLine
 10
431.5923976663
 20
-574.3261330222
 30
0.0
 11
371.5923976663
 21
-574.3261330222
 31
0.0
  0
LINE
  5
DE
330
1F
100
AcDbEntity
  8
0
  6
Continuous
 62
     7
370
    25
100
AcDbLine
 10
371.5923976663
 20
-574.3261330222
 30
0.0
 11
371.5923976663
 21
-589.3261330222
 31
0.0
  0
LINE
  5
DF
330
1F
100
AcDbEntity
  8
0
  6
Continuous
 62
     7
370
    25
100
AcDbLine
 10
551.5923976663
 20
-574.3261330222
 30
0.0
 11
611.5923976663
 21
-574.3261330222
 31
0.0
  0
LINE
  5
E0
330
1F
100
AcDbEntity
  8
0
  6
Continuous
 62
     7
370
    25
100
AcDbLine
 10
551.5923976663
 20
-589.3261330222
 30
0.0
 11
551.5923976663
 21
-574.3261330222
 31
0.0
  0
LINE
  5
E1
330
1F
100
AcDbEntity
  8
0
  6
Continuous
 62
     7
370
    25
100
AcDbLine
 10
551.5923976663
 20
-589.3261330222
 30
0.0
 11
611.5923976663
 21
-589.3261330222
 31
0.0
  0
LINE
  5
E2
330
1F
100
AcDbEntity
  8
0
  6
Continuous
 62
     7
370
    25
100
AcDbLine
 10
611.5923976663
 20
-589.3261330222
 30
0.0
 11
611.5923976663
 21
-574.3261330222
 31
0.0
  0
ARC
  5
E3
330
1F
100
AcDbEntity
  8
0
  6
Continuous
 62
     7
370
    25
100
AcDbCircle
 10
-449.6680389945
 20
-513.8439289959
 30
0.0
 40
2.999999999999944
100
AcDbArc
 50
315.0
 51
35.4059317731
  0
ARC
  5
E4
330
1F
100
AcDbEntity
  8
0
  6
Continuous
 62
     7
370
    25
100
AcDbCircle
 10
-434.996818253
 20
-503.4153489414
 30
0.0
 40
15.00000000000052
100
AcDbArc
 50
54.5940682269
 51
215.4059317731
  0
ARC
  5
E5
330
1F
100
AcDbEntity
  8
0
  6
Continuous
 62
     7
370
    25
100
AcDbCircle
 10
-424.5682381985
 20
-488.7441281998
 30
0.0
 40
2.999999999999991
100
AcDbArc
 50
234.5940682269
 51
315.0
  0
LINE
  5
E6
330
1F
100
AcDbEntity
  8
0
  6
Continuous
 62
     7
370
    25
100
AcDbLine
 10
-422.446917855
 20
-490.8654485434
 30
0.0
 11
-410.057105513
 21
-478.4756362014
 31
0.0
  0
LINE
  5
E7
330
1F
100
AcDbEntity
  8
0
  6
Continuous
 62
     7
370
    25
100
AcDbLine
 10
-25.8481981742
 20
-422.8315875524
 30
0.0
 11
-410.057105513
 21
-478.4756362014
 31
0.0
  0
ARC
  5
E8
330
1F
100
AcDbEntity
  8
0
  6
Continuous
 62
     7
370
    25
100
AcDbCircle
 10
-23.4115509687
 20
-439.6560563522
 30
0.0
 40
16.99999999999997
100
AcDbArc
 50
77.0425338197
 51
98.2407118297
  0
LINE
  5
E9
330
1F
100
AcDbEntity
  8
0
  6
Continuous
 62
     7
370
    25
100
AcDbLine
 10
456.4424433685
 20
-532.6197505199
 30
0.0
 11
-19.5996806851
 21
-423.0889309244
 31
0.0
  0
ARC
  5
EA
330
1F
100
AcDbEntity
  8
0
  6
Continuous
 62
     7
370
    25
100
AcDbCircle
 10
461.5996796346
 20
-510.2054043529
 30
0.0
 40
23.00000000000001
100
AcDbArc
 50
257.0425338197
 51
278.2407118297
  0
LINE
  5
EB
330
1F
100
AcDbEntity
  8
0
  6
Continuous
 62
     7
370
    25
100
AcDbLine
 10
847.3450580279
 20
-477.5787933838
 30
0.0
 11
464.8963199715
 21
-532.9679209644
 31
0.0
  0
LINE
  5
EC
330
1F
100
AcDbEntity
  8
0
  6
Continuous
 62
     7
370
    25
100
AcDbLine
 10
860.6317131875
 20
-490.8654485434
 30
0.0
 11
847.3450580279
 21
-477.5787933838
 31
0.0
  0
ARC
  5
ED
330
1F
100
AcDbEntity
  8
0
  6
Continuous
 62
     7
370
    25
100
AcDbCircle
 10
873.1816135855
 20
-503.4153489414
 30
0.0
 40
15.0000000000003
100
AcDbArc
 50
324.5940682269
 51
125.4059317731
  0
ARC
  5
EE
330
1F
100
AcDbEntity
  8
0
  6
Continuous
 62
     7
370
    25
100
AcDbCircle
 10
887.8528343271
 20
-513.8439289959
 30
0.0
 40
3.00000000000001
100
AcDbArc
 50
144.5940682269
 51
225.0
  0
LINE
  5
EF
330
1F
100
AcDbEntity
  8
0
  6
Continuous
 62
     7
370
    25
100
AcDbLine
 10
941.0923976663
 20
-571.3261330222
 30
0.0
 11
885.7315139835
 21
-515.9652493394
 31
0.0
  0
LINE
  5
F0
330
1F
100
AcDbEntity
  8
0
  6
Continuous
 62
     7
370
    25
100
AcDbLine
 10
941.0923976663
 20
-586.3261330222
 30
0.0
 11
941.0923976663
 21
-571.3261330222
 31
0.0
  0
LINE
  5
F1
330
1F
100
AcDbEntity
  8
0
  6
Continuous
 62
     7
370
    25
100
AcDbLine
 10
845.8244484738
 20
-586.3261330222
 30
0.0
 11
941.0923976663
 21
-586.3261330222
 31
0.0
  0
ARC
  5
F2
330
1F
100
AcDbEntity
  8
0
  6
Continuous
 62
     7
370
    25
100
AcDbCircle
 10
845.8244484738
 20
-592.3261330222
 30
0.0
 40
6.000000000000114
100
AcDbArc
 50
90.0
 51
150.0
  0
LINE
  5
F3
330
1F
100
AcDbEntity
  8
0
  6
Continuous
 62
     7
370
    25
100
AcDbLine
 10
818.4003106873
 20
-627.8261330222
 30
0.0
 11
840.6282960511
 21
-589.3261330222
 31
0.0
  0
ARC
  5
F4
330
1F
100
AcDbEntity
  8
0
  6
Continuous
 62
     7
370
    25
100
AcDbCircle
 10
803.677878823
 20
-619.3261330222
 30
0.0
 40
17.00000000000011
100
AcDbArc
 50
270.0
 51
330.0
  0
LINE
  5
F5
330
1F
100
AcDbEntity
  8
0
  6
Continuous
 62
     7
370
    25
100
AcDbLine
 10
309.5069165096
 20
-636.3261330222
 30
0.0
 11
803.677878823
 21
-636.3261330222
 31
0.0
  0
ARC
  5
F6
330
1F
100
AcDbEntity
  8
0
  6
Continuous
 62
     7
370
    25
100
AcDbCircle
 10
309.5069165096
 20
-619.3261330222
 30
0.0
 40
17.0
100
AcDbArc
 50
210.0
 51
270.0
  0
LINE
  5
F7
330
1F
100
AcDbEntity
  8
0
  6
Continuous
 62
     7
370
    25
100
AcDbLine
 10
272.5564992814
 20
-589.3261330222
 30
0.0
 11
294.7844846452
 21
-627.8261330222
 31
0.0
  0
ARC
  5
F8
330
1F
100
AcDbEntity
  8
0
  6
Continuous
 62
     7
370
    25
100
AcDbCircle
 10
267.3603468587
 20
-592.3261330222
 30
0.0
 40
6.000000000000114
100
AcDbArc
 50
30.0
 51
90.0
  0
LINE
  5
F9
330
1F
100
AcDbEntity
  8
0
  6
Continuous
 62
     7
370
    25
100
AcDbLine
 10
170.8244484738
 20
-586.3261330222
 30
0.0
 11
267.3603468587
 21
-586.3261330222
 31
0.0
  0
ARC
  5
FA
330
1F
100
AcDbEntity
  8
0
  6
Continuous
 62
     7
370
    25
100
AcDbCircle
 10
170.8244484738
 20
-592.3261330222
 30
0.0
 40
6.000000000000114
100
AcDbArc
 50
90.0
 51
150.0
  0
LINE
  5
FB
330
1F
100
AcDbEntity
  8
0
  6
Continuous
 62
     7
370
    25
100
AcDbLine
 10
143.4003106873
 20
-627.8261330222
 30
0.0
 11
165.6282960511
 21
-589.3261330222
 31
0.0
  0
ARC
  5
FC
330
1F
100
AcDbEntity
  8
0
  6
Continuous
 62
     7
370
    25
100
AcDbCircle
 10
128.677878823
 20
-619.3261330222
 30
0.0
 40
17.0
100
AcDbArc
 50
270.0
 51
330.0
  0
LINE
  5
FD
330
1F
100
AcDbEntity
  8
0
  6
Continuous
 62
     7
370
    25
100
AcDbLine
 10
-365.4930834904
 20
-636.3261330222
 30
0.0
 11
128.677878823
 21
-636.3261330222
 31
0.0
  0
ARC
  5
FE
330
1F
100
AcDbEntity
  8
0
  6
Continuous
 62
     7
370
    25
100
AcDbCircle
 10
-365.4930834904
 20
-619.3261330222
 30
0.0
 40
17.0
100
AcDbArc
 50
210.0
 51
270.0
  0
LINE
  5
FF
330
1F
100
AcDbEntity
  8
0
  6
Continuous
 62
     7
370
    25
100
AcDbLine
 10
-402.4435007186
 20
-589.3261330222
 30
0.0
 11
-380.2155153548
 21
-627.8261330222
 31
0.0
  0
ARC
  5
100
330
1F
100
AcDbEntity
  8
0
  6
Continuous
 62
     7
370
    25
100
AcDbCircle
 10
-407.6396531413
 20
-592.3261330222
 30
0.0
 40
6.000000000000114
100
AcDbArc
 50
30.0
 51
90.0
  0
LINE
  5
101
330
1F
100
AcDbEntity
  8
0
  6
Continuous
 62
     7
370
    25
100
AcDbLine
 10
-502.9076023337
 20
-586.3261330222
 30
0.0
 11
-407.6396531413
 21
-586.3261330222
 31
0.0
  0
LINE
  5
102
330
1F
100
AcDbEntity
  8
0
  6
Continuous
 62
     7
370
    25
100
AcDbLine
 10
-502.9076023337
 20
-571.3261330222
 30
0.0
 11
-502.9076023337
 21
-586.3261330222
 31
0.0
  0
LINE
  5
103
330
1F
100
AcDbEntity
  8
0
  6
Continuous
 62
     7
370
    25
100
AcDbLine
 10
-502.9076023337
 20
-571.3261330222
 30
0.0
 11
-447.546718651
 21
-515.9652493394
 31
0.0
  0
ARC
  5
104
330
1F
100
AcDbEntity
  8
0
  6
Continuous
 62
     7
370
    25
100
AcDbCircle
 10
862.7530335311
 20
-488.7441281998
 30
0.0
 40
2.999999999999984
100
AcDbArc
 50
225.0
 51
305.4059317731
  0
ARC
  5
105
330
1F
100
AcDbEntity
  8
0
  6
Continuous
 62
     7
370
    25
100
AcDbCircle
 10
-23.4115509687
 20
-439.6560563522
 30
0.0
 40
19.99999999999994
100
AcDbArc
 50
77.0425338197
 51
98.2407118297
  0
LINE
  5
106
330
1F
100
AcDbEntity
  8
0
  6
Continuous
 62
     7
370
    25
100
AcDbLine
 10
-18.9269976938
 20
-420.1653205548
 30
0.0
 11
-19.5996806851
 21
-423.0889309244
 31
0.0
  0
LINE
  5
107
330
1F
100
AcDbEntity
  8
0
  6
Continuous
 62
     7
370
    25
100
AcDbLine
 10
-26.2781947399
 20
-419.8625636465
 30
0.0
 11
-25.8481981742
 21
-422.8315875524
 31
0.0
  0
LINE
  5
108
330
1F
100
AcDbEntity
  8
0
  6
Continuous
 62
     7
370
    25
100
AcDbLine
 10
941.0923976663
 20
-571.3261330222
 30
0.0
 11
944.0923976663
 21
-574.3261330222
 31
0.0
  0
LINE
  5
109
330
1F
100
AcDbEntity
  8
0
  6
Continuous
 62
     7
370
    25
100
AcDbLine
 10
944.0923976663
 20
-574.3261330222
 30
0.0
 11
944.0923976663
 21
-586.3261330222
 31
0.0
  0
LINE
  5
10A
330
1F
100
AcDbEntity
  8
0
  6
Continuous
 62
     7
370
    25
100
AcDbLine
 10
944.0923976663
 20
-586.3261330222
 30
0.0
 11
941.0923976663
 21
-586.3261330222
 31
0.0
  0
LINE
  5
10B
330
1F
100
AcDbEntity
  8
0
  6
Continuous
 62
     7
370
    25
100
AcDbLine
 10
803.677878823
 20
-639.3261330222
 30
0.0
 11
309.5069165096
 21
-639.3261330222
 31
0.0
  0
LINE
  5
10C
330
1F
100
AcDbEntity
  8
0
  6
Continuous
 62
     7
370
    25
100
AcDbLine
 10
309.5069165096
 20
-639.3261330222
 30
0.0
 11
309.5069165096
 21
-636.3261330222
 31
0.0
  0
LINE
  5
10D
330
1F
100
AcDbEntity
  8
0
  6
Continuous
 62
     7
370
    25
100
AcDbLine
 10
803.677878823
 20
-639.3261330222
 30
0.0
 11
803.677878823
 21
-636.3261330222
 31
0.0
  0
LINE
  5
10E
330
1F
100
AcDbEntity
  8
0
  6
Continuous
 62
     7
370
    25
100
AcDbLine
 10
-18.9269976938
 20
-420.1653205548
 30
0.0
 11
457.1151263597
 21
-529.6961401503
 31
0.0
  0
LINE
  5
10F
330
1F
100
AcDbEntity
  8
0
  6
Continuous
 62
     7
370
    25
100
AcDbLine
 10
457.1151263597
 20
-529.6961401503
 30
0.0
 11
456.4424433685
 21
-532.6197505199
 31
0.0
  0
ARC
  5
110
330
1F
100
AcDbEntity
  8
0
  6
Continuous
 62
     7
370
    25
100
AcDbCircle
 10
845.8244484738
 20
-592.3261330222
 30
0.0
 40
3.000000000000106
100
AcDbArc
 50
90.0
 51
150.0
  0
LINE
  5
111
330
1F
100
AcDbEntity
  8
0
  6
Continuous
 62
     7
370
    25
100
AcDbLine
 10
843.2263722625
 20
-590.8261330222
 30
0.0
 11
840.6282960511
 21
-589.3261330222
 31
0.0
  0
LINE
  5
112
330
1F
100
AcDbEntity
  8
0
  6
Continuous
 62
     7
370
    25
100
AcDbLine
 10
845.8244484738
 20
-589.3261330222
 30
0.0
 11
845.8244484738
 21
-586.3261330222
 31
0.0
  0
LINE
  5
113
330
1F
100
AcDbEntity
  8
0
  6
Continuous
 62
     7
370
    25
100
AcDbLine
 10
464.4663234058
 20
-529.9988970586
 30
0.0
 11
844.697236376
 21
-474.9309717319
 31
0.0
  0
LINE
  5
114
330
1F
100
AcDbEntity
  8
0
  6
Continuous
 62
     7
370
    25
100
AcDbLine
 10
844.697236376
 20
-474.9309717319
 30
0.0
 11
847.3450580279
 21
-477.5787933838
 31
0.0
  0
LINE
  5
115
330
1F
100
AcDbEntity
  8
0
  6
Continuous
 62
     7
370
    25
100
AcDbLine
 10
464.4663234058
 20
-529.9988970586
 30
0.0
 11
464.8963199715
 21
-532.9679209644
 31
0.0
  0
LINE
  5
116
330
1F
100
AcDbEntity
  8
0
  6
Continuous
 62
     7
370
    25
100
AcDbLine
 10
-382.8135915661
 20
-629.3261330222
 30
0.0
 11
-405.0415769299
 21
-590.8261330222
 31
0.0
  0
LINE
  5
117
330
1F
100
AcDbEntity
  8
0
  6
Continuous
 62
     7
370
    25
100
AcDbLine
 10
-405.0415769299
 20
-590.8261330222
 30
0.0
 11
-402.4435007186
 21
-589.3261330222
 31
0.0
  0
LINE
  5
118
330
1F
100
AcDbEntity
  8
0
  6
Continuous
 62
     7
370
    25
100
AcDbLine
 10
-382.8135915661
 20
-629.3261330222
 30
0.0
 11
-380.2155153548
 21
-627.8261330222
 31
0.0
  0
ARC
  5
119
330
1F
100
AcDbEntity
  8
0
  6
Continuous
 62
     7
370
    25
100
AcDbCircle
 10
-407.6396531413
 20
-592.3261330222
 30
0.0
 40
3.000000000000057
100
AcDbArc
 50
30.0
 51
90.0
  0
LINE
  5
11A
330
1F
100
AcDbEntity
  8
0
  6
Continuous
 62
     7
370
    25
100
AcDbLine
 10
-407.6396531413
 20
-589.3261330222
 30
0.0
 11
-407.6396531413
 21
-586.3261330222
 31
0.0
  0
LINE
  5
11B
330
1F
100
AcDbEntity
  8
0
  6
Continuous
 62
     7
370
    25
100
AcDbLine
 10
941.0923976663
 20
-589.3261330222
 30
0.0
 11
941.0923976663
 21
-586.3261330222
 31
0.0
  0
ARC
  5
11C
330
1F
100
AcDbEntity
  8
0
  6
Continuous
 62
     7
370
    25
100
AcDbCircle
 10
941.0923976663
 20
-586.3261330222
 30
0.0
 40
3.000000000000114
100
AcDbArc
 50
270.0
 51
0.0
  0
LINE
  5
11D
330
1F
100
AcDbEntity
  8
0
  6
Continuous
 62
     7
370
    25
100
AcDbLine
 10
128.677878823
 20
-639.3261330222
 30
0.0
 11
-365.4930834904
 21
-639.3261330222
 31
0.0
  0
LINE
  5
11E
330
1F
100
AcDbEntity
  8
0
  6
Continuous
 62
     7
370
    25
100
AcDbLine
 10
-365.4930834904
 20
-639.3261330222
 30
0.0
 11
-365.4930834904
 21
-636.3261330222
 31
0.0
  0
LINE
  5
11F
330
1F
100
AcDbEntity
  8
0
  6
Continuous
 62
     7
370
    25
100
AcDbLine
 10
128.677878823
 20
-639.3261330222
 30
0.0
 11
128.677878823
 21
-636.3261330222
 31
0.0
  0
LINE
  5
120
330
1F
100
AcDbEntity
  8
0
  6
Continuous
 62
     7
370
    25
100
AcDbLine
 10
843.2263722625
 20
-590.8261330222
 30
0.0
 11
820.9983868987
 21
-629.3261330222
 31
0.0
  0
LINE
  5
121
330
1F
100
AcDbEntity
  8
0
  6
Continuous
 62
     7
370
    25
100
AcDbLine
 10
820.9983868987
 20
-629.3261330222
 30
0.0
 11
818.4003106873
 21
-627.8261330222
 31
0.0
  0
LINE
  5
122
330
1F
100
AcDbEntity
  8
0
  6
Continuous
 62
     7
370
    25
100
AcDbLine
 10
267.3603468587
 20
-589.3261330222
 30
0.0
 11
170.8244484738
 21
-589.3261330222
 31
0.0
  0
LINE
  5
123
330
1F
100
AcDbEntity
  8
0
  6
Continuous
 62
     7
370
    25
100
AcDbLine
 10
170.8244484738
 20
-589.3261330222
 30
0.0
 11
170.8244484738
 21
-586.3261330222
 31
0.0
  0
LINE
  5
124
330
1F
100
AcDbEntity
  8
0
  6
Continuous
 62
     7
370
    25
100
AcDbLine
 10
267.3603468587
 20
-589.3261330222
 30
0.0
 11
267.3603468587
 21
-586.3261330222
 31
0.0
  0
LINE
  5
125
330
1F
100
AcDbEntity
  8
0
  6
Continuous
 62
     7
370
    25
100
AcDbLine
 10
-406.5124410434
 20
-474.9309717319
 30
0.0
 11
-26.2781947399
 21
-419.8625636465
 31
0.0
  0
LINE
  5
126
330
1F
100
AcDbEntity
  8
0
  6
Continuous
 62
     7
370
    25
100
AcDbLine
 10
-410.057105513
 20
-478.4756362014
 30
0.0
 11
-406.5124410434
 21
-474.9309717319
 31
0.0
  0
LINE
  5
127
330
1F
100
AcDbEntity
  8
0
  6
Continuous
 62
     7
370
    25
100
AcDbLine
 10
-505.9076023337
 20
-586.3261330222
 30
0.0
 11
-502.9076023337
 21
-586.3261330222
 31
0.0
  0
LINE
  5
128
330
1F
100
AcDbEntity
  8
0
  6
Continuous
 62
     7
370
    25
100
AcDbLine
 10
-502.9076023337
 20
-589.3261330222
 30
0.0
 11
-502.9076023337
 21
-586.3261330222
 31
0.0
  0
ARC
  5
129
330
1F
100
AcDbEntity
  8
0
  6
Continuous
 62
     7
370
    25
100
AcDbCircle
 10
-502.9076023337
 20
-586.3261330222
 30
0.0
 40
3.000000000000114
100
AcDbArc
 50
180.0
 51
270.0
  0
LINE
  5
12A
330
1F
100
AcDbEntity
  8
0
  6
Continuous
 62
     7
370
    25
100
AcDbLine
 10
168.2263722625
 20
-590.8261330222
 30
0.0
 11
145.9983868987
 21
-629.3261330222
 31
0.0
  0
LINE
  5
12B
330
1F
100
AcDbEntity
  8
0
  6
Continuous
 62
     7
370
    25
100
AcDbLine
 10
145.9983868987
 20
-629.3261330222
 30
0.0
 11
143.4003106873
 21
-627.8261330222
 31
0.0
  0
LINE
  5
12C
330
1F
100
AcDbEntity
  8
0
  6
Continuous
 62
     7
370
    25
100
AcDbLine
 10
168.2263722625
 20
-590.8261330222
 30
0.0
 11
165.6282960511
 21
-589.3261330222
 31
0.0
  0
ARC
  5
12D
330
1F
100
AcDbEntity
  8
0
  6
Continuous
 62
     7
370
    25
100
AcDbCircle
 10
128.677878823
 20
-619.3261330222
 30
0.0
 40
19.99999999999997
100
AcDbArc
 50
270.0
 51
330.0
  0
ARC
  5
12E
330
1F
100
AcDbEntity
  8
0
  6
Continuous
 62
     7
370
    25
100
AcDbCircle
 10
803.677878823
 20
-619.3261330222
 30
0.0
 40
20.00000000000006
100
AcDbArc
 50
270.0
 51
330.0
  0
LINE
  5
12F
330
1F
100
AcDbEntity
  8
0
  6
Continuous
 62
     7
370
    25
100
AcDbLine
 10
-505.9076023337
 20
-586.3261330222
 30
0.0
 11
-505.9076023337
 21
-574.3261330222
 31
0.0
  0
LINE
  5
130
330
1F
100
AcDbEntity
  8
0
  6
Continuous
 62
     7
370
    25
100
AcDbLine
 10
-505.9076023337
 20
-574.3261330222
 30
0.0
 11
-502.9076023337
 21
-571.3261330222
 31
0.0
  0
ARC
  5
131
330
1F
100
AcDbEntity
  8
0
  6
Continuous
 62
     7
370
    25
100
AcDbCircle
 10
170.8244484738
 20
-592.3261330222
 30
0.0
 40
3.000000000000032
100
AcDbArc
 50
90.0
 51
150.0
  0
ARC
  5
132
330
1F
100
AcDbEntity
  8
0
  6
Continuous
 62
     7
370
    25
100
AcDbCircle
 10
461.5996796346
 20
-510.2054043529
 30
0.0
 40
19.99999999999998
100
AcDbArc
 50
257.0425338197
 51
278.2407118297
  0
LINE
  5
133
330
1F
100
AcDbEntity
  8
0
  6
Continuous
 62
     7
370
    25
100
AcDbLine
 10
941.0923976663
 20
-589.3261330222
 30
0.0
 11
845.8244484738
 21
-589.3261330222
 31
0.0
  0
ARC
  5
134
330
1F
100
AcDbEntity
  8
0
  6
Continuous
 62
     7
370
    25
100
AcDbCircle
 10
-365.4930834904
 20
-619.3261330222
 30
0.0
 40
20.00000000000006
100
AcDbArc
 50
210.0
 51
270.0
  0
ARC
  5
135
330
1F
100
AcDbEntity
  8
0
  6
Continuous
 62
     7
370
    25
100
AcDbCircle
 10
267.3603468587
 20
-592.3261330222
 30
0.0
 40
3.000000000000057
100
AcDbArc
 50
30.0
 51
90.0
  0
LINE
  5
136
330
1F
100
AcDbEntity
  8
0
  6
Continuous
 62
     7
370
    25
100
AcDbLine
 10
269.9584230701
 20
-590.8261330222
 30
0.0
 11
272.5564992814
 21
-589.3261330222
 31
0.0
  0
ARC
  5
137
330
1F
100
AcDbEntity
  8
0
  6
Continuous
 62
     7
370
    25
100
AcDbCircle
 10
309.5069165096
 20
-619.3261330222
 30
0.0
 40
19.99999999999997
100
AcDbArc
 50
210.0
 51
270.0
  0
LINE
  5
138
330
1F
100
AcDbEntity
  8
0
  6
Continuous
 62
     7
370
    25
100
AcDbLine
 10
292.1864084339
 20
-629.3261330222
 30
0.0
 11
294.7844846452
 21
-627.8261330222
 31
0.0
  0
LINE
  5
139
330
1F
100
AcDbEntity
  8
0
  6
Continuous
 62
     7
370
    25
100
AcDbLine
 10
-407.6396531413
 20
-589.3261330222
 30
0.0
 11
-502.9076023337
 21
-589.3261330222
 31
0.0
  0
LINE
  5
13A
330
1F
100
AcDbEntity
  8
0
  6
Continuous
 62
     7
370
    25
100
AcDbLine
 10
292.1864084339
 20
-629.3261330222
 30
0.0
 11
269.9584230701
 21
-590.8261330222
 31
0.0
  0
LINE
  5
13B
330
1F
100
AcDbEntity
  8
0
  6
Continuous
 62
     7
370
    25
100
AcDbLine
 10
-517.9076023337
 20
872.6738669778
 30
0.0
 11
-517.9076023337
 21
777.4059177854
 31
0.0
  0
LINE
  5
13C
330
1F
100
AcDbEntity
  8
0
  6
Continuous
 62
     7
370
    25
100
AcDbLine
 10
-517.9076023337
 20
777.4059177854
 30
0.0
 11
-520.9076023337
 21
777.4059177854
 31
0.0
  0
LINE
  5
13D
330
1F
100
AcDbEntity
  8
0
  6
Continuous
 62
     7
370
    25
100
AcDbLine
 10
-520.9076023337
 20
777.4059177854
 30
0.0
 11
-520.9076023337
 21
872.6738669778
 31
0.0
  0
LINE
  5
13E
330
1F
100
AcDbEntity
  8
0
  6
Continuous
 62
     7
370
    25
100
AcDbLine
 10
-517.9076023337
 20
872.6738669778
 30
0.0
 11
-520.9076023337
 21
872.6738669778
 31
0.0
  0
LINE
  5
13F
330
1F
100
AcDbEntity
  8
0
  6
Continuous
 62
     7
370
    25
100
AcDbLine
 10
-502.9076023337
 20
872.6738669778
 30
0.0
 11
-517.9076023337
 21
872.6738669778
 31
0.0
  0
LINE
  5
140
330
1F
100
AcDbEntity
  8
0
  6
Continuous
 62
     7
370
    25
100
AcDbLine
 10
-517.9076023337
 20
872.6738669778
 30
0.0
 11
-517.9076023337
 21
875.6738669778
 31
0.0
  0
LINE
  5
141
330
1F
100
AcDbEntity
  8
0
  6
Continuous
 62
     7
370
    25
100
AcDbLine
 10
-517.9076023337
 20
875.6738669778
 30
0.0
 11
-505.9076023337
 21
875.6738669778
 31
0.0
  0
LINE
  5
142
330
1F
100
AcDbEntity
  8
0
  6
Continuous
 62
     7
370
    25
100
AcDbLine
 10
-505.9076023337
 20
875.6738669778
 30
0.0
 11
-502.9076023337
 21
872.6738669778
 31
0.0
  0
LINE
  5
143
330
1F
100
AcDbEntity
  8
0
  6
Continuous
 62
     7
370
    25
100
AcDbLine
 10
-505.9076023337
 20
723.1738669778
 30
0.0
 11
-520.9076023337
 21
723.1738669778
 31
0.0
  0
LINE
  5
144
330
1F
100
AcDbEntity
  8
0
  6
Continuous
 62
     7
370
    25
100
AcDbLine
 10
-520.9076023337
 20
663.1738669778
 30
0.0
 11
-520.9076023337
 21
723.1738669778
 31
0.0
  0
LINE
  5
145
330
1F
100
AcDbEntity
  8
0
  6
Continuous
 62
     7
370
    25
100
AcDbLine
 10
-505.9076023337
 20
663.1738669778
 30
0.0
 11
-520.9076023337
 21
663.1738669778
 31
0.0
  0
LINE
  5
146
330
1F
100
AcDbEntity
  8
0
  6
Continuous
 62
     7
370
    25
100
AcDbLine
 10
-505.9076023337
 20
663.1738669778
 30
0.0
 11
-505.9076023337
 21
723.1738669778
 31
0.0
  0
LINE
  5
147
330
1F
100
AcDbEntity
  8
0
  6
Continuous
 62
     7
370
    25
100
AcDbLine
 10
-520.9076023337
 20
-421.8261330222
 30
0.0
 11
-520.9076023337
 21
-361.8261330222
 31
0.0
  0
LINE
  5
148
330
1F
100
AcDbEntity
  8
0
  6
Continuous
 62
     7
370
    25
100
AcDbLine
 10
-520.9076023337
 20
-421.8261330222
 30
0.0
 11
-505.9076023337
 21
-421.8261330222
 31
0.0
  0
LINE
  5
149
330
1F
100
AcDbEntity
  8
0
  6
Continuous
 62
     7
370
    25
100
AcDbLine
 10
-505.9076023337
 20
-421.8261330222
 30
0.0
 11
-505.9076023337
 21
-361.8261330222
 31
0.0
  0
LINE
  5
14A
330
1F
100
AcDbEntity
  8
0
  6
Continuous
 62
     7
370
    25
100
AcDbLine
 10
-520.9076023337
 20
-361.8261330222
 30
0.0
 11
-505.9076023337
 21
-361.8261330222
 31
0.0
  0
LINE
  5
14B
330
1F
100
AcDbEntity
  8
0
  6
Continuous
 62
     7
370
    25
100
AcDbLine
 10
-505.9076023337
 20
-181.8261330222
 30
0.0
 11
-505.9076023337
 21
-241.8261330222
 31
0.0
  0
LINE
  5
14C
330
1F
100
AcDbEntity
  8
0
  6
Continuous
 62
     7
370
    25
100
AcDbLine
 10
-505.9076023337
 20
-181.8261330222
 30
0.0
 11
-520.9076023337
 21
-181.8261330222
 31
0.0
  0
LINE
  5
14D
330
1F
100
AcDbEntity
  8
0
  6
Continuous
 62
     7
370
    25
100
AcDbLine
 10
-520.9076023337
 20
-181.8261330222
 30
0.0
 11
-520.9076023337
 21
-241.8261330222
 31
0.0
  0
LINE
  5
14E
330
1F
100
AcDbEntity
  8
0
  6
Continuous
 62
     7
370
    25
100
AcDbLine
 10
-505.9076023337
 20
-241.8261330222
 30
0.0
 11
-520.9076023337
 21
-241.8261330222
 31
0.0
  0
LINE
  5
14F
330
1F
100
AcDbEntity
  8
0
  6
Continuous
 62
     7
370
    25
100
AcDbLine
 10
-505.9076023337
 20
-1.8261330222
 30
0.0
 11
-505.9076023337
 21
-61.8261330222
 31
0.0
  0
LINE
  5
150
330
1F
100
AcDbEntity
  8
0
  6
Continuous
 62
     7
370
    25
100
AcDbLine
 10
-505.9076023337
 20
-1.8261330222
 30
0.0
 11
-520.9076023337
 21
-1.8261330222
 31
0.0
  0
LINE
  5
151
330
1F
100
AcDbEntity
  8
0
  6
Continuous
 62
     7
370
    25
100
AcDbLine
 10
-520.9076023337
 20
-1.8261330222
 30
0.0
 11
-520.9076023337
 21
-61.8261330222
 31
0.0
  0
LINE
  5
152
330
1F
100
AcDbEntity
  8
0
  6
Continuous
 62
     7
370
    25
100
AcDbLine
 10
-505.9076023337
 20
-61.8261330222
 30
0.0
 11
-520.9076023337
 21
-61.8261330222
 31
0.0
  0
LINE
  5
153
330
1F
100
AcDbEntity
  8
0
  6
Continuous
 62
     7
370
    25
100
AcDbLine
 10
-505.9076023337
 20
363.1738669778
 30
0.0
 11
-505.9076023337
 21
303.1738669778
 31
0.0
  0
LINE
  5
154
330
1F
100
AcDbEntity
  8
0
  6
Continuous
 62
     7
370
    25
100
AcDbLine
 10
-505.9076023337
 20
363.1738669778
 30
0.0
 11
-520.9076023337
 21
363.1738669778
 31
0.0
  0
LINE
  5
155
330
1F
100
AcDbEntity
  8
0
  6
Continuous
 62
     7
370
    25
100
AcDbLine
 10
-520.9076023337
 20
363.1738669778
 30
0.0
 11
-520.9076023337
 21
303.1738669778
 31
0.0
  0
LINE
  5
156
330
1F
100
AcDbEntity
  8
0
  6
Continuous
 62
     7
370
    25
100
AcDbLine
 10
-505.9076023337
 20
303.1738669778
 30
0.0
 11
-520.9076023337
 21
303.1738669778
 31
0.0
  0
LINE
  5
157
330
1F
100
AcDbEntity
  8
0
  6
Continuous
 62
     7
370
    25
100
AcDbLine
 10
-520.9076023337
 20
483.1738669778
 30
0.0
 11
-520.9076023337
 21
543.1738669778
 31
0.0
  0
LINE
  5
158
330
1F
100
AcDbEntity
  8
0
  6
Continuous
 62
     7
370
    25
100
AcDbLine
 10
-520.9076023337
 20
483.1738669778
 30
0.0
 11
-505.9076023337
 21
483.1738669778
 31
0.0
  0
LINE
  5
159
330
1F
100
AcDbEntity
  8
0
  6
Continuous
 62
     7
370
    25
100
AcDbLine
 10
-505.9076023337
 20
483.1738669778
 30
0.0
 11
-505.9076023337
 21
543.1738669778
 31
0.0
  0
LINE
  5
15A
330
1F
100
AcDbEntity
  8
0
  6
Continuous
 62
     7
370
    25
100
AcDbLine
 10
-520.9076023337
 20
543.1738669778
 30
0.0
 11
-505.9076023337
 21
543.1738669778
 31
0.0
  0
ARC
  5
15B
330
1F
100
AcDbEntity
  8
0
  6
Continuous
 62
     7
370
    25
100
AcDbCircle
 10
-523.9076023337
 20
-476.0581838297
 30
0.0
 40
6.000000000000091
100
AcDbArc
 50
0.0
 51
60.0
  0
LINE
  5
15C
330
1F
100
AcDbEntity
  8
0
  6
Continuous
 62
     7
370
    25
100
AcDbLine
 10
-559.4076023337
 20
-448.6340460432
 30
0.0
 11
-520.9076023337
 21
-470.862031407
 31
0.0
  0
ARC
  5
15D
330
1F
100
AcDbEntity
  8
0
  6
Continuous
 62
     7
370
    25
100
AcDbCircle
 10
-550.9076023337
 20
-433.9116141789
 30
0.0
 40
16.99999999999991
100
AcDbArc
 50
180.0
 51
240.0
  0
LINE
  5
15E
330
1F
100
AcDbEntity
  8
0
  6
Continuous
 62
     7
370
    25
100
AcDbLine
 10
-567.9076023337
 20
60.2593481346
 30
0.0
 11
-567.9076023337
 21
-433.9116141789
 31
0.0
  0
ARC
  5
15F
330
1F
100
AcDbEntity
  8
0
  6
Continuous
 62
     7
370
    25
100
AcDbCircle
 10
-550.9076023337
 20
60.2593481346
 30
0.0
 40
16.99999999999991
100
AcDbArc
 50
120.0
 51
180.0
  0
LINE
  5
160
330
1F
100
AcDbEntity
  8
0
  6
Continuous
 62
     7
370
    25
100
AcDbLine
 10
-520.9076023337
 20
97.2097653627
 30
0.0
 11
-559.4076023337
 21
74.9817799989
 31
0.0
  0
ARC
  5
161
330
1F
100
AcDbEntity
  8
0
  6
Continuous
 62
     7
370
    25
100
AcDbCircle
 10
-523.9076023337
 20
102.4059177854
 30
0.0
 40
6.0
100
AcDbArc
 50
300.0
 51
0.0
  0
LINE
  5
162
330
1F
100
AcDbEntity
  8
0
  6
Continuous
 62
     7
370
    25
100
AcDbLine
 10
-517.9076023337
 20
198.9418161703
 30
0.0
 11
-517.9076023337
 21
102.4059177854
 31
0.0
  0
ARC
  5
163
330
1F
100
AcDbEntity
  8
0
  6
Continuous
 62
     7
370
    25
100
AcDbCircle
 10
-523.9076023337
 20
198.9418161703
 30
0.0
 40
6.0
100
AcDbArc
 50
0.0
 51
60.0
  0
LINE
  5
164
330
1F
100
AcDbEntity
  8
0
  6
Continuous
 62
     7
370
    25
100
AcDbLine
 10
-559.4076023337
 20
226.3659539568
 30
0.0
 11
-520.9076023337
 21
204.137968593
 31
0.0
  0
ARC
  5
165
330
1F
100
AcDbEntity
  8
0
  6
Continuous
 62
     7
370
    25
100
AcDbCircle
 10
-550.9076023337
 20
241.0883858211
 30
0.0
 40
16.99999999999991
100
AcDbArc
 50
180.0
 51
240.0
  0
LINE
  5
166
330
1F
100
AcDbEntity
  8
0
  6
Continuous
 62
     7
370
    25
100
AcDbLine
 10
-567.9076023337
 20
735.2593481346
 30
0.0
 11
-567.9076023337
 21
241.0883858211
 31
0.0
  0
ARC
  5
167
330
1F
100
AcDbEntity
  8
0
  6
Continuous
 62
     7
370
    25
100
AcDbCircle
 10
-550.9076023337
 20
735.2593481346
 30
0.0
 40
17.00000000000011
100
AcDbArc
 50
120.0
 51
180.0
  0
LINE
  5
168
330
1F
100
AcDbEntity
  8
0
  6
Continuous
 62
     7
370
    25
100
AcDbLine
 10
-520.9076023337
 20
772.2097653627
 30
0.0
 11
-559.4076023337
 21
749.9817799989
 31
0.0
  0
ARC
  5
169
330
1F
100
AcDbEntity
  8
0
  6
Continuous
 62
     7
370
    25
100
AcDbCircle
 10
-523.9076023337
 20
777.4059177854
 30
0.0
 40
6.0
100
AcDbArc
 50
300.0
 51
0.0
  0
ARC
  5
16A
330
1F
100
AcDbEntity
  8
0
  6
Continuous
 62
     7
370
    25
100
AcDbCircle
 10
-449.6680389945
 20
815.1916629515
 30
0.0
 40
3.000000000000083
100
AcDbArc
 50
324.5940682269
 51
45.0
  0
LINE
  5
16B
330
1F
100
AcDbEntity
  8
0
  6
Continuous
 62
     7
370
    25
100
AcDbLine
 10
-464.549390276
 20
396.477789283
 30
0.0
 11
-409.1602626954
 21
778.9265273395
 31
0.0
  0
ARC
  5
16C
330
1F
100
AcDbEntity
  8
0
  6
Continuous
 62
     7
370
    25
100
AcDbCircle
 10
-441.7868736645
 20
393.1811489462
 30
0.0
 40
22.99999999999999
100
AcDbArc
 50
171.7592881703
 51
192.9574661803
  0
LINE
  5
16D
330
1F
100
AcDbEntity
  8
0
  6
Continuous
 62
     7
370
    25
100
AcDbLine
 10
-354.6704002359
 20
-88.0182113735
 30
0.0
 11
-464.2012198315
 21
388.02391268
 31
0.0
  0
ARC
  5
16E
330
1F
100
AcDbEntity
  8
0
  6
Continuous
 62
     7
370
    25
100
AcDbCircle
 10
-371.2375256637
 20
-91.8300816572
 30
0.0
 40
17.00000000000008
100
AcDbArc
 50
351.7592881703
 51
12.9574661803
  0
LINE
  5
16F
330
1F
100
AcDbEntity
  8
0
  6
Continuous
 62
     7
370
    25
100
AcDbLine
 10
-410.057105513
 20
-478.4756362014
 30
0.0
 11
-354.4130568639
 21
-94.2667288627
 31
0.0
  0
LINE
  5
170
330
1F
100
AcDbEntity
  8
0
  6
Continuous
 62
     7
370
    25
100
AcDbLine
 10
-517.9076023337
 20
-571.3261330222
 30
0.0
 11
-502.9076023337
 21
-571.3261330222
 31
0.0
  0
LINE
  5
171
330
1F
100
AcDbEntity
  8
0
  6
Continuous
 62
     7
370
    25
100
AcDbLine
 10
-517.9076023337
 20
-476.0581838297
 30
0.0
 11
-517.9076023337
 21
-571.3261330222
 31
0.0
  0
LINE
  5
172
330
1F
100
AcDbEntity
  8
0
  6
Continuous
 62
     7
370
    25
100
AcDbLine
 10
-502.9076023337
 20
872.6738669778
 30
0.0
 11
-447.546718651
 21
817.3129832951
 31
0.0
  0
ARC
  5
173
330
1F
100
AcDbEntity
  8
0
  6
Continuous
 62
     7
370
    25
100
AcDbCircle
 10
-424.5682381985
 20
790.0918621555
 30
0.0
 40
3.000000000000145
100
AcDbArc
 50
45.0
 51
125.4059317731
  0
ARC
  5
174
330
1F
100
AcDbEntity
  8
0
  6
Continuous
 62
     7
370
    25
100
AcDbCircle
 10
-434.996818253
 20
804.7630828971
 30
0.0
 40
15.00000000000017
100
AcDbArc
 50
144.5940682269
 51
305.4059317731
  0
LINE
  5
175
330
1F
100
AcDbEntity
  8
0
  6
Continuous
 62
     7
370
    25
100
AcDbLine
 10
-422.446917855
 20
792.2131824991
 30
0.0
 11
-409.1602626954
 21
778.9265273395
 31
0.0
  0
LINE
  5
176
330
1F
100
AcDbEntity
  8
0
  6
Continuous
 62
     7
370
    25
100
AcDbLine
 10
-559.4076023337
 20
749.9817799989
 30
0.0
 11
-560.9076023337
 21
752.5798562102
 31
0.0
  0
LINE
  5
177
330
1F
100
AcDbEntity
  8
0
  6
Continuous
 62
     7
370
    25
100
AcDbLine
 10
-560.9076023337
 20
752.5798562102
 30
0.0
 11
-522.4076023337
 21
774.807841574
 31
0.0
  0
LINE
  5
178
330
1F
100
AcDbEntity
  8
0
  6
Continuous
 62
     7
370
    25
100
AcDbLine
 10
-520.9076023337
 20
772.2097653627
 30
0.0
 11
-522.4076023337
 21
774.807841574
 31
0.0
  0
LINE
  5
179
330
1F
100
AcDbEntity
  8
0
  6
Continuous
 62
     7
370
    25
100
AcDbLine
 10
-406.5124410434
 20
776.2787056875
 30
0.0
 11
-461.5803663701
 21
396.0477927173
 31
0.0
  0
LINE
  5
17A
330
1F
100
AcDbEntity
  8
0
  6
Continuous
 62
     7
370
    25
100
AcDbLine
 10
-461.5803663701
 20
396.0477927173
 30
0.0
 11
-464.549390276
 21
396.477789283
 31
0.0
  0
LINE
  5
17B
330
1F
100
AcDbEntity
  8
0
  6
Continuous
 62
     7
370
    25
100
AcDbLine
 10
-409.1602626954
 20
778.9265273395
 30
0.0
 11
-406.5124410434
 21
776.2787056875
 31
0.0
  0
ARC
  5
17C
330
1F
100
AcDbEntity
  8
0
  6
Continuous
 62
     7
370
    25
100
AcDbCircle
 10
-523.9076023337
 20
777.4059177854
 30
0.0
 40
3.000000000000114
100
AcDbArc
 50
300.0
 51
0.0
  0
ARC
  5
17D
330
1F
100
AcDbEntity
  8
0
  6
Continuous
 62
     7
370
    25
100
AcDbCircle
 10
-517.9076023337
 20
872.6738669778
 30
0.0
 40
3.0
100
AcDbArc
 50
90.0
 51
180.0
  0
LINE
  5
17E
330
1F
100
AcDbEntity
  8
0
  6
Continuous
 62
     7
370
    25
100
AcDbLine
 10
-567.9076023337
 20
241.0883858211
 30
0.0
 11
-570.9076023337
 21
241.0883858211
 31
0.0
  0
LINE
  5
17F
330
1F
100
AcDbEntity
  8
0
  6
Continuous
 62
     7
370
    25
100
AcDbLine
 10
-570.9076023337
 20
241.0883858211
 30
0.0
 11
-570.9076023337
 21
735.2593481346
 31
0.0
  0
LINE
  5
180
330
1F
100
AcDbEntity
  8
0
  6
Continuous
 62
     7
370
    25
100
AcDbLine
 10
-567.9076023337
 20
735.2593481346
 30
0.0
 11
-570.9076023337
 21
735.2593481346
 31
0.0
  0
ARC
  5
181
330
1F
100
AcDbEntity
  8
0
  6
Continuous
 62
     7
370
    25
100
AcDbCircle
 10
-550.9076023337
 20
735.2593481346
 30
0.0
 40
20.00000000000006
100
AcDbArc
 50
120.0
 51
180.0
  0
ARC
  5
182
330
1F
100
AcDbEntity
  8
0
  6
Continuous
 62
     7
370
    25
100
AcDbCircle
 10
-441.7868736645
 20
393.1811489462
 30
0.0
 40
19.99999999999999
100
AcDbArc
 50
171.7592881703
 51
192.9574661803
  0
LINE
  5
183
330
1F
100
AcDbEntity
  8
0
  6
Continuous
 62
     7
370
    25
100
AcDbLine
 10
-461.2776094619
 20
388.6965956713
 30
0.0
 11
-464.2012198315
 21
388.02391268
 31
0.0
  0
LINE
  5
184
330
1F
100
AcDbEntity
  8
0
  6
Continuous
 62
     7
370
    25
100
AcDbLine
 10
-461.2776094619
 20
388.6965956713
 30
0.0
 11
-351.7467898663
 21
-87.3455283823
 31
0.0
  0
LINE
  5
185
330
1F
100
AcDbEntity
  8
0
  6
Continuous
 62
     7
370
    25
100
AcDbLine
 10
-351.7467898663
 20
-87.3455283823
 30
0.0
 11
-354.6704002359
 21
-88.0182113735
 31
0.0
  0
LINE
  5
186
330
1F
100
AcDbEntity
  8
0
  6
Continuous
 62
     7
370
    25
100
AcDbLine
 10
-559.4076023337
 20
74.9817799989
 30
0.0
 11
-560.9076023337
 21
77.5798562102
 31
0.0
  0
LINE
  5
187
330
1F
100
AcDbEntity
  8
0
  6
Continuous
 62
     7
370
    25
100
AcDbLine
 10
-560.9076023337
 20
77.5798562102
 30
0.0
 11
-522.4076023337
 21
99.807841574
 31
0.0
  0
LINE
  5
188
330
1F
100
AcDbEntity
  8
0
  6
Continuous
 62
     7
370
    25
100
AcDbLine
 10
-520.9076023337
 20
97.2097653627
 30
0.0
 11
-522.4076023337
 21
99.807841574
 31
0.0
  0
LINE
  5
189
330
1F
100
AcDbEntity
  8
0
  6
Continuous
 62
     7
370
    25
100
AcDbLine
 10
-517.9076023337
 20
102.4059177854
 30
0.0
 11
-520.9076023337
 21
102.4059177854
 31
0.0
  0
LINE
  5
18A
330
1F
100
AcDbEntity
  8
0
  6
Continuous
 62
     7
370
    25
100
AcDbLine
 10
-520.9076023337
 20
102.4059177854
 30
0.0
 11
-520.9076023337
 21
198.9418161703
 31
0.0
  0
LINE
  5
18B
330
1F
100
AcDbEntity
  8
0
  6
Continuous
 62
     7
370
    25
100
AcDbLine
 10
-517.9076023337
 20
198.9418161703
 30
0.0
 11
-520.9076023337
 21
198.9418161703
 31
0.0
  0
LINE
  5
18C
330
1F
100
AcDbEntity
  8
0
  6
Continuous
 62
     7
370
    25
100
AcDbLine
 10
-520.9076023337
 20
204.137968593
 30
0.0
 11
-522.4076023337
 21
201.5398923816
 31
0.0
  0
LINE
  5
18D
330
1F
100
AcDbEntity
  8
0
  6
Continuous
 62
     7
370
    25
100
AcDbLine
 10
-522.4076023337
 20
201.5398923816
 30
0.0
 11
-560.9076023337
 21
223.7678777454
 31
0.0
  0
LINE
  5
18E
330
1F
100
AcDbEntity
  8
0
  6
Continuous
 62
     7
370
    25
100
AcDbLine
 10
-559.4076023337
 20
226.3659539568
 30
0.0
 11
-560.9076023337
 21
223.7678777454
 31
0.0
  0
LINE
  5
18F
330
1F
100
AcDbEntity
  8
0
  6
Continuous
 62
     7
370
    25
100
AcDbLine
 10
-567.9076023337
 20
60.2593481346
 30
0.0
 11
-570.9076023337
 21
60.2593481346
 31
0.0
  0
ARC
  5
190
330
1F
100
AcDbEntity
  8
0
  6
Continuous
 62
     7
370
    25
100
AcDbCircle
 10
-550.9076023337
 20
60.2593481346
 30
0.0
 40
20.0
100
AcDbArc
 50
120.0
 51
180.0
  0
ARC
  5
191
330
1F
100
AcDbEntity
  8
0
  6
Continuous
 62
     7
370
    25
100
AcDbCircle
 10
-550.9076023337
 20
241.0883858211
 30
0.0
 40
19.99999999999997
100
AcDbArc
 50
180.0
 51
240.0
  0
ARC
  5
192
330
1F
100
AcDbEntity
  8
0
  6
Continuous
 62
     7
370
    25
100
AcDbCircle
 10
-523.9076023337
 20
102.4059177854
 30
0.0
 40
3.000000000000057
100
AcDbArc
 50
300.0
 51
0.0
  0
LINE
  5
193
330
1F
100
AcDbEntity
  8
0
  6
Continuous
 62
     7
370
    25
100
AcDbLine
 10
-567.9076023337
 20
-433.9116141789
 30
0.0
 11
-570.9076023337
 21
-433.9116141789
 31
0.0
  0
LINE
  5
194
330
1F
100
AcDbEntity
  8
0
  6
Continuous
 62
     7
370
    25
100
AcDbLine
 10
-570.9076023337
 20
-433.9116141789
 30
0.0
 11
-570.9076023337
 21
60.2593481346
 31
0.0
  0
ARC
  5
195
330
1F
100
AcDbEntity
  8
0
  6
Continuous
 62
     7
370
    25
100
AcDbCircle
 10
-523.9076023337
 20
198.9418161703
 30
0.0
 40
3.000000000000082
100
AcDbArc
 50
0.0
 51
60.0
  0
LINE
  5
196
330
1F
100
AcDbEntity
  8
0
  6
Continuous
 62
     7
370
    25
100
AcDbLine
 10
-351.4440329581
 20
-94.6967254283
 30
0.0
 11
-354.4130568639
 21
-94.2667288627
 31
0.0
  0
LINE
  5
197
330
1F
100
AcDbEntity
  8
0
  6
Continuous
 62
     7
370
    25
100
AcDbLine
 10
-351.4440329581
 20
-94.6967254283
 30
0.0
 11
-406.5124410434
 21
-474.9309717318
 31
0.0
  0
LINE
  5
198
330
1F
100
AcDbEntity
  8
0
  6
Continuous
 62
     7
370
    25
100
AcDbLine
 10
-406.5124410434
 20
-474.9309717318
 30
0.0
 11
-410.057105513
 21
-478.4756362014
 31
0.0
  0
ARC
  5
199
330
1F
100
AcDbEntity
  8
0
  6
Continuous
 62
     7
370
    25
100
AcDbCircle
 10
-371.2375256637
 20
-91.8300816572
 30
0.0
 40
20.00000000000011
100
AcDbArc
 50
351.7592881703
 51
12.9574661803
  0
LINE
  5
19A
330
1F
100
AcDbEntity
  8
0
  6
Continuous
 62
     7
370
    25
100
AcDbLine
 10
-559.4076023337
 20
-448.6340460432
 30
0.0
 11
-560.9076023337
 21
-451.2321222546
 31
0.0
  0
ARC
  5
19B
330
1F
100
AcDbEntity
  8
0
  6
Continuous
 62
     7
370
    25
100
AcDbCircle
 10
-550.9076023337
 20
-433.9116141789
 30
0.0
 40
20.00000000000006
100
AcDbArc
 50
180.0
 51
240.0
  0
LINE
  5
19C
330
1F
100
AcDbEntity
  8
0
  6
Continuous
 62
     7
370
    25
100
AcDbLine
 10
-520.9076023337
 20
-470.862031407
 30
0.0
 11
-522.4076023337
 21
-473.4601076184
 31
0.0
  0
LINE
  5
19D
330
1F
100
AcDbEntity
  8
0
  6
Continuous
 62
     7
370
    25
100
AcDbLine
 10
-522.4076023337
 20
-473.4601076184
 30
0.0
 11
-560.9076023337
 21
-451.2321222546
 31
0.0
  0
LINE
  5
19E
330
1F
100
AcDbEntity
  8
0
  6
Continuous
 62
     7
370
    25
100
AcDbLine
 10
-517.9076023337
 20
-571.3261330222
 30
0.0
 11
-517.9076023337
 21
-574.3261330222
 31
0.0
  0
ARC
  5
19F
330
1F
100
AcDbEntity
  8
0
  6
Continuous
 62
     7
370
    25
100
AcDbCircle
 10
-517.9076023337
 20
-571.3261330222
 30
0.0
 40
3.0
100
AcDbArc
 50
180.0
 51
270.0
  0
LINE
  5
1A0
330
1F
100
AcDbEntity
  8
0
  6
Continuous
 62
     7
370
    25
100
AcDbLine
 10
-517.9076023337
 20
-571.3261330222
 30
0.0
 11
-520.9076023337
 21
-571.3261330222
 31
0.0
  0
LINE
  5
1A1
330
1F
100
AcDbEntity
  8
0
  6
Continuous
 62
     7
370
    25
100
AcDbLine
 10
-520.9076023337
 20
-571.3261330222
 30
0.0
 11
-520.9076023337
 21
-476.0581838297
 31
0.0
  0
LINE
  5
1A2
330
1F
100
AcDbEntity
  8
0
  6
Continuous
 62
     7
370
    25
100
AcDbLine
 10
-517.9076023337
 20
-476.0581838297
 30
0.0
 11
-520.9076023337
 21
-476.0581838297
 31
0.0
  0
LINE
  5
1A3
330
1F
100
AcDbEntity
  8
0
  6
Continuous
 62
     7
370
    25
100
AcDbLine
 10
-505.9076023337
 20
-574.3261330222
 30
0.0
 11
-517.9076023337
 21
-574.3261330222
 31
0.0
  0
LINE
  5
1A4
330
1F
100
AcDbEntity
  8
0
  6
Continuous
 62
     7
370
    25
100
AcDbLine
 10
-502.9076023337
 20
-571.3261330222
 30
0.0
 11
-505.9076023337
 21
-574.3261330222
 31
0.0
  0
ARC
  5
1A5
330
1F
100
AcDbEntity
  8
0
  6
Continuous
 62
     7
370
    25
100
AcDbCircle
 10
-523.9076023337
 20
-476.0581838297
 30
0.0
 40
2.999999999999992
100
AcDbArc
 50
0.0
 51
60.0
  0
LINE
  5
1A6
330
1F
100
AcDbEntity
  8
0
  6
Continuous
 62
     7
370
    25
100
AcDbLine
 10
956.0923976663
 20
872.6738669778
 30
0.0
 11
956.0923976663
 21
875.6738669778
 31
0.0
  0
ARC
  5
1A7
330
1F
100
AcDbEntity
  8
0
  6
Continuous
 62
     7
370
    25
100
AcDbCircle
 10
956.0923976663
 20
872.6738669778
 30
0.0
 40
3.000000000000114
100
AcDbArc
 50
0.0
 51
90.0
  0
LINE
  5
1A8
330
1F
100
AcDbEntity
  8
0
  6
Continuous
 62
     7
370
    25
100
AcDbLine
 10
956.0923976663
 20
872.6738669778
 30
0.0
 11
959.0923976663
 21
872.6738669778
 31
0.0
  0
LINE
  5
1A9
330
1F
100
AcDbEntity
  8
0
  6
Continuous
 62
     7
370
    25
100
AcDbLine
 10
1006.0923976663
 20
241.0883858211
 30
0.0
 11
1006.0923976663
 21
735.2593481346
 31
0.0
  0
LINE
  5
1AA
330
1F
100
AcDbEntity
  8
0
  6
Continuous
 62
     7
370
    25
100
AcDbLine
 10
1006.0923976663
 20
735.2593481346
 30
0.0
 11
1009.0923976663
 21
735.2593481346
 31
0.0
  0
LINE
  5
1AB
330
1F
100
AcDbEntity
  8
0
  6
Continuous
 62
     7
370
    25
100
AcDbLine
 10
1009.0923976663
 20
735.2593481346
 30
0.0
 11
1009.0923976663
 21
241.0883858211
 31
0.0
  0
LINE
  5
1AC
330
1F
100
AcDbEntity
  8
0
  6
Continuous
 62
     7
370
    25
100
AcDbLine
 10
1006.0923976663
 20
241.0883858211
 30
0.0
 11
1009.0923976663
 21
241.0883858211
 31
0.0
  0
ARC
  5
1AD
330
1F
100
AcDbEntity
  8
0
  6
Continuous
 62
     7
370
    25
100
AcDbCircle
 10
962.0923976663
 20
777.4059177854
 30
0.0
 40
6.0
100
AcDbArc
 50
180.0
 51
240.0
  0
LINE
  5
1AE
330
1F
100
AcDbEntity
  8
0
  6
Continuous
 62
     7
370
    25
100
AcDbLine
 10
956.0923976663
 20
777.4059177854
 30
0.0
 11
959.0923976663
 21
777.4059177854
 31
0.0
  0
ARC
  5
1AF
330
1F
100
AcDbEntity
  8
0
  6
Continuous
 62
     7
370
    25
100
AcDbCircle
 10
962.0923976663
 20
777.4059177854
 30
0.0
 40
3.000000000000008
100
AcDbArc
 50
180.0
 51
240.0
  0
LINE
  5
1B0
330
1F
100
AcDbEntity
  8
0
  6
Continuous
 62
     7
370
    25
100
AcDbLine
 10
959.0923976663
 20
772.2097653627
 30
0.0
 11
960.5923976663
 21
774.807841574
 31
0.0
  0
LINE
  5
1B1
330
1F
100
AcDbEntity
  8
0
  6
Continuous
 62
     7
370
    25
100
AcDbLine
 10
997.5923976663
 20
749.9817799989
 30
0.0
 11
959.0923976663
 21
772.2097653627
 31
0.0
  0
LINE
  5
1B2
330
1F
100
AcDbEntity
  8
0
  6
Continuous
 62
     7
370
    25
100
AcDbLine
 10
960.5923976663
 20
774.807841574
 30
0.0
 11
999.0923976663
 21
752.5798562102
 31
0.0
  0
LINE
  5
1B3
330
1F
100
AcDbEntity
  8
0
  6
Continuous
 62
     7
370
    25
100
AcDbLine
 10
997.5923976663
 20
749.9817799989
 30
0.0
 11
999.0923976663
 21
752.5798562102
 31
0.0
  0
ARC
  5
1B4
330
1F
100
AcDbEntity
  8
0
  6
Continuous
 62
     7
370
    25
100
AcDbCircle
 10
989.0923976663
 20
735.2593481346
 30
0.0
 40
17.00000000000011
100
AcDbArc
 50
0.0
 51
60.0
  0
ARC
  5
1B5
330
1F
100
AcDbEntity
  8
0
  6
Continuous
 62
     7
370
    25
100
AcDbCircle
 10
989.0923976663
 20
735.2593481346
 30
0.0
 40
20.00000000000008
100
AcDbArc
 50
0.0
 51
60.0
  0
LINE
  5
1B6
330
1F
100
AcDbEntity
  8
0
  6
Continuous
 62
     7
370
    25
100
AcDbLine
 10
944.0923976663
 20
-421.8261330222
 30
0.0
 11
959.0923976663
 21
-421.8261330222
 31
0.0
  0
LINE
  5
1B7
330
1F
100
AcDbEntity
  8
0
  6
Continuous
 62
     7
370
    25
100
AcDbLine
 10
959.0923976663
 20
-361.8261330222
 30
0.0
 11
959.0923976663
 21
-421.8261330222
 31
0.0
  0
LINE
  5
1B8
330
1F
100
AcDbEntity
  8
0
  6
Continuous
 62
     7
370
    25
100
AcDbLine
 10
944.0923976663
 20
-361.8261330222
 30
0.0
 11
959.0923976663
 21
-361.8261330222
 31
0.0
  0
LINE
  5
1B9
330
1F
100
AcDbEntity
  8
0
  6
Continuous
 62
     7
370
    25
100
AcDbLine
 10
944.0923976663
 20
-361.8261330222
 30
0.0
 11
944.0923976663
 21
-421.8261330222
 31
0.0
  0
LINE
  5
1BA
330
1F
100
AcDbEntity
  8
0
  6
Continuous
 62
     7
370
    25
100
AcDbLine
 10
959.0923976663
 20
723.1738669778
 30
0.0
 11
959.0923976663
 21
663.1738669778
 31
0.0
  0
LINE
  5
1BB
330
1F
100
AcDbEntity
  8
0
  6
Continuous
 62
     7
370
    25
100
AcDbLine
 10
944.0923976663
 20
483.1738669778
 30
0.0
 11
944.0923976663
 21
543.1738669778
 31
0.0
  0
LINE
  5
1BC
330
1F
100
AcDbEntity
  8
0
  6
Continuous
 62
     7
370
    25
100
AcDbLine
 10
944.0923976663
 20
483.1738669778
 30
0.0
 11
959.0923976663
 21
483.1738669778
 31
0.0
  0
LINE
  5
1BD
330
1F
100
AcDbEntity
  8
0
  6
Continuous
 62
     7
370
    25
100
AcDbLine
 10
959.0923976663
 20
483.1738669778
 30
0.0
 11
959.0923976663
 21
543.1738669778
 31
0.0
  0
LINE
  5
1BE
330
1F
100
AcDbEntity
  8
0
  6
Continuous
 62
     7
370
    25
100
AcDbLine
 10
944.0923976663
 20
543.1738669778
 30
0.0
 11
959.0923976663
 21
543.1738669778
 31
0.0
  0
LINE
  5
1BF
330
1F
100
AcDbEntity
  8
0
  6
Continuous
 62
     7
370
    25
100
AcDbLine
 10
944.0923976663
 20
303.1738669778
 30
0.0
 11
944.0923976663
 21
363.1738669778
 31
0.0
  0
LINE
  5
1C0
330
1F
100
AcDbEntity
  8
0
  6
Continuous
 62
     7
370
    25
100
AcDbLine
 10
944.0923976663
 20
303.1738669778
 30
0.0
 11
959.0923976663
 21
303.1738669778
 31
0.0
  0
LINE
  5
1C1
330
1F
100
AcDbEntity
  8
0
  6
Continuous
 62
     7
370
    25
100
AcDbLine
 10
959.0923976663
 20
303.1738669778
 30
0.0
 11
959.0923976663
 21
363.1738669778
 31
0.0
  0
LINE
  5
1C2
330
1F
100
AcDbEntity
  8
0
  6
Continuous
 62
     7
370
    25
100
AcDbLine
 10
944.0923976663
 20
363.1738669778
 30
0.0
 11
959.0923976663
 21
363.1738669778
 31
0.0
  0
LINE
  5
1C3
330
1F
100
AcDbEntity
  8
0
  6
Continuous
 62
     7
370
    25
100
AcDbLine
 10
944.0923976663
 20
-61.8261330222
 30
0.0
 11
944.0923976663
 21
-1.8261330222
 31
0.0
  0
LINE
  5
1C4
330
1F
100
AcDbEntity
  8
0
  6
Continuous
 62
     7
370
    25
100
AcDbLine
 10
944.0923976663
 20
-61.8261330222
 30
0.0
 11
959.0923976663
 21
-61.8261330222
 31
0.0
  0
LINE
  5
1C5
330
1F
100
AcDbEntity
  8
0
  6
Continuous
 62
     7
370
    25
100
AcDbLine
 10
959.0923976663
 20
-61.8261330222
 30
0.0
 11
959.0923976663
 21
-1.8261330222
 31
0.0
  0
LINE
  5
1C6
330
1F
100
AcDbEntity
  8
0
  6
Continuous
 62
     7
370
    25
100
AcDbLine
 10
944.0923976663
 20
-1.8261330222
 30
0.0
 11
959.0923976663
 21
-1.8261330222
 31
0.0
  0
LINE
  5
1C7
330
1F
100
AcDbEntity
  8
0
  6
Continuous
 62
     7
370
    25
100
AcDbLine
 10
959.0923976663
 20
-181.8261330222
 30
0.0
 11
959.0923976663
 21
-241.8261330222
 31
0.0
  0
LINE
  5
1C8
330
1F
100
AcDbEntity
  8
0
  6
Continuous
 62
     7
370
    25
100
AcDbLine
 10
959.0923976663
 20
-181.8261330222
 30
0.0
 11
944.0923976663
 21
-181.8261330222
 31
0.0
  0
LINE
  5
1C9
330
1F
100
AcDbEntity
  8
0
  6
Continuous
 62
     7
370
    25
100
AcDbLine
 10
944.0923976663
 20
-181.8261330222
 30
0.0
 11
944.0923976663
 21
-241.8261330222
 31
0.0
  0
LINE
  5
1CA
330
1F
100
AcDbEntity
  8
0
  6
Continuous
 62
     7
370
    25
100
AcDbLine
 10
959.0923976663
 20
-241.8261330222
 30
0.0
 11
944.0923976663
 21
-241.8261330222
 31
0.0
  0
ARC
  5
1CB
330
1F
100
AcDbEntity
  8
0
  6
Continuous
 62
     7
370
    25
100
AcDbCircle
 10
989.0923976663
 20
241.0883858211
 30
0.0
 40
17.00000000000011
100
AcDbArc
 50
300.0
 51
0.0
  0
LINE
  5
1CC
330
1F
100
AcDbEntity
  8
0
  6
Continuous
 62
     7
370
    25
100
AcDbLine
 10
959.0923976663
 20
204.137968593
 30
0.0
 11
997.5923976663
 21
226.3659539568
 31
0.0
  0
ARC
  5
1CD
330
1F
100
AcDbEntity
  8
0
  6
Continuous
 62
     7
370
    25
100
AcDbCircle
 10
962.0923976663
 20
198.9418161703
 30
0.0
 40
6.0
100
AcDbArc
 50
120.0
 51
180.0
  0
LINE
  5
1CE
330
1F
100
AcDbEntity
  8
0
  6
Continuous
 62
     7
370
    25
100
AcDbLine
 10
956.0923976663
 20
102.4059177854
 30
0.0
 11
956.0923976663
 21
198.9418161703
 31
0.0
  0
ARC
  5
1CF
330
1F
100
AcDbEntity
  8
0
  6
Continuous
 62
     7
370
    25
100
AcDbCircle
 10
962.0923976663
 20
102.4059177854
 30
0.0
 40
6.000000000000032
100
AcDbArc
 50
180.0
 51
240.0
  0
LINE
  5
1D0
330
1F
100
AcDbEntity
  8
0
  6
Continuous
 62
     7
370
    25
100
AcDbLine
 10
997.5923976663
 20
74.9817799989
 30
0.0
 11
959.0923976663
 21
97.2097653627
 31
0.0
  0
ARC
  5
1D1
330
1F
100
AcDbEntity
  8
0
  6
Continuous
 62
     7
370
    25
100
AcDbCircle
 10
989.0923976663
 20
60.2593481345
 30
0.0
 40
17.00000000000001
100
AcDbArc
 50
0.0
 51
60.0
  0
LINE
  5
1D2
330
1F
100
AcDbEntity
  8
0
  6
Continuous
 62
     7
370
    25
100
AcDbLine
 10
1006.0923976663
 20
-433.9116141789
 30
0.0
 11
1006.0923976663
 21
60.2593481345
 31
0.0
  0
ARC
  5
1D3
330
1F
100
AcDbEntity
  8
0
  6
Continuous
 62
     7
370
    25
100
AcDbCircle
 10
989.0923976663
 20
-433.9116141789
 30
0.0
 40
17.00000000000023
100
AcDbArc
 50
300.0
 51
0.0
  0
LINE
  5
1D4
330
1F
100
AcDbEntity
  8
0
  6
Continuous
 62
     7
370
    25
100
AcDbLine
 10
959.0923976663
 20
-470.862031407
 30
0.0
 11
997.5923976663
 21
-448.6340460432
 31
0.0
  0
ARC
  5
1D5
330
1F
100
AcDbEntity
  8
0
  6
Continuous
 62
     7
370
    25
100
AcDbCircle
 10
962.0923976663
 20
-476.0581838297
 30
0.0
 40
6.000000000000042
100
AcDbArc
 50
120.0
 51
180.0
  0
LINE
  5
1D6
330
1F
100
AcDbEntity
  8
0
  6
Continuous
 62
     7
370
    25
100
AcDbLine
 10
956.0923976663
 20
-571.3261330222
 30
0.0
 11
956.0923976663
 21
-476.0581838297
 31
0.0
  0
LINE
  5
1D7
330
1F
100
AcDbEntity
  8
0
  6
Continuous
 62
     7
370
    25
100
AcDbLine
 10
941.0923976663
 20
-571.3261330222
 30
0.0
 11
956.0923976663
 21
-571.3261330222
 31
0.0
  0
LINE
  5
1D8
330
1F
100
AcDbEntity
  8
0
  6
Continuous
 62
     7
370
    25
100
AcDbLine
 10
902.7341856085
 20
-95.1300553274
 30
0.0
 11
847.3450580279
 21
-477.5787933838
 31
0.0
  0
ARC
  5
1D9
330
1F
100
AcDbEntity
  8
0
  6
Continuous
 62
     7
370
    25
100
AcDbCircle
 10
879.971668997
 20
-91.8334149905
 30
0.0
 40
23.00000000000002
100
AcDbArc
 50
351.7592881703
 51
12.9574661803
  0
LINE
  5
1DA
330
1F
100
AcDbEntity
  8
0
  6
Continuous
 62
     7
370
    25
100
AcDbLine
 10
792.8551955685
 20
389.3659453292
 30
0.0
 11
902.386015164
 21
-86.6761787244
 31
0.0
  0
ARC
  5
1DB
330
1F
100
AcDbEntity
  8
0
  6
Continuous
 62
     7
370
    25
100
AcDbCircle
 10
809.4223209963
 20
393.1778156128
 30
0.0
 40
17.00000000000015
100
AcDbArc
 50
171.7592881703
 51
192.9574661803
  0
LINE
  5
1DC
330
1F
100
AcDbEntity
  8
0
  6
Continuous
 62
     7
370
    25
100
AcDbLine
 10
848.2419008455
 20
779.8233701571
 30
0.0
 11
792.5978521965
 21
395.6144628183
 31
0.0
  0
ARC
  5
1DD
330
1F
100
AcDbEntity
  8
0
  6
Continuous
 62
     7
370
    25
100
AcDbCircle
 10
873.1816135855
 20
804.7630828971
 30
0.0
 40
15.00000000000025
100
AcDbArc
 50
234.5940682269
 51
35.4059317731
  0
LINE
  5
1DE
330
1F
100
AcDbEntity
  8
0
  6
Continuous
 62
     7
370
    25
100
AcDbLine
 10
956.0923976663
 20
872.6738669778
 30
0.0
 11
941.0923976663
 21
872.6738669778
 31
0.0
  0
LINE
  5
1DF
330
1F
100
AcDbEntity
  8
0
  6
Continuous
 62
     7
370
    25
100
AcDbLine
 10
956.0923976663
 20
777.4059177854
 30
0.0
 11
956.0923976663
 21
872.6738669778
 31
0.0
  0
LINE
  5
1E0
330
1F
100
AcDbEntity
  8
0
  6
Continuous
 62
     7
370
    25
100
AcDbLine
 10
860.6317131875
 20
792.2131824991
 30
0.0
 11
848.2419008455
 21
779.8233701571
 31
0.0
  0
ARC
  5
1E1
330
1F
100
AcDbEntity
  8
0
  6
Continuous
 62
     7
370
    25
100
AcDbCircle
 10
862.7530335311
 20
790.0918621555
 30
0.0
 40
2.999999999999944
100
AcDbArc
 50
54.5940682269
 51
135.0
  0
ARC
  5
1E2
330
1F
100
AcDbEntity
  8
0
  6
Continuous
 62
     7
370
    25
100
AcDbCircle
 10
887.8528343271
 20
815.1916629515
 30
0.0
 40
2.999999999999944
100
AcDbArc
 50
135.0
 51
215.4059317731
  0
LINE
  5
1E3
330
1F
100
AcDbEntity
  8
0
  6
Continuous
 62
     7
370
    25
100
AcDbLine
 10
959.0923976663
 20
663.1738669778
 30
0.0
 11
944.0923976663
 21
663.1738669778
 31
0.0
  0
LINE
  5
1E4
330
1F
100
AcDbEntity
  8
0
  6
Continuous
 62
     7
370
    25
100
AcDbLine
 10
959.0923976663
 20
723.1738669778
 30
0.0
 11
944.0923976663
 21
723.1738669778
 31
0.0
  0
LINE
  5
1E5
330
1F
100
AcDbEntity
  8
0
  6
Continuous
 62
     7
370
    25
100
AcDbLine
 10
944.0923976663
 20
723.1738669778
 30
0.0
 11
944.0923976663
 21
663.1738669778
 31
0.0
  0
LINE
  5
1E6
330
1F
100
AcDbEntity
  8
0
  6
Continuous
 62
     7
370
    25
100
AcDbLine
 10
941.0923976663
 20
872.6738669778
 30
0.0
 11
885.7315139835
 21
817.3129832951
 31
0.0
  0
LINE
  5
1E7
330
1F
100
AcDbEntity
  8
0
  6
Continuous
 62
     7
370
    25
100
AcDbLine
 10
944.0923976663
 20
875.6738669778
 30
0.0
 11
956.0923976663
 21
875.6738669778
 31
0.0
  0
LINE
  5
1E8
330
1F
100
AcDbEntity
  8
0
  6
Continuous
 62
     7
370
    25
100
AcDbLine
 10
941.0923976663
 20
872.6738669778
 30
0.0
 11
944.0923976663
 21
875.6738669778
 31
0.0
  0
LINE
  5
1E9
330
1F
100
AcDbEntity
  8
0
  6
Continuous
 62
     7
370
    25
100
AcDbLine
 10
789.6288282906
 20
396.044459384
 30
0.0
 11
792.5978521965
 21
395.6144628183
 31
0.0
  0
LINE
  5
1EA
330
1F
100
AcDbEntity
  8
0
  6
Continuous
 62
     7
370
    25
100
AcDbLine
 10
789.6288282906
 20
396.044459384
 30
0.0
 11
844.697236376
 21
776.2787056875
 31
0.0
  0
LINE
  5
1EB
330
1F
100
AcDbEntity
  8
0
  6
Continuous
 62
     7
370
    25
100
AcDbLine
 10
844.697236376
 20
776.2787056875
 30
0.0
 11
848.2419008455
 21
779.8233701571
 31
0.0
  0
LINE
  5
1EC
330
1F
100
AcDbEntity
  8
0
  6
Continuous
 62
     7
370
    25
100
AcDbLine
 10
959.0923976663
 20
872.6738669778
 30
0.0
 11
959.0923976663
 21
777.4059177854
 31
0.0
  0
LINE
  5
1ED
330
1F
100
AcDbEntity
  8
0
  6
Continuous
 62
     7
370
    25
100
AcDbLine
 10
844.697236376
 20
-474.9309717319
 30
0.0
 11
899.7651617027
 21
-94.7000587617
 31
0.0
  0
LINE
  5
1EE
330
1F
100
AcDbEntity
  8
0
  6
Continuous
 62
     7
370
    25
100
AcDbLine
 10
899.7651617027
 20
-94.7000587617
 30
0.0
 11
902.7341856085
 21
-95.1300553274
 31
0.0
  0
LINE
  5
1EF
330
1F
100
AcDbEntity
  8
0
  6
Continuous
 62
     7
370
    25
100
AcDbLine
 10
847.3450580279
 20
-477.5787933838
 30
0.0
 11
844.697236376
 21
-474.9309717319
 31
0.0
  0
LINE
  5
1F0
330
1F
100
AcDbEntity
  8
0
  6
Continuous
 62
     7
370
    25
100
AcDbLine
 10
959.0923976663
 20
204.137968593
 30
0.0
 11
960.5923976663
 21
201.5398923816
 31
0.0
  0
ARC
  5
1F1
330
1F
100
AcDbEntity
  8
0
  6
Continuous
 62
     7
370
    25
100
AcDbCircle
 10
962.0923976663
 20
198.9418161703
 30
0.0
 40
2.999999999999943
100
AcDbArc
 50
120.0
 51
180.0
  0
LINE
  5
1F2
330
1F
100
AcDbEntity
  8
0
  6
Continuous
 62
     7
370
    25
100
AcDbLine
 10
956.0923976663
 20
198.9418161703
 30
0.0
 11
959.0923976663
 21
198.9418161703
 31
0.0
  0
LINE
  5
1F3
330
1F
100
AcDbEntity
  8
0
  6
Continuous
 62
     7
370
    25
100
AcDbLine
 10
997.5923976663
 20
226.3659539568
 30
0.0
 11
999.0923976663
 21
223.7678777454
 31
0.0
  0
LINE
  5
1F4
330
1F
100
AcDbEntity
  8
0
  6
Continuous
 62
     7
370
    25
100
AcDbLine
 10
999.0923976663
 20
223.7678777454
 30
0.0
 11
960.5923976663
 21
201.5398923816
 31
0.0
  0
LINE
  5
1F5
330
1F
100
AcDbEntity
  8
0
  6
Continuous
 62
     7
370
    25
100
AcDbLine
 10
956.0923976663
 20
102.4059177854
 30
0.0
 11
959.0923976663
 21
102.4059177854
 31
0.0
  0
ARC
  5
1F6
330
1F
100
AcDbEntity
  8
0
  6
Continuous
 62
     7
370
    25
100
AcDbCircle
 10
962.0923976663
 20
102.4059177854
 30
0.0
 40
2.999999999999988
100
AcDbArc
 50
180.0
 51
240.0
  0
LINE
  5
1F7
330
1F
100
AcDbEntity
  8
0
  6
Continuous
 62
     7
370
    25
100
AcDbLine
 10
959.0923976663
 20
97.2097653627
 30
0.0
 11
960.5923976663
 21
99.807841574
 31
0.0
  0
LINE
  5
1F8
330
1F
100
AcDbEntity
  8
0
  6
Continuous
 62
     7
370
    25
100
AcDbLine
 10
959.0923976663
 20
198.9418161703
 30
0.0
 11
959.0923976663
 21
102.4059177854
 31
0.0
  0
ARC
  5
1F9
330
1F
100
AcDbEntity
  8
0
  6
Continuous
 62
     7
370
    25
100
AcDbCircle
 10
879.971668997
 20
-91.8334149905
 30
0.0
 40
20.00000000000006
100
AcDbArc
 50
351.7592881703
 51
12.9574661803
  0
LINE
  5
1FA
330
1F
100
AcDbEntity
  8
0
  6
Continuous
 62
     7
370
    25
100
AcDbLine
 10
899.4624047944
 20
-87.3488617156
 30
0.0
 11
902.386015164
 21
-86.6761787244
 31
0.0
  0
LINE
  5
1FB
330
1F
100
AcDbEntity
  8
0
  6
Continuous
 62
     7
370
    25
100
AcDbLine
 10
960.5923976663
 20
99.807841574
 30
0.0
 11
999.0923976663
 21
77.5798562102
 31
0.0
  0
LINE
  5
1FC
330
1F
100
AcDbEntity
  8
0
  6
Continuous
 62
     7
370
    25
100
AcDbLine
 10
997.5923976663
 20
74.9817799989
 30
0.0
 11
999.0923976663
 21
77.5798562102
 31
0.0
  0
ARC
  5
1FD
330
1F
100
AcDbEntity
  8
0
  6
Continuous
 62
     7
370
    25
100
AcDbCircle
 10
989.0923976663
 20
241.0883858211
 30
0.0
 40
20.00000000000006
100
AcDbArc
 50
300.0
 51
0.0
  0
ARC
  5
1FE
330
1F
100
AcDbEntity
  8
0
  6
Continuous
 62
     7
370
    25
100
AcDbCircle
 10
989.0923976663
 20
60.2593481345
 30
0.0
 40
20.00000000000011
100
AcDbArc
 50
0.0
 51
60.0
  0
LINE
  5
1FF
330
1F
100
AcDbEntity
  8
0
  6
Continuous
 62
     7
370
    25
100
AcDbLine
 10
1006.0923976663
 20
60.2593481345
 30
0.0
 11
1009.0923976663
 21
60.2593481345
 31
0.0
  0
LINE
  5
200
330
1F
100
AcDbEntity
  8
0
  6
Continuous
 62
     7
370
    25
100
AcDbLine
 10
899.4624047944
 20
-87.3488617156
 30
0.0
 11
789.9315851989
 21
388.6932623379
 31
0.0
  0
LINE
  5
201
330
1F
100
AcDbEntity
  8
0
  6
Continuous
 62
     7
370
    25
100
AcDbLine
 10
789.9315851989
 20
388.6932623379
 30
0.0
 11
792.8551955685
 21
389.3659453292
 31
0.0
  0
ARC
  5
202
330
1F
100
AcDbEntity
  8
0
  6
Continuous
 62
     7
370
    25
100
AcDbCircle
 10
809.4223209963
 20
393.1778156128
 30
0.0
 40
20.0000000000002
100
AcDbArc
 50
171.7592881703
 51
192.9574661803
  0
LINE
  5
203
330
1F
100
AcDbEntity
  8
0
  6
Continuous
 62
     7
370
    25
100
AcDbLine
 10
1009.0923976663
 20
60.2593481345
 30
0.0
 11
1009.0923976663
 21
-433.9116141789
 31
0.0
  0
LINE
  5
204
330
1F
100
AcDbEntity
  8
0
  6
Continuous
 62
     7
370
    25
100
AcDbLine
 10
1006.0923976663
 20
-433.9116141789
 30
0.0
 11
1009.0923976663
 21
-433.9116141789
 31
0.0
  0
LINE
  5
205
330
1F
100
AcDbEntity
  8
0
  6
Continuous
 62
     7
370
    25
100
AcDbLine
 10
956.0923976663
 20
-476.0581838297
 30
0.0
 11
959.0923976663
 21
-476.0581838297
 31
0.0
  0
LINE
  5
206
330
1F
100
AcDbEntity
  8
0
  6
Continuous
 62
     7
370
    25
100
AcDbLine
 10
959.0923976663
 20
-476.0581838297
 30
0.0
 11
959.0923976663
 21
-571.3261330222
 31
0.0
  0
LINE
  5
207
330
1F
100
AcDbEntity
  8
0
  6
Continuous
 62
     7
370
    25
100
AcDbLine
 10
956.0923976663
 20
-571.3261330222
 30
0.0
 11
959.0923976663
 21
-571.3261330222
 31
0.0
  0
ARC
  5
208
330
1F
100
AcDbEntity
  8
0
  6
Continuous
 62
     7
370
    25
100
AcDbCircle
 10
989.0923976663
 20
-433.9116141789
 30
0.0
 40
20.00000000000011
100
AcDbArc
 50
300.0
 51
0.0
  0
LINE
  5
209
330
1F
100
AcDbEntity
  8
0
  6
Continuous
 62
     7
370
    25
100
AcDbLine
 10
997.5923976663
 20
-448.6340460432
 30
0.0
 11
999.0923976663
 21
-451.2321222546
 31
0.0
  0
LINE
  5
20A
330
1F
100
AcDbEntity
  8
0
  6
Continuous
 62
     7
370
    25
100
AcDbLine
 10
959.0923976663
 20
-470.862031407
 30
0.0
 11
960.5923976663
 21
-473.4601076184
 31
0.0
  0
ARC
  5
20B
330
1F
100
AcDbEntity
  8
0
  6
Continuous
 62
     7
370
    25
100
AcDbCircle
 10
962.0923976663
 20
-476.0581838297
 30
0.0
 40
3.000000000000114
100
AcDbArc
 50
120.0
 51
180.0
  0
LINE
  5
20C
330
1F
100
AcDbEntity
  8
0
  6
Continuous
 62
     7
370
    25
100
AcDbLine
 10
956.0923976663
 20
-571.3261330222
 30
0.0
 11
956.0923976663
 21
-574.3261330222
 31
0.0
  0
LINE
  5
20D
330
1F
100
AcDbEntity
  8
0
  6
Continuous
 62
     7
370
    25
100
AcDbLine
 10
956.0923976663
 20
-574.3261330222
 30
0.0
 11
944.0923976663
 21
-574.3261330222
 31
0.0
  0
LINE
  5
20E
330
1F
100
AcDbEntity
  8
0
  6
Continuous
 62
     7
370
    25
100
AcDbLine
 10
944.0923976663
 20
-574.3261330222
 30
0.0
 11
941.0923976663
 21
-571.3261330222
 31
0.0
  0
ARC
  5
20F
330
1F
100
AcDbEntity
  8
0
  6
Continuous
 62
     7
370
    25
100
AcDbCircle
 10
956.0923976663
 20
-571.3261330222
 30
0.0
 40
3.0
100
AcDbArc
 50
270.0
 51
0.0
  0
LINE
  5
210
330
1F
100
AcDbEntity
  8
0
  6
Continuous
 62
     7
370
    25
100
AcDbLine
 10
999.0923976663
 20
-451.2321222546
 30
0.0
 11
960.5923976663
 21
-473.4601076184
 31
0.0
  0
LINE
  5
211
330
1F
100
AcDbEntity
  8
0
  6
Continuous
 62
     7
370
    25
100
AcDbLine
 10
944.0923976663
 20
887.6738669778
 30
0.0
 11
941.0923976663
 21
887.6738669778
 31
0.0
  0
LINE
  5
212
330
1F
100
AcDbEntity
  8
0
  6
Continuous
 62
     7
370
    25
100
AcDbLine
 10
941.0923976663
 20
890.6738669778
 30
0.0
 11
941.0923976663
 21
887.6738669778
 31
0.0
  0
ARC
  5
213
330
1F
100
AcDbEntity
  8
0
  6
Continuous
 62
     7
370
    25
100
AcDbCircle
 10
941.0923976663
 20
887.6738669778
 30
0.0
 40
3.0
100
AcDbArc
 50
0.0
 51
90.0
  0
LINE
  5
214
330
1F
100
AcDbEntity
  8
0
  6
Continuous
 62
     7
370
    25
100
AcDbLine
 10
820.9983868987
 20
930.6738669778
 30
0.0
 11
843.2263722625
 21
892.1738669778
 31
0.0
  0
LINE
  5
215
330
1F
100
AcDbEntity
  8
0
  6
Continuous
 62
     7
370
    25
100
AcDbLine
 10
843.2263722625
 20
892.1738669778
 30
0.0
 11
840.6282960512
 21
890.6738669778
 31
0.0
  0
LINE
  5
216
330
1F
100
AcDbEntity
  8
0
  6
Continuous
 62
     7
370
    25
100
AcDbLine
 10
840.6282960512
 20
890.6738669778
 30
0.0
 11
818.4003106874
 21
929.1738669778
 31
0.0
  0
LINE
  5
217
330
1F
100
AcDbEntity
  8
0
  6
Continuous
 62
     7
370
    25
100
AcDbLine
 10
820.9983868987
 20
930.6738669778
 30
0.0
 11
818.4003106874
 21
929.1738669778
 31
0.0
  0
ARC
  5
218
330
1F
100
AcDbEntity
  8
0
  6
Continuous
 62
     7
370
    25
100
AcDbCircle
 10
803.677878823
 20
920.6738669778
 30
0.0
 40
20.00000000000009
100
AcDbArc
 50
30.0
 51
90.0
  0
ARC
  5
219
330
1F
100
AcDbEntity
  8
0
  6
Continuous
 62
     7
370
    25
100
AcDbCircle
 10
803.677878823
 20
920.6738669778
 30
0.0
 40
17.0000000000002
100
AcDbArc
 50
30.0
 51
90.0
  0
LINE
  5
21A
330
1F
100
AcDbEntity
  8
0
  6
Continuous
 62
     7
370
    25
100
AcDbLine
 10
803.677878823
 20
940.6738669778
 30
0.0
 11
803.677878823
 21
937.6738669778
 31
0.0
  0
LINE
  5
21B
330
1F
100
AcDbEntity
  8
0
  6
Continuous
 62
     7
370
    25
100
AcDbLine
 10
941.0923976663
 20
872.6738669778
 30
0.0
 11
941.0923976663
 21
887.6738669778
 31
0.0
  0
LINE
  5
21C
330
1F
100
AcDbEntity
  8
0
  6
Continuous
 62
     7
370
    25
100
AcDbLine
 10
944.0923976663
 20
887.6738669778
 30
0.0
 11
944.0923976663
 21
875.6738669778
 31
0.0
  0
LINE
  5
21D
330
1F
100
AcDbEntity
  8
0
  6
Continuous
 62
     7
370
    25
100
AcDbLine
 10
944.0923976663
 20
875.6738669778
 30
0.0
 11
941.0923976663
 21
872.6738669778
 31
0.0
  0
ARC
  5
21E
330
1F
100
AcDbEntity
  8
0
  6
Continuous
 62
     7
370
    25
100
AcDbCircle
 10
845.8244484739
 20
893.6738669778
 30
0.0
 40
3.000000000000049
100
AcDbArc
 50
210.0
 51
270.0
  0
LINE
  5
21F
330
1F
100
AcDbEntity
  8
0
  6
Continuous
 62
     7
370
    25
100
AcDbLine
 10
845.8244484739
 20
890.6738669778
 30
0.0
 11
845.8244484739
 21
887.6738669778
 31
0.0
  0
ARC
  5
220
330
1F
100
AcDbEntity
  8
0
  6
Continuous
 62
     7
370
    25
100
AcDbCircle
 10
845.8244484739
 20
893.6738669778
 30
0.0
 40
6.000000000000042
100
AcDbArc
 50
210.0
 51
270.0
  0
LINE
  5
221
330
1F
100
AcDbEntity
  8
0
  6
Continuous
 62
     7
370
    25
100
AcDbLine
 10
-293.4076023337
 20
875.6738669778
 30
0.0
 11
-293.4076023337
 21
890.6738669778
 31
0.0
  0
LINE
  5
222
330
1F
100
AcDbEntity
  8
0
  6
Continuous
 62
     7
370
    25
100
AcDbLine
 10
-293.4076023337
 20
890.6738669778
 30
0.0
 11
-353.4076023337
 21
890.6738669778
 31
0.0
  0
LINE
  5
223
330
1F
100
AcDbEntity
  8
0
  6
Continuous
 62
     7
370
    25
100
AcDbLine
 10
-353.4076023337
 20
875.6738669779
 30
0.0
 11
-353.4076023337
 21
890.6738669778
 31
0.0
  0
LINE
  5
224
330
1F
100
AcDbEntity
  8
0
  6
Continuous
 62
     7
370
    25
100
AcDbLine
 10
-293.4076023337
 20
875.6738669778
 30
0.0
 11
-353.4076023337
 21
875.6738669779
 31
0.0
  0
LINE
  5
225
330
1F
100
AcDbEntity
  8
0
  6
Continuous
 62
     7
370
    25
100
AcDbLine
 10
551.5923976663
 20
875.6738669778
 30
0.0
 11
551.5923976663
 21
890.6738669778
 31
0.0
  0
LINE
  5
226
330
1F
100
AcDbEntity
  8
0
  6
Continuous
 62
     7
370
    25
100
AcDbLine
 10
551.5923976663
 20
875.6738669778
 30
0.0
 11
611.5923976663
 21
875.6738669778
 31
0.0
  0
LINE
  5
227
330
1F
100
AcDbEntity
  8
0
  6
Continuous
 62
     7
370
    25
100
AcDbLine
 10
371.5923976663
 20
890.6738669778
 30
0.0
 11
431.5923976663
 21
890.6738669778
 31
0.0
  0
LINE
  5
228
330
1F
100
AcDbEntity
  8
0
  6
Continuous
 62
     7
370
    25
100
AcDbLine
 10
371.5923976663
 20
875.6738669778
 30
0.0
 11
371.5923976663
 21
890.6738669778
 31
0.0
  0
LINE
  5
229
330
1F
100
AcDbEntity
  8
0
  6
Continuous
 62
     7
370
    25
100
AcDbLine
 10
371.5923976663
 20
875.6738669778
 30
0.0
 11
431.5923976663
 21
875.6738669778
 31
0.0
  0
LINE
  5
22A
330
1F
100
AcDbEntity
  8
0
  6
Continuous
 62
     7
370
    25
100
AcDbLine
 10
431.5923976663
 20
875.6738669778
 30
0.0
 11
431.5923976663
 21
890.6738669778
 31
0.0
  0
LINE
  5
22B
330
1F
100
AcDbEntity
  8
0
  6
Continuous
 62
     7
370
    25
100
AcDbLine
 10
6.5923976663
 20
890.6738669778
 30
0.0
 11
66.5923976663
 21
890.6738669778
 31
0.0
  0
LINE
  5
22C
330
1F
100
AcDbEntity
  8
0
  6
Continuous
 62
     7
370
    25
100
AcDbLine
 10
6.5923976663
 20
875.6738669778
 30
0.0
 11
6.5923976663
 21
890.6738669778
 31
0.0
  0
LINE
  5
22D
330
1F
100
AcDbEntity
  8
0
  6
Continuous
 62
     7
370
    25
100
AcDbLine
 10
6.5923976663
 20
875.6738669778
 30
0.0
 11
66.5923976663
 21
875.6738669778
 31
0.0
  0
LINE
  5
22E
330
1F
100
AcDbEntity
  8
0
  6
Continuous
 62
     7
370
    25
100
AcDbLine
 10
66.5923976663
 20
875.6738669778
 30
0.0
 11
66.5923976663
 21
890.6738669778
 31
0.0
  0
LINE
  5
22F
330
1F
100
AcDbEntity
  8
0
  6
Continuous
 62
     7
370
    25
100
AcDbLine
 10
-113.4076023337
 20
875.6738669778
 30
0.0
 11
-173.4076023337
 21
875.6738669778
 31
0.0
  0
LINE
  5
230
330
1F
100
AcDbEntity
  8
0
  6
Continuous
 62
     7
370
    25
100
AcDbLine
 10
-113.4076023337
 20
890.6738669778
 30
0.0
 11
-113.4076023337
 21
875.6738669778
 31
0.0
  0
LINE
  5
231
330
1F
100
AcDbEntity
  8
0
  6
Continuous
 62
     7
370
    25
100
AcDbLine
 10
-113.4076023337
 20
890.6738669778
 30
0.0
 11
-173.4076023337
 21
890.6738669778
 31
0.0
  0
LINE
  5
232
330
1F
100
AcDbEntity
  8
0
  6
Continuous
 62
     7
370
    25
100
AcDbLine
 10
-173.4076023337
 20
890.6738669778
 30
0.0
 11
-173.4076023337
 21
875.6738669778
 31
0.0
  0
LINE
  5
233
330
1F
100
AcDbEntity
  8
0
  6
Continuous
 62
     7
370
    25
100
AcDbLine
 10
464.0329935068
 20
724.179321508
 30
0.0
 11
848.2419008455
 21
779.8233701571
 31
0.0
  0
ARC
  5
234
330
1F
100
AcDbEntity
  8
0
  6
Continuous
 62
     7
370
    25
100
AcDbCircle
 10
461.5963463013
 20
741.0037903078
 30
0.0
 40
17.00000000000004
100
AcDbArc
 50
257.0425338197
 51
278.2407118297
  0
LINE
  5
235
330
1F
100
AcDbEntity
  8
0
  6
Continuous
 62
     7
370
    25
100
AcDbLine
 10
-18.2576480359
 20
833.9674844756
 30
0.0
 11
457.7844760176
 21
724.43666488
 31
0.0
  0
ARC
  5
236
330
1F
100
AcDbEntity
  8
0
  6
Continuous
 62
     7
370
    25
100
AcDbCircle
 10
-23.414884302
 20
811.5531383086
 30
0.0
 40
23.00000000000005
100
AcDbArc
 50
77.0425338197
 51
98.2407118297
  0
LINE
  5
237
330
1F
100
AcDbEntity
  8
0
  6
Continuous
 62
     7
370
    25
100
AcDbLine
 10
-409.1602626954
 20
778.9265273395
 30
0.0
 11
-26.7115246389
 21
834.3156549201
 31
0.0
  0
LINE
  5
238
330
1F
100
AcDbEntity
  8
0
  6
Continuous
 62
     7
370
    25
100
AcDbLine
 10
-502.9076023337
 20
887.6738669779
 30
0.0
 11
-502.9076023337
 21
872.6738669779
 31
0.0
  0
LINE
  5
239
330
1F
100
AcDbEntity
  8
0
  6
Continuous
 62
     7
370
    25
100
AcDbLine
 10
-407.6396531413
 20
887.6738669779
 30
0.0
 11
-502.9076023337
 21
887.6738669779
 31
0.0
  0
ARC
  5
23A
330
1F
100
AcDbEntity
  8
0
  6
Continuous
 62
     7
370
    25
100
AcDbCircle
 10
-407.6396531413
 20
893.6738669779
 30
0.0
 40
6.0
100
AcDbArc
 50
270.0
 51
330.0
  0
LINE
  5
23B
330
1F
100
AcDbEntity
  8
0
  6
Continuous
 62
     7
370
    25
100
AcDbLine
 10
-380.2155153548
 20
929.1738669779
 30
0.0
 11
-402.4435007186
 21
890.6738669779
 31
0.0
  0
ARC
  5
23C
330
1F
100
AcDbEntity
  8
0
  6
Continuous
 62
     7
370
    25
100
AcDbCircle
 10
-365.4930834904
 20
920.6738669779
 30
0.0
 40
17.00000000000004
100
AcDbArc
 50
90.0
 51
150.0
  0
LINE
  5
23D
330
1F
100
AcDbEntity
  8
0
  6
Continuous
 62
     7
370
    25
100
AcDbLine
 10
128.677878823
 20
937.6738669778
 30
0.0
 11
-365.4930834904
 21
937.6738669779
 31
0.0
  0
ARC
  5
23E
330
1F
100
AcDbEntity
  8
0
  6
Continuous
 62
     7
370
    25
100
AcDbCircle
 10
128.677878823
 20
920.6738669778
 30
0.0
 40
17.00000000000006
100
AcDbArc
 50
30.0
 51
90.0
  0
LINE
  5
23F
330
1F
100
AcDbEntity
  8
0
  6
Continuous
 62
     7
370
    25
100
AcDbLine
 10
165.6282960512
 20
890.6738669778
 30
0.0
 11
143.4003106874
 21
929.1738669778
 31
0.0
  0
ARC
  5
240
330
1F
100
AcDbEntity
  8
0
  6
Continuous
 62
     7
370
    25
100
AcDbCircle
 10
170.8244484739
 20
893.6738669778
 30
0.0
 40
6.00000000000005
100
AcDbArc
 50
210.0
 51
270.0
  0
LINE
  5
241
330
1F
100
AcDbEntity
  8
0
  6
Continuous
 62
     7
370
    25
100
AcDbLine
 10
267.3603468587
 20
887.6738669778
 30
0.0
 11
170.8244484739
 21
887.6738669778
 31
0.0
  0
ARC
  5
242
330
1F
100
AcDbEntity
  8
0
  6
Continuous
 62
     7
370
    25
100
AcDbCircle
 10
267.3603468587
 20
893.6738669778
 30
0.0
 40
6.000000000000114
100
AcDbArc
 50
270.0
 51
330.0
  0
LINE
  5
243
330
1F
100
AcDbEntity
  8
0
  6
Continuous
 62
     7
370
    25
100
AcDbLine
 10
294.7844846452
 20
929.1738669778
 30
0.0
 11
272.5564992814
 21
890.6738669778
 31
0.0
  0
ARC
  5
244
330
1F
100
AcDbEntity
  8
0
  6
Continuous
 62
     7
370
    25
100
AcDbCircle
 10
309.5069165096
 20
920.6738669778
 30
0.0
 40
17.0
100
AcDbArc
 50
90.0
 51
150.0
  0
LINE
  5
245
330
1F
100
AcDbEntity
  8
0
  6
Continuous
 62
     7
370
    25
100
AcDbLine
 10
803.677878823
 20
937.6738669778
 30
0.0
 11
309.5069165096
 21
937.6738669778
 31
0.0
  0
LINE
  5
246
330
1F
100
AcDbEntity
  8
0
  6
Continuous
 62
     7
370
    25
100
AcDbLine
 10
941.0923976663
 20
887.6738669778
 30
0.0
 11
845.8244484739
 21
887.6738669778
 31
0.0
  0
LINE
  5
247
330
1F
100
AcDbEntity
  8
0
  6
Continuous
 62
     7
370
    25
100
AcDbLine
 10
551.5923976663
 20
890.6738669778
 30
0.0
 11
611.5923976663
 21
890.6738669778
 31
0.0
  0
LINE
  5
248
330
1F
100
AcDbEntity
  8
0
  6
Continuous
 62
     7
370
    25
100
AcDbLine
 10
791.5923976663
 20
890.6738669778
 30
0.0
 11
731.5923976663
 21
890.6738669778
 31
0.0
  0
LINE
  5
249
330
1F
100
AcDbEntity
  8
0
  6
Continuous
 62
     7
370
    25
100
AcDbLine
 10
791.5923976663
 20
875.6738669778
 30
0.0
 11
731.5923976663
 21
875.6738669778
 31
0.0
  0
LINE
  5
24A
330
1F
100
AcDbEntity
  8
0
  6
Continuous
 62
     7
370
    25
100
AcDbLine
 10
731.5923976663
 20
890.6738669778
 30
0.0
 11
731.5923976663
 21
875.6738669778
 31
0.0
  0
LINE
  5
24B
330
1F
100
AcDbEntity
  8
0
  6
Continuous
 62
     7
370
    25
100
AcDbLine
 10
611.5923976663
 20
875.6738669778
 30
0.0
 11
611.5923976663
 21
890.6738669778
 31
0.0
  0
LINE
  5
24C
330
1F
100
AcDbEntity
  8
0
  6
Continuous
 62
     7
370
    25
100
AcDbLine
 10
791.5923976663
 20
890.6738669778
 30
0.0
 11
791.5923976663
 21
875.6738669778
 31
0.0
  0
LINE
  5
24D
330
1F
100
AcDbEntity
  8
0
  6
Continuous
 62
     7
370
    25
100
AcDbLine
 10
844.697236376
 20
776.2787056875
 30
0.0
 11
464.4629900725
 21
721.2102976022
 31
0.0
  0
LINE
  5
24E
330
1F
100
AcDbEntity
  8
0
  6
Continuous
 62
     7
370
    25
100
AcDbLine
 10
464.4629900725
 20
721.2102976022
 30
0.0
 11
464.0329935068
 21
724.179321508
 31
0.0
  0
LINE
  5
24F
330
1F
100
AcDbEntity
  8
0
  6
Continuous
 62
     7
370
    25
100
AcDbLine
 10
848.2419008455
 20
779.8233701571
 30
0.0
 11
844.697236376
 21
776.2787056875
 31
0.0
  0
LINE
  5
250
330
1F
100
AcDbEntity
  8
0
  6
Continuous
 62
     7
370
    25
100
AcDbLine
 10
845.8244484739
 20
890.6738669778
 30
0.0
 11
941.0923976663
 21
890.6738669778
 31
0.0
  0
LINE
  5
251
330
1F
100
AcDbEntity
  8
0
  6
Continuous
 62
     7
370
    25
100
AcDbLine
 10
309.5069165096
 20
940.6738669778
 30
0.0
 11
803.677878823
 21
940.6738669778
 31
0.0
  0
LINE
  5
252
330
1F
100
AcDbEntity
  8
0
  6
Continuous
 62
     7
370
    25
100
AcDbLine
 10
309.5069165096
 20
940.6738669778
 30
0.0
 11
309.5069165096
 21
937.6738669778
 31
0.0
  0
ARC
  5
253
330
1F
100
AcDbEntity
  8
0
  6
Continuous
 62
     7
370
    25
100
AcDbCircle
 10
461.5963463013
 20
741.0037903078
 30
0.0
 40
20.00000000000008
100
AcDbArc
 50
257.0425338197
 51
278.2407118297
  0
LINE
  5
254
330
1F
100
AcDbEntity
  8
0
  6
Continuous
 62
     7
370
    25
100
AcDbLine
 10
457.1117930264
 20
721.5130545104
 30
0.0
 11
457.7844760176
 21
724.43666488
 31
0.0
  0
LINE
  5
255
330
1F
100
AcDbEntity
  8
0
  6
Continuous
 62
     7
370
    25
100
AcDbLine
 10
457.1117930264
 20
721.5130545104
 30
0.0
 11
-18.9303310272
 21
831.043874106
 31
0.0
  0
LINE
  5
256
330
1F
100
AcDbEntity
  8
0
  6
Continuous
 62
     7
370
    25
100
AcDbLine
 10
-18.9303310272
 20
831.043874106
 30
0.0
 11
-18.2576480359
 21
833.9674844756
 31
0.0
  0
LINE
  5
257
330
1F
100
AcDbEntity
  8
0
  6
Continuous
 62
     7
370
    25
100
AcDbLine
 10
145.9983868987
 20
930.6738669778
 30
0.0
 11
168.2263722625
 21
892.1738669778
 31
0.0
  0
LINE
  5
258
330
1F
100
AcDbEntity
  8
0
  6
Continuous
 62
     7
370
    25
100
AcDbLine
 10
168.2263722625
 20
892.1738669778
 30
0.0
 11
165.6282960512
 21
890.6738669778
 31
0.0
  0
LINE
  5
259
330
1F
100
AcDbEntity
  8
0
  6
Continuous
 62
     7
370
    25
100
AcDbLine
 10
145.9983868987
 20
930.6738669778
 30
0.0
 11
143.4003106874
 21
929.1738669778
 31
0.0
  0
LINE
  5
25A
330
1F
100
AcDbEntity
  8
0
  6
Continuous
 62
     7
370
    25
100
AcDbLine
 10
170.8244484739
 20
890.6738669778
 30
0.0
 11
267.3603468587
 21
890.6738669778
 31
0.0
  0
LINE
  5
25B
330
1F
100
AcDbEntity
  8
0
  6
Continuous
 62
     7
370
    25
100
AcDbLine
 10
267.3603468587
 20
890.6738669778
 30
0.0
 11
267.3603468587
 21
887.6738669778
 31
0.0
  0
LINE
  5
25C
330
1F
100
AcDbEntity
  8
0
  6
Continuous
 62
     7
370
    25
100
AcDbLine
 10
170.8244484739
 20
890.6738669778
 30
0.0
 11
170.8244484739
 21
887.6738669778
 31
0.0
  0
ARC
  5
25D
330
1F
100
AcDbEntity
  8
0
  6
Continuous
 62
     7
370
    25
100
AcDbCircle
 10
128.677878823
 20
920.6738669778
 30
0.0
 40
20.0
100
AcDbArc
 50
30.0
 51
90.0
  0
LINE
  5
25E
330
1F
100
AcDbEntity
  8
0
  6
Continuous
 62
     7
370
    25
100
AcDbLine
 10
128.677878823
 20
940.6738669778
 30
0.0
 11
128.677878823
 21
937.6738669778
 31
0.0
  0
LINE
  5
25F
330
1F
100
AcDbEntity
  8
0
  6
Continuous
 62
     7
370
    25
100
AcDbLine
 10
-26.2815280732
 20
831.3466310142
 30
0.0
 11
-406.5124410434
 21
776.2787056875
 31
0.0
  0
LINE
  5
260
330
1F
100
AcDbEntity
  8
0
  6
Continuous
 62
     7
370
    25
100
AcDbLine
 10
-26.2815280732
 20
831.3466310142
 30
0.0
 11
-26.7115246389
 21
834.3156549201
 31
0.0
  0
LINE
  5
261
330
1F
100
AcDbEntity
  8
0
  6
Continuous
 62
     7
370
    25
100
AcDbLine
 10
-406.5124410434
 20
776.2787056875
 30
0.0
 11
-409.1602626954
 21
778.9265273395
 31
0.0
  0
LINE
  5
262
330
1F
100
AcDbEntity
  8
0
  6
Continuous
 62
     7
370
    25
100
AcDbLine
 10
-365.4930834904
 20
940.6738669779
 30
0.0
 11
128.677878823
 21
940.6738669778
 31
0.0
  0
LINE
  5
263
330
1F
100
AcDbEntity
  8
0
  6
Continuous
 62
     7
370
    25
100
AcDbLine
 10
-365.4930834904
 20
940.6738669779
 30
0.0
 11
-365.4930834904
 21
937.6738669779
 31
0.0
  0
ARC
  5
264
330
1F
100
AcDbEntity
  8
0
  6
Continuous
 62
     7
370
    25
100
AcDbCircle
 10
267.3603468587
 20
893.6738669778
 30
0.0
 40
3.000000000000008
100
AcDbArc
 50
270.0
 51
330.0
  0
LINE
  5
265
330
1F
100
AcDbEntity
  8
0
  6
Continuous
 62
     7
370
    25
100
AcDbLine
 10
269.9584230701
 20
892.1738669778
 30
0.0
 11
272.5564992814
 21
890.6738669778
 31
0.0
  0
ARC
  5
266
330
1F
100
AcDbEntity
  8
0
  6
Continuous
 62
     7
370
    25
100
AcDbCircle
 10
309.5069165096
 20
920.6738669778
 30
0.0
 40
20.0
100
AcDbArc
 50
90.0
 51
150.0
  0
LINE
  5
267
330
1F
100
AcDbEntity
  8
0
  6
Continuous
 62
     7
370
    25
100
AcDbLine
 10
292.1864084339
 20
930.6738669778
 30
0.0
 11
294.7844846452
 21
929.1738669778
 31
0.0
  0
ARC
  5
268
330
1F
100
AcDbEntity
  8
0
  6
Continuous
 62
     7
370
    25
100
AcDbCircle
 10
-365.4930834904
 20
920.6738669779
 30
0.0
 40
20.00000000000004
100
AcDbArc
 50
90.0
 51
150.0
  0
LINE
  5
269
330
1F
100
AcDbEntity
  8
0
  6
Continuous
 62
     7
370
    25
100
AcDbLine
 10
-382.8135915661
 20
930.6738669779
 30
0.0
 11
-380.2155153548
 21
929.1738669779
 31
0.0
  0
ARC
  5
26A
330
1F
100
AcDbEntity
  8
0
  6
Continuous
 62
     7
370
    25
100
AcDbCircle
 10
-23.414884302
 20
811.5531383086
 30
0.0
 40
20.0
100
AcDbArc
 50
77.0425338197
 51
98.2407118297
  0
ARC
  5
26B
330
1F
100
AcDbEntity
  8
0
  6
Continuous
 62
     7
370
    25
100
AcDbCircle
 10
-407.6396531413
 20
893.6738669779
 30
0.0
 40
3.000000000000057
100
AcDbArc
 50
270.0
 51
330.0
  0
LINE
  5
26C
330
1F
100
AcDbEntity
  8
0
  6
Continuous
 62
     7
370
    25
100
AcDbLine
 10
-405.0415769299
 20
892.1738669779
 30
0.0
 11
-402.4435007186
 21
890.6738669779
 31
0.0
  0
LINE
  5
26D
330
1F
100
AcDbEntity
  8
0
  6
Continuous
 62
     7
370
    25
100
AcDbLine
 10
-407.6396531413
 20
890.6738669779
 30
0.0
 11
-407.6396531413
 21
887.6738669779
 31
0.0
  0
ARC
  5
26E
330
1F
100
AcDbEntity
  8
0
  6
Continuous
 62
     7
370
    25
100
AcDbCircle
 10
170.8244484739
 20
893.6738669778
 30
0.0
 40
3.0
100
AcDbArc
 50
210.0
 51
270.0
  0
LINE
  5
26F
330
1F
100
AcDbEntity
  8
0
  6
Continuous
 62
     7
370
    25
100
AcDbLine
 10
-405.0415769299
 20
892.1738669779
 30
0.0
 11
-382.8135915661
 21
930.6738669779
 31
0.0
  0
LINE
  5
270
330
1F
100
AcDbEntity
  8
0
  6
Continuous
 62
     7
370
    25
100
AcDbLine
 10
-502.9076023337
 20
890.6738669779
 30
0.0
 11
-407.6396531413
 21
890.6738669779
 31
0.0
  0
LINE
  5
271
330
1F
100
AcDbEntity
  8
0
  6
Continuous
 62
     7
370
    25
100
AcDbLine
 10
-502.9076023337
 20
890.6738669779
 30
0.0
 11
-502.9076023337
 21
887.6738669779
 31
0.0
  0
LINE
  5
272
330
1F
100
AcDbEntity
  8
0
  6
Continuous
 62
     7
370
    25
100
AcDbLine
 10
269.9584230701
 20
892.1738669778
 30
0.0
 11
292.1864084339
 21
930.6738669778
 31
0.0
  0
LINE
  5
273
330
1F
100
AcDbEntity
  8
0
  6
Continuous
 62
     7
370
    25
100
AcDbLine
 10
-505.9076023337
 20
887.6738669779
 30
0.0
 11
-502.9076023337
 21
887.6738669779
 31
0.0
  0
ARC
  5
274
330
1F
100
AcDbEntity
  8
0
  6
Continuous
 62
     7
370
    25
100
AcDbCircle
 10
-502.9076023337
 20
887.6738669779
 30
0.0
 40
3.000000000000114
100
AcDbArc
 50
90.0
 51
180.0
  0
LINE
  5
275
330
1F
100
AcDbEntity
  8
0
  6
Continuous
 62
     7
370
    25
100
AcDbLine
 10
-505.9076023337
 20
875.6738669779
 30
0.0
 11
-505.9076023337
 21
887.6738669779
 31
0.0
  0
LINE
  5
276
330
1F
100
AcDbEntity
  8
0
  6
Continuous
 62
     7
370
    25
100
AcDbLine
 10
-502.9076023337
 20
872.6738669779
 30
0.0
 11
-505.9076023337
 21
875.6738669779
 31
0.0
  0
ARC
  5
277
330
1F
100
AcDbEntity
  8
0
  6
Continuous
 62
     7
370
    25
100
AcDbCircle
 10
-513.4076023337
 20
603.1738669778
 30
0.0
 40
2.250000000000238
100
AcDbArc
 50
281.1281260491
 51
341.1281260491
  0
ARC
  5
278
330
1F
100
AcDbEntity
  8
0
  6
Continuous
 62
     7
370
    25
100
AcDbCircle
 10
-513.0601957598
 20
601.407710509
 30
0.0
 40
0.4500000000002617
100
AcDbArc
 50
281.128126049
 51
357.7863678219
  0
ARC
  5
279
330
1F
100
AcDbEntity
  8
0
  6
Continuous
 62
     7
370
    25
100
AcDbCircle
 10
-511.7043626777
 20
602.5916516619
 30
0.0
 40
0.4500000000003863
100
AcDbArc
 50
264.4698842763
 51
341.1281260491
  0
ARC
  5
27A
330
1F
100
AcDbEntity
  8
0
  6
Continuous
 62
     7
370
    25
100
AcDbCircle
 10
-511.8236192384
 20
601.3599113797
 30
0.0
 40
0.787499999999858
100
AcDbArc
 50
84.4698842763
 51
177.7863678218
  0
ARC
  5
27B
330
1F
100
AcDbEntity
  8
0
  6
Continuous
 62
     7
370
    25
100
AcDbCircle
 10
-513.4076023337
 20
603.1738669778
 30
0.0
 40
2.250000000000275
100
AcDbArc
 50
41.1281260491
 51
101.1281260491
  0
ARC
  5
27C
330
1F
100
AcDbEntity
  8
0
  6
Continuous
 62
     7
370
    25
100
AcDbCircle
 10
-513.4076023337
 20
603.1738669778
 30
0.0
 40
2.250000000000275
100
AcDbArc
 50
101.1281260491
 51
161.1281260491
  0
ARC
  5
27D
330
1F
100
AcDbEntity
  8
0
  6
Continuous
 62
     7
370
    25
100
AcDbCircle
 10
-513.4076023337
 20
603.1738669778
 30
0.0
 40
2.250000000000255
100
AcDbArc
 50
161.1281260491
 51
221.1281260491
  0
ARC
  5
27E
330
1F
100
AcDbEntity
  8
0
  6
Continuous
 62
     7
370
    25
100
AcDbCircle
 10
-513.4076023337
 20
603.1738669778
 30
0.0
 40
2.250000000000231
100
AcDbArc
 50
221.1281260491
 51
281.1281260491
  0
ARC
  5
27F
330
1F
100
AcDbEntity
  8
0
  6
Continuous
 62
     7
370
    25
100
AcDbCircle
 10
-513.4076023337
 20
603.1738669778
 30
0.0
 40
2.250000000000238
100
AcDbArc
 50
341.1281260491
 51
41.1281260491
  0
CIRCLE
  5
280
330
1F
100
AcDbEntity
  8
0
  6
Continuous
 62
     7
370
    25
100
AcDbCircle
 10
-513.4076023337
 20
603.1738669778
 30
0.0
 40
3.849999999999985
  0
ARC
  5
281
330
1F
100
AcDbEntity
  8
0
  6
Continuous
 62
     7
370
    25
100
AcDbCircle
 10
-515.1108419898
 20
603.7560822938
 30
0.0
 40
0.450000000000242
100
AcDbArc
 50
84.4698842763
 51
161.1281260491
  0
ARC
  5
282
330
1F
100
AcDbEntity
  8
0
  6
Continuous
 62
     7
370
    25
100
AcDbCircle
 10
-514.991585429
 20
604.9878225759
 30
0.0
 40
0.7874999999997083
100
AcDbArc
 50
264.4698842763
 51
357.7863678218
  0
ARC
  5
283
330
1F
100
AcDbEntity
  8
0
  6
Continuous
 62
     7
370
    25
100
AcDbCircle
 10
-513.7550089077
 20
604.9400234467
 30
0.0
 40
0.4500000000003056
100
AcDbArc
 50
101.128126049
 51
177.7863678219
  0
ARC
  5
284
330
1F
100
AcDbEntity
  8
0
  6
Continuous
 62
     7
370
    25
100
AcDbCircle
 10
-512.6286622521
 20
605.4526143766
 30
0.0
 40
0.7875000000000771
100
AcDbArc
 50
204.4698842763
 51
297.7863678219
  0
ARC
  5
285
330
1F
100
AcDbEntity
  8
0
  6
Continuous
 62
     7
370
    25
100
AcDbCircle
 10
-512.0517692516
 20
604.3578081307
 30
0.0
 40
0.4500000000000475
100
AcDbArc
 50
41.1281260491
 51
117.7863678218
  0
ARC
  5
286
330
1F
100
AcDbEntity
  8
0
  6
Continuous
 62
     7
370
    25
100
AcDbCircle
 10
-513.7550089077
 20
604.9400234467
 30
0.0
 40
0.4500000000003056
100
AcDbArc
 50
24.4698842763
 51
101.128126049
  0
ARC
  5
287
330
1F
100
AcDbEntity
  8
0
  6
Continuous
 62
     7
370
    25
100
AcDbCircle
 10
-511.7043626777
 20
602.5916516619
 30
0.0
 40
0.4500000000003863
100
AcDbArc
 50
341.1281260491
 51
57.7863678218
  0
ARC
  5
288
330
1F
100
AcDbEntity
  8
0
  6
Continuous
 62
     7
370
    25
100
AcDbCircle
 10
-512.0517692516
 20
604.3578081307
 30
0.0
 40
0.4499999999999489
100
AcDbArc
 50
324.4698842763
 51
41.1281260491
  0
ARC
  5
289
330
1F
100
AcDbEntity
  8
0
  6
Continuous
 62
     7
370
    25
100
AcDbCircle
 10
-511.0446791568
 20
603.6386587785
 30
0.0
 40
0.7875000000000592
100
AcDbArc
 50
144.4698842763
 51
237.7863678218
  0
ARC
  5
28A
330
1F
100
AcDbEntity
  8
0
  6
Continuous
 62
     7
370
    25
100
AcDbCircle
 10
-514.7634354158
 20
601.9899258249
 30
0.0
 40
0.449999999999896
100
AcDbArc
 50
144.4698842763
 51
221.1281260491
  0
ARC
  5
28B
330
1F
100
AcDbEntity
  8
0
  6
Continuous
 62
     7
370
    25
100
AcDbCircle
 10
-515.7705255107
 20
602.7090751772
 30
0.0
 40
0.7874999999999931
100
AcDbArc
 50
324.4698842763
 51
57.7863678218
  0
ARC
  5
28C
330
1F
100
AcDbEntity
  8
0
  6
Continuous
 62
     7
370
    25
100
AcDbCircle
 10
-515.1108419898
 20
603.7560822938
 30
0.0
 40
0.450000000000242
100
AcDbArc
 50
161.1281260491
 51
237.7863678218
  0
ARC
  5
28D
330
1F
100
AcDbEntity
  8
0
  6
Continuous
 62
     7
370
    25
100
AcDbCircle
 10
-514.1865424154
 20
600.8951195791
 30
0.0
 40
0.7875000000000301
100
AcDbArc
 50
24.4698842763
 51
117.7863678218
  0
ARC
  5
28E
330
1F
100
AcDbEntity
  8
0
  6
Continuous
 62
     7
370
    25
100
AcDbCircle
 10
-513.0601957598
 20
601.407710509
 30
0.0
 40
0.4500000000002617
100
AcDbArc
 50
204.4698842763
 51
281.128126049
  0
ARC
  5
28F
330
1F
100
AcDbEntity
  8
0
  6
Continuous
 62
     7
370
    25
100
AcDbCircle
 10
-514.7634354158
 20
601.9899258249
 30
0.0
 40
0.4500000000000528
100
AcDbArc
 50
221.1281260491
 51
297.7863678219
  0
ARC
  5
290
330
1F
100
AcDbEntity
  8
0
  6
Continuous
 62
     7
370
    25
100
AcDbCircle
 10
951.5923976663
 20
-301.8261330222
 30
0.0
 40
2.250000000000274
100
AcDbArc
 50
341.1281260491
 51
41.1281260491
  0
ARC
  5
291
330
1F
100
AcDbEntity
  8
0
  6
Continuous
 62
     7
370
    25
100
AcDbCircle
 10
953.2956373223
 20
-302.4083483381
 30
0.0
 40
0.4500000000004571
100
AcDbArc
 50
341.1281260491
 51
57.7863678218
  0
ARC
  5
292
330
1F
100
AcDbEntity
  8
0
  6
Continuous
 62
     7
370
    25
100
AcDbCircle
 10
953.9553208432
 20
-301.3613412215
 30
0.0
 40
0.7875000000000262
100
AcDbArc
 50
144.4698842763
 51
237.7863678218
  0
ARC
  5
293
330
1F
100
AcDbEntity
  8
0
  6
Continuous
 62
     7
370
    25
100
AcDbCircle
 10
952.9482307484
 20
-300.6421918693
 30
0.0
 40
0.4500000000000811
100
AcDbArc
 50
324.4698842763
 51
41.1281260491
  0
ARC
  5
294
330
1F
100
AcDbEntity
  8
0
  6
Continuous
 62
     7
370
    25
100
AcDbCircle
 10
951.5923976663
 20
-301.8261330222
 30
0.0
 40
2.250000000000275
100
AcDbArc
 50
41.1281260491
 51
101.1281260491
  0
ARC
  5
295
330
1F
100
AcDbEntity
  8
0
  6
Continuous
 62
     7
370
    25
100
AcDbCircle
 10
951.5923976663
 20
-301.8261330222
 30
0.0
 40
2.250000000000275
100
AcDbArc
 50
101.1281260491
 51
161.1281260491
  0
ARC
  5
296
330
1F
100
AcDbEntity
  8
0
  6
Continuous
 62
     7
370
    25
100
AcDbCircle
 10
951.5923976663
 20
-301.8261330222
 30
0.0
 40
2.250000000000255
100
AcDbArc
 50
161.1281260491
 51
221.1281260491
  0
ARC
  5
297
330
1F
100
AcDbEntity
  8
0
  6
Continuous
 62
     7
370
    25
100
AcDbCircle
 10
951.5923976663
 20
-301.8261330222
 30
0.0
 40
2.250000000000287
100
AcDbArc
 50
221.1281260491
 51
281.1281260491
  0
ARC
  5
298
330
1F
100
AcDbEntity
  8
0
  6
Continuous
 62
     7
370
    25
100
AcDbCircle
 10
951.5923976663
 20
-301.8261330222
 30
0.0
 40
2.250000000000287
100
AcDbArc
 50
281.1281260491
 51
341.1281260491
  0
CIRCLE
  5
299
330
1F
100
AcDbEntity
  8
0
  6
Continuous
 62
     7
370
    25
100
AcDbCircle
 10
951.5923976663
 20
-301.8261330222
 30
0.0
 40
3.849999999999985
  0
ARC
  5
29A
330
1F
100
AcDbEntity
  8
0
  6
Continuous
 62
     7
370
    25
100
AcDbCircle
 10
952.9482307484
 20
-300.6421918693
 30
0.0
 40
0.4499999999999468
100
AcDbArc
 50
41.1281260491
 51
117.7863678218
  0
ARC
  5
29B
330
1F
100
AcDbEntity
  8
0
  6
Continuous
 62
     7
370
    25
100
AcDbCircle
 10
952.3713377479
 20
-299.5473856234
 30
0.0
 40
0.7875000000000435
100
AcDbArc
 50
204.4698842763
 51
297.7863678219
  0
ARC
  5
29C
330
1F
100
AcDbEntity
  8
0
  6
Continuous
 62
     7
370
    25
100
AcDbCircle
 10
951.2449910923
 20
-300.0599765533
 30
0.0
 40
0.4500000000003614
100
AcDbArc
 50
24.4698842763
 51
101.128126049
  0
ARC
  5
29D
330
1F
100
AcDbEntity
  8
0
  6
Continuous
 62
     7
370
    25
100
AcDbCircle
 10
950.008414571
 20
-300.0121774241
 30
0.0
 40
0.787499999999858
100
AcDbArc
 50
264.4698842763
 51
357.7863678218
  0
ARC
  5
29E
330
1F
100
AcDbEntity
  8
0
  6
Continuous
 62
     7
370
    25
100
AcDbCircle
 10
949.8891580102
 20
-301.2439177062
 30
0.0
 40
0.450000000000242
100
AcDbArc
 50
84.4698842763
 51
161.1281260491
  0
ARC
  5
29F
330
1F
100
AcDbEntity
  8
0
  6
Continuous
 62
     7
370
    25
100
AcDbCircle
 10
951.2449910923
 20
-300.0599765533
 30
0.0
 40
0.4500000000003614
100
AcDbArc
 50
101.128126049
 51
177.7863678219
  0
ARC
  5
2A0
330
1F
100
AcDbEntity
  8
0
  6
Continuous
 62
     7
370
    25
100
AcDbCircle
 10
951.9398042402
 20
-303.592289491
 30
0.0
 40
0.4500000000003175
100
AcDbArc
 50
281.128126049
 51
357.7863678219
  0
ARC
  5
2A1
330
1F
100
AcDbEntity
  8
0
  6
Continuous
 62
     7
370
    25
100
AcDbCircle
 10
953.2956373223
 20
-302.4083483381
 30
0.0
 40
0.4500000000004571
100
AcDbArc
 50
264.4698842763
 51
341.1281260491
  0
ARC
  5
2A2
330
1F
100
AcDbEntity
  8
0
  6
Continuous
 62
     7
370
    25
100
AcDbCircle
 10
953.1763807616
 20
-303.6400886203
 30
0.0
 40
0.7874999999997447
100
AcDbArc
 50
84.4698842763
 51
177.7863678218
  0
ARC
  5
2A3
330
1F
100
AcDbEntity
  8
0
  6
Continuous
 62
     7
370
    25
100
AcDbCircle
 10
950.2365645842
 20
-303.0100741751
 30
0.0
 40
0.4500000000001032
100
AcDbArc
 50
221.1281260491
 51
297.7863678218
  0
ARC
  5
2A4
330
1F
100
AcDbEntity
  8
0
  6
Continuous
 62
     7
370
    25
100
AcDbCircle
 10
951.9398042402
 20
-303.592289491
 30
0.0
 40
0.4500000000003175
100
AcDbArc
 50
204.4698842763
 51
281.128126049
  0
ARC
  5
2A5
330
1F
100
AcDbEntity
  8
0
  6
Continuous
 62
     7
370
    25
100
AcDbCircle
 10
950.8134575846
 20
-304.1048804209
 30
0.0
 40
0.7875000000000301
100
AcDbArc
 50
24.4698842763
 51
117.7863678218
  0
ARC
  5
2A6
330
1F
100
AcDbEntity
  8
0
  6
Continuous
 62
     7
370
    25
100
AcDbCircle
 10
949.8891580102
 20
-301.2439177062
 30
0.0
 40
0.450000000000242
100
AcDbArc
 50
161.1281260491
 51
237.7863678218
  0
ARC
  5
2A7
330
1F
100
AcDbEntity
  8
0
  6
Continuous
 62
     7
370
    25
100
AcDbCircle
 10
950.2365645842
 20
-303.0100741751
 30
0.0
 40
0.4499999999998299
100
AcDbArc
 50
144.4698842763
 51
221.1281260491
  0
ARC
  5
2A8
330
1F
100
AcDbEntity
  8
0
  6
Continuous
 62
     7
370
    25
100
AcDbCircle
 10
949.2294744893
 20
-302.2909248228
 30
0.0
 40
0.7875000000000262
100
AcDbArc
 50
324.4698842763
 51
57.7863678219
  0
ARC
  5
2A9
330
1F
100
AcDbEntity
  8
0
  6
Continuous
 62
     7
370
    25
100
AcDbCircle
 10
-513.4076023337
 20
-301.8261330222
 30
0.0
 40
2.250000000000275
100
AcDbArc
 50
41.1281260491
 51
101.1281260491
  0
ARC
  5
2AA
330
1F
100
AcDbEntity
  8
0
  6
Continuous
 62
     7
370
    25
100
AcDbCircle
 10
-513.7550089077
 20
-300.0599765533
 30
0.0
 40
0.4500000000003056
100
AcDbArc
 50
24.4698842763
 51
101.128126049
  0
ARC
  5
2AB
330
1F
100
AcDbEntity
  8
0
  6
Continuous
 62
     7
370
    25
100
AcDbCircle
 10
-512.6286622521
 20
-299.5473856234
 30
0.0
 40
0.7875000000000938
100
AcDbArc
 50
204.4698842763
 51
297.7863678219
  0
ARC
  5
2AC
330
1F
100
AcDbEntity
  8
0
  6
Continuous
 62
     7
370
    25
100
AcDbCircle
 10
-512.0517692516
 20
-300.6421918693
 30
0.0
 40
0.4499999999999468
100
AcDbArc
 50
41.1281260491
 51
117.7863678218
  0
ARC
  5
2AD
330
1F
100
AcDbEntity
  8
0
  6
Continuous
 62
     7
370
    25
100
AcDbCircle
 10
-513.4076023337
 20
-301.8261330222
 30
0.0
 40
2.250000000000274
100
AcDbArc
 50
281.1281260491
 51
341.1281260491
  0
ARC
  5
2AE
330
1F
100
AcDbEntity
  8
0
  6
Continuous
 62
     7
370
    25
100
AcDbCircle
 10
-513.0601957598
 20
-303.592289491
 30
0.0
 40
0.4500000000002617
100
AcDbArc
 50
281.128126049
 51
357.7863678219
  0
ARC
  5
2AF
330
1F
100
AcDbEntity
  8
0
  6
Continuous
 62
     7
370
    25
100
AcDbCircle
 10
-511.7043626777
 20
-302.4083483381
 30
0.0
 40
0.4500000000004217
100
AcDbArc
 50
264.4698842763
 51
341.1281260491
  0
ARC
  5
2B0
330
1F
100
AcDbEntity
  8
0
  6
Continuous
 62
     7
370
    25
100
AcDbCircle
 10
-511.8236192384
 20
-303.6400886203
 30
0.0
 40
0.787499999999715
100
AcDbArc
 50
84.4698842763
 51
177.7863678218
  0
ARC
  5
2B1
330
1F
100
AcDbEntity
  8
0
  6
Continuous
 62
     7
370
    25
100
AcDbCircle
 10
-513.4076023337
 20
-301.8261330222
 30
0.0
 40
2.250000000000275
100
AcDbArc
 50
101.1281260491
 51
161.1281260491
  0
ARC
  5
2B2
330
1F
100
AcDbEntity
  8
0
  6
Continuous
 62
     7
370
    25
100
AcDbCircle
 10
-513.4076023337
 20
-301.8261330222
 30
0.0
 40
2.250000000000274
100
AcDbArc
 50
161.1281260491
 51
221.1281260491
  0
ARC
  5
2B3
330
1F
100
AcDbEntity
  8
0
  6
Continuous
 62
     7
370
    25
100
AcDbCircle
 10
-513.4076023337
 20
-301.8261330222
 30
0.0
 40
2.250000000000231
100
AcDbArc
 50
221.1281260491
 51
281.1281260491
  0
ARC
  5
2B4
330
1F
100
AcDbEntity
  8
0
  6
Continuous
 62
     7
370
    25
100
AcDbCircle
 10
-513.4076023337
 20
-301.8261330222
 30
0.0
 40
2.250000000000274
100
AcDbArc
 50
341.1281260491
 51
41.1281260491
  0
CIRCLE
  5
2B5
330
1F
100
AcDbEntity
  8
0
  6
Continuous
 62
     7
370
    25
100
AcDbCircle
 10
-513.4076023337
 20
-301.8261330222
 30
0.0
 40
3.849999999999985
  0
ARC
  5
2B6
330
1F
100
AcDbEntity
  8
0
  6
Continuous
 62
     7
370
    25
100
AcDbCircle
 10
-515.1108419898
 20
-301.2439177062
 30
0.0
 40
0.4500000000002604
100
AcDbArc
 50
84.4698842763
 51
161.1281260491
  0
ARC
  5
2B7
330
1F
100
AcDbEntity
  8
0
  6
Continuous
 62
     7
370
    25
100
AcDbCircle
 10
-513.7550089077
 20
-300.0599765533
 30
0.0
 40
0.4500000000003056
100
AcDbArc
 50
101.128126049
 51
177.7863678219
  0
ARC
  5
2B8
330
1F
100
AcDbEntity
  8
0
  6
Continuous
 62
     7
370
    25
100
AcDbCircle
 10
-514.991585429
 20
-300.0121774241
 30
0.0
 40
0.7874999999998014
100
AcDbArc
 50
264.4698842763
 51
357.7863678218
  0
ARC
  5
2B9
330
1F
100
AcDbEntity
  8
0
  6
Continuous
 62
     7
370
    25
100
AcDbCircle
 10
-511.7043626777
 20
-302.4083483381
 30
0.0
 40
0.4500000000004217
100
AcDbArc
 50
341.1281260491
 51
57.7863678218
  0
ARC
  5
2BA
330
1F
100
AcDbEntity
  8
0
  6
Continuous
 62
     7
370
    25
100
AcDbCircle
 10
-511.0446791568
 20
-301.3613412215
 30
0.0
 40
0.7875000000000262
100
AcDbArc
 50
144.4698842763
 51
237.7863678218
  0
ARC
  5
2BB
330
1F
100
AcDbEntity
  8
0
  6
Continuous
 62
     7
370
    25
100
AcDbCircle
 10
-512.0517692516
 20
-300.6421918693
 30
0.0
 40
0.450000000000048
100
AcDbArc
 50
324.4698842763
 51
41.1281260491
  0
ARC
  5
2BC
330
1F
100
AcDbEntity
  8
0
  6
Continuous
 62
     7
370
    25
100
AcDbCircle
 10
-515.1108419898
 20
-301.2439177062
 30
0.0
 40
0.4500000000002604
100
AcDbArc
 50
161.1281260491
 51
237.7863678218
  0
ARC
  5
2BD
330
1F
100
AcDbEntity
  8
0
  6
Continuous
 62
     7
370
    25
100
AcDbCircle
 10
-515.7705255107
 20
-302.2909248228
 30
0.0
 40
0.7875000000000262
100
AcDbArc
 50
324.4698842763
 51
57.7863678219
  0
ARC
  5
2BE
330
1F
100
AcDbEntity
  8
0
  6
Continuous
 62
     7
370
    25
100
AcDbCircle
 10
-514.7634354158
 20
-303.0100741751
 30
0.0
 40
0.4499999999997969
100
AcDbArc
 50
144.4698842763
 51
221.1281260491
  0
ARC
  5
2BF
330
1F
100
AcDbEntity
  8
0
  6
Continuous
 62
     7
370
    25
100
AcDbCircle
 10
-514.1865424154
 20
-304.1048804209
 30
0.0
 40
0.7875000000000301
100
AcDbArc
 50
24.4698842763
 51
117.7863678218
  0
ARC
  5
2C0
330
1F
100
AcDbEntity
  8
0
  6
Continuous
 62
     7
370
    25
100
AcDbCircle
 10
-514.7634354158
 20
-303.0100741751
 30
0.0
 40
0.4500000000001534
100
AcDbArc
 50
221.1281260491
 51
297.7863678218
  0
ARC
  5
2C1
330
1F
100
AcDbEntity
  8
0
  6
Continuous
 62
     7
370
    25
100
AcDbCircle
 10
-513.0601957598
 20
-303.592289491
 30
0.0
 40
0.4500000000002617
100
AcDbArc
 50
204.4698842763
 51
281.128126049
  0
ARC
  5
2C2
330
1F
100
AcDbEntity
  8
0
  6
Continuous
 62
     7
370
    25
100
AcDbCircle
 10
106.5923976663
 20
-581.8261330222
 30
0.0
 40
2.250000000000255
100
AcDbArc
 50
281.1281260491
 51
341.1281260491
  0
ARC
  5
2C3
330
1F
100
AcDbEntity
  8
0
  6
Continuous
 62
     7
370
    25
100
AcDbCircle
 10
106.9398042402
 20
-583.592289491
 30
0.0
 40
0.4500000000002672
100
AcDbArc
 50
281.128126049
 51
357.7863678219
  0
ARC
  5
2C4
330
1F
100
AcDbEntity
  8
0
  6
Continuous
 62
     7
370
    25
100
AcDbCircle
 10
108.1763807616
 20
-583.6400886203
 30
0.0
 40
0.787499999999751
100
AcDbArc
 50
84.4698842763
 51
177.7863678218
  0
ARC
  5
2C5
330
1F
100
AcDbEntity
  8
0
  6
Continuous
 62
     7
370
    25
100
AcDbCircle
 10
108.2956373223
 20
-582.4083483381
 30
0.0
 40
0.4500000000002958
100
AcDbArc
 50
264.4698842763
 51
341.1281260491
  0
ARC
  5
2C6
330
1F
100
AcDbEntity
  8
0
  6
Continuous
 62
     7
370
    25
100
AcDbCircle
 10
106.5923976663
 20
-581.8261330222
 30
0.0
 40
2.250000000000255
100
AcDbArc
 50
341.1281260491
 51
41.1281260491
  0
ARC
  5
2C7
330
1F
100
AcDbEntity
  8
0
  6
Continuous
 62
     7
370
    25
100
AcDbCircle
 10
108.2956373223
 20
-582.4083483381
 30
0.0
 40
0.4500000000002958
100
AcDbArc
 50
341.1281260491
 51
57.7863678218
  0
ARC
  5
2C8
330
1F
100
AcDbEntity
  8
0
  6
Continuous
 62
     7
370
    25
100
AcDbCircle
 10
107.9482307484
 20
-580.6421918693
 30
0.0
 40
0.4500000000000117
100
AcDbArc
 50
324.4698842763
 51
41.1281260491
  0
ARC
  5
2C9
330
1F
100
AcDbEntity
  8
0
  6
Continuous
 62
     7
370
    25
100
AcDbCircle
 10
108.9553208432
 20
-581.3613412215
 30
0.0
 40
0.78749999999997
100
AcDbArc
 50
144.4698842763
 51
237.7863678218
  0
ARC
  5
2CA
330
1F
100
AcDbEntity
  8
0
  6
Continuous
 62
     7
370
    25
100
AcDbCircle
 10
106.5923976663
 20
-581.8261330222
 30
0.0
 40
2.250000000000242
100
AcDbArc
 50
41.1281260491
 51
101.1281260491
  0
ARC
  5
2CB
330
1F
100
AcDbEntity
  8
0
  6
Continuous
 62
     7
370
    25
100
AcDbCircle
 10
107.9482307484
 20
-580.6421918693
 30
0.0
 40
0.44999999999998
100
AcDbArc
 50
41.1281260491
 51
117.7863678218
  0
ARC
  5
2CC
330
1F
100
AcDbEntity
  8
0
  6
Continuous
 62
     7
370
    25
100
AcDbCircle
 10
107.3713377479
 20
-579.5473856234
 30
0.0
 40
0.7875000000000429
100
AcDbArc
 50
204.4698842763
 51
297.7863678218
  0
ARC
  5
2CD
330
1F
100
AcDbEntity
  8
0
  6
Continuous
 62
     7
370
    25
100
AcDbCircle
 10
106.2449910923
 20
-580.0599765533
 30
0.0
 40
0.45000000000027
100
AcDbArc
 50
24.4698842763
 51
101.128126049
  0
ARC
  5
2CE
330
1F
100
AcDbEntity
  8
0
  6
Continuous
 62
     7
370
    25
100
AcDbCircle
 10
106.5923976663
 20
-581.8261330222
 30
0.0
 40
2.250000000000279
100
AcDbArc
 50
101.1281260491
 51
161.1281260491
  0
ARC
  5
2CF
330
1F
100
AcDbEntity
  8
0
  6
Continuous
 62
     7
370
    25
100
AcDbCircle
 10
105.008414571
 20
-580.0121774241
 30
0.0
 40
0.7874999999998524
100
AcDbArc
 50
264.4698842763
 51
357.7863678218
  0
ARC
  5
2D0
330
1F
100
AcDbEntity
  8
0
  6
Continuous
 62
     7
370
    25
100
AcDbCircle
 10
104.8891580102
 20
-581.2439177062
 30
0.0
 40
0.4500000000003191
100
AcDbArc
 50
84.4698842763
 51
161.1281260491
  0
ARC
  5
2D1
330
1F
100
AcDbEntity
  8
0
  6
Continuous
 62
     7
370
    25
100
AcDbCircle
 10
106.2449910923
 20
-580.0599765533
 30
0.0
 40
0.45000000000027
100
AcDbArc
 50
101.128126049
 51
177.7863678219
  0
ARC
  5
2D2
330
1F
100
AcDbEntity
  8
0
  6
Continuous
 62
     7
370
    25
100
AcDbCircle
 10
106.5923976663
 20
-581.8261330222
 30
0.0
 40
2.250000000000279
100
AcDbArc
 50
161.1281260491
 51
221.1281260491
  0
ARC
  5
2D3
330
1F
100
AcDbEntity
  8
0
  6
Continuous
 62
     7
370
    25
100
AcDbCircle
 10
106.5923976663
 20
-581.8261330222
 30
0.0
 40
2.250000000000242
100
AcDbArc
 50
221.1281260491
 51
281.1281260491
  0
CIRCLE
  5
2D4
330
1F
100
AcDbEntity
  8
0
  6
Continuous
 62
     7
370
    25
100
AcDbCircle
 10
106.5923976663
 20
-581.8261330222
 30
0.0
 40
3.849999999999985
  0
ARC
  5
2D5
330
1F
100
AcDbEntity
  8
0
  6
Continuous
 62
     7
370
    25
100
AcDbCircle
 10
104.8891580102
 20
-581.2439177062
 30
0.0
 40
0.4500000000003191
100
AcDbArc
 50
161.1281260491
 51
237.7863678218
  0
ARC
  5
2D6
330
1F
100
AcDbEntity
  8
0
  6
Continuous
 62
     7
370
    25
100
AcDbCircle
 10
104.2294744893
 20
-582.2909248228
 30
0.0
 40
0.7875000000000476
100
AcDbArc
 50
324.4698842763
 51
57.7863678218
  0
ARC
  5
2D7
330
1F
100
AcDbEntity
  8
0
  6
Continuous
 62
     7
370
    25
100
AcDbCircle
 10
105.2365645842
 20
-583.0100741751
 30
0.0
 40
0.449999999999934
100
AcDbArc
 50
144.4698842763
 51
221.1281260491
  0
ARC
  5
2D8
330
1F
100
AcDbEntity
  8
0
  6
Continuous
 62
     7
370
    25
100
AcDbCircle
 10
105.2365645842
 20
-583.0100741751
 30
0.0
 40
0.4499999999999866
100
AcDbArc
 50
221.1281260491
 51
297.7863678218
  0
ARC
  5
2D9
330
1F
100
AcDbEntity
  8
0
  6
Continuous
 62
     7
370
    25
100
AcDbCircle
 10
105.8134575846
 20
-584.1048804209
 30
0.0
 40
0.7875000000000779
100
AcDbArc
 50
24.4698842763
 51
117.7863678218
  0
ARC
  5
2DA
330
1F
100
AcDbEntity
  8
0
  6
Continuous
 62
     7
370
    25
100
AcDbCircle
 10
106.9398042402
 20
-583.592289491
 30
0.0
 40
0.4500000000002672
100
AcDbArc
 50
204.4698842763
 51
281.128126049
  0
ARC
  5
2DB
330
1F
100
AcDbEntity
  8
0
  6
Continuous
 62
     7
370
    25
100
AcDbCircle
 10
491.5923976663
 20
-581.8261330222
 30
0.0
 40
2.250000000000242
100
AcDbArc
 50
281.1281260491
 51
341.1281260491
  0
ARC
  5
2DC
330
1F
100
AcDbEntity
  8
0
  6
Continuous
 62
     7
370
    25
100
AcDbCircle
 10
491.9398042402
 20
-583.592289491
 30
0.0
 40
0.4500000000002727
100
AcDbArc
 50
281.128126049
 51
357.7863678219
  0
ARC
  5
2DD
330
1F
100
AcDbEntity
  8
0
  6
Continuous
 62
     7
370
    25
100
AcDbCircle
 10
493.1763807616
 20
-583.6400886203
 30
0.0
 40
0.7874999999997083
100
AcDbArc
 50
84.4698842763
 51
177.7863678218
  0
ARC
  5
2DE
330
1F
100
AcDbEntity
  8
0
  6
Continuous
 62
     7
370
    25
100
AcDbCircle
 10
493.2956373223
 20
-582.4083483381
 30
0.0
 40
0.450000000000242
100
AcDbArc
 50
264.4698842763
 51
341.1281260491
  0
ARC
  5
2DF
330
1F
100
AcDbEntity
  8
0
  6
Continuous
 62
     7
370
    25
100
AcDbCircle
 10
491.5923976663
 20
-581.8261330222
 30
0.0
 40
2.250000000000242
100
AcDbArc
 50
101.1281260491
 51
161.1281260491
  0
ARC
  5
2E0
330
1F
100
AcDbEntity
  8
0
  6
Continuous
 62
     7
370
    25
100
AcDbCircle
 10
490.008414571
 20
-580.0121774241
 30
0.0
 40
0.787499999999858
100
AcDbArc
 50
264.4698842763
 51
357.7863678218
  0
ARC
  5
2E1
330
1F
100
AcDbEntity
  8
0
  6
Continuous
 62
     7
370
    25
100
AcDbCircle
 10
489.8891580102
 20
-581.2439177062
 30
0.0
 40
0.450000000000242
100
AcDbArc
 50
84.4698842763
 51
161.1281260491
  0
ARC
  5
2E2
330
1F
100
AcDbEntity
  8
0
  6
Continuous
 62
     7
370
    25
100
AcDbCircle
 10
491.2449910923
 20
-580.0599765533
 30
0.0
 40
0.4500000000002617
100
AcDbArc
 50
101.128126049
 51
177.7863678219
  0
ARC
  5
2E3
330
1F
100
AcDbEntity
  8
0
  6
Continuous
 62
     7
370
    25
100
AcDbCircle
 10
491.5923976663
 20
-581.8261330222
 30
0.0
 40
2.250000000000242
100
AcDbArc
 50
41.1281260491
 51
101.1281260491
  0
ARC
  5
2E4
330
1F
100
AcDbEntity
  8
0
  6
Continuous
 62
     7
370
    25
100
AcDbCircle
 10
492.3713377479
 20
-579.5473856234
 30
0.0
 40
0.7875000000000818
100
AcDbArc
 50
204.4698842763
 51
297.7863678218
  0
ARC
  5
2E5
330
1F
100
AcDbEntity
  8
0
  6
Continuous
 62
     7
370
    25
100
AcDbCircle
 10
492.9482307484
 20
-580.6421918693
 30
0.0
 40
0.4499999999999734
100
AcDbArc
 50
41.1281260491
 51
117.7863678218
  0
ARC
  5
2E6
330
1F
100
AcDbEntity
  8
0
  6
Continuous
 62
     7
370
    25
100
AcDbCircle
 10
491.2449910923
 20
-580.0599765533
 30
0.0
 40
0.4500000000002617
100
AcDbArc
 50
24.4698842763
 51
101.128126049
  0
ARC
  5
2E7
330
1F
100
AcDbEntity
  8
0
  6
Continuous
 62
     7
370
    25
100
AcDbCircle
 10
491.5923976663
 20
-581.8261330222
 30
0.0
 40
2.250000000000202
100
AcDbArc
 50
341.1281260491
 51
41.1281260491
  0
ARC
  5
2E8
330
1F
100
AcDbEntity
  8
0
  6
Continuous
 62
     7
370
    25
100
AcDbCircle
 10
493.2956373223
 20
-582.4083483381
 30
0.0
 40
0.450000000000242
100
AcDbArc
 50
341.1281260491
 51
57.7863678218
  0
ARC
  5
2E9
330
1F
100
AcDbEntity
  8
0
  6
Continuous
 62
     7
370
    25
100
AcDbCircle
 10
493.9553208432
 20
-581.3613412215
 30
0.0
 40
0.7875000000000394
100
AcDbArc
 50
144.4698842763
 51
237.7863678218
  0
ARC
  5
2EA
330
1F
100
AcDbEntity
  8
0
  6
Continuous
 62
     7
370
    25
100
AcDbCircle
 10
492.9482307484
 20
-580.6421918693
 30
0.0
 40
0.4499999999999885
100
AcDbArc
 50
324.4698842763
 51
41.1281260491
  0
ARC
  5
2EB
330
1F
100
AcDbEntity
  8
0
  6
Continuous
 62
     7
370
    25
100
AcDbCircle
 10
491.5923976663
 20
-581.8261330222
 30
0.0
 40
2.250000000000202
100
AcDbArc
 50
161.1281260491
 51
221.1281260491
  0
ARC
  5
2EC
330
1F
100
AcDbEntity
  8
0
  6
Continuous
 62
     7
370
    25
100
AcDbCircle
 10
491.5923976663
 20
-581.8261330222
 30
0.0
 40
2.250000000000242
100
AcDbArc
 50
221.1281260491
 51
281.1281260491
  0
CIRCLE
  5
2ED
330
1F
100
AcDbEntity
  8
0
  6
Continuous
 62
     7
370
    25
100
AcDbCircle
 10
491.5923976663
 20
-581.8261330222
 30
0.0
 40
3.849999999999985
  0
ARC
  5
2EE
330
1F
100
AcDbEntity
  8
0
  6
Continuous
 62
     7
370
    25
100
AcDbCircle
 10
490.2365645842
 20
-583.0100741751
 30
0.0
 40
0.4499999999999734
100
AcDbArc
 50
221.1281260491
 51
297.7863678218
  0
ARC
  5
2EF
330
1F
100
AcDbEntity
  8
0
  6
Continuous
 62
     7
370
    25
100
AcDbCircle
 10
490.8134575846
 20
-584.1048804209
 30
0.0
 40
0.7875000000000911
100
AcDbArc
 50
24.4698842763
 51
117.7863678218
  0
ARC
  5
2F0
330
1F
100
AcDbEntity
  8
0
  6
Continuous
 62
     7
370
    25
100
AcDbCircle
 10
491.9398042402
 20
-583.592289491
 30
0.0
 40
0.4500000000002727
100
AcDbArc
 50
204.4698842763
 51
281.128126049
  0
ARC
  5
2F1
330
1F
100
AcDbEntity
  8
0
  6
Continuous
 62
     7
370
    25
100
AcDbCircle
 10
489.8891580102
 20
-581.2439177062
 30
0.0
 40
0.450000000000242
100
AcDbArc
 50
161.1281260491
 51
237.7863678218
  0
ARC
  5
2F2
330
1F
100
AcDbEntity
  8
0
  6
Continuous
 62
     7
370
    25
100
AcDbCircle
 10
489.2294744893
 20
-582.2909248228
 30
0.0
 40
0.7875000000000592
100
AcDbArc
 50
324.4698842763
 51
57.7863678218
  0
ARC
  5
2F3
330
1F
100
AcDbEntity
  8
0
  6
Continuous
 62
     7
370
    25
100
AcDbCircle
 10
490.2365645842
 20
-583.0100741751
 30
0.0
 40
0.4499999999999224
100
AcDbArc
 50
144.4698842763
 51
221.1281260491
  0
ARC
  5
2F4
330
1F
100
AcDbEntity
  8
0
  6
Continuous
 62
     7
370
    25
100
AcDbCircle
 10
671.5923976663
 20
-581.8261330222
 30
0.0
 40
2.250000000000231
100
AcDbArc
 50
41.1281260491
 51
101.1281260491
  0
ARC
  5
2F5
330
1F
100
AcDbEntity
  8
0
  6
Continuous
 62
     7
370
    25
100
AcDbCircle
 10
672.9482307484
 20
-580.6421918693
 30
0.0
 40
0.4499999999999998
100
AcDbArc
 50
41.1281260491
 51
117.7863678218
  0
ARC
  5
2F6
330
1F
100
AcDbEntity
  8
0
  6
Continuous
 62
     7
370
    25
100
AcDbCircle
 10
672.3713377479
 20
-579.5473856234
 30
0.0
 40
0.7875000000001335
100
AcDbArc
 50
204.4698842763
 51
297.7863678219
  0
ARC
  5
2F7
330
1F
100
AcDbEntity
  8
0
  6
Continuous
 62
     7
370
    25
100
AcDbCircle
 10
671.2449910923
 20
-580.0599765533
 30
0.0
 40
0.4500000000002617
100
AcDbArc
 50
24.4698842763
 51
101.128126049
  0
ARC
  5
2F8
330
1F
100
AcDbEntity
  8
0
  6
Continuous
 62
     7
370
    25
100
AcDbCircle
 10
671.5923976663
 20
-581.8261330222
 30
0.0
 40
2.250000000000255
100
AcDbArc
 50
281.1281260491
 51
341.1281260491
  0
ARC
  5
2F9
330
1F
100
AcDbEntity
  8
0
  6
Continuous
 62
     7
370
    25
100
AcDbCircle
 10
671.9398042402
 20
-583.592289491
 30
0.0
 40
0.4500000000002617
100
AcDbArc
 50
281.128126049
 51
357.7863678219
  0
ARC
  5
2FA
330
1F
100
AcDbEntity
  8
0
  6
Continuous
 62
     7
370
    25
100
AcDbCircle
 10
673.1763807616
 20
-583.6400886203
 30
0.0
 40
0.7874999999997083
100
AcDbArc
 50
84.4698842763
 51
177.7863678218
  0
ARC
  5
2FB
330
1F
100
AcDbEntity
  8
0
  6
Continuous
 62
     7
370
    25
100
AcDbCircle
 10
673.2956373223
 20
-582.4083483381
 30
0.0
 40
0.450000000000242
100
AcDbArc
 50
264.4698842763
 51
341.1281260491
  0
ARC
  5
2FC
330
1F
100
AcDbEntity
  8
0
  6
Continuous
 62
     7
370
    25
100
AcDbCircle
 10
671.5923976663
 20
-581.8261330222
 30
0.0
 40
2.250000000000231
100
AcDbArc
 50
101.1281260491
 51
161.1281260491
  0
ARC
  5
2FD
330
1F
100
AcDbEntity
  8
0
  6
Continuous
 62
     7
370
    25
100
AcDbCircle
 10
670.008414571
 20
-580.0121774241
 30
0.0
 40
0.787499999999858
100
AcDbArc
 50
264.4698842763
 51
357.7863678218
  0
ARC
  5
2FE
330
1F
100
AcDbEntity
  8
0
  6
Continuous
 62
     7
370
    25
100
AcDbCircle
 10
669.8891580102
 20
-581.2439177062
 30
0.0
 40
0.4500000000001827
100
AcDbArc
 50
84.4698842763
 51
161.1281260491
  0
ARC
  5
2FF
330
1F
100
AcDbEntity
  8
0
  6
Continuous
 62
     7
370
    25
100
AcDbCircle
 10
671.2449910923
 20
-580.0599765533
 30
0.0
 40
0.4500000000002617
100
AcDbArc
 50
101.128126049
 51
177.7863678219
  0
ARC
  5
300
330
1F
100
AcDbEntity
  8
0
  6
Continuous
 62
     7
370
    25
100
AcDbCircle
 10
671.5923976663
 20
-581.8261330222
 30
0.0
 40
2.250000000000255
100
AcDbArc
 50
341.1281260491
 51
41.1281260491
  0
ARC
  5
301
330
1F
100
AcDbEntity
  8
0
  6
Continuous
 62
     7
370
    25
100
AcDbCircle
 10
673.9553208432
 20
-581.3613412215
 30
0.0
 40
0.7874999999999931
100
AcDbArc
 50
144.4698842763
 51
237.7863678218
  0
ARC
  5
302
330
1F
100
AcDbEntity
  8
0
  6
Continuous
 62
     7
370
    25
100
AcDbCircle
 10
673.2956373223
 20
-582.4083483381
 30
0.0
 40
0.450000000000242
100
AcDbArc
 50
341.1281260491
 51
57.7863678219
  0
ARC
  5
303
330
1F
100
AcDbEntity
  8
0
  6
Continuous
 62
     7
370
    25
100
AcDbCircle
 10
672.9482307484
 20
-580.6421918693
 30
0.0
 40
0.4499999999999885
100
AcDbArc
 50
324.4698842763
 51
41.1281260491
  0
ARC
  5
304
330
1F
100
AcDbEntity
  8
0
  6
Continuous
 62
     7
370
    25
100
AcDbCircle
 10
671.5923976663
 20
-581.8261330222
 30
0.0
 40
2.250000000000185
100
AcDbArc
 50
161.1281260491
 51
221.1281260491
  0
ARC
  5
305
330
1F
100
AcDbEntity
  8
0
  6
Continuous
 62
     7
370
    25
100
AcDbCircle
 10
671.5923976663
 20
-581.8261330222
 30
0.0
 40
2.250000000000231
100
AcDbArc
 50
221.1281260491
 51
281.1281260491
  0
CIRCLE
  5
306
330
1F
100
AcDbEntity
  8
0
  6
Continuous
 62
     7
370
    25
100
AcDbCircle
 10
671.5923976663
 20
-581.8261330222
 30
0.0
 40
3.849999999999985
  0
ARC
  5
307
330
1F
100
AcDbEntity
  8
0
  6
Continuous
 62
     7
370
    25
100
AcDbCircle
 10
669.8891580102
 20
-581.2439177062
 30
0.0
 40
0.4500000000001712
100
AcDbArc
 50
161.1281260491
 51
237.7863678218
  0
ARC
  5
308
330
1F
100
AcDbEntity
  8
0
  6
Continuous
 62
     7
370
    25
100
AcDbCircle
 10
669.2294744893
 20
-582.2909248228
 30
0.0
 40
0.7874999999999667
100
AcDbArc
 50
324.4698842763
 51
57.7863678219
  0
ARC
  5
309
330
1F
100
AcDbEntity
  8
0
  6
Continuous
 62
     7
370
    25
100
AcDbCircle
 10
670.2365645842
 20
-583.0100741751
 30
0.0
 40
0.4499999999999224
100
AcDbArc
 50
144.4698842763
 51
221.1281260491
  0
ARC
  5
30A
330
1F
100
AcDbEntity
  8
0
  6
Continuous
 62
     7
370
    25
100
AcDbCircle
 10
670.8134575846
 20
-584.1048804209
 30
0.0
 40
0.7875000000001335
100
AcDbArc
 50
24.4698842763
 51
117.7863678218
  0
ARC
  5
30B
330
1F
100
AcDbEntity
  8
0
  6
Continuous
 62
     7
370
    25
100
AcDbCircle
 10
670.2365645842
 20
-583.0100741751
 30
0.0
 40
0.4499999999999998
100
AcDbArc
 50
221.1281260491
 51
297.7863678218
  0
ARC
  5
30C
330
1F
100
AcDbEntity
  8
0
  6
Continuous
 62
     7
370
    25
100
AcDbCircle
 10
671.9398042402
 20
-583.592289491
 30
0.0
 40
0.4500000000002617
100
AcDbArc
 50
204.4698842763
 51
281.128126049
  0
ARC
  5
30D
330
1F
100
AcDbEntity
  8
0
  6
Continuous
 62
     7
370
    25
100
AcDbCircle
 10
331.5923976663
 20
-581.8261330222
 30
0.0
 40
2.250000000000309
100
AcDbArc
 50
281.1281260491
 51
341.1281260491
  0
ARC
  5
30E
330
1F
100
AcDbEntity
  8
0
  6
Continuous
 62
     7
370
    25
100
AcDbCircle
 10
331.9398042402
 20
-583.592289491
 30
0.0
 40
0.4500000000002617
100
AcDbArc
 50
281.128126049
 51
357.7863678219
  0
ARC
  5
30F
330
1F
100
AcDbEntity
  8
0
  6
Continuous
 62
     7
370
    25
100
AcDbCircle
 10
333.1763807616
 20
-583.6400886203
 30
0.0
 40
0.787499999999765
100
AcDbArc
 50
84.4698842763
 51
177.7863678218
  0
ARC
  5
310
330
1F
100
AcDbEntity
  8
0
  6
Continuous
 62
     7
370
    25
100
AcDbCircle
 10
333.2956373223
 20
-582.4083483381
 30
0.0
 40
0.4500000000002958
100
AcDbArc
 50
264.4698842763
 51
341.1281260491
  0
ARC
  5
311
330
1F
100
AcDbEntity
  8
0
  6
Continuous
 62
     7
370
    25
100
AcDbCircle
 10
331.5923976663
 20
-581.8261330222
 30
0.0
 40
2.250000000000255
100
AcDbArc
 50
101.1281260491
 51
161.1281260491
  0
ARC
  5
312
330
1F
100
AcDbEntity
  8
0
  6
Continuous
 62
     7
370
    25
100
AcDbCircle
 10
331.2449910923
 20
-580.0599765533
 30
0.0
 40
0.4500000000002617
100
AcDbArc
 50
101.128126049
 51
177.7863678219
  0
ARC
  5
313
330
1F
100
AcDbEntity
  8
0
  6
Continuous
 62
     7
370
    25
100
AcDbCircle
 10
329.8891580102
 20
-581.2439177062
 30
0.0
 40
0.4500000000002958
100
AcDbArc
 50
84.4698842763
 51
161.1281260491
  0
ARC
  5
314
330
1F
100
AcDbEntity
  8
0
  6
Continuous
 62
     7
370
    25
100
AcDbCircle
 10
330.008414571
 20
-580.0121774241
 30
0.0
 40
0.7874999999998524
100
AcDbArc
 50
264.4698842763
 51
357.7863678218
  0
ARC
  5
315
330
1F
100
AcDbEntity
  8
0
  6
Continuous
 62
     7
370
    25
100
AcDbCircle
 10
331.5923976663
 20
-581.8261330222
 30
0.0
 40
2.250000000000231
100
AcDbArc
 50
41.1281260491
 51
101.1281260491
  0
ARC
  5
316
330
1F
100
AcDbEntity
  8
0
  6
Continuous
 62
     7
370
    25
100
AcDbCircle
 10
332.9482307484
 20
-580.6421918693
 30
0.0
 40
0.4499999999999734
100
AcDbArc
 50
41.1281260491
 51
117.7863678218
  0
ARC
  5
317
330
1F
100
AcDbEntity
  8
0
  6
Continuous
 62
     7
370
    25
100
AcDbCircle
 10
332.3713377479
 20
-579.5473856234
 30
0.0
 40
0.7875000000000818
100
AcDbArc
 50
204.4698842763
 51
297.7863678219
  0
ARC
  5
318
330
1F
100
AcDbEntity
  8
0
  6
Continuous
 62
     7
370
    25
100
AcDbCircle
 10
331.2449910923
 20
-580.0599765533
 30
0.0
 40
0.4500000000002617
100
AcDbArc
 50
24.4698842763
 51
101.128126049
  0
ARC
  5
319
330
1F
100
AcDbEntity
  8
0
  6
Continuous
 62
     7
370
    25
100
AcDbCircle
 10
331.5923976663
 20
-581.8261330222
 30
0.0
 40
2.250000000000309
100
AcDbArc
 50
341.1281260491
 51
41.1281260491
  0
ARC
  5
31A
330
1F
100
AcDbEntity
  8
0
  6
Continuous
 62
     7
370
    25
100
AcDbCircle
 10
333.2956373223
 20
-582.4083483381
 30
0.0
 40
0.4500000000002958
100
AcDbArc
 50
341.1281260491
 51
57.7863678219
  0
ARC
  5
31B
330
1F
100
AcDbEntity
  8
0
  6
Continuous
 62
     7
370
    25
100
AcDbCircle
 10
333.9553208432
 20
-581.3613412215
 30
0.0
 40
0.7874999999999468
100
AcDbArc
 50
144.4698842763
 51
237.7863678218
  0
ARC
  5
31C
330
1F
100
AcDbEntity
  8
0
  6
Continuous
 62
     7
370
    25
100
AcDbCircle
 10
332.9482307484
 20
-580.6421918693
 30
0.0
 40
0.4500000000000348
100
AcDbArc
 50
324.4698842763
 51
41.1281260491
  0
ARC
  5
31D
330
1F
100
AcDbEntity
  8
0
  6
Continuous
 62
     7
370
    25
100
AcDbCircle
 10
331.5923976663
 20
-581.8261330222
 30
0.0
 40
2.250000000000255
100
AcDbArc
 50
161.1281260491
 51
221.1281260491
  0
ARC
  5
31E
330
1F
100
AcDbEntity
  8
0
  6
Continuous
 62
     7
370
    25
100
AcDbCircle
 10
331.5923976663
 20
-581.8261330222
 30
0.0
 40
2.250000000000242
100
AcDbArc
 50
221.1281260491
 51
281.1281260491
  0
CIRCLE
  5
31F
330
1F
100
AcDbEntity
  8
0
  6
Continuous
 62
     7
370
    25
100
AcDbCircle
 10
331.5923976663
 20
-581.8261330222
 30
0.0
 40
3.849999999999985
  0
ARC
  5
320
330
1F
100
AcDbEntity
  8
0
  6
Continuous
 62
     7
370
    25
100
AcDbCircle
 10
330.2365645842
 20
-583.0100741751
 30
0.0
 40
0.4499999999999734
100
AcDbArc
 50
221.1281260491
 51
297.7863678218
  0
ARC
  5
321
330
1F
100
AcDbEntity
  8
0
  6
Continuous
 62
     7
370
    25
100
AcDbCircle
 10
330.8134575846
 20
-584.1048804209
 30
0.0
 40
0.7875000000001335
100
AcDbArc
 50
24.4698842763
 51
117.7863678218
  0
ARC
  5
322
330
1F
100
AcDbEntity
  8
0
  6
Continuous
 62
     7
370
    25
100
AcDbCircle
 10
331.9398042402
 20
-583.592289491
 30
0.0
 40
0.4500000000002617
100
AcDbArc
 50
204.4698842763
 51
281.128126049
  0
ARC
  5
323
330
1F
100
AcDbEntity
  8
0
  6
Continuous
 62
     7
370
    25
100
AcDbCircle
 10
329.8891580102
 20
-581.2439177062
 30
0.0
 40
0.4500000000002958
100
AcDbArc
 50
161.1281260491
 51
237.7863678218
  0
ARC
  5
324
330
1F
100
AcDbEntity
  8
0
  6
Continuous
 62
     7
370
    25
100
AcDbCircle
 10
329.2294744893
 20
-582.2909248228
 30
0.0
 40
0.787500000000013
100
AcDbArc
 50
324.4698842763
 51
57.7863678218
  0
ARC
  5
325
330
1F
100
AcDbEntity
  8
0
  6
Continuous
 62
     7
370
    25
100
AcDbCircle
 10
330.2365645842
 20
-583.0100741751
 30
0.0
 40
0.4499999999999687
100
AcDbArc
 50
144.4698842763
 51
221.1281260491
  0
ARC
  5
326
330
1F
100
AcDbEntity
  8
0
  6
Continuous
 62
     7
370
    25
100
AcDbCircle
 10
-233.4076023337
 20
-581.8261330222
 30
0.0
 40
2.250000000000237
100
AcDbArc
 50
281.1281260491
 51
341.1281260491
  0
ARC
  5
327
330
1F
100
AcDbEntity
  8
0
  6
Continuous
 62
     7
370
    25
100
AcDbCircle
 10
-233.0601957598
 20
-583.592289491
 30
0.0
 40
0.4500000000002672
100
AcDbArc
 50
281.128126049
 51
357.7863678219
  0
ARC
  5
328
330
1F
100
AcDbEntity
  8
0
  6
Continuous
 62
     7
370
    25
100
AcDbCircle
 10
-231.8236192384
 20
-583.6400886203
 30
0.0
 40
0.7874999999997367
100
AcDbArc
 50
84.4698842763
 51
177.7863678218
  0
ARC
  5
329
330
1F
100
AcDbEntity
  8
0
  6
Continuous
 62
     7
370
    25
100
AcDbCircle
 10
-231.7043626777
 20
-582.4083483381
 30
0.0
 40
0.450000000000242
100
AcDbArc
 50
264.4698842763
 51
341.1281260491
  0
ARC
  5
32A
330
1F
100
AcDbEntity
  8
0
  6
Continuous
 62
     7
370
    25
100
AcDbCircle
 10
-233.4076023337
 20
-581.8261330222
 30
0.0
 40
2.250000000000237
100
AcDbArc
 50
41.1281260491
 51
101.1281260491
  0
ARC
  5
32B
330
1F
100
AcDbEntity
  8
0
  6
Continuous
 62
     7
370
    25
100
AcDbCircle
 10
-233.4076023337
 20
-581.8261330222
 30
0.0
 40
2.250000000000265
100
AcDbArc
 50
101.1281260491
 51
161.1281260491
  0
ARC
  5
32C
330
1F
100
AcDbEntity
  8
0
  6
Continuous
 62
     7
370
    25
100
AcDbCircle
 10
-233.4076023337
 20
-581.8261330222
 30
0.0
 40
2.250000000000265
100
AcDbArc
 50
161.1281260491
 51
221.1281260491
  0
ARC
  5
32D
330
1F
100
AcDbEntity
  8
0
  6
Continuous
 62
     7
370
    25
100
AcDbCircle
 10
-233.4076023337
 20
-581.8261330222
 30
0.0
 40
2.250000000000237
100
AcDbArc
 50
221.1281260491
 51
281.1281260491
  0
ARC
  5
32E
330
1F
100
AcDbEntity
  8
0
  6
Continuous
 62
     7
370
    25
100
AcDbCircle
 10
-233.4076023337
 20
-581.8261330222
 30
0.0
 40
2.250000000000229
100
AcDbArc
 50
341.1281260491
 51
41.1281260491
  0
CIRCLE
  5
32F
330
1F
100
AcDbEntity
  8
0
  6
Continuous
 62
     7
370
    25
100
AcDbCircle
 10
-233.4076023337
 20
-581.8261330222
 30
0.0
 40
3.849999999999964
  0
ARC
  5
330
330
1F
100
AcDbEntity
  8
0
  6
Continuous
 62
     7
370
    25
100
AcDbCircle
 10
-233.7550089077
 20
-580.0599765533
 30
0.0
 40
0.4500000000002563
100
AcDbArc
 50
101.128126049
 51
177.7863678219
  0
ARC
  5
331
330
1F
100
AcDbEntity
  8
0
  6
Continuous
 62
     7
370
    25
100
AcDbCircle
 10
-235.1108419898
 20
-581.2439177062
 30
0.0
 40
0.4500000000002787
100
AcDbArc
 50
84.4698842763
 51
161.1281260491
  0
ARC
  5
332
330
1F
100
AcDbEntity
  8
0
  6
Continuous
 62
     7
370
    25
100
AcDbCircle
 10
-234.991585429
 20
-580.0121774241
 30
0.0
 40
0.7874999999998552
100
AcDbArc
 50
264.4698842763
 51
357.7863678218
  0
ARC
  5
333
330
1F
100
AcDbEntity
  8
0
  6
Continuous
 62
     7
370
    25
100
AcDbCircle
 10
-232.0517692516
 20
-580.6421918693
 30
0.0
 40
0.4499999999999998
100
AcDbArc
 50
41.1281260491
 51
117.7863678218
  0
ARC
  5
334
330
1F
100
AcDbEntity
  8
0
  6
Continuous
 62
     7
370
    25
100
AcDbCircle
 10
-233.7550089077
 20
-580.0599765533
 30
0.0
 40
0.4500000000002563
100
AcDbArc
 50
24.4698842763
 51
101.128126049
  0
ARC
  5
335
330
1F
100
AcDbEntity
  8
0
  6
Continuous
 62
     7
370
    25
100
AcDbCircle
 10
-232.6286622521
 20
-579.5473856234
 30
0.0
 40
0.7875000000001077
100
AcDbArc
 50
204.4698842763
 51
297.7863678218
  0
ARC
  5
336
330
1F
100
AcDbEntity
  8
0
  6
Continuous
 62
     7
370
    25
100
AcDbCircle
 10
-231.0446791568
 20
-581.3613412215
 30
0.0
 40
0.7874999999999931
100
AcDbArc
 50
144.4698842763
 51
237.7863678218
  0
ARC
  5
337
330
1F
100
AcDbEntity
  8
0
  6
Continuous
 62
     7
370
    25
100
AcDbCircle
 10
-231.7043626777
 20
-582.4083483381
 30
0.0
 40
0.450000000000242
100
AcDbArc
 50
341.1281260491
 51
57.7863678218
  0
ARC
  5
338
330
1F
100
AcDbEntity
  8
0
  6
Continuous
 62
     7
370
    25
100
AcDbCircle
 10
-232.0517692516
 20
-580.6421918693
 30
0.0
 40
0.4499999999999885
100
AcDbArc
 50
324.4698842763
 51
41.1281260491
  0
ARC
  5
339
330
1F
100
AcDbEntity
  8
0
  6
Continuous
 62
     7
370
    25
100
AcDbCircle
 10
-234.7634354158
 20
-583.0100741751
 30
0.0
 40
0.4499999999999734
100
AcDbArc
 50
221.1281260491
 51
297.7863678218
  0
ARC
  5
33A
330
1F
100
AcDbEntity
  8
0
  6
Continuous
 62
     7
370
    25
100
AcDbCircle
 10
-234.1865424154
 20
-584.1048804209
 30
0.0
 40
0.7875000000000818
100
AcDbArc
 50
24.4698842763
 51
117.7863678218
  0
ARC
  5
33B
330
1F
100
AcDbEntity
  8
0
  6
Continuous
 62
     7
370
    25
100
AcDbCircle
 10
-233.0601957598
 20
-583.592289491
 30
0.0
 40
0.4500000000002672
100
AcDbArc
 50
204.4698842763
 51
281.128126049
  0
ARC
  5
33C
330
1F
100
AcDbEntity
  8
0
  6
Continuous
 62
     7
370
    25
100
AcDbCircle
 10
-234.7634354158
 20
-583.0100741751
 30
0.0
 40
0.4499999999999687
100
AcDbArc
 50
144.4698842763
 51
221.1281260491
  0
ARC
  5
33D
330
1F
100
AcDbEntity
  8
0
  6
Continuous
 62
     7
370
    25
100
AcDbCircle
 10
-235.1108419898
 20
-581.2439177062
 30
0.0
 40
0.4500000000002787
100
AcDbArc
 50
161.1281260491
 51
237.7863678218
  0
ARC
  5
33E
330
1F
100
AcDbEntity
  8
0
  6
Continuous
 62
     7
370
    25
100
AcDbCircle
 10
-235.7705255107
 20
-582.2909248228
 30
0.0
 40
0.787500000000013
100
AcDbArc
 50
324.4698842763
 51
57.7863678218
  0
ARC
  5
33F
330
1F
100
AcDbEntity
  8
0
  6
Continuous
 62
     7
370
    25
100
AcDbCircle
 10
-53.4076023337
 20
-581.8261330222
 30
0.0
 40
2.250000000000237
100
AcDbArc
 50
41.1281260491
 51
101.1281260491
  0
ARC
  5
340
330
1F
100
AcDbEntity
  8
0
  6
Continuous
 62
     7
370
    25
100
AcDbCircle
 10
-53.4076023337
 20
-581.8261330222
 30
0.0
 40
2.250000000000258
100
AcDbArc
 50
101.1281260491
 51
161.1281260491
  0
ARC
  5
341
330
1F
100
AcDbEntity
  8
0
  6
Continuous
 62
     7
370
    25
100
AcDbCircle
 10
-53.4076023337
 20
-581.8261330222
 30
0.0
 40
2.250000000000258
100
AcDbArc
 50
161.1281260491
 51
221.1281260491
  0
ARC
  5
342
330
1F
100
AcDbEntity
  8
0
  6
Continuous
 62
     7
370
    25
100
AcDbCircle
 10
-53.4076023337
 20
-581.8261330222
 30
0.0
 40
2.250000000000238
100
AcDbArc
 50
221.1281260491
 51
281.1281260491
  0
ARC
  5
343
330
1F
100
AcDbEntity
  8
0
  6
Continuous
 62
     7
370
    25
100
AcDbCircle
 10
-53.4076023337
 20
-581.8261330222
 30
0.0
 40
2.250000000000238
100
AcDbArc
 50
281.1281260491
 51
341.1281260491
  0
ARC
  5
344
330
1F
100
AcDbEntity
  8
0
  6
Continuous
 62
     7
370
    25
100
AcDbCircle
 10
-53.4076023337
 20
-581.8261330222
 30
0.0
 40
2.250000000000222
100
AcDbArc
 50
341.1281260491
 51
41.1281260491
  0
CIRCLE
  5
345
330
1F
100
AcDbEntity
  8
0
  6
Continuous
 62
     7
370
    25
100
AcDbCircle
 10
-53.4076023337
 20
-581.8261330222
 30
0.0
 40
3.849999999999974
  0
ARC
  5
346
330
1F
100
AcDbEntity
  8
0
  6
Continuous
 62
     7
370
    25
100
AcDbCircle
 10
-53.0601957598
 20
-583.592289491
 30
0.0
 40
0.45000000000027
100
AcDbArc
 50
281.128126049
 51
357.7863678219
  0
ARC
  5
347
330
1F
100
AcDbEntity
  8
0
  6
Continuous
 62
     7
370
    25
100
AcDbCircle
 10
-51.8236192384
 20
-583.6400886203
 30
0.0
 40
0.7874999999997225
100
AcDbArc
 50
84.4698842763
 51
177.7863678218
  0
ARC
  5
348
330
1F
100
AcDbEntity
  8
0
  6
Continuous
 62
     7
370
    25
100
AcDbCircle
 10
-51.7043626777
 20
-582.4083483381
 30
0.0
 40
0.4500000000002353
100
AcDbArc
 50
264.4698842763
 51
341.1281260491
  0
ARC
  5
349
330
1F
100
AcDbEntity
  8
0
  6
Continuous
 62
     7
370
    25
100
AcDbCircle
 10
-51.7043626777
 20
-582.4083483381
 30
0.0
 40
0.4500000000002353
100
AcDbArc
 50
341.1281260491
 51
57.7863678218
  0
ARC
  5
34A
330
1F
100
AcDbEntity
  8
0
  6
Continuous
 62
     7
370
    25
100
AcDbCircle
 10
-51.0446791568
 20
-581.3613412215
 30
0.0
 40
0.7874999999999989
100
AcDbArc
 50
144.4698842763
 51
237.7863678218
  0
ARC
  5
34B
330
1F
100
AcDbEntity
  8
0
  6
Continuous
 62
     7
370
    25
100
AcDbCircle
 10
-52.0517692516
 20
-580.6421918693
 30
0.0
 40
0.4499999999999885
100
AcDbArc
 50
324.4698842763
 51
41.1281260491
  0
ARC
  5
34C
330
1F
100
AcDbEntity
  8
0
  6
Continuous
 62
     7
370
    25
100
AcDbCircle
 10
-52.0517692516
 20
-580.6421918693
 30
0.0
 40
0.4499999999999965
100
AcDbArc
 50
41.1281260491
 51
117.7863678218
  0
ARC
  5
34D
330
1F
100
AcDbEntity
  8
0
  6
Continuous
 62
     7
370
    25
100
AcDbCircle
 10
-52.6286622521
 20
-579.5473856234
 30
0.0
 40
0.7875000000000884
100
AcDbArc
 50
204.4698842763
 51
297.7863678218
  0
ARC
  5
34E
330
1F
100
AcDbEntity
  8
0
  6
Continuous
 62
     7
370
    25
100
AcDbCircle
 10
-53.7550089077
 20
-580.0599765533
 30
0.0
 40
0.4500000000002576
100
AcDbArc
 50
24.4698842763
 51
101.128126049
  0
ARC
  5
34F
330
1F
100
AcDbEntity
  8
0
  6
Continuous
 62
     7
370
    25
100
AcDbCircle
 10
-55.1108419898
 20
-581.2439177062
 30
0.0
 40
0.450000000000272
100
AcDbArc
 50
84.4698842763
 51
161.1281260491
  0
ARC
  5
350
330
1F
100
AcDbEntity
  8
0
  6
Continuous
 62
     7
370
    25
100
AcDbCircle
 10
-54.991585429
 20
-580.0121774241
 30
0.0
 40
0.7874999999998531
100
AcDbArc
 50
264.4698842763
 51
357.7863678218
  0
ARC
  5
351
330
1F
100
AcDbEntity
  8
0
  6
Continuous
 62
     7
370
    25
100
AcDbCircle
 10
-53.7550089077
 20
-580.0599765533
 30
0.0
 40
0.4500000000002576
100
AcDbArc
 50
101.128126049
 51
177.7863678219
  0
ARC
  5
352
330
1F
100
AcDbEntity
  8
0
  6
Continuous
 62
     7
370
    25
100
AcDbCircle
 10
-54.7634354158
 20
-583.0100741751
 30
0.0
 40
0.4499999999999734
100
AcDbArc
 50
221.1281260491
 51
297.7863678218
  0
ARC
  5
353
330
1F
100
AcDbEntity
  8
0
  6
Continuous
 62
     7
370
    25
100
AcDbCircle
 10
-53.0601957598
 20
-583.592289491
 30
0.0
 40
0.45000000000027
100
AcDbArc
 50
204.4698842763
 51
281.128126049
  0
ARC
  5
354
330
1F
100
AcDbEntity
  8
0
  6
Continuous
 62
     7
370
    25
100
AcDbCircle
 10
-54.1865424154
 20
-584.1048804209
 30
0.0
 40
0.7875000000000884
100
AcDbArc
 50
24.4698842763
 51
117.7863678218
  0
ARC
  5
355
330
1F
100
AcDbEntity
  8
0
  6
Continuous
 62
     7
370
    25
100
AcDbCircle
 10
-55.1108419898
 20
-581.2439177062
 30
0.0
 40
0.450000000000272
100
AcDbArc
 50
161.1281260491
 51
237.7863678218
  0
ARC
  5
356
330
1F
100
AcDbEntity
  8
0
  6
Continuous
 62
     7
370
    25
100
AcDbCircle
 10
-54.7634354158
 20
-583.0100741751
 30
0.0
 40
0.4499999999999629
100
AcDbArc
 50
144.4698842763
 51
221.1281260491
  0
ARC
  5
357
330
1F
100
AcDbEntity
  8
0
  6
Continuous
 62
     7
370
    25
100
AcDbCircle
 10
-55.7705255107
 20
-582.2909248228
 30
0.0
 40
0.7875000000000187
100
AcDbArc
 50
324.4698842763
 51
57.7863678218
  0
ARC
  5
358
330
1F
100
AcDbEntity
  8
0
  6
Continuous
 62
     7
370
    25
100
AcDbCircle
 10
951.5923976663
 20
-121.8261330222
 30
0.0
 40
2.25000000000029
100
AcDbArc
 50
101.1281260491
 51
161.1281260491
  0
ARC
  5
359
330
1F
100
AcDbEntity
  8
0
  6
Continuous
 62
     7
370
    25
100
AcDbCircle
 10
951.2449910923
 20
-120.0599765533
 30
0.0
 40
0.4500000000003474
100
AcDbArc
 50
101.128126049
 51
177.7863678219
  0
ARC
  5
35A
330
1F
100
AcDbEntity
  8
0
  6
Continuous
 62
     7
370
    25
100
AcDbCircle
 10
950.008414571
 20
-120.0121774241
 30
0.0
 40
0.787499999999759
100
AcDbArc
 50
264.4698842763
 51
357.7863678218
  0
ARC
  5
35B
330
1F
100
AcDbEntity
  8
0
  6
Continuous
 62
     7
370
    25
100
AcDbCircle
 10
949.8891580102
 20
-121.2439177062
 30
0.0
 40
0.4500000000002512
100
AcDbArc
 50
84.4698842763
 51
161.1281260491
  0
ARC
  5
35C
330
1F
100
AcDbEntity
  8
0
  6
Continuous
 62
     7
370
    25
100
AcDbCircle
 10
951.5923976663
 20
-121.8261330222
 30
0.0
 40
2.250000000000162
100
AcDbArc
 50
341.1281260491
 51
41.1281260491
  0
ARC
  5
35D
330
1F
100
AcDbEntity
  8
0
  6
Continuous
 62
     7
370
    25
100
AcDbCircle
 10
953.2956373223
 20
-122.4083483381
 30
0.0
 40
0.4500000000003542
100
AcDbArc
 50
341.1281260491
 51
57.7863678218
  0
ARC
  5
35E
330
1F
100
AcDbEntity
  8
0
  6
Continuous
 62
     7
370
    25
100
AcDbCircle
 10
953.9553208432
 20
-121.3613412215
 30
0.0
 40
0.7875000000001187
100
AcDbArc
 50
144.4698842763
 51
237.7863678218
  0
ARC
  5
35F
330
1F
100
AcDbEntity
  8
0
  6
Continuous
 62
     7
370
    25
100
AcDbCircle
 10
952.9482307484
 20
-120.6421918693
 30
0.0
 40
0.4499999999999307
100
AcDbArc
 50
324.4698842763
 51
41.1281260491
  0
ARC
  5
360
330
1F
100
AcDbEntity
  8
0
  6
Continuous
 62
     7
370
    25
100
AcDbCircle
 10
951.5923976663
 20
-121.8261330222
 30
0.0
 40
2.250000000000259
100
AcDbArc
 50
281.1281260491
 51
341.1281260491
  0
ARC
  5
361
330
1F
100
AcDbEntity
  8
0
  6
Continuous
 62
     7
370
    25
100
AcDbCircle
 10
951.9398042402
 20
-123.592289491
 30
0.0
 40
0.4500000000003035
100
AcDbArc
 50
281.128126049
 51
357.7863678219
  0
ARC
  5
362
330
1F
100
AcDbEntity
  8
0
  6
Continuous
 62
     7
370
    25
100
AcDbCircle
 10
953.2956373223
 20
-122.4083483381
 30
0.0
 40
0.4500000000003542
100
AcDbArc
 50
264.4698842763
 51
341.1281260491
  0
ARC
  5
363
330
1F
100
AcDbEntity
  8
0
  6
Continuous
 62
     7
370
    25
100
AcDbCircle
 10
953.1763807616
 20
-123.6400886203
 30
0.0
 40
0.787499999999784
100
AcDbArc
 50
84.4698842763
 51
177.7863678218
  0
ARC
  5
364
330
1F
100
AcDbEntity
  8
0
  6
Continuous
 62
     7
370
    25
100
AcDbCircle
 10
951.5923976663
 20
-121.8261330222
 30
0.0
 40
2.25000000000029
100
AcDbArc
 50
41.1281260491
 51
101.1281260491
  0
ARC
  5
365
330
1F
100
AcDbEntity
  8
0
  6
Continuous
 62
     7
370
    25
100
AcDbCircle
 10
951.5923976663
 20
-121.8261330222
 30
0.0
 40
2.250000000000269
100
AcDbArc
 50
161.1281260491
 51
221.1281260491
  0
ARC
  5
366
330
1F
100
AcDbEntity
  8
0
  6
Continuous
 62
     7
370
    25
100
AcDbCircle
 10
951.5923976663
 20
-121.8261330222
 30
0.0
 40
2.250000000000259
100
AcDbArc
 50
221.1281260491
 51
281.1281260491
  0
CIRCLE
  5
367
330
1F
100
AcDbEntity
  8
0
  6
Continuous
 62
     7
370
    25
100
AcDbCircle
 10
951.5923976663
 20
-121.8261330222
 30
0.0
 40
3.849999999999994
  0
ARC
  5
368
330
1F
100
AcDbEntity
  8
0
  6
Continuous
 62
     7
370
    25
100
AcDbCircle
 10
952.9482307484
 20
-120.6421918693
 30
0.0
 40
0.4499999999999971
100
AcDbArc
 50
41.1281260491
 51
117.7863678218
  0
ARC
  5
369
330
1F
100
AcDbEntity
  8
0
  6
Continuous
 62
     7
370
    25
100
AcDbCircle
 10
952.3713377479
 20
-119.5473856234
 30
0.0
 40
0.7875000000000435
100
AcDbArc
 50
204.4698842763
 51
297.7863678219
  0
ARC
  5
36A
330
1F
100
AcDbEntity
  8
0
  6
Continuous
 62
     7
370
    25
100
AcDbCircle
 10
951.2449910923
 20
-120.0599765533
 30
0.0
 40
0.4500000000003474
100
AcDbArc
 50
24.4698842763
 51
101.128126049
  0
ARC
  5
36B
330
1F
100
AcDbEntity
  8
0
  6
Continuous
 62
     7
370
    25
100
AcDbCircle
 10
949.8891580102
 20
-121.2439177062
 30
0.0
 40
0.4500000000002512
100
AcDbArc
 50
161.1281260491
 51
237.7863678218
  0
ARC
  5
36C
330
1F
100
AcDbEntity
  8
0
  6
Continuous
 62
     7
370
    25
100
AcDbCircle
 10
950.2365645842
 20
-123.0100741751
 30
0.0
 40
0.4499999999998464
100
AcDbArc
 50
144.4698842763
 51
221.1281260491
  0
ARC
  5
36D
330
1F
100
AcDbEntity
  8
0
  6
Continuous
 62
     7
370
    25
100
AcDbCircle
 10
949.2294744893
 20
-122.2909248228
 30
0.0
 40
0.7875000000000179
100
AcDbArc
 50
324.4698842763
 51
57.7863678219
  0
ARC
  5
36E
330
1F
100
AcDbEntity
  8
0
  6
Continuous
 62
     7
370
    25
100
AcDbCircle
 10
950.2365645842
 20
-123.0100741751
 30
0.0
 40
0.4500000000000905
100
AcDbArc
 50
221.1281260491
 51
297.7863678218
  0
ARC
  5
36F
330
1F
100
AcDbEntity
  8
0
  6
Continuous
 62
     7
370
    25
100
AcDbCircle
 10
950.8134575846
 20
-124.1048804209
 30
0.0
 40
0.7875000000000418
100
AcDbArc
 50
24.4698842763
 51
117.7863678218
  0
ARC
  5
370
330
1F
100
AcDbEntity
  8
0
  6
Continuous
 62
     7
370
    25
100
AcDbCircle
 10
951.9398042402
 20
-123.592289491
 30
0.0
 40
0.4500000000003035
100
AcDbArc
 50
204.4698842763
 51
281.128126049
  0
ARC
  5
371
330
1F
100
AcDbEntity
  8
0
  6
Continuous
 62
     7
370
    25
100
AcDbCircle
 10
491.5923976663
 20
883.1738669778
 30
0.0
 40
2.250000000000242
100
AcDbArc
 50
41.1281260491
 51
101.1281260491
  0
ARC
  5
372
330
1F
100
AcDbEntity
  8
0
  6
Continuous
 62
     7
370
    25
100
AcDbCircle
 10
492.9482307484
 20
884.3578081307
 30
0.0
 40
0.4499999999999998
100
AcDbArc
 50
41.1281260491
 51
117.7863678218
  0
ARC
  5
373
330
1F
100
AcDbEntity
  8
0
  6
Continuous
 62
     7
370
    25
100
AcDbCircle
 10
492.3713377479
 20
885.4526143766
 30
0.0
 40
0.7875000000000818
100
AcDbArc
 50
204.4698842763
 51
297.7863678218
  0
ARC
  5
374
330
1F
100
AcDbEntity
  8
0
  6
Continuous
 62
     7
370
    25
100
AcDbCircle
 10
491.2449910924
 20
884.9400234467
 30
0.0
 40
0.4500000000002617
100
AcDbArc
 50
24.4698842763
 51
101.128126049
  0
ARC
  5
375
330
1F
100
AcDbEntity
  8
0
  6
Continuous
 62
     7
370
    25
100
AcDbCircle
 10
491.5923976663
 20
883.1738669778
 30
0.0
 40
2.250000000000231
100
AcDbArc
 50
281.1281260491
 51
341.1281260491
  0
ARC
  5
376
330
1F
100
AcDbEntity
  8
0
  6
Continuous
 62
     7
370
    25
100
AcDbCircle
 10
491.9398042402
 20
881.407710509
 30
0.0
 40
0.4500000000002617
100
AcDbArc
 50
281.128126049
 51
357.7863678219
  0
ARC
  5
377
330
1F
100
AcDbEntity
  8
0
  6
Continuous
 62
     7
370
    25
100
AcDbCircle
 10
493.1763807616
 20
881.3599113797
 30
0.0
 40
0.7874999999997392
100
AcDbArc
 50
84.4698842763
 51
177.7863678218
  0
ARC
  5
378
330
1F
100
AcDbEntity
  8
0
  6
Continuous
 62
     7
370
    25
100
AcDbCircle
 10
493.2956373223
 20
882.5916516619
 30
0.0
 40
0.450000000000242
100
AcDbArc
 50
264.4698842763
 51
341.1281260491
  0
ARC
  5
379
330
1F
100
AcDbEntity
  8
0
  6
Continuous
 62
     7
370
    25
100
AcDbCircle
 10
491.5923976663
 20
883.1738669778
 30
0.0
 40
2.250000000000255
100
AcDbArc
 50
101.1281260491
 51
161.1281260491
  0
ARC
  5
37A
330
1F
100
AcDbEntity
  8
0
  6
Continuous
 62
     7
370
    25
100
AcDbCircle
 10
491.5923976663
 20
883.1738669778
 30
0.0
 40
2.250000000000255
100
AcDbArc
 50
161.1281260491
 51
221.1281260491
  0
ARC
  5
37B
330
1F
100
AcDbEntity
  8
0
  6
Continuous
 62
     7
370
    25
100
AcDbCircle
 10
491.5923976663
 20
883.1738669778
 30
0.0
 40
2.250000000000231
100
AcDbArc
 50
221.1281260491
 51
281.1281260491
  0
ARC
  5
37C
330
1F
100
AcDbEntity
  8
0
  6
Continuous
 62
     7
370
    25
100
AcDbCircle
 10
491.5923976663
 20
883.1738669778
 30
0.0
 40
2.250000000000202
100
AcDbArc
 50
341.1281260491
 51
41.1281260491
  0
CIRCLE
  5
37D
330
1F
100
AcDbEntity
  8
0
  6
Continuous
 62
     7
370
    25
100
AcDbCircle
 10
491.5923976663
 20
883.1738669778
 30
0.0
 40
3.849999999999942
  0
ARC
  5
37E
330
1F
100
AcDbEntity
  8
0
  6
Continuous
 62
     7
370
    25
100
AcDbCircle
 10
493.9553208433
 20
883.6386587785
 30
0.0
 40
0.7875000000000592
100
AcDbArc
 50
144.4698842763
 51
237.7863678218
  0
ARC
  5
37F
330
1F
100
AcDbEntity
  8
0
  6
Continuous
 62
     7
370
    25
100
AcDbCircle
 10
492.9482307484
 20
884.3578081307
 30
0.0
 40
0.4499999999999224
100
AcDbArc
 50
324.4698842763
 51
41.1281260491
  0
ARC
  5
380
330
1F
100
AcDbEntity
  8
0
  6
Continuous
 62
     7
370
    25
100
AcDbCircle
 10
493.2956373223
 20
882.5916516619
 30
0.0
 40
0.450000000000242
100
AcDbArc
 50
341.1281260491
 51
57.7863678218
  0
ARC
  5
381
330
1F
100
AcDbEntity
  8
0
  6
Continuous
 62
     7
370
    25
100
AcDbCircle
 10
490.008414571
 20
884.9878225759
 30
0.0
 40
0.7874999999997392
100
AcDbArc
 50
264.4698842763
 51
357.7863678218
  0
ARC
  5
382
330
1F
100
AcDbEntity
  8
0
  6
Continuous
 62
     7
370
    25
100
AcDbCircle
 10
489.8891580103
 20
883.7560822938
 30
0.0
 40
0.450000000000242
100
AcDbArc
 50
84.4698842763
 51
161.1281260491
  0
ARC
  5
383
330
1F
100
AcDbEntity
  8
0
  6
Continuous
 62
     7
370
    25
100
AcDbCircle
 10
491.2449910924
 20
884.9400234467
 30
0.0
 40
0.4500000000002617
100
AcDbArc
 50
101.128126049
 51
177.7863678219
  0
ARC
  5
384
330
1F
100
AcDbEntity
  8
0
  6
Continuous
 62
     7
370
    25
100
AcDbCircle
 10
490.2365645842
 20
881.9899258249
 30
0.0
 40
0.4499999999999734
100
AcDbArc
 50
221.1281260491
 51
297.7863678218
  0
ARC
  5
385
330
1F
100
AcDbEntity
  8
0
  6
Continuous
 62
     7
370
    25
100
AcDbCircle
 10
491.9398042402
 20
881.407710509
 30
0.0
 40
0.4500000000002617
100
AcDbArc
 50
204.4698842763
 51
281.128126049
  0
ARC
  5
386
330
1F
100
AcDbEntity
  8
0
  6
Continuous
 62
     7
370
    25
100
AcDbCircle
 10
490.8134575846
 20
880.8951195791
 30
0.0
 40
0.7875000000000818
100
AcDbArc
 50
24.4698842763
 51
117.7863678218
  0
ARC
  5
387
330
1F
100
AcDbEntity
  8
0
  6
Continuous
 62
     7
370
    25
100
AcDbCircle
 10
489.8891580103
 20
883.7560822938
 30
0.0
 40
0.450000000000242
100
AcDbArc
 50
161.1281260491
 51
237.7863678219
  0
ARC
  5
388
330
1F
100
AcDbEntity
  8
0
  6
Continuous
 62
     7
370
    25
100
AcDbCircle
 10
489.2294744893
 20
882.7090751772
 30
0.0
 40
0.7874999999999468
100
AcDbArc
 50
324.4698842763
 51
57.7863678218
  0
ARC
  5
389
330
1F
100
AcDbEntity
  8
0
  6
Continuous
 62
     7
370
    25
100
AcDbCircle
 10
490.2365645842
 20
881.9899258249
 30
0.0
 40
0.4500000000000348
100
AcDbArc
 50
144.4698842763
 51
221.1281260491
  0
ARC
  5
38A
330
1F
100
AcDbEntity
  8
0
  6
Continuous
 62
     7
370
    25
100
AcDbCircle
 10
-513.4076023337
 20
-121.8261330222
 30
0.0
 40
2.250000000000246
100
AcDbArc
 50
281.1281260491
 51
341.1281260491
  0
ARC
  5
38B
330
1F
100
AcDbEntity
  8
0
  6
Continuous
 62
     7
370
    25
100
AcDbCircle
 10
-513.0601957598
 20
-123.592289491
 30
0.0
 40
0.4500000000003035
100
AcDbArc
 50
281.128126049
 51
357.7863678219
  0
ARC
  5
38C
330
1F
100
AcDbEntity
  8
0
  6
Continuous
 62
     7
370
    25
100
AcDbCircle
 10
-511.7043626777
 20
-122.4083483381
 30
0.0
 40
0.4500000000003542
100
AcDbArc
 50
264.4698842763
 51
341.1281260491
  0
ARC
  5
38D
330
1F
100
AcDbEntity
  8
0
  6
Continuous
 62
     7
370
    25
100
AcDbCircle
 10
-511.8236192384
 20
-123.6400886203
 30
0.0
 40
0.787499999999773
100
AcDbArc
 50
84.4698842763
 51
177.7863678218
  0
ARC
  5
38E
330
1F
100
AcDbEntity
  8
0
  6
Continuous
 62
     7
370
    25
100
AcDbCircle
 10
-513.4076023337
 20
-121.8261330222
 30
0.0
 40
2.250000000000303
100
AcDbArc
 50
101.1281260491
 51
161.1281260491
  0
ARC
  5
38F
330
1F
100
AcDbEntity
  8
0
  6
Continuous
 62
     7
370
    25
100
AcDbCircle
 10
-514.991585429
 20
-120.0121774241
 30
0.0
 40
0.787499999999773
100
AcDbArc
 50
264.4698842763
 51
357.7863678218
  0
ARC
  5
390
330
1F
100
AcDbEntity
  8
0
  6
Continuous
 62
     7
370
    25
100
AcDbCircle
 10
-515.1108419898
 20
-121.2439177062
 30
0.0
 40
0.4500000000002466
100
AcDbArc
 50
84.4698842763
 51
161.1281260491
  0
ARC
  5
391
330
1F
100
AcDbEntity
  8
0
  6
Continuous
 62
     7
370
    25
100
AcDbCircle
 10
-513.7550089077
 20
-120.0599765533
 30
0.0
 40
0.4500000000003474
100
AcDbArc
 50
101.128126049
 51
177.7863678219
  0
ARC
  5
392
330
1F
100
AcDbEntity
  8
0
  6
Continuous
 62
     7
370
    25
100
AcDbCircle
 10
-513.4076023337
 20
-121.8261330222
 30
0.0
 40
2.250000000000211
100
AcDbArc
 50
341.1281260491
 51
41.1281260491
  0
ARC
  5
393
330
1F
100
AcDbEntity
  8
0
  6
Continuous
 62
     7
370
    25
100
AcDbCircle
 10
-511.7043626777
 20
-122.4083483381
 30
0.0
 40
0.4500000000003542
100
AcDbArc
 50
341.1281260491
 51
57.7863678218
  0
ARC
  5
394
330
1F
100
AcDbEntity
  8
0
  6
Continuous
 62
     7
370
    25
100
AcDbCircle
 10
-511.0446791568
 20
-121.3613412215
 30
0.0
 40
0.7875000000000179
100
AcDbArc
 50
144.4698842763
 51
237.7863678218
  0
ARC
  5
395
330
1F
100
AcDbEntity
  8
0
  6
Continuous
 62
     7
370
    25
100
AcDbCircle
 10
-512.0517692516
 20
-120.6421918693
 30
0.0
 40
0.4500000000000315
100
AcDbArc
 50
324.4698842763
 51
41.1281260491
  0
ARC
  5
396
330
1F
100
AcDbEntity
  8
0
  6
Continuous
 62
     7
370
    25
100
AcDbCircle
 10
-513.4076023337
 20
-121.8261330222
 30
0.0
 40
2.250000000000303
100
AcDbArc
 50
41.1281260491
 51
101.1281260491
  0
ARC
  5
397
330
1F
100
AcDbEntity
  8
0
  6
Continuous
 62
     7
370
    25
100
AcDbCircle
 10
-512.0517692516
 20
-120.6421918693
 30
0.0
 40
0.4499999999999971
100
AcDbArc
 50
41.1281260491
 51
117.7863678218
  0
ARC
  5
398
330
1F
100
AcDbEntity
  8
0
  6
Continuous
 62
     7
370
    25
100
AcDbCircle
 10
-512.6286622521
 20
-119.5473856234
 30
0.0
 40
0.787500000000036
100
AcDbArc
 50
204.4698842763
 51
297.7863678219
  0
ARC
  5
399
330
1F
100
AcDbEntity
  8
0
  6
Continuous
 62
     7
370
    25
100
AcDbCircle
 10
-513.7550089077
 20
-120.0599765533
 30
0.0
 40
0.4500000000003474
100
AcDbArc
 50
24.4698842763
 51
101.128126049
  0
ARC
  5
39A
330
1F
100
AcDbEntity
  8
0
  6
Continuous
 62
     7
370
    25
100
AcDbCircle
 10
-513.4076023337
 20
-121.8261330222
 30
0.0
 40
2.250000000000269
100
AcDbArc
 50
161.1281260491
 51
221.1281260491
  0
ARC
  5
39B
330
1F
100
AcDbEntity
  8
0
  6
Continuous
 62
     7
370
    25
100
AcDbCircle
 10
-513.4076023337
 20
-121.8261330222
 30
0.0
 40
2.250000000000246
100
AcDbArc
 50
221.1281260491
 51
281.1281260491
  0
CIRCLE
  5
39C
330
1F
100
AcDbEntity
  8
0
  6
Continuous
 62
     7
370
    25
100
AcDbCircle
 10
-513.4076023337
 20
-121.8261330222
 30
0.0
 40
3.850000000000004
  0
ARC
  5
39D
330
1F
100
AcDbEntity
  8
0
  6
Continuous
 62
     7
370
    25
100
AcDbCircle
 10
-514.7634354158
 20
-123.0100741751
 30
0.0
 40
0.4500000000001032
100
AcDbArc
 50
221.1281260491
 51
297.7863678218
  0
ARC
  5
39E
330
1F
100
AcDbEntity
  8
0
  6
Continuous
 62
     7
370
    25
100
AcDbCircle
 10
-514.1865424154
 20
-124.1048804209
 30
0.0
 40
0.787500000000036
100
AcDbArc
 50
24.4698842763
 51
117.7863678218
  0
ARC
  5
39F
330
1F
100
AcDbEntity
  8
0
  6
Continuous
 62
     7
370
    25
100
AcDbCircle
 10
-513.0601957598
 20
-123.592289491
 30
0.0
 40
0.4500000000003035
100
AcDbArc
 50
204.4698842763
 51
281.128126049
  0
ARC
  5
3A0
330
1F
100
AcDbEntity
  8
0
  6
Continuous
 62
     7
370
    25
100
AcDbCircle
 10
-515.1108419898
 20
-121.2439177062
 30
0.0
 40
0.4500000000002466
100
AcDbArc
 50
161.1281260491
 51
237.7863678218
  0
ARC
  5
3A1
330
1F
100
AcDbEntity
  8
0
  6
Continuous
 62
     7
370
    25
100
AcDbCircle
 10
-515.7705255107
 20
-122.2909248228
 30
0.0
 40
0.7875000000000262
100
AcDbArc
 50
324.4698842763
 51
57.7863678218
  0
ARC
  5
3A2
330
1F
100
AcDbEntity
  8
0
  6
Continuous
 62
     7
370
    25
100
AcDbCircle
 10
-514.7634354158
 20
-123.0100741751
 30
0.0
 40
0.4499999999998382
100
AcDbArc
 50
144.4698842763
 51
221.1281260491
  0
ARC
  5
3A3
330
1F
100
AcDbEntity
  8
0
  6
Continuous
 62
     7
370
    25
100
AcDbCircle
 10
-233.4076023337
 20
883.1738669778
 30
0.0
 40
2.250000000000237
100
AcDbArc
 50
41.1281260491
 51
101.1281260491
  0
ARC
  5
3A4
330
1F
100
AcDbEntity
  8
0
  6
Continuous
 62
     7
370
    25
100
AcDbCircle
 10
-233.4076023337
 20
883.1738669778
 30
0.0
 40
2.250000000000237
100
AcDbArc
 50
101.1281260491
 51
161.1281260491
  0
ARC
  5
3A5
330
1F
100
AcDbEntity
  8
0
  6
Continuous
 62
     7
370
    25
100
AcDbCircle
 10
-233.4076023337
 20
883.1738669778
 30
0.0
 40
2.250000000000229
100
AcDbArc
 50
161.1281260491
 51
221.1281260491
  0
ARC
  5
3A6
330
1F
100
AcDbEntity
  8
0
  6
Continuous
 62
     7
370
    25
100
AcDbCircle
 10
-233.4076023337
 20
883.1738669778
 30
0.0
 40
2.250000000000237
100
AcDbArc
 50
221.1281260491
 51
281.1281260491
  0
ARC
  5
3A7
330
1F
100
AcDbEntity
  8
0
  6
Continuous
 62
     7
370
    25
100
AcDbCircle
 10
-233.4076023337
 20
883.1738669778
 30
0.0
 40
2.250000000000265
100
AcDbArc
 50
281.1281260491
 51
341.1281260491
  0
ARC
  5
3A8
330
1F
100
AcDbEntity
  8
0
  6
Continuous
 62
     7
370
    25
100
AcDbCircle
 10
-233.4076023337
 20
883.1738669778
 30
0.0
 40
2.250000000000265
100
AcDbArc
 50
341.1281260491
 51
41.1281260491
  0
CIRCLE
  5
3A9
330
1F
100
AcDbEntity
  8
0
  6
Continuous
 62
     7
370
    25
100
AcDbCircle
 10
-233.4076023337
 20
883.1738669778
 30
0.0
 40
3.849999999999964
  0
ARC
  5
3AA
330
1F
100
AcDbEntity
  8
0
  6
Continuous
 62
     7
370
    25
100
AcDbCircle
 10
-232.0517692516
 20
884.3578081307
 30
0.0
 40
0.4499999999999998
100
AcDbArc
 50
41.1281260491
 51
117.7863678218
  0
ARC
  5
3AB
330
1F
100
AcDbEntity
  8
0
  6
Continuous
 62
     7
370
    25
100
AcDbCircle
 10
-232.6286622521
 20
885.4526143766
 30
0.0
 40
0.7875000000000818
100
AcDbArc
 50
204.4698842763
 51
297.7863678218
  0
ARC
  5
3AC
330
1F
100
AcDbEntity
  8
0
  6
Continuous
 62
     7
370
    25
100
AcDbCircle
 10
-233.7550089076
 20
884.9400234467
 30
0.0
 40
0.4500000000002563
100
AcDbArc
 50
24.4698842763
 51
101.128126049
  0
ARC
  5
3AD
330
1F
100
AcDbEntity
  8
0
  6
Continuous
 62
     7
370
    25
100
AcDbCircle
 10
-231.7043626777
 20
882.5916516619
 30
0.0
 40
0.4500000000002787
100
AcDbArc
 50
341.1281260491
 51
57.7863678218
  0
ARC
  5
3AE
330
1F
100
AcDbEntity
  8
0
  6
Continuous
 62
     7
370
    25
100
AcDbCircle
 10
-231.0446791567
 20
883.6386587785
 30
0.0
 40
0.7875000000000592
100
AcDbArc
 50
144.4698842763
 51
237.7863678218
  0
ARC
  5
3AF
330
1F
100
AcDbEntity
  8
0
  6
Continuous
 62
     7
370
    25
100
AcDbCircle
 10
-232.0517692516
 20
884.3578081307
 30
0.0
 40
0.4499999999999224
100
AcDbArc
 50
324.4698842763
 51
41.1281260491
  0
ARC
  5
3B0
330
1F
100
AcDbEntity
  8
0
  6
Continuous
 62
     7
370
    25
100
AcDbCircle
 10
-233.0601957598
 20
881.407710509
 30
0.0
 40
0.4500000000002672
100
AcDbArc
 50
281.128126049
 51
357.7863678219
  0
ARC
  5
3B1
330
1F
100
AcDbEntity
  8
0
  6
Continuous
 62
     7
370
    25
100
AcDbCircle
 10
-231.8236192384
 20
881.3599113797
 30
0.0
 40
0.7874999999997392
100
AcDbArc
 50
84.4698842763
 51
177.7863678218
  0
ARC
  5
3B2
330
1F
100
AcDbEntity
  8
0
  6
Continuous
 62
     7
370
    25
100
AcDbCircle
 10
-231.7043626777
 20
882.5916516619
 30
0.0
 40
0.4500000000002787
100
AcDbArc
 50
264.4698842763
 51
341.1281260491
  0
ARC
  5
3B3
330
1F
100
AcDbEntity
  8
0
  6
Continuous
 62
     7
370
    25
100
AcDbCircle
 10
-234.991585429
 20
884.987822576
 30
0.0
 40
0.7874999999997392
100
AcDbArc
 50
264.4698842763
 51
357.7863678218
  0
ARC
  5
3B4
330
1F
100
AcDbEntity
  8
0
  6
Continuous
 62
     7
370
    25
100
AcDbCircle
 10
-235.1108419897
 20
883.7560822938
 30
0.0
 40
0.450000000000242
100
AcDbArc
 50
84.4698842763
 51
161.1281260491
  0
ARC
  5
3B5
330
1F
100
AcDbEntity
  8
0
  6
Continuous
 62
     7
370
    25
100
AcDbCircle
 10
-233.7550089076
 20
884.9400234467
 30
0.0
 40
0.4500000000002563
100
AcDbArc
 50
101.128126049
 51
177.7863678219
  0
ARC
  5
3B6
330
1F
100
AcDbEntity
  8
0
  6
Continuous
 62
     7
370
    25
100
AcDbCircle
 10
-234.7634354158
 20
881.989925825
 30
0.0
 40
0.4499999999999734
100
AcDbArc
 50
221.1281260491
 51
297.7863678218
  0
ARC
  5
3B7
330
1F
100
AcDbEntity
  8
0
  6
Continuous
 62
     7
370
    25
100
AcDbCircle
 10
-234.1865424154
 20
880.8951195791
 30
0.0
 40
0.7875000000000818
100
AcDbArc
 50
24.4698842763
 51
117.7863678218
  0
ARC
  5
3B8
330
1F
100
AcDbEntity
  8
0
  6
Continuous
 62
     7
370
    25
100
AcDbCircle
 10
-233.0601957598
 20
881.407710509
 30
0.0
 40
0.4500000000002672
100
AcDbArc
 50
204.4698842763
 51
281.128126049
  0
ARC
  5
3B9
330
1F
100
AcDbEntity
  8
0
  6
Continuous
 62
     7
370
    25
100
AcDbCircle
 10
-235.7705255107
 20
882.7090751772
 30
0.0
 40
0.7874999999999468
100
AcDbArc
 50
324.4698842763
 51
57.7863678218
  0
ARC
  5
3BA
330
1F
100
AcDbEntity
  8
0
  6
Continuous
 62
     7
370
    25
100
AcDbCircle
 10
-234.7634354158
 20
881.989925825
 30
0.0
 40
0.4500000000000348
100
AcDbArc
 50
144.4698842763
 51
221.1281260491
  0
ARC
  5
3BB
330
1F
100
AcDbEntity
  8
0
  6
Continuous
 62
     7
370
    25
100
AcDbCircle
 10
-235.1108419897
 20
883.7560822938
 30
0.0
 40
0.450000000000242
100
AcDbArc
 50
161.1281260491
 51
237.7863678219
  0
ARC
  5
3BC
330
1F
100
AcDbEntity
  8
0
  6
Continuous
 62
     7
370
    25
100
AcDbCircle
 10
106.5923976663
 20
883.1738669778
 30
0.0
 40
2.250000000000242
100
AcDbArc
 50
41.1281260491
 51
101.1281260491
  0
ARC
  5
3BD
330
1F
100
AcDbEntity
  8
0
  6
Continuous
 62
     7
370
    25
100
AcDbCircle
 10
107.3713377479
 20
885.4526143766
 30
0.0
 40
0.7875000000000559
100
AcDbArc
 50
204.4698842763
 51
297.7863678218
  0
ARC
  5
3BE
330
1F
100
AcDbEntity
  8
0
  6
Continuous
 62
     7
370
    25
100
AcDbCircle
 10
106.2449910924
 20
884.9400234467
 30
0.0
 40
0.4500000000002672
100
AcDbArc
 50
24.4698842763
 51
101.128126049
  0
ARC
  5
3BF
330
1F
100
AcDbEntity
  8
0
  6
Continuous
 62
     7
370
    25
100
AcDbCircle
 10
107.9482307484
 20
884.3578081307
 30
0.0
 40
0.4499999999999866
100
AcDbArc
 50
41.1281260491
 51
117.7863678218
  0
ARC
  5
3C0
330
1F
100
AcDbEntity
  8
0
  6
Continuous
 62
     7
370
    25
100
AcDbCircle
 10
106.5923976663
 20
883.1738669778
 30
0.0
 40
2.250000000000242
100
AcDbArc
 50
341.1281260491
 51
41.1281260491
  0
ARC
  5
3C1
330
1F
100
AcDbEntity
  8
0
  6
Continuous
 62
     7
370
    25
100
AcDbCircle
 10
108.9553208433
 20
883.6386587785
 30
0.0
 40
0.7874999999999585
100
AcDbArc
 50
144.4698842763
 51
237.7863678218
  0
ARC
  5
3C2
330
1F
100
AcDbEntity
  8
0
  6
Continuous
 62
     7
370
    25
100
AcDbCircle
 10
108.2956373223
 20
882.5916516619
 30
0.0
 40
0.4500000000002823
100
AcDbArc
 50
341.1281260491
 51
57.7863678218
  0
ARC
  5
3C3
330
1F
100
AcDbEntity
  8
0
  6
Continuous
 62
     7
370
    25
100
AcDbCircle
 10
107.9482307484
 20
884.3578081307
 30
0.0
 40
0.4500000000000117
100
AcDbArc
 50
324.4698842763
 51
41.1281260491
  0
ARC
  5
3C4
330
1F
100
AcDbEntity
  8
0
  6
Continuous
 62
     7
370
    25
100
AcDbCircle
 10
106.5923976663
 20
883.1738669778
 30
0.0
 40
2.250000000000242
100
AcDbArc
 50
281.1281260491
 51
341.1281260491
  0
ARC
  5
3C5
330
1F
100
AcDbEntity
  8
0
  6
Continuous
 62
     7
370
    25
100
AcDbCircle
 10
106.9398042402
 20
881.407710509
 30
0.0
 40
0.4500000000002672
100
AcDbArc
 50
281.128126049
 51
357.7863678219
  0
ARC
  5
3C6
330
1F
100
AcDbEntity
  8
0
  6
Continuous
 62
     7
370
    25
100
AcDbCircle
 10
108.1763807616
 20
881.3599113797
 30
0.0
 40
0.787499999999765
100
AcDbArc
 50
84.4698842763
 51
177.7863678218
  0
ARC
  5
3C7
330
1F
100
AcDbEntity
  8
0
  6
Continuous
 62
     7
370
    25
100
AcDbCircle
 10
108.2956373223
 20
882.5916516619
 30
0.0
 40
0.4500000000002823
100
AcDbArc
 50
264.4698842763
 51
341.1281260491
  0
ARC
  5
3C8
330
1F
100
AcDbEntity
  8
0
  6
Continuous
 62
     7
370
    25
100
AcDbCircle
 10
106.5923976663
 20
883.1738669778
 30
0.0
 40
2.250000000000292
100
AcDbArc
 50
101.1281260491
 51
161.1281260491
  0
ARC
  5
3C9
330
1F
100
AcDbEntity
  8
0
  6
Continuous
 62
     7
370
    25
100
AcDbCircle
 10
106.5923976663
 20
883.1738669778
 30
0.0
 40
2.250000000000292
100
AcDbArc
 50
161.1281260491
 51
221.1281260491
  0
ARC
  5
3CA
330
1F
100
AcDbEntity
  8
0
  6
Continuous
 62
     7
370
    25
100
AcDbCircle
 10
106.5923976663
 20
883.1738669778
 30
0.0
 40
2.25000000000024
100
AcDbArc
 50
221.1281260491
 51
281.1281260491
  0
CIRCLE
  5
3CB
330
1F
100
AcDbEntity
  8
0
  6
Continuous
 62
     7
370
    25
100
AcDbCircle
 10
106.5923976663
 20
883.1738669778
 30
0.0
 40
3.849999999999985
  0
ARC
  5
3CC
330
1F
100
AcDbEntity
  8
0
  6
Continuous
 62
     7
370
    25
100
AcDbCircle
 10
104.8891580103
 20
883.7560822938
 30
0.0
 40
0.4500000000003325
100
AcDbArc
 50
84.4698842763
 51
161.1281260491
  0
ARC
  5
3CD
330
1F
100
AcDbEntity
  8
0
  6
Continuous
 62
     7
370
    25
100
AcDbCircle
 10
105.008414571
 20
884.987822576
 30
0.0
 40
0.7874999999998538
100
AcDbArc
 50
264.4698842763
 51
357.7863678218
  0
ARC
  5
3CE
330
1F
100
AcDbEntity
  8
0
  6
Continuous
 62
     7
370
    25
100
AcDbCircle
 10
106.2449910924
 20
884.9400234467
 30
0.0
 40
0.4500000000002672
100
AcDbArc
 50
101.128126049
 51
177.7863678219
  0
ARC
  5
3CF
330
1F
100
AcDbEntity
  8
0
  6
Continuous
 62
     7
370
    25
100
AcDbCircle
 10
105.2365645842
 20
881.989925825
 30
0.0
 40
0.4499999999999866
100
AcDbArc
 50
221.1281260491
 51
297.7863678218
  0
ARC
  5
3D0
330
1F
100
AcDbEntity
  8
0
  6
Continuous
 62
     7
370
    25
100
AcDbCircle
 10
106.9398042402
 20
881.407710509
 30
0.0
 40
0.4500000000002672
100
AcDbArc
 50
204.4698842763
 51
281.128126049
  0
ARC
  5
3D1
330
1F
100
AcDbEntity
  8
0
  6
Continuous
 62
     7
370
    25
100
AcDbCircle
 10
105.8134575846
 20
880.8951195791
 30
0.0
 40
0.7875000000000779
100
AcDbArc
 50
24.4698842763
 51
117.7863678218
  0
ARC
  5
3D2
330
1F
100
AcDbEntity
  8
0
  6
Continuous
 62
     7
370
    25
100
AcDbCircle
 10
104.8891580103
 20
883.7560822938
 30
0.0
 40
0.4500000000003325
100
AcDbArc
 50
161.1281260491
 51
237.7863678218
  0
ARC
  5
3D3
330
1F
100
AcDbEntity
  8
0
  6
Continuous
 62
     7
370
    25
100
AcDbCircle
 10
104.2294744893
 20
882.7090751772
 30
0.0
 40
0.7875000000000361
100
AcDbArc
 50
324.4698842763
 51
57.7863678218
  0
ARC
  5
3D4
330
1F
100
AcDbEntity
  8
0
  6
Continuous
 62
     7
370
    25
100
AcDbCircle
 10
105.2365645842
 20
881.989925825
 30
0.0
 40
0.4499999999999456
100
AcDbArc
 50
144.4698842763
 51
221.1281260491
  0
ARC
  5
3D5
330
1F
100
AcDbEntity
  8
0
  6
Continuous
 62
     7
370
    25
100
AcDbCircle
 10
-513.4076023337
 20
38.1738669778
 30
0.0
 40
2.250000000000296
100
AcDbArc
 50
41.1281260491
 51
101.1281260491
  0
ARC
  5
3D6
330
1F
100
AcDbEntity
  8
0
  6
Continuous
 62
     7
370
    25
100
AcDbCircle
 10
-513.4076023337
 20
38.1738669778
 30
0.0
 40
2.250000000000296
100
AcDbArc
 50
101.1281260491
 51
161.1281260491
  0
ARC
  5
3D7
330
1F
100
AcDbEntity
  8
0
  6
Continuous
 62
     7
370
    25
100
AcDbCircle
 10
-513.4076023337
 20
38.1738669778
 30
0.0
 40
2.250000000000262
100
AcDbArc
 50
161.1281260491
 51
221.1281260491
  0
ARC
  5
3D8
330
1F
100
AcDbEntity
  8
0
  6
Continuous
 62
     7
370
    25
100
AcDbCircle
 10
-513.4076023337
 20
38.1738669778
 30
0.0
 40
2.250000000000238
100
AcDbArc
 50
221.1281260491
 51
281.1281260491
  0
ARC
  5
3D9
330
1F
100
AcDbEntity
  8
0
  6
Continuous
 62
     7
370
    25
100
AcDbCircle
 10
-513.4076023337
 20
38.1738669778
 30
0.0
 40
2.250000000000238
100
AcDbArc
 50
281.1281260491
 51
341.1281260491
  0
ARC
  5
3DA
330
1F
100
AcDbEntity
  8
0
  6
Continuous
 62
     7
370
    25
100
AcDbCircle
 10
-513.4076023337
 20
38.1738669778
 30
0.0
 40
2.250000000000211
100
AcDbArc
 50
341.1281260491
 51
41.1281260491
  0
CIRCLE
  5
3DB
330
1F
100
AcDbEntity
  8
0
  6
Continuous
 62
     7
370
    25
100
AcDbCircle
 10
-513.4076023337
 20
38.1738669778
 30
0.0
 40
3.849999999999994
  0
ARC
  5
3DC
330
1F
100
AcDbEntity
  8
0
  6
Continuous
 62
     7
370
    25
100
AcDbCircle
 10
-513.0601957598
 20
36.407710509
 30
0.0
 40
0.4500000000002896
100
AcDbArc
 50
281.128126049
 51
357.7863678219
  0
ARC
  5
3DD
330
1F
100
AcDbEntity
  8
0
  6
Continuous
 62
     7
370
    25
100
AcDbCircle
 10
-511.8236192384
 20
36.3599113797
 30
0.0
 40
0.787499999999773
100
AcDbArc
 50
84.4698842763
 51
177.7863678218
  0
ARC
  5
3DE
330
1F
100
AcDbEntity
  8
0
  6
Continuous
 62
     7
370
    25
100
AcDbCircle
 10
-511.7043626777
 20
37.5916516619
 30
0.0
 40
0.4500000000003587
100
AcDbArc
 50
264.4698842763
 51
341.1281260491
  0
ARC
  5
3DF
330
1F
100
AcDbEntity
  8
0
  6
Continuous
 62
     7
370
    25
100
AcDbCircle
 10
-513.7550089077
 20
39.9400234467
 30
0.0
 40
0.4500000000003335
100
AcDbArc
 50
101.128126049
 51
177.7863678219
  0
ARC
  5
3E0
330
1F
100
AcDbEntity
  8
0
  6
Continuous
 62
     7
370
    25
100
AcDbCircle
 10
-515.1108419898
 20
38.7560822938
 30
0.0
 40
0.4500000000002466
100
AcDbArc
 50
84.4698842763
 51
161.1281260491
  0
ARC
  5
3E1
330
1F
100
AcDbEntity
  8
0
  6
Continuous
 62
     7
370
    25
100
AcDbCircle
 10
-514.991585429
 20
39.9878225759
 30
0.0
 40
0.787499999999759
100
AcDbArc
 50
264.4698842763
 51
357.7863678218
  0
ARC
  5
3E2
330
1F
100
AcDbEntity
  8
0
  6
Continuous
 62
     7
370
    25
100
AcDbCircle
 10
-513.7550089077
 20
39.9400234467
 30
0.0
 40
0.4500000000003474
100
AcDbArc
 50
24.4698842763
 51
101.128126049
  0
ARC
  5
3E3
330
1F
100
AcDbEntity
  8
0
  6
Continuous
 62
     7
370
    25
100
AcDbCircle
 10
-512.0517692516
 20
39.3578081307
 30
0.0
 40
0.4499999999999783
100
AcDbArc
 50
41.1281260491
 51
117.7863678218
  0
ARC
  5
3E4
330
1F
100
AcDbEntity
  8
0
  6
Continuous
 62
     7
370
    25
100
AcDbCircle
 10
-512.6286622521
 20
40.4526143766
 30
0.0
 40
0.7875000000000625
100
AcDbArc
 50
204.4698842763
 51
297.7863678219
  0
ARC
  5
3E5
330
1F
100
AcDbEntity
  8
0
  6
Continuous
 62
     7
370
    25
100
AcDbCircle
 10
-511.7043626777
 20
37.5916516619
 30
0.0
 40
0.4500000000003587
100
AcDbArc
 50
341.1281260491
 51
57.7863678218
  0
ARC
  5
3E6
330
1F
100
AcDbEntity
  8
0
  6
Continuous
 62
     7
370
    25
100
AcDbCircle
 10
-511.0446791568
 20
38.6386587785
 30
0.0
 40
0.7875000000000262
100
AcDbArc
 50
144.4698842763
 51
237.7863678218
  0
ARC
  5
3E7
330
1F
100
AcDbEntity
  8
0
  6
Continuous
 62
     7
370
    25
100
AcDbCircle
 10
-512.0517692516
 20
39.3578081307
 30
0.0
 40
0.4500000000000439
100
AcDbArc
 50
324.4698842763
 51
41.1281260491
  0
ARC
  5
3E8
330
1F
100
AcDbEntity
  8
0
  6
Continuous
 62
     7
370
    25
100
AcDbCircle
 10
-514.7634354158
 20
36.9899258249
 30
0.0
 40
0.4500000000000905
100
AcDbArc
 50
221.1281260491
 51
297.7863678218
  0
ARC
  5
3E9
330
1F
100
AcDbEntity
  8
0
  6
Continuous
 62
     7
370
    25
100
AcDbCircle
 10
-514.1865424154
 20
35.8951195791
 30
0.0
 40
0.7875000000000448
100
AcDbArc
 50
24.4698842763
 51
117.7863678218
  0
ARC
  5
3EA
330
1F
100
AcDbEntity
  8
0
  6
Continuous
 62
     7
370
    25
100
AcDbCircle
 10
-513.0601957598
 20
36.407710509
 30
0.0
 40
0.4500000000002896
100
AcDbArc
 50
204.4698842763
 51
281.128126049
  0
ARC
  5
3EB
330
1F
100
AcDbEntity
  8
0
  6
Continuous
 62
     7
370
    25
100
AcDbCircle
 10
-514.7634354158
 20
36.9899258249
 30
0.0
 40
0.4499999999998671
100
AcDbArc
 50
144.4698842763
 51
221.1281260491
  0
ARC
  5
3EC
330
1F
100
AcDbEntity
  8
0
  6
Continuous
 62
     7
370
    25
100
AcDbCircle
 10
-515.7705255107
 20
37.7090751772
 30
0.0
 40
0.7875000000000137
100
AcDbArc
 50
324.4698842763
 51
57.7863678218
  0
ARC
  5
3ED
330
1F
100
AcDbEntity
  8
0
  6
Continuous
 62
     7
370
    25
100
AcDbCircle
 10
-515.1108419898
 20
38.7560822938
 30
0.0
 40
0.4500000000002512
100
AcDbArc
 50
161.1281260491
 51
237.7863678218
  0
ARC
  5
3EE
330
1F
100
AcDbEntity
  8
0
  6
Continuous
 62
     7
370
    25
100
AcDbCircle
 10
-513.4076023337
 20
423.1738669778
 30
0.0
 40
2.250000000000331
100
AcDbArc
 50
281.1281260491
 51
341.1281260491
  0
ARC
  5
3EF
330
1F
100
AcDbEntity
  8
0
  6
Continuous
 62
     7
370
    25
100
AcDbCircle
 10
-513.0601957598
 20
421.407710509
 30
0.0
 40
0.4500000000003614
100
AcDbArc
 50
281.128126049
 51
357.7863678219
  0
ARC
  5
3F0
330
1F
100
AcDbEntity
  8
0
  6
Continuous
 62
     7
370
    25
100
AcDbCircle
 10
-511.8236192384
 20
421.3599113797
 30
0.0
 40
0.787499999999858
100
AcDbArc
 50
84.4698842763
 51
177.7863678218
  0
ARC
  5
3F1
330
1F
100
AcDbEntity
  8
0
  6
Continuous
 62
     7
370
    25
100
AcDbCircle
 10
-511.7043626777
 20
422.5916516619
 30
0.0
 40
0.4500000000001882
100
AcDbArc
 50
264.4698842763
 51
341.1281260491
  0
ARC
  5
3F2
330
1F
100
AcDbEntity
  8
0
  6
Continuous
 62
     7
370
    25
100
AcDbCircle
 10
-513.4076023337
 20
423.1738669778
 30
0.0
 40
2.250000000000231
100
AcDbArc
 50
41.1281260491
 51
101.1281260491
  0
ARC
  5
3F3
330
1F
100
AcDbEntity
  8
0
  6
Continuous
 62
     7
370
    25
100
AcDbCircle
 10
-513.4076023337
 20
423.1738669778
 30
0.0
 40
2.250000000000255
100
AcDbArc
 50
101.1281260491
 51
161.1281260491
  0
ARC
  5
3F4
330
1F
100
AcDbEntity
  8
0
  6
Continuous
 62
     7
370
    25
100
AcDbCircle
 10
-513.4076023337
 20
423.1738669778
 30
0.0
 40
2.250000000000255
100
AcDbArc
 50
161.1281260491
 51
221.1281260491
  0
ARC
  5
3F5
330
1F
100
AcDbEntity
  8
0
  6
Continuous
 62
     7
370
    25
100
AcDbCircle
 10
-513.4076023337
 20
423.1738669778
 30
0.0
 40
2.250000000000331
100
AcDbArc
 50
221.1281260491
 51
281.1281260491
  0
ARC
  5
3F6
330
1F
100
AcDbEntity
  8
0
  6
Continuous
 62
     7
370
    25
100
AcDbCircle
 10
-513.4076023337
 20
423.1738669778
 30
0.0
 40
2.25000000000022
100
AcDbArc
 50
341.1281260491
 51
41.1281260491
  0
CIRCLE
  5
3F7
330
1F
100
AcDbEntity
  8
0
  6
Continuous
 62
     7
370
    25
100
AcDbCircle
 10
-513.4076023337
 20
423.1738669778
 30
0.0
 40
3.849999999999985
  0
ARC
  5
3F8
330
1F
100
AcDbEntity
  8
0
  6
Continuous
 62
     7
370
    25
100
AcDbCircle
 10
-511.7043626777
 20
422.5916516619
 30
0.0
 40
0.4500000000001882
100
AcDbArc
 50
341.1281260491
 51
57.7863678218
  0
ARC
  5
3F9
330
1F
100
AcDbEntity
  8
0
  6
Continuous
 62
     7
370
    25
100
AcDbCircle
 10
-511.0446791568
 20
423.6386587785
 30
0.0
 40
0.7875000000000262
100
AcDbArc
 50
144.4698842763
 51
237.7863678219
  0
ARC
  5
3FA
330
1F
100
AcDbEntity
  8
0
  6
Continuous
 62
     7
370
    25
100
AcDbCircle
 10
-512.0517692516
 20
424.3578081307
 30
0.0
 40
0.4499999999998299
100
AcDbArc
 50
324.4698842763
 51
41.1281260491
  0
ARC
  5
3FB
330
1F
100
AcDbEntity
  8
0
  6
Continuous
 62
     7
370
    25
100
AcDbCircle
 10
-515.1108419898
 20
423.7560822938
 30
0.0
 40
0.4500000000004571
100
AcDbArc
 50
84.4698842763
 51
161.1281260491
  0
ARC
  5
3FC
330
1F
100
AcDbEntity
  8
0
  6
Continuous
 62
     7
370
    25
100
AcDbCircle
 10
-514.991585429
 20
424.9878225759
 30
0.0
 40
0.7874999999997447
100
AcDbArc
 50
264.4698842763
 51
357.7863678218
  0
ARC
  5
3FD
330
1F
100
AcDbEntity
  8
0
  6
Continuous
 62
     7
370
    25
100
AcDbCircle
 10
-513.7550089077
 20
424.9400234467
 30
0.0
 40
0.4500000000003175
100
AcDbArc
 50
101.128126049
 51
177.7863678219
  0
ARC
  5
3FE
330
1F
100
AcDbEntity
  8
0
  6
Continuous
 62
     7
370
    25
100
AcDbCircle
 10
-512.0517692516
 20
424.3578081307
 30
0.0
 40
0.4500000000000475
100
AcDbArc
 50
41.1281260491
 51
117.7863678218
  0
ARC
  5
3FF
330
1F
100
AcDbEntity
  8
0
  6
Continuous
 62
     7
370
    25
100
AcDbCircle
 10
-512.6286622521
 20
425.4526143766
 30
0.0
 40
0.7875000000000301
100
AcDbArc
 50
204.4698842763
 51
297.7863678218
  0
ARC
  5
400
330
1F
100
AcDbEntity
  8
0
  6
Continuous
 62
     7
370
    25
100
AcDbCircle
 10
-513.7550089077
 20
424.9400234467
 30
0.0
 40
0.4500000000003175
100
AcDbArc
 50
24.4698842763
 51
101.128126049
  0
ARC
  5
401
330
1F
100
AcDbEntity
  8
0
  6
Continuous
 62
     7
370
    25
100
AcDbCircle
 10
-514.7634354158
 20
421.9899258249
 30
0.0
 40
0.4499999999999468
100
AcDbArc
 50
221.1281260491
 51
297.7863678218
  0
ARC
  5
402
330
1F
100
AcDbEntity
  8
0
  6
Continuous
 62
     7
370
    25
100
AcDbCircle
 10
-513.0601957598
 20
421.407710509
 30
0.0
 40
0.4500000000003614
100
AcDbArc
 50
204.4698842763
 51
281.128126049
  0
ARC
  5
403
330
1F
100
AcDbEntity
  8
0
  6
Continuous
 62
     7
370
    25
100
AcDbCircle
 10
-514.1865424154
 20
420.8951195791
 30
0.0
 40
0.7875000000000435
100
AcDbArc
 50
24.4698842763
 51
117.7863678219
  0
ARC
  5
404
330
1F
100
AcDbEntity
  8
0
  6
Continuous
 62
     7
370
    25
100
AcDbCircle
 10
-515.1108419898
 20
423.7560822938
 30
0.0
 40
0.4500000000004571
100
AcDbArc
 50
161.1281260491
 51
237.7863678218
  0
ARC
  5
405
330
1F
100
AcDbEntity
  8
0
  6
Continuous
 62
     7
370
    25
100
AcDbCircle
 10
-515.7705255107
 20
422.7090751772
 30
0.0
 40
0.7875000000000262
100
AcDbArc
 50
324.4698842763
 51
57.7863678218
  0
ARC
  5
406
330
1F
100
AcDbEntity
  8
0
  6
Continuous
 62
     7
370
    25
100
AcDbCircle
 10
-514.7634354158
 20
421.9899258249
 30
0.0
 40
0.4500000000000811
100
AcDbArc
 50
144.4698842763
 51
221.1281260491
  0
ARC
  5
407
330
1F
100
AcDbEntity
  8
0
  6
Continuous
 62
     7
370
    25
100
AcDbCircle
 10
331.5923976663
 20
883.1738669778
 30
0.0
 40
2.250000000000242
100
AcDbArc
 50
41.1281260491
 51
101.1281260491
  0
ARC
  5
408
330
1F
100
AcDbEntity
  8
0
  6
Continuous
 62
     7
370
    25
100
AcDbCircle
 10
332.9482307484
 20
884.3578081307
 30
0.0
 40
0.4499999999999734
100
AcDbArc
 50
41.1281260491
 51
117.7863678218
  0
ARC
  5
409
330
1F
100
AcDbEntity
  8
0
  6
Continuous
 62
     7
370
    25
100
AcDbCircle
 10
332.3713377479
 20
885.4526143766
 30
0.0
 40
0.7875000000000818
100
AcDbArc
 50
204.4698842763
 51
297.7863678219
  0
ARC
  5
40A
330
1F
100
AcDbEntity
  8
0
  6
Continuous
 62
     7
370
    25
100
AcDbCircle
 10
331.2449910924
 20
884.9400234467
 30
0.0
 40
0.4500000000002617
100
AcDbArc
 50
24.4698842763
 51
101.128126049
  0
ARC
  5
40B
330
1F
100
AcDbEntity
  8
0
  6
Continuous
 62
     7
370
    25
100
AcDbCircle
 10
331.5923976663
 20
883.1738669778
 30
0.0
 40
2.250000000000255
100
AcDbArc
 50
341.1281260491
 51
41.1281260491
  0
ARC
  5
40C
330
1F
100
AcDbEntity
  8
0
  6
Continuous
 62
     7
370
    25
100
AcDbCircle
 10
333.2956373223
 20
882.5916516619
 30
0.0
 40
0.4500000000002958
100
AcDbArc
 50
341.1281260491
 51
57.7863678218
  0
ARC
  5
40D
330
1F
100
AcDbEntity
  8
0
  6
Continuous
 62
     7
370
    25
100
AcDbCircle
 10
333.9553208433
 20
883.6386587785
 30
0.0
 40
0.7874999999999931
100
AcDbArc
 50
144.4698842763
 51
237.7863678218
  0
ARC
  5
40E
330
1F
100
AcDbEntity
  8
0
  6
Continuous
 62
     7
370
    25
100
AcDbCircle
 10
332.9482307484
 20
884.3578081307
 30
0.0
 40
0.4499999999999885
100
AcDbArc
 50
324.4698842763
 51
41.1281260491
  0
ARC
  5
40F
330
1F
100
AcDbEntity
  8
0
  6
Continuous
 62
     7
370
    25
100
AcDbCircle
 10
331.5923976663
 20
883.1738669778
 30
0.0
 40
2.250000000000292
100
AcDbArc
 50
101.1281260491
 51
161.1281260491
  0
ARC
  5
410
330
1F
100
AcDbEntity
  8
0
  6
Continuous
 62
     7
370
    25
100
AcDbCircle
 10
331.5923976663
 20
883.1738669778
 30
0.0
 40
2.250000000000292
100
AcDbArc
 50
161.1281260491
 51
221.1281260491
  0
ARC
  5
411
330
1F
100
AcDbEntity
  8
0
  6
Continuous
 62
     7
370
    25
100
AcDbCircle
 10
331.5923976663
 20
883.1738669778
 30
0.0
 40
2.250000000000242
100
AcDbArc
 50
221.1281260491
 51
281.1281260491
  0
ARC
  5
412
330
1F
100
AcDbEntity
  8
0
  6
Continuous
 62
     7
370
    25
100
AcDbCircle
 10
331.5923976663
 20
883.1738669778
 30
0.0
 40
2.250000000000255
100
AcDbArc
 50
281.1281260491
 51
341.1281260491
  0
CIRCLE
  5
413
330
1F
100
AcDbEntity
  8
0
  6
Continuous
 62
     7
370
    25
100
AcDbCircle
 10
331.5923976663
 20
883.1738669778
 30
0.0
 40
3.849999999999985
  0
ARC
  5
414
330
1F
100
AcDbEntity
  8
0
  6
Continuous
 62
     7
370
    25
100
AcDbCircle
 10
330.008414571
 20
884.987822576
 30
0.0
 40
0.787499999999858
100
AcDbArc
 50
264.4698842763
 51
357.7863678218
  0
ARC
  5
415
330
1F
100
AcDbEntity
  8
0
  6
Continuous
 62
     7
370
    25
100
AcDbCircle
 10
329.8891580103
 20
883.7560822938
 30
0.0
 40
0.4500000000003325
100
AcDbArc
 50
84.4698842763
 51
161.1281260491
  0
ARC
  5
416
330
1F
100
AcDbEntity
  8
0
  6
Continuous
 62
     7
370
    25
100
AcDbCircle
 10
331.2449910924
 20
884.9400234467
 30
0.0
 40
0.4500000000002617
100
AcDbArc
 50
101.128126049
 51
177.7863678219
  0
ARC
  5
417
330
1F
100
AcDbEntity
  8
0
  6
Continuous
 62
     7
370
    25
100
AcDbCircle
 10
331.9398042402
 20
881.407710509
 30
0.0
 40
0.4500000000002617
100
AcDbArc
 50
281.128126049
 51
357.7863678219
  0
ARC
  5
418
330
1F
100
AcDbEntity
  8
0
  6
Continuous
 62
     7
370
    25
100
AcDbCircle
 10
333.1763807616
 20
881.3599113797
 30
0.0
 40
0.787499999999765
100
AcDbArc
 50
84.4698842763
 51
177.7863678218
  0
ARC
  5
419
330
1F
100
AcDbEntity
  8
0
  6
Continuous
 62
     7
370
    25
100
AcDbCircle
 10
333.2956373223
 20
882.5916516619
 30
0.0
 40
0.4500000000002958
100
AcDbArc
 50
264.4698842763
 51
341.1281260491
  0
ARC
  5
41A
330
1F
100
AcDbEntity
  8
0
  6
Continuous
 62
     7
370
    25
100
AcDbCircle
 10
329.8891580103
 20
883.7560822938
 30
0.0
 40
0.4500000000003325
100
AcDbArc
 50
161.1281260491
 51
237.7863678218
  0
ARC
  5
41B
330
1F
100
AcDbEntity
  8
0
  6
Continuous
 62
     7
370
    25
100
AcDbCircle
 10
329.2294744893
 20
882.7090751772
 30
0.0
 40
0.7875000000000592
100
AcDbArc
 50
324.4698842763
 51
57.7863678218
  0
ARC
  5
41C
330
1F
100
AcDbEntity
  8
0
  6
Continuous
 62
     7
370
    25
100
AcDbCircle
 10
330.2365645842
 20
881.989925825
 30
0.0
 40
0.4499999999999687
100
AcDbArc
 50
144.4698842763
 51
221.1281260491
  0
ARC
  5
41D
330
1F
100
AcDbEntity
  8
0
  6
Continuous
 62
     7
370
    25
100
AcDbCircle
 10
330.8134575846
 20
880.8951195791
 30
0.0
 40
0.7875000000000911
100
AcDbArc
 50
24.4698842763
 51
117.7863678218
  0
ARC
  5
41E
330
1F
100
AcDbEntity
  8
0
  6
Continuous
 62
     7
370
    25
100
AcDbCircle
 10
331.9398042402
 20
881.407710509
 30
0.0
 40
0.4500000000002617
100
AcDbArc
 50
204.4698842763
 51
281.128126049
  0
ARC
  5
41F
330
1F
100
AcDbEntity
  8
0
  6
Continuous
 62
     7
370
    25
100
AcDbCircle
 10
330.2365645842
 20
881.989925825
 30
0.0
 40
0.4499999999999468
100
AcDbArc
 50
221.1281260491
 51
297.7863678218
  0
ARC
  5
420
330
1F
100
AcDbEntity
  8
0
  6
Continuous
 62
     7
370
    25
100
AcDbCircle
 10
-53.4076023337
 20
883.1738669778
 30
0.0
 40
2.25000000000035
100
AcDbArc
 50
281.1281260491
 51
341.1281260491
  0
ARC
  5
421
330
1F
100
AcDbEntity
  8
0
  6
Continuous
 62
     7
370
    25
100
AcDbCircle
 10
-53.0601957598
 20
881.407710509
 30
0.0
 40
0.4500000000003801
100
AcDbArc
 50
281.128126049
 51
357.7863678219
  0
ARC
  5
422
330
1F
100
AcDbEntity
  8
0
  6
Continuous
 62
     7
370
    25
100
AcDbCircle
 10
-51.7043626777
 20
882.5916516619
 30
0.0
 40
0.450000000000242
100
AcDbArc
 50
264.4698842763
 51
341.1281260491
  0
ARC
  5
423
330
1F
100
AcDbEntity
  8
0
  6
Continuous
 62
     7
370
    25
100
AcDbCircle
 10
-51.8236192384
 20
881.3599113797
 30
0.0
 40
0.78749999999974
100
AcDbArc
 50
84.4698842763
 51
177.7863678218
  0
ARC
  5
424
330
1F
100
AcDbEntity
  8
0
  6
Continuous
 62
     7
370
    25
100
AcDbCircle
 10
-53.4076023337
 20
883.1738669778
 30
0.0
 40
2.250000000000237
100
AcDbArc
 50
41.1281260491
 51
101.1281260491
  0
ARC
  5
425
330
1F
100
AcDbEntity
  8
0
  6
Continuous
 62
     7
370
    25
100
AcDbCircle
 10
-53.4076023337
 20
883.1738669778
 30
0.0
 40
2.250000000000237
100
AcDbArc
 50
101.1281260491
 51
161.1281260491
  0
ARC
  5
426
330
1F
100
AcDbEntity
  8
0
  6
Continuous
 62
     7
370
    25
100
AcDbCircle
 10
-53.4076023337
 20
883.1738669778
 30
0.0
 40
2.250000000000222
100
AcDbArc
 50
161.1281260491
 51
221.1281260491
  0
ARC
  5
427
330
1F
100
AcDbEntity
  8
0
  6
Continuous
 62
     7
370
    25
100
AcDbCircle
 10
-53.4076023337
 20
883.1738669778
 30
0.0
 40
2.25000000000035
100
AcDbArc
 50
221.1281260491
 51
281.1281260491
  0
ARC
  5
428
330
1F
100
AcDbEntity
  8
0
  6
Continuous
 62
     7
370
    25
100
AcDbCircle
 10
-53.4076023337
 20
883.1738669778
 30
0.0
 40
2.250000000000265
100
AcDbArc
 50
341.1281260491
 51
41.1281260491
  0
CIRCLE
  5
429
330
1F
100
AcDbEntity
  8
0
  6
Continuous
 62
     7
370
    25
100
AcDbCircle
 10
-53.4076023337
 20
883.1738669778
 30
0.0
 40
3.849999999999974
  0
ARC
  5
42A
330
1F
100
AcDbEntity
  8
0
  6
Continuous
 62
     7
370
    25
100
AcDbCircle
 10
-52.0517692516
 20
884.3578081307
 30
0.0
 40
0.4499999999999965
100
AcDbArc
 50
41.1281260491
 51
117.7863678218
  0
ARC
  5
42B
330
1F
100
AcDbEntity
  8
0
  6
Continuous
 62
     7
370
    25
100
AcDbCircle
 10
-52.6286622521
 20
885.4526143766
 30
0.0
 40
0.7875000000000947
100
AcDbArc
 50
204.4698842763
 51
297.7863678218
  0
ARC
  5
42C
330
1F
100
AcDbEntity
  8
0
  6
Continuous
 62
     7
370
    25
100
AcDbCircle
 10
-53.7550089076
 20
884.9400234467
 30
0.0
 40
0.4500000000003692
100
AcDbArc
 50
24.4698842763
 51
101.128126049
  0
ARC
  5
42D
330
1F
100
AcDbEntity
  8
0
  6
Continuous
 62
     7
370
    25
100
AcDbCircle
 10
-55.1108419897
 20
883.7560822938
 30
0.0
 40
0.450000000000242
100
AcDbArc
 50
84.4698842763
 51
161.1281260491
  0
ARC
  5
42E
330
1F
100
AcDbEntity
  8
0
  6
Continuous
 62
     7
370
    25
100
AcDbCircle
 10
-54.991585429
 20
884.987822576
 30
0.0
 40
0.7874999999998538
100
AcDbArc
 50
264.4698842763
 51
357.7863678218
  0
ARC
  5
42F
330
1F
100
AcDbEntity
  8
0
  6
Continuous
 62
     7
370
    25
100
AcDbCircle
 10
-53.7550089076
 20
884.9400234467
 30
0.0
 40
0.4500000000003692
100
AcDbArc
 50
101.128126049
 51
177.7863678219
  0
ARC
  5
430
330
1F
100
AcDbEntity
  8
0
  6
Continuous
 62
     7
370
    25
100
AcDbCircle
 10
-51.0446791567
 20
883.6386587785
 30
0.0
 40
0.7874999999999989
100
AcDbArc
 50
144.4698842763
 51
237.7863678218
  0
ARC
  5
431
330
1F
100
AcDbEntity
  8
0
  6
Continuous
 62
     7
370
    25
100
AcDbCircle
 10
-52.0517692516
 20
884.3578081307
 30
0.0
 40
0.4499999999999885
100
AcDbArc
 50
324.4698842763
 51
41.1281260491
  0
ARC
  5
432
330
1F
100
AcDbEntity
  8
0
  6
Continuous
 62
     7
370
    25
100
AcDbCircle
 10
-51.7043626777
 20
882.5916516619
 30
0.0
 40
0.450000000000242
100
AcDbArc
 50
341.1281260491
 51
57.7863678218
  0
ARC
  5
433
330
1F
100
AcDbEntity
  8
0
  6
Continuous
 62
     7
370
    25
100
AcDbCircle
 10
-54.7634354158
 20
881.989925825
 30
0.0
 40
0.4499999999999734
100
AcDbArc
 50
221.1281260491
 51
297.7863678218
  0
ARC
  5
434
330
1F
100
AcDbEntity
  8
0
  6
Continuous
 62
     7
370
    25
100
AcDbCircle
 10
-54.1865424154
 20
880.8951195791
 30
0.0
 40
0.7875000000000884
100
AcDbArc
 50
24.4698842763
 51
117.7863678218
  0
ARC
  5
435
330
1F
100
AcDbEntity
  8
0
  6
Continuous
 62
     7
370
    25
100
AcDbCircle
 10
-53.0601957598
 20
881.407710509
 30
0.0
 40
0.4500000000003801
100
AcDbArc
 50
204.4698842763
 51
281.128126049
  0
ARC
  5
436
330
1F
100
AcDbEntity
  8
0
  6
Continuous
 62
     7
370
    25
100
AcDbCircle
 10
-55.7705255107
 20
882.7090751772
 30
0.0
 40
0.7874999999999527
100
AcDbArc
 50
324.4698842763
 51
57.7863678218
  0
ARC
  5
437
330
1F
100
AcDbEntity
  8
0
  6
Continuous
 62
     7
370
    25
100
AcDbCircle
 10
-55.1108419897
 20
883.7560822938
 30
0.0
 40
0.450000000000242
100
AcDbArc
 50
161.1281260491
 51
237.7863678218
  0
ARC
  5
438
330
1F
100
AcDbEntity
  8
0
  6
Continuous
 62
     7
370
    25
100
AcDbCircle
 10
-54.7634354158
 20
881.989925825
 30
0.0
 40
0.450000000000029
100
AcDbArc
 50
144.4698842763
 51
221.1281260491
  0
ARC
  5
439
330
1F
100
AcDbEntity
  8
0
  6
Continuous
 62
     7
370
    25
100
AcDbCircle
 10
671.5923976663
 20
883.1738669778
 30
0.0
 40
2.250000000000292
100
AcDbArc
 50
341.1281260491
 51
41.1281260491
  0
ARC
  5
43A
330
1F
100
AcDbEntity
  8
0
  6
Continuous
 62
     7
370
    25
100
AcDbCircle
 10
673.2956373223
 20
882.5916516619
 30
0.0
 40
0.4500000000003496
100
AcDbArc
 50
341.1281260491
 51
57.7863678218
  0
ARC
  5
43B
330
1F
100
AcDbEntity
  8
0
  6
Continuous
 62
     7
370
    25
100
AcDbCircle
 10
673.9553208433
 20
883.6386587785
 30
0.0
 40
0.7874999999999931
100
AcDbArc
 50
144.4698842763
 51
237.7863678218
  0
ARC
  5
43C
330
1F
100
AcDbEntity
  8
0
  6
Continuous
 62
     7
370
    25
100
AcDbCircle
 10
672.9482307484
 20
884.3578081307
 30
0.0
 40
0.4499999999999885
100
AcDbArc
 50
324.4698842763
 51
41.1281260491
  0
ARC
  5
43D
330
1F
100
AcDbEntity
  8
0
  6
Continuous
 62
     7
370
    25
100
AcDbCircle
 10
671.5923976663
 20
883.1738669778
 30
0.0
 40
2.250000000000254
100
AcDbArc
 50
101.1281260491
 51
161.1281260491
  0
ARC
  5
43E
330
1F
100
AcDbEntity
  8
0
  6
Continuous
 62
     7
370
    25
100
AcDbCircle
 10
671.2449910924
 20
884.9400234467
 30
0.0
 40
0.4500000000003733
100
AcDbArc
 50
101.128126049
 51
177.7863678218
  0
ARC
  5
43F
330
1F
100
AcDbEntity
  8
0
  6
Continuous
 62
     7
370
    25
100
AcDbCircle
 10
670.008414571
 20
884.9878225759
 30
0.0
 40
0.7874999999998689
100
AcDbArc
 50
264.4698842763
 51
357.7863678218
  0
ARC
  5
440
330
1F
100
AcDbEntity
  8
0
  6
Continuous
 62
     7
370
    25
100
AcDbCircle
 10
669.8891580103
 20
883.7560822938
 30
0.0
 40
0.4500000000001344
100
AcDbArc
 50
84.4698842763
 51
161.1281260491
  0
ARC
  5
441
330
1F
100
AcDbEntity
  8
0
  6
Continuous
 62
     7
370
    25
100
AcDbCircle
 10
671.5923976663
 20
883.1738669778
 30
0.0
 40
2.250000000000254
100
AcDbArc
 50
41.1281260491
 51
101.1281260491
  0
ARC
  5
442
330
1F
100
AcDbEntity
  8
0
  6
Continuous
 62
     7
370
    25
100
AcDbCircle
 10
672.9482307484
 20
884.3578081307
 30
0.0
 40
0.4499999999999998
100
AcDbArc
 50
41.1281260491
 51
117.7863678218
  0
ARC
  5
443
330
1F
100
AcDbEntity
  8
0
  6
Continuous
 62
     7
370
    25
100
AcDbCircle
 10
672.3713377479
 20
885.4526143766
 30
0.0
 40
0.7875000000001806
100
AcDbArc
 50
204.4698842763
 51
297.7863678218
  0
ARC
  5
444
330
1F
100
AcDbEntity
  8
0
  6
Continuous
 62
     7
370
    25
100
AcDbCircle
 10
671.2449910924
 20
884.9400234467
 30
0.0
 40
0.4500000000003733
100
AcDbArc
 50
24.4698842763
 51
101.128126049
  0
ARC
  5
445
330
1F
100
AcDbEntity
  8
0
  6
Continuous
 62
     7
370
    25
100
AcDbCircle
 10
671.5923976663
 20
883.1738669778
 30
0.0
 40
2.250000000000343
100
AcDbArc
 50
281.1281260491
 51
341.1281260491
  0
ARC
  5
446
330
1F
100
AcDbEntity
  8
0
  6
Continuous
 62
     7
370
    25
100
AcDbCircle
 10
671.9398042402
 20
881.407710509
 30
0.0
 40
0.4500000000003733
100
AcDbArc
 50
281.128126049
 51
357.7863678219
  0
ARC
  5
447
330
1F
100
AcDbEntity
  8
0
  6
Continuous
 62
     7
370
    25
100
AcDbCircle
 10
673.1763807616
 20
881.3599113797
 30
0.0
 40
0.7874999999997337
100
AcDbArc
 50
84.4698842763
 51
177.7863678218
  0
ARC
  5
448
330
1F
100
AcDbEntity
  8
0
  6
Continuous
 62
     7
370
    25
100
AcDbCircle
 10
673.2956373223
 20
882.5916516619
 30
0.0
 40
0.4500000000003496
100
AcDbArc
 50
264.4698842763
 51
341.1281260491
  0
ARC
  5
449
330
1F
100
AcDbEntity
  8
0
  6
Continuous
 62
     7
370
    25
100
AcDbCircle
 10
671.5923976663
 20
883.1738669778
 30
0.0
 40
2.250000000000148
100
AcDbArc
 50
161.1281260491
 51
221.1281260491
  0
ARC
  5
44A
330
1F
100
AcDbEntity
  8
0
  6
Continuous
 62
     7
370
    25
100
AcDbCircle
 10
671.5923976663
 20
883.1738669778
 30
0.0
 40
2.250000000000343
100
AcDbArc
 50
221.1281260491
 51
281.1281260491
  0
CIRCLE
  5
44B
330
1F
100
AcDbEntity
  8
0
  6
Continuous
 62
     7
370
    25
100
AcDbCircle
 10
671.5923976663
 20
883.1738669778
 30
0.0
 40
3.849999999999985
  0
ARC
  5
44C
330
1F
100
AcDbEntity
  8
0
  6
Continuous
 62
     7
370
    25
100
AcDbCircle
 10
670.2365645842
 20
881.9899258249
 30
0.0
 40
0.4499999999999468
100
AcDbArc
 50
221.1281260491
 51
297.7863678218
  0
ARC
  5
44D
330
1F
100
AcDbEntity
  8
0
  6
Continuous
 62
     7
370
    25
100
AcDbCircle
 10
670.8134575846
 20
880.8951195791
 30
0.0
 40
0.7875000000000301
100
AcDbArc
 50
24.4698842763
 51
117.7863678218
  0
ARC
  5
44E
330
1F
100
AcDbEntity
  8
0
  6
Continuous
 62
     7
370
    25
100
AcDbCircle
 10
671.9398042402
 20
881.407710509
 30
0.0
 40
0.4500000000003733
100
AcDbArc
 50
204.4698842763
 51
281.128126049
  0
ARC
  5
44F
330
1F
100
AcDbEntity
  8
0
  6
Continuous
 62
     7
370
    25
100
AcDbCircle
 10
669.2294744893
 20
882.7090751772
 30
0.0
 40
0.7874999999999931
100
AcDbArc
 50
324.4698842763
 51
57.7863678218
  0
ARC
  5
450
330
1F
100
AcDbEntity
  8
0
  6
Continuous
 62
     7
370
    25
100
AcDbCircle
 10
670.2365645842
 20
881.9899258249
 30
0.0
 40
0.4499999999999885
100
AcDbArc
 50
144.4698842763
 51
221.1281260491
  0
ARC
  5
451
330
1F
100
AcDbEntity
  8
0
  6
Continuous
 62
     7
370
    25
100
AcDbCircle
 10
669.8891580103
 20
883.7560822938
 30
0.0
 40
0.4500000000001694
100
AcDbArc
 50
161.1281260491
 51
237.7863678218
  0
ARC
  5
452
330
1F
100
AcDbEntity
  8
0
  6
Continuous
 62
     7
370
    25
100
AcDbCircle
 10
951.5923976663
 20
603.1738669778
 30
0.0
 40
2.250000000000365
100
AcDbArc
 50
41.1281260491
 51
101.1281260491
  0
ARC
  5
453
330
1F
100
AcDbEntity
  8
0
  6
Continuous
 62
     7
370
    25
100
AcDbCircle
 10
952.9482307484
 20
604.3578081307
 30
0.0
 40
0.4500000000001004
100
AcDbArc
 50
41.1281260491
 51
117.7863678218
  0
ARC
  5
454
330
1F
100
AcDbEntity
  8
0
  6
Continuous
 62
     7
370
    25
100
AcDbCircle
 10
952.3713377479
 20
605.4526143766
 30
0.0
 40
0.7875000000000301
100
AcDbArc
 50
204.4698842763
 51
297.7863678219
  0
ARC
  5
455
330
1F
100
AcDbEntity
  8
0
  6
Continuous
 62
     7
370
    25
100
AcDbCircle
 10
951.2449910924
 20
604.9400234467
 30
0.0
 40
0.4500000000003953
100
AcDbArc
 50
24.4698842763
 51
101.128126049
  0
ARC
  5
456
330
1F
100
AcDbEntity
  8
0
  6
Continuous
 62
     7
370
    25
100
AcDbCircle
 10
951.5923976663
 20
603.1738669778
 30
0.0
 40
2.250000000000255
100
AcDbArc
 50
341.1281260491
 51
41.1281260491
  0
ARC
  5
457
330
1F
100
AcDbEntity
  8
0
  6
Continuous
 62
     7
370
    25
100
AcDbCircle
 10
953.2956373223
 20
602.5916516619
 30
0.0
 40
0.4500000000003496
100
AcDbArc
 50
341.1281260491
 51
57.7863678218
  0
ARC
  5
458
330
1F
100
AcDbEntity
  8
0
  6
Continuous
 62
     7
370
    25
100
AcDbCircle
 10
953.9553208433
 20
603.6386587785
 30
0.0
 40
0.7875000000000044
100
AcDbArc
 50
144.4698842763
 51
237.7863678218
  0
ARC
  5
459
330
1F
100
AcDbEntity
  8
0
  6
Continuous
 62
     7
370
    25
100
AcDbCircle
 10
952.9482307484
 20
604.3578081307
 30
0.0
 40
0.4499999999999224
100
AcDbArc
 50
324.4698842763
 51
41.1281260491
  0
ARC
  5
45A
330
1F
100
AcDbEntity
  8
0
  6
Continuous
 62
     7
370
    25
100
AcDbCircle
 10
951.5923976663
 20
603.1738669778
 30
0.0
 40
2.250000000000365
100
AcDbArc
 50
101.1281260491
 51
161.1281260491
  0
ARC
  5
45B
330
1F
100
AcDbEntity
  8
0
  6
Continuous
 62
     7
370
    25
100
AcDbCircle
 10
950.008414571
 20
604.9878225759
 30
0.0
 40
0.7874999999997556
100
AcDbArc
 50
264.4698842763
 51
357.7863678218
  0
ARC
  5
45C
330
1F
100
AcDbEntity
  8
0
  6
Continuous
 62
     7
370
    25
100
AcDbCircle
 10
949.8891580103
 20
603.7560822938
 30
0.0
 40
0.4500000000001344
100
AcDbArc
 50
84.4698842763
 51
161.1281260491
  0
ARC
  5
45D
330
1F
100
AcDbEntity
  8
0
  6
Continuous
 62
     7
370
    25
100
AcDbCircle
 10
951.2449910924
 20
604.9400234467
 30
0.0
 40
0.4500000000003953
100
AcDbArc
 50
101.128126049
 51
177.7863678219
  0
ARC
  5
45E
330
1F
100
AcDbEntity
  8
0
  6
Continuous
 62
     7
370
    25
100
AcDbCircle
 10
951.5923976663
 20
603.1738669778
 30
0.0
 40
2.250000000000255
100
AcDbArc
 50
281.1281260491
 51
341.1281260491
  0
ARC
  5
45F
330
1F
100
AcDbEntity
  8
0
  6
Continuous
 62
     7
370
    25
100
AcDbCircle
 10
951.9398042402
 20
601.407710509
 30
0.0
 40
0.4500000000003733
100
AcDbArc
 50
281.128126049
 51
357.7863678219
  0
ARC
  5
460
330
1F
100
AcDbEntity
  8
0
  6
Continuous
 62
     7
370
    25
100
AcDbCircle
 10
953.1763807616
 20
601.3599113797
 30
0.0
 40
0.787499999999858
100
AcDbArc
 50
84.4698842763
 51
177.7863678218
  0
ARC
  5
461
330
1F
100
AcDbEntity
  8
0
  6
Continuous
 62
     7
370
    25
100
AcDbCircle
 10
953.2956373223
 20
602.5916516619
 30
0.0
 40
0.4500000000003496
100
AcDbArc
 50
264.4698842763
 51
341.1281260491
  0
ARC
  5
462
330
1F
100
AcDbEntity
  8
0
  6
Continuous
 62
     7
370
    25
100
AcDbCircle
 10
951.5923976663
 20
603.1738669778
 30
0.0
 40
2.250000000000185
100
AcDbArc
 50
161.1281260491
 51
221.1281260491
  0
ARC
  5
463
330
1F
100
AcDbEntity
  8
0
  6
Continuous
 62
     7
370
    25
100
AcDbCircle
 10
951.5923976663
 20
603.1738669778
 30
0.0
 40
2.250000000000231
100
AcDbArc
 50
221.1281260491
 51
281.1281260491
  0
CIRCLE
  5
464
330
1F
100
AcDbEntity
  8
0
  6
Continuous
 62
     7
370
    25
100
AcDbCircle
 10
951.5923976663
 20
603.1738669778
 30
0.0
 40
3.85000000000006
  0
ARC
  5
465
330
1F
100
AcDbEntity
  8
0
  6
Continuous
 62
     7
370
    25
100
AcDbCircle
 10
950.2365645842
 20
601.9899258249
 30
0.0
 40
0.4500000000000528
100
AcDbArc
 50
221.1281260491
 51
297.7863678219
  0
ARC
  5
466
330
1F
100
AcDbEntity
  8
0
  6
Continuous
 62
     7
370
    25
100
AcDbCircle
 10
950.8134575846
 20
600.8951195791
 30
0.0
 40
0.7875000000000301
100
AcDbArc
 50
24.4698842763
 51
117.7863678218
  0
ARC
  5
467
330
1F
100
AcDbEntity
  8
0
  6
Continuous
 62
     7
370
    25
100
AcDbCircle
 10
951.9398042402
 20
601.407710509
 30
0.0
 40
0.4500000000003733
100
AcDbArc
 50
204.4698842763
 51
281.128126049
  0
ARC
  5
468
330
1F
100
AcDbEntity
  8
0
  6
Continuous
 62
     7
370
    25
100
AcDbCircle
 10
949.2294744893
 20
602.7090751772
 30
0.0
 40
0.7874999999999931
100
AcDbArc
 50
324.4698842763
 51
57.7863678219
  0
ARC
  5
469
330
1F
100
AcDbEntity
  8
0
  6
Continuous
 62
     7
370
    25
100
AcDbCircle
 10
950.2365645842
 20
601.9899258249
 30
0.0
 40
0.4499999999998035
100
AcDbArc
 50
144.4698842762
 51
221.1281260491
  0
ARC
  5
46A
330
1F
100
AcDbEntity
  8
0
  6
Continuous
 62
     7
370
    25
100
AcDbCircle
 10
949.8891580103
 20
603.7560822938
 30
0.0
 40
0.4500000000001694
100
AcDbArc
 50
161.1281260491
 51
237.7863678218
  0
ARC
  5
46B
330
1F
100
AcDbEntity
  8
0
  6
Continuous
 62
     7
370
    25
100
AcDbCircle
 10
-513.4076023337
 20
263.1738669778
 30
0.0
 40
2.250000000000275
100
AcDbArc
 50
41.1281260491
 51
101.1281260491
  0
ARC
  5
46C
330
1F
100
AcDbEntity
  8
0
  6
Continuous
 62
     7
370
    25
100
AcDbCircle
 10
-512.0517692516
 20
264.3578081307
 30
0.0
 40
0.4499999999999971
100
AcDbArc
 50
41.1281260491
 51
117.7863678218
  0
ARC
  5
46D
330
1F
100
AcDbEntity
  8
0
  6
Continuous
 62
     7
370
    25
100
AcDbCircle
 10
-513.7550089077
 20
264.9400234467
 30
0.0
 40
0.4500000000003056
100
AcDbArc
 50
24.4698842763
 51
101.128126049
  0
ARC
  5
46E
330
1F
100
AcDbEntity
  8
0
  6
Continuous
 62
     7
370
    25
100
AcDbCircle
 10
-512.6286622521
 20
265.4526143766
 30
0.0
 40
0.7875000000000435
100
AcDbArc
 50
204.4698842763
 51
297.7863678219
  0
ARC
  5
46F
330
1F
100
AcDbEntity
  8
0
  6
Continuous
 62
     7
370
    25
100
AcDbCircle
 10
-513.4076023337
 20
263.1738669778
 30
0.0
 40
2.25000000000022
100
AcDbArc
 50
341.1281260491
 51
41.1281260491
  0
ARC
  5
470
330
1F
100
AcDbEntity
  8
0
  6
Continuous
 62
     7
370
    25
100
AcDbCircle
 10
-511.7043626777
 20
262.5916516619
 30
0.0
 40
0.4500000000003679
100
AcDbArc
 50
341.1281260491
 51
57.7863678218
  0
ARC
  5
471
330
1F
100
AcDbEntity
  8
0
  6
Continuous
 62
     7
370
    25
100
AcDbCircle
 10
-511.0446791568
 20
263.6386587785
 30
0.0
 40
0.7875000000000262
100
AcDbArc
 50
144.4698842763
 51
237.7863678218
  0
ARC
  5
472
330
1F
100
AcDbEntity
  8
0
  6
Continuous
 62
     7
370
    25
100
AcDbCircle
 10
-512.0517692516
 20
264.3578081307
 30
0.0
 40
0.450000000000048
100
AcDbArc
 50
324.4698842763
 51
41.1281260491
  0
ARC
  5
473
330
1F
100
AcDbEntity
  8
0
  6
Continuous
 62
     7
370
    25
100
AcDbCircle
 10
-513.4076023337
 20
263.1738669778
 30
0.0
 40
2.250000000000275
100
AcDbArc
 50
101.1281260491
 51
161.1281260491
  0
ARC
  5
474
330
1F
100
AcDbEntity
  8
0
  6
Continuous
 62
     7
370
    25
100
AcDbCircle
 10
-515.1108419898
 20
263.7560822938
 30
0.0
 40
0.4500000000002604
100
AcDbArc
 50
84.4698842763
 51
161.1281260491
  0
ARC
  5
475
330
1F
100
AcDbEntity
  8
0
  6
Continuous
 62
     7
370
    25
100
AcDbCircle
 10
-513.7550089077
 20
264.9400234467
 30
0.0
 40
0.4500000000003056
100
AcDbArc
 50
101.128126049
 51
177.7863678219
  0
ARC
  5
476
330
1F
100
AcDbEntity
  8
0
  6
Continuous
 62
     7
370
    25
100
AcDbCircle
 10
-514.991585429
 20
264.9878225759
 30
0.0
 40
0.7874999999997128
100
AcDbArc
 50
264.4698842763
 51
357.7863678218
  0
ARC
  5
477
330
1F
100
AcDbEntity
  8
0
  6
Continuous
 62
     7
370
    25
100
AcDbCircle
 10
-513.4076023337
 20
263.1738669778
 30
0.0
 40
2.250000000000231
100
AcDbArc
 50
281.1281260491
 51
341.1281260491
  0
ARC
  5
478
330
1F
100
AcDbEntity
  8
0
  6
Continuous
 62
     7
370
    25
100
AcDbCircle
 10
-513.0601957598
 20
261.407710509
 30
0.0
 40
0.4500000000002617
100
AcDbArc
 50
281.128126049
 51
357.7863678219
  0
ARC
  5
479
330
1F
100
AcDbEntity
  8
0
  6
Continuous
 62
     7
370
    25
100
AcDbCircle
 10
-511.8236192384
 20
261.3599113797
 30
0.0
 40
0.7874999999998014
100
AcDbArc
 50
84.4698842763
 51
177.7863678218
  0
ARC
  5
47A
330
1F
100
AcDbEntity
  8
0
  6
Continuous
 62
     7
370
    25
100
AcDbCircle
 10
-511.7043626777
 20
262.5916516619
 30
0.0
 40
0.4500000000003679
100
AcDbArc
 50
264.4698842763
 51
341.1281260491
  0
ARC
  5
47B
330
1F
100
AcDbEntity
  8
0
  6
Continuous
 62
     7
370
    25
100
AcDbCircle
 10
-513.4076023337
 20
263.1738669778
 30
0.0
 40
2.250000000000255
100
AcDbArc
 50
161.1281260491
 51
221.1281260491
  0
ARC
  5
47C
330
1F
100
AcDbEntity
  8
0
  6
Continuous
 62
     7
370
    25
100
AcDbCircle
 10
-513.4076023337
 20
263.1738669778
 30
0.0
 40
2.250000000000231
100
AcDbArc
 50
221.1281260491
 51
281.1281260491
  0
CIRCLE
  5
47D
330
1F
100
AcDbEntity
  8
0
  6
Continuous
 62
     7
370
    25
100
AcDbCircle
 10
-513.4076023337
 20
263.1738669778
 30
0.0
 40
3.849999999999985
  0
ARC
  5
47E
330
1F
100
AcDbEntity
  8
0
  6
Continuous
 62
     7
370
    25
100
AcDbCircle
 10
-515.7705255107
 20
262.7090751772
 30
0.0
 40
0.7875000000000262
100
AcDbArc
 50
324.4698842763
 51
57.7863678218
  0
ARC
  5
47F
330
1F
100
AcDbEntity
  8
0
  6
Continuous
 62
     7
370
    25
100
AcDbCircle
 10
-514.7634354158
 20
261.9899258249
 30
0.0
 40
0.449999999999863
100
AcDbArc
 50
144.4698842763
 51
221.1281260491
  0
ARC
  5
480
330
1F
100
AcDbEntity
  8
0
  6
Continuous
 62
     7
370
    25
100
AcDbCircle
 10
-515.1108419898
 20
263.7560822938
 30
0.0
 40
0.4500000000002604
100
AcDbArc
 50
161.1281260491
 51
237.7863678218
  0
ARC
  5
481
330
1F
100
AcDbEntity
  8
0
  6
Continuous
 62
     7
370
    25
100
AcDbCircle
 10
-514.1865424154
 20
260.8951195791
 30
0.0
 40
0.7875000000000301
100
AcDbArc
 50
24.4698842763
 51
117.7863678218
  0
ARC
  5
482
330
1F
100
AcDbEntity
  8
0
  6
Continuous
 62
     7
370
    25
100
AcDbCircle
 10
-513.0601957598
 20
261.407710509
 30
0.0
 40
0.4500000000002617
100
AcDbArc
 50
204.4698842763
 51
281.128126049
  0
ARC
  5
483
330
1F
100
AcDbEntity
  8
0
  6
Continuous
 62
     7
370
    25
100
AcDbCircle
 10
-514.7634354158
 20
261.9899258249
 30
0.0
 40
0.4500000000000528
100
AcDbArc
 50
221.1281260491
 51
297.7863678219
  0
ARC
  5
484
330
1F
100
AcDbEntity
  8
0
  6
Continuous
 62
     7
370
    25
100
AcDbCircle
 10
951.5923976663
 20
423.1738669778
 30
0.0
 40
2.250000000000275
100
AcDbArc
 50
41.1281260491
 51
101.1281260491
  0
ARC
  5
485
330
1F
100
AcDbEntity
  8
0
  6
Continuous
 62
     7
370
    25
100
AcDbCircle
 10
952.9482307484
 20
424.3578081307
 30
0.0
 40
0.4500000000001004
100
AcDbArc
 50
41.1281260491
 51
117.7863678218
  0
ARC
  5
486
330
1F
100
AcDbEntity
  8
0
  6
Continuous
 62
     7
370
    25
100
AcDbCircle
 10
952.3713377479
 20
425.4526143766
 30
0.0
 40
0.7875000000000301
100
AcDbArc
 50
204.4698842763
 51
297.7863678219
  0
ARC
  5
487
330
1F
100
AcDbEntity
  8
0
  6
Continuous
 62
     7
370
    25
100
AcDbCircle
 10
951.2449910923
 20
424.9400234467
 30
0.0
 40
0.4500000000003056
100
AcDbArc
 50
24.4698842763
 51
101.128126049
  0
ARC
  5
488
330
1F
100
AcDbEntity
  8
0
  6
Continuous
 62
     7
370
    25
100
AcDbCircle
 10
951.5923976663
 20
423.1738669778
 30
0.0
 40
2.25000000000021
100
AcDbArc
 50
281.1281260491
 51
341.1281260491
  0
ARC
  5
489
330
1F
100
AcDbEntity
  8
0
  6
Continuous
 62
     7
370
    25
100
AcDbCircle
 10
951.9398042402
 20
421.407710509
 30
0.0
 40
0.4500000000002398
100
AcDbArc
 50
281.128126049
 51
357.7863678219
  0
ARC
  5
48A
330
1F
100
AcDbEntity
  8
0
  6
Continuous
 62
     7
370
    25
100
AcDbCircle
 10
953.2956373223
 20
422.5916516619
 30
0.0
 40
0.4500000000003679
100
AcDbArc
 50
264.4698842763
 51
341.1281260491
  0
ARC
  5
48B
330
1F
100
AcDbEntity
  8
0
  6
Continuous
 62
     7
370
    25
100
AcDbCircle
 10
953.1763807616
 20
421.3599113797
 30
0.0
 40
0.7874999999998014
100
AcDbArc
 50
84.4698842763
 51
177.7863678218
  0
ARC
  5
48C
330
1F
100
AcDbEntity
  8
0
  6
Continuous
 62
     7
370
    25
100
AcDbCircle
 10
951.5923976663
 20
423.1738669778
 30
0.0
 40
2.250000000000275
100
AcDbArc
 50
101.1281260491
 51
161.1281260491
  0
ARC
  5
48D
330
1F
100
AcDbEntity
  8
0
  6
Continuous
 62
     7
370
    25
100
AcDbCircle
 10
951.5923976663
 20
423.1738669778
 30
0.0
 40
2.250000000000274
100
AcDbArc
 50
161.1281260491
 51
221.1281260491
  0
ARC
  5
48E
330
1F
100
AcDbEntity
  8
0
  6
Continuous
 62
     7
370
    25
100
AcDbCircle
 10
951.5923976663
 20
423.1738669778
 30
0.0
 40
2.25000000000021
100
AcDbArc
 50
221.1281260491
 51
281.1281260491
  0
ARC
  5
48F
330
1F
100
AcDbEntity
  8
0
  6
Continuous
 62
     7
370
    25
100
AcDbCircle
 10
951.5923976663
 20
423.1738669778
 30
0.0
 40
2.250000000000166
100
AcDbArc
 50
341.1281260491
 51
41.1281260491
  0
CIRCLE
  5
490
330
1F
100
AcDbEntity
  8
0
  6
Continuous
 62
     7
370
    25
100
AcDbCircle
 10
951.5923976663
 20
423.1738669778
 30
0.0
 40
3.849999999999985
  0
ARC
  5
491
330
1F
100
AcDbEntity
  8
0
  6
Continuous
 62
     7
370
    25
100
AcDbCircle
 10
951.2449910923
 20
424.9400234467
 30
0.0
 40
0.4500000000003056
100
AcDbArc
 50
101.128126049
 51
177.7863678219
  0
ARC
  5
492
330
1F
100
AcDbEntity
  8
0
  6
Continuous
 62
     7
370
    25
100
AcDbCircle
 10
949.8891580103
 20
423.7560822938
 30
0.0
 40
0.4500000000001827
100
AcDbArc
 50
84.4698842763
 51
161.1281260491
  0
ARC
  5
493
330
1F
100
AcDbEntity
  8
0
  6
Continuous
 62
     7
370
    25
100
AcDbCircle
 10
950.008414571
 20
424.9878225759
 30
0.0
 40
0.7874999999997105
100
AcDbArc
 50
264.4698842763
 51
357.7863678218
  0
ARC
  5
494
330
1F
100
AcDbEntity
  8
0
  6
Continuous
 62
     7
370
    25
100
AcDbCircle
 10
953.2956373223
 20
422.5916516619
 30
0.0
 40
0.4500000000003679
100
AcDbArc
 50
341.1281260491
 51
57.7863678218
  0
ARC
  5
495
330
1F
100
AcDbEntity
  8
0
  6
Continuous
 62
     7
370
    25
100
AcDbCircle
 10
953.9553208433
 20
423.6386587785
 30
0.0
 40
0.7875000000000262
100
AcDbArc
 50
144.4698842763
 51
237.7863678218
  0
ARC
  5
496
330
1F
100
AcDbEntity
  8
0
  6
Continuous
 62
     7
370
    25
100
AcDbCircle
 10
952.9482307484
 20
424.3578081307
 30
0.0
 40
0.4499999999998894
100
AcDbArc
 50
324.4698842763
 51
41.1281260491
  0
ARC
  5
497
330
1F
100
AcDbEntity
  8
0
  6
Continuous
 62
     7
370
    25
100
AcDbCircle
 10
950.2365645842
 20
421.9899258249
 30
0.0
 40
0.4500000000001058
100
AcDbArc
 50
221.1281260491
 51
297.7863678219
  0
ARC
  5
498
330
1F
100
AcDbEntity
  8
0
  6
Continuous
 62
     7
370
    25
100
AcDbCircle
 10
950.8134575846
 20
420.8951195791
 30
0.0
 40
0.7875000000000536
100
AcDbArc
 50
24.4698842763
 51
117.7863678218
  0
ARC
  5
499
330
1F
100
AcDbEntity
  8
0
  6
Continuous
 62
     7
370
    25
100
AcDbCircle
 10
951.9398042402
 20
421.407710509
 30
0.0
 40
0.4500000000002398
100
AcDbArc
 50
204.4698842763
 51
281.128126049
  0
ARC
  5
49A
330
1F
100
AcDbEntity
  8
0
  6
Continuous
 62
     7
370
    25
100
AcDbCircle
 10
949.2294744893
 20
422.7090751772
 30
0.0
 40
0.7875000000000262
100
AcDbArc
 50
324.4698842763
 51
57.7863678219
  0
ARC
  5
49B
330
1F
100
AcDbEntity
  8
0
  6
Continuous
 62
     7
370
    25
100
AcDbCircle
 10
950.2365645842
 20
421.9899258249
 30
0.0
 40
0.4499999999997705
100
AcDbArc
 50
144.4698842763
 51
221.1281260491
  0
ARC
  5
49C
330
1F
100
AcDbEntity
  8
0
  6
Continuous
 62
     7
370
    25
100
AcDbCircle
 10
949.8891580103
 20
423.7560822938
 30
0.0
 40
0.4500000000001528
100
AcDbArc
 50
161.1281260491
 51
237.7863678218
  0
ARC
  5
49D
330
1F
100
AcDbEntity
  8
0
  6
Continuous
 62
     7
370
    25
100
AcDbCircle
 10
951.5923976663
 20
263.1738669778
 30
0.0
 40
2.250000000000255
100
AcDbArc
 50
281.1281260491
 51
341.1281260491
  0
ARC
  5
49E
330
1F
100
AcDbEntity
  8
0
  6
Continuous
 62
     7
370
    25
100
AcDbCircle
 10
951.9398042402
 20
261.407710509
 30
0.0
 40
0.4500000000003175
100
AcDbArc
 50
281.128126049
 51
357.7863678219
  0
ARC
  5
49F
330
1F
100
AcDbEntity
  8
0
  6
Continuous
 62
     7
370
    25
100
AcDbCircle
 10
953.1763807616
 20
261.3599113797
 30
0.0
 40
0.787499999999858
100
AcDbArc
 50
84.4698842763
 51
177.7863678218
  0
ARC
  5
4A0
330
1F
100
AcDbEntity
  8
0
  6
Continuous
 62
     7
370
    25
100
AcDbCircle
 10
953.2956373223
 20
262.5916516619
 30
0.0
 40
0.4500000000004571
100
AcDbArc
 50
264.4698842763
 51
341.1281260491
  0
ARC
  5
4A1
330
1F
100
AcDbEntity
  8
0
  6
Continuous
 62
     7
370
    25
100
AcDbCircle
 10
951.5923976663
 20
263.1738669778
 30
0.0
 40
2.250000000000331
100
AcDbArc
 50
101.1281260491
 51
161.1281260491
  0
ARC
  5
4A2
330
1F
100
AcDbEntity
  8
0
  6
Continuous
 62
     7
370
    25
100
AcDbCircle
 10
951.2449910923
 20
264.9400234467
 30
0.0
 40
0.4500000000003614
100
AcDbArc
 50
101.128126049
 51
177.7863678219
  0
ARC
  5
4A3
330
1F
100
AcDbEntity
  8
0
  6
Continuous
 62
     7
370
    25
100
AcDbCircle
 10
950.008414571
 20
264.9878225759
 30
0.0
 40
0.7874999999997447
100
AcDbArc
 50
264.4698842763
 51
357.7863678218
  0
ARC
  5
4A4
330
1F
100
AcDbEntity
  8
0
  6
Continuous
 62
     7
370
    25
100
AcDbCircle
 10
949.8891580103
 20
263.7560822938
 30
0.0
 40
0.450000000000242
100
AcDbArc
 50
84.4698842763
 51
161.1281260491
  0
ARC
  5
4A5
330
1F
100
AcDbEntity
  8
0
  6
Continuous
 62
     7
370
    25
100
AcDbCircle
 10
951.5923976663
 20
263.1738669778
 30
0.0
 40
2.250000000000331
100
AcDbArc
 50
41.1281260491
 51
101.1281260491
  0
ARC
  5
4A6
330
1F
100
AcDbEntity
  8
0
  6
Continuous
 62
     7
370
    25
100
AcDbCircle
 10
951.5923976663
 20
263.1738669778
 30
0.0
 40
2.250000000000255
100
AcDbArc
 50
161.1281260491
 51
221.1281260491
  0
ARC
  5
4A7
330
1F
100
AcDbEntity
  8
0
  6
Continuous
 62
     7
370
    25
100
AcDbCircle
 10
951.5923976663
 20
263.1738669778
 30
0.0
 40
2.250000000000231
100
AcDbArc
 50
221.1281260491
 51
281.1281260491
  0
ARC
  5
4A8
330
1F
100
AcDbEntity
  8
0
  6
Continuous
 62
     7
370
    25
100
AcDbCircle
 10
951.5923976663
 20
263.1738669778
 30
0.0
 40
2.250000000000255
100
AcDbArc
 50
341.1281260491
 51
41.1281260491
  0
CIRCLE
  5
4A9
330
1F
100
AcDbEntity
  8
0
  6
Continuous
 62
     7
370
    25
100
AcDbCircle
 10
951.5923976663
 20
263.1738669778
 30
0.0
 40
3.850000000000022
  0
ARC
  5
4AA
330
1F
100
AcDbEntity
  8
0
  6
Continuous
 62
     7
370
    25
100
AcDbCircle
 10
953.9553208433
 20
263.6386587785
 30
0.0
 40
0.7875000000000262
100
AcDbArc
 50
144.4698842763
 51
237.7863678218
  0
ARC
  5
4AB
330
1F
100
AcDbEntity
  8
0
  6
Continuous
 62
     7
370
    25
100
AcDbCircle
 10
952.9482307484
 20
264.3578081307
 30
0.0
 40
0.4500000000000811
100
AcDbArc
 50
324.4698842763
 51
41.1281260491
  0
ARC
  5
4AC
330
1F
100
AcDbEntity
  8
0
  6
Continuous
 62
     7
370
    25
100
AcDbCircle
 10
953.2956373223
 20
262.5916516619
 30
0.0
 40
0.4500000000004571
100
AcDbArc
 50
341.1281260491
 51
57.7863678218
  0
ARC
  5
4AD
330
1F
100
AcDbEntity
  8
0
  6
Continuous
 62
     7
370
    25
100
AcDbCircle
 10
952.9482307484
 20
264.3578081307
 30
0.0
 40
0.4499999999999971
100
AcDbArc
 50
41.1281260491
 51
117.7863678218
  0
ARC
  5
4AE
330
1F
100
AcDbEntity
  8
0
  6
Continuous
 62
     7
370
    25
100
AcDbCircle
 10
951.2449910923
 20
264.9400234467
 30
0.0
 40
0.4500000000003614
100
AcDbArc
 50
24.4698842763
 51
101.128126049
  0
ARC
  5
4AF
330
1F
100
AcDbEntity
  8
0
  6
Continuous
 62
     7
370
    25
100
AcDbCircle
 10
952.3713377479
 20
265.4526143766
 30
0.0
 40
0.7875000000000301
100
AcDbArc
 50
204.4698842763
 51
297.7863678219
  0
ARC
  5
4B0
330
1F
100
AcDbEntity
  8
0
  6
Continuous
 62
     7
370
    25
100
AcDbCircle
 10
949.8891580103
 20
263.7560822938
 30
0.0
 40
0.450000000000242
100
AcDbArc
 50
161.1281260491
 51
237.7863678218
  0
ARC
  5
4B1
330
1F
100
AcDbEntity
  8
0
  6
Continuous
 62
     7
370
    25
100
AcDbCircle
 10
949.2294744893
 20
262.7090751772
 30
0.0
 40
0.7875000000000262
100
AcDbArc
 50
324.4698842763
 51
57.7863678219
  0
ARC
  5
4B2
330
1F
100
AcDbEntity
  8
0
  6
Continuous
 62
     7
370
    25
100
AcDbCircle
 10
950.2365645842
 20
261.9899258249
 30
0.0
 40
0.449999999999896
100
AcDbArc
 50
144.4698842763
 51
221.1281260491
  0
ARC
  5
4B3
330
1F
100
AcDbEntity
  8
0
  6
Continuous
 62
     7
370
    25
100
AcDbCircle
 10
951.9398042402
 20
261.407710509
 30
0.0
 40
0.4500000000003175
100
AcDbArc
 50
204.4698842763
 51
281.128126049
  0
ARC
  5
4B4
330
1F
100
AcDbEntity
  8
0
  6
Continuous
 62
     7
370
    25
100
AcDbCircle
 10
950.8134575846
 20
260.8951195791
 30
0.0
 40
0.7875000000000301
100
AcDbArc
 50
24.4698842763
 51
117.7863678218
  0
ARC
  5
4B5
330
1F
100
AcDbEntity
  8
0
  6
Continuous
 62
     7
370
    25
100
AcDbCircle
 10
950.2365645842
 20
261.9899258249
 30
0.0
 40
0.4500000000000528
100
AcDbArc
 50
221.1281260491
 51
297.7863678219
  0
ARC
  5
4B6
330
1F
100
AcDbEntity
  8
0
  6
Continuous
 62
     7
370
    25
100
AcDbCircle
 10
951.5923976663
 20
38.1738669778
 30
0.0
 40
2.250000000000262
100
AcDbArc
 50
341.1281260491
 51
41.1281260491
  0
ARC
  5
4B7
330
1F
100
AcDbEntity
  8
0
  6
Continuous
 62
     7
370
    25
100
AcDbCircle
 10
953.2956373223
 20
37.5916516619
 30
0.0
 40
0.4500000000003587
100
AcDbArc
 50
341.1281260491
 51
57.7863678218
  0
ARC
  5
4B8
330
1F
100
AcDbEntity
  8
0
  6
Continuous
 62
     7
370
    25
100
AcDbCircle
 10
953.9553208432
 20
38.6386587785
 30
0.0
 40
0.7875000000000221
100
AcDbArc
 50
144.4698842763
 51
237.7863678218
  0
ARC
  5
4B9
330
1F
100
AcDbEntity
  8
0
  6
Continuous
 62
     7
370
    25
100
AcDbCircle
 10
952.9482307484
 20
39.3578081307
 30
0.0
 40
0.4499999999999513
100
AcDbArc
 50
324.4698842763
 51
41.1281260491
  0
ARC
  5
4BA
330
1F
100
AcDbEntity
  8
0
  6
Continuous
 62
     7
370
    25
100
AcDbCircle
 10
951.5923976663
 20
38.1738669778
 30
0.0
 40
2.250000000000274
100
AcDbArc
 50
101.1281260491
 51
161.1281260491
  0
ARC
  5
4BB
330
1F
100
AcDbEntity
  8
0
  6
Continuous
 62
     7
370
    25
100
AcDbCircle
 10
951.2449910923
 20
39.9400234467
 30
0.0
 40
0.4500000000003115
100
AcDbArc
 50
101.128126049
 51
177.7863678219
  0
ARC
  5
4BC
330
1F
100
AcDbEntity
  8
0
  6
Continuous
 62
     7
370
    25
100
AcDbCircle
 10
950.008414571
 20
39.9878225759
 30
0.0
 40
0.787499999999759
100
AcDbArc
 50
264.4698842763
 51
357.7863678218
  0
ARC
  5
4BD
330
1F
100
AcDbEntity
  8
0
  6
Continuous
 62
     7
370
    25
100
AcDbCircle
 10
949.8891580102
 20
38.7560822938
 30
0.0
 40
0.4500000000001685
100
AcDbArc
 50
84.4698842763
 51
161.1281260491
  0
ARC
  5
4BE
330
1F
100
AcDbEntity
  8
0
  6
Continuous
 62
     7
370
    25
100
AcDbCircle
 10
951.5923976663
 20
38.1738669778
 30
0.0
 40
2.250000000000274
100
AcDbArc
 50
41.1281260491
 51
101.1281260491
  0
ARC
  5
4BF
330
1F
100
AcDbEntity
  8
0
  6
Continuous
 62
     7
370
    25
100
AcDbCircle
 10
951.5923976663
 20
38.1738669778
 30
0.0
 40
2.250000000000157
100
AcDbArc
 50
161.1281260491
 51
221.1281260491
  0
ARC
  5
4C0
330
1F
100
AcDbEntity
  8
0
  6
Continuous
 62
     7
370
    25
100
AcDbCircle
 10
951.5923976663
 20
38.1738669778
 30
0.0
 40
2.250000000000238
100
AcDbArc
 50
221.1281260491
 51
281.1281260491
  0
ARC
  5
4C1
330
1F
100
AcDbEntity
  8
0
  6
Continuous
 62
     7
370
    25
100
AcDbCircle
 10
951.5923976663
 20
38.1738669778
 30
0.0
 40
2.250000000000262
100
AcDbArc
 50
281.1281260491
 51
341.1281260491
  0
CIRCLE
  5
4C2
330
1F
100
AcDbEntity
  8
0
  6
Continuous
 62
     7
370
    25
100
AcDbCircle
 10
951.5923976663
 20
38.1738669778
 30
0.0
 40
3.849999999999999
  0
ARC
  5
4C3
330
1F
100
AcDbEntity
  8
0
  6
Continuous
 62
     7
370
    25
100
AcDbCircle
 10
951.9398042402
 20
36.407710509
 30
0.0
 40
0.4500000000002896
100
AcDbArc
 50
281.128126049
 51
357.7863678219
  0
ARC
  5
4C4
330
1F
100
AcDbEntity
  8
0
  6
Continuous
 62
     7
370
    25
100
AcDbCircle
 10
953.2956373223
 20
37.5916516619
 30
0.0
 40
0.4500000000003587
100
AcDbArc
 50
264.4698842763
 51
341.1281260491
  0
ARC
  5
4C5
330
1F
100
AcDbEntity
  8
0
  6
Continuous
 62
     7
370
    25
100
AcDbCircle
 10
953.1763807616
 20
36.3599113797
 30
0.0
 40
0.7874999999997659
100
AcDbArc
 50
84.4698842763
 51
177.7863678218
  0
ARC
  5
4C6
330
1F
100
AcDbEntity
  8
0
  6
Continuous
 62
     7
370
    25
100
AcDbCircle
 10
952.3713377479
 20
40.4526143766
 30
0.0
 40
0.7875000000000625
100
AcDbArc
 50
204.4698842763
 51
297.7863678219
  0
ARC
  5
4C7
330
1F
100
AcDbEntity
  8
0
  6
Continuous
 62
     7
370
    25
100
AcDbCircle
 10
951.2449910923
 20
39.9400234467
 30
0.0
 40
0.4500000000003255
100
AcDbArc
 50
24.4698842763
 51
101.128126049
  0
ARC
  5
4C8
330
1F
100
AcDbEntity
  8
0
  6
Continuous
 62
     7
370
    25
100
AcDbCircle
 10
952.9482307484
 20
39.3578081307
 30
0.0
 40
0.4500000000000375
100
AcDbArc
 50
41.1281260491
 51
117.7863678218
  0
ARC
  5
4C9
330
1F
100
AcDbEntity
  8
0
  6
Continuous
 62
     7
370
    25
100
AcDbCircle
 10
950.2365645842
 20
36.9899258249
 30
0.0
 40
0.4500000000001373
100
AcDbArc
 50
221.1281260491
 51
297.7863678219
  0
ARC
  5
4CA
330
1F
100
AcDbEntity
  8
0
  6
Continuous
 62
     7
370
    25
100
AcDbCircle
 10
951.9398042402
 20
36.407710509
 30
0.0
 40
0.4500000000002896
100
AcDbArc
 50
204.4698842763
 51
281.128126049
  0
ARC
  5
4CB
330
1F
100
AcDbEntity
  8
0
  6
Continuous
 62
     7
370
    25
100
AcDbCircle
 10
950.8134575846
 20
35.8951195791
 30
0.0
 40
0.7875000000000448
100
AcDbArc
 50
24.4698842763
 51
117.7863678218
  0
ARC
  5
4CC
330
1F
100
AcDbEntity
  8
0
  6
Continuous
 62
     7
370
    25
100
AcDbCircle
 10
949.8891580102
 20
38.7560822938
 30
0.0
 40
0.4500000000001436
100
AcDbArc
 50
161.1281260491
 51
237.7863678218
  0
ARC
  5
4CD
330
1F
100
AcDbEntity
  8
0
  6
Continuous
 62
     7
370
    25
100
AcDbCircle
 10
949.2294744893
 20
37.7090751772
 30
0.0
 40
0.7875000000000179
100
AcDbArc
 50
324.4698842763
 51
57.7863678219
  0
ARC
  5
4CE
330
1F
100
AcDbEntity
  8
0
  6
Continuous
 62
     7
370
    25
100
AcDbCircle
 10
950.2365645842
 20
36.9899258249
 30
0.0
 40
0.4499999999997746
100
AcDbArc
 50
144.4698842763
 51
221.1281260491
  0
CIRCLE
  5
4CF
330
1F
100
AcDbEntity
  8
0
  6
Continuous
 62
     7
370
    25
100
AcDbCircle
 10
-434.996818253
 20
804.7630828971
 30
0.0
 40
6.637921400061344
  0
CIRCLE
  5
4D0
330
1F
100
AcDbEntity
  8
0
  6
Continuous
 62
     7
370
    25
100
AcDbCircle
 10
873.1816135855
 20
804.7630828971
 30
0.0
 40
6.637921400061507
  0
CIRCLE
  5
4D1
330
1F
100
AcDbEntity
  8
0
  6
Continuous
 62
     7
370
    25
100
AcDbCircle
 10
873.1816135855
 20
-503.4153489414
 30
0.0
 40
6.637921400061416
  0
CIRCLE
  5
4D2
330
1F
100
AcDbEntity
  8
0
  6
Continuous
 62
     7
370
    25
100
AcDbCircle
 10
-434.996818253
 20
-503.4153489414
 30
0.0
 40
6.637921400061444
  0
LINE
  5
4D3
330
1F
100
AcDbEntity
  8
0
  6
Continuous
 62
     8
370
    25
100
AcDbLine
 10
935.1456866644
 20
-591.3111265165
 30
0.0
 11
918.0391086682
 21
-591.3111265165
 31
0.0
  0
LINE
  5
4D4
330
1F
100
AcDbEntity
  8
0
  6
Continuous
 62
     8
370
    25
100
AcDbLine
 10
961.0773911606
 20
866.727155976
 30
0.0
 11
961.0773911606
 21
849.6205779797
 31
0.0
  0
LINE
  5
4D5
330
1F
100
AcDbEntity
  8
0
  6
Continuous
 62
     8
370
    25
100
AcDbLine
 10
961.0773911606
 20
-548.272844024
 30
0.0
 11
961.0773911606
 21
-565.3794220203
 31
0.0
  0
LINE
  5
4D6
330
1F
100
AcDbEntity
  8
0
  6
Continuous
 62
     8
370
    25
100
AcDbLine
 10
-522.892595828
 20
849.6205779797
 30
0.0
 11
-522.892595828
 21
866.727155976
 31
0.0
  0
LINE
  5
4D7
330
1F
100
AcDbEntity
  8
0
  6
Continuous
 62
     8
370
    25
100
AcDbLine
 10
-496.9608913318
 20
892.6588604721
 30
0.0
 11
-479.8543133356
 21
892.6588604721
 31
0.0
  0
LINE
  5
4D8
330
1F
100
AcDbEntity
  8
0
  6
Continuous
 62
     8
370
    25
100
AcDbLine
 10
918.0391086682
 20
892.6588604721
 30
0.0
 11
935.1456866644
 21
892.6588604721
 31
0.0
  0
LINE
  5
4D9
330
1F
100
AcDbEntity
  8
0
  6
Continuous
 62
     8
370
    25
100
AcDbLine
 10
-522.892595828
 20
-565.3794220203
 30
0.0
 11
-522.892595828
 21
-548.272844024
 31
0.0
  0
LINE
  5
4DA
330
1F
100
AcDbEntity
  8
0
  6
Continuous
 62
     8
370
    25
100
AcDbLine
 10
-479.8543133356
 20
-591.3111265165
 30
0.0
 11
-496.9608913318
 21
-591.3111265165
 31
0.0
  0
ENDSEC
  0
SECTION
  2
OBJECTS
  0
DICTIONARY
  5
C
330
0
100
AcDbDictionary
281
     1
  3
ACAD_GROUP
350
D
  3
ACAD_LAYOUT
350
1A
  3
ACAD_MLINESTYLE
350
17
  3
ACAD_PLOTSETTINGS
350
19
  3
ACAD_PLOTSTYLENAME
350
E
  3
ACAD_SCALELIST
350
47
  3
DWGPROPS
350
4DB
  0
DICTIONARY
  5
D
102
{ACAD_REACTORS
330
C
102
}
330
C
100
AcDbDictionary
281
     1
  0
DICTIONARY
  5
1A
102
{ACAD_REACTORS
330
C
102
}
330
C
100
AcDbDictionary
281
     1
  3
Layout1
350
1E
  3
Layout2
350
26
  3
Model
350
22
  0
DICTIONARY
  5
17
102
{ACAD_REACTORS
330
C
102
}
330
C
100
AcDbDictionary
281
     1
  3
Standard
350
18
  0
DICTIONARY
  5
19
102
{ACAD_REACTORS
330
C
102
}
330
C
100
AcDbDictionary
281
     1
  0
ACDBDICTIONARYWDFLT
  5
E
102
{ACAD_REACTORS
330
C
102
}
330
C
100
AcDbDictionary
281
     1
  3
Normal
350
F
100
AcDbDictionaryWithDefault
340
F
  0
DICTIONARY
  5
47
102
{ACAD_REACTORS
330
C
102
}
330
C
100
AcDbDictionary
281
     1
  3
A0
350
48
  3
A1
350
49
  3
A2
350
4A
  3
A3
350
4B
  3
A4
350
4C
  3
A5
350
4D
  3
A6
350
4E
  3
A7
350
4F
  3
A8
350
50
  3
A9
350
51
  3
B0
350
52
  3
B1
350
53
  3
B2
350
54
  3
B3
350
55
  3
B4
350
56
  3
B5
350
57
  3
B6
350
58
  3
B7
350
59
  3
B8
350
5A
  3
B9
350
5B
  3
C0
350
5C
  3
C1
350
5D
  3
C2
350
5E
  3
C3
350
5F
  3
C4
350
60
  3
C5
350
61
  3
C6
350
62
  3
C7
350
63
  3
C8
350
64
  3
C9
350
65
  3
D0
350
66
  3
D1
350
67
  3
D2
350
68
  0
XRECORD
  5
4DB
102
{ACAD_REACTORS
330
C
102
}
330
C
100
AcDbXrecord
280
     1
  1
DWGPROPS COOKIE
  2

  3

  4

  6

  7

  8
Swing
  9

300
=
301
=
302
=
303
=
304
=
305
=
306
=
307
=
308
=
309
=
 40
0.0
 41
2459730.372030335
 42
2459730.372030949
  1

 90
        0
  0
LAYOUT
  5
1E
102
{ACAD_REACTORS
330
1A
102
}
330
1A
100
AcDbPlotSettings
  1

  2
none_device
  4

  6

 40
0.0
 41
0.0
 42
0.0
 43
0.0
 44
0.0
 45
0.0
 46
0.0
 47
0.0
 48
0.0
 49
0.0
140
0.0
141
0.0
142
1.0
143
1.0
 70
   688
 72
     1
 73
     0
 74
     5
  7

 75
    16
147
1.0
148
0.0
149
0.0
100
AcDbLayout
  1
Layout1
 70
     1
 71
     1
 10
0.0
 20
0.0
 11
420.0
 21
297.0
 12
0.0
 22
0.0
 32
0.0
 14
1.0000000000E+20
 24
1.0000000000E+20
 34
1.0000000000E+20
 15
-1.0000000000E+20
 25
-1.0000000000E+20
 35
-1.0000000000E+20
146
0.0
 13
0.0
 23
0.0
 33
0.0
 16
1.0
 26
0.0
 36
0.0
 17
0.0
 27
1.0
 37
0.0
 76
     0
330
1B
  0
LAYOUT
  5
26
102
{ACAD_REACTORS
330
1A
102
}
330
1A
100
AcDbPlotSettings
  1

  2
none_device
  4

  6

 40
0.0
 41
0.0
 42
0.0
 43
0.0
 44
0.0
 45
0.0
 46
0.0
 47
0.0
 48
0.0
 49
0.0
140
0.0
141
0.0
142
1.0
143
1.0
 70
   688
 72
     1
 73
     0
 74
     5
  7

 75
    16
147
1.0
148
0.0
149
0.0
100
AcDbLayout
  1
Layout2
 70
     1
 71
     2
 10
0.0
 20
0.0
 11
0.0
 21
0.0
 12
0.0
 22
0.0
 32
0.0
 14
0.0
 24
0.0
 34
0.0
 15
0.0
 25
0.0
 35
0.0
146
0.0
 13
0.0
 23
0.0
 33
0.0
 16
1.0
 26
0.0
 36
0.0
 17
0.0
 27
1.0
 37
0.0
 76
     0
330
23
  0
LAYOUT
  5
22
102
{ACAD_REACTORS
330
1A
102
}
330
1A
100
AcDbPlotSettings
  1

  2
none_device
  4
Letter_(8.50_x_11.00_Inches)
  6

 40
6.35
 41
6.35
 42
6.35000508
 43
6.35000508
 44
215.9
 45
279.4
 46
0.0
 47
0.0
 48
0.0
 49
0.0
140
0.0
141
0.0
142
1.0
143
1.0
 70
  1712
 72
     1
 73
     0
 74
     0
  7

 75
     0
147
1.0
148
0.0
149
0.0
100
AcDbLayout
  1
Model
 70
     1
 71
     0
 10
0.0
 20
0.0
 11
431.8
 21
279.4
 12
0.0
 22
0.0
 32
0.0
 14
0.0
 24
0.0
 34
0.0
 15
431.8
 25
279.4
 35
0.0
146
0.0
 13
0.0
 23
0.0
 33
0.0
 16
1.0
 26
0.0
 36
0.0
 17
0.0
 27
1.0
 37
0.0
 76
     0
330
1F
331
29
  0
MLINESTYLE
  5
18
102
{ACAD_REACTORS
330
17
102
}
330
17
100
AcDbMlineStyle
  2
Standard
 70
     0
  3

 62
   256
 51
90.0
 52
90.0
 71
     2
 49
0.5
 62
   256
  6
BYLAYER
 49
-0.5
 62
   256
  6
BYLAYER
  0
ACDBPLACEHOLDER
  5
F
102
{ACAD_REACTORS
330
E
102
}
330
E
  0
SCALE
  5
48
102
{ACAD_REACTORS
330
47
102
}
330
47
100
AcDbScale
 70
     0
300
1:1
140
1.0
141
1.0
290
     1
  0
SCALE
  5
49
102
{ACAD_REACTORS
330
47
102
}
330
47
100
AcDbScale
 70
     0
300
1:2
140
1.0
141
2.0
290
     0
  0
SCALE
  5
4A
102
{ACAD_REACTORS
330
47
102
}
330
47
100
AcDbScale
 70
     0
300
1:4
140
1.0
141
4.0
290
     0
  0
SCALE
  5
4B
102
{ACAD_REACTORS
330
47
102
}
330
47
100
AcDbScale
 70
     0
300
1:5
140
1.0
141
5.0
290
     0
  0
SCALE
  5
4C
102
{ACAD_REACTORS
330
47
102
}
330
47
100
AcDbScale
 70
     0
300
1:8
140
1.0
141
8.0
290
     0
  0
SCALE
  5
4D
102
{ACAD_REACTORS
330
47
102
}
330
47
100
AcDbScale
 70
     0
300
1:10
140
1.0
141
10.0
290
     0
  0
SCALE
  5
4E
102
{ACAD_REACTORS
330
47
102
}
330
47
100
AcDbScale
 70
     0
300
1:16
140
1.0
141
16.0
290
     0
  0
SCALE
  5
4F
102
{ACAD_REACTORS
330
47
102
}
330
47
100
AcDbScale
 70
     0
300
1:20
140
1.0
141
20.0
290
     0
  0
SCALE
  5
50
102
{ACAD_REACTORS
330
47
102
}
330
47
100
AcDbScale
 70
     0
300
1:30
140
1.0
141
30.0
290
     0
  0
SCALE
  5
51
102
{ACAD_REACTORS
330
47
102
}
330
47
100
AcDbScale
 70
     0
300
1:40
140
1.0
141
40.0
290
     0
  0
SCALE
  5
52
102
{ACAD_REACTORS
330
47
102
}
330
47
100
AcDbScale
 70
     0
300
1:50
140
1.0
141
50.0
290
     0
  0
SCALE
  5
53
102
{ACAD_REACTORS
330
47
102
}
330
47
100
AcDbScale
 70
     0
300
1:100
140
1.0
141
100.0
290
     0
  0
SCALE
  5
54
102
{ACAD_REACTORS
330
47
102
}
330
47
100
AcDbScale
 70
     0
300
2:1
140
2.0
141
1.0
290
     0
  0
SCALE
  5
55
102
{ACAD_REACTORS
330
47
102
}
330
47
100
AcDbScale
 70
     0
300
4:1
140
4.0
141
1.0
290
     0
  0
SCALE
  5
56
102
{ACAD_REACTORS
330
47
102
}
330
47
100
AcDbScale
 70
     0
300
8:1
140
8.0
141
1.0
290
     0
  0
SCALE
  5
57
102
{ACAD_REACTORS
330
47
102
}
330
47
100
AcDbScale
 70
     0
300
10:1
140
10.0
141
1.0
290
     0
  0
SCALE
  5
58
102
{ACAD_REACTORS
330
47
102
}
330
47
100
AcDbScale
 70
     0
300
100:1
140
100.0
141
1.0
290
     0
  0
SCALE
  5
59
102
{ACAD_REACTORS
330
47
102
}
330
47
100
AcDbScale
 70
     0
300
1/128" = 1'-0"
140
0.0078125
141
12.0
290
     0
  0
SCALE
  5
5A
102
{ACAD_REACTORS
330
47
102
}
330
47
100
AcDbScale
 70
     0
300
1/64" = 1'-0"
140
0.015625
141
12.0
290
     0
  0
SCALE
  5
5B
102
{ACAD_REACTORS
330
47
102
}
330
47
100
AcDbScale
 70
     0
300
1/32" = 1'-0"
140
0.03125
141
12.0
290
     0
  0
SCALE
  5
5C
102
{ACAD_REACTORS
330
47
102
}
330
47
100
AcDbScale
 70
     0
300
1/16" = 1'-0"
140
0.0625
141
12.0
290
     0
  0
SCALE
  5
5D
102
{ACAD_REACTORS
330
47
102
}
330
47
100
AcDbScale
 70
     0
300
3/32" = 1'-0"
140
0.09375
141
12.0
290
     0
  0
SCALE
  5
5E
102
{ACAD_REACTORS
330
47
102
}
330
47
100
AcDbScale
 70
     0
300
1/8" = 1'-0"
140
0.125
141
12.0
290
     0
  0
SCALE
  5
5F
102
{ACAD_REACTORS
330
47
102
}
330
47
100
AcDbScale
 70
     0
300
3/16" = 1'-0"
140
0.1875
141
12.0
290
     0
  0
SCALE
  5
60
102
{ACAD_REACTORS
330
47
102
}
330
47
100
AcDbScale
 70
     0
300
1/4" = 1'-0"
140
0.25
141
12.0
290
     0
  0
SCALE
  5
61
102
{ACAD_REACTORS
330
47
102
}
330
47
100
AcDbScale
 70
     0
300
3/8" = 1'-0"
140
0.375
141
12.0
290
     0
  0
SCALE
  5
62
102
{ACAD_REACTORS
330
47
102
}
330
47
100
AcDbScale
 70
     0
300
1/2" = 1'-0"
140
0.5
141
12.0
290
     0
  0
SCALE
  5
63
102
{ACAD_REACTORS
330
47
102
}
330
47
100
AcDbScale
 70
     0
300
3/4" = 1'-0"
140
0.75
141
12.0
290
     0
  0
SCALE
  5
64
102
{ACAD_REACTORS
330
47
102
}
330
47
100
AcDbScale
 70
     0
300
1" = 1'-0"
140
1.0
141
12.0
290
     0
  0
SCALE
  5
65
102
{ACAD_REACTORS
330
47
102
}
330
47
100
AcDbScale
 70
     0
300
1-1/2" = 1'-0"
140
1.5
141
12.0
290
     0
  0
SCALE
  5
66
102
{ACAD_REACTORS
330
47
102
}
330
47
100
AcDbScale
 70
     0
300
3" = 1'-0"
140
3.0
141
12.0
290
     0
  0
SCALE
  5
67
102
{ACAD_REACTORS
330
47
102
}
330
47
100
AcDbScale
 70
     0
300
6" = 1'-0"
140
6.0
141
12.0
290
     0
  0
SCALE
  5
68
102
{ACAD_REACTORS
330
47
102
}
330
47
100
AcDbScale
 70
     0
300
1'-0" = 1'-0"
140
12.0
141
12.0
290
     0
  0
ENDSEC
  0
EOF
