  0
SECTION
  2
HEADER
  9
$ACADVER
  1
AC1015
  9
$ACADMAINTVER
 70
     6
  9
$DWGCODEPAGE
  3
ANSI_1250
  9
$INSBASE
 10
0.0
 20
0.0
 30
0.0
  9
$EXTMIN
 10
0.0
 20
0.0
 30
0.0
  9
$EXTMAX
 10
431.8
 20
279.4
 30
0.0
  9
$LIMMIN
 10
0.0
 20
0.0
  9
$LIMMAX
 10
431.8
 20
279.4
  9
$ORTHOMODE
 70
     0
  9
$REGENMODE
 70
     1
  9
$FILLMODE
 70
     1
  9
$QTEXTMODE
 70
     0
  9
$MIRRTEXT
 70
     1
  9
$LTSCALE
 40
1.0
  9
$ATTMODE
 70
     1
  9
$TEXTSIZE
 40
3.8805555556
  9
$TRACEWID
 40
1.0
  9
$TEXTSTYLE
  7
Standard
  9
$CLAYER
  8
0
  9
$CELTYPE
  6
ByLayer
  9
$CECOLOR
 62
   256
  9
$CELTSCALE
 40
1.0
  9
$DISPSILH
 70
     0
  9
$DIMSCALE
 40
1.0
  9
$DIMASZ
 40
3.302
  9
$DIMEXO
 40
1.0
  9
$DIMDLI
 40
3.75
  9
$DIMRND
 40
0.0
  9
$DIMDLE
 40
0.0
  9
$DIMEXE
 40
1.0
  9
$DIMTP
 40
0.0
  9
$DIMTM
 40
0.0
  9
$DIMTXT
 40
3.8805555556
  9
$DIMCEN
 40
2.5
  9
$DIMTSZ
 40
0.0
  9
$DIMTOL
 70
     0
  9
$DIMLIM
 70
     0
  9
$DIMTIH
 70
     1
  9
$DIMTOH
 70
     1
  9
$DIMSE1
 70
     0
  9
$DIMSE2
 70
     0
  9
$DIMTAD
 70
     1
  9
$DIMZIN
 70
     0
  9
$DIMBLK
  1

  9
$DIMASO
 70
     1
  9
$DIMSHO
 70
     1
  9
$DIMPOST
  1

  9
$DIMAPOST
  1

  9
$DIMALT
 70
     0
  9
$DIMALTD
 70
     3
  9
$DIMALTF
 40
0.0393700787
  9
$DIMLFAC
 40
1.0
  9
$DIMTOFL
 70
     1
  9
$DIMTVP
 40
0.0
  9
$DIMTIX
 70
     0
  9
$DIMSOXD
 70
     0
  9
$DIMSAH
 70
     0
  9
$DIMBLK1
  1

  9
$DIMBLK2
  1

  9
$DIMSTYLE
  2
ISO-25
  9
$DIMCLRD
 70
     0
  9
$DIMCLRE
 70
     0
  9
$DIMCLRT
 70
     0
  9
$DIMTFAC
 40
1.0
  9
$DIMGAP
 40
1.524
  9
$DIMJUST
 70
     0
  9
$DIMSD1
 70
     0
  9
$DIMSD2
 70
     0
  9
$DIMTOLJ
 70
     0
  9
$DIMTZIN
 70
     0
  9
$DIMALTZ
 70
     0
  9
$DIMALTTZ
 70
     0
  9
$DIMUPT
 70
     0
  9
$DIMDEC
 70
     1
  9
$DIMTDEC
 70
     1
  9
$DIMALTU
 70
     2
  9
$DIMALTTD
 70
     3
  9
$DIMTXSTY
  7
Standard
  9
$DIMAUNIT
 70
     0
  9
$DIMADEC
 70
     1
  9
$DIMALTRND
 40
0.0
  9
$DIMAZIN
 70
     0
  9
$DIMDSEP
 70
    44
  9
$DIMATFIT
 70
     3
  9
$DIMFRAC
 70
     0
  9
$DIMLDRBLK
  1

  9
$DIMLUNIT
 70
     2
  9
$DIMLWD
 70
    -2
  9
$DIMLWE
 70
    -2
  9
$DIMTMOVE
 70
     0
  9
$LUNITS
 70
     2
  9
$LUPREC
 70
     1
  9
$SKETCHINC
 40
1.0
  9
$FILLETRAD
 40
10.0
  9
$AUNITS
 70
     0
  9
$AUPREC
 70
     1
  9
$MENU
  1
.
  9
$ELEVATION
 40
0.0
  9
$PELEVATION
 40
0.0
  9
$THICKNESS
 40
0.0
  9
$LIMCHECK
 70
     0
  9
$CHAMFERA
 40
0.0
  9
$CHAMFERB
 40
0.0
  9
$CHAMFERC
 40
0.0
  9
$CHAMFERD
 40
0.0
  9
$SKPOLY
 70
     0
  9
$TDCREATE
 40
2459730.456738542
  9
$TDUCREATE
 40
2459730.373405208
  9
$TDUPDATE
 40
2459730.456738796
  9
$TDUUPDATE
 40
2459730.373405463
  9
$TDINDWG
 40
0.0000000116
  9
$TDUSRTIMER
 40
0.0000000116
  9
$USRTIMER
 70
     1
  9
$ANGBASE
 50
0.0
  9
$ANGDIR
 70
     0
  9
$PDMODE
 70
     0
  9
$PDSIZE
 40
-1.0
  9
$PLINEWID
 40
0.0
  9
$SPLFRAME
 70
     0
  9
$SPLINETYPE
 70
     6
  9
$SPLINESEGS
 70
     8
  9
$HANDSEED
  5
573
  9
$SURFTAB1
 70
     6
  9
$SURFTAB2
 70
     6
  9
$SURFTYPE
 70
     6
  9
$SURFU
 70
     6
  9
$SURFV
 70
     6
  9
$UCSBASE
  2

  9
$UCSNAME
  2

  9
$UCSORG
 10
0.0
 20
0.0
 30
0.0
  9
$UCSXDIR
 10
1.0
 20
0.0
 30
0.0
  9
$UCSYDIR
 10
0.0
 20
1.0
 30
0.0
  9
$UCSORTHOREF
  2

  9
$UCSORTHOVIEW
 70
     0
  9
$UCSORGTOP
 10
0.0
 20
0.0
 30
0.0
  9
$UCSORGBOTTOM
 10
0.0
 20
0.0
 30
0.0
  9
$UCSORGLEFT
 10
0.0
 20
0.0
 30
0.0
  9
$UCSORGRIGHT
 10
0.0
 20
0.0
 30
0.0
  9
$UCSORGFRONT
 10
0.0
 20
0.0
 30
0.0
  9
$UCSORGBACK
 10
0.0
 20
0.0
 30
0.0
  9
$PUCSBASE
  2

  9
$PUCSNAME
  2

  9
$PUCSORG
 10
0.0
 20
0.0
 30
0.0
  9
$PUCSXDIR
 10
1.0
 20
0.0
 30
0.0
  9
$PUCSYDIR
 10
0.0
 20
1.0
 30
0.0
  9
$PUCSORTHOREF
  2

  9
$PUCSORTHOVIEW
 70
     0
  9
$PUCSORGTOP
 10
0.0
 20
0.0
 30
0.0
  9
$PUCSORGBOTTOM
 10
0.0
 20
0.0
 30
0.0
  9
$PUCSORGLEFT
 10
0.0
 20
0.0
 30
0.0
  9
$PUCSORGRIGHT
 10
0.0
 20
0.0
 30
0.0
  9
$PUCSORGFRONT
 10
0.0
 20
0.0
 30
0.0
  9
$PUCSORGBACK
 10
0.0
 20
0.0
 30
0.0
  9
$USERI1
 70
     0
  9
$USERI2
 70
     0
  9
$USERI3
 70
     0
  9
$USERI4
 70
     0
  9
$USERI5
 70
     0
  9
$USERR1
 40
0.0
  9
$USERR2
 40
0.0
  9
$USERR3
 40
0.0
  9
$USERR4
 40
0.0
  9
$USERR5
 40
0.0
  9
$WORLDVIEW
 70
     1
  9
$SHADEDGE
 70
     3
  9
$SHADEDIF
 70
    70
  9
$TILEMODE
 70
     1
  9
$MAXACTVP
 70
    64
  9
$PINSBASE
 10
0.0
 20
0.0
 30
0.0
  9
$PLIMCHECK
 70
     0
  9
$PEXTMIN
 10
1.0000000000E+20
 20
1.0000000000E+20
 30
1.0000000000E+20
  9
$PEXTMAX
 10
-1.0000000000E+20
 20
-1.0000000000E+20
 30
-1.0000000000E+20
  9
$PLIMMIN
 10
0.0
 20
0.0
  9
$PLIMMAX
 10
420.0
 20
297.0
  9
$UNITMODE
 70
     0
  9
$VISRETAIN
 70
     1
  9
$PLINEGEN
 70
     0
  9
$PSLTSCALE
 70
     1
  9
$TREEDEPTH
 70
  3020
  9
$CMLSTYLE
  2
Standard
  9
$CMLJUST
 70
     0
  9
$CMLSCALE
 40
20.0
  9
$PROXYGRAPHICS
 70
     1
  9
$MEASUREMENT
 70
     1
  9
$CELWEIGHT
370
    -1
  9
$ENDCAPS
280
     0
  9
$JOINSTYLE
280
     0
  9
$LWDISPLAY
290
     1
  9
$INSUNITS
 70
     4
  9
$HYPERLINKBASE
  1

  9
$STYLESHEET
  1

  9
$XEDIT
290
     1
  9
$CEPSNTYPE
380
     0
  9
$PSTYLEMODE
290
     1
  9
$FINGERPRINTGUID
  2
{aff8de84-73a0-4e00-b703-ba41ac338a9c}
  9
$VERSIONGUID
  2
{FAEB1C32-E019-11D5-929B-00C0DF256EC4}
  9
$EXTNAMES
290
     1
  9
$PSVPSCALE
 40
0.0
  9
$OLESTARTUP
290
     0
  0
ENDSEC
  0
SECTION
  2
CLASSES
  0
CLASS
  1
ACDBDICTIONARYWDFLT
  2
AcDbDictionaryWithDefault
  3
ObjectDBX Classes
 90
        0
280
     0
281
     0
  0
CLASS
  1
VISUALSTYLE
  2
AcDbVisualStyle
  3
ObjectDBX Classes
 90
     4095
280
     0
281
     0
  0
CLASS
  1
MATERIAL
  2
AcDbMaterial
  3
ObjectDBX Classes
 90
     1153
280
     0
281
     0
  0
CLASS
  1
SCALE
  2
AcDbScale
  3
ObjectDBX Classes
 90
     1153
280
     0
281
     0
  0
CLASS
  1
TABLESTYLE
  2
AcDbTableStyle
  3
ObjectDBX Classes
 90
     4095
280
     0
281
     0
  0
CLASS
  1
MLEADERSTYLE
  2
AcDbMLeaderStyle
  3
ACDB_MLEADERSTYLE_CLASS
 90
     4095
280
     0
281
     0
  0
CLASS
  1
SUN
  2
AcDbSun
  3
SCENEOE
 90
     1153
280
     0
281
     0
  0
CLASS
  1
ACDBPLACEHOLDER
  2
AcDbPlaceHolder
  3
ObjectDBX Classes
 90
        0
280
     0
281
     0
  0
CLASS
  1
LAYOUT
  2
AcDbLayout
  3
ObjectDBX Classes
 90
        0
280
     0
281
     0
  0
ENDSEC
  0
SECTION
  2
TABLES
  0
TABLE
  2
VPORT
  5
8
330
0
100
AcDbSymbolTable
 70
     1
  0
VPORT
  5
29
330
8
100
AcDbSymbolTableRecord
100
AcDbViewportTableRecord
  2
*Active
 70
     0
 10
0.0
 20
0.0
 11
1.0
 21
1.0
 12
215.9
 22
139.7
 13
0.0
 23
0.0
 14
10.0
 24
10.0
 15
10.0
 25
10.0
 16
0.0
 26
0.0
 36
1.0
 17
0.0
 27
0.0
 37
0.0
 40
279.4
 41
1.5454545455
 42
50.0
 43
0.0
 44
0.0
 50
0.0
 51
0.0
 71
     0
 72
  2000
 73
     1
 74
     3
 75
     0
 76
     0
 77
     0
 78
     0
281
     0
 65
     1
110
0.0
120
0.0
130
0.0
111
1.0
121
0.0
131
0.0
112
0.0
122
1.0
132
0.0
 79
     0
146
0.0
  0
ENDTAB
  0
TABLE
  2
LTYPE
  5
5
330
0
100
AcDbSymbolTable
 70
     6
  0
LTYPE
  5
14
330
5
100
AcDbSymbolTableRecord
100
AcDbLinetypeTableRecord
  2
ByBlock
 70
     0
  3

 72
    65
 73
     0
 40
0.0
  0
LTYPE
  5
15
330
5
100
AcDbSymbolTableRecord
100
AcDbLinetypeTableRecord
  2
ByLayer
 70
     0
  3

 72
    65
 73
     0
 40
0.0
  0
LTYPE
  5
16
330
5
100
AcDbSymbolTableRecord
100
AcDbLinetypeTableRecord
  2
Continuous
 70
     0
  3
Solid line
 72
    65
 73
     0
 40
0.0
  0
LTYPE
  5
6E
330
5
100
AcDbSymbolTableRecord
100
AcDbLinetypeTableRecord
  2
HIDDEN
 70
     0
  3
Hidden __ __ __ __ __ __ __ __ __ __ __ __ __ __
 72
    65
 73
     2
 40
1.905
 49
1.27
 74
     0
 49
-0.635
 74
     0
  0
LTYPE
  5
6F
330
5
100
AcDbSymbolTableRecord
100
AcDbLinetypeTableRecord
  2
PHANTOM
 70
     0
  3
Phantom ______  __  __  ______  __  __  ______
 72
    65
 73
     6
 40
12.7
 49
6.35
 74
     0
 49
-1.27
 74
     0
 49
1.27
 74
     0
 49
-1.27
 74
     0
 49
1.27
 74
     0
 49
-1.27
 74
     0
  0
LTYPE
  5
70
330
5
100
AcDbSymbolTableRecord
100
AcDbLinetypeTableRecord
  2
CENTER
 70
     0
  3
Center ____ _ ____ _ ____ _ ____ _ ____ _ ____
 72
    65
 73
     4
 40
10.16
 49
6.35
 74
     0
 49
-1.27
 74
     0
 49
1.27
 74
     0
 49
-1.27
 74
     0
  0
LTYPE
  5
71
330
5
100
AcDbSymbolTableRecord
100
AcDbLinetypeTableRecord
  2
CENTERX2
 70
     0
  3
Center (2x) ________  __  ________  __  _____
 72
    65
 73
     4
 40
20.32
 49
12.7
 74
     0
 49
-2.54
 74
     0
 49
2.54
 74
     0
 49
-2.54
 74
     0
  0
LTYPE
  5
72
330
5
100
AcDbSymbolTableRecord
100
AcDbLinetypeTableRecord
  2
DOT2
 70
     0
  3
Dot (.5x) ........................................
 72
    65
 73
     2
 40
0.635
 49
0.0
 74
     0
 49
-0.635
 74
     0
  0
ENDTAB
  0
TABLE
  2
LAYER
  5
2
330
0
100
AcDbSymbolTable
 70
     3
  0
LAYER
  5
10
330
2
100
AcDbSymbolTableRecord
100
AcDbLayerTableRecord
  2
0
 70
     0
 62
     7
  6
Continuous
370
    -3
390
F
  0
LAYER
  5
73
330
2
100
AcDbSymbolTableRecord
100
AcDbLayerTableRecord
  2
FRAME_&_TABLE
 70
     0
 62
     8
  6
Continuous
370
    50
390
F
  0
LAYER
  5
74
330
2
100
AcDbSymbolTableRecord
100
AcDbLayerTableRecord
  2
DIMENSIONS
 70
     0
 62
     7
  6
Continuous
370
    -3
390
F
  0
ENDTAB
  0
TABLE
  2
STYLE
  5
3
330
0
100
AcDbSymbolTable
 70
     1
  0
STYLE
  5
11
330
3
100
AcDbSymbolTableRecord
100
AcDbTextStyleTableRecord
  2
Standard
 70
     0
 40
0.0
 41
1.0
 50
0.0
 71
     0
 42
3.8805555556
  3
txt
  4

  0
ENDTAB
  0
TABLE
  2
VIEW
  5
6
330
0
100
AcDbSymbolTable
 70
     0
  0
ENDTAB
  0
TABLE
  2
UCS
  5
7
330
0
100
AcDbSymbolTable
 70
     0
  0
ENDTAB
  0
TABLE
  2
APPID
  5
9
330
0
100
AcDbSymbolTable
 70
     1
  0
APPID
  5
12
330
9
100
AcDbSymbolTableRecord
100
AcDbRegAppTableRecord
  2
ACAD
 70
     0
  0
ENDTAB
  0
TABLE
  2
DIMSTYLE
  5
A
330
0
100
AcDbSymbolTable
 70
     1
100
AcDbDimStyleTable
  0
DIMSTYLE
105
27
330
A
100
AcDbSymbolTableRecord
100
AcDbDimStyleTableRecord
  2
ISO-25
 70
     0
 41
2.5
 42
0.625
 43
3.75
 44
1.25
 73
     0
 74
     0
 77
     1
 78
     8
140
2.5
141
2.5
143
0.0393700787
147
0.625
171
     3
172
     1
178
     0
271
     2
272
     2
274
     3
278
    44
283
     0
284
     8
340
11
  0
ENDTAB
  0
TABLE
  2
BLOCK_RECORD
  5
1
330
0
100
AcDbSymbolTable
 70
     1
  0
BLOCK_RECORD
  5
1F
330
1
100
AcDbSymbolTableRecord
100
AcDbBlockTableRecord
  2
*Model_Space
340
22
  0
BLOCK_RECORD
  5
1B
330
1
100
AcDbSymbolTableRecord
100
AcDbBlockTableRecord
  2
*Paper_Space
340
1E
  0
BLOCK_RECORD
  5
23
330
1
100
AcDbSymbolTableRecord
100
AcDbBlockTableRecord
  2
*Paper_Space0
340
26
  0
ENDTAB
  0
ENDSEC
  0
SECTION
  2
BLOCKS
  0
BLOCK
  5
20
330
1F
100
AcDbEntity
  8
0
100
AcDbBlockBegin
  2
*Model_Space
 70
     0
 10
0.0
 20
0.0
 30
0.0
  3
*Model_Space
  1

  0
ENDBLK
  5
21
330
1F
100
AcDbEntity
  8
0
100
AcDbBlockEnd
  0
BLOCK
  5
1C
330
1B
100
AcDbEntity
 67
     1
  8
0
100
AcDbBlockBegin
  2
*Paper_Space
 70
     0
 10
0.0
 20
0.0
 30
0.0
  3
*Paper_Space
  1

  0
ENDBLK
  5
1D
330
1B
100
AcDbEntity
 67
     1
  8
0
100
AcDbBlockEnd
  0
BLOCK
  5
24
330
23
100
AcDbEntity
  8
0
100
AcDbBlockBegin
  2
*Paper_Space0
 70
     0
 10
0.0
 20
0.0
 30
0.0
  3
*Paper_Space0
  1

  0
ENDBLK
  5
25
330
23
100
AcDbEntity
  8
0
100
AcDbBlockEnd
  0
ENDSEC
  0
SECTION
  2
ENTITIES
  0
CIRCLE
  5
75
330
1F
100
AcDbEntity
  8
0
  6
Continuous
 62
     7
370
    25
100
AcDbCircle
 10
1233.9915336031
 20
-852.6195732763
 30
0.0
 40
7.100000000000113
  0
CIRCLE
  5
76
330
1F
100
AcDbEntity
  8
0
  6
Continuous
 62
     7
370
    25
100
AcDbCircle
 10
1233.991533603
 20
1185.5587424712
 30
0.0
 40
7.099999999999709
  0
CIRCLE
  5
77
330
1F
100
AcDbEntity
  8
0
  6
Continuous
 62
     7
370
    25
100
AcDbCircle
 10
-804.1867821445
 20
1185.5587424712
 30
0.0
 40
7.100000000000126
  0
CIRCLE
  5
78
330
1F
100
AcDbEntity
  8
0
  6
Continuous
 62
     7
370
    25
100
AcDbCircle
 10
-804.1867821445
 20
-852.6195732763
 30
0.0
 40
7.099999999999866
  0
ARC
  5
79
330
1F
100
AcDbEntity
  8
0
  6
Continuous
 62
     7
370
    25
100
AcDbCircle
 10
1295.3023757293
 20
-939.6304154026
 30
0.0
 40
1.099999999999795
100
AcDbArc
 50
306.4341903956
 51
90.0
  0
ARC
  5
7A
330
1F
100
AcDbEntity
  8
0
  6
Continuous
 62
     7
370
    25
100
AcDbCircle
 10
1279.5023757293
 20
-939.6304154026
 30
0.0
 40
1.100000000000049
100
AcDbArc
 50
90.0
 51
233.5658096044
  0
ARC
  5
7B
330
1F
100
AcDbEntity
  8
0
  6
Continuous
 62
     7
370
    25
100
AcDbCircle
 10
1287.4023757293
 20
-928.9284923256
 30
0.0
 40
14.40192307692288
100
AcDbArc
 50
233.5658096044
 51
306.4341903957
  0
ARC
  5
7C
330
1F
100
AcDbEntity
  8
0
  6
Continuous
 62
     7
370
    25
100
AcDbCircle
 10
-865.4976242707
 20
1272.5695845974
 30
0.0
 40
1.100000000000072
100
AcDbArc
 50
126.4341903956
 51
270.0
  0
ARC
  5
7D
330
1F
100
AcDbEntity
  8
0
  6
Continuous
 62
     7
370
    25
100
AcDbCircle
 10
-849.6976242707
 20
1272.5695845974
 30
0.0
 40
1.10000000000014
100
AcDbArc
 50
270.0
 51
53.5658096044
  0
ARC
  5
7E
330
1F
100
AcDbEntity
  8
0
  6
Continuous
 62
     7
370
    25
100
AcDbCircle
 10
-857.5976242707
 20
1261.8676615205
 30
0.0
 40
14.40192307692304
100
AcDbArc
 50
53.5658096044
 51
126.4341903956
  0
ARC
  5
7F
330
1F
100
AcDbEntity
  8
0
  6
Continuous
 62
     7
370
    25
100
AcDbCircle
 10
1321.0023757293
 20
-898.1304154026
 30
0.0
 40
1.100000000000072
100
AcDbArc
 50
36.4341903956
 51
180.0
  0
ARC
  5
80
330
1F
100
AcDbEntity
  8
0
  6
Continuous
 62
     7
370
    25
100
AcDbCircle
 10
1321.0023757293
 20
-913.9304154026
 30
0.0
 40
1.10000000000014
100
AcDbArc
 50
180.0
 51
323.5658096044
  0
ARC
  5
81
330
1F
100
AcDbEntity
  8
0
  6
Continuous
 62
     7
370
    25
100
AcDbCircle
 10
1310.3004526524
 20
-906.0304154026
 30
0.0
 40
14.40192307692322
100
AcDbArc
 50
323.5658096044
 51
36.4341903956
  0
ARC
  5
82
330
1F
100
AcDbEntity
  8
0
  6
Continuous
 62
     7
370
    25
100
AcDbCircle
 10
1321.0023757293
 20
1246.8695845974
 30
0.0
 40
1.10000000000014
100
AcDbArc
 50
36.4341903956
 51
180.0
  0
ARC
  5
83
330
1F
100
AcDbEntity
  8
0
  6
Continuous
 62
     7
370
    25
100
AcDbCircle
 10
1321.0023757293
 20
1231.0695845974
 30
0.0
 40
1.10000000000014
100
AcDbArc
 50
180.0
 51
323.5658096044
  0
ARC
  5
84
330
1F
100
AcDbEntity
  8
0
  6
Continuous
 62
     7
370
    25
100
AcDbCircle
 10
1310.3004526524
 20
1238.9695845974
 30
0.0
 40
14.40192307692329
100
AcDbArc
 50
323.5658096044
 51
36.4341903956
  0
ARC
  5
85
330
1F
100
AcDbEntity
  8
0
  6
Continuous
 62
     7
370
    25
100
AcDbCircle
 10
-891.1976242707
 20
-913.9304154026
 30
0.0
 40
1.099999999999957
100
AcDbArc
 50
216.4341903957
 51
0.0
  0
ARC
  5
86
330
1F
100
AcDbEntity
  8
0
  6
Continuous
 62
     7
370
    25
100
AcDbCircle
 10
-891.1976242707
 20
-898.1304154026
 30
0.0
 40
1.099999999999909
100
AcDbArc
 50
0.0
 51
143.5658096044
  0
ARC
  5
87
330
1F
100
AcDbEntity
  8
0
  6
Continuous
 62
     7
370
    25
100
AcDbCircle
 10
-880.4957011938
 20
-906.0304154026
 30
0.0
 40
14.40192307692294
100
AcDbArc
 50
143.5658096043
 51
216.4341903957
  0
ARC
  5
88
330
1F
100
AcDbEntity
  8
0
  6
Continuous
 62
     7
370
    25
100
AcDbCircle
 10
1279.5023757293
 20
1272.5695845974
 30
0.0
 40
1.100000000000005
100
AcDbArc
 50
126.4341903956
 51
270.0
  0
ARC
  5
89
330
1F
100
AcDbEntity
  8
0
  6
Continuous
 62
     7
370
    25
100
AcDbCircle
 10
1295.3023757293
 20
1272.5695845974
 30
0.0
 40
1.10000000000014
100
AcDbArc
 50
270.0
 51
53.5658096044
  0
ARC
  5
8A
330
1F
100
AcDbEntity
  8
0
  6
Continuous
 62
     7
370
    25
100
AcDbCircle
 10
1287.4023757293
 20
1261.8676615205
 30
0.0
 40
14.4019230769231
100
AcDbArc
 50
53.5658096044
 51
126.4341903957
  0
ARC
  5
8B
330
1F
100
AcDbEntity
  8
0
  6
Continuous
 62
     7
370
    25
100
AcDbCircle
 10
-891.1976242707
 20
1231.0695845974
 30
0.0
 40
1.099999999999957
100
AcDbArc
 50
216.4341903957
 51
0.0
  0
ARC
  5
8C
330
1F
100
AcDbEntity
  8
0
  6
Continuous
 62
     7
370
    25
100
AcDbCircle
 10
-891.1976242707
 20
1246.8695845974
 30
0.0
 40
1.099999999999957
100
AcDbArc
 50
0.0
 51
143.5658096043
  0
ARC
  5
8D
330
1F
100
AcDbEntity
  8
0
  6
Continuous
 62
     7
370
    25
100
AcDbCircle
 10
-880.4957011938
 20
1238.9695845974
 30
0.0
 40
14.40192307692301
100
AcDbArc
 50
143.5658096044
 51
216.4341903957
  0
ARC
  5
8E
330
1F
100
AcDbEntity
  8
0
  6
Continuous
 62
     7
370
    25
100
AcDbCircle
 10
-849.6976242707
 20
-939.6304154026
 30
0.0
 40
1.100000000000049
100
AcDbArc
 50
306.4341903957
 51
90.0
  0
ARC
  5
8F
330
1F
100
AcDbEntity
  8
0
  6
Continuous
 62
     7
370
    25
100
AcDbCircle
 10
-865.4976242707
 20
-939.6304154026
 30
0.0
 40
1.099999999999981
100
AcDbArc
 50
90.0
 51
233.5658096044
  0
ARC
  5
90
330
1F
100
AcDbEntity
  8
0
  6
Continuous
 62
     7
370
    25
100
AcDbCircle
 10
-857.5976242707
 20
-928.9284923256
 30
0.0
 40
14.40192307692294
100
AcDbArc
 50
233.5658096044
 51
306.4341903957
  0
LINE
  5
91
330
1F
100
AcDbEntity
  8
0
  6
Continuous
 62
     7
370
    25
100
AcDbLine
 10
-940.0976242707
 20
2821.4695845974
 30
0.0
 11
1369.9023757293
 21
2821.4695845974
 31
0.0
  0
ARC
  5
92
330
1F
100
AcDbEntity
  8
0
  6
Continuous
 62
     7
370
    25
100
AcDbCircle
 10
1369.9023757293
 20
1321.4695845974
 30
0.0
 40
1500.0
100
AcDbArc
 50
0.0
 51
90.0
  0
LINE
  5
93
330
1F
100
AcDbEntity
  8
0
  6
Continuous
 62
     7
370
    25
100
AcDbLine
 10
2869.9023757293
 20
1321.4695845974
 30
0.0
 11
2869.9023757293
 21
-988.5304154026
 31
0.0
  0
ARC
  5
94
330
1F
100
AcDbEntity
  8
0
  6
Continuous
 62
     7
370
    25
100
AcDbCircle
 10
1369.9023757293
 20
-988.5304154026
 30
0.0
 40
1500.0
100
AcDbArc
 50
270.0
 51
0.0
  0
LINE
  5
95
330
1F
100
AcDbEntity
  8
0
  6
Continuous
 62
     7
370
    25
100
AcDbLine
 10
1369.9023757293
 20
-2488.5304154026
 30
0.0
 11
-940.0976242707
 21
-2488.5304154026
 31
0.0
  0
LINE
  5
96
330
1F
100
AcDbEntity
  8
0
  6
Continuous
 62
     7
370
    25
100
AcDbLine
 10
-2440.0976242707
 20
-988.5304154025
 30
0.0
 11
-2440.0976242707
 21
1321.4695845974
 31
0.0
  0
ARC
  5
97
330
1F
100
AcDbEntity
  8
0
  6
Continuous
 62
     7
370
    25
100
AcDbCircle
 10
-940.0976242707
 20
1321.4695845974
 30
0.0
 40
1500.0
100
AcDbArc
 50
90.0
 51
180.0
  0
ARC
  5
98
330
1F
100
AcDbEntity
  8
0
  6
Continuous
 62
     7
370
    25
100
AcDbCircle
 10
-940.0976242707
 20
-988.5304154026
 30
0.0
 40
1500.0
100
AcDbArc
 50
180.0
 51
270.0
  0
LWPOLYLINE
  5
99
330
1F
100
AcDbEntity
  8
0
  6
Continuous
 62
     7
370
    25
100
AcDbPolyline
 90
       11
 70
   128
 43
0.0
 10
1179.3234187916
 20
452.1441123779
 10
1147.2518349343
 20
442.6440764346
 10
1113.543339263
 20
432.6591651219
 10
1090.9284176091
 20
425.9603201404
 10
1068.1850049423
 20
419.2234143871
 10
1045.3088209351
 20
412.4471799709
 10
1027.7377304908
 20
407.2423858715
 10
1010.0797785525
 20
402.0118622329
 10
992.3684846296
 20
396.7655379634
 10
974.6373682313
 20
391.5133419711
 10
974.5223954013
 20
391.4792854677
  0
LWPOLYLINE
  5
9A
330
1F
100
AcDbEntity
  8
0
  6
Continuous
 62
     7
370
    25
100
AcDbPolyline
 90
        6
 70
   128
 43
0.0
 10
1032.2967251204
 20
198.5850960525
 10
1078.0060599814
 20
121.7911381671
 10
1123.6349900091
 20
44.9917431316
 10
1169.1682354745
 20
-31.8331097512
 10
1214.5961642497
 20
-108.7134877459
 10
1233.7078494993
 20
-141.2120096124
  0
LWPOLYLINE
  5
9B
330
1F
100
AcDbEntity
  8
0
  6
Continuous
 62
     7
370
    25
100
AcDbPolyline
 90
        8
 70
   128
 43
0.0
 10
974.5223954013
 20
391.4792854677
 10
974.5564550653
 20
391.3643135739
 10
984.159451121
 20
359.2058878286
 10
993.8377280351
 20
327.0844558002
 10
1003.49617775
 20
294.9950511827
 10
1013.1324050333
 20
262.8210513428
 10
1022.7343782334
 20
230.6832049646
 10
1032.2967251204
 20
198.5850960525
  0
LWPOLYLINE
  5
9C
330
1F
100
AcDbEntity
  8
0
  6
Continuous
 62
     7
370
    25
100
AcDbPolyline
 90
        8
 70
   128
 43
0.0
 10
-476.7768024985
 20
-38.4151221779
 10
-476.8086210312
 20
-38.307715151
 10
-485.4911948642
 20
-9.043396589
 10
-494.1711237879
 20
20.2076010673
 10
-502.8098514607
 20
49.4339706053
 10
-511.4267824092
 20
78.7428047956
 10
-519.9988229131
 20
108.0197384376
 10
-528.5235446412
 20
137.2603006338
  0
LWPOLYLINE
  5
9D
330
1F
100
AcDbEntity
  8
0
  6
Continuous
 62
     7
370
    25
100
AcDbPolyline
 90
       15
 70
   128
 43
0.0
 10
-749.5186673331
 20
-119.204943183
 10
-732.9099705206
 20
-114.2852230534
 10
-711.7525329355
 20
-108.0181045219
 10
-690.6833480574
 20
-101.7771276332
 10
-669.6673560973
 20
-95.5519072046
 10
-638.3229867168
 20
-86.267282003
 10
-606.872851959
 20
-76.9513276694
 10
-585.7624601513
 20
-70.698144732
 10
-564.5187566604
 20
-64.405473075
 10
-543.1345588078
 20
-58.0711850921
 10
-526.6765449356
 20
-53.1960992728
 10
-510.1247356846
 20
-48.2932299897
 10
-493.5152508872
 20
-43.373276445
 10
-476.8842103755
 20
-38.4469378409
 10
-476.7768024985
 20
-38.4151221779
  0
LWPOLYLINE
  5
9E
330
1F
100
AcDbEntity
  8
0
  6
Continuous
 62
     7
370
    25
100
AcDbPolyline
 90
        9
 70
   128
 43
0.0
 10
-528.5235446412
 20
137.2603006338
 10
-571.4019557364
 20
209.7763958239
 10
-614.1925087228
 20
282.3000916889
 10
-656.8857923908
 20
354.8487083123
 10
-699.4785239814
 20
427.4498067865
 10
-741.919657193
 20
500.1426471232
 10
-784.1408937257
 20
572.9838095883
 10
-810.8835892963
 20
619.5079389408
 10
-818.4435648649
 20
632.7935493259
  0
LWPOLYLINE
  5
9F
330
1F
100
AcDbEntity
  8
0
  6
Continuous
 62
     7
370
    25
100
AcDbPolyline
 90
        5
 70
   128
 43
0.0
 10
25.8998034002
 20
1174.3974575427
 10
63.8137610132
 20
1111.1558715399
 10
107.2825888794
 20
1038.4018207252
 10
150.6707793838
 20
965.6162572399
 10
196.6884806113
 20
888.3000945209
  0
LWPOLYLINE
  5
A0
330
1F
100
AcDbEntity
  8
0
  6
Continuous
 62
     7
370
    25
100
AcDbPolyline
 90
       12
 70
   128
 43
0.0
 10
213.3327318746
 20
166.4079131224
 10
213.3267344758
 20
166.5605953198
 10
212.8434045138
 20
179.1272437551
 10
210.849375141
 20
238.2291670432
 10
209.222967662
 20
297.3357602622
 10
207.822589572
 20
356.4316652416
 10
206.5066483663
 20
415.5015238109
 10
204.773367593
 20
494.195778468
 10
203.0888043231
 20
572.8481932545
 10
201.4435100041
 20
651.4613689269
 10
199.0257577825
 20
769.8908015087
 10
196.6884806113
 20
888.3000945209
  0
LINE
  5
A1
330
1F
100
AcDbEntity
  8
0
  6
Continuous
 62
     7
370
    25
100
AcDbLine
 10
213.1163418211
 20
166.399411134
 30
0.0
 11
213.3327318746
 21
166.4079131224
 31
0.0
  0
LWPOLYLINE
  5
A2
330
1F
100
AcDbEntity
  8
0
  6
Continuous
 62
     7
370
    25
100
AcDbPolyline
 90
       12
 70
   128
 43
0.0
 10
213.1163418211
 20
166.399411134
 10
191.216267099
 20
203.4521763774
 10
159.9134989903
 20
257.1093308998
 10
128.8753616979
 20
310.9054551484
 10
98.020254212
 20
364.7844384214
 10
67.2665755225
 20
418.6901700174
 10
36.5327246195
 20
472.5665392347
 10
-1.9458729293
 20
539.9760463177
 10
-40.3767900007
 20
607.3731308243
 10
-78.7662803733
 20
674.766415386
 10
-117.1205978259
 20
742.1645226345
 10
-132.6611328931
 20
769.4924492779
  0
LWPOLYLINE
  5
A3
330
1F
100
AcDbEntity
  8
0
  6
Continuous
 62
     7
370
    25
100
AcDbPolyline
 90
        7
 70
   128
 43
0.0
 10
-157.5452943365
 20
1191.2112340199
 10
-155.7301386294
 20
1165.3903792086
 10
-152.7900964319
 20
1119.8398041422
 10
-148.6024181072
 20
1051.4903391474
 10
-144.6067977325
 20
983.1618133468
 10
-138.5594633886
 20
876.3174541292
 10
-132.6611328931
 20
769.4924492779
  0
LWPOLYLINE
  5
A4
330
1F
100
AcDbEntity
  8
0
  6
Continuous
 62
     7
370
    25
100
AcDbPolyline
 90
       39
 70
   128
 43
0.0
 10
196.6884806113
 20
888.3000945209
 10
234.7966931276
 20
905.5405196807
 10
251.6444281093
 20
912.9477634677
 10
268.6209080885
 20
920.2063514131
 10
285.7830626483
 20
927.20403407
 10
303.1878213717
 20
933.8285619912
 10
314.9463420541
 20
937.9321332385
 10
326.9098200663
 20
941.560547122
 10
333.0382692748
 20
943.1361558993
 10
339.260629517
 20
944.4331039858
 10
345.5521966937
 20
945.2945841974
 10
351.8882667058
 20
945.5637893503
 10
356.1046489677
 20
945.3008460239
 10
360.2837680755
 20
944.5821386166
 10
364.3274558481
 20
943.3556117959
 10
368.1921301473
 20
941.5696125327
 10
371.8138428759
 20
939.288094733
 10
375.1340163474
 20
936.6057719817
 10
379.3533433076
 20
932.2549419433
 10
383.0862579659
 20
927.4490716992
 10
386.4168574446
 20
922.3640053456
 10
392.5959427829
 20
911.3240179771
 10
398.0271007922
 20
899.8921128362
 10
402.8732139068
 20
888.1688871233
 10
407.2971645607
 20
876.2549380386
 10
411.4618351882
 20
864.2508627821
 10
415.5301082232
 20
852.2572585542
 10
427.2951714609
 20
816.7404621406
 10
438.5493594585
 20
781.1158964835
 10
449.4705232807
 20
745.440345581
 10
460.2365139923
 20
709.7705934315
 10
474.5184223644
 20
662.1666593159
 10
488.6872500684
 20
614.555338571
 10
502.7886927576
 20
566.9125153666
 10
514.2629122057
 20
528.0233952312
 10
525.725997933
 20
489.0725317623
 10
537.1809504566
 20
450.0577541892
 10
548.6307702933
 20
410.9768917411
 10
560.07845796
 20
371.8277736472
  0
LWPOLYLINE
  5
A5
330
1F
100
AcDbEntity
  8
0
  6
Continuous
 62
     7
370
    25
100
AcDbPolyline
 90
        3
 70
   128
 43
0.0
 10
560.07845796
 20
371.8277736472
 10
561.9883462618
 20
320.8439747087
 10
563.8909967386
 20
269.8447237286
  0
LINE
  5
A6
330
1F
100
AcDbEntity
  8
0
  6
Continuous
 62
     7
370
    25
100
AcDbLine
 10
563.8909967386
 20
269.8447237286
 30
0.0
 11
214.9023757293
 21
166.4695845974
 31
0.0
  0
LINE
  5
A7
330
1F
100
AcDbEntity
  8
0
  6
Continuous
 62
     7
370
    25
100
AcDbLine
 10
214.9023757293
 20
166.4695845974
 30
0.0
 11
213.3327318746
 21
166.4079131224
 31
0.0
  0
LWPOLYLINE
  5
A8
330
1F
100
AcDbEntity
  8
0
  6
Continuous
 62
     7
370
    25
100
AcDbPolyline
 90
       37
 70
   128
 43
0.0
 10
-80.7531833315
 20
-614.3566953714
 10
-66.2874773902
 20
-608.4647192153
 10
-51.8422699306
 20
-602.3442388613
 10
-37.4603880309
 20
-595.9017331677
 10
-23.1846587694
 20
-589.0436809925
 10
-15.2344479843
 20
-584.9569726482
 10
-7.3930206741
 20
-580.6007904267
 10
0.2581606465
 20
-575.8769858788
 10
5.0002446587
 20
-572.6151097587
 10
9.5756528835
 20
-569.0797983842
 10
13.8743089596
 20
-565.2196914631
 10
17.7861365256
 20
-560.9834287033
 10
20.7448646274
 20
-556.9833916993
 10
23.2473763515
 20
-552.6601552019
 10
25.2176584979
 20
-548.0873673342
 10
26.6251969391
 20
-543.3335467733
 10
27.5481017332
 20
-538.4457255826
 10
28.0590821012
 20
-533.5048861664
 10
28.245692235
 20
-525.2291735788
 10
27.8164499723
 20
-516.9476915297
 10
26.9399476943
 20
-508.6881954384
 10
25.7847777823
 20
-500.4784407243
 10
22.9202228918
 20
-483.7932717077
 10
19.5766247225
 20
-467.2108338736
 10
12.4932260591
 20
-435.2812466128
 10
4.9039080205
 20
-403.5243444163
 10
-3.0010057035
 20
-371.8984671089
 10
-11.031191423
 20
-340.3619545154
 10
-21.8181828893
 20
-298.3012940081
 10
-32.7011315775
 20
-256.3052132435
 10
-43.6564161745
 20
-214.3318972016
 10
-52.1965834998
 20
-181.7492585455
 10
-60.7767346277
 20
-149.1312127695
 10
-69.4004057403
 20
-116.4745529413
 10
-78.0711330197
 20
-83.7760721283
 10
-86.7924526481
 20
-51.032563398
 10
-95.5679008075
 20
-18.240819818
  0
LWPOLYLINE
  5
A9
330
1F
100
AcDbEntity
  8
0
  6
Continuous
 62
     7
370
    25
100
AcDbPolyline
 90
        3
 70
   128
 43
0.0
 10
-95.5679008075
 20
-18.240819818
 10
-96.8316475719
 20
27.7428561792
 10
-98.1420500728
 20
73.7416011522
  0
LINE
  5
AA
330
1F
100
AcDbEntity
  8
0
  6
Continuous
 62
     7
370
    25
100
AcDbLine
 10
-98.1420500728
 20
73.7416011522
 30
0.0
 11
213.2412527218
 21
165.9775375458
 31
0.0
  0
LWPOLYLINE
  5
AB
330
1F
100
AcDbEntity
  8
0
  6
Continuous
 62
     7
370
    25
100
AcDbPolyline
 90
        3
 70
   128
 43
0.0
 10
213.2412527218
 20
165.9775375458
 10
213.2739902381
 20
165.8670299946
 10
213.3662624497
 20
165.5556932316
  0
LWPOLYLINE
  5
AC
330
1F
100
AcDbEntity
  8
0
  6
Continuous
 62
     7
370
    25
100
AcDbPolyline
 90
       11
 70
   128
 43
0.0
 10
213.3662624497
 20
165.5556932316
 10
213.8371996804
 20
153.8277317096
 10
216.3837843998
 20
96.9100620375
 10
219.2776523152
 20
40.0149049458
 10
222.3867697626
 20
-16.8538923175
 10
225.5791030775
 20
-73.6924825042
 10
229.8565231825
 20
-149.4160109305
 10
234.1779162681
 20
-225.0967596119
 10
238.5337857031
 20
-300.7368497374
 10
245.1519525041
 20
-414.6669021218
 10
251.8408816674
 20
-528.5645977507
  0
LWPOLYLINE
  5
AD
330
1F
100
AcDbEntity
  8
0
  6
Continuous
 62
     7
370
    25
100
AcDbPolyline
 90
       34
 70
   128
 43
0.0
 10
251.8408816674
 20
-528.5645977507
 10
247.8287121673
 20
-529.6196335378
 10
229.2142242825
 20
-534.5300759278
 10
210.5866313335
 20
-539.5382473698
 10
191.9774039008
 20
-544.7749497669
 10
173.4180125647
 20
-550.3709850219
 10
154.9399279056
 20
-556.4571550377
 10
136.5746205039
 20
-563.1642617173
 10
129.41614237
 20
-566.0277049135
 10
122.3386108821
 20
-569.133379806
 10
115.4005022713
 20
-572.5657432539
 10
110.2484009922
 20
-575.4621406119
 10
105.2705115533
 20
-578.710320731
 10
100.6184500415
 20
-582.384976304
 10
96.4438325441
 20
-586.5608000235
 10
93.8033903217
 20
-589.9693564245
 10
91.5695395555
 20
-593.6781903124
 10
89.8039159371
 20
-597.6153219605
 10
88.529300083
 20
-601.7116276451
 10
87.6747085098
 20
-605.9302298789
 10
87.1790205073
 20
-610.1998354092
 10
86.9369710163
 20
-618.5364176562
 10
87.409499447
 20
-626.8802591773
 10
88.4265249524
 20
-635.2062663784
 10
89.8179666856
 20
-643.4893456652
 10
91.4137437998
 20
-651.7044034435
 10
95.5882647363
 20
-670.8966998689
 10
100.2828805458
 20
-689.9558839563
 10
105.3618615021
 20
-708.9064047424
 10
110.689477879
 20
-727.7727112639
 10
116.1299999502
 20
-746.5792525574
 10
125.3778755616
 20
-777.9795687035
 10
134.8292203286
 20
-809.2749483949
 10
137.2114853745
 20
-817.0143303199
  0
LWPOLYLINE
  5
AE
330
1F
100
AcDbEntity
  8
0
  6
Continuous
 62
     7
370
    25
100
AcDbPolyline
 90
        4
 70
   128
 43
0.0
 10
-77.0990543544
 20
-797.371562232
 10
-77.8521964559
 20
-754.721886751
 10
-79.2398149039
 20
-684.5238774903
 10
-80.7531833315
 20
-614.3566953714
  0
LINE
  5
AF
330
1F
100
AcDbEntity
  8
0
  6
Continuous
 62
     7
370
    25
100
AcDbLine
 10
213.3662624497
 20
165.5556932316
 30
0.0
 11
213.5523729336
 21
165.6664173341
 31
0.0
  0
LWPOLYLINE
  5
B0
330
1F
100
AcDbEntity
  8
0
  6
Continuous
 62
     7
370
    25
100
AcDbPolyline
 90
       14
 70
   128
 43
0.0
 10
213.5523729336
 20
165.6664173341
 10
213.6304997763
 20
165.5351008513
 10
213.7685308477
 20
165.3031110003
 10
234.9437276861
 20
129.9287548514
 10
256.3046533076
 20
94.670126243
 10
289.7009827498
 20
40.0886707651
 10
323.2431600645
 20
-14.3803499585
 10
356.8782211204
 20
-68.763314675
 10
390.5532017861
 20
-123.0866021315
 10
424.2151379302
 20
-177.3765910748
 10
466.3232517193
 20
-245.2949903202
 10
508.44538234
 20
-313.1693088771
 10
550.589603857
 20
-381.0102251095
 10
592.7639903354
 20
-448.8284173813
  0
LWPOLYLINE
  5
B1
330
1F
100
AcDbEntity
  8
0
  6
Continuous
 62
     7
370
    25
100
AcDbPolyline
 90
        7
 70
   128
 43
0.0
 10
608.0016295509
 20
-860.164898798
 10
607.866001454
 20
-855.6580011389
 10
605.5759513347
 20
-787.8185093469
 10
603.1383752025
 20
-720.0072588855
 10
599.3401258001
 20
-618.3070009406
 10
595.4204655312
 20
-516.6307144696
 10
592.7639903354
 20
-448.8284173813
  0
LWPOLYLINE
  5
B2
330
1F
100
AcDbEntity
  8
0
  6
Continuous
 62
     7
370
    25
100
AcDbPolyline
 90
        6
 70
   128
 43
0.0
 10
431.7308104112
 20
-844.0086853639
 10
417.4688636055
 20
-818.6278432468
 10
387.8843174132
 20
-766.4045661818
 10
358.1950804107
 20
-714.2688800375
 10
305.0751930384
 20
-621.3680462694
 10
251.8408816674
 20
-528.5645977507
  0
LWPOLYLINE
  5
B3
330
1F
100
AcDbEntity
  8
0
  6
Continuous
 62
     7
370
    25
100
AcDbPolyline
 90
       10
 70
   128
 43
0.0
 10
-740.9767551948
 20
-819.105879712
 10
-739.8351371919
 20
-806.7868508623
 10
-739.2594881566
 20
-793.1215162269
 10
-739.2666243712
 20
-779.4304429715
 10
-739.7534427349
 20
-765.7401661616
 10
-740.6168401467
 20
-752.0772208625
 10
-741.7537135058
 20
-738.4681421396
 10
-744.7236298413
 20
-710.6714548663
 10
-748.4105671843
 20
-682.9820197286
 10
-751.9197150694
 20
-659.9228603413
  0
LWPOLYLINE
  5
B4
330
1F
100
AcDbEntity
  8
0
  6
Continuous
 62
     7
370
    25
100
AcDbPolyline
 90
        9
 70
   128
 43
0.0
 10
-476.7768024985
 20
-38.4151221779
 10
-476.7449897065
 20
-38.5225309053
 10
-470.025960492
 20
-61.277393572
 10
-463.3098816099
 20
-84.02391542
 10
-456.5619484759
 20
-106.7767146484
 10
-449.8007984289
 20
-129.5032204429
 10
-443.4916578727
 20
-150.6468384847
 10
-437.1723582949
 20
-171.7627581974
 10
-424.4955793646
 20
-213.9322245072
  0
LWPOLYLINE
  5
B5
330
1F
100
AcDbEntity
  8
0
  6
Continuous
 62
     7
370
    25
100
AcDbPolyline
 90
        9
 70
   128
 43
0.0
 10
-424.4955793646
 20
-213.9322245072
 10
-421.2860493927
 20
-290.471010791
 10
-418.0140830204
 20
-366.9748287049
 10
-414.6638386656
 20
-443.4514902618
 10
-411.2194747464
 20
-519.9088074747
 10
-407.6789537103
 20
-596.3647881242
 10
-403.9656385861
 20
-672.822970898
 10
-399.9510839119
 20
-749.2848725185
 10
-398.7735688948
 20
-769.5450764492
  0
LWPOLYLINE
  5
B6
330
1F
100
AcDbEntity
  8
0
  6
Continuous
 62
     7
370
    25
100
AcDbPolyline
 90
        8
 70
   128
 43
0.0
 10
974.5223954013
 20
391.4792854677
 10
974.488342057
 20
391.5942592334
 10
964.7661550215
 20
424.8621112598
 10
956.9783527845
 20
451.5507139699
 10
949.1861968876
 20
478.2179923931
 10
941.3905034068
 20
504.853965412
 10
929.6629798764
 20
544.8276928338
 10
917.9183201364
 20
584.7201200447
  0
LWPOLYLINE
  5
B7
330
1F
100
AcDbEntity
  8
0
  6
Continuous
 62
     7
370
    25
100
AcDbPolyline
 90
        7
 70
   128
 43
0.0
 10
917.9183201364
 20
584.7201200447
 10
913.917774937
 20
686.9744883903
 10
909.8201823475
 20
789.1792963724
 10
905.5863820106
 20
891.3482229736
 10
902.3041059859
 20
967.9686373318
 10
898.8740241429
 20
1044.5873471026
 10
895.6425488359
 20
1112.197062961
  0
LWPOLYLINE
  5
B8
330
1F
100
AcDbEntity
  8
0
  6
Continuous
 62
     7
370
    25
100
AcDbPolyline
 90
       40
 70
   128
 43
0.0
 10
-132.6611328931
 20
769.4924492779
 10
-150.9599905025
 20
763.447088187
 10
-169.3162321589
 20
757.4836044565
 10
-187.7728260101
 20
751.7095701681
 10
-206.3727402035
 20
746.2325574036
 10
-225.1589428868
 20
741.1601382447
 10
-244.1744022077
 20
736.5998847732
 10
-252.3101776588
 20
734.8825358308
 10
-260.5168898178
 20
733.4151967364
 10
-268.79454296
 20
732.3069527153
 10
-275.1553473092
 20
731.7799901134
 10
-281.5753065813
 20
731.6685433409
 10
-287.9586978887
 20
732.148258296
 10
-294.2097983436
 20
733.3947808769
 10
-298.3477030063
 20
734.79632164
 10
-302.308775523
 20
736.6825848767
 10
-305.9975691745
 20
739.0291098528
 10
-309.3545473922
 20
741.7920017172
 10
-312.4181115781
 20
744.8981801189
 10
-315.2002351877
 20
748.2505999006
 10
-319.9278610998
 20
755.0793356209
 10
-324.0634117735
 20
762.3017136804
 10
-327.7348704456
 20
769.8046681851
 10
-331.0702203527
 20
777.4751332407
 10
-334.1974447316
 20
785.2000429534
 10
-341.129046115
 20
803.4917040366
 10
-347.5523047115
 20
821.9552629657
 10
-353.5942386508
 20
840.5372691665
 10
-359.3818660625
 20
859.1842720647
 10
-365.0422050762
 20
877.8428210862
 10
-374.3553915414
 20
909.0858917779
 10
-383.4410869409
 20
940.3519265552
 10
-392.3503848855
 20
971.6307709897
 10
-406.6059400641
 20
1022.7042713185
 10
-420.4641617028
 20
1073.8661220675
 10
-433.8345558299
 20
1125.1867819319
 10
-439.3254459158
 20
1146.8641864531
 10
-444.6963008364
 20
1168.6007885827
 10
-449.8380987182
 20
1190.4131088913
 10
-452.7831371899
 20
1203.8422394343
  0
LWPOLYLINE
  5
B9
330
1F
100
AcDbEntity
  8
0
  6
Continuous
 62
     7
370
    25
100
AcDbPolyline
 90
        3
 70
   128
 43
0.0
 10
213.2412527218
 20
165.9775375458
 10
213.2085219872
 20
166.0880471059
 10
213.1163418211
 20
166.399411134
  0
LWPOLYLINE
  5
BA
330
1F
100
AcDbEntity
  8
0
  6
Continuous
 62
     7
370
    25
100
AcDbPolyline
 90
        3
 70
   128
 43
0.0
 10
-146.080403842
 20
152.2865325602
 10
-115.5759507086
 20
102.3505288445
 10
-98.1420500728
 20
73.7416011522
  0
LWPOLYLINE
  5
BB
330
1F
100
AcDbEntity
  8
0
  6
Continuous
 62
     7
370
    25
100
AcDbPolyline
 90
       37
 70
   128
 43
0.0
 10
-458.323711541
 20
660.3000459019
 10
-436.3184729022
 20
664.4230304508
 10
-414.0870306769
 20
668.0601578908
 10
-402.7551652643
 20
669.6725217526
 10
-391.3294204384
 20
671.018507089
 10
-379.824974
 20
671.9051797614
 10
-368.2570037499
 20
672.1396056313
 10
-361.6392421951
 20
671.8692392808
 10
-355.0377774031
 20
671.1308631389
 10
-348.5445934684
 20
669.7673399463
 10
-343.8989469429
 20
668.2582780426
 10
-339.4217807502
 20
666.2615316111
 10
-335.2152902431
 20
663.7730732568
 10
-331.3391898783
 20
660.7985490827
 10
-327.7881000022
 20
657.4168867436
 10
-324.5646682224
 20
653.7326892152
 10
-319.3589680451
 20
646.5562415931
 10
-314.7805604894
 20
638.9436292489
 10
-310.6892286835
 20
631.0216131606
 10
-306.9447557556
 20
622.916954306
 10
-303.4069248339
 20
614.7564136632
 10
-295.4335733942
 20
595.3372820938
 10
-287.9377735626
 20
575.7495519518
 10
-280.7921002659
 20
556.0496616319
 10
-273.8691284312
 20
536.2940495288
 10
-267.0414329852
 20
516.5391540372
 10
-255.7155224908
 20
483.5101755476
 10
-244.5391250992
 20
450.4840157762
 10
-233.4603658091
 20
417.4647205633
 10
-222.4394358843
 20
384.4644812544
 10
-211.453357573
 20
351.4403887159
 10
-200.4987671655
 20
318.3833646782
 10
-189.572300952
 20
285.2843308715
 10
-178.6705952226
 20
252.134209026
 10
-167.7902862677
 20
218.9239208722
 10
-156.9280103774
 20
185.6443881401
 10
-146.080403842
 20
152.2865325602
  0
LWPOLYLINE
  5
BC
330
1F
100
AcDbEntity
  8
0
  6
Continuous
 62
     7
370
    25
100
AcDbPolyline
 90
       26
 70
   128
 43
0.0
 10
-790.7305323821
 20
1053.308980157
 10
-783.4421142402
 20
1054.8887637327
 10
-776.1227003265
 20
1056.1314711034
 10
-768.7158222961
 20
1057.0487894866
 10
-761.2533880437
 20
1057.5340759397
 10
-753.7673054639
 20
1057.4806875196
 10
-746.3958092646
 20
1056.7646369469
 10
-739.1013317335
 20
1055.284747628
 10
-732.0367336189
 20
1052.9869988519
 10
-725.2927487008
 20
1049.8483711331
 10
-718.8953247241
 20
1045.9903002387
 10
-712.885096756
 20
1041.5695055795
 10
-705.2051018107
 20
1034.8439387521
 10
-698.031464364
 20
1027.5487782794
 10
-691.2600485503
 20
1019.8527261074
 10
-684.7867185039
 20
1011.9244841823
 10
-672.0960688933
 20
995.2606781505
 10
-659.9400335536
 20
978.2020371168
 10
-641.6748374564
 20
951.4787419397
 10
-623.8359397922
 20
924.4746616869
 10
-606.311543806
 20
897.2692378514
 10
-588.9898527431
 20
869.9419119261
 10
-571.7590698486
 20
842.5721254039
 10
-528.8271713075
 20
773.9771046766
 10
-486.1589693027
 20
705.2710606784
 10
-458.323711541
 20
660.3000459019
  0
LWPOLYLINE
  5
BD
330
1F
100
AcDbEntity
  8
0
  6
Continuous
 62
     7
370
    25
100
AcDbPolyline
 90
       13
 70
   128
 43
0.0
 10
-653.1458550287
 20
1174.823990518
 10
-658.1037192051
 20
1172.1988591554
 10
-668.5828196929
 20
1167.2140868791
 10
-679.3883887505
 20
1162.8856099508
 10
-686.100173444
 20
1160.7141293201
 10
-692.9808821032
 20
1159.0396526287
 10
-699.9901392423
 20
1158.0399507428
 10
-705.2679001832
 20
1157.8543111544
 10
-710.5596506726
 20
1158.221759704
 10
-715.7644329118
 20
1159.1868155692
 10
-720.8267350218
 20
1160.7776267705
 10
-725.7045739247
 20
1162.9266463013
 10
-727.6641893589
 20
1164.0316055985
  0
LINE
  5
BE
330
1F
100
AcDbEntity
  8
0
  6
Continuous
 62
     7
370
    25
100
AcDbLine
 10
214.9023757293
 20
166.4695845974
 30
0.0
 11
213.5523729336
 21
165.6664173341
 31
0.0
  0
LWPOLYLINE
  5
BF
330
1F
100
AcDbEntity
  8
0
  6
Continuous
 62
     7
370
    25
100
AcDbPolyline
 90
        3
 70
   128
 43
0.0
 10
616.2374825714
 20
182.2380838912
 10
590.0714826229
 20
226.0368952247
 10
563.8909967386
 20
269.8447237286
  0
LWPOLYLINE
  5
C0
330
1F
100
AcDbEntity
  8
0
  6
Continuous
 62
     7
370
    25
100
AcDbPolyline
 90
       39
 70
   128
 43
0.0
 10
592.7639903354
 20
-448.8284173813
 10
612.8720598872
 20
-445.844644938
 10
641.8901876163
 20
-441.2795625814
 10
670.9372113178
 20
-436.2723392252
 10
685.5706998865
 20
-433.5544533279
 10
700.2256297551
 20
-430.5833947572
 10
714.8383028059
 20
-427.1606398474
 10
729.3450209209
 20
-423.0876649331
 10
735.8413751448
 20
-420.970493342
 10
742.2626308631
 20
-418.5386712985
 10
748.4809424832
 20
-415.6480872679
 10
754.3684644123
 20
-412.154629715
 10
758.7049227412
 20
-408.7851311299
 10
762.4932837546
 20
-404.8080934446
 10
765.5454651756
 20
-400.2213503057
 10
767.7967909841
 20
-395.1841840239
 10
769.1940801635
 20
-390.2257322187
 10
770.0293888927
 20
-385.1203504871
 10
770.4139601062
 20
-379.9684883418
 10
770.4237774127
 20
-373.4354070116
 10
770.0285917194
 20
-366.9071821446
 10
769.3390520196
 20
-360.4069152619
 10
766.8192068189
 20
-343.758424452
 10
763.5307757406
 20
-327.2446339662
 10
759.686390585
 20
-310.8419725922
 10
755.4986831527
 20
-294.5268691175
 10
751.1802852444
 20
-278.2757523299
 10
741.0977646205
 20
-241.1464469639
 10
730.6935842189
 20
-204.1664698474
 10
720.0590101819
 20
-167.3012544127
 10
709.2853086523
 20
-130.5162340919
 10
698.4637457725
 20
-93.7768423174
 10
686.8526568202
 20
-54.4283015459
 10
675.1932247877
 20
-15.0699401154
 10
663.4873515079
 20
24.3087821732
 10
651.7369388135
 20
63.718405519
 10
639.9438885375
 20
103.1694701213
 10
628.1101025125
 20
142.6725161789
 10
616.2374825714
 20
182.2380838912
  0
LINE
  5
C1
330
1F
100
AcDbEntity
  8
0
  6
Continuous
 62
     7
370
    25
100
AcDbLine
 10
560.07845796
 20
371.8277736472
 30
0.0
 11
832.2492823881
 21
533.7523984809
 31
0.0
  0
LWPOLYLINE
  5
C2
330
1F
100
AcDbEntity
  8
0
  6
Continuous
 62
     7
370
    25
100
AcDbPolyline
 90
        7
 70
   128
 43
0.0
 10
832.2492823881
 20
533.7523984809
 10
832.3305652238
 20
533.6157770516
 10
835.0471879424
 20
529.0527779014
 10
857.7376137008
 20
491.0466894585
 10
880.4509060589
 20
453.0583935796
 10
903.1534796039
 20
415.0577228787
 10
925.8460614141
 20
377.0606984554
  0
LWPOLYLINE
  5
C3
330
1F
100
AcDbEntity
  8
0
  6
Continuous
 62
     7
370
    25
100
AcDbPolyline
 90
        7
 70
   128
 43
0.0
 10
932.6896138872
 20
194.6715219934
 10
932.6833740453
 20
194.8303721702
 10
931.6873638833
 20
221.0260904783
 10
930.2318523244
 20
260.0381195854
 10
928.7750965818
 20
299.0465335224
 10
927.3131088243
 20
338.0570114757
 10
925.8460614141
 20
377.0606984554
  0
LWPOLYLINE
  5
C4
330
1F
100
AcDbEntity
  8
0
  6
Continuous
 62
     7
370
    25
100
AcDbPolyline
 90
       18
 70
   128
 43
0.0
 10
616.2374825714
 20
182.2380838912
 10
633.1784356454
 20
182.9036957503
 10
650.0293307697
 20
183.5657692229
 10
666.7869266837
 20
184.2241769596
 10
683.4479821266
 20
184.8787916108
 10
705.7021723188
 20
185.7531611248
 10
727.8591109918
 20
186.6237096162
 10
749.963963788
 20
187.492211648
 10
779.6111800392
 20
188.657053947
 10
809.3763285554
 20
189.8265298173
 10
829.3620215075
 20
190.611769832
 10
849.4765666152
 20
191.4020724617
 10
869.7248984033
 20
192.1976315843
 10
885.327585848
 20
192.8106628387
 10
901.0188737119
 20
193.4271752097
 10
916.764640262
 20
194.0458280608
 10
932.5307637653
 20
194.6652807554
 10
932.6896138872
 20
194.6715219934
  0
LWPOLYLINE
  5
C5
330
1F
100
AcDbEntity
  8
0
  6
Continuous
 62
     7
370
    25
100
AcDbPolyline
 90
       27
 70
   128
 43
0.0
 10
534.2661459589
 20
1035.5957143989
 10
518.1995182797
 20
1031.2615526887
 10
498.1788887741
 20
1025.9807134199
 10
477.9843984497
 20
1020.9837488263
 10
467.7279507699
 20
1018.6333040625
 10
457.3837837422
 20
1016.5035184418
 10
446.9477320959
 20
1014.7655898732
 10
436.4156305608
 20
1013.5907162658
 10
430.7346282504
 20
1013.2783232172
 10
425.0334394816
 20
1013.3093471762
 10
419.3570014285
 20
1013.7950914145
 10
414.8516256475
 20
1014.6045393023
 10
410.435557983
 20
1015.8617127415
 10
406.205297229
 20
1017.6097904264
 10
402.2056226802
 20
1019.902565579
 10
398.4976400658
 20
1022.677943746
 10
395.1307511769
 20
1025.8402864284
 10
390.6683533174
 20
1031.1605933041
 10
386.7995093295
 20
1036.9601060595
 10
383.4083563464
 20
1043.0422217524
 10
378.4972809444
 20
1053.420698701
 10
374.2133184566
 20
1064.0836721401
 10
370.3728954369
 20
1074.9243445522
 10
366.7924384388
 20
1085.8359184197
 10
359.9592593469
 20
1108.0242357979
 10
353.5396613014
 20
1130.3071548536
 10
349.5485774662
 20
1144.7332244212
  0
LWPOLYLINE
  5
C6
330
1F
100
AcDbEntity
  8
0
  6
Continuous
 62
     7
370
    25
100
AcDbPolyline
 90
       10
 70
   128
 43
0.0
 10
832.2492823881
 20
533.7523984809
 10
832.1680019548
 20
533.8890213394
 10
819.786238264
 20
554.7584563002
 10
784.143544768
 20
614.9286239579
 10
748.4997631442
 20
675.0856103267
 10
712.8535633016
 20
735.216646151
 10
677.2036151493
 20
795.3089621751
 10
629.5935757682
 20
875.4771479376
 10
581.9542366055
 20
955.574396728
 10
534.2661459589
 20
1035.5957143989
  0
LWPOLYLINE
  5
C7
330
1F
100
AcDbEntity
  8
0
  6
Continuous
 62
     7
370
    25
100
AcDbPolyline
 90
       11
 70
   128
 43
0.0
 10
932.6896138872
 20
194.6715219934
 10
932.6958565223
 20
194.5126719263
 10
933.5174740958
 20
174.1632538313
 10
934.4081204679
 20
152.5756216485
 10
937.1977446013
 20
84.9078601978
 10
939.9740982794
 20
17.2518626675
 10
942.7325346129
 20
-50.3839215516
 10
945.4684067126
 20
-117.9910430691
 10
949.0793907948
 20
-208.2002267807
 10
952.6302265261
 20
-298.3688150709
 10
956.1033869304
 20
-388.5029446627
  0
LWPOLYLINE
  5
C8
330
1F
100
AcDbEntity
  8
0
  6
Continuous
 62
     7
370
    25
100
AcDbPolyline
 90
       35
 70
   128
 43
0.0
 10
956.1033869304
 20
-388.5029446627
 10
937.0318942511
 20
-394.6721229007
 10
917.0196178326
 20
-401.2995698497
 10
897.0314026508
 20
-408.3203568688
 10
886.9646149559
 20
-412.0827840766
 10
876.9603594435
 20
-416.1303509182
 10
867.1496092023
 20
-420.6548238864
 10
857.6633373211
 20
-425.847969474
 10
853.0414071243
 20
-428.8253757115
 10
848.6416644652
 20
-432.1431035919
 10
844.5868380496
 20
-435.8603804535
 10
841.7548443716
 20
-439.0767766095
 10
839.2705856475
 20
-442.5866382719
 10
837.209235793
 20
-446.3453122662
 10
835.6112534683
 20
-450.3236557022
 10
834.4463562297
 20
-454.4658139247
 10
833.6813719069
 20
-458.691802542
 10
833.173235636
 20
-464.6460807822
 10
833.1837251098
 20
-470.638981551
 10
833.6023122282
 20
-476.6296237336
 10
834.3184688909
 20
-482.577126215
 10
836.7740022047
 20
-496.7161650836
 10
839.9868217995
 20
-510.7086982699
 10
843.7020654721
 20
-524.5828173373
 10
847.6648710194
 20
-538.366613849
 10
856.005841901
 20
-566.0339784926
 10
864.7082857618
 20
-593.5438014462
 10
878.1329464639
 20
-634.890840579
 10
891.7521663383
 20
-676.0899168363
 10
905.4595837133
 20
-717.199775738
 10
919.1488369172
 20
-758.279162804
 10
930.0642844692
 20
-791.1529156334
 10
940.9079804014
 20
-824.0708735379
 10
951.5726235176
 20
-857.0770802875
 10
952.7215619449
 20
-860.7457095733
  0
LWPOLYLINE
  5
C9
330
1F
100
AcDbEntity
  8
0
  6
Continuous
 62
     7
370
    25
100
AcDbPolyline
 90
       19
 70
   128
 43
0.0
 10
-95.5679008075
 20
-18.240819818
 10
-109.0557071455
 20
-26.2652213522
 10
-122.467069474
 20
-34.24414348
 10
-135.8000043558
 20
-42.1764061801
 10
-149.0525283536
 20
-50.0608294313
 10
-166.7539918549
 20
-60.5920935464
 10
-184.3757986534
 20
-71.0759669033
 10
-201.9557298428
 20
-81.5349268907
 10
-219.6119522041
 20
-92.0392753558
 10
-237.3133862494
 20
-102.5705219463
 10
-255.0939722122
 20
-113.1488589794
 10
-272.9876503263
 20
-123.794478772
 10
-285.1758134377
 20
-131.0456738415
 10
-297.4548196998
 20
-138.3509149105
 10
-309.8057574974
 20
-145.6989507461
 10
-322.2097152154
 20
-153.0785301154
 10
-334.6477812385
 20
-160.4784017854
 10
-347.1010439515
 20
-167.8873145234
 10
-347.2286766666
 20
-167.9632480098
  0
LWPOLYLINE
  5
CA
330
1F
100
AcDbEntity
  8
0
  6
Continuous
 62
     7
370
    25
100
AcDbPolyline
 90
        7
 70
   128
 43
0.0
 10
-347.2286766666
 20
-167.9632480098
 10
-347.3046112437
 20
-167.8356159436
 10
-350.621272062
 20
-162.265605272
 10
-371.0288100794
 20
-128.0084382541
 10
-391.4248740357
 20
-93.7484905137
 10
-411.8106392255
 20
-59.4769274793
 10
-432.1805617135
 20
-25.2051138328
  0
LWPOLYLINE
  5
CB
330
1F
100
AcDbEntity
  8
0
  6
Continuous
 62
     7
370
    25
100
AcDbPolyline
 90
        5
 70
   128
 43
0.0
 10
-438.6855684719
 20
140.7900443309
 10
-438.6797391619
 20
140.6416461386
 10
-437.2440377237
 20
103.5419984963
 10
-434.7301294528
 20
39.1643112784
 10
-432.1805617135
 20
-25.2051138328
  0
LWPOLYLINE
  5
CC
330
1F
100
AcDbEntity
  8
0
  6
Continuous
 62
     7
370
    25
100
AcDbPolyline
 90
       19
 70
   128
 43
0.0
 10
-146.080403842
 20
152.2865325602
 10
-161.762632352
 20
151.6703761239
 10
-177.3559796611
 20
151.0577118395
 10
-192.8581396333
 20
150.4486303153
 10
-208.2668061325
 20
149.8432221597
 10
-228.8482401057
 20
149.0345754166
 10
-249.3370574899
 20
148.2295675891
 10
-269.7771862398
 20
147.4264727432
 10
-290.3060184868
 20
146.6198927275
 10
-310.8874182116
 20
145.81124733
 10
-331.5608476132
 20
144.9989860766
 10
-352.3657688907
 20
144.1815584933
 10
-366.5369064547
 20
143.6247729789
 10
-380.8136670562
 20
143.0638375205
 10
-395.1740622198
 20
142.4996160512
 10
-409.5961034702
 20
141.9329725042
 10
-424.0578023319
 20
141.3647708127
 10
-438.5371703295
 20
140.79587491
 10
-438.6855684719
 20
140.7900443309
  0
LWPOLYLINE
  5
CD
330
1F
100
AcDbEntity
  8
0
  6
Continuous
 62
     7
370
    25
100
AcDbPolyline
 90
       10
 70
   128
 43
0.0
 10
-347.2286766666
 20
-167.9632480098
 10
-347.1527442718
 20
-168.0908813743
 10
-342.9874419773
 20
-175.0991394281
 10
-310.3031821665
 20
-230.0927977785
 10
-277.5953068518
 20
-285.0627404234
 10
-244.8678860595
 20
-339.9984702149
 10
-212.1249898161
 20
-394.8894900049
 10
-168.3749927726
 20
-468.1215593935
 10
-124.5879130712
 20
-541.2777111564
 10
-80.7531833315
 20
-614.3566953714
  0
LWPOLYLINE
  5
CE
330
1F
100
AcDbEntity
  8
0
  6
Continuous
 62
     7
370
    25
100
AcDbPolyline
 90
       10
 70
   128
 43
0.0
 10
-438.6855684719
 20
140.7900443309
 10
-438.6914003193
 20
140.9384424234
 10
-439.0150547822
 20
149.0846484076
 10
-441.5554210598
 20
213.0073348133
 10
-444.0630652103
 20
276.9229934801
 10
-446.5356834884
 20
340.8206040637
 10
-448.9709721492
 20
404.6891462197
 10
-452.1641808851
 20
489.9346836174
 10
-455.2849417849
 20
575.1367477998
 10
-458.323711541
 20
660.3000459019
  0
LWPOLYLINE
  5
CF
330
1F
100
AcDbEntity
  8
0
  6
Continuous
 62
     7
370
    25
100
AcDbPolyline
 90
       17
 70
   128
 43
0.0
 10
1194.000224852
 20
-825.8016622278
 10
1193.8601690192
 20
-824.6100031936
 10
1192.6451373405
 20
-818.5379295728
 10
1189.4547779109
 20
-806.9377171501
 10
1185.4682684108
 20
-795.5737203099
 10
1180.8574361322
 20
-784.4105599741
 10
1175.7941083675
 20
-773.4128570648
 10
1170.4501124088
 20
-762.5452325039
 10
1164.9972755484
 20
-751.7723072133
 10
1148.4738229024
 20
-720.1776574219
 10
1131.3264170421
 20
-688.9188789897
 10
1113.7702373107
 20
-657.8897676657
 10
1096.0204630518
 20
-626.9841191993
 10
1060.2218208892
 20
-565.2647872602
 10
1024.1495768253
 20
-503.73900969
 10
990.1656701903
 20
-446.0868695499
 10
956.1033869304
 20
-388.5029446627
  0
LWPOLYLINE
  5
D0
330
1F
100
AcDbEntity
  8
0
  6
Continuous
 62
     7
370
    25
100
AcDbPolyline
 90
        8
 70
   128
 43
0.0
 10
1032.2967251204
 20
198.5850960525
 10
1016.028146081
 20
197.9459018412
 10
999.6644816476
 20
197.3029717145
 10
983.2140657825
 20
196.6566331149
 10
966.4851216321
 20
195.9993511171
 10
949.6813485457
 20
195.3391290823
 10
932.8484640092
 20
194.6777632314
 10
932.6896138872
 20
194.6715219934
  0
LINE
  5
D1
330
1F
100
AcDbEntity
  8
0
  6
Continuous
 62
     7
370
    25
100
AcDbLine
 10
-424.4955793646
 20
-213.9322245072
 30
0.0
 11
-347.2286766666
 21
-167.9632480098
 31
0.0
  0
LINE
  5
D2
330
1F
100
AcDbEntity
  8
0
  6
Continuous
 62
     7
370
    25
100
AcDbLine
 10
917.9183201364
 20
584.7201200447
 30
0.0
 11
832.2492823881
 21
533.7523984809
 31
0.0
  0
LINE
  5
D3
330
1F
100
AcDbEntity
  8
0
  6
Continuous
 62
     7
370
    25
100
AcDbLine
 10
530.3509058777
 20
1128.1616726382
 30
0.0
 11
534.2661459589
 21
1035.5957143989
 31
0.0
  0
LWPOLYLINE
  5
D4
330
1F
100
AcDbEntity
  8
0
  6
Continuous
 62
     7
370
    25
100
AcDbPolyline
 90
        8
 70
   128
 43
0.0
 10
-528.5235446412
 20
137.2603006338
 10
-513.8770411007
 20
137.8357633252
 10
-499.1365586966
 20
138.4149184562
 10
-484.3106232352
 20
138.997431047
 10
-469.2101121032
 20
139.5907317508
 10
-454.0362441711
 20
140.1869146511
 10
-438.8339666142
 20
140.7842137517
 10
-438.6855684719
 20
140.7900443309
  0
LINE
  5
D5
330
1F
100
AcDbEntity
  8
0
  6
Continuous
 62
     7
370
    25
100
AcDbLine
 10
-432.1805617135
 20
-25.2051138328
 30
0.0
 11
-476.7768024985
 21
-38.4151221779
 31
0.0
  0
LINE
  5
D6
330
1F
100
AcDbEntity
  8
0
  6
Continuous
 62
     7
370
    25
100
AcDbLine
 10
925.8460614141
 20
377.0606984554
 30
0.0
 11
974.5223954013
 21
391.4792854677
 31
0.0
  0
LWPOLYLINE
  5
D7
330
1F
100
AcDbEntity
  8
0
  6
Continuous
 62
     7
370
    25
100
AcDbPolyline
 90
        3
 70
   128
 43
0.0
 10
213.5523729336
 20
165.6664173341
 10
213.4742486688
 20
165.7977353506
 10
213.3484045483
 20
166.0092773628
  0
LWPOLYLINE
  5
D8
330
1F
100
AcDbEntity
  8
0
  6
Continuous
 62
     7
370
    25
100
AcDbPolyline
 90
        3
 70
   128
 43
0.0
 10
213.3327318746
 20
166.4079131224
 10
213.3387322709
 20
166.2552310428
 10
213.3484045483
 20
166.0092773628
  0
LINE
  5
D9
330
1F
100
AcDbEntity
  8
0
  6
Continuous
 62
     7
370
    25
100
AcDbLine
 10
213.3484045483
 20
166.0092773628
 30
0.0
 11
213.2412527218
 21
165.9775375458
 31
0.0
  0
ARC
  5
DA
330
1F
100
AcDbEntity
  8
0
  6
Continuous
 62
     7
370
    25
100
AcDbCircle
 10
-585.0976242707
 20
1263.9695845975
 30
0.0
 40
2.250000000000254
100
AcDbArc
 50
41.1281260491
 51
101.1281260491
  0
ARC
  5
DB
330
1F
100
AcDbEntity
  8
0
  6
Continuous
 62
     7
370
    25
100
AcDbCircle
 10
-585.0976242707
 20
1263.9695845975
 30
0.0
 40
2.250000000000254
100
AcDbArc
 50
101.1281260491
 51
161.1281260491
  0
ARC
  5
DC
330
1F
100
AcDbEntity
  8
0
  6
Continuous
 62
     7
370
    25
100
AcDbCircle
 10
-585.0976242707
 20
1263.9695845975
 30
0.0
 40
2.250000000000218
100
AcDbArc
 50
161.1281260491
 51
221.1281260491
  0
ARC
  5
DD
330
1F
100
AcDbEntity
  8
0
  6
Continuous
 62
     7
370
    25
100
AcDbCircle
 10
-585.0976242707
 20
1263.9695845975
 30
0.0
 40
2.250000000000231
100
AcDbArc
 50
221.1281260491
 51
281.1281260491
  0
ARC
  5
DE
330
1F
100
AcDbEntity
  8
0
  6
Continuous
 62
     7
370
    25
100
AcDbCircle
 10
-585.0976242707
 20
1263.9695845975
 30
0.0
 40
2.250000000000231
100
AcDbArc
 50
281.1281260491
 51
341.1281260491
  0
ARC
  5
DF
330
1F
100
AcDbEntity
  8
0
  6
Continuous
 62
     7
370
    25
100
AcDbCircle
 10
-585.0976242707
 20
1263.9695845975
 30
0.0
 40
2.250000000000111
100
AcDbArc
 50
341.1281260491
 51
41.1281260491
  0
CIRCLE
  5
E0
330
1F
100
AcDbEntity
  8
0
  6
Continuous
 62
     7
370
    25
100
AcDbCircle
 10
-585.0976242707
 20
1263.9695845975
 30
0.0
 40
3.850000000000048
  0
ARC
  5
E1
330
1F
100
AcDbEntity
  8
0
  6
Continuous
 62
     7
370
    25
100
AcDbCircle
 10
-583.7417911886
 20
1265.1535257503
 30
0.0
 40
0.4500000000001004
100
AcDbArc
 50
41.128126049
 51
117.7863678218
  0
ARC
  5
E2
330
1F
100
AcDbEntity
  8
0
  6
Continuous
 62
     7
370
    25
100
AcDbCircle
 10
-584.3186841891
 20
1266.2483319962
 30
0.0
 40
0.787499999999983
100
AcDbArc
 50
204.4698842763
 51
297.7863678218
  0
ARC
  5
E3
330
1F
100
AcDbEntity
  8
0
  6
Continuous
 62
     7
370
    25
100
AcDbCircle
 10
-585.4450308446
 20
1265.7357410663
 30
0.0
 40
0.4500000000001722
100
AcDbArc
 50
24.4698842763
 51
101.128126049
  0
ARC
  5
E4
330
1F
100
AcDbEntity
  8
0
  6
Continuous
 62
     7
370
    25
100
AcDbCircle
 10
-585.4450308446
 20
1265.7357410663
 30
0.0
 40
0.4500000000002402
100
AcDbArc
 50
101.128126049
 51
177.7863678219
  0
ARC
  5
E5
330
1F
100
AcDbEntity
  8
0
  6
Continuous
 62
     7
370
    25
100
AcDbCircle
 10
-586.8008639267
 20
1264.5517999134
 30
0.0
 40
0.450000000000398
100
AcDbArc
 50
84.4698842763
 51
161.1281260491
  0
ARC
  5
E6
330
1F
100
AcDbEntity
  8
0
  6
Continuous
 62
     7
370
    25
100
AcDbCircle
 10
-586.681607366
 20
1265.7835401956
 30
0.0
 40
0.7874999999997172
100
AcDbArc
 50
264.4698842763
 51
357.7863678218
  0
ARC
  5
E7
330
1F
100
AcDbEntity
  8
0
  6
Continuous
 62
     7
370
    25
100
AcDbCircle
 10
-584.7502176968
 20
1262.2034281286
 30
0.0
 40
0.4500000000001502
100
AcDbArc
 50
281.128126049
 51
357.7863678219
  0
ARC
  5
E8
330
1F
100
AcDbEntity
  8
0
  6
Continuous
 62
     7
370
    25
100
AcDbCircle
 10
-583.3943846147
 20
1263.3873692815
 30
0.0
 40
0.450000000000242
100
AcDbArc
 50
264.4698842763
 51
341.1281260491
  0
ARC
  5
E9
330
1F
100
AcDbEntity
  8
0
  6
Continuous
 62
     7
370
    25
100
AcDbCircle
 10
-583.5136411754
 20
1262.1556289993
 30
0.0
 40
0.787499999999858
100
AcDbArc
 50
84.4698842763
 51
177.7863678218
  0
ARC
  5
EA
330
1F
100
AcDbEntity
  8
0
  6
Continuous
 62
     7
370
    25
100
AcDbCircle
 10
-582.7347010937
 20
1264.4343763981
 30
0.0
 40
0.7874999999999931
100
AcDbArc
 50
144.4698842763
 51
237.7863678218
  0
ARC
  5
EB
330
1F
100
AcDbEntity
  8
0
  6
Continuous
 62
     7
370
    25
100
AcDbCircle
 10
-583.3943846147
 20
1263.3873692815
 30
0.0
 40
0.450000000000242
100
AcDbArc
 50
341.1281260491
 51
57.7863678218
  0
ARC
  5
EC
330
1F
100
AcDbEntity
  8
0
  6
Continuous
 62
     7
370
    25
100
AcDbCircle
 10
-583.7417911886
 20
1265.1535257503
 30
0.0
 40
0.449999999999962
100
AcDbArc
 50
324.4698842762
 51
41.1281260491
  0
ARC
  5
ED
330
1F
100
AcDbEntity
  8
0
  6
Continuous
 62
     7
370
    25
100
AcDbCircle
 10
-586.4534573528
 20
1262.7856434446
 30
0.0
 40
0.4499999999999523
100
AcDbArc
 50
221.1281260491
 51
297.7863678219
  0
ARC
  5
EE
330
1F
100
AcDbEntity
  8
0
  6
Continuous
 62
     7
370
    25
100
AcDbCircle
 10
-585.8765643523
 20
1261.6908371987
 30
0.0
 40
0.787499999999983
100
AcDbArc
 50
24.4698842763
 51
117.7863678219
  0
ARC
  5
EF
330
1F
100
AcDbEntity
  8
0
  6
Continuous
 62
     7
370
    25
100
AcDbCircle
 10
-584.7502176968
 20
1262.2034281286
 30
0.0
 40
0.4500000000001502
100
AcDbArc
 50
204.4698842763
 51
281.128126049
  0
ARC
  5
F0
330
1F
100
AcDbEntity
  8
0
  6
Continuous
 62
     7
370
    25
100
AcDbCircle
 10
-586.8008639267
 20
1264.5517999134
 30
0.0
 40
0.450000000000242
100
AcDbArc
 50
161.1281260491
 51
237.7863678218
  0
ARC
  5
F1
330
1F
100
AcDbEntity
  8
0
  6
Continuous
 62
     7
370
    25
100
AcDbCircle
 10
-587.4605474477
 20
1263.5047927968
 30
0.0
 40
0.7875000000001252
100
AcDbArc
 50
324.4698842763
 51
57.7863678218
  0
ARC
  5
F2
330
1F
100
AcDbEntity
  8
0
  6
Continuous
 62
     7
370
    25
100
AcDbCircle
 10
-586.4534573528
 20
1262.7856434446
 30
0.0
 40
0.449999999999962
100
AcDbArc
 50
144.4698842762
 51
221.1281260491
  0
ARC
  5
F3
330
1F
100
AcDbEntity
  8
0
  6
Continuous
 62
     7
370
    25
100
AcDbCircle
 10
1312.4023757293
 20
76.4695845974
 30
0.0
 40
2.250000000000187
100
AcDbArc
 50
281.128126049
 51
341.1281260491
  0
ARC
  5
F4
330
1F
100
AcDbEntity
  8
0
  6
Continuous
 62
     7
370
    25
100
AcDbCircle
 10
1312.7497823032
 20
74.7034281286
 30
0.0
 40
0.4500000000003115
100
AcDbArc
 50
281.128126049
 51
357.7863678219
  0
ARC
  5
F5
330
1F
100
AcDbEntity
  8
0
  6
Continuous
 62
     7
370
    25
100
AcDbCircle
 10
1313.9863588246
 20
74.6556289993
 30
0.0
 40
0.787499999999795
100
AcDbArc
 50
84.4698842763
 51
177.7863678218
  0
ARC
  5
F6
330
1F
100
AcDbEntity
  8
0
  6
Continuous
 62
     7
370
    25
100
AcDbCircle
 10
1314.1056153853
 20
75.8873692815
 30
0.0
 40
0.4500000000001685
100
AcDbArc
 50
264.4698842763
 51
341.1281260491
  0
ARC
  5
F7
330
1F
100
AcDbEntity
  8
0
  6
Continuous
 62
     7
370
    25
100
AcDbCircle
 10
1312.4023757293
 20
76.4695845974
 30
0.0
 40
2.250000000000372
100
AcDbArc
 50
101.1281260491
 51
161.1281260491
  0
ARC
  5
F8
330
1F
100
AcDbEntity
  8
0
  6
Continuous
 62
     7
370
    25
100
AcDbCircle
 10
1312.0549691554
 20
78.2357410663
 30
0.0
 40
0.4500000000003115
100
AcDbArc
 50
101.128126049
 51
177.7863678219
  0
ARC
  5
F9
330
1F
100
AcDbEntity
  8
0
  6
Continuous
 62
     7
370
    25
100
AcDbCircle
 10
1310.6991360733
 20
77.0517999134
 30
0.0
 40
0.4500000000003542
100
AcDbArc
 50
84.4698842763
 51
161.1281260491
  0
ARC
  5
FA
330
1F
100
AcDbEntity
  8
0
  6
Continuous
 62
     7
370
    25
100
AcDbCircle
 10
1310.818392634
 20
78.2835401956
 30
0.0
 40
0.787499999999737
100
AcDbArc
 50
264.4698842763
 51
357.7863678218
  0
ARC
  5
FB
330
1F
100
AcDbEntity
  8
0
  6
Continuous
 62
     7
370
    25
100
AcDbCircle
 10
1312.4023757293
 20
76.4695845974
 30
0.0
 40
2.249999999999942
100
AcDbArc
 50
341.1281260491
 51
41.1281260491
  0
ARC
  5
FC
330
1F
100
AcDbEntity
  8
0
  6
Continuous
 62
     7
370
    25
100
AcDbCircle
 10
1314.1056153853
 20
75.8873692815
 30
0.0
 40
0.4500000000000367
100
AcDbArc
 50
341.1281260491
 51
57.7863678219
  0
ARC
  5
FD
330
1F
100
AcDbEntity
  8
0
  6
Continuous
 62
     7
370
    25
100
AcDbCircle
 10
1314.7652989063
 20
76.9343763981
 30
0.0
 40
0.7875000000003037
100
AcDbArc
 50
144.4698842763
 51
237.7863678218
  0
ARC
  5
FE
330
1F
100
AcDbEntity
  8
0
  6
Continuous
 62
     7
370
    25
100
AcDbCircle
 10
1313.7582088114
 20
77.6535257503
 30
0.0
 40
0.449999999999863
100
AcDbArc
 50
324.4698842763
 51
41.128126049
  0
ARC
  5
FF
330
1F
100
AcDbEntity
  8
0
  6
Continuous
 62
     7
370
    25
100
AcDbCircle
 10
1312.4023757293
 20
76.4695845974
 30
0.0
 40
2.250000000000303
100
AcDbArc
 50
41.1281260491
 51
101.1281260491
  0
ARC
  5
100
330
1F
100
AcDbEntity
  8
0
  6
Continuous
 62
     7
370
    25
100
AcDbCircle
 10
1312.4023757293
 20
76.4695845974
 30
0.0
 40
2.250000000000372
100
AcDbArc
 50
161.1281260491
 51
221.1281260491
  0
ARC
  5
101
330
1F
100
AcDbEntity
  8
0
  6
Continuous
 62
     7
370
    25
100
AcDbCircle
 10
1312.4023757293
 20
76.4695845974
 30
0.0
 40
2.250000000000187
100
AcDbArc
 50
221.1281260491
 51
281.128126049
  0
CIRCLE
  5
102
330
1F
100
AcDbEntity
  8
0
  6
Continuous
 62
     7
370
    25
100
AcDbCircle
 10
1312.4023757293
 20
76.4695845974
 30
0.0
 40
3.849999999999738
  0
ARC
  5
103
330
1F
100
AcDbEntity
  8
0
  6
Continuous
 62
     7
370
    25
100
AcDbCircle
 10
1313.7582088114
 20
77.6535257503
 30
0.0
 40
0.450000000000078
100
AcDbArc
 50
41.128126049
 51
117.7863678218
  0
ARC
  5
104
330
1F
100
AcDbEntity
  8
0
  6
Continuous
 62
     7
370
    25
100
AcDbCircle
 10
1313.1813158109
 20
78.7483319962
 30
0.0
 40
0.7875000000001513
100
AcDbArc
 50
204.4698842763
 51
297.7863678218
  0
ARC
  5
105
330
1F
100
AcDbEntity
  8
0
  6
Continuous
 62
     7
370
    25
100
AcDbCircle
 10
1312.0549691554
 20
78.2357410663
 30
0.0
 40
0.4500000000003255
100
AcDbArc
 50
24.4698842763
 51
101.128126049
  0
ARC
  5
106
330
1F
100
AcDbEntity
  8
0
  6
Continuous
 62
     7
370
    25
100
AcDbCircle
 10
1311.0465426472
 20
75.2856434446
 30
0.0
 40
0.4500000000000905
100
AcDbArc
 50
221.1281260491
 51
297.7863678218
  0
ARC
  5
107
330
1F
100
AcDbEntity
  8
0
  6
Continuous
 62
     7
370
    25
100
AcDbCircle
 10
1311.6234356476
 20
74.1908371987
 30
0.0
 40
0.78749999999995
100
AcDbArc
 50
24.4698842763
 51
117.7863678218
  0
ARC
  5
108
330
1F
100
AcDbEntity
  8
0
  6
Continuous
 62
     7
370
    25
100
AcDbCircle
 10
1312.7497823032
 20
74.7034281286
 30
0.0
 40
0.4500000000003115
100
AcDbArc
 50
204.4698842763
 51
281.128126049
  0
ARC
  5
109
330
1F
100
AcDbEntity
  8
0
  6
Continuous
 62
     7
370
    25
100
AcDbCircle
 10
1310.0394525523
 20
76.0047927968
 30
0.0
 40
0.7874999999999254
100
AcDbArc
 50
324.4698842763
 51
57.7863678219
  0
ARC
  5
10A
330
1F
100
AcDbEntity
  8
0
  6
Continuous
 62
     7
370
    25
100
AcDbCircle
 10
1311.0465426472
 20
75.2856434446
 30
0.0
 40
0.449999999999863
100
AcDbArc
 50
144.4698842763
 51
221.1281260491
  0
ARC
  5
10B
330
1F
100
AcDbEntity
  8
0
  6
Continuous
 62
     7
370
    25
100
AcDbCircle
 10
1310.6991360733
 20
77.0517999134
 30
0.0
 40
0.4500000000003587
100
AcDbArc
 50
161.1281260491
 51
237.7863678218
  0
ARC
  5
10C
330
1F
100
AcDbEntity
  8
0
  6
Continuous
 62
     7
370
    25
100
AcDbCircle
 10
-882.5976242707
 20
-633.5304154026
 30
0.0
 40
2.250000000000231
100
AcDbArc
 50
41.1281260491
 51
101.1281260491
  0
ARC
  5
10D
330
1F
100
AcDbEntity
  8
0
  6
Continuous
 62
     7
370
    25
100
AcDbCircle
 10
-882.5976242707
 20
-633.5304154026
 30
0.0
 40
2.250000000000255
100
AcDbArc
 50
101.1281260491
 51
161.1281260491
  0
ARC
  5
10E
330
1F
100
AcDbEntity
  8
0
  6
Continuous
 62
     7
370
    25
100
AcDbCircle
 10
-882.5976242707
 20
-633.5304154026
 30
0.0
 40
2.250000000000255
100
AcDbArc
 50
161.1281260491
 51
221.1281260491
  0
ARC
  5
10F
330
1F
100
AcDbEntity
  8
0
  6
Continuous
 62
     7
370
    25
100
AcDbCircle
 10
-882.5976242707
 20
-633.5304154026
 30
0.0
 40
2.25000000000021
100
AcDbArc
 50
221.1281260491
 51
281.1281260491
  0
ARC
  5
110
330
1F
100
AcDbEntity
  8
0
  6
Continuous
 62
     7
370
    25
100
AcDbCircle
 10
-882.5976242707
 20
-633.5304154026
 30
0.0
 40
2.25000000000021
100
AcDbArc
 50
281.1281260491
 51
341.1281260491
  0
ARC
  5
111
330
1F
100
AcDbEntity
  8
0
  6
Continuous
 62
     7
370
    25
100
AcDbCircle
 10
-882.5976242707
 20
-633.5304154026
 30
0.0
 40
2.250000000000148
100
AcDbArc
 50
341.1281260491
 51
41.1281260491
  0
CIRCLE
  5
112
330
1F
100
AcDbEntity
  8
0
  6
Continuous
 62
     7
370
    25
100
AcDbCircle
 10
-882.5976242707
 20
-633.5304154026
 30
0.0
 40
3.849999999999899
  0
ARC
  5
113
330
1F
100
AcDbEntity
  8
0
  6
Continuous
 62
     7
370
    25
100
AcDbCircle
 10
-882.2502176968
 20
-635.2965718714
 30
0.0
 40
0.4500000000002617
100
AcDbArc
 50
281.128126049
 51
357.7863678219
  0
ARC
  5
114
330
1F
100
AcDbEntity
  8
0
  6
Continuous
 62
     7
370
    25
100
AcDbCircle
 10
-881.0136411754
 20
-635.3443710007
 30
0.0
 40
0.7874999999997447
100
AcDbArc
 50
84.4698842763
 51
177.7863678218
  0
ARC
  5
115
330
1F
100
AcDbEntity
  8
0
  6
Continuous
 62
     7
370
    25
100
AcDbCircle
 10
-880.8943846147
 20
-634.1126307185
 30
0.0
 40
0.4500000000001827
100
AcDbArc
 50
264.4698842763
 51
341.1281260491
  0
ARC
  5
116
330
1F
100
AcDbEntity
  8
0
  6
Continuous
 62
     7
370
    25
100
AcDbCircle
 10
-881.2417911886
 20
-632.3464742497
 30
0.0
 40
0.4499999999999998
100
AcDbArc
 50
41.1281260491
 51
117.7863678218
  0
ARC
  5
117
330
1F
100
AcDbEntity
  8
0
  6
Continuous
 62
     7
370
    25
100
AcDbCircle
 10
-882.9450308447
 20
-631.7642589337
 30
0.0
 40
0.4500000000002617
100
AcDbArc
 50
24.4698842763
 51
101.128126049
  0
ARC
  5
118
330
1F
100
AcDbEntity
  8
0
  6
Continuous
 62
     7
370
    25
100
AcDbCircle
 10
-881.8186841891
 20
-631.2516680038
 30
0.0
 40
0.7875000000001335
100
AcDbArc
 50
204.4698842763
 51
297.7863678218
  0
ARC
  5
119
330
1F
100
AcDbEntity
  8
0
  6
Continuous
 62
     7
370
    25
100
AcDbCircle
 10
-880.2347010938
 20
-633.0656236019
 30
0.0
 40
0.7875000000000592
100
AcDbArc
 50
144.4698842763
 51
237.7863678219
  0
ARC
  5
11A
330
1F
100
AcDbEntity
  8
0
  6
Continuous
 62
     7
370
    25
100
AcDbCircle
 10
-881.2417911886
 20
-632.3464742497
 30
0.0
 40
0.4499999999999224
100
AcDbArc
 50
324.4698842763
 51
41.1281260491
  0
ARC
  5
11B
330
1F
100
AcDbEntity
  8
0
  6
Continuous
 62
     7
370
    25
100
AcDbCircle
 10
-880.8943846147
 20
-634.1126307185
 30
0.0
 40
0.4500000000001694
100
AcDbArc
 50
341.1281260491
 51
57.7863678218
  0
ARC
  5
11C
330
1F
100
AcDbEntity
  8
0
  6
Continuous
 62
     7
370
    25
100
AcDbCircle
 10
-882.9450308447
 20
-631.7642589337
 30
0.0
 40
0.4500000000002617
100
AcDbArc
 50
101.128126049
 51
177.7863678219
  0
ARC
  5
11D
330
1F
100
AcDbEntity
  8
0
  6
Continuous
 62
     7
370
    25
100
AcDbCircle
 10
-884.3008639268
 20
-632.9482000866
 30
0.0
 40
0.4500000000001827
100
AcDbArc
 50
84.4698842763
 51
161.1281260491
  0
ARC
  5
11E
330
1F
100
AcDbEntity
  8
0
  6
Continuous
 62
     7
370
    25
100
AcDbCircle
 10
-884.181607366
 20
-631.7164598044
 30
0.0
 40
0.7874999999997447
100
AcDbArc
 50
264.4698842763
 51
357.7863678218
  0
ARC
  5
11F
330
1F
100
AcDbEntity
  8
0
  6
Continuous
 62
     7
370
    25
100
AcDbCircle
 10
-884.9605474477
 20
-633.9952072032
 30
0.0
 40
0.7875000000000592
100
AcDbArc
 50
324.4698842763
 51
57.7863678219
  0
ARC
  5
120
330
1F
100
AcDbEntity
  8
0
  6
Continuous
 62
     7
370
    25
100
AcDbCircle
 10
-883.9534573528
 20
-634.7143565554
 30
0.0
 40
0.4499999999999885
100
AcDbArc
 50
144.4698842763
 51
221.1281260491
  0
ARC
  5
121
330
1F
100
AcDbEntity
  8
0
  6
Continuous
 62
     7
370
    25
100
AcDbCircle
 10
-884.3008639268
 20
-632.9482000866
 30
0.0
 40
0.4500000000001694
100
AcDbArc
 50
161.1281260491
 51
237.7863678218
  0
ARC
  5
122
330
1F
100
AcDbEntity
  8
0
  6
Continuous
 62
     7
370
    25
100
AcDbCircle
 10
-883.9534573528
 20
-634.7143565554
 30
0.0
 40
0.4499999999999998
100
AcDbArc
 50
221.1281260491
 51
297.7863678218
  0
ARC
  5
123
330
1F
100
AcDbEntity
  8
0
  6
Continuous
 62
     7
370
    25
100
AcDbCircle
 10
-882.2502176968
 20
-635.2965718714
 30
0.0
 40
0.4500000000002617
100
AcDbArc
 50
204.4698842763
 51
281.128126049
  0
ARC
  5
124
330
1F
100
AcDbEntity
  8
0
  6
Continuous
 62
     7
370
    25
100
AcDbCircle
 10
-883.3765643524
 20
-635.8091628013
 30
0.0
 40
0.7875000000000301
100
AcDbArc
 50
24.4698842763
 51
117.7863678218
  0
ARC
  5
125
330
1F
100
AcDbEntity
  8
0
  6
Continuous
 62
     7
370
    25
100
AcDbCircle
 10
-585.0976242707
 20
-931.0304154026
 30
0.0
 40
2.250000000000218
100
AcDbArc
 50
341.1281260491
 51
41.1281260491
  0
ARC
  5
126
330
1F
100
AcDbEntity
  8
0
  6
Continuous
 62
     7
370
    25
100
AcDbCircle
 10
-583.7417911886
 20
-929.8464742497
 30
0.0
 40
0.4500000000000546
100
AcDbArc
 50
324.4698842763
 51
41.1281260491
  0
ARC
  5
127
330
1F
100
AcDbEntity
  8
0
  6
Continuous
 62
     7
370
    25
100
AcDbCircle
 10
-583.3943846147
 20
-931.6126307185
 30
0.0
 40
0.450000000000242
100
AcDbArc
 50
341.1281260491
 51
57.7863678218
  0
ARC
  5
128
330
1F
100
AcDbEntity
  8
0
  6
Continuous
 62
     7
370
    25
100
AcDbCircle
 10
-582.7347010938
 20
-930.5656236019
 30
0.0
 40
0.7874999999999931
100
AcDbArc
 50
144.4698842763
 51
237.7863678218
  0
ARC
  5
129
330
1F
100
AcDbEntity
  8
0
  6
Continuous
 62
     7
370
    25
100
AcDbCircle
 10
-585.0976242707
 20
-931.0304154026
 30
0.0
 40
2.250000000000254
100
AcDbArc
 50
41.1281260491
 51
101.1281260491
  0
ARC
  5
12A
330
1F
100
AcDbEntity
  8
0
  6
Continuous
 62
     7
370
    25
100
AcDbCircle
 10
-585.0976242707
 20
-931.0304154026
 30
0.0
 40
2.250000000000254
100
AcDbArc
 50
101.1281260491
 51
161.1281260491
  0
ARC
  5
12B
330
1F
100
AcDbEntity
  8
0
  6
Continuous
 62
     7
370
    25
100
AcDbCircle
 10
-585.0976242707
 20
-931.0304154026
 30
0.0
 40
2.250000000000148
100
AcDbArc
 50
161.1281260491
 51
221.1281260491
  0
ARC
  5
12C
330
1F
100
AcDbEntity
  8
0
  6
Continuous
 62
     7
370
    25
100
AcDbCircle
 10
-585.0976242707
 20
-931.0304154026
 30
0.0
 40
2.250000000000254
100
AcDbArc
 50
221.1281260491
 51
281.1281260491
  0
ARC
  5
12D
330
1F
100
AcDbEntity
  8
0
  6
Continuous
 62
     7
370
    25
100
AcDbCircle
 10
-585.0976242707
 20
-931.0304154026
 30
0.0
 40
2.250000000000254
100
AcDbArc
 50
281.1281260491
 51
341.1281260491
  0
CIRCLE
  5
12E
330
1F
100
AcDbEntity
  8
0
  6
Continuous
 62
     7
370
    25
100
AcDbCircle
 10
-585.0976242707
 20
-931.0304154026
 30
0.0
 40
3.85000000000006
  0
ARC
  5
12F
330
1F
100
AcDbEntity
  8
0
  6
Continuous
 62
     7
370
    25
100
AcDbCircle
 10
-583.7417911886
 20
-929.8464742497
 30
0.0
 40
0.4500000000001004
100
AcDbArc
 50
41.1281260491
 51
117.7863678218
  0
ARC
  5
130
330
1F
100
AcDbEntity
  8
0
  6
Continuous
 62
     7
370
    25
100
AcDbCircle
 10
-585.4450308447
 20
-929.2642589337
 30
0.0
 40
0.4500000000001722
100
AcDbArc
 50
24.4698842763
 51
101.128126049
  0
ARC
  5
131
330
1F
100
AcDbEntity
  8
0
  6
Continuous
 62
     7
370
    25
100
AcDbCircle
 10
-584.3186841891
 20
-928.7516680038
 30
0.0
 40
0.787499999999983
100
AcDbArc
 50
204.4698842763
 51
297.7863678219
  0
ARC
  5
132
330
1F
100
AcDbEntity
  8
0
  6
Continuous
 62
     7
370
    25
100
AcDbCircle
 10
-586.681607366
 20
-929.2164598044
 30
0.0
 40
0.7874999999997556
100
AcDbArc
 50
264.4698842763
 51
357.7863678218
  0
ARC
  5
133
330
1F
100
AcDbEntity
  8
0
  6
Continuous
 62
     7
370
    25
100
AcDbCircle
 10
-586.8008639267
 20
-930.4482000866
 30
0.0
 40
0.4500000000002787
100
AcDbArc
 50
84.4698842763
 51
161.1281260491
  0
ARC
  5
134
330
1F
100
AcDbEntity
  8
0
  6
Continuous
 62
     7
370
    25
100
AcDbCircle
 10
-585.4450308447
 20
-929.2642589337
 30
0.0
 40
0.4500000000001722
100
AcDbArc
 50
101.128126049
 51
177.7863678219
  0
ARC
  5
135
330
1F
100
AcDbEntity
  8
0
  6
Continuous
 62
     7
370
    25
100
AcDbCircle
 10
-584.7502176968
 20
-932.7965718714
 30
0.0
 40
0.4500000000002402
100
AcDbArc
 50
281.128126049
 51
357.7863678219
  0
ARC
  5
136
330
1F
100
AcDbEntity
  8
0
  6
Continuous
 62
     7
370
    25
100
AcDbCircle
 10
-583.5136411754
 20
-932.8443710007
 30
0.0
 40
0.7874999999997128
100
AcDbArc
 50
84.4698842763
 51
177.7863678218
  0
ARC
  5
137
330
1F
100
AcDbEntity
  8
0
  6
Continuous
 62
     7
370
    25
100
AcDbCircle
 10
-583.3943846147
 20
-931.6126307185
 30
0.0
 40
0.4500000000002849
100
AcDbArc
 50
264.4698842763
 51
341.1281260491
  0
ARC
  5
138
330
1F
100
AcDbEntity
  8
0
  6
Continuous
 62
     7
370
    25
100
AcDbCircle
 10
-586.8008639267
 20
-930.4482000866
 30
0.0
 40
0.4500000000002787
100
AcDbArc
 50
161.1281260491
 51
237.7863678218
  0
ARC
  5
139
330
1F
100
AcDbEntity
  8
0
  6
Continuous
 62
     7
370
    25
100
AcDbCircle
 10
-587.4605474477
 20
-931.4952072032
 30
0.0
 40
0.7875000000001516
100
AcDbArc
 50
324.4698842763
 51
57.7863678218
  0
ARC
  5
13A
330
1F
100
AcDbEntity
  8
0
  6
Continuous
 62
     7
370
    25
100
AcDbCircle
 10
-586.4534573528
 20
-932.2143565554
 30
0.0
 40
0.449999999999896
100
AcDbArc
 50
144.4698842763
 51
221.1281260491
  0
ARC
  5
13B
330
1F
100
AcDbEntity
  8
0
  6
Continuous
 62
     7
370
    25
100
AcDbCircle
 10
-584.7502176968
 20
-932.7965718714
 30
0.0
 40
0.4500000000001722
100
AcDbArc
 50
204.4698842763
 51
281.128126049
  0
ARC
  5
13C
330
1F
100
AcDbEntity
  8
0
  6
Continuous
 62
     7
370
    25
100
AcDbCircle
 10
-586.4534573528
 20
-932.2143565554
 30
0.0
 40
0.4499999999998993
100
AcDbArc
 50
221.1281260491
 51
297.7863678218
  0
ARC
  5
13D
330
1F
100
AcDbEntity
  8
0
  6
Continuous
 62
     7
370
    25
100
AcDbCircle
 10
-585.8765643524
 20
-933.3091628013
 30
0.0
 40
0.7875000000000911
100
AcDbArc
 50
24.4698842763
 51
117.7863678218
  0
ARC
  5
13E
330
1F
100
AcDbEntity
  8
0
  6
Continuous
 62
     7
370
    25
100
AcDbCircle
 10
-882.5976242707
 20
76.4695845974
 30
0.0
 40
2.25000000000021
100
AcDbArc
 50
281.1281260491
 51
341.1281260491
  0
ARC
  5
13F
330
1F
100
AcDbEntity
  8
0
  6
Continuous
 62
     7
370
    25
100
AcDbCircle
 10
-882.2502176968
 20
74.7034281286
 30
0.0
 40
0.4500000000002896
100
AcDbArc
 50
281.128126049
 51
357.7863678219
  0
ARC
  5
140
330
1F
100
AcDbEntity
  8
0
  6
Continuous
 62
     7
370
    25
100
AcDbCircle
 10
-880.8943846147
 20
75.8873692815
 30
0.0
 40
0.4500000000001685
100
AcDbArc
 50
264.4698842763
 51
341.1281260491
  0
ARC
  5
141
330
1F
100
AcDbEntity
  8
0
  6
Continuous
 62
     7
370
    25
100
AcDbCircle
 10
-881.0136411754
 20
74.6556289993
 30
0.0
 40
0.787499999999773
100
AcDbArc
 50
84.4698842763
 51
177.7863678218
  0
ARC
  5
142
330
1F
100
AcDbEntity
  8
0
  6
Continuous
 62
     7
370
    25
100
AcDbCircle
 10
-882.5976242707
 20
76.4695845974
 30
0.0
 40
2.250000000000265
100
AcDbArc
 50
101.1281260491
 51
161.1281260491
  0
ARC
  5
143
330
1F
100
AcDbEntity
  8
0
  6
Continuous
 62
     7
370
    25
100
AcDbCircle
 10
-882.9450308447
 20
78.2357410663
 30
0.0
 40
0.4500000000002896
100
AcDbArc
 50
101.128126049
 51
177.7863678219
  0
ARC
  5
144
330
1F
100
AcDbEntity
  8
0
  6
Continuous
 62
     7
370
    25
100
AcDbCircle
 10
-884.181607366
 20
78.2835401956
 30
0.0
 40
0.787499999999759
100
AcDbArc
 50
264.4698842763
 51
357.7863678218
  0
ARC
  5
145
330
1F
100
AcDbEntity
  8
0
  6
Continuous
 62
     7
370
    25
100
AcDbCircle
 10
-884.3008639268
 20
77.0517999134
 30
0.0
 40
0.4500000000001685
100
AcDbArc
 50
84.4698842763
 51
161.1281260491
  0
ARC
  5
146
330
1F
100
AcDbEntity
  8
0
  6
Continuous
 62
     7
370
    25
100
AcDbCircle
 10
-882.5976242707
 20
76.4695845974
 30
0.0
 40
2.250000000000259
100
AcDbArc
 50
41.1281260491
 51
101.1281260491
  0
ARC
  5
147
330
1F
100
AcDbEntity
  8
0
  6
Continuous
 62
     7
370
    25
100
AcDbCircle
 10
-881.8186841891
 20
78.7483319962
 30
0.0
 40
0.7875000000001453
100
AcDbArc
 50
204.4698842763
 51
297.7863678218
  0
ARC
  5
148
330
1F
100
AcDbEntity
  8
0
  6
Continuous
 62
     7
370
    25
100
AcDbCircle
 10
-882.9450308447
 20
78.2357410663
 30
0.0
 40
0.4500000000003035
100
AcDbArc
 50
24.4698842763
 51
101.128126049
  0
ARC
  5
149
330
1F
100
AcDbEntity
  8
0
  6
Continuous
 62
     7
370
    25
100
AcDbCircle
 10
-881.2417911886
 20
77.6535257503
 30
0.0
 40
0.4500000000000375
100
AcDbArc
 50
41.1281260491
 51
117.7863678218
  0
ARC
  5
14A
330
1F
100
AcDbEntity
  8
0
  6
Continuous
 62
     7
370
    25
100
AcDbCircle
 10
-882.5976242707
 20
76.4695845974
 30
0.0
 40
2.250000000000152
100
AcDbArc
 50
341.1281260491
 51
41.1281260491
  0
ARC
  5
14B
330
1F
100
AcDbEntity
  8
0
  6
Continuous
 62
     7
370
    25
100
AcDbCircle
 10
-880.2347010938
 20
76.9343763981
 30
0.0
 40
0.7875000000000262
100
AcDbArc
 50
144.4698842763
 51
237.7863678219
  0
ARC
  5
14C
330
1F
100
AcDbEntity
  8
0
  6
Continuous
 62
     7
370
    25
100
AcDbCircle
 10
-881.2417911886
 20
77.6535257503
 30
0.0
 40
0.4499999999999472
100
AcDbArc
 50
324.4698842763
 51
41.1281260491
  0
ARC
  5
14D
330
1F
100
AcDbEntity
  8
0
  6
Continuous
 62
     7
370
    25
100
AcDbCircle
 10
-880.8943846147
 20
75.8873692815
 30
0.0
 40
0.4500000000001436
100
AcDbArc
 50
341.1281260491
 51
57.7863678218
  0
ARC
  5
14E
330
1F
100
AcDbEntity
  8
0
  6
Continuous
 62
     7
370
    25
100
AcDbCircle
 10
-882.5976242707
 20
76.4695845974
 30
0.0
 40
2.250000000000265
100
AcDbArc
 50
161.1281260491
 51
221.1281260491
  0
ARC
  5
14F
330
1F
100
AcDbEntity
  8
0
  6
Continuous
 62
     7
370
    25
100
AcDbCircle
 10
-882.5976242707
 20
76.4695845974
 30
0.0
 40
2.25000000000021
100
AcDbArc
 50
221.1281260491
 51
281.1281260491
  0
CIRCLE
  5
150
330
1F
100
AcDbEntity
  8
0
  6
Continuous
 62
     7
370
    25
100
AcDbCircle
 10
-882.5976242707
 20
76.4695845974
 30
0.0
 40
3.849999999999918
  0
ARC
  5
151
330
1F
100
AcDbEntity
  8
0
  6
Continuous
 62
     7
370
    25
100
AcDbCircle
 10
-884.3008639268
 20
77.0517999134
 30
0.0
 40
0.4500000000001436
100
AcDbArc
 50
161.1281260491
 51
237.7863678218
  0
ARC
  5
152
330
1F
100
AcDbEntity
  8
0
  6
Continuous
 62
     7
370
    25
100
AcDbCircle
 10
-884.9605474477
 20
76.0047927968
 30
0.0
 40
0.7875000000000179
100
AcDbArc
 50
324.4698842763
 51
57.7863678219
  0
ARC
  5
153
330
1F
100
AcDbEntity
  8
0
  6
Continuous
 62
     7
370
    25
100
AcDbCircle
 10
-883.9534573528
 20
75.2856434446
 30
0.0
 40
0.4499999999999555
100
AcDbArc
 50
144.4698842763
 51
221.1281260491
  0
ARC
  5
154
330
1F
100
AcDbEntity
  8
0
  6
Continuous
 62
     7
370
    25
100
AcDbCircle
 10
-883.3765643524
 20
74.1908371987
 30
0.0
 40
0.7875000000000418
100
AcDbArc
 50
24.4698842763
 51
117.7863678218
  0
ARC
  5
155
330
1F
100
AcDbEntity
  8
0
  6
Continuous
 62
     7
370
    25
100
AcDbCircle
 10
-883.9534573528
 20
75.2856434446
 30
0.0
 40
0.4500000000000375
100
AcDbArc
 50
221.1281260491
 51
297.7863678218
  0
ARC
  5
156
330
1F
100
AcDbEntity
  8
0
  6
Continuous
 62
     7
370
    25
100
AcDbCircle
 10
-882.2502176968
 20
74.7034281286
 30
0.0
 40
0.4500000000002896
100
AcDbArc
 50
204.4698842763
 51
281.128126049
  0
ARC
  5
157
330
1F
100
AcDbEntity
  8
0
  6
Continuous
 62
     7
370
    25
100
AcDbCircle
 10
1312.4023757293
 20
-633.5304154026
 30
0.0
 40
2.249999999999932
100
AcDbArc
 50
341.1281260491
 51
41.1281260491
  0
ARC
  5
158
330
1F
100
AcDbEntity
  8
0
  6
Continuous
 62
     7
370
    25
100
AcDbCircle
 10
1313.7582088114
 20
-632.3464742497
 30
0.0
 40
0.4500000000000811
100
AcDbArc
 50
324.4698842763
 51
41.128126049
  0
ARC
  5
159
330
1F
100
AcDbEntity
  8
0
  6
Continuous
 62
     7
370
    25
100
AcDbCircle
 10
1314.7652989062
 20
-633.0656236019
 30
0.0
 40
0.7875000000002707
100
AcDbArc
 50
144.4698842763
 51
237.7863678218
  0
ARC
  5
15A
330
1F
100
AcDbEntity
  8
0
  6
Continuous
 62
     7
370
    25
100
AcDbCircle
 10
1314.1056153853
 20
-634.1126307185
 30
0.0
 40
0.4499999999999876
100
AcDbArc
 50
341.1281260491
 51
57.7863678219
  0
ARC
  5
15B
330
1F
100
AcDbEntity
  8
0
  6
Continuous
 62
     7
370
    25
100
AcDbCircle
 10
1312.4023757293
 20
-633.5304154026
 30
0.0
 40
2.250000000000387
100
AcDbArc
 50
41.1281260491
 51
101.1281260491
  0
ARC
  5
15C
330
1F
100
AcDbEntity
  8
0
  6
Continuous
 62
     7
370
    25
100
AcDbCircle
 10
1312.0549691553
 20
-631.7642589337
 30
0.0
 40
0.4500000000003513
100
AcDbArc
 50
24.4698842763
 51
101.128126049
  0
ARC
  5
15D
330
1F
100
AcDbEntity
  8
0
  6
Continuous
 62
     7
370
    25
100
AcDbCircle
 10
1313.7582088114
 20
-632.3464742497
 30
0.0
 40
0.4499999999999468
100
AcDbArc
 50
41.128126049
 51
117.7863678218
  0
ARC
  5
15E
330
1F
100
AcDbEntity
  8
0
  6
Continuous
 62
     7
370
    25
100
AcDbCircle
 10
1313.1813158109
 20
-631.2516680038
 30
0.0
 40
0.7875000000001335
100
AcDbArc
 50
204.4698842763
 51
297.7863678218
  0
ARC
  5
15F
330
1F
100
AcDbEntity
  8
0
  6
Continuous
 62
     7
370
    25
100
AcDbCircle
 10
1312.4023757293
 20
-633.5304154026
 30
0.0
 40
2.250000000000615
100
AcDbArc
 50
101.1281260491
 51
161.1281260491
  0
ARC
  5
160
330
1F
100
AcDbEntity
  8
0
  6
Continuous
 62
     7
370
    25
100
AcDbCircle
 10
1312.4023757293
 20
-633.5304154026
 30
0.0
 40
2.250000000000615
100
AcDbArc
 50
161.1281260491
 51
221.1281260491
  0
ARC
  5
161
330
1F
100
AcDbEntity
  8
0
  6
Continuous
 62
     7
370
    25
100
AcDbCircle
 10
1312.4023757293
 20
-633.5304154026
 30
0.0
 40
2.250000000000187
100
AcDbArc
 50
221.1281260491
 51
281.128126049
  0
ARC
  5
162
330
1F
100
AcDbEntity
  8
0
  6
Continuous
 62
     7
370
    25
100
AcDbCircle
 10
1312.4023757293
 20
-633.5304154026
 30
0.0
 40
2.250000000000187
100
AcDbArc
 50
281.128126049
 51
341.1281260491
  0
CIRCLE
  5
163
330
1F
100
AcDbEntity
  8
0
  6
Continuous
 62
     7
370
    25
100
AcDbCircle
 10
1312.4023757293
 20
-633.5304154026
 30
0.0
 40
3.849999999999803
  0
ARC
  5
164
330
1F
100
AcDbEntity
  8
0
  6
Continuous
 62
     7
370
    25
100
AcDbCircle
 10
1312.7497823032
 20
-635.2965718714
 30
0.0
 40
0.4500000000003953
100
AcDbArc
 50
281.128126049
 51
357.7863678218
  0
ARC
  5
165
330
1F
100
AcDbEntity
  8
0
  6
Continuous
 62
     7
370
    25
100
AcDbCircle
 10
1313.9863588246
 20
-635.3443710007
 30
0.0
 40
0.7874999999997666
100
AcDbArc
 50
84.4698842763
 51
177.7863678218
  0
ARC
  5
166
330
1F
100
AcDbEntity
  8
0
  6
Continuous
 62
     7
370
    25
100
AcDbCircle
 10
1314.1056153853
 20
-634.1126307185
 30
0.0
 40
0.4500000000000695
100
AcDbArc
 50
264.4698842763
 51
341.1281260491
  0
ARC
  5
167
330
1F
100
AcDbEntity
  8
0
  6
Continuous
 62
     7
370
    25
100
AcDbCircle
 10
1310.6991360732
 20
-632.9482000866
 30
0.0
 40
0.4500000000005647
100
AcDbArc
 50
84.4698842763
 51
161.1281260491
  0
ARC
  5
168
330
1F
100
AcDbEntity
  8
0
  6
Continuous
 62
     7
370
    25
100
AcDbCircle
 10
1310.818392634
 20
-631.7164598044
 30
0.0
 40
0.787499999999836
100
AcDbArc
 50
264.4698842763
 51
357.7863678218
  0
ARC
  5
169
330
1F
100
AcDbEntity
  8
0
  6
Continuous
 62
     7
370
    25
100
AcDbCircle
 10
1312.0549691553
 20
-631.7642589337
 30
0.0
 40
0.4500000000003513
100
AcDbArc
 50
101.128126049
 51
177.7863678219
  0
ARC
  5
16A
330
1F
100
AcDbEntity
  8
0
  6
Continuous
 62
     7
370
    25
100
AcDbCircle
 10
1310.6991360732
 20
-632.9482000866
 30
0.0
 40
0.4500000000005647
100
AcDbArc
 50
161.1281260491
 51
237.7863678218
  0
ARC
  5
16B
330
1F
100
AcDbEntity
  8
0
  6
Continuous
 62
     7
370
    25
100
AcDbCircle
 10
1310.0394525523
 20
-633.9952072032
 30
0.0
 40
0.7874999999997155
100
AcDbArc
 50
324.4698842763
 51
57.7863678219
  0
ARC
  5
16C
330
1F
100
AcDbEntity
  8
0
  6
Continuous
 62
     7
370
    25
100
AcDbCircle
 10
1311.0465426472
 20
-634.7143565554
 30
0.0
 40
0.4500000000000811
100
AcDbArc
 50
144.4698842763
 51
221.1281260491
  0
ARC
  5
16D
330
1F
100
AcDbEntity
  8
0
  6
Continuous
 62
     7
370
    25
100
AcDbCircle
 10
1311.0465426472
 20
-634.7143565554
 30
0.0
 40
0.4499999999999468
100
AcDbArc
 50
221.1281260491
 51
297.7863678218
  0
ARC
  5
16E
330
1F
100
AcDbEntity
  8
0
  6
Continuous
 62
     7
370
    25
100
AcDbCircle
 10
1311.6234356476
 20
-635.8091628013
 30
0.0
 40
0.7875000000001441
100
AcDbArc
 50
24.4698842763
 51
117.7863678219
  0
ARC
  5
16F
330
1F
100
AcDbEntity
  8
0
  6
Continuous
 62
     7
370
    25
100
AcDbCircle
 10
1312.7497823032
 20
-635.2965718714
 30
0.0
 40
0.4500000000003953
100
AcDbArc
 50
204.4698842763
 51
281.128126049
  0
ARC
  5
170
330
1F
100
AcDbEntity
  8
0
  6
Continuous
 62
     7
370
    25
100
AcDbCircle
 10
1312.4023757293
 20
256.4695845974
 30
0.0
 40
2.249999999999951
100
AcDbArc
 50
341.1281260491
 51
41.1281260491
  0
ARC
  5
171
330
1F
100
AcDbEntity
  8
0
  6
Continuous
 62
     7
370
    25
100
AcDbCircle
 10
1314.1056153853
 20
255.8873692815
 30
0.0
 40
0.4500000000000367
100
AcDbArc
 50
341.1281260491
 51
57.7863678219
  0
ARC
  5
172
330
1F
100
AcDbEntity
  8
0
  6
Continuous
 62
     7
370
    25
100
AcDbCircle
 10
1314.7652989063
 20
256.9343763981
 30
0.0
 40
0.7875000000003037
100
AcDbArc
 50
144.4698842763
 51
237.7863678218
  0
ARC
  5
173
330
1F
100
AcDbEntity
  8
0
  6
Continuous
 62
     7
370
    25
100
AcDbCircle
 10
1313.7582088114
 20
257.6535257503
 30
0.0
 40
0.4500000000000149
100
AcDbArc
 50
324.4698842763
 51
41.128126049
  0
ARC
  5
174
330
1F
100
AcDbEntity
  8
0
  6
Continuous
 62
     7
370
    25
100
AcDbCircle
 10
1312.4023757293
 20
256.4695845974
 30
0.0
 40
2.250000000000215
100
AcDbArc
 50
281.128126049
 51
341.1281260491
  0
ARC
  5
175
330
1F
100
AcDbEntity
  8
0
  6
Continuous
 62
     7
370
    25
100
AcDbCircle
 10
1312.7497823032
 20
254.7034281286
 30
0.0
 40
0.4500000000003395
100
AcDbArc
 50
281.128126049
 51
357.7863678219
  0
ARC
  5
176
330
1F
100
AcDbEntity
  8
0
  6
Continuous
 62
     7
370
    25
100
AcDbCircle
 10
1313.9863588246
 20
254.6556289993
 30
0.0
 40
0.7874999999997666
100
AcDbArc
 50
84.4698842763
 51
177.7863678218
  0
ARC
  5
177
330
1F
100
AcDbEntity
  8
0
  6
Continuous
 62
     7
370
    25
100
AcDbCircle
 10
1314.1056153853
 20
255.8873692815
 30
0.0
 40
0.4500000000001544
100
AcDbArc
 50
264.4698842763
 51
341.1281260491
  0
ARC
  5
178
330
1F
100
AcDbEntity
  8
0
  6
Continuous
 62
     7
370
    25
100
AcDbCircle
 10
1312.4023757293
 20
256.4695845974
 30
0.0
 40
2.250000000000596
100
AcDbArc
 50
101.1281260491
 51
161.1281260491
  0
ARC
  5
179
330
1F
100
AcDbEntity
  8
0
  6
Continuous
 62
     7
370
    25
100
AcDbCircle
 10
1310.6991360733
 20
257.0517999134
 30
0.0
 40
0.4500000000005831
100
AcDbArc
 50
84.4698842763
 51
161.1281260491
  0
ARC
  5
17A
330
1F
100
AcDbEntity
  8
0
  6
Continuous
 62
     7
370
    25
100
AcDbCircle
 10
1310.818392634
 20
258.2835401956
 30
0.0
 40
0.7874999999997228
100
AcDbArc
 50
264.4698842763
 51
357.7863678218
  0
ARC
  5
17B
330
1F
100
AcDbEntity
  8
0
  6
Continuous
 62
     7
370
    25
100
AcDbCircle
 10
1312.0549691554
 20
258.2357410663
 30
0.0
 40
0.450000000000249
100
AcDbArc
 50
101.128126049
 51
177.7863678219
  0
ARC
  5
17C
330
1F
100
AcDbEntity
  8
0
  6
Continuous
 62
     7
370
    25
100
AcDbCircle
 10
1312.4023757293
 20
256.4695845974
 30
0.0
 40
2.250000000000275
100
AcDbArc
 50
41.1281260491
 51
101.1281260491
  0
ARC
  5
17D
330
1F
100
AcDbEntity
  8
0
  6
Continuous
 62
     7
370
    25
100
AcDbCircle
 10
1312.4023757293
 20
256.4695845974
 30
0.0
 40
2.250000000000596
100
AcDbArc
 50
161.1281260491
 51
221.1281260491
  0
ARC
  5
17E
330
1F
100
AcDbEntity
  8
0
  6
Continuous
 62
     7
370
    25
100
AcDbCircle
 10
1312.4023757293
 20
256.4695845974
 30
0.0
 40
2.250000000000215
100
AcDbArc
 50
221.1281260491
 51
281.128126049
  0
CIRCLE
  5
17F
330
1F
100
AcDbEntity
  8
0
  6
Continuous
 62
     7
370
    25
100
AcDbCircle
 10
1312.4023757293
 20
256.4695845974
 30
0.0
 40
3.849999999999728
  0
ARC
  5
180
330
1F
100
AcDbEntity
  8
0
  6
Continuous
 62
     7
370
    25
100
AcDbCircle
 10
1313.1813158109
 20
258.7483319962
 30
0.0
 40
0.7875000000001806
100
AcDbArc
 50
204.4698842763
 51
297.7863678218
  0
ARC
  5
181
330
1F
100
AcDbEntity
  8
0
  6
Continuous
 62
     7
370
    25
100
AcDbCircle
 10
1313.7582088114
 20
257.6535257503
 30
0.0
 40
0.4499999999999971
100
AcDbArc
 50
41.128126049
 51
117.7863678218
  0
ARC
  5
182
330
1F
100
AcDbEntity
  8
0
  6
Continuous
 62
     7
370
    25
100
AcDbCircle
 10
1312.0549691554
 20
258.2357410663
 30
0.0
 40
0.4500000000002604
100
AcDbArc
 50
24.4698842763
 51
101.128126049
  0
ARC
  5
183
330
1F
100
AcDbEntity
  8
0
  6
Continuous
 62
     7
370
    25
100
AcDbCircle
 10
1311.6234356476
 20
254.1908371987
 30
0.0
 40
0.7875000000000435
100
AcDbArc
 50
24.4698842763
 51
117.7863678219
  0
ARC
  5
184
330
1F
100
AcDbEntity
  8
0
  6
Continuous
 62
     7
370
    25
100
AcDbCircle
 10
1312.7497823032
 20
254.7034281286
 30
0.0
 40
0.4500000000003395
100
AcDbArc
 50
204.4698842763
 51
281.128126049
  0
ARC
  5
185
330
1F
100
AcDbEntity
  8
0
  6
Continuous
 62
     7
370
    25
100
AcDbCircle
 10
1311.0465426472
 20
255.2856434446
 30
0.0
 40
0.4499999999999971
100
AcDbArc
 50
221.1281260491
 51
297.7863678218
  0
ARC
  5
186
330
1F
100
AcDbEntity
  8
0
  6
Continuous
 62
     7
370
    25
100
AcDbCircle
 10
1310.0394525523
 20
256.0047927968
 30
0.0
 40
0.7874999999997486
100
AcDbArc
 50
324.4698842763
 51
57.7863678219
  0
ARC
  5
187
330
1F
100
AcDbEntity
  8
0
  6
Continuous
 62
     7
370
    25
100
AcDbCircle
 10
1311.0465426472
 20
255.2856434446
 30
0.0
 40
0.4500000000000149
100
AcDbArc
 50
144.4698842763
 51
221.1281260491
  0
ARC
  5
188
330
1F
100
AcDbEntity
  8
0
  6
Continuous
 62
     7
370
    25
100
AcDbCircle
 10
1310.6991360733
 20
257.0517999134
 30
0.0
 40
0.4500000000005831
100
AcDbArc
 50
161.1281260491
 51
237.7863678218
  0
ARC
  5
189
330
1F
100
AcDbEntity
  8
0
  6
Continuous
 62
     7
370
    25
100
AcDbCircle
 10
1312.4023757293
 20
966.4695845974
 30
0.0
 40
2.250000000000275
100
AcDbArc
 50
41.1281260491
 51
101.1281260491
  0
ARC
  5
18A
330
1F
100
AcDbEntity
  8
0
  6
Continuous
 62
     7
370
    25
100
AcDbCircle
 10
1312.4023757293
 20
966.4695845974
 30
0.0
 40
2.250000000000363
100
AcDbArc
 50
101.1281260491
 51
161.1281260491
  0
ARC
  5
18B
330
1F
100
AcDbEntity
  8
0
  6
Continuous
 62
     7
370
    25
100
AcDbCircle
 10
1312.4023757293
 20
966.4695845974
 30
0.0
 40
2.250000000000363
100
AcDbArc
 50
161.1281260491
 51
221.1281260491
  0
ARC
  5
18C
330
1F
100
AcDbEntity
  8
0
  6
Continuous
 62
     7
370
    25
100
AcDbCircle
 10
1312.4023757293
 20
966.4695845974
 30
0.0
 40
2.250000000000187
100
AcDbArc
 50
221.1281260491
 51
281.128126049
  0
ARC
  5
18D
330
1F
100
AcDbEntity
  8
0
  6
Continuous
 62
     7
370
    25
100
AcDbCircle
 10
1312.4023757293
 20
966.4695845974
 30
0.0
 40
2.250000000000187
100
AcDbArc
 50
281.128126049
 51
341.1281260491
  0
ARC
  5
18E
330
1F
100
AcDbEntity
  8
0
  6
Continuous
 62
     7
370
    25
100
AcDbCircle
 10
1312.4023757293
 20
966.4695845974
 30
0.0
 40
2.249999999999932
100
AcDbArc
 50
341.1281260491
 51
41.1281260491
  0
CIRCLE
  5
18F
330
1F
100
AcDbEntity
  8
0
  6
Continuous
 62
     7
370
    25
100
AcDbCircle
 10
1312.4023757293
 20
966.4695845974
 30
0.0
 40
3.849999999999899
  0
ARC
  5
190
330
1F
100
AcDbEntity
  8
0
  6
Continuous
 62
     7
370
    25
100
AcDbCircle
 10
1314.1056153853
 20
965.8873692815
 30
0.0
 40
0.4500000000001089
100
AcDbArc
 50
341.1281260491
 51
57.7863678219
  0
ARC
  5
191
330
1F
100
AcDbEntity
  8
0
  6
Continuous
 62
     7
370
    25
100
AcDbCircle
 10
1314.7652989063
 20
966.9343763981
 30
0.0
 40
0.7875000000002707
100
AcDbArc
 50
144.4698842763
 51
237.7863678218
  0
ARC
  5
192
330
1F
100
AcDbEntity
  8
0
  6
Continuous
 62
     7
370
    25
100
AcDbCircle
 10
1313.7582088114
 20
967.6535257503
 30
0.0
 40
0.449999999999896
100
AcDbArc
 50
324.4698842763
 51
41.128126049
  0
ARC
  5
193
330
1F
100
AcDbEntity
  8
0
  6
Continuous
 62
     7
370
    25
100
AcDbCircle
 10
1313.7582088114
 20
967.6535257503
 30
0.0
 40
0.4499999999999468
100
AcDbArc
 50
41.128126049
 51
117.7863678218
  0
ARC
  5
194
330
1F
100
AcDbEntity
  8
0
  6
Continuous
 62
     7
370
    25
100
AcDbCircle
 10
1313.1813158109
 20
968.7483319962
 30
0.0
 40
0.7875000000003405
100
AcDbArc
 50
204.4698842763
 51
297.7863678218
  0
ARC
  5
195
330
1F
100
AcDbEntity
  8
0
  6
Continuous
 62
     7
370
    25
100
AcDbCircle
 10
1312.0549691554
 20
968.2357410663
 30
0.0
 40
0.4500000000002837
100
AcDbArc
 50
24.4698842763
 51
101.128126049
  0
ARC
  5
196
330
1F
100
AcDbEntity
  8
0
  6
Continuous
 62
     7
370
    25
100
AcDbCircle
 10
1312.7497823032
 20
964.7034281286
 30
0.0
 40
0.4500000000002398
100
AcDbArc
 50
281.128126049
 51
357.7863678219
  0
ARC
  5
197
330
1F
100
AcDbEntity
  8
0
  6
Continuous
 62
     7
370
    25
100
AcDbCircle
 10
1313.9863588246
 20
964.6556289993
 30
0.0
 40
0.7874999999997083
100
AcDbArc
 50
84.4698842763
 51
177.7863678218
  0
ARC
  5
198
330
1F
100
AcDbEntity
  8
0
  6
Continuous
 62
     7
370
    25
100
AcDbCircle
 10
1314.1056153853
 20
965.8873692815
 30
0.0
 40
0.4500000000001827
100
AcDbArc
 50
264.4698842763
 51
341.1281260491
  0
ARC
  5
199
330
1F
100
AcDbEntity
  8
0
  6
Continuous
 62
     7
370
    25
100
AcDbCircle
 10
1310.818392634
 20
968.2835401956
 30
0.0
 40
0.787499999999836
100
AcDbArc
 50
264.4698842763
 51
357.7863678218
  0
ARC
  5
19A
330
1F
100
AcDbEntity
  8
0
  6
Continuous
 62
     7
370
    25
100
AcDbCircle
 10
1310.6991360733
 20
967.0517999134
 30
0.0
 40
0.4500000000003496
100
AcDbArc
 50
84.4698842763
 51
161.1281260491
  0
ARC
  5
19B
330
1F
100
AcDbEntity
  8
0
  6
Continuous
 62
     7
370
    25
100
AcDbCircle
 10
1312.0549691554
 20
968.2357410663
 30
0.0
 40
0.4500000000002837
100
AcDbArc
 50
101.128126049
 51
177.7863678219
  0
ARC
  5
19C
330
1F
100
AcDbEntity
  8
0
  6
Continuous
 62
     7
370
    25
100
AcDbCircle
 10
1310.6991360733
 20
967.0517999134
 30
0.0
 40
0.4500000000003513
100
AcDbArc
 50
161.1281260491
 51
237.7863678218
  0
ARC
  5
19D
330
1F
100
AcDbEntity
  8
0
  6
Continuous
 62
     7
370
    25
100
AcDbCircle
 10
1311.0465426472
 20
965.2856434446
 30
0.0
 40
0.4499999999998299
100
AcDbArc
 50
144.4698842763
 51
221.1281260491
  0
ARC
  5
19E
330
1F
100
AcDbEntity
  8
0
  6
Continuous
 62
     7
370
    25
100
AcDbCircle
 10
1310.0394525523
 20
966.0047927968
 30
0.0
 40
0.7874999999999667
100
AcDbArc
 50
324.4698842763
 51
57.7863678219
  0
ARC
  5
19F
330
1F
100
AcDbEntity
  8
0
  6
Continuous
 62
     7
370
    25
100
AcDbCircle
 10
1311.6234356477
 20
964.1908371987
 30
0.0
 40
0.7875000000001441
100
AcDbArc
 50
24.4698842763
 51
117.7863678219
  0
ARC
  5
1A0
330
1F
100
AcDbEntity
  8
0
  6
Continuous
 62
     7
370
    25
100
AcDbCircle
 10
1312.7497823032
 20
964.7034281286
 30
0.0
 40
0.4500000000003075
100
AcDbArc
 50
204.4698842763
 51
281.128126049
  0
ARC
  5
1A1
330
1F
100
AcDbEntity
  8
0
  6
Continuous
 62
     7
370
    25
100
AcDbCircle
 10
1311.0465426472
 20
965.2856434446
 30
0.0
 40
0.4500000000000528
100
AcDbArc
 50
221.1281260491
 51
297.7863678219
  0
ARC
  5
1A2
330
1F
100
AcDbEntity
  8
0
  6
Continuous
 62
     7
370
    25
100
AcDbCircle
 10
1312.4023757293
 20
786.4695845974
 30
0.0
 40
2.250000000000275
100
AcDbArc
 50
41.1281260491
 51
101.1281260491
  0
ARC
  5
1A3
330
1F
100
AcDbEntity
  8
0
  6
Continuous
 62
     7
370
    25
100
AcDbCircle
 10
1312.4023757293
 20
786.4695845974
 30
0.0
 40
2.250000000000363
100
AcDbArc
 50
101.1281260491
 51
161.1281260491
  0
ARC
  5
1A4
330
1F
100
AcDbEntity
  8
0
  6
Continuous
 62
     7
370
    25
100
AcDbCircle
 10
1312.4023757293
 20
786.4695845974
 30
0.0
 40
2.250000000000363
100
AcDbArc
 50
161.1281260491
 51
221.1281260491
  0
ARC
  5
1A5
330
1F
100
AcDbEntity
  8
0
  6
Continuous
 62
     7
370
    25
100
AcDbCircle
 10
1312.4023757293
 20
786.4695845974
 30
0.0
 40
2.250000000000187
100
AcDbArc
 50
221.1281260491
 51
281.128126049
  0
ARC
  5
1A6
330
1F
100
AcDbEntity
  8
0
  6
Continuous
 62
     7
370
    25
100
AcDbCircle
 10
1312.4023757293
 20
786.4695845974
 30
0.0
 40
2.250000000000187
100
AcDbArc
 50
281.128126049
 51
341.1281260491
  0
ARC
  5
1A7
330
1F
100
AcDbEntity
  8
0
  6
Continuous
 62
     7
370
    25
100
AcDbCircle
 10
1312.4023757293
 20
786.4695845974
 30
0.0
 40
2.250000000000185
100
AcDbArc
 50
341.1281260491
 51
41.1281260491
  0
CIRCLE
  5
1A8
330
1F
100
AcDbEntity
  8
0
  6
Continuous
 62
     7
370
    25
100
AcDbCircle
 10
1312.4023757293
 20
786.4695845974
 30
0.0
 40
3.849999999999899
  0
ARC
  5
1A9
330
1F
100
AcDbEntity
  8
0
  6
Continuous
 62
     7
370
    25
100
AcDbCircle
 10
1312.7497823032
 20
784.7034281286
 30
0.0
 40
0.450000000000249
100
AcDbArc
 50
281.128126049
 51
357.7863678219
  0
ARC
  5
1AA
330
1F
100
AcDbEntity
  8
0
  6
Continuous
 62
     7
370
    25
100
AcDbCircle
 10
1313.9863588246
 20
784.6556289993
 30
0.0
 40
0.7874999999997666
100
AcDbArc
 50
84.4698842763
 51
177.7863678218
  0
ARC
  5
1AB
330
1F
100
AcDbEntity
  8
0
  6
Continuous
 62
     7
370
    25
100
AcDbCircle
 10
1314.1056153853
 20
785.8873692815
 30
0.0
 40
0.4500000000001344
100
AcDbArc
 50
264.4698842763
 51
341.1281260491
  0
ARC
  5
1AC
330
1F
100
AcDbEntity
  8
0
  6
Continuous
 62
     7
370
    25
100
AcDbCircle
 10
1312.0549691554
 20
788.2357410663
 30
0.0
 40
0.4500000000002837
100
AcDbArc
 50
101.128126049
 51
177.7863678219
  0
ARC
  5
1AD
330
1F
100
AcDbEntity
  8
0
  6
Continuous
 62
     7
370
    25
100
AcDbCircle
 10
1310.6991360733
 20
787.0517999134
 30
0.0
 40
0.4500000000003496
100
AcDbArc
 50
84.4698842763
 51
161.1281260491
  0
ARC
  5
1AE
330
1F
100
AcDbEntity
  8
0
  6
Continuous
 62
     7
370
    25
100
AcDbCircle
 10
1310.818392634
 20
788.2835401956
 30
0.0
 40
0.7874999999997228
100
AcDbArc
 50
264.4698842763
 51
357.7863678218
  0
ARC
  5
1AF
330
1F
100
AcDbEntity
  8
0
  6
Continuous
 62
     7
370
    25
100
AcDbCircle
 10
1314.7652989063
 20
786.9343763981
 30
0.0
 40
0.7875000000001516
100
AcDbArc
 50
144.4698842763
 51
237.7863678218
  0
ARC
  5
1B0
330
1F
100
AcDbEntity
  8
0
  6
Continuous
 62
     7
370
    25
100
AcDbCircle
 10
1313.7582088114
 20
787.6535257503
 30
0.0
 40
0.4500000000000149
100
AcDbArc
 50
324.4698842763
 51
41.128126049
  0
ARC
  5
1B1
330
1F
100
AcDbEntity
  8
0
  6
Continuous
 62
     7
370
    25
100
AcDbCircle
 10
1314.1056153853
 20
785.8873692815
 30
0.0
 40
0.4500000000001344
100
AcDbArc
 50
341.1281260491
 51
57.7863678219
  0
ARC
  5
1B2
330
1F
100
AcDbEntity
  8
0
  6
Continuous
 62
     7
370
    25
100
AcDbCircle
 10
1312.0549691554
 20
788.2357410663
 30
0.0
 40
0.4500000000002837
100
AcDbArc
 50
24.4698842763
 51
101.128126049
  0
ARC
  5
1B3
330
1F
100
AcDbEntity
  8
0
  6
Continuous
 62
     7
370
    25
100
AcDbCircle
 10
1313.7582088114
 20
787.6535257503
 30
0.0
 40
0.4499999999999468
100
AcDbArc
 50
41.128126049
 51
117.7863678218
  0
ARC
  5
1B4
330
1F
100
AcDbEntity
  8
0
  6
Continuous
 62
     7
370
    25
100
AcDbCircle
 10
1313.1813158109
 20
788.7483319962
 30
0.0
 40
0.7875000000003876
100
AcDbArc
 50
204.4698842763
 51
297.7863678218
  0
ARC
  5
1B5
330
1F
100
AcDbEntity
  8
0
  6
Continuous
 62
     7
370
    25
100
AcDbCircle
 10
1311.0465426472
 20
785.2856434446
 30
0.0
 40
0.4499999999999468
100
AcDbArc
 50
221.1281260491
 51
297.7863678218
  0
ARC
  5
1B6
330
1F
100
AcDbEntity
  8
0
  6
Continuous
 62
     7
370
    25
100
AcDbCircle
 10
1311.6234356476
 20
784.1908371987
 30
0.0
 40
0.7875000000000435
100
AcDbArc
 50
24.4698842763
 51
117.7863678219
  0
ARC
  5
1B7
330
1F
100
AcDbEntity
  8
0
  6
Continuous
 62
     7
370
    25
100
AcDbCircle
 10
1312.7497823032
 20
784.7034281286
 30
0.0
 40
0.4500000000003075
100
AcDbArc
 50
204.4698842763
 51
281.128126049
  0
ARC
  5
1B8
330
1F
100
AcDbEntity
  8
0
  6
Continuous
 62
     7
370
    25
100
AcDbCircle
 10
1310.6991360733
 20
787.0517999134
 30
0.0
 40
0.4500000000003496
100
AcDbArc
 50
161.1281260491
 51
237.7863678218
  0
ARC
  5
1B9
330
1F
100
AcDbEntity
  8
0
  6
Continuous
 62
     7
370
    25
100
AcDbCircle
 10
1310.0394525523
 20
786.0047927968
 30
0.0
 40
0.7874999999999006
100
AcDbArc
 50
324.4698842763
 51
57.7863678219
  0
ARC
  5
1BA
330
1F
100
AcDbEntity
  8
0
  6
Continuous
 62
     7
370
    25
100
AcDbCircle
 10
1311.0465426472
 20
785.2856434446
 30
0.0
 40
0.4500000000000811
100
AcDbArc
 50
144.4698842763
 51
221.1281260491
  0
ARC
  5
1BB
330
1F
100
AcDbEntity
  8
0
  6
Continuous
 62
     7
370
    25
100
AcDbCircle
 10
124.9023757293
 20
-931.0304154026
 30
0.0
 40
2.250000000000242
100
AcDbArc
 50
101.1281260491
 51
161.1281260491
  0
ARC
  5
1BC
330
1F
100
AcDbEntity
  8
0
  6
Continuous
 62
     7
370
    25
100
AcDbCircle
 10
124.5549691553
 20
-929.2642589337
 30
0.0
 40
0.4500000000001692
100
AcDbArc
 50
101.128126049
 51
177.7863678219
  0
ARC
  5
1BD
330
1F
100
AcDbEntity
  8
0
  6
Continuous
 62
     7
370
    25
100
AcDbCircle
 10
123.1991360733
 20
-930.4482000866
 30
0.0
 40
0.4500000000003191
100
AcDbArc
 50
84.4698842763
 51
161.1281260491
  0
ARC
  5
1BE
330
1F
100
AcDbEntity
  8
0
  6
Continuous
 62
     7
370
    25
100
AcDbCircle
 10
123.318392634
 20
-929.2164598044
 30
0.0
 40
0.7874999999997455
100
AcDbArc
 50
264.4698842763
 51
357.7863678218
  0
ARC
  5
1BF
330
1F
100
AcDbEntity
  8
0
  6
Continuous
 62
     7
370
    25
100
AcDbCircle
 10
124.9023757293
 20
-931.0304154026
 30
0.0
 40
2.25000000000024
100
AcDbArc
 50
281.1281260491
 51
341.1281260491
  0
ARC
  5
1C0
330
1F
100
AcDbEntity
  8
0
  6
Continuous
 62
     7
370
    25
100
AcDbCircle
 10
125.2497823032
 20
-932.7965718714
 30
0.0
 40
0.450000000000155
100
AcDbArc
 50
281.128126049
 51
357.7863678219
  0
ARC
  5
1C1
330
1F
100
AcDbEntity
  8
0
  6
Continuous
 62
     7
370
    25
100
AcDbCircle
 10
126.4863588246
 20
-932.8443710007
 30
0.0
 40
0.7874999999997411
100
AcDbArc
 50
84.4698842763
 51
177.7863678218
  0
ARC
  5
1C2
330
1F
100
AcDbEntity
  8
0
  6
Continuous
 62
     7
370
    25
100
AcDbCircle
 10
126.6056153853
 20
-931.6126307185
 30
0.0
 40
0.4500000000002958
100
AcDbArc
 50
264.4698842763
 51
341.1281260491
  0
ARC
  5
1C3
330
1F
100
AcDbEntity
  8
0
  6
Continuous
 62
     7
370
    25
100
AcDbCircle
 10
124.9023757293
 20
-931.0304154026
 30
0.0
 40
2.250000000000242
100
AcDbArc
 50
41.1281260491
 51
101.1281260491
  0
ARC
  5
1C4
330
1F
100
AcDbEntity
  8
0
  6
Continuous
 62
     7
370
    25
100
AcDbCircle
 10
124.9023757293
 20
-931.0304154026
 30
0.0
 40
2.250000000000242
100
AcDbArc
 50
161.1281260491
 51
221.1281260491
  0
ARC
  5
1C5
330
1F
100
AcDbEntity
  8
0
  6
Continuous
 62
     7
370
    25
100
AcDbCircle
 10
124.9023757293
 20
-931.0304154026
 30
0.0
 40
2.25000000000024
100
AcDbArc
 50
221.1281260491
 51
281.1281260491
  0
ARC
  5
1C6
330
1F
100
AcDbEntity
  8
0
  6
Continuous
 62
     7
370
    25
100
AcDbCircle
 10
124.9023757293
 20
-931.0304154026
 30
0.0
 40
2.250000000000218
100
AcDbArc
 50
341.1281260491
 51
41.1281260491
  0
CIRCLE
  5
1C7
330
1F
100
AcDbEntity
  8
0
  6
Continuous
 62
     7
370
    25
100
AcDbCircle
 10
124.9023757293
 20
-931.0304154026
 30
0.0
 40
3.850000000000049
  0
ARC
  5
1C8
330
1F
100
AcDbEntity
  8
0
  6
Continuous
 62
     7
370
    25
100
AcDbCircle
 10
126.6056153853
 20
-931.6126307185
 30
0.0
 40
0.4500000000002958
100
AcDbArc
 50
341.1281260491
 51
57.7863678218
  0
ARC
  5
1C9
330
1F
100
AcDbEntity
  8
0
  6
Continuous
 62
     7
370
    25
100
AcDbCircle
 10
127.2652989062
 20
-930.5656236019
 30
0.0
 40
0.7874999999999815
100
AcDbArc
 50
144.4698842763
 51
237.7863678218
  0
ARC
  5
1CA
330
1F
100
AcDbEntity
  8
0
  6
Continuous
 62
     7
370
    25
100
AcDbCircle
 10
126.2582088114
 20
-929.8464742497
 30
0.0
 40
0.4500000000000777
100
AcDbArc
 50
324.4698842763
 51
41.128126049
  0
ARC
  5
1CB
330
1F
100
AcDbEntity
  8
0
  6
Continuous
 62
     7
370
    25
100
AcDbCircle
 10
126.2582088114
 20
-929.8464742497
 30
0.0
 40
0.4500000000000806
100
AcDbArc
 50
41.128126049
 51
117.7863678218
  0
ARC
  5
1CC
330
1F
100
AcDbEntity
  8
0
  6
Continuous
 62
     7
370
    25
100
AcDbCircle
 10
125.6813158109
 20
-928.7516680038
 30
0.0
 40
0.7875000000000089
100
AcDbArc
 50
204.4698842763
 51
297.7863678219
  0
ARC
  5
1CD
330
1F
100
AcDbEntity
  8
0
  6
Continuous
 62
     7
370
    25
100
AcDbCircle
 10
124.5549691553
 20
-929.2642589337
 30
0.0
 40
0.4500000000001584
100
AcDbArc
 50
24.4698842763
 51
101.128126049
  0
ARC
  5
1CE
330
1F
100
AcDbEntity
  8
0
  6
Continuous
 62
     7
370
    25
100
AcDbCircle
 10
123.1991360733
 20
-930.4482000866
 30
0.0
 40
0.4500000000003191
100
AcDbArc
 50
161.1281260491
 51
237.7863678218
  0
ARC
  5
1CF
330
1F
100
AcDbEntity
  8
0
  6
Continuous
 62
     7
370
    25
100
AcDbCircle
 10
122.5394525523
 20
-931.4952072032
 30
0.0
 40
0.7875000000000476
100
AcDbArc
 50
324.4698842763
 51
57.7863678218
  0
ARC
  5
1D0
330
1F
100
AcDbEntity
  8
0
  6
Continuous
 62
     7
370
    25
100
AcDbCircle
 10
123.5465426472
 20
-932.2143565554
 30
0.0
 40
0.4500000000000001
100
AcDbArc
 50
144.4698842763
 51
221.1281260491
  0
ARC
  5
1D1
330
1F
100
AcDbEntity
  8
0
  6
Continuous
 62
     7
370
    25
100
AcDbCircle
 10
124.1234356476
 20
-933.3091628013
 30
0.0
 40
0.7875000000000779
100
AcDbArc
 50
24.4698842763
 51
117.7863678218
  0
ARC
  5
1D2
330
1F
100
AcDbEntity
  8
0
  6
Continuous
 62
     7
370
    25
100
AcDbCircle
 10
125.2497823032
 20
-932.7965718714
 30
0.0
 40
0.4500000000001529
100
AcDbArc
 50
204.4698842763
 51
281.128126049
  0
ARC
  5
1D3
330
1F
100
AcDbEntity
  8
0
  6
Continuous
 62
     7
370
    25
100
AcDbCircle
 10
123.5465426472
 20
-932.2143565554
 30
0.0
 40
0.449999999999886
100
AcDbArc
 50
221.1281260491
 51
297.7863678218
  0
ARC
  5
1D4
330
1F
100
AcDbEntity
  8
0
  6
Continuous
 62
     7
370
    25
100
AcDbCircle
 10
-882.5976242707
 20
256.4695845974
 30
0.0
 40
2.250000000000237
100
AcDbArc
 50
281.1281260491
 51
341.1281260491
  0
ARC
  5
1D5
330
1F
100
AcDbEntity
  8
0
  6
Continuous
 62
     7
370
    25
100
AcDbCircle
 10
-882.2502176968
 20
254.7034281286
 30
0.0
 40
0.4500000000003175
100
AcDbArc
 50
281.128126049
 51
357.7863678219
  0
ARC
  5
1D6
330
1F
100
AcDbEntity
  8
0
  6
Continuous
 62
     7
370
    25
100
AcDbCircle
 10
-881.0136411754
 20
254.6556289993
 30
0.0
 40
0.787499999999773
100
AcDbArc
 50
84.4698842763
 51
177.7863678218
  0
ARC
  5
1D7
330
1F
100
AcDbEntity
  8
0
  6
Continuous
 62
     7
370
    25
100
AcDbCircle
 10
-880.8943846147
 20
255.8873692815
 30
0.0
 40
0.4500000000001344
100
AcDbArc
 50
264.4698842763
 51
341.1281260491
  0
ARC
  5
1D8
330
1F
100
AcDbEntity
  8
0
  6
Continuous
 62
     7
370
    25
100
AcDbCircle
 10
-882.5976242707
 20
256.4695845974
 30
0.0
 40
2.250000000000157
100
AcDbArc
 50
341.1281260491
 51
41.1281260491
  0
ARC
  5
1D9
330
1F
100
AcDbEntity
  8
0
  6
Continuous
 62
     7
370
    25
100
AcDbCircle
 10
-881.2417911886
 20
257.6535257503
 30
0.0
 40
0.4499999999999224
100
AcDbArc
 50
324.4698842763
 51
41.1281260491
  0
ARC
  5
1DA
330
1F
100
AcDbEntity
  8
0
  6
Continuous
 62
     7
370
    25
100
AcDbCircle
 10
-880.8943846147
 20
255.8873692815
 30
0.0
 40
0.4500000000001344
100
AcDbArc
 50
341.1281260491
 51
57.7863678218
  0
ARC
  5
1DB
330
1F
100
AcDbEntity
  8
0
  6
Continuous
 62
     7
370
    25
100
AcDbCircle
 10
-880.2347010938
 20
256.9343763981
 30
0.0
 40
0.7875000000000262
100
AcDbArc
 50
144.4698842763
 51
237.7863678219
  0
ARC
  5
1DC
330
1F
100
AcDbEntity
  8
0
  6
Continuous
 62
     7
370
    25
100
AcDbCircle
 10
-882.5976242707
 20
256.4695845974
 30
0.0
 40
2.250000000000231
100
AcDbArc
 50
41.1281260491
 51
101.1281260491
  0
ARC
  5
1DD
330
1F
100
AcDbEntity
  8
0
  6
Continuous
 62
     7
370
    25
100
AcDbCircle
 10
-882.5976242707
 20
256.4695845974
 30
0.0
 40
2.250000000000274
100
AcDbArc
 50
101.1281260491
 51
161.1281260491
  0
ARC
  5
1DE
330
1F
100
AcDbEntity
  8
0
  6
Continuous
 62
     7
370
    25
100
AcDbCircle
 10
-882.5976242707
 20
256.4695845974
 30
0.0
 40
2.250000000000274
100
AcDbArc
 50
161.1281260491
 51
221.1281260491
  0
ARC
  5
1DF
330
1F
100
AcDbEntity
  8
0
  6
Continuous
 62
     7
370
    25
100
AcDbCircle
 10
-882.5976242707
 20
256.4695845974
 30
0.0
 40
2.250000000000237
100
AcDbArc
 50
221.1281260491
 51
281.1281260491
  0
CIRCLE
  5
1E0
330
1F
100
AcDbEntity
  8
0
  6
Continuous
 62
     7
370
    25
100
AcDbCircle
 10
-882.5976242707
 20
256.4695845974
 30
0.0
 40
3.849999999999899
  0
ARC
  5
1E1
330
1F
100
AcDbEntity
  8
0
  6
Continuous
 62
     7
370
    25
100
AcDbCircle
 10
-884.181607366
 20
258.2835401956
 30
0.0
 40
0.7874999999997447
100
AcDbArc
 50
264.4698842763
 51
357.7863678218
  0
ARC
  5
1E2
330
1F
100
AcDbEntity
  8
0
  6
Continuous
 62
     7
370
    25
100
AcDbCircle
 10
-884.3008639268
 20
257.0517999134
 30
0.0
 40
0.4500000000001827
100
AcDbArc
 50
84.4698842763
 51
161.1281260491
  0
ARC
  5
1E3
330
1F
100
AcDbEntity
  8
0
  6
Continuous
 62
     7
370
    25
100
AcDbCircle
 10
-882.9450308447
 20
258.2357410663
 30
0.0
 40
0.4500000000002617
100
AcDbArc
 50
101.128126049
 51
177.7863678219
  0
ARC
  5
1E4
330
1F
100
AcDbEntity
  8
0
  6
Continuous
 62
     7
370
    25
100
AcDbCircle
 10
-881.8186841891
 20
258.7483319962
 30
0.0
 40
0.7875000000001571
100
AcDbArc
 50
204.4698842763
 51
297.7863678218
  0
ARC
  5
1E5
330
1F
100
AcDbEntity
  8
0
  6
Continuous
 62
     7
370
    25
100
AcDbCircle
 10
-881.2417911886
 20
257.6535257503
 30
0.0
 40
0.4500000000000501
100
AcDbArc
 50
41.1281260491
 51
117.7863678218
  0
ARC
  5
1E6
330
1F
100
AcDbEntity
  8
0
  6
Continuous
 62
     7
370
    25
100
AcDbCircle
 10
-882.9450308447
 20
258.2357410663
 30
0.0
 40
0.4500000000002617
100
AcDbArc
 50
24.4698842763
 51
101.128126049
  0
ARC
  5
1E7
330
1F
100
AcDbEntity
  8
0
  6
Continuous
 62
     7
370
    25
100
AcDbCircle
 10
-883.9534573528
 20
255.2856434446
 30
0.0
 40
0.4499999999999389
100
AcDbArc
 50
144.4698842763
 51
221.1281260491
  0
ARC
  5
1E8
330
1F
100
AcDbEntity
  8
0
  6
Continuous
 62
     7
370
    25
100
AcDbCircle
 10
-884.9605474477
 20
256.0047927968
 30
0.0
 40
0.7875000000000096
100
AcDbArc
 50
324.4698842763
 51
57.7863678219
  0
ARC
  5
1E9
330
1F
100
AcDbEntity
  8
0
  6
Continuous
 62
     7
370
    25
100
AcDbCircle
 10
-884.3008639268
 20
257.0517999134
 30
0.0
 40
0.4500000000001528
100
AcDbArc
 50
161.1281260491
 51
237.7863678218
  0
ARC
  5
1EA
330
1F
100
AcDbEntity
  8
0
  6
Continuous
 62
     7
370
    25
100
AcDbCircle
 10
-883.9534573528
 20
255.2856434446
 30
0.0
 40
0.4500000000000501
100
AcDbArc
 50
221.1281260491
 51
297.7863678218
  0
ARC
  5
1EB
330
1F
100
AcDbEntity
  8
0
  6
Continuous
 62
     7
370
    25
100
AcDbCircle
 10
-882.2502176968
 20
254.7034281286
 30
0.0
 40
0.4500000000003175
100
AcDbArc
 50
204.4698842763
 51
281.128126049
  0
ARC
  5
1EC
330
1F
100
AcDbEntity
  8
0
  6
Continuous
 62
     7
370
    25
100
AcDbCircle
 10
-883.3765643524
 20
254.1908371987
 30
0.0
 40
0.7875000000000418
100
AcDbArc
 50
24.4698842763
 51
117.7863678218
  0
ARC
  5
1ED
330
1F
100
AcDbEntity
  8
0
  6
Continuous
 62
     7
370
    25
100
AcDbCircle
 10
-882.5976242707
 20
966.4695845974
 30
0.0
 40
2.250000000000231
100
AcDbArc
 50
41.1281260491
 51
101.1281260491
  0
ARC
  5
1EE
330
1F
100
AcDbEntity
  8
0
  6
Continuous
 62
     7
370
    25
100
AcDbCircle
 10
-881.2417911886
 20
967.6535257503
 30
0.0
 40
0.4499999999999998
100
AcDbArc
 50
41.1281260491
 51
117.7863678218
  0
ARC
  5
1EF
330
1F
100
AcDbEntity
  8
0
  6
Continuous
 62
     7
370
    25
100
AcDbCircle
 10
-881.8186841891
 20
968.7483319962
 30
0.0
 40
0.7875000000001806
100
AcDbArc
 50
204.4698842763
 51
297.7863678218
  0
ARC
  5
1F0
330
1F
100
AcDbEntity
  8
0
  6
Continuous
 62
     7
370
    25
100
AcDbCircle
 10
-882.9450308447
 20
968.2357410663
 30
0.0
 40
0.4500000000002617
100
AcDbArc
 50
24.4698842763
 51
101.128126049
  0
ARC
  5
1F1
330
1F
100
AcDbEntity
  8
0
  6
Continuous
 62
     7
370
    25
100
AcDbCircle
 10
-882.5976242707
 20
966.4695845974
 30
0.0
 40
2.250000000000185
100
AcDbArc
 50
341.1281260491
 51
41.1281260491
  0
ARC
  5
1F2
330
1F
100
AcDbEntity
  8
0
  6
Continuous
 62
     7
370
    25
100
AcDbCircle
 10
-880.2347010938
 20
966.9343763981
 30
0.0
 40
0.7875000000000592
100
AcDbArc
 50
144.4698842763
 51
237.7863678219
  0
ARC
  5
1F3
330
1F
100
AcDbEntity
  8
0
  6
Continuous
 62
     7
370
    25
100
AcDbCircle
 10
-880.8943846147
 20
965.8873692815
 30
0.0
 40
0.4500000000001694
100
AcDbArc
 50
341.1281260491
 51
57.7863678218
  0
ARC
  5
1F4
330
1F
100
AcDbEntity
  8
0
  6
Continuous
 62
     7
370
    25
100
AcDbCircle
 10
-881.2417911886
 20
967.6535257503
 30
0.0
 40
0.4499999999999224
100
AcDbArc
 50
324.4698842763
 51
41.1281260491
  0
ARC
  5
1F5
330
1F
100
AcDbEntity
  8
0
  6
Continuous
 62
     7
370
    25
100
AcDbCircle
 10
-882.5976242707
 20
966.4695845974
 30
0.0
 40
2.25000000000021
100
AcDbArc
 50
281.1281260491
 51
341.1281260491
  0
ARC
  5
1F6
330
1F
100
AcDbEntity
  8
0
  6
Continuous
 62
     7
370
    25
100
AcDbCircle
 10
-882.2502176968
 20
964.7034281286
 30
0.0
 40
0.4500000000002617
100
AcDbArc
 50
281.128126049
 51
357.7863678219
  0
ARC
  5
1F7
330
1F
100
AcDbEntity
  8
0
  6
Continuous
 62
     7
370
    25
100
AcDbCircle
 10
-881.0136411754
 20
964.6556289993
 30
0.0
 40
0.7874999999997447
100
AcDbArc
 50
84.4698842763
 51
177.7863678218
  0
ARC
  5
1F8
330
1F
100
AcDbEntity
  8
0
  6
Continuous
 62
     7
370
    25
100
AcDbCircle
 10
-880.8943846147
 20
965.8873692815
 30
0.0
 40
0.4500000000001344
100
AcDbArc
 50
264.4698842763
 51
341.1281260491
  0
ARC
  5
1F9
330
1F
100
AcDbEntity
  8
0
  6
Continuous
 62
     7
370
    25
100
AcDbCircle
 10
-882.5976242707
 20
966.4695845974
 30
0.0
 40
2.250000000000255
100
AcDbArc
 50
101.1281260491
 51
161.1281260491
  0
ARC
  5
1FA
330
1F
100
AcDbEntity
  8
0
  6
Continuous
 62
     7
370
    25
100
AcDbCircle
 10
-884.181607366
 20
968.2835401956
 30
0.0
 40
0.7874999999997447
100
AcDbArc
 50
264.4698842763
 51
357.7863678218
  0
ARC
  5
1FB
330
1F
100
AcDbEntity
  8
0
  6
Continuous
 62
     7
370
    25
100
AcDbCircle
 10
-884.3008639268
 20
967.0517999134
 30
0.0
 40
0.4500000000001827
100
AcDbArc
 50
84.4698842763
 51
161.1281260491
  0
ARC
  5
1FC
330
1F
100
AcDbEntity
  8
0
  6
Continuous
 62
     7
370
    25
100
AcDbCircle
 10
-882.9450308447
 20
968.2357410663
 30
0.0
 40
0.4500000000002617
100
AcDbArc
 50
101.128126049
 51
177.7863678219
  0
ARC
  5
1FD
330
1F
100
AcDbEntity
  8
0
  6
Continuous
 62
     7
370
    25
100
AcDbCircle
 10
-882.5976242707
 20
966.4695845974
 30
0.0
 40
2.250000000000255
100
AcDbArc
 50
161.1281260491
 51
221.1281260491
  0
ARC
  5
1FE
330
1F
100
AcDbEntity
  8
0
  6
Continuous
 62
     7
370
    25
100
AcDbCircle
 10
-882.5976242707
 20
966.4695845974
 30
0.0
 40
2.25000000000021
100
AcDbArc
 50
221.1281260491
 51
281.1281260491
  0
CIRCLE
  5
1FF
330
1F
100
AcDbEntity
  8
0
  6
Continuous
 62
     7
370
    25
100
AcDbCircle
 10
-882.5976242707
 20
966.4695845974
 30
0.0
 40
3.849999999999899
  0
ARC
  5
200
330
1F
100
AcDbEntity
  8
0
  6
Continuous
 62
     7
370
    25
100
AcDbCircle
 10
-884.3008639268
 20
967.0517999134
 30
0.0
 40
0.4500000000001694
100
AcDbArc
 50
161.1281260491
 51
237.7863678218
  0
ARC
  5
201
330
1F
100
AcDbEntity
  8
0
  6
Continuous
 62
     7
370
    25
100
AcDbCircle
 10
-884.9605474477
 20
966.0047927968
 30
0.0
 40
0.7874999999999931
100
AcDbArc
 50
324.4698842763
 51
57.7863678219
  0
ARC
  5
202
330
1F
100
AcDbEntity
  8
0
  6
Continuous
 62
     7
370
    25
100
AcDbCircle
 10
-883.9534573528
 20
965.2856434446
 30
0.0
 40
0.4499999999999885
100
AcDbArc
 50
144.4698842763
 51
221.1281260491
  0
ARC
  5
203
330
1F
100
AcDbEntity
  8
0
  6
Continuous
 62
     7
370
    25
100
AcDbCircle
 10
-882.2502176968
 20
964.7034281286
 30
0.0
 40
0.4500000000002617
100
AcDbArc
 50
204.4698842763
 51
281.128126049
  0
ARC
  5
204
330
1F
100
AcDbEntity
  8
0
  6
Continuous
 62
     7
370
    25
100
AcDbCircle
 10
-883.3765643524
 20
964.1908371987
 30
0.0
 40
0.7875000000000301
100
AcDbArc
 50
24.4698842763
 51
117.7863678218
  0
ARC
  5
205
330
1F
100
AcDbEntity
  8
0
  6
Continuous
 62
     7
370
    25
100
AcDbCircle
 10
-883.9534573528
 20
965.2856434446
 30
0.0
 40
0.4499999999999998
100
AcDbArc
 50
221.1281260491
 51
297.7863678218
  0
ARC
  5
206
330
1F
100
AcDbEntity
  8
0
  6
Continuous
 62
     7
370
    25
100
AcDbCircle
 10
1014.9023757293
 20
-931.0304154026
 30
0.0
 40
2.250000000000275
100
AcDbArc
 50
41.1281260491
 51
101.1281260491
  0
ARC
  5
207
330
1F
100
AcDbEntity
  8
0
  6
Continuous
 62
     7
370
    25
100
AcDbCircle
 10
1016.2582088114
 20
-929.8464742497
 30
0.0
 40
0.4500000000000475
100
AcDbArc
 50
41.128126049
 51
117.7863678218
  0
ARC
  5
208
330
1F
100
AcDbEntity
  8
0
  6
Continuous
 62
     7
370
    25
100
AcDbCircle
 10
1015.6813158109
 20
-928.7516680038
 30
0.0
 40
0.787499999999983
100
AcDbArc
 50
204.4698842763
 51
297.7863678219
  0
ARC
  5
209
330
1F
100
AcDbEntity
  8
0
  6
Continuous
 62
     7
370
    25
100
AcDbCircle
 10
1014.5549691553
 20
-929.2642589337
 30
0.0
 40
0.4500000000001569
100
AcDbArc
 50
24.4698842763
 51
101.128126049
  0
ARC
  5
20A
330
1F
100
AcDbEntity
  8
0
  6
Continuous
 62
     7
370
    25
100
AcDbCircle
 10
1014.9023757293
 20
-931.0304154026
 30
0.0
 40
2.250000000000231
100
AcDbArc
 50
281.1281260491
 51
341.1281260491
  0
ARC
  5
20B
330
1F
100
AcDbEntity
  8
0
  6
Continuous
 62
     7
370
    25
100
AcDbCircle
 10
1015.2497823032
 20
-932.7965718714
 30
0.0
 40
0.4500000000002402
100
AcDbArc
 50
281.128126049
 51
357.7863678219
  0
ARC
  5
20C
330
1F
100
AcDbEntity
  8
0
  6
Continuous
 62
     7
370
    25
100
AcDbCircle
 10
1016.4863588246
 20
-932.8443710007
 30
0.0
 40
0.7874999999997128
100
AcDbArc
 50
84.4698842763
 51
177.7863678218
  0
ARC
  5
20D
330
1F
100
AcDbEntity
  8
0
  6
Continuous
 62
     7
370
    25
100
AcDbCircle
 10
1016.6056153853
 20
-931.6126307185
 30
0.0
 40
0.450000000000263
100
AcDbArc
 50
264.4698842763
 51
341.1281260491
  0
ARC
  5
20E
330
1F
100
AcDbEntity
  8
0
  6
Continuous
 62
     7
370
    25
100
AcDbCircle
 10
1014.9023757293
 20
-931.0304154026
 30
0.0
 40
2.250000000000471
100
AcDbArc
 50
101.1281260491
 51
161.1281260491
  0
ARC
  5
20F
330
1F
100
AcDbEntity
  8
0
  6
Continuous
 62
     7
370
    25
100
AcDbCircle
 10
1013.318392634
 20
-929.2164598044
 30
0.0
 40
0.7874999999997228
100
AcDbArc
 50
264.4698842763
 51
357.7863678218
  0
ARC
  5
210
330
1F
100
AcDbEntity
  8
0
  6
Continuous
 62
     7
370
    25
100
AcDbCircle
 10
1013.1991360733
 20
-930.4482000866
 30
0.0
 40
0.4500000000004939
100
AcDbArc
 50
84.4698842763
 51
161.1281260491
  0
ARC
  5
211
330
1F
100
AcDbEntity
  8
0
  6
Continuous
 62
     7
370
    25
100
AcDbCircle
 10
1014.5549691553
 20
-929.2642589337
 30
0.0
 40
0.4500000000002402
100
AcDbArc
 50
101.128126049
 51
177.7863678219
  0
ARC
  5
212
330
1F
100
AcDbEntity
  8
0
  6
Continuous
 62
     7
370
    25
100
AcDbCircle
 10
1014.9023757293
 20
-931.0304154026
 30
0.0
 40
2.250000000000004
100
AcDbArc
 50
341.1281260491
 51
41.1281260491
  0
ARC
  5
213
330
1F
100
AcDbEntity
  8
0
  6
Continuous
 62
     7
370
    25
100
AcDbCircle
 10
1016.2582088114
 20
-929.8464742497
 30
0.0
 40
0.449999999999962
100
AcDbArc
 50
324.4698842762
 51
41.1281260491
  0
ARC
  5
214
330
1F
100
AcDbEntity
  8
0
  6
Continuous
 62
     7
370
    25
100
AcDbCircle
 10
1017.2652989062
 20
-930.5656236019
 30
0.0
 40
0.7875000000001782
100
AcDbArc
 50
144.4698842763
 51
237.7863678218
  0
ARC
  5
215
330
1F
100
AcDbEntity
  8
0
  6
Continuous
 62
     7
370
    25
100
AcDbCircle
 10
1016.6056153853
 20
-931.6126307185
 30
0.0
 40
0.450000000000242
100
AcDbArc
 50
341.1281260491
 51
57.7863678218
  0
ARC
  5
216
330
1F
100
AcDbEntity
  8
0
  6
Continuous
 62
     7
370
    25
100
AcDbCircle
 10
1014.9023757293
 20
-931.0304154026
 30
0.0
 40
2.250000000000471
100
AcDbArc
 50
161.1281260491
 51
221.1281260491
  0
ARC
  5
217
330
1F
100
AcDbEntity
  8
0
  6
Continuous
 62
     7
370
    25
100
AcDbCircle
 10
1014.9023757293
 20
-931.0304154026
 30
0.0
 40
2.250000000000231
100
AcDbArc
 50
221.1281260491
 51
281.1281260491
  0
CIRCLE
  5
218
330
1F
100
AcDbEntity
  8
0
  6
Continuous
 62
     7
370
    25
100
AcDbCircle
 10
1014.9023757293
 20
-931.0304154026
 30
0.0
 40
3.849999999999889
  0
ARC
  5
219
330
1F
100
AcDbEntity
  8
0
  6
Continuous
 62
     7
370
    25
100
AcDbCircle
 10
1013.1991360733
 20
-930.4482000866
 30
0.0
 40
0.4500000000004939
100
AcDbArc
 50
161.1281260491
 51
237.7863678218
  0
ARC
  5
21A
330
1F
100
AcDbEntity
  8
0
  6
Continuous
 62
     7
370
    25
100
AcDbCircle
 10
1013.5465426472
 20
-932.2143565554
 30
0.0
 40
0.4500000000000811
100
AcDbArc
 50
144.4698842763
 51
221.1281260491
  0
ARC
  5
21B
330
1F
100
AcDbEntity
  8
0
  6
Continuous
 62
     7
370
    25
100
AcDbCircle
 10
1012.5394525523
 20
-931.4952072032
 30
0.0
 40
0.7874999999998742
100
AcDbArc
 50
324.4698842763
 51
57.7863678219
  0
ARC
  5
21C
330
1F
100
AcDbEntity
  8
0
  6
Continuous
 62
     7
370
    25
100
AcDbCircle
 10
1013.5465426472
 20
-932.2143565554
 30
0.0
 40
0.4499999999998462
100
AcDbArc
 50
221.1281260491
 51
297.7863678218
  0
ARC
  5
21D
330
1F
100
AcDbEntity
  8
0
  6
Continuous
 62
     7
370
    25
100
AcDbCircle
 10
1014.1234356476
 20
-933.3091628013
 30
0.0
 40
0.7875000000001441
100
AcDbArc
 50
24.4698842763
 51
117.7863678219
  0
ARC
  5
21E
330
1F
100
AcDbEntity
  8
0
  6
Continuous
 62
     7
370
    25
100
AcDbCircle
 10
1015.2497823032
 20
-932.7965718714
 30
0.0
 40
0.4500000000001941
100
AcDbArc
 50
204.4698842763
 51
281.128126049
  0
ARC
  5
21F
330
1F
100
AcDbEntity
  8
0
  6
Continuous
 62
     7
370
    25
100
AcDbCircle
 10
-882.5976242707
 20
-453.5304154026
 30
0.0
 40
2.250000000000265
100
AcDbArc
 50
281.1281260491
 51
341.1281260491
  0
ARC
  5
220
330
1F
100
AcDbEntity
  8
0
  6
Continuous
 62
     7
370
    25
100
AcDbCircle
 10
-882.2502176968
 20
-455.2965718714
 30
0.0
 40
0.4500000000003175
100
AcDbArc
 50
281.128126049
 51
357.7863678219
  0
ARC
  5
221
330
1F
100
AcDbEntity
  8
0
  6
Continuous
 62
     7
370
    25
100
AcDbCircle
 10
-881.0136411754
 20
-455.3443710007
 30
0.0
 40
0.7874999999997105
100
AcDbArc
 50
84.4698842763
 51
177.7863678218
  0
ARC
  5
222
330
1F
100
AcDbEntity
  8
0
  6
Continuous
 62
     7
370
    25
100
AcDbCircle
 10
-880.8943846147
 20
-454.1126307185
 30
0.0
 40
0.4500000000001344
100
AcDbArc
 50
264.4698842763
 51
341.1281260491
  0
ARC
  5
223
330
1F
100
AcDbEntity
  8
0
  6
Continuous
 62
     7
370
    25
100
AcDbCircle
 10
-882.5976242707
 20
-453.5304154026
 30
0.0
 40
2.250000000000255
100
AcDbArc
 50
101.1281260491
 51
161.1281260491
  0
ARC
  5
224
330
1F
100
AcDbEntity
  8
0
  6
Continuous
 62
     7
370
    25
100
AcDbCircle
 10
-884.3008639268
 20
-452.9482000866
 30
0.0
 40
0.4500000000001344
100
AcDbArc
 50
84.4698842763
 51
161.1281260491
  0
ARC
  5
225
330
1F
100
AcDbEntity
  8
0
  6
Continuous
 62
     7
370
    25
100
AcDbCircle
 10
-884.181607366
 20
-451.7164598044
 30
0.0
 40
0.787499999999858
100
AcDbArc
 50
264.4698842763
 51
357.7863678218
  0
ARC
  5
226
330
1F
100
AcDbEntity
  8
0
  6
Continuous
 62
     7
370
    25
100
AcDbCircle
 10
-882.9450308447
 20
-451.7642589337
 30
0.0
 40
0.4500000000003175
100
AcDbArc
 50
101.128126049
 51
177.7863678219
  0
ARC
  5
227
330
1F
100
AcDbEntity
  8
0
  6
Continuous
 62
     7
370
    25
100
AcDbCircle
 10
-882.5976242707
 20
-453.5304154026
 30
0.0
 40
2.250000000000166
100
AcDbArc
 50
341.1281260491
 51
41.1281260491
  0
ARC
  5
228
330
1F
100
AcDbEntity
  8
0
  6
Continuous
 62
     7
370
    25
100
AcDbCircle
 10
-880.2347010938
 20
-453.0656236019
 30
0.0
 40
0.7875000000000262
100
AcDbArc
 50
144.4698842763
 51
237.7863678219
  0
ARC
  5
229
330
1F
100
AcDbEntity
  8
0
  6
Continuous
 62
     7
370
    25
100
AcDbCircle
 10
-881.2417911886
 20
-452.3464742497
 30
0.0
 40
0.4499999999999555
100
AcDbArc
 50
324.4698842763
 51
41.1281260491
  0
ARC
  5
22A
330
1F
100
AcDbEntity
  8
0
  6
Continuous
 62
     7
370
    25
100
AcDbCircle
 10
-880.8943846147
 20
-454.1126307185
 30
0.0
 40
0.4500000000001694
100
AcDbArc
 50
341.1281260491
 51
57.7863678218
  0
ARC
  5
22B
330
1F
100
AcDbEntity
  8
0
  6
Continuous
 62
     7
370
    25
100
AcDbCircle
 10
-882.5976242707
 20
-453.5304154026
 30
0.0
 40
2.250000000000231
100
AcDbArc
 50
41.1281260491
 51
101.1281260491
  0
ARC
  5
22C
330
1F
100
AcDbEntity
  8
0
  6
Continuous
 62
     7
370
    25
100
AcDbCircle
 10
-882.5976242707
 20
-453.5304154026
 30
0.0
 40
2.250000000000255
100
AcDbArc
 50
161.1281260491
 51
221.1281260491
  0
ARC
  5
22D
330
1F
100
AcDbEntity
  8
0
  6
Continuous
 62
     7
370
    25
100
AcDbCircle
 10
-882.5976242707
 20
-453.5304154026
 30
0.0
 40
2.250000000000265
100
AcDbArc
 50
221.1281260491
 51
281.1281260491
  0
CIRCLE
  5
22E
330
1F
100
AcDbEntity
  8
0
  6
Continuous
 62
     7
370
    25
100
AcDbCircle
 10
-882.5976242707
 20
-453.5304154026
 30
0.0
 40
3.849999999999899
  0
ARC
  5
22F
330
1F
100
AcDbEntity
  8
0
  6
Continuous
 62
     7
370
    25
100
AcDbCircle
 10
-881.8186841891
 20
-451.2516680038
 30
0.0
 40
0.7875000000001571
100
AcDbArc
 50
204.4698842763
 51
297.7863678218
  0
ARC
  5
230
330
1F
100
AcDbEntity
  8
0
  6
Continuous
 62
     7
370
    25
100
AcDbCircle
 10
-881.2417911886
 20
-452.3464742497
 30
0.0
 40
0.4499999999999998
100
AcDbArc
 50
41.1281260491
 51
117.7863678218
  0
ARC
  5
231
330
1F
100
AcDbEntity
  8
0
  6
Continuous
 62
     7
370
    25
100
AcDbCircle
 10
-882.9450308447
 20
-451.7642589337
 30
0.0
 40
0.4500000000003175
100
AcDbArc
 50
24.4698842763
 51
101.128126049
  0
ARC
  5
232
330
1F
100
AcDbEntity
  8
0
  6
Continuous
 62
     7
370
    25
100
AcDbCircle
 10
-884.3008639268
 20
-452.9482000866
 30
0.0
 40
0.4500000000001344
100
AcDbArc
 50
161.1281260491
 51
237.7863678218
  0
ARC
  5
233
330
1F
100
AcDbEntity
  8
0
  6
Continuous
 62
     7
370
    25
100
AcDbCircle
 10
-884.9605474477
 20
-453.9952072032
 30
0.0
 40
0.7875000000000262
100
AcDbArc
 50
324.4698842763
 51
57.7863678219
  0
ARC
  5
234
330
1F
100
AcDbEntity
  8
0
  6
Continuous
 62
     7
370
    25
100
AcDbCircle
 10
-883.9534573528
 20
-454.7143565554
 30
0.0
 40
0.4499999999999555
100
AcDbArc
 50
144.4698842763
 51
221.1281260491
  0
ARC
  5
235
330
1F
100
AcDbEntity
  8
0
  6
Continuous
 62
     7
370
    25
100
AcDbCircle
 10
-883.3765643524
 20
-455.8091628013
 30
0.0
 40
0.7875000000000301
100
AcDbArc
 50
24.4698842763
 51
117.7863678218
  0
ARC
  5
236
330
1F
100
AcDbEntity
  8
0
  6
Continuous
 62
     7
370
    25
100
AcDbCircle
 10
-882.2502176968
 20
-455.2965718714
 30
0.0
 40
0.4500000000003175
100
AcDbArc
 50
204.4698842763
 51
281.128126049
  0
ARC
  5
237
330
1F
100
AcDbEntity
  8
0
  6
Continuous
 62
     7
370
    25
100
AcDbCircle
 10
-883.9534573528
 20
-454.7143565554
 30
0.0
 40
0.4499999999999998
100
AcDbArc
 50
221.1281260491
 51
297.7863678218
  0
ARC
  5
238
330
1F
100
AcDbEntity
  8
0
  6
Continuous
 62
     7
370
    25
100
AcDbCircle
 10
-882.5976242707
 20
786.4695845974
 30
0.0
 40
2.250000000000231
100
AcDbArc
 50
41.1281260491
 51
101.1281260491
  0
ARC
  5
239
330
1F
100
AcDbEntity
  8
0
  6
Continuous
 62
     7
370
    25
100
AcDbCircle
 10
-882.5976242707
 20
786.4695845974
 30
0.0
 40
2.250000000000292
100
AcDbArc
 50
101.1281260491
 51
161.1281260491
  0
ARC
  5
23A
330
1F
100
AcDbEntity
  8
0
  6
Continuous
 62
     7
370
    25
100
AcDbCircle
 10
-882.5976242707
 20
786.4695845974
 30
0.0
 40
2.250000000000292
100
AcDbArc
 50
161.1281260491
 51
221.1281260491
  0
ARC
  5
23B
330
1F
100
AcDbEntity
  8
0
  6
Continuous
 62
     7
370
    25
100
AcDbCircle
 10
-882.5976242707
 20
786.4695845974
 30
0.0
 40
2.25000000000021
100
AcDbArc
 50
221.1281260491
 51
281.1281260491
  0
ARC
  5
23C
330
1F
100
AcDbEntity
  8
0
  6
Continuous
 62
     7
370
    25
100
AcDbCircle
 10
-882.5976242707
 20
786.4695845974
 30
0.0
 40
2.25000000000021
100
AcDbArc
 50
281.1281260491
 51
341.1281260491
  0
ARC
  5
23D
330
1F
100
AcDbEntity
  8
0
  6
Continuous
 62
     7
370
    25
100
AcDbCircle
 10
-882.5976242707
 20
786.4695845974
 30
0.0
 40
2.250000000000148
100
AcDbArc
 50
341.1281260491
 51
41.1281260491
  0
CIRCLE
  5
23E
330
1F
100
AcDbEntity
  8
0
  6
Continuous
 62
     7
370
    25
100
AcDbCircle
 10
-882.5976242707
 20
786.4695845974
 30
0.0
 40
3.849999999999899
  0
ARC
  5
23F
330
1F
100
AcDbEntity
  8
0
  6
Continuous
 62
     7
370
    25
100
AcDbCircle
 10
-882.9450308447
 20
788.2357410663
 30
0.0
 40
0.4500000000002617
100
AcDbArc
 50
101.128126049
 51
177.7863678219
  0
ARC
  5
240
330
1F
100
AcDbEntity
  8
0
  6
Continuous
 62
     7
370
    25
100
AcDbCircle
 10
-884.181607366
 20
788.2835401956
 30
0.0
 40
0.787499999999858
100
AcDbArc
 50
264.4698842763
 51
357.7863678218
  0
ARC
  5
241
330
1F
100
AcDbEntity
  8
0
  6
Continuous
 62
     7
370
    25
100
AcDbCircle
 10
-884.3008639268
 20
787.0517999134
 30
0.0
 40
0.4500000000001827
100
AcDbArc
 50
84.4698842763
 51
161.1281260491
  0
ARC
  5
242
330
1F
100
AcDbEntity
  8
0
  6
Continuous
 62
     7
370
    25
100
AcDbCircle
 10
-880.8943846147
 20
785.8873692815
 30
0.0
 40
0.4500000000001694
100
AcDbArc
 50
341.1281260491
 51
57.7863678218
  0
ARC
  5
243
330
1F
100
AcDbEntity
  8
0
  6
Continuous
 62
     7
370
    25
100
AcDbCircle
 10
-880.2347010938
 20
786.9343763981
 30
0.0
 40
0.7874999999999931
100
AcDbArc
 50
144.4698842763
 51
237.7863678219
  0
ARC
  5
244
330
1F
100
AcDbEntity
  8
0
  6
Continuous
 62
     7
370
    25
100
AcDbCircle
 10
-881.2417911886
 20
787.6535257503
 30
0.0
 40
0.4499999999999885
100
AcDbArc
 50
324.4698842763
 51
41.1281260491
  0
ARC
  5
245
330
1F
100
AcDbEntity
  8
0
  6
Continuous
 62
     7
370
    25
100
AcDbCircle
 10
-882.9450308447
 20
788.2357410663
 30
0.0
 40
0.4500000000002617
100
AcDbArc
 50
24.4698842763
 51
101.128126049
  0
ARC
  5
246
330
1F
100
AcDbEntity
  8
0
  6
Continuous
 62
     7
370
    25
100
AcDbCircle
 10
-881.2417911886
 20
787.6535257503
 30
0.0
 40
0.4499999999999998
100
AcDbArc
 50
41.1281260491
 51
117.7863678218
  0
ARC
  5
247
330
1F
100
AcDbEntity
  8
0
  6
Continuous
 62
     7
370
    25
100
AcDbCircle
 10
-881.8186841891
 20
788.7483319962
 30
0.0
 40
0.7875000000001335
100
AcDbArc
 50
204.4698842763
 51
297.7863678218
  0
ARC
  5
248
330
1F
100
AcDbEntity
  8
0
  6
Continuous
 62
     7
370
    25
100
AcDbCircle
 10
-882.2502176968
 20
784.7034281286
 30
0.0
 40
0.4500000000002617
100
AcDbArc
 50
281.128126049
 51
357.7863678219
  0
ARC
  5
249
330
1F
100
AcDbEntity
  8
0
  6
Continuous
 62
     7
370
    25
100
AcDbCircle
 10
-880.8943846147
 20
785.8873692815
 30
0.0
 40
0.4500000000001827
100
AcDbArc
 50
264.4698842763
 51
341.1281260491
  0
ARC
  5
24A
330
1F
100
AcDbEntity
  8
0
  6
Continuous
 62
     7
370
    25
100
AcDbCircle
 10
-881.0136411754
 20
784.6556289993
 30
0.0
 40
0.7874999999997083
100
AcDbArc
 50
84.4698842763
 51
177.7863678218
  0
ARC
  5
24B
330
1F
100
AcDbEntity
  8
0
  6
Continuous
 62
     7
370
    25
100
AcDbCircle
 10
-883.9534573528
 20
785.2856434446
 30
0.0
 40
0.4499999999999998
100
AcDbArc
 50
221.1281260491
 51
297.7863678218
  0
ARC
  5
24C
330
1F
100
AcDbEntity
  8
0
  6
Continuous
 62
     7
370
    25
100
AcDbCircle
 10
-883.3765643524
 20
784.1908371987
 30
0.0
 40
0.7875000000000381
100
AcDbArc
 50
24.4698842763
 51
117.7863678218
  0
ARC
  5
24D
330
1F
100
AcDbEntity
  8
0
  6
Continuous
 62
     7
370
    25
100
AcDbCircle
 10
-882.2502176968
 20
784.7034281286
 30
0.0
 40
0.4500000000002617
100
AcDbArc
 50
204.4698842763
 51
281.128126049
  0
ARC
  5
24E
330
1F
100
AcDbEntity
  8
0
  6
Continuous
 62
     7
370
    25
100
AcDbCircle
 10
-884.3008639268
 20
787.0517999134
 30
0.0
 40
0.4500000000001712
100
AcDbArc
 50
161.1281260491
 51
237.7863678218
  0
ARC
  5
24F
330
1F
100
AcDbEntity
  8
0
  6
Continuous
 62
     7
370
    25
100
AcDbCircle
 10
-884.9605474477
 20
786.0047927968
 30
0.0
 40
0.7875000000000592
100
AcDbArc
 50
324.4698842763
 51
57.7863678219
  0
ARC
  5
250
330
1F
100
AcDbEntity
  8
0
  6
Continuous
 62
     7
370
    25
100
AcDbCircle
 10
-883.9534573528
 20
785.2856434446
 30
0.0
 40
0.4499999999999224
100
AcDbArc
 50
144.4698842763
 51
221.1281260491
  0
ARC
  5
251
330
1F
100
AcDbEntity
  8
0
  6
Continuous
 62
     7
370
    25
100
AcDbCircle
 10
1312.4023757293
 20
-453.5304154026
 30
0.0
 40
2.250000000000231
100
AcDbArc
 50
41.1281260491
 51
101.1281260491
  0
ARC
  5
252
330
1F
100
AcDbEntity
  8
0
  6
Continuous
 62
     7
370
    25
100
AcDbCircle
 10
1313.7582088114
 20
-452.3464742497
 30
0.0
 40
0.4499999999999468
100
AcDbArc
 50
41.128126049
 51
117.7863678218
  0
ARC
  5
253
330
1F
100
AcDbEntity
  8
0
  6
Continuous
 62
     7
370
    25
100
AcDbCircle
 10
1313.1813158109
 20
-451.2516680038
 30
0.0
 40
0.787500000000364
100
AcDbArc
 50
204.4698842763
 51
297.7863678218
  0
ARC
  5
254
330
1F
100
AcDbEntity
  8
0
  6
Continuous
 62
     7
370
    25
100
AcDbCircle
 10
1312.0549691553
 20
-451.7642589337
 30
0.0
 40
0.4500000000002956
100
AcDbArc
 50
24.4698842763
 51
101.128126049
  0
ARC
  5
255
330
1F
100
AcDbEntity
  8
0
  6
Continuous
 62
     7
370
    25
100
AcDbCircle
 10
1312.4023757293
 20
-453.5304154026
 30
0.0
 40
2.250000000000363
100
AcDbArc
 50
101.1281260491
 51
161.1281260491
  0
ARC
  5
256
330
1F
100
AcDbEntity
  8
0
  6
Continuous
 62
     7
370
    25
100
AcDbCircle
 10
1312.0549691553
 20
-451.7642589337
 30
0.0
 40
0.4500000000002956
100
AcDbArc
 50
101.128126049
 51
177.7863678219
  0
ARC
  5
257
330
1F
100
AcDbEntity
  8
0
  6
Continuous
 62
     7
370
    25
100
AcDbCircle
 10
1310.818392634
 20
-451.7164598044
 30
0.0
 40
0.787499999999836
100
AcDbArc
 50
264.4698842763
 51
357.7863678218
  0
ARC
  5
258
330
1F
100
AcDbEntity
  8
0
  6
Continuous
 62
     7
370
    25
100
AcDbCircle
 10
1310.6991360732
 20
-452.9482000866
 30
0.0
 40
0.4500000000003496
100
AcDbArc
 50
84.4698842763
 51
161.1281260491
  0
ARC
  5
259
330
1F
100
AcDbEntity
  8
0
  6
Continuous
 62
     7
370
    25
100
AcDbCircle
 10
1312.4023757293
 20
-453.5304154026
 30
0.0
 40
2.250000000000363
100
AcDbArc
 50
161.1281260491
 51
221.1281260491
  0
ARC
  5
25A
330
1F
100
AcDbEntity
  8
0
  6
Continuous
 62
     7
370
    25
100
AcDbCircle
 10
1312.4023757293
 20
-453.5304154026
 30
0.0
 40
2.250000000000243
100
AcDbArc
 50
221.1281260491
 51
281.128126049
  0
ARC
  5
25B
330
1F
100
AcDbEntity
  8
0
  6
Continuous
 62
     7
370
    25
100
AcDbCircle
 10
1312.4023757293
 20
-453.5304154026
 30
0.0
 40
2.250000000000243
100
AcDbArc
 50
281.128126049
 51
341.1281260491
  0
ARC
  5
25C
330
1F
100
AcDbEntity
  8
0
  6
Continuous
 62
     7
370
    25
100
AcDbCircle
 10
1312.4023757293
 20
-453.5304154026
 30
0.0
 40
2.250000000000166
100
AcDbArc
 50
341.1281260491
 51
41.1281260491
  0
CIRCLE
  5
25D
330
1F
100
AcDbEntity
  8
0
  6
Continuous
 62
     7
370
    25
100
AcDbCircle
 10
1312.4023757293
 20
-453.5304154026
 30
0.0
 40
3.849999999999899
  0
ARC
  5
25E
330
1F
100
AcDbEntity
  8
0
  6
Continuous
 62
     7
370
    25
100
AcDbCircle
 10
1312.7497823032
 20
-455.2965718714
 30
0.0
 40
0.4500000000002956
100
AcDbArc
 50
281.128126049
 51
357.7863678219
  0
ARC
  5
25F
330
1F
100
AcDbEntity
  8
0
  6
Continuous
 62
     7
370
    25
100
AcDbCircle
 10
1314.1056153853
 20
-454.1126307185
 30
0.0
 40
0.4500000000001261
100
AcDbArc
 50
264.4698842763
 51
341.1281260491
  0
ARC
  5
260
330
1F
100
AcDbEntity
  8
0
  6
Continuous
 62
     7
370
    25
100
AcDbCircle
 10
1313.9863588246
 20
-455.3443710007
 30
0.0
 40
0.7874999999997666
100
AcDbArc
 50
84.4698842763
 51
177.7863678218
  0
ARC
  5
261
330
1F
100
AcDbEntity
  8
0
  6
Continuous
 62
     7
370
    25
100
AcDbCircle
 10
1314.7652989062
 20
-453.0656236019
 30
0.0
 40
0.7875000000001187
100
AcDbArc
 50
144.4698842763
 51
237.7863678218
  0
ARC
  5
262
330
1F
100
AcDbEntity
  8
0
  6
Continuous
 62
     7
370
    25
100
AcDbCircle
 10
1313.7582088114
 20
-452.3464742497
 30
0.0
 40
0.4500000000000811
100
AcDbArc
 50
324.4698842763
 51
41.128126049
  0
ARC
  5
263
330
1F
100
AcDbEntity
  8
0
  6
Continuous
 62
     7
370
    25
100
AcDbCircle
 10
1314.1056153853
 20
-454.1126307185
 30
0.0
 40
0.4499999999999876
100
AcDbArc
 50
341.1281260491
 51
57.7863678219
  0
ARC
  5
264
330
1F
100
AcDbEntity
  8
0
  6
Continuous
 62
     7
370
    25
100
AcDbCircle
 10
1311.6234356476
 20
-455.8091628013
 30
0.0
 40
0.7875000000000938
100
AcDbArc
 50
24.4698842763
 51
117.7863678219
  0
ARC
  5
265
330
1F
100
AcDbEntity
  8
0
  6
Continuous
 62
     7
370
    25
100
AcDbCircle
 10
1312.7497823032
 20
-455.2965718714
 30
0.0
 40
0.4500000000002956
100
AcDbArc
 50
204.4698842763
 51
281.128126049
  0
ARC
  5
266
330
1F
100
AcDbEntity
  8
0
  6
Continuous
 62
     7
370
    25
100
AcDbCircle
 10
1311.0465426472
 20
-454.7143565554
 30
0.0
 40
0.4499999999999468
100
AcDbArc
 50
221.1281260491
 51
297.7863678218
  0
ARC
  5
267
330
1F
100
AcDbEntity
  8
0
  6
Continuous
 62
     7
370
    25
100
AcDbCircle
 10
1310.0394525523
 20
-453.9952072032
 30
0.0
 40
0.7874999999997486
100
AcDbArc
 50
324.4698842763
 51
57.7863678219
  0
ARC
  5
268
330
1F
100
AcDbEntity
  8
0
  6
Continuous
 62
     7
370
    25
100
AcDbCircle
 10
1311.0465426472
 20
-454.7143565554
 30
0.0
 40
0.450000000000048
100
AcDbArc
 50
144.4698842763
 51
221.1281260491
  0
ARC
  5
269
330
1F
100
AcDbEntity
  8
0
  6
Continuous
 62
     7
370
    25
100
AcDbCircle
 10
1310.6991360732
 20
-452.9482000866
 30
0.0
 40
0.4500000000003496
100
AcDbArc
 50
161.1281260491
 51
237.7863678218
  0
ARC
  5
26A
330
1F
100
AcDbEntity
  8
0
  6
Continuous
 62
     7
370
    25
100
AcDbCircle
 10
124.9023757293
 20
1263.9695845974
 30
0.0
 40
2.250000000000237
100
AcDbArc
 50
281.1281260491
 51
341.1281260491
  0
ARC
  5
26B
330
1F
100
AcDbEntity
  8
0
  6
Continuous
 62
     7
370
    25
100
AcDbCircle
 10
125.2497823032
 20
1262.2034281286
 30
0.0
 40
0.450000000000155
100
AcDbArc
 50
281.128126049
 51
357.7863678219
  0
ARC
  5
26C
330
1F
100
AcDbEntity
  8
0
  6
Continuous
 62
     7
370
    25
100
AcDbCircle
 10
126.6056153853
 20
1263.3873692815
 30
0.0
 40
0.4500000000004008
100
AcDbArc
 50
264.4698842763
 51
341.1281260491
  0
ARC
  5
26D
330
1F
100
AcDbEntity
  8
0
  6
Continuous
 62
     7
370
    25
100
AcDbCircle
 10
126.4863588246
 20
1262.1556289993
 30
0.0
 40
0.7874999999997597
100
AcDbArc
 50
84.4698842763
 51
177.7863678218
  0
ARC
  5
26E
330
1F
100
AcDbEntity
  8
0
  6
Continuous
 62
     7
370
    25
100
AcDbCircle
 10
124.9023757293
 20
1263.9695845974
 30
0.0
 40
2.250000000000242
100
AcDbArc
 50
101.1281260491
 51
161.1281260491
  0
ARC
  5
26F
330
1F
100
AcDbEntity
  8
0
  6
Continuous
 62
     7
370
    25
100
AcDbCircle
 10
124.5549691554
 20
1265.7357410663
 30
0.0
 40
0.4500000000001557
100
AcDbArc
 50
101.128126049
 51
177.7863678219
  0
ARC
  5
270
330
1F
100
AcDbEntity
  8
0
  6
Continuous
 62
     7
370
    25
100
AcDbCircle
 10
123.1991360733
 20
1264.5517999134
 30
0.0
 40
0.4500000000002958
100
AcDbArc
 50
84.4698842763
 51
161.1281260491
  0
ARC
  5
271
330
1F
100
AcDbEntity
  8
0
  6
Continuous
 62
     7
370
    25
100
AcDbCircle
 10
123.318392634
 20
1265.7835401956
 30
0.0
 40
0.7874999999998538
100
AcDbArc
 50
264.4698842763
 51
357.7863678218
  0
ARC
  5
272
330
1F
100
AcDbEntity
  8
0
  6
Continuous
 62
     7
370
    25
100
AcDbCircle
 10
124.9023757293
 20
1263.9695845974
 30
0.0
 40
2.250000000000242
100
AcDbArc
 50
41.1281260491
 51
101.1281260491
  0
ARC
  5
273
330
1F
100
AcDbEntity
  8
0
  6
Continuous
 62
     7
370
    25
100
AcDbCircle
 10
124.9023757293
 20
1263.9695845974
 30
0.0
 40
2.250000000000218
100
AcDbArc
 50
161.1281260491
 51
221.1281260491
  0
ARC
  5
274
330
1F
100
AcDbEntity
  8
0
  6
Continuous
 62
     7
370
    25
100
AcDbCircle
 10
124.9023757293
 20
1263.9695845974
 30
0.0
 40
2.250000000000237
100
AcDbArc
 50
221.1281260491
 51
281.1281260491
  0
ARC
  5
275
330
1F
100
AcDbEntity
  8
0
  6
Continuous
 62
     7
370
    25
100
AcDbCircle
 10
124.9023757293
 20
1263.9695845974
 30
0.0
 40
2.250000000000205
100
AcDbArc
 50
341.1281260491
 51
41.1281260491
  0
CIRCLE
  5
276
330
1F
100
AcDbEntity
  8
0
  6
Continuous
 62
     7
370
    25
100
AcDbCircle
 10
124.9023757293
 20
1263.9695845974
 30
0.0
 40
3.849999999999974
  0
ARC
  5
277
330
1F
100
AcDbEntity
  8
0
  6
Continuous
 62
     7
370
    25
100
AcDbCircle
 10
127.2652989063
 20
1264.4343763981
 30
0.0
 40
0.78749999999997
100
AcDbArc
 50
144.4698842763
 51
237.7863678218
  0
ARC
  5
278
330
1F
100
AcDbEntity
  8
0
  6
Continuous
 62
     7
370
    25
100
AcDbCircle
 10
126.2582088114
 20
1265.1535257503
 30
0.0
 40
0.4500000000000777
100
AcDbArc
 50
324.4698842763
 51
41.1281260491
  0
ARC
  5
279
330
1F
100
AcDbEntity
  8
0
  6
Continuous
 62
     7
370
    25
100
AcDbCircle
 10
126.6056153853
 20
1263.3873692815
 30
0.0
 40
0.4500000000002823
100
AcDbArc
 50
341.1281260491
 51
57.7863678218
  0
ARC
  5
27A
330
1F
100
AcDbEntity
  8
0
  6
Continuous
 62
     7
370
    25
100
AcDbCircle
 10
125.6813158109
 20
1266.2483319962
 30
0.0
 40
0.7875000000000089
100
AcDbArc
 50
204.4698842763
 51
297.7863678219
  0
ARC
  5
27B
330
1F
100
AcDbEntity
  8
0
  6
Continuous
 62
     7
370
    25
100
AcDbCircle
 10
126.2582088114
 20
1265.1535257503
 30
0.0
 40
0.4500000000000872
100
AcDbArc
 50
41.1281260491
 51
117.7863678218
  0
ARC
  5
27C
330
1F
100
AcDbEntity
  8
0
  6
Continuous
 62
     7
370
    25
100
AcDbCircle
 10
124.5549691554
 20
1265.7357410663
 30
0.0
 40
0.4500000000001557
100
AcDbArc
 50
24.4698842763
 51
101.128126049
  0
ARC
  5
27D
330
1F
100
AcDbEntity
  8
0
  6
Continuous
 62
     7
370
    25
100
AcDbCircle
 10
123.5465426472
 20
1262.7856434446
 30
0.0
 40
0.4499999999998794
100
AcDbArc
 50
221.1281260491
 51
297.7863678218
  0
ARC
  5
27E
330
1F
100
AcDbEntity
  8
0
  6
Continuous
 62
     7
370
    25
100
AcDbCircle
 10
124.1234356477
 20
1261.6908371987
 30
0.0
 40
0.7875000000000845
100
AcDbArc
 50
24.4698842763
 51
117.7863678218
  0
ARC
  5
27F
330
1F
100
AcDbEntity
  8
0
  6
Continuous
 62
     7
370
    25
100
AcDbCircle
 10
125.2497823032
 20
1262.2034281286
 30
0.0
 40
0.4500000000001529
100
AcDbArc
 50
204.4698842763
 51
281.128126049
  0
ARC
  5
280
330
1F
100
AcDbEntity
  8
0
  6
Continuous
 62
     7
370
    25
100
AcDbCircle
 10
123.1991360733
 20
1264.5517999134
 30
0.0
 40
0.4500000000002958
100
AcDbArc
 50
161.1281260491
 51
237.7863678218
  0
ARC
  5
281
330
1F
100
AcDbEntity
  8
0
  6
Continuous
 62
     7
370
    25
100
AcDbCircle
 10
122.5394525523
 20
1263.5047927968
 30
0.0
 40
0.78749999999997
100
AcDbArc
 50
324.4698842763
 51
57.7863678218
  0
ARC
  5
282
330
1F
100
AcDbEntity
  8
0
  6
Continuous
 62
     7
370
    25
100
AcDbCircle
 10
123.5465426472
 20
1262.7856434446
 30
0.0
 40
0.4500000000000777
100
AcDbArc
 50
144.4698842763
 51
221.1281260491
  0
ARC
  5
283
330
1F
100
AcDbEntity
  8
0
  6
Continuous
 62
     7
370
    25
100
AcDbCircle
 10
-405.0976242707
 20
-931.0304154026
 30
0.0
 40
2.250000000000254
100
AcDbArc
 50
281.1281260491
 51
341.1281260491
  0
ARC
  5
284
330
1F
100
AcDbEntity
  8
0
  6
Continuous
 62
     7
370
    25
100
AcDbCircle
 10
-404.7502176968
 20
-932.7965718714
 30
0.0
 40
0.4500000000002402
100
AcDbArc
 50
281.128126049
 51
357.7863678219
  0
ARC
  5
285
330
1F
100
AcDbEntity
  8
0
  6
Continuous
 62
     7
370
    25
100
AcDbCircle
 10
-403.5136411754
 20
-932.8443710007
 30
0.0
 40
0.7874999999997128
100
AcDbArc
 50
84.4698842763
 51
177.7863678218
  0
ARC
  5
286
330
1F
100
AcDbEntity
  8
0
  6
Continuous
 62
     7
370
    25
100
AcDbCircle
 10
-403.3943846147
 20
-931.6126307185
 30
0.0
 40
0.4500000000002958
100
AcDbArc
 50
264.4698842763
 51
341.1281260491
  0
ARC
  5
287
330
1F
100
AcDbEntity
  8
0
  6
Continuous
 62
     7
370
    25
100
AcDbCircle
 10
-405.0976242707
 20
-931.0304154026
 30
0.0
 40
2.250000000000242
100
AcDbArc
 50
41.1281260491
 51
101.1281260491
  0
ARC
  5
288
330
1F
100
AcDbEntity
  8
0
  6
Continuous
 62
     7
370
    25
100
AcDbCircle
 10
-405.0976242707
 20
-931.0304154026
 30
0.0
 40
2.250000000000242
100
AcDbArc
 50
101.1281260491
 51
161.1281260491
  0
ARC
  5
289
330
1F
100
AcDbEntity
  8
0
  6
Continuous
 62
     7
370
    25
100
AcDbCircle
 10
-405.0976242707
 20
-931.0304154026
 30
0.0
 40
2.250000000000202
100
AcDbArc
 50
161.1281260491
 51
221.1281260491
  0
ARC
  5
28A
330
1F
100
AcDbEntity
  8
0
  6
Continuous
 62
     7
370
    25
100
AcDbCircle
 10
-405.0976242707
 20
-931.0304154026
 30
0.0
 40
2.250000000000254
100
AcDbArc
 50
221.1281260491
 51
281.1281260491
  0
ARC
  5
28B
330
1F
100
AcDbEntity
  8
0
  6
Continuous
 62
     7
370
    25
100
AcDbCircle
 10
-405.0976242707
 20
-931.0304154026
 30
0.0
 40
2.250000000000218
100
AcDbArc
 50
341.1281260491
 51
41.1281260491
  0
CIRCLE
  5
28C
330
1F
100
AcDbEntity
  8
0
  6
Continuous
 62
     7
370
    25
100
AcDbCircle
 10
-405.0976242707
 20
-931.0304154026
 30
0.0
 40
3.85000000000006
  0
ARC
  5
28D
330
1F
100
AcDbEntity
  8
0
  6
Continuous
 62
     7
370
    25
100
AcDbCircle
 10
-403.7417911886
 20
-929.8464742497
 30
0.0
 40
0.450000000000074
100
AcDbArc
 50
41.128126049
 51
117.7863678218
  0
ARC
  5
28E
330
1F
100
AcDbEntity
  8
0
  6
Continuous
 62
     7
370
    25
100
AcDbCircle
 10
-404.3186841891
 20
-928.7516680038
 30
0.0
 40
0.787499999999983
100
AcDbArc
 50
204.4698842763
 51
297.7863678219
  0
ARC
  5
28F
330
1F
100
AcDbEntity
  8
0
  6
Continuous
 62
     7
370
    25
100
AcDbCircle
 10
-405.4450308447
 20
-929.2642589337
 30
0.0
 40
0.4500000000001612
100
AcDbArc
 50
24.4698842763
 51
101.128126049
  0
ARC
  5
290
330
1F
100
AcDbEntity
  8
0
  6
Continuous
 62
     7
370
    25
100
AcDbCircle
 10
-405.4450308447
 20
-929.2642589337
 30
0.0
 40
0.4500000000001834
100
AcDbArc
 50
101.128126049
 51
177.7863678219
  0
ARC
  5
291
330
1F
100
AcDbEntity
  8
0
  6
Continuous
 62
     7
370
    25
100
AcDbCircle
 10
-406.681607366
 20
-929.2164598044
 30
0.0
 40
0.7874999999997447
100
AcDbArc
 50
264.4698842763
 51
357.7863678218
  0
ARC
  5
292
330
1F
100
AcDbEntity
  8
0
  6
Continuous
 62
     7
370
    25
100
AcDbCircle
 10
-406.8008639267
 20
-930.4482000866
 30
0.0
 40
0.4500000000003325
100
AcDbArc
 50
84.4698842763
 51
161.1281260491
  0
ARC
  5
293
330
1F
100
AcDbEntity
  8
0
  6
Continuous
 62
     7
370
    25
100
AcDbCircle
 10
-402.7347010938
 20
-930.5656236019
 30
0.0
 40
0.7874999999999931
100
AcDbArc
 50
144.4698842763
 51
237.7863678218
  0
ARC
  5
294
330
1F
100
AcDbEntity
  8
0
  6
Continuous
 62
     7
370
    25
100
AcDbCircle
 10
-403.7417911886
 20
-929.8464742497
 30
0.0
 40
0.4500000000000083
100
AcDbArc
 50
324.4698842763
 51
41.1281260491
  0
ARC
  5
295
330
1F
100
AcDbEntity
  8
0
  6
Continuous
 62
     7
370
    25
100
AcDbCircle
 10
-403.3943846147
 20
-931.6126307185
 30
0.0
 40
0.4500000000002958
100
AcDbArc
 50
341.1281260491
 51
57.7863678218
  0
ARC
  5
296
330
1F
100
AcDbEntity
  8
0
  6
Continuous
 62
     7
370
    25
100
AcDbCircle
 10
-406.8008639267
 20
-930.4482000866
 30
0.0
 40
0.4500000000003325
100
AcDbArc
 50
161.1281260491
 51
237.7863678218
  0
ARC
  5
297
330
1F
100
AcDbEntity
  8
0
  6
Continuous
 62
     7
370
    25
100
AcDbCircle
 10
-407.4605474477
 20
-931.4952072032
 30
0.0
 40
0.7875000000000592
100
AcDbArc
 50
324.4698842763
 51
57.7863678218
  0
ARC
  5
298
330
1F
100
AcDbEntity
  8
0
  6
Continuous
 62
     7
370
    25
100
AcDbCircle
 10
-406.4534573528
 20
-932.2143565554
 30
0.0
 40
0.4499999999999423
100
AcDbArc
 50
144.4698842763
 51
221.1281260491
  0
ARC
  5
299
330
1F
100
AcDbEntity
  8
0
  6
Continuous
 62
     7
370
    25
100
AcDbCircle
 10
-405.8765643524
 20
-933.3091628013
 30
0.0
 40
0.7875000000000646
100
AcDbArc
 50
24.4698842763
 51
117.7863678218
  0
ARC
  5
29A
330
1F
100
AcDbEntity
  8
0
  6
Continuous
 62
     7
370
    25
100
AcDbCircle
 10
-404.7502176968
 20
-932.7965718714
 30
0.0
 40
0.4500000000001722
100
AcDbArc
 50
204.4698842763
 51
281.128126049
  0
ARC
  5
29B
330
1F
100
AcDbEntity
  8
0
  6
Continuous
 62
     7
370
    25
100
AcDbCircle
 10
-406.4534573528
 20
-932.2143565554
 30
0.0
 40
0.4499999999999257
100
AcDbArc
 50
221.1281260491
 51
297.7863678219
  0
ARC
  5
29C
330
1F
100
AcDbEntity
  8
0
  6
Continuous
 62
     7
370
    25
100
AcDbCircle
 10
304.9023757293
 20
-931.0304154026
 30
0.0
 40
2.250000000000231
100
AcDbArc
 50
281.1281260491
 51
341.1281260491
  0
ARC
  5
29D
330
1F
100
AcDbEntity
  8
0
  6
Continuous
 62
     7
370
    25
100
AcDbCircle
 10
305.2497823032
 20
-932.7965718714
 30
0.0
 40
0.4500000000001834
100
AcDbArc
 50
281.128126049
 51
357.7863678219
  0
ARC
  5
29E
330
1F
100
AcDbEntity
  8
0
  6
Continuous
 62
     7
370
    25
100
AcDbCircle
 10
306.4863588246
 20
-932.8443710007
 30
0.0
 40
0.7874999999997128
100
AcDbArc
 50
84.4698842763
 51
177.7863678218
  0
ARC
  5
29F
330
1F
100
AcDbEntity
  8
0
  6
Continuous
 62
     7
370
    25
100
AcDbCircle
 10
306.6056153853
 20
-931.6126307185
 30
0.0
 40
0.4500000000002958
100
AcDbArc
 50
264.4698842763
 51
341.1281260491
  0
ARC
  5
2A0
330
1F
100
AcDbEntity
  8
0
  6
Continuous
 62
     7
370
    25
100
AcDbCircle
 10
304.9023757293
 20
-931.0304154026
 30
0.0
 40
2.250000000000254
100
AcDbArc
 50
41.1281260491
 51
101.1281260491
  0
ARC
  5
2A1
330
1F
100
AcDbEntity
  8
0
  6
Continuous
 62
     7
370
    25
100
AcDbCircle
 10
306.2582088114
 20
-929.8464742497
 30
0.0
 40
0.4500000000001004
100
AcDbArc
 50
41.128126049
 51
117.7863678218
  0
ARC
  5
2A2
330
1F
100
AcDbEntity
  8
0
  6
Continuous
 62
     7
370
    25
100
AcDbCircle
 10
305.6813158109
 20
-928.7516680038
 30
0.0
 40
0.787499999999983
100
AcDbArc
 50
204.4698842763
 51
297.7863678219
  0
ARC
  5
2A3
330
1F
100
AcDbEntity
  8
0
  6
Continuous
 62
     7
370
    25
100
AcDbCircle
 10
304.5549691553
 20
-929.2642589337
 30
0.0
 40
0.4500000000001722
100
AcDbArc
 50
24.4698842763
 51
101.128126049
  0
ARC
  5
2A4
330
1F
100
AcDbEntity
  8
0
  6
Continuous
 62
     7
370
    25
100
AcDbCircle
 10
304.9023757293
 20
-931.0304154026
 30
0.0
 40
2.250000000000165
100
AcDbArc
 50
341.1281260491
 51
41.1281260491
  0
ARC
  5
2A5
330
1F
100
AcDbEntity
  8
0
  6
Continuous
 62
     7
370
    25
100
AcDbCircle
 10
307.2652989062
 20
-930.5656236019
 30
0.0
 40
0.7874999999999931
100
AcDbArc
 50
144.4698842763
 51
237.7863678218
  0
ARC
  5
2A6
330
1F
100
AcDbEntity
  8
0
  6
Continuous
 62
     7
370
    25
100
AcDbCircle
 10
306.2582088114
 20
-929.8464742497
 30
0.0
 40
0.4500000000000546
100
AcDbArc
 50
324.4698842763
 51
41.128126049
  0
ARC
  5
2A7
330
1F
100
AcDbEntity
  8
0
  6
Continuous
 62
     7
370
    25
100
AcDbCircle
 10
306.6056153853
 20
-931.6126307185
 30
0.0
 40
0.4500000000002958
100
AcDbArc
 50
341.1281260491
 51
57.7863678218
  0
ARC
  5
2A8
330
1F
100
AcDbEntity
  8
0
  6
Continuous
 62
     7
370
    25
100
AcDbCircle
 10
304.9023757293
 20
-931.0304154026
 30
0.0
 40
2.250000000000255
100
AcDbArc
 50
101.1281260491
 51
161.1281260491
  0
ARC
  5
2A9
330
1F
100
AcDbEntity
  8
0
  6
Continuous
 62
     7
370
    25
100
AcDbCircle
 10
303.1991360733
 20
-930.4482000866
 30
0.0
 40
0.4500000000003325
100
AcDbArc
 50
84.4698842763
 51
161.1281260491
  0
ARC
  5
2AA
330
1F
100
AcDbEntity
  8
0
  6
Continuous
 62
     7
370
    25
100
AcDbCircle
 10
304.5549691553
 20
-929.2642589337
 30
0.0
 40
0.4500000000002402
100
AcDbArc
 50
101.128126049
 51
177.7863678219
  0
ARC
  5
2AB
330
1F
100
AcDbEntity
  8
0
  6
Continuous
 62
     7
370
    25
100
AcDbCircle
 10
303.318392634
 20
-929.2164598044
 30
0.0
 40
0.7874999999997392
100
AcDbArc
 50
264.4698842763
 51
357.7863678218
  0
ARC
  5
2AC
330
1F
100
AcDbEntity
  8
0
  6
Continuous
 62
     7
370
    25
100
AcDbCircle
 10
304.9023757293
 20
-931.0304154026
 30
0.0
 40
2.250000000000255
100
AcDbArc
 50
161.1281260491
 51
221.1281260491
  0
ARC
  5
2AD
330
1F
100
AcDbEntity
  8
0
  6
Continuous
 62
     7
370
    25
100
AcDbCircle
 10
304.9023757293
 20
-931.0304154026
 30
0.0
 40
2.250000000000231
100
AcDbArc
 50
221.1281260491
 51
281.1281260491
  0
CIRCLE
  5
2AE
330
1F
100
AcDbEntity
  8
0
  6
Continuous
 62
     7
370
    25
100
AcDbCircle
 10
304.9023757293
 20
-931.0304154026
 30
0.0
 40
3.850000000000017
  0
ARC
  5
2AF
330
1F
100
AcDbEntity
  8
0
  6
Continuous
 62
     7
370
    25
100
AcDbCircle
 10
303.5465426472
 20
-932.2143565554
 30
0.0
 40
0.4499999999998993
100
AcDbArc
 50
221.1281260491
 51
297.7863678218
  0
ARC
  5
2B0
330
1F
100
AcDbEntity
  8
0
  6
Continuous
 62
     7
370
    25
100
AcDbCircle
 10
304.1234356476
 20
-933.3091628013
 30
0.0
 40
0.7875000000000911
100
AcDbArc
 50
24.4698842763
 51
117.7863678218
  0
ARC
  5
2B1
330
1F
100
AcDbEntity
  8
0
  6
Continuous
 62
     7
370
    25
100
AcDbCircle
 10
305.2497823032
 20
-932.7965718714
 30
0.0
 40
0.4500000000001502
100
AcDbArc
 50
204.4698842763
 51
281.128126049
  0
ARC
  5
2B2
330
1F
100
AcDbEntity
  8
0
  6
Continuous
 62
     7
370
    25
100
AcDbCircle
 10
303.1991360733
 20
-930.4482000866
 30
0.0
 40
0.4500000000003325
100
AcDbArc
 50
161.1281260491
 51
237.7863678218
  0
ARC
  5
2B3
330
1F
100
AcDbEntity
  8
0
  6
Continuous
 62
     7
370
    25
100
AcDbCircle
 10
302.5394525523
 20
-931.4952072032
 30
0.0
 40
0.7875000000000592
100
AcDbArc
 50
324.4698842763
 51
57.7863678218
  0
ARC
  5
2B4
330
1F
100
AcDbEntity
  8
0
  6
Continuous
 62
     7
370
    25
100
AcDbCircle
 10
303.5465426472
 20
-932.2143565554
 30
0.0
 40
0.4499999999999885
100
AcDbArc
 50
144.4698842763
 51
221.1281260491
  0
ARC
  5
2B5
330
1F
100
AcDbEntity
  8
0
  6
Continuous
 62
     7
370
    25
100
AcDbCircle
 10
-405.0976242707
 20
1263.9695845975
 30
0.0
 40
2.250000000000254
100
AcDbArc
 50
41.1281260491
 51
101.1281260491
  0
ARC
  5
2B6
330
1F
100
AcDbEntity
  8
0
  6
Continuous
 62
     7
370
    25
100
AcDbCircle
 10
-403.7417911886
 20
1265.1535257503
 30
0.0
 40
0.450000000000074
100
AcDbArc
 50
41.1281260491
 51
117.7863678218
  0
ARC
  5
2B7
330
1F
100
AcDbEntity
  8
0
  6
Continuous
 62
     7
370
    25
100
AcDbCircle
 10
-404.3186841891
 20
1266.2483319962
 30
0.0
 40
0.787499999999983
100
AcDbArc
 50
204.4698842763
 51
297.7863678219
  0
ARC
  5
2B8
330
1F
100
AcDbEntity
  8
0
  6
Continuous
 62
     7
370
    25
100
AcDbCircle
 10
-405.4450308446
 20
1265.7357410663
 30
0.0
 40
0.4500000000001722
100
AcDbArc
 50
24.4698842763
 51
101.128126049
  0
ARC
  5
2B9
330
1F
100
AcDbEntity
  8
0
  6
Continuous
 62
     7
370
    25
100
AcDbCircle
 10
-405.0976242707
 20
1263.9695845975
 30
0.0
 40
2.250000000000238
100
AcDbArc
 50
341.1281260491
 51
41.1281260491
  0
ARC
  5
2BA
330
1F
100
AcDbEntity
  8
0
  6
Continuous
 62
     7
370
    25
100
AcDbCircle
 10
-403.3943846147
 20
1263.3873692815
 30
0.0
 40
0.4500000000003693
100
AcDbArc
 50
341.1281260491
 51
57.7863678218
  0
ARC
  5
2BB
330
1F
100
AcDbEntity
  8
0
  6
Continuous
 62
     7
370
    25
100
AcDbCircle
 10
-402.7347010937
 20
1264.4343763981
 30
0.0
 40
0.7875000000001715
100
AcDbArc
 50
144.4698842763
 51
237.7863678218
  0
ARC
  5
2BC
330
1F
100
AcDbEntity
  8
0
  6
Continuous
 62
     7
370
    25
100
AcDbCircle
 10
-403.7417911886
 20
1265.1535257503
 30
0.0
 40
0.4499999999998762
100
AcDbArc
 50
324.4698842763
 51
41.1281260491
  0
ARC
  5
2BD
330
1F
100
AcDbEntity
  8
0
  6
Continuous
 62
     7
370
    25
100
AcDbCircle
 10
-405.0976242707
 20
1263.9695845975
 30
0.0
 40
2.250000000000254
100
AcDbArc
 50
281.1281260491
 51
341.1281260491
  0
ARC
  5
2BE
330
1F
100
AcDbEntity
  8
0
  6
Continuous
 62
     7
370
    25
100
AcDbCircle
 10
-404.7502176968
 20
1262.2034281286
 30
0.0
 40
0.4500000000001834
100
AcDbArc
 50
281.128126049
 51
357.7863678219
  0
ARC
  5
2BF
330
1F
100
AcDbEntity
  8
0
  6
Continuous
 62
     7
370
    25
100
AcDbCircle
 10
-403.3943846147
 20
1263.3873692815
 30
0.0
 40
0.4500000000003871
100
AcDbArc
 50
264.4698842763
 51
341.1281260491
  0
ARC
  5
2C0
330
1F
100
AcDbEntity
  8
0
  6
Continuous
 62
     7
370
    25
100
AcDbCircle
 10
-403.5136411754
 20
1262.1556289993
 30
0.0
 40
0.7874999999997172
100
AcDbArc
 50
84.4698842763
 51
177.7863678218
  0
ARC
  5
2C1
330
1F
100
AcDbEntity
  8
0
  6
Continuous
 62
     7
370
    25
100
AcDbCircle
 10
-405.0976242707
 20
1263.9695845975
 30
0.0
 40
2.250000000000254
100
AcDbArc
 50
101.1281260491
 51
161.1281260491
  0
ARC
  5
2C2
330
1F
100
AcDbEntity
  8
0
  6
Continuous
 62
     7
370
    25
100
AcDbCircle
 10
-406.8008639267
 20
1264.5517999134
 30
0.0
 40
0.4500000000002958
100
AcDbArc
 50
84.4698842763
 51
161.1281260491
  0
ARC
  5
2C3
330
1F
100
AcDbEntity
  8
0
  6
Continuous
 62
     7
370
    25
100
AcDbCircle
 10
-406.681607366
 20
1265.7835401956
 30
0.0
 40
0.7874999999997083
100
AcDbArc
 50
264.4698842763
 51
357.7863678218
  0
ARC
  5
2C4
330
1F
100
AcDbEntity
  8
0
  6
Continuous
 62
     7
370
    25
100
AcDbCircle
 10
-405.4450308446
 20
1265.7357410663
 30
0.0
 40
0.4500000000001834
100
AcDbArc
 50
101.128126049
 51
177.7863678219
  0
ARC
  5
2C5
330
1F
100
AcDbEntity
  8
0
  6
Continuous
 62
     7
370
    25
100
AcDbCircle
 10
-405.0976242707
 20
1263.9695845975
 30
0.0
 40
2.250000000000165
100
AcDbArc
 50
161.1281260491
 51
221.1281260491
  0
ARC
  5
2C6
330
1F
100
AcDbEntity
  8
0
  6
Continuous
 62
     7
370
    25
100
AcDbCircle
 10
-405.0976242707
 20
1263.9695845975
 30
0.0
 40
2.250000000000254
100
AcDbArc
 50
221.1281260491
 51
281.1281260491
  0
CIRCLE
  5
2C7
330
1F
100
AcDbEntity
  8
0
  6
Continuous
 62
     7
370
    25
100
AcDbCircle
 10
-405.0976242707
 20
1263.9695845975
 30
0.0
 40
3.849999999999985
  0
ARC
  5
2C8
330
1F
100
AcDbEntity
  8
0
  6
Continuous
 62
     7
370
    25
100
AcDbCircle
 10
-404.7502176968
 20
1262.2034281286
 30
0.0
 40
0.4500000000001722
100
AcDbArc
 50
204.4698842763
 51
281.128126049
  0
ARC
  5
2C9
330
1F
100
AcDbEntity
  8
0
  6
Continuous
 62
     7
370
    25
100
AcDbCircle
 10
-406.4534573528
 20
1262.7856434446
 30
0.0
 40
0.4499999999998993
100
AcDbArc
 50
221.1281260491
 51
297.7863678218
  0
ARC
  5
2CA
330
1F
100
AcDbEntity
  8
0
  6
Continuous
 62
     7
370
    25
100
AcDbCircle
 10
-405.8765643523
 20
1261.6908371987
 30
0.0
 40
0.7875000000000911
100
AcDbArc
 50
24.4698842763
 51
117.7863678218
  0
ARC
  5
2CB
330
1F
100
AcDbEntity
  8
0
  6
Continuous
 62
     7
370
    25
100
AcDbCircle
 10
-406.8008639267
 20
1264.5517999134
 30
0.0
 40
0.4500000000002958
100
AcDbArc
 50
161.1281260491
 51
237.7863678218
  0
ARC
  5
2CC
330
1F
100
AcDbEntity
  8
0
  6
Continuous
 62
     7
370
    25
100
AcDbCircle
 10
-407.4605474477
 20
1263.5047927968
 30
0.0
 40
0.7875000000000394
100
AcDbArc
 50
324.4698842763
 51
57.7863678218
  0
ARC
  5
2CD
330
1F
100
AcDbEntity
  8
0
  6
Continuous
 62
     7
370
    25
100
AcDbCircle
 10
-406.4534573528
 20
1262.7856434446
 30
0.0
 40
0.4500000000000083
100
AcDbArc
 50
144.4698842762
 51
221.1281260491
  0
ARC
  5
2CE
330
1F
100
AcDbEntity
  8
0
  6
Continuous
 62
     7
370
    25
100
AcDbCircle
 10
304.9023757293
 20
1263.9695845974
 30
0.0
 40
2.250000000000242
100
AcDbArc
 50
101.1281260491
 51
161.1281260491
  0
ARC
  5
2CF
330
1F
100
AcDbEntity
  8
0
  6
Continuous
 62
     7
370
    25
100
AcDbCircle
 10
304.5549691554
 20
1265.7357410663
 30
0.0
 40
0.4500000000001834
100
AcDbArc
 50
101.128126049
 51
177.7863678219
  0
ARC
  5
2D0
330
1F
100
AcDbEntity
  8
0
  6
Continuous
 62
     7
370
    25
100
AcDbCircle
 10
303.1991360733
 20
1264.5517999134
 30
0.0
 40
0.450000000000398
100
AcDbArc
 50
84.4698842763
 51
161.1281260491
  0
ARC
  5
2D1
330
1F
100
AcDbEntity
  8
0
  6
Continuous
 62
     7
370
    25
100
AcDbCircle
 10
303.318392634
 20
1265.7835401956
 30
0.0
 40
0.7874999999997172
100
AcDbArc
 50
264.4698842763
 51
357.7863678218
  0
ARC
  5
2D2
330
1F
100
AcDbEntity
  8
0
  6
Continuous
 62
     7
370
    25
100
AcDbCircle
 10
304.9023757293
 20
1263.9695845974
 30
0.0
 40
2.250000000000242
100
AcDbArc
 50
281.1281260491
 51
341.1281260491
  0
ARC
  5
2D3
330
1F
100
AcDbEntity
  8
0
  6
Continuous
 62
     7
370
    25
100
AcDbCircle
 10
305.2497823032
 20
1262.2034281286
 30
0.0
 40
0.4500000000002402
100
AcDbArc
 50
281.128126049
 51
357.7863678219
  0
ARC
  5
2D4
330
1F
100
AcDbEntity
  8
0
  6
Continuous
 62
     7
370
    25
100
AcDbCircle
 10
306.4863588246
 20
1262.1556289993
 30
0.0
 40
0.7874999999998524
100
AcDbArc
 50
84.4698842763
 51
177.7863678218
  0
ARC
  5
2D5
330
1F
100
AcDbEntity
  8
0
  6
Continuous
 62
     7
370
    25
100
AcDbCircle
 10
306.6056153853
 20
1263.3873692815
 30
0.0
 40
0.4500000000002958
100
AcDbArc
 50
264.4698842763
 51
341.1281260491
  0
ARC
  5
2D6
330
1F
100
AcDbEntity
  8
0
  6
Continuous
 62
     7
370
    25
100
AcDbCircle
 10
304.9023757293
 20
1263.9695845974
 30
0.0
 40
2.250000000000242
100
AcDbArc
 50
41.1281260491
 51
101.1281260491
  0
ARC
  5
2D7
330
1F
100
AcDbEntity
  8
0
  6
Continuous
 62
     7
370
    25
100
AcDbCircle
 10
306.2582088114
 20
1265.1535257503
 30
0.0
 40
0.4500000000001004
100
AcDbArc
 50
41.128126049
 51
117.7863678218
  0
ARC
  5
2D8
330
1F
100
AcDbEntity
  8
0
  6
Continuous
 62
     7
370
    25
100
AcDbCircle
 10
305.6813158109
 20
1266.2483319962
 30
0.0
 40
0.787499999999983
100
AcDbArc
 50
204.4698842763
 51
297.7863678219
  0
ARC
  5
2D9
330
1F
100
AcDbEntity
  8
0
  6
Continuous
 62
     7
370
    25
100
AcDbCircle
 10
304.5549691554
 20
1265.7357410663
 30
0.0
 40
0.4500000000001612
100
AcDbArc
 50
24.4698842763
 51
101.128126049
  0
ARC
  5
2DA
330
1F
100
AcDbEntity
  8
0
  6
Continuous
 62
     7
370
    25
100
AcDbCircle
 10
304.9023757293
 20
1263.9695845974
 30
0.0
 40
2.250000000000165
100
AcDbArc
 50
161.1281260491
 51
221.1281260491
  0
ARC
  5
2DB
330
1F
100
AcDbEntity
  8
0
  6
Continuous
 62
     7
370
    25
100
AcDbCircle
 10
304.9023757293
 20
1263.9695845974
 30
0.0
 40
2.250000000000242
100
AcDbArc
 50
221.1281260491
 51
281.1281260491
  0
ARC
  5
2DC
330
1F
100
AcDbEntity
  8
0
  6
Continuous
 62
     7
370
    25
100
AcDbCircle
 10
304.9023757293
 20
1263.9695845974
 30
0.0
 40
2.250000000000218
100
AcDbArc
 50
341.1281260491
 51
41.1281260491
  0
CIRCLE
  5
2DD
330
1F
100
AcDbEntity
  8
0
  6
Continuous
 62
     7
370
    25
100
AcDbCircle
 10
304.9023757293
 20
1263.9695845974
 30
0.0
 40
3.850000000000135
  0
ARC
  5
2DE
330
1F
100
AcDbEntity
  8
0
  6
Continuous
 62
     7
370
    25
100
AcDbCircle
 10
307.2652989063
 20
1264.4343763981
 30
0.0
 40
0.7874999999999931
100
AcDbArc
 50
144.4698842763
 51
237.7863678218
  0
ARC
  5
2DF
330
1F
100
AcDbEntity
  8
0
  6
Continuous
 62
     7
370
    25
100
AcDbCircle
 10
306.2582088114
 20
1265.1535257503
 30
0.0
 40
0.4500000000000546
100
AcDbArc
 50
324.4698842763
 51
41.128126049
  0
ARC
  5
2E0
330
1F
100
AcDbEntity
  8
0
  6
Continuous
 62
     7
370
    25
100
AcDbCircle
 10
306.6056153853
 20
1263.3873692815
 30
0.0
 40
0.4500000000002958
100
AcDbArc
 50
341.1281260491
 51
57.7863678218
  0
ARC
  5
2E1
330
1F
100
AcDbEntity
  8
0
  6
Continuous
 62
     7
370
    25
100
AcDbCircle
 10
303.5465426472
 20
1262.7856434446
 30
0.0
 40
0.4500000000000546
100
AcDbArc
 50
144.4698842763
 51
221.1281260491
  0
ARC
  5
2E2
330
1F
100
AcDbEntity
  8
0
  6
Continuous
 62
     7
370
    25
100
AcDbCircle
 10
302.5394525523
 20
1263.5047927968
 30
0.0
 40
0.7874999999999931
100
AcDbArc
 50
324.4698842763
 51
57.7863678218
  0
ARC
  5
2E3
330
1F
100
AcDbEntity
  8
0
  6
Continuous
 62
     7
370
    25
100
AcDbCircle
 10
303.1991360733
 20
1264.5517999134
 30
0.0
 40
0.4500000000002958
100
AcDbArc
 50
161.1281260491
 51
237.7863678218
  0
ARC
  5
2E4
330
1F
100
AcDbEntity
  8
0
  6
Continuous
 62
     7
370
    25
100
AcDbCircle
 10
303.5465426472
 20
1262.7856434446
 30
0.0
 40
0.4499999999998993
100
AcDbArc
 50
221.1281260491
 51
297.7863678218
  0
ARC
  5
2E5
330
1F
100
AcDbEntity
  8
0
  6
Continuous
 62
     7
370
    25
100
AcDbCircle
 10
304.1234356477
 20
1261.6908371987
 30
0.0
 40
0.787499999999983
100
AcDbArc
 50
24.4698842763
 51
117.7863678218
  0
ARC
  5
2E6
330
1F
100
AcDbEntity
  8
0
  6
Continuous
 62
     7
370
    25
100
AcDbCircle
 10
305.2497823032
 20
1262.2034281286
 30
0.0
 40
0.4500000000001612
100
AcDbArc
 50
204.4698842763
 51
281.128126049
  0
ARC
  5
2E7
330
1F
100
AcDbEntity
  8
0
  6
Continuous
 62
     7
370
    25
100
AcDbCircle
 10
834.9023757293
 20
-931.0304154026
 30
0.0
 40
2.250000000000255
100
AcDbArc
 50
101.1281260491
 51
161.1281260491
  0
ARC
  5
2E8
330
1F
100
AcDbEntity
  8
0
  6
Continuous
 62
     7
370
    25
100
AcDbCircle
 10
833.318392634
 20
-929.2164598044
 30
0.0
 40
0.7874999999997447
100
AcDbArc
 50
264.4698842763
 51
357.7863678218
  0
ARC
  5
2E9
330
1F
100
AcDbEntity
  8
0
  6
Continuous
 62
     7
370
    25
100
AcDbCircle
 10
833.1991360733
 20
-930.4482000866
 30
0.0
 40
0.4500000000002849
100
AcDbArc
 50
84.4698842763
 51
161.1281260491
  0
ARC
  5
2EA
330
1F
100
AcDbEntity
  8
0
  6
Continuous
 62
     7
370
    25
100
AcDbCircle
 10
834.5549691553
 20
-929.2642589337
 30
0.0
 40
0.4500000000002402
100
AcDbArc
 50
101.128126049
 51
177.7863678219
  0
ARC
  5
2EB
330
1F
100
AcDbEntity
  8
0
  6
Continuous
 62
     7
370
    25
100
AcDbCircle
 10
834.9023757293
 20
-931.0304154026
 30
0.0
 40
2.250000000000254
100
AcDbArc
 50
41.1281260491
 51
101.1281260491
  0
ARC
  5
2EC
330
1F
100
AcDbEntity
  8
0
  6
Continuous
 62
     7
370
    25
100
AcDbCircle
 10
834.9023757293
 20
-931.0304154026
 30
0.0
 40
2.250000000000255
100
AcDbArc
 50
161.1281260491
 51
221.1281260491
  0
ARC
  5
2ED
330
1F
100
AcDbEntity
  8
0
  6
Continuous
 62
     7
370
    25
100
AcDbCircle
 10
834.9023757293
 20
-931.0304154026
 30
0.0
 40
2.250000000000231
100
AcDbArc
 50
221.1281260491
 51
281.1281260491
  0
ARC
  5
2EE
330
1F
100
AcDbEntity
  8
0
  6
Continuous
 62
     7
370
    25
100
AcDbCircle
 10
834.9023757293
 20
-931.0304154026
 30
0.0
 40
2.250000000000231
100
AcDbArc
 50
281.1281260491
 51
341.1281260491
  0
ARC
  5
2EF
330
1F
100
AcDbEntity
  8
0
  6
Continuous
 62
     7
370
    25
100
AcDbCircle
 10
834.9023757293
 20
-931.0304154026
 30
0.0
 40
2.250000000000111
100
AcDbArc
 50
341.1281260491
 51
41.1281260491
  0
CIRCLE
  5
2F0
330
1F
100
AcDbEntity
  8
0
  6
Continuous
 62
     7
370
    25
100
AcDbCircle
 10
834.9023757293
 20
-931.0304154026
 30
0.0
 40
3.849999999999974
  0
ARC
  5
2F1
330
1F
100
AcDbEntity
  8
0
  6
Continuous
 62
     7
370
    25
100
AcDbCircle
 10
836.6056153853
 20
-931.6126307185
 30
0.0
 40
0.450000000000242
100
AcDbArc
 50
341.1281260491
 51
57.7863678218
  0
ARC
  5
2F2
330
1F
100
AcDbEntity
  8
0
  6
Continuous
 62
     7
370
    25
100
AcDbCircle
 10
837.2652989062
 20
-930.5656236019
 30
0.0
 40
0.7874999999999931
100
AcDbArc
 50
144.4698842763
 51
237.7863678218
  0
ARC
  5
2F3
330
1F
100
AcDbEntity
  8
0
  6
Continuous
 62
     7
370
    25
100
AcDbCircle
 10
836.2582088114
 20
-929.8464742497
 30
0.0
 40
0.449999999999962
100
AcDbArc
 50
324.4698842762
 51
41.1281260491
  0
ARC
  5
2F4
330
1F
100
AcDbEntity
  8
0
  6
Continuous
 62
     7
370
    25
100
AcDbCircle
 10
835.6813158109
 20
-928.7516680038
 30
0.0
 40
0.787499999999983
100
AcDbArc
 50
204.4698842763
 51
297.7863678219
  0
ARC
  5
2F5
330
1F
100
AcDbEntity
  8
0
  6
Continuous
 62
     7
370
    25
100
AcDbCircle
 10
836.2582088114
 20
-929.8464742497
 30
0.0
 40
0.4500000000001004
100
AcDbArc
 50
41.128126049
 51
117.7863678218
  0
ARC
  5
2F6
330
1F
100
AcDbEntity
  8
0
  6
Continuous
 62
     7
370
    25
100
AcDbCircle
 10
834.5549691553
 20
-929.2642589337
 30
0.0
 40
0.4500000000001722
100
AcDbArc
 50
24.4698842763
 51
101.128126049
  0
ARC
  5
2F7
330
1F
100
AcDbEntity
  8
0
  6
Continuous
 62
     7
370
    25
100
AcDbCircle
 10
835.2497823032
 20
-932.7965718714
 30
0.0
 40
0.4500000000001502
100
AcDbArc
 50
281.128126049
 51
357.7863678219
  0
ARC
  5
2F8
330
1F
100
AcDbEntity
  8
0
  6
Continuous
 62
     7
370
    25
100
AcDbCircle
 10
836.6056153853
 20
-931.6126307185
 30
0.0
 40
0.4500000000002849
100
AcDbArc
 50
264.4698842763
 51
341.1281260491
  0
ARC
  5
2F9
330
1F
100
AcDbEntity
  8
0
  6
Continuous
 62
     7
370
    25
100
AcDbCircle
 10
836.4863588246
 20
-932.8443710007
 30
0.0
 40
0.7874999999997128
100
AcDbArc
 50
84.4698842763
 51
177.7863678218
  0
ARC
  5
2FA
330
1F
100
AcDbEntity
  8
0
  6
Continuous
 62
     7
370
    25
100
AcDbCircle
 10
833.5465426472
 20
-932.2143565554
 30
0.0
 40
0.4499999999999523
100
AcDbArc
 50
221.1281260491
 51
297.7863678219
  0
ARC
  5
2FB
330
1F
100
AcDbEntity
  8
0
  6
Continuous
 62
     7
370
    25
100
AcDbCircle
 10
835.2497823032
 20
-932.7965718714
 30
0.0
 40
0.4500000000001502
100
AcDbArc
 50
204.4698842763
 51
281.128126049
  0
ARC
  5
2FC
330
1F
100
AcDbEntity
  8
0
  6
Continuous
 62
     7
370
    25
100
AcDbCircle
 10
834.1234356476
 20
-933.3091628013
 30
0.0
 40
0.7875000000000911
100
AcDbArc
 50
24.4698842763
 51
117.7863678218
  0
ARC
  5
2FD
330
1F
100
AcDbEntity
  8
0
  6
Continuous
 62
     7
370
    25
100
AcDbCircle
 10
833.5465426472
 20
-932.2143565554
 30
0.0
 40
0.449999999999896
100
AcDbArc
 50
144.4698842763
 51
221.1281260491
  0
ARC
  5
2FE
330
1F
100
AcDbEntity
  8
0
  6
Continuous
 62
     7
370
    25
100
AcDbCircle
 10
833.1991360733
 20
-930.4482000866
 30
0.0
 40
0.4500000000002787
100
AcDbArc
 50
161.1281260491
 51
237.7863678218
  0
ARC
  5
2FF
330
1F
100
AcDbEntity
  8
0
  6
Continuous
 62
     7
370
    25
100
AcDbCircle
 10
832.5394525523
 20
-931.4952072032
 30
0.0
 40
0.7875000000000592
100
AcDbArc
 50
324.4698842763
 51
57.7863678218
  0
ARC
  5
300
330
1F
100
AcDbEntity
  8
0
  6
Continuous
 62
     7
370
    25
100
AcDbCircle
 10
834.9023757293
 20
1263.9695845974
 30
0.0
 40
2.250000000000254
100
AcDbArc
 50
41.1281260491
 51
101.1281260491
  0
ARC
  5
301
330
1F
100
AcDbEntity
  8
0
  6
Continuous
 62
     7
370
    25
100
AcDbCircle
 10
834.9023757293
 20
1263.9695845974
 30
0.0
 40
2.250000000000254
100
AcDbArc
 50
101.1281260491
 51
161.1281260491
  0
ARC
  5
302
330
1F
100
AcDbEntity
  8
0
  6
Continuous
 62
     7
370
    25
100
AcDbCircle
 10
834.9023757293
 20
1263.9695845974
 30
0.0
 40
2.250000000000218
100
AcDbArc
 50
161.1281260491
 51
221.1281260491
  0
ARC
  5
303
330
1F
100
AcDbEntity
  8
0
  6
Continuous
 62
     7
370
    25
100
AcDbCircle
 10
834.9023757293
 20
1263.9695845974
 30
0.0
 40
2.250000000000254
100
AcDbArc
 50
221.1281260491
 51
281.1281260491
  0
ARC
  5
304
330
1F
100
AcDbEntity
  8
0
  6
Continuous
 62
     7
370
    25
100
AcDbCircle
 10
834.9023757293
 20
1263.9695845974
 30
0.0
 40
2.250000000000254
100
AcDbArc
 50
281.1281260491
 51
341.1281260491
  0
ARC
  5
305
330
1F
100
AcDbEntity
  8
0
  6
Continuous
 62
     7
370
    25
100
AcDbCircle
 10
834.9023757293
 20
1263.9695845974
 30
0.0
 40
2.250000000000218
100
AcDbArc
 50
341.1281260491
 51
41.1281260491
  0
CIRCLE
  5
306
330
1F
100
AcDbEntity
  8
0
  6
Continuous
 62
     7
370
    25
100
AcDbCircle
 10
834.9023757293
 20
1263.9695845974
 30
0.0
 40
3.850000000000135
  0
ARC
  5
307
330
1F
100
AcDbEntity
  8
0
  6
Continuous
 62
     7
370
    25
100
AcDbCircle
 10
835.6813158109
 20
1266.2483319962
 30
0.0
 40
0.787499999999983
100
AcDbArc
 50
204.4698842763
 51
297.7863678219
  0
ARC
  5
308
330
1F
100
AcDbEntity
  8
0
  6
Continuous
 62
     7
370
    25
100
AcDbCircle
 10
834.5549691554
 20
1265.7357410663
 30
0.0
 40
0.4500000000001722
100
AcDbArc
 50
24.4698842763
 51
101.128126049
  0
ARC
  5
309
330
1F
100
AcDbEntity
  8
0
  6
Continuous
 62
     7
370
    25
100
AcDbCircle
 10
836.2582088114
 20
1265.1535257503
 30
0.0
 40
0.4500000000000475
100
AcDbArc
 50
41.128126049
 51
117.7863678218
  0
ARC
  5
30A
330
1F
100
AcDbEntity
  8
0
  6
Continuous
 62
     7
370
    25
100
AcDbCircle
 10
836.6056153853
 20
1263.3873692815
 30
0.0
 40
0.4500000000003496
100
AcDbArc
 50
341.1281260491
 51
57.7863678218
  0
ARC
  5
30B
330
1F
100
AcDbEntity
  8
0
  6
Continuous
 62
     7
370
    25
100
AcDbCircle
 10
837.2652989063
 20
1264.4343763981
 30
0.0
 40
0.7874999999999931
100
AcDbArc
 50
144.4698842763
 51
237.7863678218
  0
ARC
  5
30C
330
1F
100
AcDbEntity
  8
0
  6
Continuous
 62
     7
370
    25
100
AcDbCircle
 10
836.2582088114
 20
1265.1535257503
 30
0.0
 40
0.4500000000000546
100
AcDbArc
 50
324.4698842763
 51
41.1281260491
  0
ARC
  5
30D
330
1F
100
AcDbEntity
  8
0
  6
Continuous
 62
     7
370
    25
100
AcDbCircle
 10
833.1991360733
 20
1264.5517999134
 30
0.0
 40
0.4500000000003871
100
AcDbArc
 50
84.4698842763
 51
161.1281260491
  0
ARC
  5
30E
330
1F
100
AcDbEntity
  8
0
  6
Continuous
 62
     7
370
    25
100
AcDbCircle
 10
833.318392634
 20
1265.7835401955
 30
0.0
 40
0.7874999999997172
100
AcDbArc
 50
264.4698842763
 51
357.7863678218
  0
ARC
  5
30F
330
1F
100
AcDbEntity
  8
0
  6
Continuous
 62
     7
370
    25
100
AcDbCircle
 10
834.5549691554
 20
1265.7357410663
 30
0.0
 40
0.4500000000002402
100
AcDbArc
 50
101.128126049
 51
177.7863678219
  0
ARC
  5
310
330
1F
100
AcDbEntity
  8
0
  6
Continuous
 62
     7
370
    25
100
AcDbCircle
 10
835.2497823032
 20
1262.2034281286
 30
0.0
 40
0.4500000000002402
100
AcDbArc
 50
281.128126049
 51
357.7863678219
  0
ARC
  5
311
330
1F
100
AcDbEntity
  8
0
  6
Continuous
 62
     7
370
    25
100
AcDbCircle
 10
836.4863588246
 20
1262.1556289993
 30
0.0
 40
0.7874999999997083
100
AcDbArc
 50
84.4698842763
 51
177.7863678218
  0
ARC
  5
312
330
1F
100
AcDbEntity
  8
0
  6
Continuous
 62
     7
370
    25
100
AcDbCircle
 10
836.6056153853
 20
1263.3873692815
 30
0.0
 40
0.4500000000003496
100
AcDbArc
 50
264.4698842763
 51
341.1281260491
  0
ARC
  5
313
330
1F
100
AcDbEntity
  8
0
  6
Continuous
 62
     7
370
    25
100
AcDbCircle
 10
833.1991360733
 20
1264.5517999134
 30
0.0
 40
0.4500000000003496
100
AcDbArc
 50
161.1281260491
 51
237.7863678218
  0
ARC
  5
314
330
1F
100
AcDbEntity
  8
0
  6
Continuous
 62
     7
370
    25
100
AcDbCircle
 10
833.5465426472
 20
1262.7856434445
 30
0.0
 40
0.4499999999999224
100
AcDbArc
 50
144.4698842763
 51
221.1281260491
  0
ARC
  5
315
330
1F
100
AcDbEntity
  8
0
  6
Continuous
 62
     7
370
    25
100
AcDbCircle
 10
832.5394525523
 20
1263.5047927968
 30
0.0
 40
0.7875000000001252
100
AcDbArc
 50
324.4698842763
 51
57.7863678218
  0
ARC
  5
316
330
1F
100
AcDbEntity
  8
0
  6
Continuous
 62
     7
370
    25
100
AcDbCircle
 10
835.2497823032
 20
1262.2034281286
 30
0.0
 40
0.4500000000001722
100
AcDbArc
 50
204.4698842763
 51
281.128126049
  0
ARC
  5
317
330
1F
100
AcDbEntity
  8
0
  6
Continuous
 62
     7
370
    25
100
AcDbCircle
 10
834.1234356477
 20
1261.6908371987
 30
0.0
 40
0.7875000000000911
100
AcDbArc
 50
24.4698842763
 51
117.7863678218
  0
ARC
  5
318
330
1F
100
AcDbEntity
  8
0
  6
Continuous
 62
     7
370
    25
100
AcDbCircle
 10
833.5465426472
 20
1262.7856434445
 30
0.0
 40
0.4499999999998993
100
AcDbArc
 50
221.1281260491
 51
297.7863678218
  0
ARC
  5
319
330
1F
100
AcDbEntity
  8
0
  6
Continuous
 62
     7
370
    25
100
AcDbCircle
 10
1014.9023757293
 20
1263.9695845974
 30
0.0
 40
2.250000000000254
100
AcDbArc
 50
41.1281260491
 51
101.1281260491
  0
ARC
  5
31A
330
1F
100
AcDbEntity
  8
0
  6
Continuous
 62
     7
370
    25
100
AcDbCircle
 10
1014.9023757293
 20
1263.9695845974
 30
0.0
 40
2.250000000000326
100
AcDbArc
 50
101.1281260491
 51
161.1281260491
  0
ARC
  5
31B
330
1F
100
AcDbEntity
  8
0
  6
Continuous
 62
     7
370
    25
100
AcDbCircle
 10
1014.9023757293
 20
1263.9695845974
 30
0.0
 40
2.250000000000326
100
AcDbArc
 50
161.1281260491
 51
221.1281260491
  0
ARC
  5
31C
330
1F
100
AcDbEntity
  8
0
  6
Continuous
 62
     7
370
    25
100
AcDbCircle
 10
1014.9023757293
 20
1263.9695845974
 30
0.0
 40
2.250000000000231
100
AcDbArc
 50
221.1281260491
 51
281.1281260491
  0
ARC
  5
31D
330
1F
100
AcDbEntity
  8
0
  6
Continuous
 62
     7
370
    25
100
AcDbCircle
 10
1014.9023757293
 20
1263.9695845974
 30
0.0
 40
2.250000000000231
100
AcDbArc
 50
281.1281260491
 51
341.1281260491
  0
ARC
  5
31E
330
1F
100
AcDbEntity
  8
0
  6
Continuous
 62
     7
370
    25
100
AcDbCircle
 10
1014.9023757293
 20
1263.9695845974
 30
0.0
 40
2.250000000000077
100
AcDbArc
 50
341.1281260491
 51
41.1281260491
  0
CIRCLE
  5
31F
330
1F
100
AcDbEntity
  8
0
  6
Continuous
 62
     7
370
    25
100
AcDbCircle
 10
1014.9023757293
 20
1263.9695845974
 30
0.0
 40
3.849999999999814
  0
ARC
  5
320
330
1F
100
AcDbEntity
  8
0
  6
Continuous
 62
     7
370
    25
100
AcDbCircle
 10
1016.2582088114
 20
1265.1535257503
 30
0.0
 40
0.4500000000001004
100
AcDbArc
 50
41.1281260491
 51
117.7863678218
  0
ARC
  5
321
330
1F
100
AcDbEntity
  8
0
  6
Continuous
 62
     7
370
    25
100
AcDbCircle
 10
1015.6813158109
 20
1266.2483319962
 30
0.0
 40
0.787499999999983
100
AcDbArc
 50
204.4698842763
 51
297.7863678218
  0
ARC
  5
322
330
1F
100
AcDbEntity
  8
0
  6
Continuous
 62
     7
370
    25
100
AcDbCircle
 10
1014.5549691554
 20
1265.7357410663
 30
0.0
 40
0.4500000000001282
100
AcDbArc
 50
24.4698842763
 51
101.128126049
  0
ARC
  5
323
330
1F
100
AcDbEntity
  8
0
  6
Continuous
 62
     7
370
    25
100
AcDbCircle
 10
1016.6056153853
 20
1263.3873692815
 30
0.0
 40
0.450000000000208
100
AcDbArc
 50
341.1281260491
 51
57.7863678218
  0
ARC
  5
324
330
1F
100
AcDbEntity
  8
0
  6
Continuous
 62
     7
370
    25
100
AcDbCircle
 10
1017.2652989063
 20
1264.4343763981
 30
0.0
 40
0.7875000000003103
100
AcDbArc
 50
144.4698842763
 51
237.7863678218
  0
ARC
  5
325
330
1F
100
AcDbEntity
  8
0
  6
Continuous
 62
     7
370
    25
100
AcDbCircle
 10
1016.2582088114
 20
1265.1535257503
 30
0.0
 40
0.4499999999997374
100
AcDbArc
 50
324.4698842763
 51
41.1281260491
  0
ARC
  5
326
330
1F
100
AcDbEntity
  8
0
  6
Continuous
 62
     7
370
    25
100
AcDbCircle
 10
1015.2497823032
 20
1262.2034281286
 30
0.0
 40
0.4500000000002402
100
AcDbArc
 50
281.128126049
 51
357.7863678219
  0
ARC
  5
327
330
1F
100
AcDbEntity
  8
0
  6
Continuous
 62
     7
370
    25
100
AcDbCircle
 10
1016.6056153853
 20
1263.3873692815
 30
0.0
 40
0.4500000000003871
100
AcDbArc
 50
264.4698842763
 51
341.1281260491
  0
ARC
  5
328
330
1F
100
AcDbEntity
  8
0
  6
Continuous
 62
     7
370
    25
100
AcDbCircle
 10
1016.4863588246
 20
1262.1556289993
 30
0.0
 40
0.7874999999997172
100
AcDbArc
 50
84.4698842763
 51
177.7863678218
  0
ARC
  5
329
330
1F
100
AcDbEntity
  8
0
  6
Continuous
 62
     7
370
    25
100
AcDbCircle
 10
1013.1991360733
 20
1264.5517999134
 30
0.0
 40
0.4500000000003496
100
AcDbArc
 50
84.4698842763
 51
161.1281260491
  0
ARC
  5
32A
330
1F
100
AcDbEntity
  8
0
  6
Continuous
 62
     7
370
    25
100
AcDbCircle
 10
1014.5549691554
 20
1265.7357410663
 30
0.0
 40
0.4500000000001282
100
AcDbArc
 50
101.128126049
 51
177.7863678219
  0
ARC
  5
32B
330
1F
100
AcDbEntity
  8
0
  6
Continuous
 62
     7
370
    25
100
AcDbCircle
 10
1013.318392634
 20
1265.7835401955
 30
0.0
 40
0.7874999999997083
100
AcDbArc
 50
264.4698842763
 51
357.7863678218
  0
ARC
  5
32C
330
1F
100
AcDbEntity
  8
0
  6
Continuous
 62
     7
370
    25
100
AcDbCircle
 10
1013.1991360733
 20
1264.5517999134
 30
0.0
 40
0.4500000000003496
100
AcDbArc
 50
161.1281260491
 51
237.7863678218
  0
ARC
  5
32D
330
1F
100
AcDbEntity
  8
0
  6
Continuous
 62
     7
370
    25
100
AcDbCircle
 10
1012.5394525523
 20
1263.5047927968
 30
0.0
 40
0.7874999999998081
100
AcDbArc
 50
324.4698842763
 51
57.7863678219
  0
ARC
  5
32E
330
1F
100
AcDbEntity
  8
0
  6
Continuous
 62
     7
370
    25
100
AcDbCircle
 10
1013.5465426472
 20
1262.7856434445
 30
0.0
 40
0.4500000000000546
100
AcDbArc
 50
144.4698842763
 51
221.1281260491
  0
ARC
  5
32F
330
1F
100
AcDbEntity
  8
0
  6
Continuous
 62
     7
370
    25
100
AcDbCircle
 10
1014.1234356477
 20
1261.6908371987
 30
0.0
 40
0.7875000000000911
100
AcDbArc
 50
24.4698842763
 51
117.7863678218
  0
ARC
  5
330
330
1F
100
AcDbEntity
  8
0
  6
Continuous
 62
     7
370
    25
100
AcDbCircle
 10
1015.2497823032
 20
1262.2034281286
 30
0.0
 40
0.4500000000001941
100
AcDbArc
 50
204.4698842763
 51
281.128126049
  0
ARC
  5
331
330
1F
100
AcDbEntity
  8
0
  6
Continuous
 62
     7
370
    25
100
AcDbCircle
 10
1013.5465426472
 20
1262.7856434445
 30
0.0
 40
0.4499999999998993
100
AcDbArc
 50
221.1281260491
 51
297.7863678218
  0
CIRCLE
  5
332
330
1F
100
AcDbEntity
  8
0
  6
Continuous
 62
     7
370
    25
100
AcDbCircle
 10
1233.9915336031
 20
-852.6195732763
 30
0.0
 40
6.637921400061416
  0
CIRCLE
  5
333
330
1F
100
AcDbEntity
  8
0
  6
Continuous
 62
     7
370
    25
100
AcDbCircle
 10
1233.991533603
 20
1185.5587424712
 30
0.0
 40
6.637921400061224
  0
CIRCLE
  5
334
330
1F
100
AcDbEntity
  8
0
  6
Continuous
 62
     7
370
    25
100
AcDbCircle
 10
-804.1867821445
 20
1185.5587424712
 30
0.0
 40
6.637921400061253
  0
CIRCLE
  5
335
330
1F
100
AcDbEntity
  8
0
  6
Continuous
 62
     7
370
    25
100
AcDbCircle
 10
-804.1867821445
 20
-852.6195732763
 30
0.0
 40
6.637921400061421
  0
LINE
  5
336
330
1F
100
AcDbEntity
  8
0
  6
Continuous
 62
     7
370
    25
100
AcDbLine
 10
1319.9023757293
 20
-393.5304154026
 30
0.0
 11
1304.9023757293
 21
-393.5304154026
 31
0.0
  0
LINE
  5
337
330
1F
100
AcDbEntity
  8
0
  6
Continuous
 62
     7
370
    25
100
AcDbLine
 10
1319.9023757293
 20
-333.5304154026
 30
0.0
 11
1319.9023757293
 21
-393.5304154026
 31
0.0
  0
LINE
  5
338
330
1F
100
AcDbEntity
  8
0
  6
Continuous
 62
     7
370
    25
100
AcDbLine
 10
1304.9023757293
 20
-333.5304154026
 30
0.0
 11
1319.9023757293
 21
-333.5304154026
 31
0.0
  0
LINE
  5
339
330
1F
100
AcDbEntity
  8
0
  6
Continuous
 62
     7
370
    25
100
AcDbLine
 10
1304.9023757293
 20
-393.5304154026
 30
0.0
 11
1304.9023757293
 21
-333.5304154026
 31
0.0
  0
LINE
  5
33A
330
1F
100
AcDbEntity
  8
0
  6
Continuous
 62
     7
370
    25
100
AcDbLine
 10
1319.9023757293
 20
-573.5304154026
 30
0.0
 11
1304.9023757293
 21
-573.5304154026
 31
0.0
  0
LINE
  5
33B
330
1F
100
AcDbEntity
  8
0
  6
Continuous
 62
     7
370
    25
100
AcDbLine
 10
1319.9023757293
 20
-513.5304154026
 30
0.0
 11
1319.9023757293
 21
-573.5304154026
 31
0.0
  0
LINE
  5
33C
330
1F
100
AcDbEntity
  8
0
  6
Continuous
 62
     7
370
    25
100
AcDbLine
 10
1304.9023757293
 20
-513.5304154026
 30
0.0
 11
1319.9023757293
 21
-513.5304154026
 31
0.0
  0
LINE
  5
33D
330
1F
100
AcDbEntity
  8
0
  6
Continuous
 62
     7
370
    25
100
AcDbLine
 10
1304.9023757293
 20
-573.5304154026
 30
0.0
 11
1304.9023757293
 21
-513.5304154026
 31
0.0
  0
LINE
  5
33E
330
1F
100
AcDbEntity
  8
0
  6
Continuous
 62
     7
370
    25
100
AcDbLine
 10
1319.9023757293
 20
-753.5304154026
 30
0.0
 11
1304.9023757293
 21
-753.5304154026
 31
0.0
  0
LINE
  5
33F
330
1F
100
AcDbEntity
  8
0
  6
Continuous
 62
     7
370
    25
100
AcDbLine
 10
1319.9023757293
 20
-693.5304154026
 30
0.0
 11
1319.9023757293
 21
-753.5304154026
 31
0.0
  0
LINE
  5
340
330
1F
100
AcDbEntity
  8
0
  6
Continuous
 62
     7
370
    25
100
AcDbLine
 10
1304.9023757293
 20
-693.5304154026
 30
0.0
 11
1319.9023757293
 21
-693.5304154026
 31
0.0
  0
LINE
  5
341
330
1F
100
AcDbEntity
  8
0
  6
Continuous
 62
     7
370
    25
100
AcDbLine
 10
1304.9023757293
 20
-753.5304154026
 30
0.0
 11
1304.9023757293
 21
-693.5304154026
 31
0.0
  0
LINE
  5
342
330
1F
100
AcDbEntity
  8
0
  6
Continuous
 62
     7
370
    25
100
AcDbLine
 10
1319.9023757293
 20
-43.5304154026
 30
0.0
 11
1304.9023757293
 21
-43.5304154026
 31
0.0
  0
LINE
  5
343
330
1F
100
AcDbEntity
  8
0
  6
Continuous
 62
     7
370
    25
100
AcDbLine
 10
1319.9023757293
 20
16.4695845974
 30
0.0
 11
1319.9023757293
 21
-43.5304154026
 31
0.0
  0
LINE
  5
344
330
1F
100
AcDbEntity
  8
0
  6
Continuous
 62
     7
370
    25
100
AcDbLine
 10
1304.9023757293
 20
16.4695845974
 30
0.0
 11
1319.9023757293
 21
16.4695845974
 31
0.0
  0
LINE
  5
345
330
1F
100
AcDbEntity
  8
0
  6
Continuous
 62
     7
370
    25
100
AcDbLine
 10
1304.9023757293
 20
-43.5304154026
 30
0.0
 11
1304.9023757293
 21
16.4695845974
 31
0.0
  0
LINE
  5
346
330
1F
100
AcDbEntity
  8
0
  6
Continuous
 62
     7
370
    25
100
AcDbLine
 10
1319.9023757293
 20
136.4695845974
 30
0.0
 11
1304.9023757293
 21
136.4695845974
 31
0.0
  0
LINE
  5
347
330
1F
100
AcDbEntity
  8
0
  6
Continuous
 62
     7
370
    25
100
AcDbLine
 10
1319.9023757293
 20
196.4695845974
 30
0.0
 11
1319.9023757293
 21
136.4695845974
 31
0.0
  0
LINE
  5
348
330
1F
100
AcDbEntity
  8
0
  6
Continuous
 62
     7
370
    25
100
AcDbLine
 10
1304.9023757293
 20
196.4695845974
 30
0.0
 11
1319.9023757293
 21
196.4695845974
 31
0.0
  0
LINE
  5
349
330
1F
100
AcDbEntity
  8
0
  6
Continuous
 62
     7
370
    25
100
AcDbLine
 10
1304.9023757293
 20
136.4695845974
 30
0.0
 11
1304.9023757293
 21
196.4695845974
 31
0.0
  0
LINE
  5
34A
330
1F
100
AcDbEntity
  8
0
  6
Continuous
 62
     7
370
    25
100
AcDbLine
 10
1319.9023757293
 20
316.4695845974
 30
0.0
 11
1304.9023757293
 21
316.4695845974
 31
0.0
  0
LINE
  5
34B
330
1F
100
AcDbEntity
  8
0
  6
Continuous
 62
     7
370
    25
100
AcDbLine
 10
1319.9023757293
 20
376.4695845974
 30
0.0
 11
1319.9023757293
 21
316.4695845974
 31
0.0
  0
LINE
  5
34C
330
1F
100
AcDbEntity
  8
0
  6
Continuous
 62
     7
370
    25
100
AcDbLine
 10
1304.9023757293
 20
376.4695845974
 30
0.0
 11
1319.9023757293
 21
376.4695845974
 31
0.0
  0
LINE
  5
34D
330
1F
100
AcDbEntity
  8
0
  6
Continuous
 62
     7
370
    25
100
AcDbLine
 10
1304.9023757293
 20
316.4695845974
 30
0.0
 11
1304.9023757293
 21
376.4695845974
 31
0.0
  0
LINE
  5
34E
330
1F
100
AcDbEntity
  8
0
  6
Continuous
 62
     7
370
    25
100
AcDbLine
 10
1319.9023757293
 20
666.4695845974
 30
0.0
 11
1304.9023757293
 21
666.4695845974
 31
0.0
  0
LINE
  5
34F
330
1F
100
AcDbEntity
  8
0
  6
Continuous
 62
     7
370
    25
100
AcDbLine
 10
1319.9023757293
 20
726.4695845974
 30
0.0
 11
1319.9023757293
 21
666.4695845974
 31
0.0
  0
LINE
  5
350
330
1F
100
AcDbEntity
  8
0
  6
Continuous
 62
     7
370
    25
100
AcDbLine
 10
1304.9023757293
 20
726.4695845974
 30
0.0
 11
1319.9023757293
 21
726.4695845974
 31
0.0
  0
LINE
  5
351
330
1F
100
AcDbEntity
  8
0
  6
Continuous
 62
     7
370
    25
100
AcDbLine
 10
1304.9023757293
 20
666.4695845974
 30
0.0
 11
1304.9023757293
 21
726.4695845974
 31
0.0
  0
LINE
  5
352
330
1F
100
AcDbEntity
  8
0
  6
Continuous
 62
     7
370
    25
100
AcDbLine
 10
1319.9023757293
 20
846.4695845974
 30
0.0
 11
1304.9023757293
 21
846.4695845974
 31
0.0
  0
LINE
  5
353
330
1F
100
AcDbEntity
  8
0
  6
Continuous
 62
     7
370
    25
100
AcDbLine
 10
1319.9023757293
 20
906.4695845974
 30
0.0
 11
1319.9023757293
 21
846.4695845974
 31
0.0
  0
LINE
  5
354
330
1F
100
AcDbEntity
  8
0
  6
Continuous
 62
     7
370
    25
100
AcDbLine
 10
1304.9023757293
 20
906.4695845974
 30
0.0
 11
1319.9023757293
 21
906.4695845974
 31
0.0
  0
LINE
  5
355
330
1F
100
AcDbEntity
  8
0
  6
Continuous
 62
     7
370
    25
100
AcDbLine
 10
1304.9023757293
 20
846.4695845974
 30
0.0
 11
1304.9023757293
 21
906.4695845974
 31
0.0
  0
LINE
  5
356
330
1F
100
AcDbEntity
  8
0
  6
Continuous
 62
     7
370
    25
100
AcDbLine
 10
1304.9023757293
 20
1026.4695845974
 30
0.0
 11
1304.9023757293
 21
1086.4695845974
 31
0.0
  0
LINE
  5
357
330
1F
100
AcDbEntity
  8
0
  6
Continuous
 62
     7
370
    25
100
AcDbLine
 10
1319.9023757293
 20
1026.4695845974
 30
0.0
 11
1304.9023757293
 21
1026.4695845974
 31
0.0
  0
LINE
  5
358
330
1F
100
AcDbEntity
  8
0
  6
Continuous
 62
     7
370
    25
100
AcDbLine
 10
1319.9023757293
 20
1086.4695845974
 30
0.0
 11
1319.9023757293
 21
1026.4695845974
 31
0.0
  0
LINE
  5
359
330
1F
100
AcDbEntity
  8
0
  6
Continuous
 62
     7
370
    25
100
AcDbLine
 10
1319.9023757293
 20
1086.4695845974
 30
0.0
 11
1304.9023757293
 21
1086.4695845974
 31
0.0
  0
LINE
  5
35A
330
1F
100
AcDbEntity
  8
0
  6
Continuous
 62
     7
370
    25
100
AcDbLine
 10
1153.1055494429
 20
771.0600731701
 30
0.0
 11
1263.8836026732
 21
-437.5732656565
 31
0.0
  0
ARC
  5
35B
330
1F
100
AcDbEntity
  8
0
  6
Continuous
 62
     7
370
    25
100
AcDbCircle
 10
1170.0345897998
 20
772.611715073
 30
0.0
 40
17.00000000000015
100
AcDbArc
 50
171.759232118
 51
185.2368491277
  0
LINE
  5
35C
330
1F
100
AcDbEntity
  8
0
  6
Continuous
 62
     7
370
    25
100
AcDbLine
 10
1209.0517674599
 20
1160.618976328
 30
0.0
 11
1153.2101233838
 21
775.0483787378
 31
0.0
  0
LINE
  5
35D
330
1F
100
AcDbEntity
  8
0
  6
Continuous
 62
     7
370
    25
100
AcDbLine
 10
1221.4416332051
 20
1173.0088420732
 30
0.0
 11
1209.0517674599
 21
1160.618976328
 31
0.0
  0
ARC
  5
35E
330
1F
100
AcDbEntity
  8
0
  6
Continuous
 62
     7
370
    25
100
AcDbCircle
 10
1219.3203128615
 20
1175.1301624168
 30
0.0
 40
3.000000000000024
100
AcDbArc
 50
315.0
 51
35.4059317731
  0
ARC
  5
35F
330
1F
100
AcDbEntity
  8
0
  6
Continuous
 62
     7
370
    25
100
AcDbCircle
 10
1233.9915336031
 20
1185.5587424712
 30
0.0
 40
15.00000000000002
100
AcDbArc
 50
54.5940682269
 51
215.4059317731
  0
ARC
  5
360
330
1F
100
AcDbEntity
  8
0
  6
Continuous
 62
     7
370
    25
100
AcDbCircle
 10
1244.4201136575
 20
1200.2299632128
 30
0.0
 40
3.000000000000346
100
AcDbArc
 50
234.5940682269
 51
315.0
  0
LINE
  5
361
330
1F
100
AcDbEntity
  8
0
  6
Continuous
 62
     7
370
    25
100
AcDbLine
 10
1301.9023757293
 20
1253.4695845974
 30
0.0
 11
1246.5414340011
 21
1198.1086428692
 31
0.0
  0
LINE
  5
362
330
1F
100
AcDbEntity
  8
0
  6
Continuous
 62
     7
370
    25
100
AcDbLine
 10
1316.9023757293
 20
1253.4695845974
 30
0.0
 11
1301.9023757293
 21
1253.4695845974
 31
0.0
  0
LINE
  5
363
330
1F
100
AcDbEntity
  8
0
  6
Continuous
 62
     7
370
    25
100
AcDbLine
 10
1316.9023757293
 20
1158.201635405
 30
0.0
 11
1316.9023757293
 21
1253.4695845974
 31
0.0
  0
ARC
  5
364
330
1F
100
AcDbEntity
  8
0
  6
Continuous
 62
     7
370
    25
100
AcDbCircle
 10
1322.9023757293
 20
1158.201635405
 30
0.0
 40
5.999999999999773
100
AcDbArc
 50
180.0
 51
240.0
  0
LINE
  5
365
330
1F
100
AcDbEntity
  8
0
  6
Continuous
 62
     7
370
    25
100
AcDbLine
 10
1366.9023757293
 20
1125.8700203304
 30
0.0
 11
1319.9023757293
 21
1153.0054829823
 31
0.0
  0
LINE
  5
366
330
1F
100
AcDbEntity
  8
0
  6
Continuous
 62
     7
370
    25
100
AcDbLine
 10
1366.9023757293
 20
612.0741219455
 30
0.0
 11
1366.9023757293
 21
1125.8700203304
 31
0.0
  0
LINE
  5
367
330
1F
100
AcDbEntity
  8
0
  6
Continuous
 62
     7
370
    25
100
AcDbLine
 10
1319.9023757293
 20
584.9386592936
 30
0.0
 11
1366.9023757293
 21
612.0741219455
 31
0.0
  0
ARC
  5
368
330
1F
100
AcDbEntity
  8
0
  6
Continuous
 62
     7
370
    25
100
AcDbCircle
 10
1322.9023757293
 20
579.7425068709
 30
0.0
 40
6.000000000000114
100
AcDbArc
 50
120.0
 51
180.0
  0
LINE
  5
369
330
1F
100
AcDbEntity
  8
0
  6
Continuous
 62
     7
370
    25
100
AcDbLine
 10
1316.9023757293
 20
483.206608486
 30
0.0
 11
1316.9023757293
 21
579.7425068709
 31
0.0
  0
ARC
  5
36A
330
1F
100
AcDbEntity
  8
0
  6
Continuous
 62
     7
370
    25
100
AcDbCircle
 10
1322.9023757293
 20
483.206608486
 30
0.0
 40
5.999999999999951
100
AcDbArc
 50
180.0
 51
240.0
  0
LINE
  5
36B
330
1F
100
AcDbEntity
  8
0
  6
Continuous
 62
     7
370
    25
100
AcDbLine
 10
1366.9023757293
 20
450.8749934114
 30
0.0
 11
1319.9023757293
 21
478.0104560633
 31
0.0
  0
LINE
  5
36C
330
1F
100
AcDbEntity
  8
0
  6
Continuous
 62
     7
370
    25
100
AcDbLine
 10
1366.9023757293
 20
-117.9358242166
 30
0.0
 11
1366.9023757293
 21
450.8749934114
 31
0.0
  0
LINE
  5
36D
330
1F
100
AcDbEntity
  8
0
  6
Continuous
 62
     7
370
    25
100
AcDbLine
 10
1319.9023757293
 20
-145.0712868685
 30
0.0
 11
1366.9023757293
 21
-117.9358242166
 31
0.0
  0
ARC
  5
36E
330
1F
100
AcDbEntity
  8
0
  6
Continuous
 62
     7
370
    25
100
AcDbCircle
 10
1322.9023757293
 20
-150.2674392912
 30
0.0
 40
6.000000000000227
100
AcDbArc
 50
120.0
 51
180.0
  0
LINE
  5
36F
330
1F
100
AcDbEntity
  8
0
  6
Continuous
 62
     7
370
    25
100
AcDbLine
 10
1316.9023757293
 20
-246.803337676
 30
0.0
 11
1316.9023757293
 21
-150.2674392912
 31
0.0
  0
ARC
  5
370
330
1F
100
AcDbEntity
  8
0
  6
Continuous
 62
     7
370
    25
100
AcDbCircle
 10
1322.9023757293
 20
-246.803337676
 30
0.0
 40
6.000000000000227
100
AcDbArc
 50
180.0
 51
240.0
  0
LINE
  5
371
330
1F
100
AcDbEntity
  8
0
  6
Continuous
 62
     7
370
    25
100
AcDbLine
 10
1366.9023757293
 20
-279.1349527507
 30
0.0
 11
1319.9023757293
 21
-251.9994900987
 31
0.0
  0
LINE
  5
372
330
1F
100
AcDbEntity
  8
0
  6
Continuous
 62
     7
370
    25
100
AcDbLine
 10
1366.9023757293
 20
-792.9308511355
 30
0.0
 11
1366.9023757293
 21
-279.1349527507
 31
0.0
  0
LINE
  5
373
330
1F
100
AcDbEntity
  8
0
  6
Continuous
 62
     7
370
    25
100
AcDbLine
 10
1319.9023757293
 20
-820.0663137874
 30
0.0
 11
1366.9023757293
 21
-792.9308511355
 31
0.0
  0
ARC
  5
374
330
1F
100
AcDbEntity
  8
0
  6
Continuous
 62
     7
370
    25
100
AcDbCircle
 10
1322.9023757293
 20
-825.2624662101
 30
0.0
 40
5.99999999999997
100
AcDbArc
 50
120.0
 51
180.0
  0
LINE
  5
375
330
1F
100
AcDbEntity
  8
0
  6
Continuous
 62
     7
370
    25
100
AcDbLine
 10
1316.9023757293
 20
-920.5304154026
 30
0.0
 11
1316.9023757293
 21
-825.2624662101
 31
0.0
  0
LINE
  5
376
330
1F
100
AcDbEntity
  8
0
  6
Continuous
 62
     7
370
    25
100
AcDbLine
 10
1301.9023757293
 20
-920.5304154026
 30
0.0
 11
1316.9023757293
 21
-920.5304154026
 31
0.0
  0
LINE
  5
377
330
1F
100
AcDbEntity
  8
0
  6
Continuous
 62
     7
370
    25
100
AcDbLine
 10
1301.9023757293
 20
-920.5304154026
 30
0.0
 11
1246.5414340011
 21
-865.1694736743
 31
0.0
  0
ARC
  5
378
330
1F
100
AcDbEntity
  8
0
  6
Continuous
 62
     7
370
    25
100
AcDbCircle
 10
1244.4201136575
 20
-867.2907940179
 30
0.0
 40
3.000000000000076
100
AcDbArc
 50
45.0
 51
125.4059317731
  0
ARC
  5
379
330
1F
100
AcDbEntity
  8
0
  6
Continuous
 62
     7
370
    25
100
AcDbCircle
 10
1233.9915336031
 20
-852.6195732763
 30
0.0
 40
14.99999999999976
100
AcDbArc
 50
144.5940682269
 51
305.4059317731
  0
ARC
  5
37A
330
1F
100
AcDbEntity
  8
0
  6
Continuous
 62
     7
370
    25
100
AcDbCircle
 10
1219.3203128615
 20
-842.1909932219
 30
0.0
 40
3.000000000000115
100
AcDbArc
 50
324.5940682269
 51
45.0
  0
LINE
  5
37B
330
1F
100
AcDbEntity
  8
0
  6
Continuous
 62
     7
370
    25
100
AcDbLine
 10
1221.441633205
 20
-840.0696728783
 30
0.0
 11
1208.154918065
 21
-826.7829577383
 31
0.0
  0
LINE
  5
37C
330
1F
100
AcDbEntity
  8
0
  6
Continuous
 62
     7
370
    25
100
AcDbLine
 10
1263.7421202826
 20
-442.9692084835
 30
0.0
 11
1208.154918065
 21
-826.7829577383
 31
0.0
  0
ARC
  5
37D
330
1F
100
AcDbEntity
  8
0
  6
Continuous
 62
     7
370
    25
100
AcDbCircle
 10
1240.9796068962
 20
-439.6725458781
 30
0.0
 40
23.00000000000035
100
AcDbArc
 50
351.759232118
 51
5.2368491277
  0
CIRCLE
  5
37E
330
1F
100
AcDbEntity
  8
0
  6
Continuous
 62
     7
370
    25
100
AcDbCircle
 10
1312.4023757293
 20
436.4695845974
 30
0.0
 40
3.249999999999545
  0
CIRCLE
  5
37F
330
1F
100
AcDbEntity
  8
0
  6
Continuous
 62
     7
370
    25
100
AcDbCircle
 10
1312.4023757293
 20
-103.5304154026
 30
0.0
 40
3.25
  0
LINE
  5
380
330
1F
100
AcDbEntity
  8
0
  6
Continuous
 62
     7
370
    25
100
AcDbLine
 10
1153.2101233838
 20
775.0483787378
 30
0.0
 11
1150.2410998986
 21
775.4783782081
 31
0.0
  0
LINE
  5
381
330
1F
100
AcDbEntity
  8
0
  6
Continuous
 62
     7
370
    25
100
AcDbLine
 10
1150.2410998986
 20
775.4783782081
 30
0.0
 11
1205.507098348
 21
1157.0743072162
 31
0.0
  0
LINE
  5
382
330
1F
100
AcDbEntity
  8
0
  6
Continuous
 62
     7
370
    25
100
AcDbLine
 10
1205.507098348
 20
1157.0743072162
 30
0.0
 11
1209.0517674599
 21
1160.618976328
 31
0.0
  0
LINE
  5
383
330
1F
100
AcDbEntity
  8
0
  6
Continuous
 62
     7
370
    25
100
AcDbLine
 10
1366.9023757293
 20
1125.8700203304
 30
0.0
 11
1369.9023757293
 21
1125.8700203304
 31
0.0
  0
LINE
  5
384
330
1F
100
AcDbEntity
  8
0
  6
Continuous
 62
     7
370
    25
100
AcDbLine
 10
1369.9023757293
 20
1125.8700203304
 30
0.0
 11
1369.9023757293
 21
612.0741219455
 31
0.0
  0
LINE
  5
385
330
1F
100
AcDbEntity
  8
0
  6
Continuous
 62
     7
370
    25
100
AcDbLine
 10
1366.9023757293
 20
612.0741219455
 30
0.0
 11
1369.9023757293
 21
612.0741219455
 31
0.0
  0
LINE
  5
386
330
1F
100
AcDbEntity
  8
0
  6
Continuous
 62
     7
370
    25
100
AcDbLine
 10
1153.1055494429
 20
771.0600731701
 30
0.0
 11
1150.1180717329
 21
770.7862540107
 31
0.0
  0
ARC
  5
387
330
1F
100
AcDbEntity
  8
0
  6
Continuous
 62
     7
370
    25
100
AcDbCircle
 10
1170.0345897998
 20
772.611715073
 30
0.0
 40
20.00000000000036
100
AcDbArc
 50
171.759232118
 51
185.2368491277
  0
LINE
  5
388
330
1F
100
AcDbEntity
  8
0
  6
Continuous
 62
     7
370
    25
100
AcDbLine
 10
1316.9023757293
 20
1158.201635405
 30
0.0
 11
1319.9023757293
 21
1158.201635405
 31
0.0
  0
ARC
  5
389
330
1F
100
AcDbEntity
  8
0
  6
Continuous
 62
     7
370
    25
100
AcDbCircle
 10
1322.9023757293
 20
1158.201635405
 30
0.0
 40
3.000000000000049
100
AcDbArc
 50
180.0
 51
240.0
  0
LINE
  5
38A
330
1F
100
AcDbEntity
  8
0
  6
Continuous
 62
     7
370
    25
100
AcDbLine
 10
1319.9023757293
 20
1153.0054829823
 30
0.0
 11
1321.4023757293
 21
1155.6035591936
 31
0.0
  0
LINE
  5
38B
330
1F
100
AcDbEntity
  8
0
  6
Continuous
 62
     7
370
    25
100
AcDbLine
 10
1304.9023757293
 20
1256.4695845974
 30
0.0
 11
1316.9023757293
 21
1256.4695845974
 31
0.0
  0
LINE
  5
38C
330
1F
100
AcDbEntity
  8
0
  6
Continuous
 62
     7
370
    25
100
AcDbLine
 10
1316.9023757293
 20
1253.4695845974
 30
0.0
 11
1316.9023757293
 21
1256.4695845974
 31
0.0
  0
LINE
  5
38D
330
1F
100
AcDbEntity
  8
0
  6
Continuous
 62
     7
370
    25
100
AcDbLine
 10
1301.9023757293
 20
1253.4695845974
 30
0.0
 11
1304.9023757293
 21
1256.4695845974
 31
0.0
  0
ARC
  5
38E
330
1F
100
AcDbEntity
  8
0
  6
Continuous
 62
     7
370
    25
100
AcDbCircle
 10
1316.9023757293
 20
1253.4695845974
 30
0.0
 40
2.999999999999773
100
AcDbArc
 50
0.0
 51
90.0
  0
LINE
  5
38F
330
1F
100
AcDbEntity
  8
0
  6
Continuous
 62
     7
370
    25
100
AcDbLine
 10
1316.9023757293
 20
1253.4695845974
 30
0.0
 11
1319.9023757293
 21
1253.4695845974
 31
0.0
  0
CIRCLE
  5
390
330
1F
100
AcDbEntity
  8
0
  6
Continuous
 62
     7
370
    25
100
AcDbCircle
 10
1312.4023757293
 20
436.4695845974
 30
0.0
 40
1.75
  0
LINE
  5
391
330
1F
100
AcDbEntity
  8
0
  6
Continuous
 62
     7
370
    25
100
AcDbLine
 10
1321.4023757293
 20
1155.6035591936
 30
0.0
 11
1368.4023757293
 21
1128.4680965417
 31
0.0
  0
LINE
  5
392
330
1F
100
AcDbEntity
  8
0
  6
Continuous
 62
     7
370
    25
100
AcDbLine
 10
1366.9023757293
 20
1125.8700203304
 30
0.0
 11
1368.4023757293
 21
1128.4680965417
 31
0.0
  0
ARC
  5
393
330
1F
100
AcDbEntity
  8
0
  6
Continuous
 62
     7
370
    25
100
AcDbCircle
 10
1366.9023757293
 20
612.0741219455
 30
0.0
 40
3.000000000000227
100
AcDbArc
 50
300.0
 51
0.0
  0
LINE
  5
394
330
1F
100
AcDbEntity
  8
0
  6
Continuous
 62
     7
370
    25
100
AcDbLine
 10
1366.9023757293
 20
612.0741219455
 30
0.0
 11
1368.4023757293
 21
609.4760457342
 31
0.0
  0
LINE
  5
395
330
1F
100
AcDbEntity
  8
0
  6
Continuous
 62
     7
370
    25
100
AcDbLine
 10
1366.9023757293
 20
450.8749934114
 30
0.0
 11
1369.9023757293
 21
450.8749934114
 31
0.0
  0
LINE
  5
396
330
1F
100
AcDbEntity
  8
0
  6
Continuous
 62
     7
370
    25
100
AcDbLine
 10
1369.9023757293
 20
450.8749934114
 30
0.0
 11
1369.9023757293
 21
-117.9358242166
 31
0.0
  0
LINE
  5
397
330
1F
100
AcDbEntity
  8
0
  6
Continuous
 62
     7
370
    25
100
AcDbLine
 10
1366.9023757293
 20
-117.9358242166
 30
0.0
 11
1369.9023757293
 21
-117.9358242166
 31
0.0
  0
LINE
  5
398
330
1F
100
AcDbEntity
  8
0
  6
Continuous
 62
     7
370
    25
100
AcDbLine
 10
1319.9023757293
 20
478.0104560633
 30
0.0
 11
1321.4023757293
 21
480.6085322747
 31
0.0
  0
LINE
  5
399
330
1F
100
AcDbEntity
  8
0
  6
Continuous
 62
     7
370
    25
100
AcDbLine
 10
1321.4023757293
 20
480.6085322747
 30
0.0
 11
1368.4023757293
 21
453.4730696228
 31
0.0
  0
LINE
  5
39A
330
1F
100
AcDbEntity
  8
0
  6
Continuous
 62
     7
370
    25
100
AcDbLine
 10
1366.9023757293
 20
450.8749934114
 30
0.0
 11
1368.4023757293
 21
453.4730696228
 31
0.0
  0
LINE
  5
39B
330
1F
100
AcDbEntity
  8
0
  6
Continuous
 62
     7
370
    25
100
AcDbLine
 10
1316.9023757293
 20
579.7425068709
 30
0.0
 11
1319.9023757293
 21
579.7425068709
 31
0.0
  0
LINE
  5
39C
330
1F
100
AcDbEntity
  8
0
  6
Continuous
 62
     7
370
    25
100
AcDbLine
 10
1319.9023757293
 20
579.7425068709
 30
0.0
 11
1319.9023757293
 21
483.206608486
 31
0.0
  0
LINE
  5
39D
330
1F
100
AcDbEntity
  8
0
  6
Continuous
 62
     7
370
    25
100
AcDbLine
 10
1316.9023757293
 20
483.206608486
 30
0.0
 11
1319.9023757293
 21
483.206608486
 31
0.0
  0
ARC
  5
39E
330
1F
100
AcDbEntity
  8
0
  6
Continuous
 62
     7
370
    25
100
AcDbCircle
 10
1366.9023757293
 20
1125.8700203304
 30
0.0
 40
3.000000000000049
100
AcDbArc
 50
0.0
 51
60.0
  0
LINE
  5
39F
330
1F
100
AcDbEntity
  8
0
  6
Continuous
 62
     7
370
    25
100
AcDbLine
 10
1319.9023757293
 20
1253.4695845974
 30
0.0
 11
1319.9023757293
 21
1158.201635405
 31
0.0
  0
LINE
  5
3A0
330
1F
100
AcDbEntity
  8
0
  6
Continuous
 62
     7
370
    25
100
AcDbLine
 10
1368.4023757293
 20
609.4760457342
 30
0.0
 11
1321.4023757293
 21
582.3405830823
 31
0.0
  0
LINE
  5
3A1
330
1F
100
AcDbEntity
  8
0
  6
Continuous
 62
     7
370
    25
100
AcDbLine
 10
1319.9023757293
 20
584.9386592936
 30
0.0
 11
1321.4023757293
 21
582.3405830823
 31
0.0
  0
LINE
  5
3A2
330
1F
100
AcDbEntity
  8
0
  6
Continuous
 62
     7
370
    25
100
AcDbLine
 10
1263.8836026732
 20
-437.5732656565
 30
0.0
 11
1260.8961249631
 21
-437.8470848159
 31
0.0
  0
LINE
  5
3A3
330
1F
100
AcDbEntity
  8
0
  6
Continuous
 62
     7
370
    25
100
AcDbLine
 10
1260.8961249631
 20
-437.8470848159
 30
0.0
 11
1150.1180717329
 21
770.7862540107
 31
0.0
  0
ARC
  5
3A4
330
1F
100
AcDbEntity
  8
0
  6
Continuous
 62
     7
370
    25
100
AcDbCircle
 10
1322.9023757293
 20
579.7425068709
 30
0.0
 40
3.000000000000227
100
AcDbArc
 50
120.0
 51
180.0
  0
ARC
  5
3A5
330
1F
100
AcDbEntity
  8
0
  6
Continuous
 62
     7
370
    25
100
AcDbCircle
 10
1366.9023757293
 20
450.8749934114
 30
0.0
 40
3.000000000000227
100
AcDbArc
 50
360.0
 51
60.0
  0
ARC
  5
3A6
330
1F
100
AcDbEntity
  8
0
  6
Continuous
 62
     7
370
    25
100
AcDbCircle
 10
1322.9023757293
 20
483.206608486
 30
0.0
 40
3.0
100
AcDbArc
 50
180.0
 51
240.0
  0
LINE
  5
3A7
330
1F
100
AcDbEntity
  8
0
  6
Continuous
 62
     7
370
    25
100
AcDbLine
 10
1366.9023757293
 20
-792.9308511355
 30
0.0
 11
1368.4023757293
 21
-795.5289273469
 31
0.0
  0
LINE
  5
3A8
330
1F
100
AcDbEntity
  8
0
  6
Continuous
 62
     7
370
    25
100
AcDbLine
 10
1368.4023757293
 20
-795.5289273469
 30
0.0
 11
1321.4023757293
 21
-822.6643899988
 31
0.0
  0
LINE
  5
3A9
330
1F
100
AcDbEntity
  8
0
  6
Continuous
 62
     7
370
    25
100
AcDbLine
 10
1319.9023757293
 20
-820.0663137874
 30
0.0
 11
1321.4023757293
 21
-822.6643899988
 31
0.0
  0
LINE
  5
3AA
330
1F
100
AcDbEntity
  8
0
  6
Continuous
 62
     7
370
    25
100
AcDbLine
 10
1316.9023757293
 20
-825.2624662101
 30
0.0
 11
1319.9023757293
 21
-825.2624662101
 31
0.0
  0
LINE
  5
3AB
330
1F
100
AcDbEntity
  8
0
  6
Continuous
 62
     7
370
    25
100
AcDbLine
 10
1319.9023757293
 20
-825.2624662101
 30
0.0
 11
1319.9023757293
 21
-920.5304154026
 31
0.0
  0
LINE
  5
3AC
330
1F
100
AcDbEntity
  8
0
  6
Continuous
 62
     7
370
    25
100
AcDbLine
 10
1316.9023757293
 20
-920.5304154026
 30
0.0
 11
1319.9023757293
 21
-920.5304154026
 31
0.0
  0
ARC
  5
3AD
330
1F
100
AcDbEntity
  8
0
  6
Continuous
 62
     7
370
    25
100
AcDbCircle
 10
1322.9023757293
 20
-825.2624662101
 30
0.0
 40
2.999999999999822
100
AcDbArc
 50
120.0
 51
180.0
  0
LINE
  5
3AE
330
1F
100
AcDbEntity
  8
0
  6
Continuous
 62
     7
370
    25
100
AcDbLine
 10
1263.7421202826
 20
-442.9692084835
 30
0.0
 11
1260.7730967974
 21
-442.5392090132
 31
0.0
  0
ARC
  5
3AF
330
1F
100
AcDbEntity
  8
0
  6
Continuous
 62
     7
370
    25
100
AcDbCircle
 10
1240.9796068962
 20
-439.6725458781
 30
0.0
 40
20.00000000000034
100
AcDbArc
 50
351.759232118
 51
5.2368491277
  0
LINE
  5
3B0
330
1F
100
AcDbEntity
  8
0
  6
Continuous
 62
     7
370
    25
100
AcDbLine
 10
1319.9023757293
 20
-251.9994900987
 30
0.0
 11
1321.4023757293
 21
-249.4014138874
 31
0.0
  0
LINE
  5
3B1
330
1F
100
AcDbEntity
  8
0
  6
Continuous
 62
     7
370
    25
100
AcDbLine
 10
1321.4023757293
 20
-249.4014138874
 30
0.0
 11
1368.4023757293
 21
-276.5368765393
 31
0.0
  0
LINE
  5
3B2
330
1F
100
AcDbEntity
  8
0
  6
Continuous
 62
     7
370
    25
100
AcDbLine
 10
1366.9023757293
 20
-279.1349527507
 30
0.0
 11
1368.4023757293
 21
-276.5368765393
 31
0.0
  0
LINE
  5
3B3
330
1F
100
AcDbEntity
  8
0
  6
Continuous
 62
     7
370
    25
100
AcDbLine
 10
1366.9023757293
 20
-117.9358242166
 30
0.0
 11
1368.4023757293
 21
-120.5339004279
 31
0.0
  0
LINE
  5
3B4
330
1F
100
AcDbEntity
  8
0
  6
Continuous
 62
     7
370
    25
100
AcDbLine
 10
1368.4023757293
 20
-120.5339004279
 30
0.0
 11
1321.4023757293
 21
-147.6693630798
 31
0.0
  0
LINE
  5
3B5
330
1F
100
AcDbEntity
  8
0
  6
Continuous
 62
     7
370
    25
100
AcDbLine
 10
1319.9023757293
 20
-145.0712868685
 30
0.0
 11
1321.4023757293
 21
-147.6693630798
 31
0.0
  0
LINE
  5
3B6
330
1F
100
AcDbEntity
  8
0
  6
Continuous
 62
     7
370
    25
100
AcDbLine
 10
1366.9023757293
 20
-279.1349527507
 30
0.0
 11
1369.9023757293
 21
-279.1349527507
 31
0.0
  0
LINE
  5
3B7
330
1F
100
AcDbEntity
  8
0
  6
Continuous
 62
     7
370
    25
100
AcDbLine
 10
1369.9023757293
 20
-279.1349527507
 30
0.0
 11
1369.9023757293
 21
-792.9308511355
 31
0.0
  0
LINE
  5
3B8
330
1F
100
AcDbEntity
  8
0
  6
Continuous
 62
     7
370
    25
100
AcDbLine
 10
1366.9023757293
 20
-792.9308511355
 30
0.0
 11
1369.9023757293
 21
-792.9308511355
 31
0.0
  0
LINE
  5
3B9
330
1F
100
AcDbEntity
  8
0
  6
Continuous
 62
     7
370
    25
100
AcDbLine
 10
1316.9023757293
 20
-150.2674392912
 30
0.0
 11
1319.9023757293
 21
-150.2674392912
 31
0.0
  0
LINE
  5
3BA
330
1F
100
AcDbEntity
  8
0
  6
Continuous
 62
     7
370
    25
100
AcDbLine
 10
1319.9023757293
 20
-150.2674392912
 30
0.0
 11
1319.9023757293
 21
-246.803337676
 31
0.0
  0
LINE
  5
3BB
330
1F
100
AcDbEntity
  8
0
  6
Continuous
 62
     7
370
    25
100
AcDbLine
 10
1316.9023757293
 20
-246.803337676
 30
0.0
 11
1319.9023757293
 21
-246.803337676
 31
0.0
  0
ARC
  5
3BC
330
1F
100
AcDbEntity
  8
0
  6
Continuous
 62
     7
370
    25
100
AcDbCircle
 10
1366.9023757293
 20
-279.1349527507
 30
0.0
 40
3.0
100
AcDbArc
 50
360.0
 51
60.0
  0
ARC
  5
3BD
330
1F
100
AcDbEntity
  8
0
  6
Continuous
 62
     7
370
    25
100
AcDbCircle
 10
1322.9023757293
 20
-150.2674392912
 30
0.0
 40
3.000000000000227
100
AcDbArc
 50
120.0
 51
180.0
  0
ARC
  5
3BE
330
1F
100
AcDbEntity
  8
0
  6
Continuous
 62
     7
370
    25
100
AcDbCircle
 10
1366.9023757293
 20
-117.9358242166
 30
0.0
 40
3.000000000000062
100
AcDbArc
 50
300.0
 51
360.0
  0
CIRCLE
  5
3BF
330
1F
100
AcDbEntity
  8
0
  6
Continuous
 62
     7
370
    25
100
AcDbCircle
 10
1312.4023757293
 20
-103.5304154026
 30
0.0
 40
1.749999999999773
  0
ARC
  5
3C0
330
1F
100
AcDbEntity
  8
0
  6
Continuous
 62
     7
370
    25
100
AcDbCircle
 10
1322.9023757293
 20
-246.803337676
 30
0.0
 40
3.000000000000227
100
AcDbArc
 50
180.0
 51
240.0
  0
LINE
  5
3C1
330
1F
100
AcDbEntity
  8
0
  6
Continuous
 62
     7
370
    25
100
AcDbLine
 10
1316.9023757293
 20
-920.5304154026
 30
0.0
 11
1316.9023757293
 21
-923.5304154026
 31
0.0
  0
LINE
  5
3C2
330
1F
100
AcDbEntity
  8
0
  6
Continuous
 62
     7
370
    25
100
AcDbLine
 10
1316.9023757293
 20
-923.5304154026
 30
0.0
 11
1304.9023757293
 21
-923.5304154026
 31
0.0
  0
LINE
  5
3C3
330
1F
100
AcDbEntity
  8
0
  6
Continuous
 62
     7
370
    25
100
AcDbLine
 10
1304.9023757293
 20
-923.5304154026
 30
0.0
 11
1301.9023757293
 21
-920.5304154026
 31
0.0
  0
LINE
  5
3C4
330
1F
100
AcDbEntity
  8
0
  6
Continuous
 62
     7
370
    25
100
AcDbLine
 10
1205.507098348
 20
-824.1351380213
 30
0.0
 11
1260.7730967974
 21
-442.5392090132
 31
0.0
  0
LINE
  5
3C5
330
1F
100
AcDbEntity
  8
0
  6
Continuous
 62
     7
370
    25
100
AcDbLine
 10
1208.154918065
 20
-826.7829577383
 30
0.0
 11
1205.507098348
 21
-824.1351380213
 31
0.0
  0
ARC
  5
3C6
330
1F
100
AcDbEntity
  8
0
  6
Continuous
 62
     7
370
    25
100
AcDbCircle
 10
1316.9023757293
 20
-920.5304154026
 30
0.0
 40
3.000000000000227
100
AcDbArc
 50
270.0
 51
0.0
  0
ARC
  5
3C7
330
1F
100
AcDbEntity
  8
0
  6
Continuous
 62
     7
370
    25
100
AcDbCircle
 10
1366.9023757293
 20
-792.9308511355
 30
0.0
 40
3.000000000000227
100
AcDbArc
 50
300.0
 51
0.0
  0
LINE
  5
3C8
330
1F
100
AcDbEntity
  8
0
  6
Continuous
 62
     7
370
    25
100
AcDbLine
 10
1301.9023757293
 20
-938.5304154026
 30
0.0
 11
1301.9023757293
 21
-935.5304154026
 31
0.0
  0
LINE
  5
3C9
330
1F
100
AcDbEntity
  8
0
  6
Continuous
 62
     7
370
    25
100
AcDbLine
 10
1304.9023757293
 20
-935.5304154026
 30
0.0
 11
1301.9023757293
 21
-935.5304154026
 31
0.0
  0
ARC
  5
3CA
330
1F
100
AcDbEntity
  8
0
  6
Continuous
 62
     7
370
    25
100
AcDbCircle
 10
1301.9023757293
 20
-935.5304154026
 30
0.0
 40
2.999999999999886
100
AcDbArc
 50
270.0
 51
0.0
  0
LINE
  5
3CB
330
1F
100
AcDbEntity
  8
0
  6
Continuous
 62
     7
370
    25
100
AcDbLine
 10
-230.7021616188
 20
-988.5304154026
 30
0.0
 11
-230.7021616188
 21
-985.5304154026
 31
0.0
  0
LINE
  5
3CC
330
1F
100
AcDbEntity
  8
0
  6
Continuous
 62
     7
370
    25
100
AcDbLine
 10
-228.1040854075
 20
-987.0304154026
 30
0.0
 11
-230.7021616188
 21
-985.5304154026
 31
0.0
  0
ARC
  5
3CD
330
1F
100
AcDbEntity
  8
0
  6
Continuous
 62
     7
370
    25
100
AcDbCircle
 10
-230.7021616188
 20
-985.5304154026
 30
0.0
 40
3.0
100
AcDbArc
 50
270.0
 51
330.0
  0
LINE
  5
3CE
330
1F
100
AcDbEntity
  8
0
  6
Continuous
 62
     7
370
    25
100
AcDbLine
 10
823.91116934
 20
-879.4011364707
 30
0.0
 11
1205.507098348
 21
-824.1351380213
 31
0.0
  0
LINE
  5
3CF
330
1F
100
AcDbEntity
  8
0
  6
Continuous
 62
     7
370
    25
100
AcDbLine
 10
1205.507098348
 20
-824.1351380213
 30
0.0
 11
1208.154918065
 21
-826.7829577383
 31
0.0
  0
LINE
  5
3D0
330
1F
100
AcDbEntity
  8
0
  6
Continuous
 62
     7
370
    25
100
AcDbLine
 10
1208.154918065
 20
-826.7829577383
 30
0.0
 11
824.3411688102
 21
-882.3701599559
 31
0.0
  0
LINE
  5
3D1
330
1F
100
AcDbEntity
  8
0
  6
Continuous
 62
     7
370
    25
100
AcDbLine
 10
823.91116934
 20
-879.4011364707
 30
0.0
 11
824.3411688102
 21
-882.3701599559
 31
0.0
  0
LINE
  5
3D2
330
1F
100
AcDbEntity
  8
0
  6
Continuous
 62
     7
370
    25
100
AcDbLine
 10
-72.1011092961
 20
-987.0304154026
 30
0.0
 11
-69.5030330847
 21
-985.5304154026
 31
0.0
  0
LINE
  5
3D3
330
1F
100
AcDbEntity
  8
0
  6
Continuous
 62
     7
370
    25
100
AcDbLine
 10
-69.5030330847
 20
-988.5304154026
 30
0.0
 11
-69.5030330847
 21
-985.5304154026
 31
0.0
  0
ARC
  5
3D4
330
1F
100
AcDbEntity
  8
0
  6
Continuous
 62
     7
370
    25
100
AcDbCircle
 10
-69.5030330847
 20
-985.5304154026
 30
0.0
 40
2.999999999999899
100
AcDbArc
 50
210.0
 51
270.0
  0
LINE
  5
3D5
330
1F
100
AcDbEntity
  8
0
  6
Continuous
 62
     7
370
    25
100
AcDbLine
 10
-747.096136215
 20
-987.0304154026
 30
0.0
 11
-744.4980600037
 21
-985.5304154026
 31
0.0
  0
LINE
  5
3D6
330
1F
100
AcDbEntity
  8
0
  6
Continuous
 62
     7
370
    25
100
AcDbLine
 10
-744.4980600037
 20
-988.5304154026
 30
0.0
 11
-744.4980600037
 21
-985.5304154026
 31
0.0
  0
ARC
  5
3D7
330
1F
100
AcDbEntity
  8
0
  6
Continuous
 62
     7
370
    25
100
AcDbCircle
 10
-744.4980600037
 20
-985.5304154026
 30
0.0
 40
3.000000000000049
100
AcDbArc
 50
210.0
 51
270.0
  0
LINE
  5
3D8
330
1F
100
AcDbEntity
  8
0
  6
Continuous
 62
     7
370
    25
100
AcDbLine
 10
-69.5030330847
 20
-985.5304154026
 30
0.0
 11
499.3077845433
 21
-985.5304154026
 31
0.0
  0
LINE
  5
3D9
330
1F
100
AcDbEntity
  8
0
  6
Continuous
 62
     7
370
    25
100
AcDbLine
 10
499.3077845433
 20
-988.5304154026
 30
0.0
 11
499.3077845433
 21
-985.5304154026
 31
0.0
  0
LINE
  5
3DA
330
1F
100
AcDbEntity
  8
0
  6
Continuous
 62
     7
370
    25
100
AcDbLine
 10
499.3077845433
 20
-988.5304154026
 30
0.0
 11
-69.5030330847
 21
-988.5304154026
 31
0.0
  0
LINE
  5
3DB
330
1F
100
AcDbEntity
  8
0
  6
Continuous
 62
     7
370
    25
100
AcDbLine
 10
499.3077845433
 20
-985.5304154026
 30
0.0
 11
526.4432471952
 21
-938.5304154026
 31
0.0
  0
LINE
  5
3DC
330
1F
100
AcDbEntity
  8
0
  6
Continuous
 62
     7
370
    25
100
AcDbLine
 10
529.0413234065
 20
-940.0304154026
 30
0.0
 11
526.4432471952
 21
-938.5304154026
 31
0.0
  0
LINE
  5
3DD
330
1F
100
AcDbEntity
  8
0
  6
Continuous
 62
     7
370
    25
100
AcDbLine
 10
529.0413234065
 20
-940.0304154026
 30
0.0
 11
501.9058607546
 21
-987.0304154026
 31
0.0
  0
LINE
  5
3DE
330
1F
100
AcDbEntity
  8
0
  6
Continuous
 62
     7
370
    25
100
AcDbLine
 10
501.9058607546
 20
-987.0304154026
 30
0.0
 11
499.3077845433
 21
-985.5304154026
 31
0.0
  0
LINE
  5
3DF
330
1F
100
AcDbEntity
  8
0
  6
Continuous
 62
     7
370
    25
100
AcDbLine
 10
1301.9023757293
 20
-935.5304154026
 30
0.0
 11
1301.9023757293
 21
-920.5304154026
 31
0.0
  0
LINE
  5
3E0
330
1F
100
AcDbEntity
  8
0
  6
Continuous
 62
     7
370
    25
100
AcDbLine
 10
1304.9023757293
 20
-923.5304154026
 30
0.0
 11
1304.9023757293
 21
-935.5304154026
 31
0.0
  0
LINE
  5
3E1
330
1F
100
AcDbEntity
  8
0
  6
Continuous
 62
     7
370
    25
100
AcDbLine
 10
1301.9023757293
 20
-920.5304154026
 30
0.0
 11
1304.9023757293
 21
-923.5304154026
 31
0.0
  0
LINE
  5
3E2
330
1F
100
AcDbEntity
  8
0
  6
Continuous
 62
     7
370
    25
100
AcDbLine
 10
-230.7021616188
 20
-985.5304154026
 30
0.0
 11
-203.5666989669
 21
-938.5304154026
 31
0.0
  0
LINE
  5
3E3
330
1F
100
AcDbEntity
  8
0
  6
Continuous
 62
     7
370
    25
100
AcDbLine
 10
-200.9686227555
 20
-940.0304154026
 30
0.0
 11
-203.5666989669
 21
-938.5304154026
 31
0.0
  0
LINE
  5
3E4
330
1F
100
AcDbEntity
  8
0
  6
Continuous
 62
     7
370
    25
100
AcDbLine
 10
-200.9686227555
 20
-940.0304154026
 30
0.0
 11
-228.1040854075
 21
-987.0304154026
 31
0.0
  0
CIRCLE
  5
3E5
330
1F
100
AcDbEntity
  8
0
  6
Continuous
 62
     7
370
    25
100
AcDbCircle
 10
-55.0976242707
 20
-931.0304154026
 30
0.0
 40
1.749999999999886
  0
CIRCLE
  5
3E6
330
1F
100
AcDbEntity
  8
0
  6
Continuous
 62
     7
370
    25
100
AcDbCircle
 10
-55.0976242707
 20
-931.0304154026
 30
0.0
 40
3.25
  0
LINE
  5
3E7
330
1F
100
AcDbEntity
  8
0
  6
Continuous
 62
     7
370
    25
100
AcDbLine
 10
-875.0976242707
 20
-935.5304154026
 30
0.0
 11
-872.0976242707
 21
-935.5304154026
 31
0.0
  0
LINE
  5
3E8
330
1F
100
AcDbEntity
  8
0
  6
Continuous
 62
     7
370
    25
100
AcDbLine
 10
-872.0976242707
 20
-938.5304154026
 30
0.0
 11
-872.0976242707
 21
-935.5304154026
 31
0.0
  0
ARC
  5
3E9
330
1F
100
AcDbEntity
  8
0
  6
Continuous
 62
     7
370
    25
100
AcDbCircle
 10
-872.0976242707
 20
-935.5304154026
 30
0.0
 40
2.999999999999886
100
AcDbArc
 50
180.0
 51
270.0
  0
ARC
  5
3EA
330
1F
100
AcDbEntity
  8
0
  6
Continuous
 62
     7
370
    25
100
AcDbCircle
 10
628.1752980028
 20
-941.5304154026
 30
0.0
 40
2.999999999999951
100
AcDbArc
 50
30.0
 51
90.0
  0
LINE
  5
3EB
330
1F
100
AcDbEntity
  8
0
  6
Continuous
 62
     7
370
    25
100
AcDbLine
 10
628.1752980028
 20
-938.5304154026
 30
0.0
 11
628.1752980028
 21
-935.5304154026
 31
0.0
  0
ARC
  5
3EC
330
1F
100
AcDbEntity
  8
0
  6
Continuous
 62
     7
370
    25
100
AcDbCircle
 10
628.1752980028
 20
-941.5304154026
 30
0.0
 40
6.0
100
AcDbArc
 50
30.0
 51
90.0
  0
LINE
  5
3ED
330
1F
100
AcDbEntity
  8
0
  6
Continuous
 62
     7
370
    25
100
AcDbLine
 10
630.7733742141
 20
-940.0304154026
 30
0.0
 11
633.3714504255
 21
-938.5304154026
 31
0.0
  0
ARC
  5
3EE
330
1F
100
AcDbEntity
  8
0
  6
Continuous
 62
     7
370
    25
100
AcDbCircle
 10
-198.3705465442
 20
-941.5304154026
 30
0.0
 40
2.999999999999911
100
AcDbArc
 50
90.0
 51
150.0
  0
ARC
  5
3EF
330
1F
100
AcDbEntity
  8
0
  6
Continuous
 62
     7
370
    25
100
AcDbCircle
 10
-198.3705465442
 20
-941.5304154026
 30
0.0
 40
6.0
100
AcDbArc
 50
90.0
 51
150.0
  0
LINE
  5
3F0
330
1F
100
AcDbEntity
  8
0
  6
Continuous
 62
     7
370
    25
100
AcDbLine
 10
-198.3705465442
 20
-938.5304154026
 30
0.0
 11
-198.3705465442
 21
-935.5304154026
 31
0.0
  0
ARC
  5
3F1
330
1F
100
AcDbEntity
  8
0
  6
Continuous
 62
     7
370
    25
100
AcDbCircle
 10
1206.6344265369
 20
-941.5304154026
 30
0.0
 40
3.000000000000246
100
AcDbArc
 50
90.0
 51
150.0
  0
LINE
  5
3F2
330
1F
100
AcDbEntity
  8
0
  6
Continuous
 62
     7
370
    25
100
AcDbLine
 10
1204.0363503255
 20
-940.0304154026
 30
0.0
 11
1201.4382741141
 21
-938.5304154026
 31
0.0
  0
ARC
  5
3F3
330
1F
100
AcDbEntity
  8
0
  6
Continuous
 62
     7
370
    25
100
AcDbCircle
 10
1206.6344265369
 20
-941.5304154026
 30
0.0
 40
6.000000000000353
100
AcDbArc
 50
90.0
 51
150.0
  0
LINE
  5
3F4
330
1F
100
AcDbEntity
  8
0
  6
Continuous
 62
     7
370
    25
100
AcDbLine
 10
1206.6344265369
 20
-938.5304154026
 30
0.0
 11
1206.6344265369
 21
-935.5304154026
 31
0.0
  0
LINE
  5
3F5
330
1F
100
AcDbEntity
  8
0
  6
Continuous
 62
     7
370
    25
100
AcDbLine
 10
-72.1011092961
 20
-987.0304154026
 30
0.0
 11
-99.236571948
 21
-940.0304154026
 31
0.0
  0
LINE
  5
3F6
330
1F
100
AcDbEntity
  8
0
  6
Continuous
 62
     7
370
    25
100
AcDbLine
 10
-99.236571948
 20
-940.0304154026
 30
0.0
 11
-96.6384957366
 21
-938.5304154026
 31
0.0
  0
LINE
  5
3F7
330
1F
100
AcDbEntity
  8
0
  6
Continuous
 62
     7
370
    25
100
AcDbLine
 10
-96.6384957366
 20
-938.5304154026
 30
0.0
 11
-69.5030330847
 21
-985.5304154026
 31
0.0
  0
LINE
  5
3F8
330
1F
100
AcDbEntity
  8
0
  6
Continuous
 62
     7
370
    25
100
AcDbLine
 10
628.1752980028
 20
-938.5304154026
 30
0.0
 11
531.6393996179
 21
-938.5304154026
 31
0.0
  0
LINE
  5
3F9
330
1F
100
AcDbEntity
  8
0
  6
Continuous
 62
     7
370
    25
100
AcDbLine
 10
531.6393996179
 20
-938.5304154026
 30
0.0
 11
531.6393996179
 21
-935.5304154026
 31
0.0
  0
LINE
  5
3FA
330
1F
100
AcDbEntity
  8
0
  6
Continuous
 62
     7
370
    25
100
AcDbLine
 10
531.6393996179
 20
-935.5304154026
 30
0.0
 11
628.1752980028
 21
-935.5304154026
 31
0.0
  0
LINE
  5
3FB
330
1F
100
AcDbEntity
  8
0
  6
Continuous
 62
     7
370
    25
100
AcDbLine
 10
-101.8346481593
 20
-938.5304154026
 30
0.0
 11
-198.3705465442
 21
-938.5304154026
 31
0.0
  0
LINE
  5
3FC
330
1F
100
AcDbEntity
  8
0
  6
Continuous
 62
     7
370
    25
100
AcDbLine
 10
-198.3705465442
 20
-935.5304154026
 30
0.0
 11
-101.8346481593
 21
-935.5304154026
 31
0.0
  0
LINE
  5
3FD
330
1F
100
AcDbEntity
  8
0
  6
Continuous
 62
     7
370
    25
100
AcDbLine
 10
-101.8346481593
 20
-938.5304154026
 30
0.0
 11
-101.8346481593
 21
-935.5304154026
 31
0.0
  0
ARC
  5
3FE
330
1F
100
AcDbEntity
  8
0
  6
Continuous
 62
     7
370
    25
100
AcDbCircle
 10
531.6393996179
 20
-941.5304154026
 30
0.0
 40
2.999999999999886
100
AcDbArc
 50
90.0
 51
150.0
  0
ARC
  5
3FF
330
1F
100
AcDbEntity
  8
0
  6
Continuous
 62
     7
370
    25
100
AcDbCircle
 10
531.6393996179
 20
-941.5304154026
 30
0.0
 40
6.0
100
AcDbArc
 50
90.0
 51
150.0
  0
LINE
  5
400
330
1F
100
AcDbEntity
  8
0
  6
Continuous
 62
     7
370
    25
100
AcDbLine
 10
1301.9023757293
 20
-938.5304154026
 30
0.0
 11
1206.6344265369
 21
-938.5304154026
 31
0.0
  0
LINE
  5
401
330
1F
100
AcDbEntity
  8
0
  6
Continuous
 62
     7
370
    25
100
AcDbLine
 10
1206.6344265369
 20
-935.5304154026
 30
0.0
 11
1301.9023757293
 21
-935.5304154026
 31
0.0
  0
ARC
  5
402
330
1F
100
AcDbEntity
  8
0
  6
Continuous
 62
     7
370
    25
100
AcDbCircle
 10
499.3077845433
 20
-985.5304154026
 30
0.0
 40
3.0
100
AcDbArc
 50
270.0
 51
330.0
  0
ARC
  5
403
330
1F
100
AcDbEntity
  8
0
  6
Continuous
 62
     7
370
    25
100
AcDbCircle
 10
-101.8346481593
 20
-941.5304154026
 30
0.0
 40
2.999999999999886
100
AcDbArc
 50
30.0
 51
90.0
  0
ARC
  5
404
330
1F
100
AcDbEntity
  8
0
  6
Continuous
 62
     7
370
    25
100
AcDbCircle
 10
-101.8346481593
 20
-941.5304154026
 30
0.0
 40
6.0
100
AcDbArc
 50
30.0
 51
90.0
  0
LINE
  5
405
330
1F
100
AcDbEntity
  8
0
  6
Continuous
 62
     7
370
    25
100
AcDbLine
 10
-775.7023468894
 20
-824.1351380213
 30
0.0
 11
-394.1064178814
 21
-768.8691395719
 31
0.0
  0
LINE
  5
406
330
1F
100
AcDbEntity
  8
0
  6
Continuous
 62
     7
370
    25
100
AcDbLine
 10
-394.1064178814
 20
-768.8691395719
 30
0.0
 11
-393.6764184111
 21
-771.838163057
 31
0.0
  0
LINE
  5
407
330
1F
100
AcDbEntity
  8
0
  6
Continuous
 62
     7
370
    25
100
AcDbLine
 10
-393.6764184111
 20
-771.838163057
 30
0.0
 11
-779.2470160013
 21
-827.6798071332
 31
0.0
  0
LINE
  5
408
330
1F
100
AcDbEntity
  8
0
  6
Continuous
 62
     7
370
    25
100
AcDbLine
 10
-779.2470160013
 20
-827.6798071332
 30
0.0
 11
-775.7023468894
 21
-824.1351380213
 31
0.0
  0
ARC
  5
409
330
1F
100
AcDbEntity
  8
0
  6
Continuous
 62
     7
370
    25
100
AcDbCircle
 10
-391.2397547463
 20
-788.6626294731
 30
0.0
 40
19.99999999999998
100
AcDbArc
 50
84.7631508723
 51
98.240767882
  0
LINE
  5
40A
330
1F
100
AcDbEntity
  8
0
  6
Continuous
 62
     7
370
    25
100
AcDbLine
 10
-389.414293684
 20
-768.7461114062
 30
0.0
 11
-389.6881128434
 21
-771.7335891162
 31
0.0
  0
ARC
  5
40B
330
1F
100
AcDbEntity
  8
0
  6
Continuous
 62
     7
370
    25
100
AcDbCircle
 10
-391.2397547463
 20
-788.6626294731
 30
0.0
 40
17.00000000000002
100
AcDbArc
 50
84.7631508723
 51
98.240767882
  0
LINE
  5
40C
330
1F
100
AcDbEntity
  8
0
  6
Continuous
 62
     7
370
    25
100
AcDbLine
 10
-744.4980600037
 20
-985.5304154026
 30
0.0
 11
-230.7021616188
 21
-985.5304154026
 31
0.0
  0
LINE
  5
40D
330
1F
100
AcDbEntity
  8
0
  6
Continuous
 62
     7
370
    25
100
AcDbLine
 10
-230.7021616188
 20
-988.5304154026
 30
0.0
 11
-744.4980600037
 21
-988.5304154026
 31
0.0
  0
CIRCLE
  5
40E
330
1F
100
AcDbEntity
  8
0
  6
Continuous
 62
     7
370
    25
100
AcDbCircle
 10
484.9023757293
 20
-931.0304154026
 30
0.0
 40
1.749999999999886
  0
CIRCLE
  5
40F
330
1F
100
AcDbEntity
  8
0
  6
Continuous
 62
     7
370
    25
100
AcDbCircle
 10
484.9023757293
 20
-931.0304154026
 30
0.0
 40
3.25
  0
LINE
  5
410
330
1F
100
AcDbEntity
  8
0
  6
Continuous
 62
     7
370
    25
100
AcDbLine
 10
657.908836866
 20
-987.0304154026
 30
0.0
 11
630.7733742141
 21
-940.0304154026
 31
0.0
  0
LINE
  5
411
330
1F
100
AcDbEntity
  8
0
  6
Continuous
 62
     7
370
    25
100
AcDbLine
 10
633.3714504255
 20
-938.5304154026
 30
0.0
 11
660.5069130774
 21
-985.5304154026
 31
0.0
  0
LINE
  5
412
330
1F
100
AcDbEntity
  8
0
  6
Continuous
 62
     7
370
    25
100
AcDbLine
 10
657.908836866
 20
-987.0304154026
 30
0.0
 11
660.5069130774
 21
-985.5304154026
 31
0.0
  0
LINE
  5
413
330
1F
100
AcDbEntity
  8
0
  6
Continuous
 62
     7
370
    25
100
AcDbLine
 10
-389.414293684
 20
-768.7461114062
 30
0.0
 11
819.2190451426
 21
-879.5241646364
 31
0.0
  0
LINE
  5
414
330
1F
100
AcDbEntity
  8
0
  6
Continuous
 62
     7
370
    25
100
AcDbLine
 10
819.2190451426
 20
-879.5241646364
 30
0.0
 11
818.9452259833
 21
-882.5116423465
 31
0.0
  0
LINE
  5
415
330
1F
100
AcDbEntity
  8
0
  6
Continuous
 62
     7
370
    25
100
AcDbLine
 10
818.9452259833
 20
-882.5116423465
 30
0.0
 11
-389.6881128434
 21
-771.7335891162
 31
0.0
  0
ARC
  5
416
330
1F
100
AcDbEntity
  8
0
  6
Continuous
 62
     7
370
    25
100
AcDbCircle
 10
821.0445062049
 20
-859.6076465695
 30
0.0
 40
20.00000000000022
100
AcDbArc
 50
264.7631508723
 51
278.240767882
  0
ARC
  5
417
330
1F
100
AcDbEntity
  8
0
  6
Continuous
 62
     7
370
    25
100
AcDbCircle
 10
821.0445062049
 20
-859.6076465695
 30
0.0
 40
23.00000000000017
100
AcDbArc
 50
264.7631508723
 51
278.240767882
  0
LINE
  5
418
330
1F
100
AcDbEntity
  8
0
  6
Continuous
 62
     7
370
    25
100
AcDbLine
 10
1174.3028114622
 20
-985.5304154026
 30
0.0
 11
1201.4382741141
 21
-938.5304154026
 31
0.0
  0
LINE
  5
419
330
1F
100
AcDbEntity
  8
0
  6
Continuous
 62
     7
370
    25
100
AcDbLine
 10
1204.0363503255
 20
-940.0304154026
 30
0.0
 11
1176.9008876736
 21
-987.0304154026
 31
0.0
  0
LINE
  5
41A
330
1F
100
AcDbEntity
  8
0
  6
Continuous
 62
     7
370
    25
100
AcDbLine
 10
1176.9008876736
 20
-987.0304154026
 30
0.0
 11
1174.3028114622
 21
-985.5304154026
 31
0.0
  0
LINE
  5
41B
330
1F
100
AcDbEntity
  8
0
  6
Continuous
 62
     7
370
    25
100
AcDbLine
 10
1174.3028114622
 20
-988.5304154026
 30
0.0
 11
1174.3028114622
 21
-985.5304154026
 31
0.0
  0
ARC
  5
41C
330
1F
100
AcDbEntity
  8
0
  6
Continuous
 62
     7
370
    25
100
AcDbCircle
 10
1174.3028114622
 20
-985.5304154026
 30
0.0
 40
2.999999999999886
100
AcDbArc
 50
270.0
 51
330.0
  0
ARC
  5
41D
330
1F
100
AcDbEntity
  8
0
  6
Continuous
 62
     7
370
    25
100
AcDbCircle
 10
-776.8296750783
 20
-941.5304154026
 30
0.0
 40
3.000000000000114
100
AcDbArc
 50
30.0
 51
90.0
  0
LINE
  5
41E
330
1F
100
AcDbEntity
  8
0
  6
Continuous
 62
     7
370
    25
100
AcDbLine
 10
-776.8296750783
 20
-938.5304154026
 30
0.0
 11
-776.8296750783
 21
-935.5304154026
 31
0.0
  0
ARC
  5
41F
330
1F
100
AcDbEntity
  8
0
  6
Continuous
 62
     7
370
    25
100
AcDbCircle
 10
-776.8296750783
 20
-941.5304154026
 30
0.0
 40
6.000000000000042
100
AcDbArc
 50
30.0
 51
90.0
  0
LINE
  5
420
330
1F
100
AcDbEntity
  8
0
  6
Continuous
 62
     7
370
    25
100
AcDbLine
 10
-774.2315988669
 20
-940.0304154026
 30
0.0
 11
-771.6335226556
 21
-938.5304154026
 31
0.0
  0
LINE
  5
421
330
1F
100
AcDbEntity
  8
0
  6
Continuous
 62
     7
370
    25
100
AcDbLine
 10
-872.0976242707
 20
-920.5304154026
 30
0.0
 11
-872.0976242707
 21
-935.5304154026
 31
0.0
  0
LINE
  5
422
330
1F
100
AcDbEntity
  8
0
  6
Continuous
 62
     7
370
    25
100
AcDbLine
 10
-875.0976242707
 20
-935.5304154026
 30
0.0
 11
-875.0976242707
 21
-923.5304154026
 31
0.0
  0
LINE
  5
423
330
1F
100
AcDbEntity
  8
0
  6
Continuous
 62
     7
370
    25
100
AcDbLine
 10
-875.0976242707
 20
-923.5304154026
 30
0.0
 11
-872.0976242707
 21
-920.5304154026
 31
0.0
  0
LINE
  5
424
330
1F
100
AcDbEntity
  8
0
  6
Continuous
 62
     7
370
    25
100
AcDbLine
 10
-705.0976242707
 20
-938.5304154026
 30
0.0
 11
-645.0976242707
 21
-938.5304154026
 31
0.0
  0
LINE
  5
425
330
1F
100
AcDbEntity
  8
0
  6
Continuous
 62
     7
370
    25
100
AcDbLine
 10
660.5069130774
 20
-985.5304154026
 30
0.0
 11
1174.3028114622
 21
-985.5304154026
 31
0.0
  0
LINE
  5
426
330
1F
100
AcDbEntity
  8
0
  6
Continuous
 62
     7
370
    25
100
AcDbLine
 10
-771.6335226556
 20
-938.5304154026
 30
0.0
 11
-744.4980600037
 21
-985.5304154026
 31
0.0
  0
LINE
  5
427
330
1F
100
AcDbEntity
  8
0
  6
Continuous
 62
     7
370
    25
100
AcDbLine
 10
-872.0976242707
 20
-935.5304154026
 30
0.0
 11
-776.8296750783
 21
-935.5304154026
 31
0.0
  0
LINE
  5
428
330
1F
100
AcDbEntity
  8
0
  6
Continuous
 62
     7
370
    25
100
AcDbLine
 10
4.9023757293
 20
-938.5304154026
 30
0.0
 11
64.9023757293
 21
-938.5304154026
 31
0.0
  0
LINE
  5
429
330
1F
100
AcDbEntity
  8
0
  6
Continuous
 62
     7
370
    25
100
AcDbLine
 10
64.9023757293
 20
-923.5304154026
 30
0.0
 11
4.9023757293
 21
-923.5304154026
 31
0.0
  0
LINE
  5
42A
330
1F
100
AcDbEntity
  8
0
  6
Continuous
 62
     7
370
    25
100
AcDbLine
 10
364.9023757293
 20
-923.5304154026
 30
0.0
 11
364.9023757293
 21
-938.5304154026
 31
0.0
  0
LINE
  5
42B
330
1F
100
AcDbEntity
  8
0
  6
Continuous
 62
     7
370
    25
100
AcDbLine
 10
4.9023757293
 20
-923.5304154026
 30
0.0
 11
4.9023757293
 21
-938.5304154026
 31
0.0
  0
LINE
  5
42C
330
1F
100
AcDbEntity
  8
0
  6
Continuous
 62
     7
370
    25
100
AcDbLine
 10
-791.6368817465
 20
-840.0696728783
 30
0.0
 11
-779.2470160013
 21
-827.6798071332
 31
0.0
  0
LINE
  5
42D
330
1F
100
AcDbEntity
  8
0
  6
Continuous
 62
     7
370
    25
100
AcDbLine
 10
1074.9023757293
 20
-923.5304154026
 30
0.0
 11
1074.9023757293
 21
-938.5304154026
 31
0.0
  0
LINE
  5
42E
330
1F
100
AcDbEntity
  8
0
  6
Continuous
 62
     7
370
    25
100
AcDbLine
 10
714.9023757293
 20
-923.5304154026
 30
0.0
 11
714.9023757293
 21
-938.5304154026
 31
0.0
  0
LINE
  5
42F
330
1F
100
AcDbEntity
  8
0
  6
Continuous
 62
     7
370
    25
100
AcDbLine
 10
244.9023757293
 20
-923.5304154026
 30
0.0
 11
184.9023757293
 21
-923.5304154026
 31
0.0
  0
LINE
  5
430
330
1F
100
AcDbEntity
  8
0
  6
Continuous
 62
     7
370
    25
100
AcDbLine
 10
424.9023757293
 20
-923.5304154026
 30
0.0
 11
364.9023757293
 21
-923.5304154026
 31
0.0
  0
LINE
  5
431
330
1F
100
AcDbEntity
  8
0
  6
Continuous
 62
     7
370
    25
100
AcDbLine
 10
1074.9023757293
 20
-938.5304154026
 30
0.0
 11
1134.9023757293
 21
-938.5304154026
 31
0.0
  0
ARC
  5
432
330
1F
100
AcDbEntity
  8
0
  6
Continuous
 62
     7
370
    25
100
AcDbCircle
 10
-789.5155614029
 20
-842.1909932219
 30
0.0
 40
2.999999999999944
100
AcDbArc
 50
135.0
 51
215.4059317731
  0
LINE
  5
433
330
1F
100
AcDbEntity
  8
0
  6
Continuous
 62
     7
370
    25
100
AcDbLine
 10
184.9023757293
 20
-938.5304154026
 30
0.0
 11
244.9023757293
 21
-938.5304154026
 31
0.0
  0
LINE
  5
434
330
1F
100
AcDbEntity
  8
0
  6
Continuous
 62
     7
370
    25
100
AcDbLine
 10
244.9023757293
 20
-938.5304154026
 30
0.0
 11
244.9023757293
 21
-923.5304154026
 31
0.0
  0
LINE
  5
435
330
1F
100
AcDbEntity
  8
0
  6
Continuous
 62
     7
370
    25
100
AcDbLine
 10
774.9023757293
 20
-923.5304154026
 30
0.0
 11
714.9023757293
 21
-923.5304154026
 31
0.0
  0
LINE
  5
436
330
1F
100
AcDbEntity
  8
0
  6
Continuous
 62
     7
370
    25
100
AcDbLine
 10
894.9023757293
 20
-923.5304154026
 30
0.0
 11
894.9023757293
 21
-938.5304154026
 31
0.0
  0
LINE
  5
437
330
1F
100
AcDbEntity
  8
0
  6
Continuous
 62
     7
370
    25
100
AcDbLine
 10
1134.9023757293
 20
-923.5304154026
 30
0.0
 11
1074.9023757293
 21
-923.5304154026
 31
0.0
  0
ARC
  5
438
330
1F
100
AcDbEntity
  8
0
  6
Continuous
 62
     7
370
    25
100
AcDbCircle
 10
-814.6153621989
 20
-867.2907940179
 30
0.0
 40
3.00000000000013
100
AcDbArc
 50
54.5940682269
 51
135.0
  0
LINE
  5
439
330
1F
100
AcDbEntity
  8
0
  6
Continuous
 62
     7
370
    25
100
AcDbLine
 10
424.9023757293
 20
-938.5304154026
 30
0.0
 11
424.9023757293
 21
-923.5304154026
 31
0.0
  0
LINE
  5
43A
330
1F
100
AcDbEntity
  8
0
  6
Continuous
 62
     7
370
    25
100
AcDbLine
 10
-345.0976242707
 20
-938.5304154026
 30
0.0
 11
-285.0976242707
 21
-938.5304154026
 31
0.0
  0
LINE
  5
43B
330
1F
100
AcDbEntity
  8
0
  6
Continuous
 62
     7
370
    25
100
AcDbLine
 10
-285.0976242707
 20
-923.5304154026
 30
0.0
 11
-345.0976242707
 21
-923.5304154026
 31
0.0
  0
LINE
  5
43C
330
1F
100
AcDbEntity
  8
0
  6
Continuous
 62
     7
370
    25
100
AcDbLine
 10
-645.0976242707
 20
-938.5304154026
 30
0.0
 11
-645.0976242707
 21
-923.5304154026
 31
0.0
  0
LINE
  5
43D
330
1F
100
AcDbEntity
  8
0
  6
Continuous
 62
     7
370
    25
100
AcDbLine
 10
774.9023757293
 20
-938.5304154026
 30
0.0
 11
774.9023757293
 21
-923.5304154026
 31
0.0
  0
LINE
  5
43E
330
1F
100
AcDbEntity
  8
0
  6
Continuous
 62
     7
370
    25
100
AcDbLine
 10
64.9023757293
 20
-938.5304154026
 30
0.0
 11
64.9023757293
 21
-923.5304154026
 31
0.0
  0
LINE
  5
43F
330
1F
100
AcDbEntity
  8
0
  6
Continuous
 62
     7
370
    25
100
AcDbLine
 10
-872.0976242707
 20
-920.5304154026
 30
0.0
 11
-816.7366825425
 21
-865.1694736743
 31
0.0
  0
LINE
  5
440
330
1F
100
AcDbEntity
  8
0
  6
Continuous
 62
     7
370
    25
100
AcDbLine
 10
894.9023757293
 20
-938.5304154026
 30
0.0
 11
954.9023757293
 21
-938.5304154026
 31
0.0
  0
LINE
  5
441
330
1F
100
AcDbEntity
  8
0
  6
Continuous
 62
     7
370
    25
100
AcDbLine
 10
-345.0976242707
 20
-923.5304154026
 30
0.0
 11
-345.0976242707
 21
-938.5304154026
 31
0.0
  0
LINE
  5
442
330
1F
100
AcDbEntity
  8
0
  6
Continuous
 62
     7
370
    25
100
AcDbLine
 10
-465.0976242707
 20
-923.5304154026
 30
0.0
 11
-525.0976242707
 21
-923.5304154026
 31
0.0
  0
LINE
  5
443
330
1F
100
AcDbEntity
  8
0
  6
Continuous
 62
     7
370
    25
100
AcDbLine
 10
-525.0976242707
 20
-923.5304154026
 30
0.0
 11
-525.0976242707
 21
-938.5304154026
 31
0.0
  0
LINE
  5
444
330
1F
100
AcDbEntity
  8
0
  6
Continuous
 62
     7
370
    25
100
AcDbLine
 10
-285.0976242707
 20
-938.5304154026
 30
0.0
 11
-285.0976242707
 21
-923.5304154026
 31
0.0
  0
LINE
  5
445
330
1F
100
AcDbEntity
  8
0
  6
Continuous
 62
     7
370
    25
100
AcDbLine
 10
184.9023757293
 20
-923.5304154026
 30
0.0
 11
184.9023757293
 21
-938.5304154026
 31
0.0
  0
LINE
  5
446
330
1F
100
AcDbEntity
  8
0
  6
Continuous
 62
     7
370
    25
100
AcDbLine
 10
364.9023757293
 20
-938.5304154026
 30
0.0
 11
424.9023757293
 21
-938.5304154026
 31
0.0
  0
LINE
  5
447
330
1F
100
AcDbEntity
  8
0
  6
Continuous
 62
     7
370
    25
100
AcDbLine
 10
-465.0976242707
 20
-938.5304154026
 30
0.0
 11
-465.0976242707
 21
-923.5304154026
 31
0.0
  0
LINE
  5
448
330
1F
100
AcDbEntity
  8
0
  6
Continuous
 62
     7
370
    25
100
AcDbLine
 10
-525.0976242707
 20
-938.5304154026
 30
0.0
 11
-465.0976242707
 21
-938.5304154026
 31
0.0
  0
LINE
  5
449
330
1F
100
AcDbEntity
  8
0
  6
Continuous
 62
     7
370
    25
100
AcDbLine
 10
1134.9023757293
 20
-938.5304154026
 30
0.0
 11
1134.9023757293
 21
-923.5304154026
 31
0.0
  0
ARC
  5
44A
330
1F
100
AcDbEntity
  8
0
  6
Continuous
 62
     7
370
    25
100
AcDbCircle
 10
-804.1867821445
 20
-852.6195732763
 30
0.0
 40
14.99999999999995
100
AcDbArc
 50
234.5940682269
 51
35.4059317731
  0
LINE
  5
44B
330
1F
100
AcDbEntity
  8
0
  6
Continuous
 62
     7
370
    25
100
AcDbLine
 10
954.9023757293
 20
-938.5304154026
 30
0.0
 11
954.9023757293
 21
-923.5304154026
 31
0.0
  0
LINE
  5
44C
330
1F
100
AcDbEntity
  8
0
  6
Continuous
 62
     7
370
    25
100
AcDbLine
 10
714.9023757293
 20
-938.5304154026
 30
0.0
 11
774.9023757293
 21
-938.5304154026
 31
0.0
  0
LINE
  5
44D
330
1F
100
AcDbEntity
  8
0
  6
Continuous
 62
     7
370
    25
100
AcDbLine
 10
-705.0976242707
 20
-938.5304154026
 30
0.0
 11
-705.0976242707
 21
-923.5304154026
 31
0.0
  0
LINE
  5
44E
330
1F
100
AcDbEntity
  8
0
  6
Continuous
 62
     7
370
    25
100
AcDbLine
 10
-645.0976242707
 20
-923.5304154026
 30
0.0
 11
-705.0976242707
 21
-923.5304154026
 31
0.0
  0
LINE
  5
44F
330
1F
100
AcDbEntity
  8
0
  6
Continuous
 62
     7
370
    25
100
AcDbLine
 10
954.9023757293
 20
-923.5304154026
 30
0.0
 11
894.9023757293
 21
-923.5304154026
 31
0.0
  0
LINE
  5
450
330
1F
100
AcDbEntity
  8
0
  6
Continuous
 62
     7
370
    25
100
AcDbLine
 10
-776.8296750783
 20
-938.5304154026
 30
0.0
 11
-872.0976242707
 21
-938.5304154026
 31
0.0
  0
LINE
  5
451
330
1F
100
AcDbEntity
  8
0
  6
Continuous
 62
     7
370
    25
100
AcDbLine
 10
660.5069130774
 20
-988.5304154026
 30
0.0
 11
660.5069130774
 21
-985.5304154026
 31
0.0
  0
ARC
  5
452
330
1F
100
AcDbEntity
  8
0
  6
Continuous
 62
     7
370
    25
100
AcDbCircle
 10
660.5069130774
 20
-985.5304154026
 30
0.0
 40
3.000000000000049
100
AcDbArc
 50
210.0
 51
270.0
  0
LINE
  5
453
330
1F
100
AcDbEntity
  8
0
  6
Continuous
 62
     7
370
    25
100
AcDbLine
 10
-747.096136215
 20
-987.0304154026
 30
0.0
 11
-774.2315988669
 21
-940.0304154026
 31
0.0
  0
LINE
  5
454
330
1F
100
AcDbEntity
  8
0
  6
Continuous
 62
     7
370
    25
100
AcDbLine
 10
1174.3028114622
 20
-988.5304154026
 30
0.0
 11
660.5069130774
 21
-988.5304154026
 31
0.0
  0
LINE
  5
455
330
1F
100
AcDbEntity
  8
0
  6
Continuous
 62
     7
370
    25
100
AcDbLine
 10
1174.3028114623
 20
1318.4695845974
 30
0.0
 11
660.5069130774
 21
1318.4695845974
 31
0.0
  0
LINE
  5
456
330
1F
100
AcDbEntity
  8
0
  6
Continuous
 62
     7
370
    25
100
AcDbLine
 10
660.5069130774
 20
1321.4695845974
 30
0.0
 11
660.5069130774
 21
1318.4695845974
 31
0.0
  0
LINE
  5
457
330
1F
100
AcDbEntity
  8
0
  6
Continuous
 62
     7
370
    25
100
AcDbLine
 10
660.5069130774
 20
1321.4695845974
 30
0.0
 11
1174.3028114623
 21
1321.4695845974
 31
0.0
  0
LINE
  5
458
330
1F
100
AcDbEntity
  8
0
  6
Continuous
 62
     7
370
    25
100
AcDbLine
 10
1174.3028114623
 20
1321.4695845974
 30
0.0
 11
1174.3028114623
 21
1318.4695845974
 31
0.0
  0
LINE
  5
459
330
1F
100
AcDbEntity
  8
0
  6
Continuous
 62
     7
370
    25
100
AcDbLine
 10
1301.9023757293
 20
1253.4695845974
 30
0.0
 11
1301.9023757293
 21
1268.4695845974
 31
0.0
  0
LINE
  5
45A
330
1F
100
AcDbEntity
  8
0
  6
Continuous
 62
     7
370
    25
100
AcDbLine
 10
1304.9023757293
 20
1268.4695845974
 30
0.0
 11
1301.9023757293
 21
1268.4695845974
 31
0.0
  0
LINE
  5
45B
330
1F
100
AcDbEntity
  8
0
  6
Continuous
 62
     7
370
    25
100
AcDbLine
 10
1304.9023757293
 20
1268.4695845974
 30
0.0
 11
1304.9023757293
 21
1256.4695845974
 31
0.0
  0
LINE
  5
45C
330
1F
100
AcDbEntity
  8
0
  6
Continuous
 62
     7
370
    25
100
AcDbLine
 10
1304.9023757293
 20
1256.4695845974
 30
0.0
 11
1301.9023757293
 21
1253.4695845974
 31
0.0
  0
LINE
  5
45D
330
1F
100
AcDbEntity
  8
0
  6
Continuous
 62
     7
370
    25
100
AcDbLine
 10
1205.507098348
 20
1157.0743072161
 30
0.0
 11
823.91116934
 21
1101.8083087667
 31
0.0
  0
LINE
  5
45E
330
1F
100
AcDbEntity
  8
0
  6
Continuous
 62
     7
370
    25
100
AcDbLine
 10
823.91116934
 20
1101.8083087667
 30
0.0
 11
823.4811698697
 21
1104.7773322519
 31
0.0
  0
LINE
  5
45F
330
1F
100
AcDbEntity
  8
0
  6
Continuous
 62
     7
370
    25
100
AcDbLine
 10
823.4811698697
 20
1104.7773322519
 30
0.0
 11
1209.0517674599
 21
1160.618976328
 31
0.0
  0
LINE
  5
460
330
1F
100
AcDbEntity
  8
0
  6
Continuous
 62
     7
370
    25
100
AcDbLine
 10
1209.0517674599
 20
1160.618976328
 30
0.0
 11
1205.507098348
 21
1157.0743072161
 31
0.0
  0
LINE
  5
461
330
1F
100
AcDbEntity
  8
0
  6
Continuous
 62
     7
370
    25
100
AcDbLine
 10
-285.0976242707
 20
1256.4695845974
 30
0.0
 11
-285.0976242707
 21
1271.4695845974
 31
0.0
  0
LINE
  5
462
330
1F
100
AcDbEntity
  8
0
  6
Continuous
 62
     7
370
    25
100
AcDbLine
 10
-285.0976242707
 20
1271.4695845974
 30
0.0
 11
-345.0976242707
 21
1271.4695845974
 31
0.0
  0
LINE
  5
463
330
1F
100
AcDbEntity
  8
0
  6
Continuous
 62
     7
370
    25
100
AcDbLine
 10
-345.0976242707
 20
1271.4695845974
 30
0.0
 11
-345.0976242707
 21
1256.4695845974
 31
0.0
  0
LINE
  5
464
330
1F
100
AcDbEntity
  8
0
  6
Continuous
 62
     7
370
    25
100
AcDbLine
 10
-345.0976242707
 20
1256.4695845974
 30
0.0
 11
-285.0976242707
 21
1256.4695845974
 31
0.0
  0
LINE
  5
465
330
1F
100
AcDbEntity
  8
0
  6
Continuous
 62
     7
370
    25
100
AcDbLine
 10
-465.0976242707
 20
1256.4695845974
 30
0.0
 11
-465.0976242707
 21
1271.4695845974
 31
0.0
  0
LINE
  5
466
330
1F
100
AcDbEntity
  8
0
  6
Continuous
 62
     7
370
    25
100
AcDbLine
 10
-465.0976242707
 20
1271.4695845974
 30
0.0
 11
-525.0976242707
 21
1271.4695845974
 31
0.0
  0
LINE
  5
467
330
1F
100
AcDbEntity
  8
0
  6
Continuous
 62
     7
370
    25
100
AcDbLine
 10
-525.0976242707
 20
1271.4695845974
 30
0.0
 11
-525.0976242707
 21
1256.4695845974
 31
0.0
  0
LINE
  5
468
330
1F
100
AcDbEntity
  8
0
  6
Continuous
 62
     7
370
    25
100
AcDbLine
 10
-525.0976242707
 20
1256.4695845974
 30
0.0
 11
-465.0976242707
 21
1256.4695845974
 31
0.0
  0
LINE
  5
469
330
1F
100
AcDbEntity
  8
0
  6
Continuous
 62
     7
370
    25
100
AcDbLine
 10
-645.0976242707
 20
1256.4695845974
 30
0.0
 11
-645.0976242707
 21
1271.4695845975
 31
0.0
  0
LINE
  5
46A
330
1F
100
AcDbEntity
  8
0
  6
Continuous
 62
     7
370
    25
100
AcDbLine
 10
-645.0976242707
 20
1271.4695845975
 30
0.0
 11
-705.0976242707
 21
1271.4695845975
 31
0.0
  0
LINE
  5
46B
330
1F
100
AcDbEntity
  8
0
  6
Continuous
 62
     7
370
    25
100
AcDbLine
 10
-705.0976242707
 20
1271.4695845975
 30
0.0
 11
-705.0976242707
 21
1256.4695845975
 31
0.0
  0
LINE
  5
46C
330
1F
100
AcDbEntity
  8
0
  6
Continuous
 62
     7
370
    25
100
AcDbLine
 10
-705.0976242707
 20
1256.4695845975
 30
0.0
 11
-645.0976242707
 21
1256.4695845974
 31
0.0
  0
LINE
  5
46D
330
1F
100
AcDbEntity
  8
0
  6
Continuous
 62
     7
370
    25
100
AcDbLine
 10
64.9023757293
 20
1256.4695845974
 30
0.0
 11
64.9023757293
 21
1271.4695845974
 31
0.0
  0
LINE
  5
46E
330
1F
100
AcDbEntity
  8
0
  6
Continuous
 62
     7
370
    25
100
AcDbLine
 10
64.9023757293
 20
1271.4695845974
 30
0.0
 11
4.9023757293
 21
1271.4695845974
 31
0.0
  0
LINE
  5
46F
330
1F
100
AcDbEntity
  8
0
  6
Continuous
 62
     7
370
    25
100
AcDbLine
 10
4.9023757293
 20
1271.4695845974
 30
0.0
 11
4.9023757293
 21
1256.4695845974
 31
0.0
  0
LINE
  5
470
330
1F
100
AcDbEntity
  8
0
  6
Continuous
 62
     7
370
    25
100
AcDbLine
 10
4.9023757293
 20
1256.4695845974
 30
0.0
 11
64.9023757293
 21
1256.4695845974
 31
0.0
  0
LINE
  5
471
330
1F
100
AcDbEntity
  8
0
  6
Continuous
 62
     7
370
    25
100
AcDbLine
 10
244.9023757293
 20
1256.4695845974
 30
0.0
 11
244.9023757293
 21
1271.4695845974
 31
0.0
  0
LINE
  5
472
330
1F
100
AcDbEntity
  8
0
  6
Continuous
 62
     7
370
    25
100
AcDbLine
 10
244.9023757293
 20
1271.4695845974
 30
0.0
 11
184.9023757293
 21
1271.4695845974
 31
0.0
  0
LINE
  5
473
330
1F
100
AcDbEntity
  8
0
  6
Continuous
 62
     7
370
    25
100
AcDbLine
 10
184.9023757293
 20
1271.4695845974
 30
0.0
 11
184.9023757293
 21
1256.4695845974
 31
0.0
  0
LINE
  5
474
330
1F
100
AcDbEntity
  8
0
  6
Continuous
 62
     7
370
    25
100
AcDbLine
 10
184.9023757293
 20
1256.4695845974
 30
0.0
 11
244.9023757293
 21
1256.4695845974
 31
0.0
  0
LINE
  5
475
330
1F
100
AcDbEntity
  8
0
  6
Continuous
 62
     7
370
    25
100
AcDbLine
 10
424.9023757293
 20
1256.4695845974
 30
0.0
 11
424.9023757293
 21
1271.4695845974
 31
0.0
  0
LINE
  5
476
330
1F
100
AcDbEntity
  8
0
  6
Continuous
 62
     7
370
    25
100
AcDbLine
 10
424.9023757293
 20
1271.4695845974
 30
0.0
 11
364.9023757293
 21
1271.4695845974
 31
0.0
  0
LINE
  5
477
330
1F
100
AcDbEntity
  8
0
  6
Continuous
 62
     7
370
    25
100
AcDbLine
 10
364.9023757293
 20
1271.4695845974
 30
0.0
 11
364.9023757293
 21
1256.4695845974
 31
0.0
  0
LINE
  5
478
330
1F
100
AcDbEntity
  8
0
  6
Continuous
 62
     7
370
    25
100
AcDbLine
 10
364.9023757293
 20
1256.4695845974
 30
0.0
 11
424.9023757293
 21
1256.4695845974
 31
0.0
  0
LINE
  5
479
330
1F
100
AcDbEntity
  8
0
  6
Continuous
 62
     7
370
    25
100
AcDbLine
 10
774.9023757293
 20
1256.4695845974
 30
0.0
 11
774.9023757293
 21
1271.4695845974
 31
0.0
  0
LINE
  5
47A
330
1F
100
AcDbEntity
  8
0
  6
Continuous
 62
     7
370
    25
100
AcDbLine
 10
774.9023757293
 20
1271.4695845974
 30
0.0
 11
714.9023757293
 21
1271.4695845974
 31
0.0
  0
LINE
  5
47B
330
1F
100
AcDbEntity
  8
0
  6
Continuous
 62
     7
370
    25
100
AcDbLine
 10
714.9023757293
 20
1271.4695845974
 30
0.0
 11
714.9023757293
 21
1256.4695845974
 31
0.0
  0
LINE
  5
47C
330
1F
100
AcDbEntity
  8
0
  6
Continuous
 62
     7
370
    25
100
AcDbLine
 10
714.9023757293
 20
1256.4695845974
 30
0.0
 11
774.9023757293
 21
1256.4695845974
 31
0.0
  0
LINE
  5
47D
330
1F
100
AcDbEntity
  8
0
  6
Continuous
 62
     7
370
    25
100
AcDbLine
 10
954.9023757293
 20
1256.4695845974
 30
0.0
 11
954.9023757293
 21
1271.4695845974
 31
0.0
  0
LINE
  5
47E
330
1F
100
AcDbEntity
  8
0
  6
Continuous
 62
     7
370
    25
100
AcDbLine
 10
954.9023757293
 20
1271.4695845974
 30
0.0
 11
894.9023757293
 21
1271.4695845974
 31
0.0
  0
LINE
  5
47F
330
1F
100
AcDbEntity
  8
0
  6
Continuous
 62
     7
370
    25
100
AcDbLine
 10
894.9023757293
 20
1271.4695845974
 30
0.0
 11
894.9023757293
 21
1256.4695845974
 31
0.0
  0
LINE
  5
480
330
1F
100
AcDbEntity
  8
0
  6
Continuous
 62
     7
370
    25
100
AcDbLine
 10
894.9023757293
 20
1256.4695845974
 30
0.0
 11
954.9023757293
 21
1256.4695845974
 31
0.0
  0
LINE
  5
481
330
1F
100
AcDbEntity
  8
0
  6
Continuous
 62
     7
370
    25
100
AcDbLine
 10
1134.9023757293
 20
1271.4695845974
 30
0.0
 11
1074.9023757293
 21
1271.4695845974
 31
0.0
  0
LINE
  5
482
330
1F
100
AcDbEntity
  8
0
  6
Continuous
 62
     7
370
    25
100
AcDbLine
 10
1074.9023757293
 20
1271.4695845974
 30
0.0
 11
1074.9023757293
 21
1256.4695845974
 31
0.0
  0
LINE
  5
483
330
1F
100
AcDbEntity
  8
0
  6
Continuous
 62
     7
370
    25
100
AcDbLine
 10
1134.9023757293
 20
1271.4695845974
 30
0.0
 11
1134.9023757293
 21
1256.4695845974
 31
0.0
  0
LINE
  5
484
330
1F
100
AcDbEntity
  8
0
  6
Continuous
 62
     7
370
    25
100
AcDbLine
 10
-872.0976242707
 20
1268.4695845975
 30
0.0
 11
-872.0976242707
 21
1253.4695845975
 31
0.0
  0
LINE
  5
485
330
1F
100
AcDbEntity
  8
0
  6
Continuous
 62
     7
370
    25
100
AcDbLine
 10
-776.8296750783
 20
1268.4695845975
 30
0.0
 11
-872.0976242707
 21
1268.4695845975
 31
0.0
  0
ARC
  5
486
330
1F
100
AcDbEntity
  8
0
  6
Continuous
 62
     7
370
    25
100
AcDbCircle
 10
-776.8296750783
 20
1274.4695845975
 30
0.0
 40
6.000000000000099
100
AcDbArc
 50
270.0
 51
330.0
  0
LINE
  5
487
330
1F
100
AcDbEntity
  8
0
  6
Continuous
 62
     7
370
    25
100
AcDbLine
 10
-744.4980600036
 20
1318.4695845975
 30
0.0
 11
-771.6335226556
 21
1271.4695845975
 31
0.0
  0
LINE
  5
488
330
1F
100
AcDbEntity
  8
0
  6
Continuous
 62
     7
370
    25
100
AcDbLine
 10
-230.7021616188
 20
1318.4695845974
 30
0.0
 11
-744.4980600036
 21
1318.4695845975
 31
0.0
  0
LINE
  5
489
330
1F
100
AcDbEntity
  8
0
  6
Continuous
 62
     7
370
    25
100
AcDbLine
 10
-203.5666989669
 20
1271.4695845974
 30
0.0
 11
-230.7021616188
 21
1318.4695845974
 31
0.0
  0
ARC
  5
48A
330
1F
100
AcDbEntity
  8
0
  6
Continuous
 62
     7
370
    25
100
AcDbCircle
 10
-198.3705465442
 20
1274.4695845974
 30
0.0
 40
6.0
100
AcDbArc
 50
210.0
 51
270.0
  0
LINE
  5
48B
330
1F
100
AcDbEntity
  8
0
  6
Continuous
 62
     7
370
    25
100
AcDbLine
 10
-101.8346481593
 20
1268.4695845974
 30
0.0
 11
-198.3705465442
 21
1268.4695845974
 31
0.0
  0
ARC
  5
48C
330
1F
100
AcDbEntity
  8
0
  6
Continuous
 62
     7
370
    25
100
AcDbCircle
 10
-101.8346481593
 20
1274.4695845974
 30
0.0
 40
6.0
100
AcDbArc
 50
270.0
 51
330.0
  0
LINE
  5
48D
330
1F
100
AcDbEntity
  8
0
  6
Continuous
 62
     7
370
    25
100
AcDbLine
 10
-69.5030330847
 20
1318.4695845974
 30
0.0
 11
-96.6384957366
 21
1271.4695845974
 31
0.0
  0
LINE
  5
48E
330
1F
100
AcDbEntity
  8
0
  6
Continuous
 62
     7
370
    25
100
AcDbLine
 10
499.3077845433
 20
1318.4695845974
 30
0.0
 11
-69.5030330847
 21
1318.4695845974
 31
0.0
  0
LINE
  5
48F
330
1F
100
AcDbEntity
  8
0
  6
Continuous
 62
     7
370
    25
100
AcDbLine
 10
526.4432471952
 20
1271.4695845974
 30
0.0
 11
499.3077845433
 21
1318.4695845974
 31
0.0
  0
ARC
  5
490
330
1F
100
AcDbEntity
  8
0
  6
Continuous
 62
     7
370
    25
100
AcDbCircle
 10
531.6393996179
 20
1274.4695845974
 30
0.0
 40
6.0
100
AcDbArc
 50
210.0
 51
270.0
  0
LINE
  5
491
330
1F
100
AcDbEntity
  8
0
  6
Continuous
 62
     7
370
    25
100
AcDbLine
 10
628.1752980028
 20
1268.4695845974
 30
0.0
 11
531.6393996179
 21
1268.4695845974
 31
0.0
  0
ARC
  5
492
330
1F
100
AcDbEntity
  8
0
  6
Continuous
 62
     7
370
    25
100
AcDbCircle
 10
628.1752980028
 20
1274.4695845974
 30
0.0
 40
6.0
100
AcDbArc
 50
270.0
 51
330.0
  0
LINE
  5
493
330
1F
100
AcDbEntity
  8
0
  6
Continuous
 62
     7
370
    25
100
AcDbLine
 10
660.5069130774
 20
1318.4695845974
 30
0.0
 11
633.3714504255
 21
1271.4695845974
 31
0.0
  0
LINE
  5
494
330
1F
100
AcDbEntity
  8
0
  6
Continuous
 62
     7
370
    25
100
AcDbLine
 10
1201.4382741142
 20
1271.4695845974
 30
0.0
 11
1174.3028114623
 21
1318.4695845974
 31
0.0
  0
ARC
  5
495
330
1F
100
AcDbEntity
  8
0
  6
Continuous
 62
     7
370
    25
100
AcDbCircle
 10
1206.6344265369
 20
1274.4695845974
 30
0.0
 40
6.0
100
AcDbArc
 50
210.0
 51
270.0
  0
LINE
  5
496
330
1F
100
AcDbEntity
  8
0
  6
Continuous
 62
     7
370
    25
100
AcDbLine
 10
1301.9023757293
 20
1268.4695845974
 30
0.0
 11
1206.6344265369
 21
1268.4695845974
 31
0.0
  0
ARC
  5
497
330
1F
100
AcDbEntity
  8
0
  6
Continuous
 62
     7
370
    25
100
AcDbCircle
 10
821.0445062049
 20
1121.6017986679
 30
0.0
 40
17.00000000000005
100
AcDbArc
 50
264.7631508723
 51
278.240767882
  0
LINE
  5
498
330
1F
100
AcDbEntity
  8
0
  6
Continuous
 62
     7
370
    25
100
AcDbLine
 10
-389.1404745247
 20
1215.4508115413
 30
0.0
 11
819.492864302
 21
1104.6727583111
 31
0.0
  0
ARC
  5
499
330
1F
100
AcDbEntity
  8
0
  6
Continuous
 62
     7
370
    25
100
AcDbCircle
 10
-391.2397547463
 20
1192.5468157644
 30
0.0
 40
23.00000000000003
100
AcDbArc
 50
84.7631508723
 51
98.240767882
  0
LINE
  5
49A
330
1F
100
AcDbEntity
  8
0
  6
Continuous
 62
     7
370
    25
100
AcDbLine
 10
-778.3501666064
 20
1159.7221269332
 30
0.0
 11
-394.5364173516
 21
1215.3093291508
 31
0.0
  0
LINE
  5
49B
330
1F
100
AcDbEntity
  8
0
  6
Continuous
 62
     7
370
    25
100
AcDbLine
 10
-791.6368817465
 20
1173.0088420732
 30
0.0
 11
-778.3501666064
 21
1159.7221269332
 31
0.0
  0
ARC
  5
49C
330
1F
100
AcDbEntity
  8
0
  6
Continuous
 62
     7
370
    25
100
AcDbCircle
 10
-789.5155614029
 20
1175.1301624168
 30
0.0
 40
2.999999999999891
100
AcDbArc
 50
144.5940682269
 51
225.0
  0
ARC
  5
49D
330
1F
100
AcDbEntity
  8
0
  6
Continuous
 62
     7
370
    25
100
AcDbCircle
 10
-804.1867821445
 20
1185.5587424712
 30
0.0
 40
15.0
100
AcDbArc
 50
324.5940682269
 51
125.4059317731
  0
ARC
  5
49E
330
1F
100
AcDbEntity
  8
0
  6
Continuous
 62
     7
370
    25
100
AcDbCircle
 10
-814.6153621989
 20
1200.2299632128
 30
0.0
 40
3.000000000000037
100
AcDbArc
 50
225.0
 51
305.4059317731
  0
LINE
  5
49F
330
1F
100
AcDbEntity
  8
0
  6
Continuous
 62
     7
370
    25
100
AcDbLine
 10
-872.0976242707
 20
1253.4695845975
 30
0.0
 11
-816.7366825425
 21
1198.1086428692
 31
0.0
  0
CIRCLE
  5
4A0
330
1F
100
AcDbEntity
  8
0
  6
Continuous
 62
     7
370
    25
100
AcDbCircle
 10
-55.0976242707
 20
1263.9695845974
 30
0.0
 40
3.25
  0
CIRCLE
  5
4A1
330
1F
100
AcDbEntity
  8
0
  6
Continuous
 62
     7
370
    25
100
AcDbCircle
 10
484.9023757293
 20
1263.9695845974
 30
0.0
 40
3.25
  0
LINE
  5
4A2
330
1F
100
AcDbEntity
  8
0
  6
Continuous
 62
     7
370
    25
100
AcDbLine
 10
1074.9023757293
 20
1256.4695845974
 30
0.0
 11
1134.9023757293
 21
1256.4695845974
 31
0.0
  0
LINE
  5
4A3
330
1F
100
AcDbEntity
  8
0
  6
Continuous
 62
     7
370
    25
100
AcDbLine
 10
1301.9023757293
 20
1271.4695845974
 30
0.0
 11
1301.9023757293
 21
1268.4695845974
 31
0.0
  0
ARC
  5
4A4
330
1F
100
AcDbEntity
  8
0
  6
Continuous
 62
     7
370
    25
100
AcDbCircle
 10
1301.9023757293
 20
1268.4695845974
 30
0.0
 40
2.999999999999773
100
AcDbArc
 50
360.0
 51
90.0
  0
LINE
  5
4A5
330
1F
100
AcDbEntity
  8
0
  6
Continuous
 62
     7
370
    25
100
AcDbLine
 10
1206.6344265369
 20
1271.4695845974
 30
0.0
 11
1206.6344265369
 21
1268.4695845974
 31
0.0
  0
LINE
  5
4A6
330
1F
100
AcDbEntity
  8
0
  6
Continuous
 62
     7
370
    25
100
AcDbLine
 10
1206.6344265369
 20
1271.4695845974
 30
0.0
 11
1301.9023757293
 21
1271.4695845974
 31
0.0
  0
LINE
  5
4A7
330
1F
100
AcDbEntity
  8
0
  6
Continuous
 62
     7
370
    25
100
AcDbLine
 10
1176.9008876736
 20
1319.9695845974
 30
0.0
 11
1174.3028114623
 21
1318.4695845974
 31
0.0
  0
ARC
  5
4A8
330
1F
100
AcDbEntity
  8
0
  6
Continuous
 62
     7
370
    25
100
AcDbCircle
 10
1174.3028114623
 20
1318.4695845974
 30
0.0
 40
3.000000000000049
100
AcDbArc
 50
30.0
 51
90.0
  0
ARC
  5
4A9
330
1F
100
AcDbEntity
  8
0
  6
Continuous
 62
     7
370
    25
100
AcDbCircle
 10
1206.6344265369
 20
1274.4695845974
 30
0.0
 40
2.999999999999936
100
AcDbArc
 50
210.0
 51
270.0
  0
LINE
  5
4AA
330
1F
100
AcDbEntity
  8
0
  6
Continuous
 62
     7
370
    25
100
AcDbLine
 10
1204.0363503255
 20
1272.9695845974
 30
0.0
 11
1201.4382741142
 21
1271.4695845974
 31
0.0
  0
LINE
  5
4AB
330
1F
100
AcDbEntity
  8
0
  6
Continuous
 62
     7
370
    25
100
AcDbLine
 10
1176.9008876736
 20
1319.9695845974
 30
0.0
 11
1204.0363503255
 21
1272.9695845974
 31
0.0
  0
ARC
  5
4AC
330
1F
100
AcDbEntity
  8
0
  6
Continuous
 62
     7
370
    25
100
AcDbCircle
 10
531.6393996179
 20
1274.4695845974
 30
0.0
 40
3.0
100
AcDbArc
 50
210.0
 51
270.0
  0
LINE
  5
4AD
330
1F
100
AcDbEntity
  8
0
  6
Continuous
 62
     7
370
    25
100
AcDbLine
 10
531.6393996179
 20
1271.4695845974
 30
0.0
 11
531.6393996179
 21
1268.4695845974
 31
0.0
  0
LINE
  5
4AE
330
1F
100
AcDbEntity
  8
0
  6
Continuous
 62
     7
370
    25
100
AcDbLine
 10
529.0413234066
 20
1272.9695845974
 30
0.0
 11
526.4432471952
 21
1271.4695845974
 31
0.0
  0
LINE
  5
4AF
330
1F
100
AcDbEntity
  8
0
  6
Continuous
 62
     7
370
    25
100
AcDbLine
 10
-69.5030330847
 20
1321.4695845974
 30
0.0
 11
-69.5030330847
 21
1318.4695845974
 31
0.0
  0
LINE
  5
4B0
330
1F
100
AcDbEntity
  8
0
  6
Continuous
 62
     7
370
    25
100
AcDbLine
 10
-69.5030330847
 20
1321.4695845974
 30
0.0
 11
499.3077845433
 21
1321.4695845974
 31
0.0
  0
LINE
  5
4B1
330
1F
100
AcDbEntity
  8
0
  6
Continuous
 62
     7
370
    25
100
AcDbLine
 10
499.3077845433
 20
1321.4695845974
 30
0.0
 11
499.3077845433
 21
1318.4695845974
 31
0.0
  0
LINE
  5
4B2
330
1F
100
AcDbEntity
  8
0
  6
Continuous
 62
     7
370
    25
100
AcDbLine
 10
501.9058607547
 20
1319.9695845974
 30
0.0
 11
529.0413234066
 21
1272.9695845974
 31
0.0
  0
LINE
  5
4B3
330
1F
100
AcDbEntity
  8
0
  6
Continuous
 62
     7
370
    25
100
AcDbLine
 10
501.9058607547
 20
1319.9695845974
 30
0.0
 11
499.3077845433
 21
1318.4695845974
 31
0.0
  0
LINE
  5
4B4
330
1F
100
AcDbEntity
  8
0
  6
Continuous
 62
     7
370
    25
100
AcDbLine
 10
630.7733742141
 20
1272.9695845974
 30
0.0
 11
633.3714504255
 21
1271.4695845974
 31
0.0
  0
LINE
  5
4B5
330
1F
100
AcDbEntity
  8
0
  6
Continuous
 62
     7
370
    25
100
AcDbLine
 10
630.7733742141
 20
1272.9695845974
 30
0.0
 11
657.908836866
 21
1319.9695845974
 31
0.0
  0
LINE
  5
4B6
330
1F
100
AcDbEntity
  8
0
  6
Continuous
 62
     7
370
    25
100
AcDbLine
 10
657.908836866
 20
1319.9695845974
 30
0.0
 11
660.5069130774
 21
1318.4695845974
 31
0.0
  0
ARC
  5
4B7
330
1F
100
AcDbEntity
  8
0
  6
Continuous
 62
     7
370
    25
100
AcDbCircle
 10
628.1752980028
 20
1274.4695845974
 30
0.0
 40
3.0
100
AcDbArc
 50
270.0
 51
330.0
  0
LINE
  5
4B8
330
1F
100
AcDbEntity
  8
0
  6
Continuous
 62
     7
370
    25
100
AcDbLine
 10
628.1752980028
 20
1271.4695845974
 30
0.0
 11
628.1752980028
 21
1268.4695845974
 31
0.0
  0
ARC
  5
4B9
330
1F
100
AcDbEntity
  8
0
  6
Continuous
 62
     7
370
    25
100
AcDbCircle
 10
499.3077845433
 20
1318.4695845974
 30
0.0
 40
3.0
100
AcDbArc
 50
30.0
 51
90.0
  0
LINE
  5
4BA
330
1F
100
AcDbEntity
  8
0
  6
Continuous
 62
     7
370
    25
100
AcDbLine
 10
531.6393996179
 20
1271.4695845974
 30
0.0
 11
628.1752980028
 21
1271.4695845974
 31
0.0
  0
LINE
  5
4BB
330
1F
100
AcDbEntity
  8
0
  6
Continuous
 62
     7
370
    25
100
AcDbLine
 10
819.2190451426
 20
1101.685280601
 30
0.0
 11
-389.414293684
 21
1212.4633338313
 31
0.0
  0
LINE
  5
4BC
330
1F
100
AcDbEntity
  8
0
  6
Continuous
 62
     7
370
    25
100
AcDbLine
 10
-389.414293684
 20
1212.4633338313
 30
0.0
 11
-389.1404745247
 21
1215.4508115413
 31
0.0
  0
LINE
  5
4BD
330
1F
100
AcDbEntity
  8
0
  6
Continuous
 62
     7
370
    25
100
AcDbLine
 10
819.2190451426
 20
1101.685280601
 30
0.0
 11
819.492864302
 21
1104.6727583111
 31
0.0
  0
ARC
  5
4BE
330
1F
100
AcDbEntity
  8
0
  6
Continuous
 62
     7
370
    25
100
AcDbCircle
 10
660.5069130774
 20
1318.4695845974
 30
0.0
 40
3.000000000000227
100
AcDbArc
 50
90.0
 51
150.0
  0
CIRCLE
  5
4BF
330
1F
100
AcDbEntity
  8
0
  6
Continuous
 62
     7
370
    25
100
AcDbCircle
 10
484.9023757293
 20
1263.9695845974
 30
0.0
 40
1.75
  0
ARC
  5
4C0
330
1F
100
AcDbEntity
  8
0
  6
Continuous
 62
     7
370
    25
100
AcDbCircle
 10
821.0445062049
 20
1121.6017986679
 30
0.0
 40
20.00000000000004
100
AcDbArc
 50
264.7631508723
 51
278.240767882
  0
LINE
  5
4C1
330
1F
100
AcDbEntity
  8
0
  6
Continuous
 62
     7
370
    25
100
AcDbLine
 10
-228.1040854074
 20
1319.9695845974
 30
0.0
 11
-230.7021616188
 21
1318.4695845974
 31
0.0
  0
LINE
  5
4C2
330
1F
100
AcDbEntity
  8
0
  6
Continuous
 62
     7
370
    25
100
AcDbLine
 10
-230.7021616188
 20
1321.4695845974
 30
0.0
 11
-230.7021616188
 21
1318.4695845974
 31
0.0
  0
ARC
  5
4C3
330
1F
100
AcDbEntity
  8
0
  6
Continuous
 62
     7
370
    25
100
AcDbCircle
 10
-230.7021616188
 20
1318.4695845974
 30
0.0
 40
3.000000000000025
100
AcDbArc
 50
30.0
 51
90.0
  0
LINE
  5
4C4
330
1F
100
AcDbEntity
  8
0
  6
Continuous
 62
     7
370
    25
100
AcDbLine
 10
-394.1064178814
 20
1212.3403056656
 30
0.0
 11
-775.7023468894
 21
1157.0743072162
 31
0.0
  0
LINE
  5
4C5
330
1F
100
AcDbEntity
  8
0
  6
Continuous
 62
     7
370
    25
100
AcDbLine
 10
-775.7023468894
 20
1157.0743072162
 30
0.0
 11
-778.3501666064
 21
1159.7221269332
 31
0.0
  0
LINE
  5
4C6
330
1F
100
AcDbEntity
  8
0
  6
Continuous
 62
     7
370
    25
100
AcDbLine
 10
-394.1064178814
 20
1212.3403056656
 30
0.0
 11
-394.5364173516
 21
1215.3093291508
 31
0.0
  0
ARC
  5
4C7
330
1F
100
AcDbEntity
  8
0
  6
Continuous
 62
     7
370
    25
100
AcDbCircle
 10
-391.2397547463
 20
1192.5468157644
 30
0.0
 40
20.00000000000003
100
AcDbArc
 50
84.7631508723
 51
98.240767882
  0
LINE
  5
4C8
330
1F
100
AcDbEntity
  8
0
  6
Continuous
 62
     7
370
    25
100
AcDbLine
 10
-72.101109296
 20
1319.9695845974
 30
0.0
 11
-69.5030330847
 21
1318.4695845974
 31
0.0
  0
ARC
  5
4C9
330
1F
100
AcDbEntity
  8
0
  6
Continuous
 62
     7
370
    25
100
AcDbCircle
 10
-69.5030330847
 20
1318.4695845974
 30
0.0
 40
3.000000000000012
100
AcDbArc
 50
90.0
 51
150.0
  0
LINE
  5
4CA
330
1F
100
AcDbEntity
  8
0
  6
Continuous
 62
     7
370
    25
100
AcDbLine
 10
-744.4980600036
 20
1321.4695845975
 30
0.0
 11
-744.4980600036
 21
1318.4695845975
 31
0.0
  0
LINE
  5
4CB
330
1F
100
AcDbEntity
  8
0
  6
Continuous
 62
     7
370
    25
100
AcDbLine
 10
-744.4980600036
 20
1321.4695845975
 30
0.0
 11
-230.7021616188
 21
1321.4695845974
 31
0.0
  0
ARC
  5
4CC
330
1F
100
AcDbEntity
  8
0
  6
Continuous
 62
     7
370
    25
100
AcDbCircle
 10
-101.8346481593
 20
1274.4695845974
 30
0.0
 40
3.000000000000028
100
AcDbArc
 50
270.0
 51
330.0
  0
LINE
  5
4CD
330
1F
100
AcDbEntity
  8
0
  6
Continuous
 62
     7
370
    25
100
AcDbLine
 10
-99.2365719479
 20
1272.9695845974
 30
0.0
 11
-96.6384957366
 21
1271.4695845974
 31
0.0
  0
LINE
  5
4CE
330
1F
100
AcDbEntity
  8
0
  6
Continuous
 62
     7
370
    25
100
AcDbLine
 10
-101.8346481593
 20
1271.4695845974
 30
0.0
 11
-101.8346481593
 21
1268.4695845974
 31
0.0
  0
LINE
  5
4CF
330
1F
100
AcDbEntity
  8
0
  6
Continuous
 62
     7
370
    25
100
AcDbLine
 10
-228.1040854074
 20
1319.9695845974
 30
0.0
 11
-200.9686227555
 21
1272.9695845974
 31
0.0
  0
LINE
  5
4D0
330
1F
100
AcDbEntity
  8
0
  6
Continuous
 62
     7
370
    25
100
AcDbLine
 10
-200.9686227555
 20
1272.9695845974
 30
0.0
 11
-203.5666989669
 21
1271.4695845974
 31
0.0
  0
LINE
  5
4D1
330
1F
100
AcDbEntity
  8
0
  6
Continuous
 62
     7
370
    25
100
AcDbLine
 10
-198.3705465442
 20
1271.4695845974
 30
0.0
 11
-101.8346481593
 21
1271.4695845974
 31
0.0
  0
LINE
  5
4D2
330
1F
100
AcDbEntity
  8
0
  6
Continuous
 62
     7
370
    25
100
AcDbLine
 10
-198.3705465442
 20
1271.4695845974
 30
0.0
 11
-198.3705465442
 21
1268.4695845974
 31
0.0
  0
LINE
  5
4D3
330
1F
100
AcDbEntity
  8
0
  6
Continuous
 62
     7
370
    25
100
AcDbLine
 10
-99.2365719479
 20
1272.9695845974
 30
0.0
 11
-72.101109296
 21
1319.9695845974
 31
0.0
  0
CIRCLE
  5
4D4
330
1F
100
AcDbEntity
  8
0
  6
Continuous
 62
     7
370
    25
100
AcDbCircle
 10
-55.0976242707
 20
1263.9695845974
 30
0.0
 40
1.75
  0
ARC
  5
4D5
330
1F
100
AcDbEntity
  8
0
  6
Continuous
 62
     7
370
    25
100
AcDbCircle
 10
-198.3705465442
 20
1274.4695845974
 30
0.0
 40
3.000000000000025
100
AcDbArc
 50
210.0
 51
270.0
  0
LINE
  5
4D6
330
1F
100
AcDbEntity
  8
0
  6
Continuous
 62
     7
370
    25
100
AcDbLine
 10
-872.0976242707
 20
1253.4695845975
 30
0.0
 11
-875.0976242707
 21
1256.4695845975
 31
0.0
  0
LINE
  5
4D7
330
1F
100
AcDbEntity
  8
0
  6
Continuous
 62
     7
370
    25
100
AcDbLine
 10
-875.0976242707
 20
1256.4695845975
 30
0.0
 11
-875.0976242707
 21
1268.4695845975
 31
0.0
  0
LINE
  5
4D8
330
1F
100
AcDbEntity
  8
0
  6
Continuous
 62
     7
370
    25
100
AcDbLine
 10
-875.0976242707
 20
1268.4695845975
 30
0.0
 11
-872.0976242707
 21
1268.4695845975
 31
0.0
  0
LINE
  5
4D9
330
1F
100
AcDbEntity
  8
0
  6
Continuous
 62
     7
370
    25
100
AcDbLine
 10
-774.2315988669
 20
1272.9695845975
 30
0.0
 11
-771.6335226556
 21
1271.4695845975
 31
0.0
  0
LINE
  5
4DA
330
1F
100
AcDbEntity
  8
0
  6
Continuous
 62
     7
370
    25
100
AcDbLine
 10
-774.2315988669
 20
1272.9695845975
 30
0.0
 11
-747.096136215
 21
1319.9695845975
 31
0.0
  0
LINE
  5
4DB
330
1F
100
AcDbEntity
  8
0
  6
Continuous
 62
     7
370
    25
100
AcDbLine
 10
-747.096136215
 20
1319.9695845975
 30
0.0
 11
-744.4980600036
 21
1318.4695845975
 31
0.0
  0
ARC
  5
4DC
330
1F
100
AcDbEntity
  8
0
  6
Continuous
 62
     7
370
    25
100
AcDbCircle
 10
-776.8296750783
 20
1274.4695845975
 30
0.0
 40
2.999999999999951
100
AcDbArc
 50
270.0
 51
330.0
  0
LINE
  5
4DD
330
1F
100
AcDbEntity
  8
0
  6
Continuous
 62
     7
370
    25
100
AcDbLine
 10
-776.8296750783
 20
1271.4695845975
 30
0.0
 11
-776.8296750783
 21
1268.4695845975
 31
0.0
  0
LINE
  5
4DE
330
1F
100
AcDbEntity
  8
0
  6
Continuous
 62
     7
370
    25
100
AcDbLine
 10
-872.0976242707
 20
1271.4695845975
 30
0.0
 11
-776.8296750783
 21
1271.4695845975
 31
0.0
  0
LINE
  5
4DF
330
1F
100
AcDbEntity
  8
0
  6
Continuous
 62
     7
370
    25
100
AcDbLine
 10
-872.0976242707
 20
1271.4695845975
 30
0.0
 11
-872.0976242707
 21
1268.4695845975
 31
0.0
  0
ARC
  5
4E0
330
1F
100
AcDbEntity
  8
0
  6
Continuous
 62
     7
370
    25
100
AcDbCircle
 10
-744.4980600036
 20
1318.4695845975
 30
0.0
 40
3.000000000000227
100
AcDbArc
 50
90.0
 51
150.0
  0
ARC
  5
4E1
330
1F
100
AcDbEntity
  8
0
  6
Continuous
 62
     7
370
    25
100
AcDbCircle
 10
-872.0976242707
 20
1268.4695845975
 30
0.0
 40
3.0
100
AcDbArc
 50
90.0
 51
180.0
  0
LINE
  5
4E2
330
1F
100
AcDbEntity
  8
0
  6
Continuous
 62
     7
370
    25
100
AcDbLine
 10
-890.0976242707
 20
726.4695845974
 30
0.0
 11
-875.0976242707
 21
726.4695845974
 31
0.0
  0
LINE
  5
4E3
330
1F
100
AcDbEntity
  8
0
  6
Continuous
 62
     7
370
    25
100
AcDbLine
 10
-890.0976242707
 20
666.4695845974
 30
0.0
 11
-890.0976242707
 21
726.4695845974
 31
0.0
  0
LINE
  5
4E4
330
1F
100
AcDbEntity
  8
0
  6
Continuous
 62
     7
370
    25
100
AcDbLine
 10
-875.0976242707
 20
666.4695845974
 30
0.0
 11
-890.0976242707
 21
666.4695845974
 31
0.0
  0
LINE
  5
4E5
330
1F
100
AcDbEntity
  8
0
  6
Continuous
 62
     7
370
    25
100
AcDbLine
 10
-875.0976242707
 20
726.4695845974
 30
0.0
 11
-875.0976242707
 21
666.4695845974
 31
0.0
  0
LINE
  5
4E6
330
1F
100
AcDbEntity
  8
0
  6
Continuous
 62
     7
370
    25
100
AcDbLine
 10
-890.0976242707
 20
906.4695845974
 30
0.0
 11
-875.0976242707
 21
906.4695845974
 31
0.0
  0
LINE
  5
4E7
330
1F
100
AcDbEntity
  8
0
  6
Continuous
 62
     7
370
    25
100
AcDbLine
 10
-890.0976242707
 20
846.4695845974
 30
0.0
 11
-890.0976242707
 21
906.4695845974
 31
0.0
  0
LINE
  5
4E8
330
1F
100
AcDbEntity
  8
0
  6
Continuous
 62
     7
370
    25
100
AcDbLine
 10
-875.0976242707
 20
846.4695845974
 30
0.0
 11
-890.0976242707
 21
846.4695845974
 31
0.0
  0
LINE
  5
4E9
330
1F
100
AcDbEntity
  8
0
  6
Continuous
 62
     7
370
    25
100
AcDbLine
 10
-875.0976242707
 20
906.4695845974
 30
0.0
 11
-875.0976242707
 21
846.4695845974
 31
0.0
  0
LINE
  5
4EA
330
1F
100
AcDbEntity
  8
0
  6
Continuous
 62
     7
370
    25
100
AcDbLine
 10
-890.0976242707
 20
1086.4695845974
 30
0.0
 11
-875.0976242707
 21
1086.4695845974
 31
0.0
  0
LINE
  5
4EB
330
1F
100
AcDbEntity
  8
0
  6
Continuous
 62
     7
370
    25
100
AcDbLine
 10
-890.0976242707
 20
1026.4695845974
 30
0.0
 11
-890.0976242707
 21
1086.4695845974
 31
0.0
  0
LINE
  5
4EC
330
1F
100
AcDbEntity
  8
0
  6
Continuous
 62
     7
370
    25
100
AcDbLine
 10
-875.0976242707
 20
1026.4695845974
 30
0.0
 11
-890.0976242707
 21
1026.4695845974
 31
0.0
  0
LINE
  5
4ED
330
1F
100
AcDbEntity
  8
0
  6
Continuous
 62
     7
370
    25
100
AcDbLine
 10
-875.0976242707
 20
1086.4695845974
 30
0.0
 11
-875.0976242707
 21
1026.4695845974
 31
0.0
  0
LINE
  5
4EE
330
1F
100
AcDbEntity
  8
0
  6
Continuous
 62
     7
370
    25
100
AcDbLine
 10
-890.0976242707
 20
376.4695845974
 30
0.0
 11
-875.0976242707
 21
376.4695845974
 31
0.0
  0
LINE
  5
4EF
330
1F
100
AcDbEntity
  8
0
  6
Continuous
 62
     7
370
    25
100
AcDbLine
 10
-890.0976242707
 20
316.4695845974
 30
0.0
 11
-890.0976242707
 21
376.4695845974
 31
0.0
  0
LINE
  5
4F0
330
1F
100
AcDbEntity
  8
0
  6
Continuous
 62
     7
370
    25
100
AcDbLine
 10
-875.0976242707
 20
316.4695845974
 30
0.0
 11
-890.0976242707
 21
316.4695845974
 31
0.0
  0
LINE
  5
4F1
330
1F
100
AcDbEntity
  8
0
  6
Continuous
 62
     7
370
    25
100
AcDbLine
 10
-875.0976242707
 20
376.4695845974
 30
0.0
 11
-875.0976242707
 21
316.4695845974
 31
0.0
  0
LINE
  5
4F2
330
1F
100
AcDbEntity
  8
0
  6
Continuous
 62
     7
370
    25
100
AcDbLine
 10
-890.0976242707
 20
196.4695845974
 30
0.0
 11
-875.0976242707
 21
196.4695845974
 31
0.0
  0
LINE
  5
4F3
330
1F
100
AcDbEntity
  8
0
  6
Continuous
 62
     7
370
    25
100
AcDbLine
 10
-890.0976242707
 20
136.4695845974
 30
0.0
 11
-890.0976242707
 21
196.4695845974
 31
0.0
  0
LINE
  5
4F4
330
1F
100
AcDbEntity
  8
0
  6
Continuous
 62
     7
370
    25
100
AcDbLine
 10
-875.0976242707
 20
136.4695845974
 30
0.0
 11
-890.0976242707
 21
136.4695845974
 31
0.0
  0
LINE
  5
4F5
330
1F
100
AcDbEntity
  8
0
  6
Continuous
 62
     7
370
    25
100
AcDbLine
 10
-875.0976242707
 20
196.4695845974
 30
0.0
 11
-875.0976242707
 21
136.4695845974
 31
0.0
  0
LINE
  5
4F6
330
1F
100
AcDbEntity
  8
0
  6
Continuous
 62
     7
370
    25
100
AcDbLine
 10
-890.0976242707
 20
16.4695845974
 30
0.0
 11
-875.0976242707
 21
16.4695845974
 31
0.0
  0
LINE
  5
4F7
330
1F
100
AcDbEntity
  8
0
  6
Continuous
 62
     7
370
    25
100
AcDbLine
 10
-890.0976242707
 20
-43.5304154026
 30
0.0
 11
-890.0976242707
 21
16.4695845974
 31
0.0
  0
LINE
  5
4F8
330
1F
100
AcDbEntity
  8
0
  6
Continuous
 62
     7
370
    25
100
AcDbLine
 10
-875.0976242707
 20
-43.5304154026
 30
0.0
 11
-890.0976242707
 21
-43.5304154026
 31
0.0
  0
LINE
  5
4F9
330
1F
100
AcDbEntity
  8
0
  6
Continuous
 62
     7
370
    25
100
AcDbLine
 10
-875.0976242707
 20
16.4695845974
 30
0.0
 11
-875.0976242707
 21
-43.5304154026
 31
0.0
  0
LINE
  5
4FA
330
1F
100
AcDbEntity
  8
0
  6
Continuous
 62
     7
370
    25
100
AcDbLine
 10
-890.0976242707
 20
-333.5304154026
 30
0.0
 11
-875.0976242707
 21
-333.5304154026
 31
0.0
  0
LINE
  5
4FB
330
1F
100
AcDbEntity
  8
0
  6
Continuous
 62
     7
370
    25
100
AcDbLine
 10
-890.0976242707
 20
-393.5304154026
 30
0.0
 11
-890.0976242707
 21
-333.5304154026
 31
0.0
  0
LINE
  5
4FC
330
1F
100
AcDbEntity
  8
0
  6
Continuous
 62
     7
370
    25
100
AcDbLine
 10
-875.0976242707
 20
-393.5304154026
 30
0.0
 11
-890.0976242707
 21
-393.5304154026
 31
0.0
  0
LINE
  5
4FD
330
1F
100
AcDbEntity
  8
0
  6
Continuous
 62
     7
370
    25
100
AcDbLine
 10
-875.0976242707
 20
-333.5304154026
 30
0.0
 11
-875.0976242707
 21
-393.5304154026
 31
0.0
  0
LINE
  5
4FE
330
1F
100
AcDbEntity
  8
0
  6
Continuous
 62
     7
370
    25
100
AcDbLine
 10
-890.0976242707
 20
-513.5304154026
 30
0.0
 11
-875.0976242707
 21
-513.5304154026
 31
0.0
  0
LINE
  5
4FF
330
1F
100
AcDbEntity
  8
0
  6
Continuous
 62
     7
370
    25
100
AcDbLine
 10
-890.0976242707
 20
-573.5304154026
 30
0.0
 11
-890.0976242707
 21
-513.5304154026
 31
0.0
  0
LINE
  5
500
330
1F
100
AcDbEntity
  8
0
  6
Continuous
 62
     7
370
    25
100
AcDbLine
 10
-875.0976242707
 20
-573.5304154026
 30
0.0
 11
-890.0976242707
 21
-573.5304154026
 31
0.0
  0
LINE
  5
501
330
1F
100
AcDbEntity
  8
0
  6
Continuous
 62
     7
370
    25
100
AcDbLine
 10
-875.0976242707
 20
-513.5304154026
 30
0.0
 11
-875.0976242707
 21
-573.5304154026
 31
0.0
  0
LINE
  5
502
330
1F
100
AcDbEntity
  8
0
  6
Continuous
 62
     7
370
    25
100
AcDbLine
 10
-875.0976242707
 20
-693.5304154026
 30
0.0
 11
-875.0976242707
 21
-753.5304154026
 31
0.0
  0
LINE
  5
503
330
1F
100
AcDbEntity
  8
0
  6
Continuous
 62
     7
370
    25
100
AcDbLine
 10
-890.0976242707
 20
-693.5304154026
 30
0.0
 11
-875.0976242707
 21
-693.5304154026
 31
0.0
  0
LINE
  5
504
330
1F
100
AcDbEntity
  8
0
  6
Continuous
 62
     7
370
    25
100
AcDbLine
 10
-890.0976242707
 20
-753.5304154026
 30
0.0
 11
-890.0976242707
 21
-693.5304154026
 31
0.0
  0
LINE
  5
505
330
1F
100
AcDbEntity
  8
0
  6
Continuous
 62
     7
370
    25
100
AcDbLine
 10
-890.0976242707
 20
-753.5304154026
 30
0.0
 11
-875.0976242707
 21
-753.5304154026
 31
0.0
  0
LINE
  5
506
330
1F
100
AcDbEntity
  8
0
  6
Continuous
 62
     7
370
    25
100
AcDbLine
 10
-723.3007979844
 20
-438.1209039752
 30
0.0
 11
-834.0788512146
 21
770.5124348514
 31
0.0
  0
ARC
  5
507
330
1F
100
AcDbEntity
  8
0
  6
Continuous
 62
     7
370
    25
100
AcDbCircle
 10
-740.2298383412
 20
-439.6725458781
 30
0.0
 40
17.00000000000002
100
AcDbArc
 50
351.759232118
 51
5.2368491277
  0
LINE
  5
508
330
1F
100
AcDbEntity
  8
0
  6
Continuous
 62
     7
370
    25
100
AcDbLine
 10
-779.2470160013
 20
-827.6798071332
 30
0.0
 11
-723.4053719252
 21
-442.109209543
 31
0.0
  0
LINE
  5
509
330
1F
100
AcDbEntity
  8
0
  6
Continuous
 62
     7
370
    25
100
AcDbLine
 10
-887.0976242707
 20
-920.5304154026
 30
0.0
 11
-872.0976242707
 21
-920.5304154026
 31
0.0
  0
LINE
  5
50A
330
1F
100
AcDbEntity
  8
0
  6
Continuous
 62
     7
370
    25
100
AcDbLine
 10
-887.0976242707
 20
-825.2624662101
 30
0.0
 11
-887.0976242707
 21
-920.5304154026
 31
0.0
  0
ARC
  5
50B
330
1F
100
AcDbEntity
  8
0
  6
Continuous
 62
     7
370
    25
100
AcDbCircle
 10
-893.0976242707
 20
-825.2624662101
 30
0.0
 40
6.000000000000227
100
AcDbArc
 50
0.0
 51
60.0
  0
LINE
  5
50C
330
1F
100
AcDbEntity
  8
0
  6
Continuous
 62
     7
370
    25
100
AcDbLine
 10
-937.0976242707
 20
-792.9308511355
 30
0.0
 11
-890.0976242707
 21
-820.0663137874
 31
0.0
  0
LINE
  5
50D
330
1F
100
AcDbEntity
  8
0
  6
Continuous
 62
     7
370
    25
100
AcDbLine
 10
-937.0976242707
 20
-279.1349527506
 30
0.0
 11
-937.0976242707
 21
-792.9308511355
 31
0.0
  0
LINE
  5
50E
330
1F
100
AcDbEntity
  8
0
  6
Continuous
 62
     7
370
    25
100
AcDbLine
 10
-890.0976242707
 20
-251.9994900987
 30
0.0
 11
-937.0976242707
 21
-279.1349527506
 31
0.0
  0
ARC
  5
50F
330
1F
100
AcDbEntity
  8
0
  6
Continuous
 62
     7
370
    25
100
AcDbCircle
 10
-893.0976242707
 20
-246.803337676
 30
0.0
 40
6.000000000000082
100
AcDbArc
 50
300.0
 51
0.0
  0
LINE
  5
510
330
1F
100
AcDbEntity
  8
0
  6
Continuous
 62
     7
370
    25
100
AcDbLine
 10
-887.0976242707
 20
-150.2674392912
 30
0.0
 11
-887.0976242707
 21
-246.803337676
 31
0.0
  0
ARC
  5
511
330
1F
100
AcDbEntity
  8
0
  6
Continuous
 62
     7
370
    25
100
AcDbCircle
 10
-893.0976242707
 20
-150.2674392912
 30
0.0
 40
6.000000000000032
100
AcDbArc
 50
0.0
 51
60.0
  0
LINE
  5
512
330
1F
100
AcDbEntity
  8
0
  6
Continuous
 62
     7
370
    25
100
AcDbLine
 10
-937.0976242707
 20
-117.9358242165
 30
0.0
 11
-890.0976242707
 21
-145.0712868685
 31
0.0
  0
LINE
  5
513
330
1F
100
AcDbEntity
  8
0
  6
Continuous
 62
     7
370
    25
100
AcDbLine
 10
-937.0976242707
 20
450.8749934114
 30
0.0
 11
-937.0976242707
 21
-117.9358242165
 31
0.0
  0
LINE
  5
514
330
1F
100
AcDbEntity
  8
0
  6
Continuous
 62
     7
370
    25
100
AcDbLine
 10
-890.0976242707
 20
478.0104560633
 30
0.0
 11
-937.0976242707
 21
450.8749934114
 31
0.0
  0
ARC
  5
515
330
1F
100
AcDbEntity
  8
0
  6
Continuous
 62
     7
370
    25
100
AcDbCircle
 10
-893.0976242707
 20
483.2066084861
 30
0.0
 40
6.0
100
AcDbArc
 50
300.0
 51
0.0
  0
LINE
  5
516
330
1F
100
AcDbEntity
  8
0
  6
Continuous
 62
     7
370
    25
100
AcDbLine
 10
-887.0976242707
 20
579.7425068709
 30
0.0
 11
-887.0976242707
 21
483.2066084861
 31
0.0
  0
ARC
  5
517
330
1F
100
AcDbEntity
  8
0
  6
Continuous
 62
     7
370
    25
100
AcDbCircle
 10
-893.0976242707
 20
579.7425068709
 30
0.0
 40
6.000000000000057
100
AcDbArc
 50
0.0
 51
60.0
  0
LINE
  5
518
330
1F
100
AcDbEntity
  8
0
  6
Continuous
 62
     7
370
    25
100
AcDbLine
 10
-937.0976242707
 20
612.0741219455
 30
0.0
 11
-890.0976242707
 21
584.9386592936
 31
0.0
  0
LINE
  5
519
330
1F
100
AcDbEntity
  8
0
  6
Continuous
 62
     7
370
    25
100
AcDbLine
 10
-937.0976242707
 20
1125.8700203304
 30
0.0
 11
-937.0976242707
 21
612.0741219455
 31
0.0
  0
LINE
  5
51A
330
1F
100
AcDbEntity
  8
0
  6
Continuous
 62
     7
370
    25
100
AcDbLine
 10
-890.0976242707
 20
1153.0054829823
 30
0.0
 11
-937.0976242707
 21
1125.8700203304
 31
0.0
  0
ARC
  5
51B
330
1F
100
AcDbEntity
  8
0
  6
Continuous
 62
     7
370
    25
100
AcDbCircle
 10
-893.0976242707
 20
1158.201635405
 30
0.0
 40
6.000000000000353
100
AcDbArc
 50
300.0
 51
0.0
  0
LINE
  5
51C
330
1F
100
AcDbEntity
  8
0
  6
Continuous
 62
     7
370
    25
100
AcDbLine
 10
-887.0976242707
 20
1253.4695845974
 30
0.0
 11
-887.0976242707
 21
1158.201635405
 31
0.0
  0
LINE
  5
51D
330
1F
100
AcDbEntity
  8
0
  6
Continuous
 62
     7
370
    25
100
AcDbLine
 10
-872.0976242707
 20
1253.4695845974
 30
0.0
 11
-887.0976242707
 21
1253.4695845974
 31
0.0
  0
LINE
  5
51E
330
1F
100
AcDbEntity
  8
0
  6
Continuous
 62
     7
370
    25
100
AcDbLine
 10
-833.9373688241
 20
775.9083776784
 30
0.0
 11
-778.3501666065
 21
1159.7221269332
 31
0.0
  0
ARC
  5
51F
330
1F
100
AcDbEntity
  8
0
  6
Continuous
 62
     7
370
    25
100
AcDbCircle
 10
-811.1748554377
 20
772.611715073
 30
0.0
 40
23.00000000000006
100
AcDbArc
 50
171.759232118
 51
185.2368491277
  0
CIRCLE
  5
520
330
1F
100
AcDbEntity
  8
0
  6
Continuous
 62
     7
370
    25
100
AcDbCircle
 10
-882.5976242707
 20
-103.5304154026
 30
0.0
 40
3.249999999999659
  0
CIRCLE
  5
521
330
1F
100
AcDbEntity
  8
0
  6
Continuous
 62
     7
370
    25
100
AcDbCircle
 10
-882.5976242707
 20
436.4695845974
 30
0.0
 40
3.249999999999659
  0
LINE
  5
522
330
1F
100
AcDbEntity
  8
0
  6
Continuous
 62
     7
370
    25
100
AcDbLine
 10
-887.0976242707
 20
1158.201635405
 30
0.0
 11
-890.0976242707
 21
1158.201635405
 31
0.0
  0
LINE
  5
523
330
1F
100
AcDbEntity
  8
0
  6
Continuous
 62
     7
370
    25
100
AcDbLine
 10
-890.0976242707
 20
1158.201635405
 30
0.0
 11
-890.0976242707
 21
1253.4695845974
 31
0.0
  0
LINE
  5
524
330
1F
100
AcDbEntity
  8
0
  6
Continuous
 62
     7
370
    25
100
AcDbLine
 10
-887.0976242707
 20
1253.4695845974
 30
0.0
 11
-890.0976242707
 21
1253.4695845974
 31
0.0
  0
ARC
  5
525
330
1F
100
AcDbEntity
  8
0
  6
Continuous
 62
     7
370
    25
100
AcDbCircle
 10
-887.0976242707
 20
1253.4695845974
 30
0.0
 40
3.000000000000114
100
AcDbArc
 50
90.0
 51
180.0
  0
LINE
  5
526
330
1F
100
AcDbEntity
  8
0
  6
Continuous
 62
     7
370
    25
100
AcDbLine
 10
-887.0976242707
 20
1253.4695845974
 30
0.0
 11
-887.0976242707
 21
1256.4695845974
 31
0.0
  0
LINE
  5
527
330
1F
100
AcDbEntity
  8
0
  6
Continuous
 62
     7
370
    25
100
AcDbLine
 10
-937.0976242707
 20
1125.8700203304
 30
0.0
 11
-938.5976242707
 21
1128.4680965417
 31
0.0
  0
LINE
  5
528
330
1F
100
AcDbEntity
  8
0
  6
Continuous
 62
     7
370
    25
100
AcDbLine
 10
-938.5976242707
 20
1128.4680965417
 30
0.0
 11
-891.5976242707
 21
1155.6035591937
 31
0.0
  0
LINE
  5
529
330
1F
100
AcDbEntity
  8
0
  6
Continuous
 62
     7
370
    25
100
AcDbLine
 10
-890.0976242707
 20
1153.0054829823
 30
0.0
 11
-891.5976242707
 21
1155.6035591937
 31
0.0
  0
LINE
  5
52A
330
1F
100
AcDbEntity
  8
0
  6
Continuous
 62
     7
370
    25
100
AcDbLine
 10
-887.0976242707
 20
1256.4695845974
 30
0.0
 11
-875.0976242707
 21
1256.4695845974
 31
0.0
  0
LINE
  5
52B
330
1F
100
AcDbEntity
  8
0
  6
Continuous
 62
     7
370
    25
100
AcDbLine
 10
-875.0976242707
 20
1256.4695845974
 30
0.0
 11
-872.0976242707
 21
1253.4695845974
 31
0.0
  0
LINE
  5
52C
330
1F
100
AcDbEntity
  8
0
  6
Continuous
 62
     7
370
    25
100
AcDbLine
 10
-775.7023468894
 20
1157.0743072162
 30
0.0
 11
-830.9683453389
 21
775.4783782081
 31
0.0
  0
LINE
  5
52D
330
1F
100
AcDbEntity
  8
0
  6
Continuous
 62
     7
370
    25
100
AcDbLine
 10
-833.9373688241
 20
775.9083776784
 30
0.0
 11
-830.9683453389
 21
775.4783782081
 31
0.0
  0
LINE
  5
52E
330
1F
100
AcDbEntity
  8
0
  6
Continuous
 62
     7
370
    25
100
AcDbLine
 10
-778.3501666065
 20
1159.7221269332
 30
0.0
 11
-775.7023468894
 21
1157.0743072162
 31
0.0
  0
ARC
  5
52F
330
1F
100
AcDbEntity
  8
0
  6
Continuous
 62
     7
370
    25
100
AcDbCircle
 10
-893.0976242707
 20
1158.201635405
 30
0.0
 40
2.999999999999936
100
AcDbArc
 50
300.0
 51
0.0
  0
LINE
  5
530
330
1F
100
AcDbEntity
  8
0
  6
Continuous
 62
     7
370
    25
100
AcDbLine
 10
-937.0976242707
 20
1125.8700203304
 30
0.0
 11
-940.0976242707
 21
1125.8700203304
 31
0.0
  0
ARC
  5
531
330
1F
100
AcDbEntity
  8
0
  6
Continuous
 62
     7
370
    25
100
AcDbCircle
 10
-937.0976242707
 20
1125.8700203304
 30
0.0
 40
3.000000000000114
100
AcDbArc
 50
120.0
 51
180.0
  0
LINE
  5
532
330
1F
100
AcDbEntity
  8
0
  6
Continuous
 62
     7
370
    25
100
AcDbLine
 10
-937.0976242707
 20
612.0741219455
 30
0.0
 11
-940.0976242707
 21
612.0741219455
 31
0.0
  0
LINE
  5
533
330
1F
100
AcDbEntity
  8
0
  6
Continuous
 62
     7
370
    25
100
AcDbLine
 10
-940.0976242707
 20
612.0741219455
 30
0.0
 11
-940.0976242707
 21
1125.8700203304
 31
0.0
  0
LINE
  5
534
330
1F
100
AcDbEntity
  8
0
  6
Continuous
 62
     7
370
    25
100
AcDbLine
 10
-834.0788512146
 20
770.5124348514
 30
0.0
 11
-831.0913735046
 21
770.7862540108
 31
0.0
  0
LINE
  5
535
330
1F
100
AcDbEntity
  8
0
  6
Continuous
 62
     7
370
    25
100
AcDbLine
 10
-831.0913735046
 20
770.7862540108
 30
0.0
 11
-720.3133202743
 21
-437.8470848159
 31
0.0
  0
LINE
  5
536
330
1F
100
AcDbEntity
  8
0
  6
Continuous
 62
     7
370
    25
100
AcDbLine
 10
-723.3007979844
 20
-438.1209039752
 30
0.0
 11
-720.3133202743
 21
-437.8470848159
 31
0.0
  0
ARC
  5
537
330
1F
100
AcDbEntity
  8
0
  6
Continuous
 62
     7
370
    25
100
AcDbCircle
 10
-811.1748554377
 20
772.611715073
 30
0.0
 40
19.99999999999999
100
AcDbArc
 50
171.759232118
 51
185.2368491277
  0
LINE
  5
538
330
1F
100
AcDbEntity
  8
0
  6
Continuous
 62
     7
370
    25
100
AcDbLine
 10
-937.0976242707
 20
612.0741219455
 30
0.0
 11
-938.5976242707
 21
609.4760457342
 31
0.0
  0
ARC
  5
539
330
1F
100
AcDbEntity
  8
0
  6
Continuous
 62
     7
370
    25
100
AcDbCircle
 10
-937.0976242707
 20
612.0741219455
 30
0.0
 40
2.999999999999992
100
AcDbArc
 50
180.0
 51
240.0
  0
LINE
  5
53A
330
1F
100
AcDbEntity
  8
0
  6
Continuous
 62
     7
370
    25
100
AcDbLine
 10
-937.0976242707
 20
450.8749934114
 30
0.0
 11
-938.5976242707
 21
453.4730696228
 31
0.0
  0
LINE
  5
53B
330
1F
100
AcDbEntity
  8
0
  6
Continuous
 62
     7
370
    25
100
AcDbLine
 10
-938.5976242707
 20
453.4730696228
 30
0.0
 11
-891.5976242707
 21
480.6085322747
 31
0.0
  0
LINE
  5
53C
330
1F
100
AcDbEntity
  8
0
  6
Continuous
 62
     7
370
    25
100
AcDbLine
 10
-890.0976242707
 20
478.0104560633
 30
0.0
 11
-891.5976242707
 21
480.6085322747
 31
0.0
  0
LINE
  5
53D
330
1F
100
AcDbEntity
  8
0
  6
Continuous
 62
     7
370
    25
100
AcDbLine
 10
-937.0976242707
 20
-117.9358242165
 30
0.0
 11
-940.0976242707
 21
-117.9358242165
 31
0.0
  0
LINE
  5
53E
330
1F
100
AcDbEntity
  8
0
  6
Continuous
 62
     7
370
    25
100
AcDbLine
 10
-940.0976242707
 20
-117.9358242165
 30
0.0
 11
-940.0976242707
 21
450.8749934114
 31
0.0
  0
LINE
  5
53F
330
1F
100
AcDbEntity
  8
0
  6
Continuous
 62
     7
370
    25
100
AcDbLine
 10
-937.0976242707
 20
450.8749934114
 30
0.0
 11
-940.0976242707
 21
450.8749934114
 31
0.0
  0
ARC
  5
540
330
1F
100
AcDbEntity
  8
0
  6
Continuous
 62
     7
370
    25
100
AcDbCircle
 10
-893.0976242707
 20
483.2066084861
 30
0.0
 40
2.999999999999886
100
AcDbArc
 50
300.0
 51
0.0
  0
LINE
  5
541
330
1F
100
AcDbEntity
  8
0
  6
Continuous
 62
     7
370
    25
100
AcDbLine
 10
-887.0976242707
 20
483.2066084861
 30
0.0
 11
-890.0976242707
 21
483.2066084861
 31
0.0
  0
LINE
  5
542
330
1F
100
AcDbEntity
  8
0
  6
Continuous
 62
     7
370
    25
100
AcDbLine
 10
-890.0976242707
 20
483.2066084861
 30
0.0
 11
-890.0976242707
 21
579.7425068709
 31
0.0
  0
LINE
  5
543
330
1F
100
AcDbEntity
  8
0
  6
Continuous
 62
     7
370
    25
100
AcDbLine
 10
-887.0976242707
 20
579.7425068709
 30
0.0
 11
-890.0976242707
 21
579.7425068709
 31
0.0
  0
CIRCLE
  5
544
330
1F
100
AcDbEntity
  8
0
  6
Continuous
 62
     7
370
    25
100
AcDbCircle
 10
-882.5976242707
 20
436.4695845974
 30
0.0
 40
1.749999999999886
  0
LINE
  5
545
330
1F
100
AcDbEntity
  8
0
  6
Continuous
 62
     7
370
    25
100
AcDbLine
 10
-890.0976242707
 20
584.9386592936
 30
0.0
 11
-891.5976242707
 21
582.3405830823
 31
0.0
  0
LINE
  5
546
330
1F
100
AcDbEntity
  8
0
  6
Continuous
 62
     7
370
    25
100
AcDbLine
 10
-891.5976242707
 20
582.3405830823
 30
0.0
 11
-938.5976242707
 21
609.4760457342
 31
0.0
  0
ARC
  5
547
330
1F
100
AcDbEntity
  8
0
  6
Continuous
 62
     7
370
    25
100
AcDbCircle
 10
-937.0976242707
 20
450.8749934114
 30
0.0
 40
2.999999999999943
100
AcDbArc
 50
120.0
 51
180.0
  0
ARC
  5
548
330
1F
100
AcDbEntity
  8
0
  6
Continuous
 62
     7
370
    25
100
AcDbCircle
 10
-893.0976242707
 20
579.7425068709
 30
0.0
 40
2.999999999999951
100
AcDbArc
 50
0.0
 51
60.0
  0
LINE
  5
549
330
1F
100
AcDbEntity
  8
0
  6
Continuous
 62
     7
370
    25
100
AcDbLine
 10
-937.0976242707
 20
-792.9308511355
 30
0.0
 11
-940.0976242707
 21
-792.9308511355
 31
0.0
  0
LINE
  5
54A
330
1F
100
AcDbEntity
  8
0
  6
Continuous
 62
     7
370
    25
100
AcDbLine
 10
-940.0976242707
 20
-792.9308511355
 30
0.0
 11
-940.0976242707
 21
-279.1349527506
 31
0.0
  0
LINE
  5
54B
330
1F
100
AcDbEntity
  8
0
  6
Continuous
 62
     7
370
    25
100
AcDbLine
 10
-937.0976242707
 20
-279.1349527506
 30
0.0
 11
-940.0976242707
 21
-279.1349527506
 31
0.0
  0
LINE
  5
54C
330
1F
100
AcDbEntity
  8
0
  6
Continuous
 62
     7
370
    25
100
AcDbLine
 10
-890.0976242707
 20
-145.0712868685
 30
0.0
 11
-891.5976242707
 21
-147.6693630798
 31
0.0
  0
LINE
  5
54D
330
1F
100
AcDbEntity
  8
0
  6
Continuous
 62
     7
370
    25
100
AcDbLine
 10
-891.5976242707
 20
-147.6693630798
 30
0.0
 11
-938.5976242707
 21
-120.5339004279
 31
0.0
  0
LINE
  5
54E
330
1F
100
AcDbEntity
  8
0
  6
Continuous
 62
     7
370
    25
100
AcDbLine
 10
-937.0976242707
 20
-117.9358242165
 30
0.0
 11
-938.5976242707
 21
-120.5339004279
 31
0.0
  0
ARC
  5
54F
330
1F
100
AcDbEntity
  8
0
  6
Continuous
 62
     7
370
    25
100
AcDbCircle
 10
-937.0976242707
 20
-279.1349527506
 30
0.0
 40
3.000000000000057
100
AcDbArc
 50
120.0
 51
180.0
  0
LINE
  5
550
330
1F
100
AcDbEntity
  8
0
  6
Continuous
 62
     7
370
    25
100
AcDbLine
 10
-937.0976242707
 20
-279.1349527506
 30
0.0
 11
-938.5976242707
 21
-276.5368765393
 31
0.0
  0
ARC
  5
551
330
1F
100
AcDbEntity
  8
0
  6
Continuous
 62
     7
370
    25
100
AcDbCircle
 10
-937.0976242707
 20
-117.9358242165
 30
0.0
 40
3.000000000000057
100
AcDbArc
 50
180.0
 51
240.0
  0
CIRCLE
  5
552
330
1F
100
AcDbEntity
  8
0
  6
Continuous
 62
     7
370
    25
100
AcDbCircle
 10
-882.5976242707
 20
-103.5304154026
 30
0.0
 40
1.749999999999886
  0
LINE
  5
553
330
1F
100
AcDbEntity
  8
0
  6
Continuous
 62
     7
370
    25
100
AcDbLine
 10
-887.0976242707
 20
-246.803337676
 30
0.0
 11
-890.0976242707
 21
-246.803337676
 31
0.0
  0
LINE
  5
554
330
1F
100
AcDbEntity
  8
0
  6
Continuous
 62
     7
370
    25
100
AcDbLine
 10
-890.0976242707
 20
-246.803337676
 30
0.0
 11
-890.0976242707
 21
-150.2674392912
 31
0.0
  0
LINE
  5
555
330
1F
100
AcDbEntity
  8
0
  6
Continuous
 62
     7
370
    25
100
AcDbLine
 10
-887.0976242707
 20
-150.2674392912
 30
0.0
 11
-890.0976242707
 21
-150.2674392912
 31
0.0
  0
ARC
  5
556
330
1F
100
AcDbEntity
  8
0
  6
Continuous
 62
     7
370
    25
100
AcDbCircle
 10
-893.0976242707
 20
-150.2674392912
 30
0.0
 40
3.000000000000114
100
AcDbArc
 50
0.0
 51
60.0
  0
LINE
  5
557
330
1F
100
AcDbEntity
  8
0
  6
Continuous
 62
     7
370
    25
100
AcDbLine
 10
-890.0976242707
 20
-251.9994900987
 30
0.0
 11
-891.5976242707
 21
-249.4014138874
 31
0.0
  0
ARC
  5
558
330
1F
100
AcDbEntity
  8
0
  6
Continuous
 62
     7
370
    25
100
AcDbCircle
 10
-893.0976242707
 20
-246.803337676
 30
0.0
 40
3.000000000000114
100
AcDbArc
 50
300.0
 51
0.0
  0
LINE
  5
559
330
1F
100
AcDbEntity
  8
0
  6
Continuous
 62
     7
370
    25
100
AcDbLine
 10
-938.5976242707
 20
-276.5368765393
 30
0.0
 11
-891.5976242707
 21
-249.4014138874
 31
0.0
  0
LINE
  5
55A
330
1F
100
AcDbEntity
  8
0
  6
Continuous
 62
     7
370
    25
100
AcDbLine
 10
-723.4053719252
 20
-442.109209543
 30
0.0
 11
-720.43634844
 21
-442.5392090132
 31
0.0
  0
LINE
  5
55B
330
1F
100
AcDbEntity
  8
0
  6
Continuous
 62
     7
370
    25
100
AcDbLine
 10
-720.43634844
 20
-442.5392090132
 30
0.0
 11
-775.7023468894
 21
-824.1351380213
 31
0.0
  0
LINE
  5
55C
330
1F
100
AcDbEntity
  8
0
  6
Continuous
 62
     7
370
    25
100
AcDbLine
 10
-775.7023468894
 20
-824.1351380213
 30
0.0
 11
-779.2470160013
 21
-827.6798071332
 31
0.0
  0
ARC
  5
55D
330
1F
100
AcDbEntity
  8
0
  6
Continuous
 62
     7
370
    25
100
AcDbCircle
 10
-740.2298383412
 20
-439.6725458781
 30
0.0
 40
20.0000000000001
100
AcDbArc
 50
351.759232118
 51
5.2368491277
  0
LINE
  5
55E
330
1F
100
AcDbEntity
  8
0
  6
Continuous
 62
     7
370
    25
100
AcDbLine
 10
-890.0976242707
 20
-820.0663137874
 30
0.0
 11
-891.5976242707
 21
-822.6643899988
 31
0.0
  0
LINE
  5
55F
330
1F
100
AcDbEntity
  8
0
  6
Continuous
 62
     7
370
    25
100
AcDbLine
 10
-891.5976242707
 20
-822.6643899988
 30
0.0
 11
-938.5976242707
 21
-795.5289273469
 31
0.0
  0
LINE
  5
560
330
1F
100
AcDbEntity
  8
0
  6
Continuous
 62
     7
370
    25
100
AcDbLine
 10
-937.0976242707
 20
-792.9308511355
 30
0.0
 11
-938.5976242707
 21
-795.5289273469
 31
0.0
  0
LINE
  5
561
330
1F
100
AcDbEntity
  8
0
  6
Continuous
 62
     7
370
    25
100
AcDbLine
 10
-887.0976242707
 20
-825.2624662101
 30
0.0
 11
-890.0976242707
 21
-825.2624662101
 31
0.0
  0
ARC
  5
562
330
1F
100
AcDbEntity
  8
0
  6
Continuous
 62
     7
370
    25
100
AcDbCircle
 10
-893.0976242707
 20
-825.2624662101
 30
0.0
 40
3.000000000000114
100
AcDbArc
 50
0.0
 51
60.0
  0
ARC
  5
563
330
1F
100
AcDbEntity
  8
0
  6
Continuous
 62
     7
370
    25
100
AcDbCircle
 10
-937.0976242707
 20
-792.9308511355
 30
0.0
 40
3.000000000000114
100
AcDbArc
 50
180.0
 51
240.0
  0
LINE
  5
564
330
1F
100
AcDbEntity
  8
0
  6
Continuous
 62
     7
370
    25
100
AcDbLine
 10
-875.0976242707
 20
-923.5304154026
 30
0.0
 11
-887.0976242707
 21
-923.5304154026
 31
0.0
  0
LINE
  5
565
330
1F
100
AcDbEntity
  8
0
  6
Continuous
 62
     7
370
    25
100
AcDbLine
 10
-887.0976242707
 20
-920.5304154026
 30
0.0
 11
-887.0976242707
 21
-923.5304154026
 31
0.0
  0
LINE
  5
566
330
1F
100
AcDbEntity
  8
0
  6
Continuous
 62
     7
370
    25
100
AcDbLine
 10
-872.0976242707
 20
-920.5304154026
 30
0.0
 11
-875.0976242707
 21
-923.5304154026
 31
0.0
  0
LINE
  5
567
330
1F
100
AcDbEntity
  8
0
  6
Continuous
 62
     7
370
    25
100
AcDbLine
 10
-887.0976242707
 20
-920.5304154026
 30
0.0
 11
-890.0976242707
 21
-920.5304154026
 31
0.0
  0
LINE
  5
568
330
1F
100
AcDbEntity
  8
0
  6
Continuous
 62
     7
370
    25
100
AcDbLine
 10
-890.0976242707
 20
-920.5304154026
 30
0.0
 11
-890.0976242707
 21
-825.2624662101
 31
0.0
  0
ARC
  5
569
330
1F
100
AcDbEntity
  8
0
  6
Continuous
 62
     7
370
    25
100
AcDbCircle
 10
-887.0976242707
 20
-920.5304154026
 30
0.0
 40
2.999999999999886
100
AcDbArc
 50
180.0
 51
270.0
  0
LINE
  5
56A
330
1F
100
AcDbEntity
  8
0
  6
Continuous
 62
     8
370
    25
100
AcDbLine
 10
1295.9556647274
 20
-940.5154088969
 30
0.0
 11
1278.8490867312
 21
-940.5154088969
 31
0.0
  0
LINE
  5
56B
330
1F
100
AcDbEntity
  8
0
  6
Continuous
 62
     8
370
    25
100
AcDbLine
 10
-866.1509132688
 20
1273.4545780917
 30
0.0
 11
-849.0443352726
 21
1273.4545780917
 31
0.0
  0
LINE
  5
56C
330
1F
100
AcDbEntity
  8
0
  6
Continuous
 62
     8
370
    25
100
AcDbLine
 10
1321.8873692236
 20
-897.4771264044
 30
0.0
 11
1321.8873692236
 21
-914.5837044007
 31
0.0
  0
LINE
  5
56D
330
1F
100
AcDbEntity
  8
0
  6
Continuous
 62
     8
370
    25
100
AcDbLine
 10
1321.8873692236
 20
1247.5228735956
 30
0.0
 11
1321.8873692236
 21
1230.4162955993
 31
0.0
  0
LINE
  5
56E
330
1F
100
AcDbEntity
  8
0
  6
Continuous
 62
     8
370
    25
100
AcDbLine
 10
-892.082617765
 20
-914.5837044007
 30
0.0
 11
-892.082617765
 21
-897.4771264044
 31
0.0
  0
LINE
  5
56F
330
1F
100
AcDbEntity
  8
0
  6
Continuous
 62
     8
370
    25
100
AcDbLine
 10
1278.8490867312
 20
1273.4545780917
 30
0.0
 11
1295.9556647274
 21
1273.4545780917
 31
0.0
  0
LINE
  5
570
330
1F
100
AcDbEntity
  8
0
  6
Continuous
 62
     8
370
    25
100
AcDbLine
 10
-892.082617765
 20
1230.4162955993
 30
0.0
 11
-892.082617765
 21
1247.5228735956
 31
0.0
  0
LINE
  5
571
330
1F
100
AcDbEntity
  8
0
  6
Continuous
 62
     8
370
    25
100
AcDbLine
 10
-849.0443352726
 20
-940.5154088969
 30
0.0
 11
-866.1509132688
 21
-940.5154088969
 31
0.0
  0
ENDSEC
  0
SECTION
  2
OBJECTS
  0
DICTIONARY
  5
C
330
0
100
AcDbDictionary
281
     1
  3
ACAD_GROUP
350
D
  3
ACAD_LAYOUT
350
1A
  3
ACAD_MLINESTYLE
350
17
  3
ACAD_PLOTSETTINGS
350
19
  3
ACAD_PLOTSTYLENAME
350
E
  3
ACAD_SCALELIST
350
47
  3
DWGPROPS
350
572
  0
DICTIONARY
  5
D
102
{ACAD_REACTORS
330
C
102
}
330
C
100
AcDbDictionary
281
     1
  0
DICTIONARY
  5
1A
102
{ACAD_REACTORS
330
C
102
}
330
C
100
AcDbDictionary
281
     1
  3
Layout1
350
1E
  3
Layout2
350
26
  3
Model
350
22
  0
DICTIONARY
  5
17
102
{ACAD_REACTORS
330
C
102
}
330
C
100
AcDbDictionary
281
     1
  3
Standard
350
18
  0
DICTIONARY
  5
19
102
{ACAD_REACTORS
330
C
102
}
330
C
100
AcDbDictionary
281
     1
  0
ACDBDICTIONARYWDFLT
  5
E
102
{ACAD_REACTORS
330
C
102
}
330
C
100
AcDbDictionary
281
     1
  3
Normal
350
F
100
AcDbDictionaryWithDefault
340
F
  0
DICTIONARY
  5
47
102
{ACAD_REACTORS
330
C
102
}
330
C
100
AcDbDictionary
281
     1
  3
A0
350
48
  3
A1
350
49
  3
A2
350
4A
  3
A3
350
4B
  3
A4
350
4C
  3
A5
350
4D
  3
A6
350
4E
  3
A7
350
4F
  3
A8
350
50
  3
A9
350
51
  3
B0
350
52
  3
B1
350
53
  3
B2
350
54
  3
B3
350
55
  3
B4
350
56
  3
B5
350
57
  3
B6
350
58
  3
B7
350
59
  3
B8
350
5A
  3
B9
350
5B
  3
C0
350
5C
  3
C1
350
5D
  3
C2
350
5E
  3
C3
350
5F
  3
C4
350
60
  3
C5
350
61
  3
C6
350
62
  3
C7
350
63
  3
C8
350
64
  3
C9
350
65
  3
D0
350
66
  3
D1
350
67
  3
D2
350
68
  0
XRECORD
  5
572
102
{ACAD_REACTORS
330
C
102
}
330
C
100
AcDbXrecord
280
     1
  1
DWGPROPS COOKIE
  2

  3

  4

  6

  7

  8
Swing
  9

300
=
301
=
302
=
303
=
304
=
305
=
306
=
307
=
308
=
309
=
 40
0.0
 41
2459730.373405208
 42
2459730.373405463
  1

 90
        0
  0
LAYOUT
  5
1E
102
{ACAD_REACTORS
330
1A
102
}
330
1A
100
AcDbPlotSettings
  1

  2
none_device
  4

  6

 40
0.0
 41
0.0
 42
0.0
 43
0.0
 44
0.0
 45
0.0
 46
0.0
 47
0.0
 48
0.0
 49
0.0
140
0.0
141
0.0
142
1.0
143
1.0
 70
   688
 72
     1
 73
     0
 74
     5
  7

 75
    16
147
1.0
148
0.0
149
0.0
100
AcDbLayout
  1
Layout1
 70
     1
 71
     1
 10
0.0
 20
0.0
 11
420.0
 21
297.0
 12
0.0
 22
0.0
 32
0.0
 14
1.0000000000E+20
 24
1.0000000000E+20
 34
1.0000000000E+20
 15
-1.0000000000E+20
 25
-1.0000000000E+20
 35
-1.0000000000E+20
146
0.0
 13
0.0
 23
0.0
 33
0.0
 16
1.0
 26
0.0
 36
0.0
 17
0.0
 27
1.0
 37
0.0
 76
     0
330
1B
  0
LAYOUT
  5
26
102
{ACAD_REACTORS
330
1A
102
}
330
1A
100
AcDbPlotSettings
  1

  2
none_device
  4

  6

 40
0.0
 41
0.0
 42
0.0
 43
0.0
 44
0.0
 45
0.0
 46
0.0
 47
0.0
 48
0.0
 49
0.0
140
0.0
141
0.0
142
1.0
143
1.0
 70
   688
 72
     1
 73
     0
 74
     5
  7

 75
    16
147
1.0
148
0.0
149
0.0
100
AcDbLayout
  1
Layout2
 70
     1
 71
     2
 10
0.0
 20
0.0
 11
0.0
 21
0.0
 12
0.0
 22
0.0
 32
0.0
 14
0.0
 24
0.0
 34
0.0
 15
0.0
 25
0.0
 35
0.0
146
0.0
 13
0.0
 23
0.0
 33
0.0
 16
1.0
 26
0.0
 36
0.0
 17
0.0
 27
1.0
 37
0.0
 76
     0
330
23
  0
LAYOUT
  5
22
102
{ACAD_REACTORS
330
1A
102
}
330
1A
100
AcDbPlotSettings
  1

  2
none_device
  4
Letter_(8.50_x_11.00_Inches)
  6

 40
6.35
 41
6.35
 42
6.35000508
 43
6.35000508
 44
215.9
 45
279.4
 46
0.0
 47
0.0
 48
0.0
 49
0.0
140
0.0
141
0.0
142
1.0
143
1.0
 70
  1712
 72
     1
 73
     0
 74
     0
  7

 75
     0
147
1.0
148
0.0
149
0.0
100
AcDbLayout
  1
Model
 70
     1
 71
     0
 10
0.0
 20
0.0
 11
431.8
 21
279.4
 12
0.0
 22
0.0
 32
0.0
 14
0.0
 24
0.0
 34
0.0
 15
431.8
 25
279.4
 35
0.0
146
0.0
 13
0.0
 23
0.0
 33
0.0
 16
1.0
 26
0.0
 36
0.0
 17
0.0
 27
1.0
 37
0.0
 76
     0
330
1F
331
29
  0
MLINESTYLE
  5
18
102
{ACAD_REACTORS
330
17
102
}
330
17
100
AcDbMlineStyle
  2
Standard
 70
     0
  3

 62
   256
 51
90.0
 52
90.0
 71
     2
 49
0.5
 62
   256
  6
BYLAYER
 49
-0.5
 62
   256
  6
BYLAYER
  0
ACDBPLACEHOLDER
  5
F
102
{ACAD_REACTORS
330
E
102
}
330
E
  0
SCALE
  5
48
102
{ACAD_REACTORS
330
47
102
}
330
47
100
AcDbScale
 70
     0
300
1:1
140
1.0
141
1.0
290
     1
  0
SCALE
  5
49
102
{ACAD_REACTORS
330
47
102
}
330
47
100
AcDbScale
 70
     0
300
1:2
140
1.0
141
2.0
290
     0
  0
SCALE
  5
4A
102
{ACAD_REACTORS
330
47
102
}
330
47
100
AcDbScale
 70
     0
300
1:4
140
1.0
141
4.0
290
     0
  0
SCALE
  5
4B
102
{ACAD_REACTORS
330
47
102
}
330
47
100
AcDbScale
 70
     0
300
1:5
140
1.0
141
5.0
290
     0
  0
SCALE
  5
4C
102
{ACAD_REACTORS
330
47
102
}
330
47
100
AcDbScale
 70
     0
300
1:8
140
1.0
141
8.0
290
     0
  0
SCALE
  5
4D
102
{ACAD_REACTORS
330
47
102
}
330
47
100
AcDbScale
 70
     0
300
1:10
140
1.0
141
10.0
290
     0
  0
SCALE
  5
4E
102
{ACAD_REACTORS
330
47
102
}
330
47
100
AcDbScale
 70
     0
300
1:16
140
1.0
141
16.0
290
     0
  0
SCALE
  5
4F
102
{ACAD_REACTORS
330
47
102
}
330
47
100
AcDbScale
 70
     0
300
1:20
140
1.0
141
20.0
290
     0
  0
SCALE
  5
50
102
{ACAD_REACTORS
330
47
102
}
330
47
100
AcDbScale
 70
     0
300
1:30
140
1.0
141
30.0
290
     0
  0
SCALE
  5
51
102
{ACAD_REACTORS
330
47
102
}
330
47
100
AcDbScale
 70
     0
300
1:40
140
1.0
141
40.0
290
     0
  0
SCALE
  5
52
102
{ACAD_REACTORS
330
47
102
}
330
47
100
AcDbScale
 70
     0
300
1:50
140
1.0
141
50.0
290
     0
  0
SCALE
  5
53
102
{ACAD_REACTORS
330
47
102
}
330
47
100
AcDbScale
 70
     0
300
1:100
140
1.0
141
100.0
290
     0
  0
SCALE
  5
54
102
{ACAD_REACTORS
330
47
102
}
330
47
100
AcDbScale
 70
     0
300
2:1
140
2.0
141
1.0
290
     0
  0
SCALE
  5
55
102
{ACAD_REACTORS
330
47
102
}
330
47
100
AcDbScale
 70
     0
300
4:1
140
4.0
141
1.0
290
     0
  0
SCALE
  5
56
102
{ACAD_REACTORS
330
47
102
}
330
47
100
AcDbScale
 70
     0
300
8:1
140
8.0
141
1.0
290
     0
  0
SCALE
  5
57
102
{ACAD_REACTORS
330
47
102
}
330
47
100
AcDbScale
 70
     0
300
10:1
140
10.0
141
1.0
290
     0
  0
SCALE
  5
58
102
{ACAD_REACTORS
330
47
102
}
330
47
100
AcDbScale
 70
     0
300
100:1
140
100.0
141
1.0
290
     0
  0
SCALE
  5
59
102
{ACAD_REACTORS
330
47
102
}
330
47
100
AcDbScale
 70
     0
300
1/128" = 1'-0"
140
0.0078125
141
12.0
290
     0
  0
SCALE
  5
5A
102
{ACAD_REACTORS
330
47
102
}
330
47
100
AcDbScale
 70
     0
300
1/64" = 1'-0"
140
0.015625
141
12.0
290
     0
  0
SCALE
  5
5B
102
{ACAD_REACTORS
330
47
102
}
330
47
100
AcDbScale
 70
     0
300
1/32" = 1'-0"
140
0.03125
141
12.0
290
     0
  0
SCALE
  5
5C
102
{ACAD_REACTORS
330
47
102
}
330
47
100
AcDbScale
 70
     0
300
1/16" = 1'-0"
140
0.0625
141
12.0
290
     0
  0
SCALE
  5
5D
102
{ACAD_REACTORS
330
47
102
}
330
47
100
AcDbScale
 70
     0
300
3/32" = 1'-0"
140
0.09375
141
12.0
290
     0
  0
SCALE
  5
5E
102
{ACAD_REACTORS
330
47
102
}
330
47
100
AcDbScale
 70
     0
300
1/8" = 1'-0"
140
0.125
141
12.0
290
     0
  0
SCALE
  5
5F
102
{ACAD_REACTORS
330
47
102
}
330
47
100
AcDbScale
 70
     0
300
3/16" = 1'-0"
140
0.1875
141
12.0
290
     0
  0
SCALE
  5
60
102
{ACAD_REACTORS
330
47
102
}
330
47
100
AcDbScale
 70
     0
300
1/4" = 1'-0"
140
0.25
141
12.0
290
     0
  0
SCALE
  5
61
102
{ACAD_REACTORS
330
47
102
}
330
47
100
AcDbScale
 70
     0
300
3/8" = 1'-0"
140
0.375
141
12.0
290
     0
  0
SCALE
  5
62
102
{ACAD_REACTORS
330
47
102
}
330
47
100
AcDbScale
 70
     0
300
1/2" = 1'-0"
140
0.5
141
12.0
290
     0
  0
SCALE
  5
63
102
{ACAD_REACTORS
330
47
102
}
330
47
100
AcDbScale
 70
     0
300
3/4" = 1'-0"
140
0.75
141
12.0
290
     0
  0
SCALE
  5
64
102
{ACAD_REACTORS
330
47
102
}
330
47
100
AcDbScale
 70
     0
300
1" = 1'-0"
140
1.0
141
12.0
290
     0
  0
SCALE
  5
65
102
{ACAD_REACTORS
330
47
102
}
330
47
100
AcDbScale
 70
     0
300
1-1/2" = 1'-0"
140
1.5
141
12.0
290
     0
  0
SCALE
  5
66
102
{ACAD_REACTORS
330
47
102
}
330
47
100
AcDbScale
 70
     0
300
3" = 1'-0"
140
3.0
141
12.0
290
     0
  0
SCALE
  5
67
102
{ACAD_REACTORS
330
47
102
}
330
47
100
AcDbScale
 70
     0
300
6" = 1'-0"
140
6.0
141
12.0
290
     0
  0
SCALE
  5
68
102
{ACAD_REACTORS
330
47
102
}
330
47
100
AcDbScale
 70
     0
300
1'-0" = 1'-0"
140
12.0
141
12.0
290
     0
  0
ENDSEC
  0
EOF
