  0
SECTION
  2
HEADER
  9
$ACADVER
  1
AC1015
  9
$ACADMAINTVER
 70
     6
  9
$DWGCODEPAGE
  3
ANSI_1250
  9
$INSBASE
 10
0.0
 20
0.0
 30
0.0
  9
$EXTMIN
 10
0.0
 20
0.0
 30
0.0
  9
$EXTMAX
 10
431.8
 20
279.4
 30
0.0
  9
$LIMMIN
 10
0.0
 20
0.0
  9
$LIMMAX
 10
431.8
 20
279.4
  9
$ORTHOMODE
 70
     0
  9
$REGENMODE
 70
     1
  9
$FILLMODE
 70
     1
  9
$QTEXTMODE
 70
     0
  9
$MIRRTEXT
 70
     1
  9
$LTSCALE
 40
1.0
  9
$ATTMODE
 70
     1
  9
$TEXTSIZE
 40
3.8805555556
  9
$TRACEWID
 40
1.0
  9
$TEXTSTYLE
  7
Standard
  9
$CLAYER
  8
0
  9
$CELTYPE
  6
ByLayer
  9
$CECOLOR
 62
   256
  9
$CELTSCALE
 40
1.0
  9
$DISPSILH
 70
     0
  9
$DIMSCALE
 40
1.0
  9
$DIMASZ
 40
3.302
  9
$DIMEXO
 40
1.0
  9
$DIMDLI
 40
3.75
  9
$DIMRND
 40
0.0
  9
$DIMDLE
 40
0.0
  9
$DIMEXE
 40
1.0
  9
$DIMTP
 40
0.0
  9
$DIMTM
 40
0.0
  9
$DIMTXT
 40
3.8805555556
  9
$DIMCEN
 40
2.5
  9
$DIMTSZ
 40
0.0
  9
$DIMTOL
 70
     0
  9
$DIMLIM
 70
     0
  9
$DIMTIH
 70
     1
  9
$DIMTOH
 70
     1
  9
$DIMSE1
 70
     0
  9
$DIMSE2
 70
     0
  9
$DIMTAD
 70
     1
  9
$DIMZIN
 70
     0
  9
$DIMBLK
  1

  9
$DIMASO
 70
     1
  9
$DIMSHO
 70
     1
  9
$DIMPOST
  1

  9
$DIMAPOST
  1

  9
$DIMALT
 70
     0
  9
$DIMALTD
 70
     3
  9
$DIMALTF
 40
0.0393700787
  9
$DIMLFAC
 40
1.0
  9
$DIMTOFL
 70
     1
  9
$DIMTVP
 40
0.0
  9
$DIMTIX
 70
     0
  9
$DIMSOXD
 70
     0
  9
$DIMSAH
 70
     0
  9
$DIMBLK1
  1

  9
$DIMBLK2
  1

  9
$DIMSTYLE
  2
ISO-25
  9
$DIMCLRD
 70
     0
  9
$DIMCLRE
 70
     0
  9
$DIMCLRT
 70
     0
  9
$DIMTFAC
 40
1.0
  9
$DIMGAP
 40
1.524
  9
$DIMJUST
 70
     0
  9
$DIMSD1
 70
     0
  9
$DIMSD2
 70
     0
  9
$DIMTOLJ
 70
     0
  9
$DIMTZIN
 70
     0
  9
$DIMALTZ
 70
     0
  9
$DIMALTTZ
 70
     0
  9
$DIMUPT
 70
     0
  9
$DIMDEC
 70
     1
  9
$DIMTDEC
 70
     1
  9
$DIMALTU
 70
     2
  9
$DIMALTTD
 70
     3
  9
$DIMTXSTY
  7
Standard
  9
$DIMAUNIT
 70
     0
  9
$DIMADEC
 70
     1
  9
$DIMALTRND
 40
0.0
  9
$DIMAZIN
 70
     0
  9
$DIMDSEP
 70
    44
  9
$DIMATFIT
 70
     3
  9
$DIMFRAC
 70
     0
  9
$DIMLDRBLK
  1

  9
$DIMLUNIT
 70
     2
  9
$DIMLWD
 70
    -2
  9
$DIMLWE
 70
    -2
  9
$DIMTMOVE
 70
     0
  9
$LUNITS
 70
     2
  9
$LUPREC
 70
     1
  9
$SKETCHINC
 40
1.0
  9
$FILLETRAD
 40
10.0
  9
$AUNITS
 70
     0
  9
$AUPREC
 70
     1
  9
$MENU
  1
.
  9
$ELEVATION
 40
0.0
  9
$PELEVATION
 40
0.0
  9
$THICKNESS
 40
0.0
  9
$LIMCHECK
 70
     0
  9
$CHAMFERA
 40
0.0
  9
$CHAMFERB
 40
0.0
  9
$CHAMFERC
 40
0.0
  9
$CHAMFERD
 40
0.0
  9
$SKPOLY
 70
     0
  9
$TDCREATE
 40
2459758.368269514
  9
$TDUCREATE
 40
2459758.28493618
  9
$TDUPDATE
 40
2459758.368269977
  9
$TDUUPDATE
 40
2459758.284936644
  9
$TDINDWG
 40
0.0000000116
  9
$TDUSRTIMER
 40
0.0000000116
  9
$USRTIMER
 70
     1
  9
$ANGBASE
 50
0.0
  9
$ANGDIR
 70
     0
  9
$PDMODE
 70
     0
  9
$PDSIZE
 40
-1.0
  9
$PLINEWID
 40
0.0
  9
$SPLFRAME
 70
     0
  9
$SPLINETYPE
 70
     6
  9
$SPLINESEGS
 70
     8
  9
$HANDSEED
  5
37A
  9
$SURFTAB1
 70
     6
  9
$SURFTAB2
 70
     6
  9
$SURFTYPE
 70
     6
  9
$SURFU
 70
     6
  9
$SURFV
 70
     6
  9
$UCSBASE
  2

  9
$UCSNAME
  2

  9
$UCSORG
 10
0.0
 20
0.0
 30
0.0
  9
$UCSXDIR
 10
1.0
 20
0.0
 30
0.0
  9
$UCSYDIR
 10
0.0
 20
1.0
 30
0.0
  9
$UCSORTHOREF
  2

  9
$UCSORTHOVIEW
 70
     0
  9
$UCSORGTOP
 10
0.0
 20
0.0
 30
0.0
  9
$UCSORGBOTTOM
 10
0.0
 20
0.0
 30
0.0
  9
$UCSORGLEFT
 10
0.0
 20
0.0
 30
0.0
  9
$UCSORGRIGHT
 10
0.0
 20
0.0
 30
0.0
  9
$UCSORGFRONT
 10
0.0
 20
0.0
 30
0.0
  9
$UCSORGBACK
 10
0.0
 20
0.0
 30
0.0
  9
$PUCSBASE
  2

  9
$PUCSNAME
  2

  9
$PUCSORG
 10
0.0
 20
0.0
 30
0.0
  9
$PUCSXDIR
 10
1.0
 20
0.0
 30
0.0
  9
$PUCSYDIR
 10
0.0
 20
1.0
 30
0.0
  9
$PUCSORTHOREF
  2

  9
$PUCSORTHOVIEW
 70
     0
  9
$PUCSORGTOP
 10
0.0
 20
0.0
 30
0.0
  9
$PUCSORGBOTTOM
 10
0.0
 20
0.0
 30
0.0
  9
$PUCSORGLEFT
 10
0.0
 20
0.0
 30
0.0
  9
$PUCSORGRIGHT
 10
0.0
 20
0.0
 30
0.0
  9
$PUCSORGFRONT
 10
0.0
 20
0.0
 30
0.0
  9
$PUCSORGBACK
 10
0.0
 20
0.0
 30
0.0
  9
$USERI1
 70
     0
  9
$USERI2
 70
     0
  9
$USERI3
 70
     0
  9
$USERI4
 70
     0
  9
$USERI5
 70
     0
  9
$USERR1
 40
0.0
  9
$USERR2
 40
0.0
  9
$USERR3
 40
0.0
  9
$USERR4
 40
0.0
  9
$USERR5
 40
0.0
  9
$WORLDVIEW
 70
     1
  9
$SHADEDGE
 70
     3
  9
$SHADEDIF
 70
    70
  9
$TILEMODE
 70
     1
  9
$MAXACTVP
 70
    64
  9
$PINSBASE
 10
0.0
 20
0.0
 30
0.0
  9
$PLIMCHECK
 70
     0
  9
$PEXTMIN
 10
1.0000000000E+20
 20
1.0000000000E+20
 30
1.0000000000E+20
  9
$PEXTMAX
 10
-1.0000000000E+20
 20
-1.0000000000E+20
 30
-1.0000000000E+20
  9
$PLIMMIN
 10
0.0
 20
0.0
  9
$PLIMMAX
 10
420.0
 20
297.0
  9
$UNITMODE
 70
     0
  9
$VISRETAIN
 70
     1
  9
$PLINEGEN
 70
     0
  9
$PSLTSCALE
 70
     1
  9
$TREEDEPTH
 70
  3020
  9
$CMLSTYLE
  2
Standard
  9
$CMLJUST
 70
     0
  9
$CMLSCALE
 40
20.0
  9
$PROXYGRAPHICS
 70
     1
  9
$MEASUREMENT
 70
     1
  9
$CELWEIGHT
370
    -1
  9
$ENDCAPS
280
     0
  9
$JOINSTYLE
280
     0
  9
$LWDISPLAY
290
     1
  9
$INSUNITS
 70
     4
  9
$HYPERLINKBASE
  1

  9
$STYLESHEET
  1

  9
$XEDIT
290
     1
  9
$CEPSNTYPE
380
     0
  9
$PSTYLEMODE
290
     1
  9
$FINGERPRINTGUID
  2
{5e63fce5-d004-45fa-85c4-31e605168b14}
  9
$VERSIONGUID
  2
{FAEB1C32-E019-11D5-929B-00C0DF256EC4}
  9
$EXTNAMES
290
     1
  9
$PSVPSCALE
 40
0.0
  9
$OLESTARTUP
290
     0
  0
ENDSEC
  0
SECTION
  2
CLASSES
  0
CLASS
  1
ACDBDICTIONARYWDFLT
  2
AcDbDictionaryWithDefault
  3
ObjectDBX Classes
 90
        0
280
     0
281
     0
  0
CLASS
  1
VISUALSTYLE
  2
AcDbVisualStyle
  3
ObjectDBX Classes
 90
     4095
280
     0
281
     0
  0
CLASS
  1
MATERIAL
  2
AcDbMaterial
  3
ObjectDBX Classes
 90
     1153
280
     0
281
     0
  0
CLASS
  1
SCALE
  2
AcDbScale
  3
ObjectDBX Classes
 90
     1153
280
     0
281
     0
  0
CLASS
  1
TABLESTYLE
  2
AcDbTableStyle
  3
ObjectDBX Classes
 90
     4095
280
     0
281
     0
  0
CLASS
  1
MLEADERSTYLE
  2
AcDbMLeaderStyle
  3
ACDB_MLEADERSTYLE_CLASS
 90
     4095
280
     0
281
     0
  0
CLASS
  1
SUN
  2
AcDbSun
  3
SCENEOE
 90
     1153
280
     0
281
     0
  0
CLASS
  1
ACDBPLACEHOLDER
  2
AcDbPlaceHolder
  3
ObjectDBX Classes
 90
        0
280
     0
281
     0
  0
CLASS
  1
LAYOUT
  2
AcDbLayout
  3
ObjectDBX Classes
 90
        0
280
     0
281
     0
  0
ENDSEC
  0
SECTION
  2
TABLES
  0
TABLE
  2
VPORT
  5
8
330
0
100
AcDbSymbolTable
 70
     1
  0
VPORT
  5
29
330
8
100
AcDbSymbolTableRecord
100
AcDbViewportTableRecord
  2
*Active
 70
     0
 10
0.0
 20
0.0
 11
1.0
 21
1.0
 12
215.9
 22
139.7
 13
0.0
 23
0.0
 14
10.0
 24
10.0
 15
10.0
 25
10.0
 16
0.0
 26
0.0
 36
1.0
 17
0.0
 27
0.0
 37
0.0
 40
279.4
 41
1.5454545455
 42
50.0
 43
0.0
 44
0.0
 50
0.0
 51
0.0
 71
     0
 72
  2000
 73
     1
 74
     3
 75
     0
 76
     0
 77
     0
 78
     0
281
     0
 65
     1
110
0.0
120
0.0
130
0.0
111
1.0
121
0.0
131
0.0
112
0.0
122
1.0
132
0.0
 79
     0
146
0.0
  0
ENDTAB
  0
TABLE
  2
LTYPE
  5
5
330
0
100
AcDbSymbolTable
 70
     6
  0
LTYPE
  5
14
330
5
100
AcDbSymbolTableRecord
100
AcDbLinetypeTableRecord
  2
ByBlock
 70
     0
  3

 72
    65
 73
     0
 40
0.0
  0
LTYPE
  5
15
330
5
100
AcDbSymbolTableRecord
100
AcDbLinetypeTableRecord
  2
ByLayer
 70
     0
  3

 72
    65
 73
     0
 40
0.0
  0
LTYPE
  5
16
330
5
100
AcDbSymbolTableRecord
100
AcDbLinetypeTableRecord
  2
Continuous
 70
     0
  3
Solid line
 72
    65
 73
     0
 40
0.0
  0
LTYPE
  5
6E
330
5
100
AcDbSymbolTableRecord
100
AcDbLinetypeTableRecord
  2
HIDDEN
 70
     0
  3
Hidden __ __ __ __ __ __ __ __ __ __ __ __ __ __
 72
    65
 73
     2
 40
1.905
 49
1.27
 74
     0
 49
-0.635
 74
     0
  0
LTYPE
  5
6F
330
5
100
AcDbSymbolTableRecord
100
AcDbLinetypeTableRecord
  2
PHANTOM
 70
     0
  3
Phantom ______  __  __  ______  __  __  ______
 72
    65
 73
     6
 40
12.7
 49
6.35
 74
     0
 49
-1.27
 74
     0
 49
1.27
 74
     0
 49
-1.27
 74
     0
 49
1.27
 74
     0
 49
-1.27
 74
     0
  0
LTYPE
  5
70
330
5
100
AcDbSymbolTableRecord
100
AcDbLinetypeTableRecord
  2
CENTER
 70
     0
  3
Center ____ _ ____ _ ____ _ ____ _ ____ _ ____
 72
    65
 73
     4
 40
10.16
 49
6.35
 74
     0
 49
-1.27
 74
     0
 49
1.27
 74
     0
 49
-1.27
 74
     0
  0
LTYPE
  5
71
330
5
100
AcDbSymbolTableRecord
100
AcDbLinetypeTableRecord
  2
CENTERX2
 70
     0
  3
Center (2x) ________  __  ________  __  _____
 72
    65
 73
     4
 40
20.32
 49
12.7
 74
     0
 49
-2.54
 74
     0
 49
2.54
 74
     0
 49
-2.54
 74
     0
  0
LTYPE
  5
72
330
5
100
AcDbSymbolTableRecord
100
AcDbLinetypeTableRecord
  2
DOT2
 70
     0
  3
Dot (.5x) ........................................
 72
    65
 73
     2
 40
0.635
 49
0.0
 74
     0
 49
-0.635
 74
     0
  0
ENDTAB
  0
TABLE
  2
LAYER
  5
2
330
0
100
AcDbSymbolTable
 70
     3
  0
LAYER
  5
10
330
2
100
AcDbSymbolTableRecord
100
AcDbLayerTableRecord
  2
0
 70
     0
 62
     7
  6
Continuous
370
    -3
390
F
  0
LAYER
  5
73
330
2
100
AcDbSymbolTableRecord
100
AcDbLayerTableRecord
  2
FRAME_&_TABLE
 70
     0
 62
     8
  6
Continuous
370
    50
390
F
  0
LAYER
  5
74
330
2
100
AcDbSymbolTableRecord
100
AcDbLayerTableRecord
  2
DIMENSIONS
 70
     0
 62
     7
  6
Continuous
370
    -3
390
F
  0
ENDTAB
  0
TABLE
  2
STYLE
  5
3
330
0
100
AcDbSymbolTable
 70
     1
  0
STYLE
  5
11
330
3
100
AcDbSymbolTableRecord
100
AcDbTextStyleTableRecord
  2
Standard
 70
     0
 40
0.0
 41
1.0
 50
0.0
 71
     0
 42
3.8805555556
  3
txt
  4

  0
ENDTAB
  0
TABLE
  2
VIEW
  5
6
330
0
100
AcDbSymbolTable
 70
     0
  0
ENDTAB
  0
TABLE
  2
UCS
  5
7
330
0
100
AcDbSymbolTable
 70
     0
  0
ENDTAB
  0
TABLE
  2
APPID
  5
9
330
0
100
AcDbSymbolTable
 70
     1
  0
APPID
  5
12
330
9
100
AcDbSymbolTableRecord
100
AcDbRegAppTableRecord
  2
ACAD
 70
     0
  0
ENDTAB
  0
TABLE
  2
DIMSTYLE
  5
A
330
0
100
AcDbSymbolTable
 70
     1
100
AcDbDimStyleTable
  0
DIMSTYLE
105
27
330
A
100
AcDbSymbolTableRecord
100
AcDbDimStyleTableRecord
  2
ISO-25
 70
     0
 41
2.5
 42
0.625
 43
3.75
 44
1.25
 73
     0
 74
     0
 77
     1
 78
     8
140
2.5
141
2.5
143
0.0393700787
147
0.625
171
     3
172
     1
178
     0
271
     2
272
     2
274
     3
278
    44
283
     0
284
     8
340
11
  0
ENDTAB
  0
TABLE
  2
BLOCK_RECORD
  5
1
330
0
100
AcDbSymbolTable
 70
     1
  0
BLOCK_RECORD
  5
1F
330
1
100
AcDbSymbolTableRecord
100
AcDbBlockTableRecord
  2
*Model_Space
340
22
  0
BLOCK_RECORD
  5
1B
330
1
100
AcDbSymbolTableRecord
100
AcDbBlockTableRecord
  2
*Paper_Space
340
1E
  0
BLOCK_RECORD
  5
23
330
1
100
AcDbSymbolTableRecord
100
AcDbBlockTableRecord
  2
*Paper_Space0
340
26
  0
ENDTAB
  0
ENDSEC
  0
SECTION
  2
BLOCKS
  0
BLOCK
  5
20
330
1F
100
AcDbEntity
  8
0
100
AcDbBlockBegin
  2
*Model_Space
 70
     0
 10
0.0
 20
0.0
 30
0.0
  3
*Model_Space
  1

  0
ENDBLK
  5
21
330
1F
100
AcDbEntity
  8
0
100
AcDbBlockEnd
  0
BLOCK
  5
1C
330
1B
100
AcDbEntity
 67
     1
  8
0
100
AcDbBlockBegin
  2
*Paper_Space
 70
     0
 10
0.0
 20
0.0
 30
0.0
  3
*Paper_Space
  1

  0
ENDBLK
  5
1D
330
1B
100
AcDbEntity
 67
     1
  8
0
100
AcDbBlockEnd
  0
BLOCK
  5
24
330
23
100
AcDbEntity
  8
0
100
AcDbBlockBegin
  2
*Paper_Space0
 70
     0
 10
0.0
 20
0.0
 30
0.0
  3
*Paper_Space0
  1

  0
ENDBLK
  5
25
330
23
100
AcDbEntity
  8
0
100
AcDbBlockEnd
  0
ENDSEC
  0
SECTION
  2
ENTITIES
  0
LINE
  5
75
330
1F
100
AcDbEntity
  8
0
  6
Continuous
 62
     7
370
    25
100
AcDbLine
 10
190.6407059004
 20
167.9553302217
 30
0.0
 11
190.6407059004
 21
176.9553302217
 31
0.0
  0
LINE
  5
76
330
1F
100
AcDbEntity
  8
0
  6
Continuous
 62
     7
370
    25
100
AcDbLine
 10
-56.6637891115
 20
176.9553302217
 30
0.0
 11
-56.6637891115
 21
167.9553302217
 31
0.0
  0
ARC
  5
77
330
1F
100
AcDbEntity
  8
0
  6
Continuous
 62
     7
370
    25
100
AcDbCircle
 10
-53.6637775307
 20
167.9553418024
 30
0.0
 40
3.000011580765188
100
AcDbArc
 50
180.0002211748
 51
270.0002814547
  0
ARC
  5
78
330
1F
100
AcDbEntity
  8
0
  6
Continuous
 62
     7
370
    25
100
AcDbCircle
 10
187.6406791957
 20
167.9553569263
 30
0.0
 40
3.00002670480995
100
AcDbArc
 50
269.9993701069
 51
359.9994899837
  0
ARC
  5
79
330
1F
100
AcDbEntity
  8
0
  6
Continuous
 62
     7
370
    25
100
AcDbCircle
 10
187.640687971
 20
176.9553122924
 30
0.0
 40
3.000017929434746
100
AcDbArc
 50
0.0003424234
 51
90.000422842
  0
ARC
  5
7A
330
1F
100
AcDbEntity
  8
0
  6
Continuous
 62
     7
370
    25
100
AcDbCircle
 10
-53.6637755689
 20
176.9553166792
 30
0.0
 40
3.000013542535589
100
AcDbArc
 50
89.9996754049
 51
179.9997413587
  0
ARC
  5
7B
330
1F
100
AcDbEntity
  8
0
  6
Continuous
 62
     7
370
    25
100
AcDbCircle
 10
-307.8111179872
 20
167.9553300587
 30
0.0
 40
2.999999837101463
100
AcDbArc
 50
179.994143643
 51
269.9758834465
  0
LINE
  5
7C
330
1F
100
AcDbEntity
  8
0
  6
Continuous
 62
     7
370
    25
100
AcDbLine
 10
-310.8111195138
 20
176.9553302217
 30
0.0
 11
-310.8111195138
 21
167.9553302217
 31
0.0
  0
ARC
  5
7D
330
1F
100
AcDbEntity
  8
0
  6
Continuous
 62
     7
370
    25
100
AcDbCircle
 10
-307.7967274403
 20
176.9410460955
 30
0.0
 40
3.014336939324195
100
AcDbArc
 50
89.6608331439
 51
179.7284898061
  0
ARC
  5
7E
330
1F
100
AcDbEntity
  8
0
  6
Continuous
 62
     7
370
    25
100
AcDbCircle
 10
478.1478662121
 20
176.955318641
 30
0.0
 40
3.000011580765276
100
AcDbArc
 50
0.0002211748
 51
90.0002814547
  0
ARC
  5
7F
330
1F
100
AcDbEntity
  8
0
  6
Continuous
 62
     7
370
    25
100
AcDbCircle
 10
236.8434094857
 20
176.9553035171
 30
0.0
 40
3.000026704809918
100
AcDbArc
 50
89.9993701069
 51
179.9994899837
  0
LINE
  5
80
330
1F
100
AcDbEntity
  8
0
  6
Continuous
 62
     7
370
    25
100
AcDbLine
 10
233.843382781
 20
176.9553302217
 30
0.0
 11
233.843382781
 21
167.9553302217
 31
0.0
  0
LINE
  5
81
330
1F
100
AcDbEntity
  8
0
  6
Continuous
 62
     7
370
    25
100
AcDbLine
 10
481.1478777929
 20
167.9553302217
 30
0.0
 11
481.1478777929
 21
176.9553302217
 31
0.0
  0
ARC
  5
82
330
1F
100
AcDbEntity
  8
0
  6
Continuous
 62
     7
370
    25
100
AcDbCircle
 10
236.8434007104
 20
167.9553481511
 30
0.0
 40
3.000017929434718
100
AcDbArc
 50
180.0003424234
 51
270.000422842
  0
ARC
  5
83
330
1F
100
AcDbEntity
  8
0
  6
Continuous
 62
     7
370
    25
100
AcDbCircle
 10
478.1478642503
 20
167.9553437642
 30
0.0
 40
3.000013542535596
100
AcDbArc
 50
269.9996754049
 51
359.9997413587
  0
LINE
  5
84
330
1F
100
AcDbEntity
  8
0
  6
Continuous
 62
     7
370
    25
100
AcDbLine
 10
735.2952081952
 20
167.9553302217
 30
0.0
 11
735.2952081952
 21
176.9553302217
 31
0.0
  0
ARC
  5
85
330
1F
100
AcDbEntity
  8
0
  6
Continuous
 62
     7
370
    25
100
AcDbCircle
 10
732.2952066687
 20
176.9553303847
 30
0.0
 40
2.999999837101536
100
AcDbArc
 50
359.994143643
 51
89.9758834465
  0
ARC
  5
86
330
1F
100
AcDbEntity
  8
0
  6
Continuous
 62
     7
370
    25
100
AcDbCircle
 10
732.2808161218
 20
167.9696143479
 30
0.0
 40
3.014336939324335
100
AcDbArc
 50
269.6608331439
 51
359.7284898061
  0
ARC
  5
87
330
1F
100
AcDbEntity
  8
0
  6
Continuous
 62
     7
370
    25
100
AcDbCircle
 10
476.8976352826
 20
151.9553302217
 30
0.0
 40
3.0
100
AcDbArc
 50
270.0
 51
0.0
  0
ARC
  5
88
330
1F
100
AcDbEntity
  8
0
  6
Continuous
 62
     7
370
    25
100
AcDbCircle
 10
476.8976352826
 20
161.9553302217
 30
0.0
 40
3.0
100
AcDbArc
 50
0.0
 51
90.0
  0
LINE
  5
89
330
1F
100
AcDbEntity
  8
0
  6
Continuous
 62
     7
370
    25
100
AcDbLine
 10
479.8976352826
 20
151.9553302217
 30
0.0
 11
479.8976352826
 21
161.9553302217
 31
0.0
  0
ARC
  5
8A
330
1F
100
AcDbEntity
  8
0
  6
Continuous
 62
     7
370
    25
100
AcDbCircle
 10
364.6048183619
 20
151.9553302217
 30
0.0
 40
3.0
100
AcDbArc
 50
180.0
 51
270.0
  0
LINE
  5
8B
330
1F
100
AcDbEntity
  8
0
  6
Continuous
 62
     7
370
    25
100
AcDbLine
 10
361.6048183619
 20
161.9553302217
 30
0.0
 11
361.6048183619
 21
151.9553302217
 31
0.0
  0
ARC
  5
8C
330
1F
100
AcDbEntity
  8
0
  6
Continuous
 62
     7
370
    25
100
AcDbCircle
 10
364.6048183619
 20
161.9553302217
 30
0.0
 40
3.0
100
AcDbArc
 50
90.0
 51
180.0
  0
LINE
  5
8D
330
1F
100
AcDbEntity
  8
0
  6
Continuous
 62
     7
370
    25
100
AcDbLine
 10
479.8976352826
 20
182.9553302217
 30
0.0
 11
479.8976352826
 21
192.9553302217
 31
0.0
  0
ARC
  5
8E
330
1F
100
AcDbEntity
  8
0
  6
Continuous
 62
     7
370
    25
100
AcDbCircle
 10
476.8976352826
 20
182.9553302217
 30
0.0
 40
3.0
100
AcDbArc
 50
270.0
 51
0.0
  0
ARC
  5
8F
330
1F
100
AcDbEntity
  8
0
  6
Continuous
 62
     7
370
    25
100
AcDbCircle
 10
476.8976352826
 20
192.9553302217
 30
0.0
 40
3.0
100
AcDbArc
 50
0.0
 51
90.0
  0
LINE
  5
90
330
1F
100
AcDbEntity
  8
0
  6
Continuous
 62
     7
370
    25
100
AcDbLine
 10
361.6048183619
 20
192.9553302217
 30
0.0
 11
361.6048183619
 21
182.9553302217
 31
0.0
  0
ARC
  5
91
330
1F
100
AcDbEntity
  8
0
  6
Continuous
 62
     7
370
    25
100
AcDbCircle
 10
364.6048183619
 20
182.9553302217
 30
0.0
 40
3.0
100
AcDbArc
 50
180.0
 51
270.0
  0
ARC
  5
92
330
1F
100
AcDbEntity
  8
0
  6
Continuous
 62
     7
370
    25
100
AcDbCircle
 10
364.6048183619
 20
192.9553302217
 30
0.0
 40
3.0
100
AcDbArc
 50
90.0
 51
180.0
  0
LINE
  5
93
330
1F
100
AcDbEntity
  8
0
  6
Continuous
 62
     7
370
    25
100
AcDbLine
 10
-55.4135466011
 20
161.9553302217
 30
0.0
 11
-55.4135466011
 21
151.9553302217
 31
0.0
  0
ARC
  5
94
330
1F
100
AcDbEntity
  8
0
  6
Continuous
 62
     7
370
    25
100
AcDbCircle
 10
-52.4135466011
 20
151.9553302217
 30
0.0
 40
3.000000000000007
100
AcDbArc
 50
180.0
 51
270.0
  0
ARC
  5
95
330
1F
100
AcDbEntity
  8
0
  6
Continuous
 62
     7
370
    25
100
AcDbCircle
 10
-52.4135466011
 20
161.9553302217
 30
0.0
 40
3.000000000000007
100
AcDbArc
 50
90.0
 51
180.0
  0
ARC
  5
96
330
1F
100
AcDbEntity
  8
0
  6
Continuous
 62
     7
370
    25
100
AcDbCircle
 10
59.8792703196
 20
151.9553302217
 30
0.0
 40
3.0
100
AcDbArc
 50
270.0
 51
0.0
  0
ARC
  5
97
330
1F
100
AcDbEntity
  8
0
  6
Continuous
 62
     7
370
    25
100
AcDbCircle
 10
59.8792703196
 20
161.9553302217
 30
0.0
 40
3.0
100
AcDbArc
 50
0.0
 51
90.0
  0
LINE
  5
98
330
1F
100
AcDbEntity
  8
0
  6
Continuous
 62
     7
370
    25
100
AcDbLine
 10
62.8792703196
 20
151.9553302217
 30
0.0
 11
62.8792703196
 21
161.9553302217
 31
0.0
  0
LINE
  5
99
330
1F
100
AcDbEntity
  8
0
  6
Continuous
 62
     7
370
    25
100
AcDbLine
 10
-55.4135466011
 20
192.9553302217
 30
0.0
 11
-55.4135466011
 21
182.9553302217
 31
0.0
  0
ARC
  5
9A
330
1F
100
AcDbEntity
  8
0
  6
Continuous
 62
     7
370
    25
100
AcDbCircle
 10
-52.4135466011
 20
192.9553302217
 30
0.0
 40
3.000000000000007
100
AcDbArc
 50
90.0
 51
180.0
  0
ARC
  5
9B
330
1F
100
AcDbEntity
  8
0
  6
Continuous
 62
     7
370
    25
100
AcDbCircle
 10
-52.4135466011
 20
182.9553302217
 30
0.0
 40
3.000000000000007
100
AcDbArc
 50
180.0
 51
270.0
  0
ARC
  5
9C
330
1F
100
AcDbEntity
  8
0
  6
Continuous
 62
     7
370
    25
100
AcDbCircle
 10
59.8792703196
 20
192.9553302217
 30
0.0
 40
3.0
100
AcDbArc
 50
0.0
 51
90.0
  0
LINE
  5
9D
330
1F
100
AcDbEntity
  8
0
  6
Continuous
 62
     7
370
    25
100
AcDbLine
 10
62.8792703196
 20
182.9553302217
 30
0.0
 11
62.8792703196
 21
192.9553302217
 31
0.0
  0
ARC
  5
9E
330
1F
100
AcDbEntity
  8
0
  6
Continuous
 62
     7
370
    25
100
AcDbCircle
 10
59.8792703196
 20
182.9553302217
 30
0.0
 40
3.0
100
AcDbArc
 50
270.0
 51
0.0
  0
ARC
  5
9F
330
1F
100
AcDbEntity
  8
0
  6
Continuous
 62
     7
370
    25
100
AcDbCircle
 10
418.0380969723
 20
148.9553302217
 30
0.0
 40
16.29605263157896
100
AcDbArc
 50
180.0
 51
224.8855067306
  0
ARC
  5
A0
330
1F
100
AcDbEntity
  8
0
  6
Continuous
 62
     7
370
    25
100
AcDbCircle
 10
6.4459917091
 20
195.9553302217
 30
0.0
 40
16.29605263157898
100
AcDbArc
 50
0.0
 51
44.8855067306
  0
ARC
  5
A1
330
1F
100
AcDbEntity
  8
0
  6
Continuous
 62
     7
370
    25
100
AcDbCircle
 10
418.0380969723
 20
195.9553302217
 30
0.0
 40
16.29605263157896
100
AcDbArc
 50
135.1144932694
 51
180.0
  0
ARC
  5
A2
330
1F
100
AcDbEntity
  8
0
  6
Continuous
 62
     7
370
    25
100
AcDbCircle
 10
6.4459917091
 20
148.9553302217
 30
0.0
 40
16.29605263157898
100
AcDbArc
 50
315.1144932694
 51
0.0
  0
LINE
  5
A3
330
1F
100
AcDbEntity
  8
0
  6
Continuous
 62
     7
370
    25
100
AcDbLine
 10
17.9920443407
 20
207.4553302217
 30
0.0
 11
17.9920443407
 21
208.0404802406
 31
0.0
  0
ARC
  5
A4
330
1F
100
AcDbEntity
  8
0
  6
Continuous
 62
     7
370
    25
100
AcDbCircle
 10
17.3920443407
 20
208.0404802406
 30
0.0
 40
0.6000000000000192
100
AcDbArc
 50
0.0
 51
69.724946748
  0
LINE
  5
A5
330
1F
100
AcDbEntity
  8
0
  6
Continuous
 62
     7
370
    25
100
AcDbLine
 10
17.5999606962
 20
208.6033041821
 30
0.0
 11
17.2349948324
 21
208.7354418709
 31
0.0
  0
LINE
  5
A6
330
1F
100
AcDbEntity
  8
0
  6
Continuous
 62
     7
370
    25
100
AcDbLine
 10
406.4920443407
 20
208.0404802406
 30
0.0
 11
406.4920443407
 21
207.4553302217
 31
0.0
  0
ARC
  5
A7
330
1F
100
AcDbEntity
  8
0
  6
Continuous
 62
     7
370
    25
100
AcDbCircle
 10
407.0920443407
 20
208.0404802406
 30
0.0
 40
0.6000000000000112
100
AcDbArc
 50
110.275053252
 51
180.0
  0
LINE
  5
A8
330
1F
100
AcDbEntity
  8
0
  6
Continuous
 62
     7
370
    25
100
AcDbLine
 10
407.249093849
 20
208.7354418709
 30
0.0
 11
406.8841279852
 21
208.6033041821
 31
0.0
  0
ARC
  5
A9
330
1F
100
AcDbEntity
  8
0
  6
Continuous
 62
     7
370
    25
100
AcDbCircle
 10
17.3920443407
 20
136.8701802028
 30
0.0
 40
0.6000000000000192
100
AcDbArc
 50
290.275053252
 51
0.0
  0
LINE
  5
AA
330
1F
100
AcDbEntity
  8
0
  6
Continuous
 62
     7
370
    25
100
AcDbLine
 10
17.9920443407
 20
136.8701802028
 30
0.0
 11
17.9920443407
 21
137.4553302217
 31
0.0
  0
LINE
  5
AB
330
1F
100
AcDbEntity
  8
0
  6
Continuous
 62
     7
370
    25
100
AcDbLine
 10
17.2349948324
 20
136.1752185725
 30
0.0
 11
17.5999606962
 21
136.3073562613
 31
0.0
  0
ARC
  5
AC
330
1F
100
AcDbEntity
  8
0
  6
Continuous
 62
     7
370
    25
100
AcDbCircle
 10
407.0920443407
 20
136.8701802028
 30
0.0
 40
0.5999999999999845
100
AcDbArc
 50
180.0
 51
249.724946748
  0
LINE
  5
AD
330
1F
100
AcDbEntity
  8
0
  6
Continuous
 62
     7
370
    25
100
AcDbLine
 10
406.4920443407
 20
137.4553302217
 30
0.0
 11
406.4920443407
 21
136.8701802028
 31
0.0
  0
LINE
  5
AE
330
1F
100
AcDbEntity
  8
0
  6
Continuous
 62
     7
370
    25
100
AcDbLine
 10
406.8841279852
 20
136.3073562613
 30
0.0
 11
407.249093849
 21
136.1752185725
 31
0.0
  0
LINE
  5
AF
330
1F
100
AcDbEntity
  8
0
  6
Continuous
 62
     7
370
    25
100
AcDbLine
 10
23.7526564559
 20
195.9553302217
 30
0.0
 11
23.7526564559
 21
268.9553302217
 31
0.0
  0
ARC
  5
B0
330
1F
100
AcDbEntity
  8
0
  6
Continuous
 62
     7
370
    25
100
AcDbCircle
 10
22.7526564559
 20
268.9553302217
 30
0.0
 40
1.0
100
AcDbArc
 50
0.0
 51
90.0
  0
LINE
  5
B1
330
1F
100
AcDbEntity
  8
0
  6
Continuous
 62
     7
370
    25
100
AcDbLine
 10
23.7526564559
 20
75.9553302217
 30
0.0
 11
23.7526564559
 21
148.9553302217
 31
0.0
  0
ARC
  5
B2
330
1F
100
AcDbEntity
  8
0
  6
Continuous
 62
     7
370
    25
100
AcDbCircle
 10
22.7526564559
 20
75.9553302217
 30
0.0
 40
1.0
100
AcDbArc
 50
270.0
 51
0.0
  0
LINE
  5
B3
330
1F
100
AcDbEntity
  8
0
  6
Continuous
 62
     7
370
    25
100
AcDbLine
 10
400.7314322255
 20
268.9553302217
 30
0.0
 11
400.7314322255
 21
195.9553302217
 31
0.0
  0
ARC
  5
B4
330
1F
100
AcDbEntity
  8
0
  6
Continuous
 62
     7
370
    25
100
AcDbCircle
 10
401.7314322255
 20
268.9553302217
 30
0.0
 40
1.0
100
AcDbArc
 50
90.0
 51
180.0
  0
LINE
  5
B5
330
1F
100
AcDbEntity
  8
0
  6
Continuous
 62
     7
370
    25
100
AcDbLine
 10
400.249093849
 20
164.9553302217
 30
0.0
 11
400.249093849
 21
161.9553302217
 31
0.0
  0
LINE
  5
B6
330
1F
100
AcDbEntity
  8
0
  6
Continuous
 62
     7
370
    25
100
AcDbLine
 10
448.249093849
 20
161.9553302217
 30
0.0
 11
448.249093849
 21
164.9553302217
 31
0.0
  0
ARC
  5
B7
330
1F
100
AcDbEntity
  8
0
  6
Continuous
 62
     7
370
    25
100
AcDbCircle
 10
403.249093849
 20
161.9553302217
 30
0.0
 40
3.0
100
AcDbArc
 50
180.0
 51
270.0
  0
ARC
  5
B8
330
1F
100
AcDbEntity
  8
0
  6
Continuous
 62
     7
370
    25
100
AcDbCircle
 10
445.249093849
 20
161.9553302217
 30
0.0
 40
3.0
100
AcDbArc
 50
270.0
 51
0.0
  0
ARC
  5
B9
330
1F
100
AcDbEntity
  8
0
  6
Continuous
 62
     7
370
    25
100
AcDbCircle
 10
404.249093849
 20
155.9553302217
 30
0.0
 40
3.0
100
AcDbArc
 50
0.0
 51
90.0
  0
ARC
  5
BA
330
1F
100
AcDbEntity
  8
0
  6
Continuous
 62
     7
370
    25
100
AcDbCircle
 10
444.249093849
 20
155.9553302217
 30
0.0
 40
3.0
100
AcDbArc
 50
90.0
 51
180.0
  0
LINE
  5
BB
330
1F
100
AcDbEntity
  8
0
  6
Continuous
 62
     7
370
    25
100
AcDbLine
 10
407.249093849
 20
155.9553302217
 30
0.0
 11
407.249093849
 21
75.9553302217
 31
0.0
  0
LINE
  5
BC
330
1F
100
AcDbEntity
  8
0
  6
Continuous
 62
     7
370
    25
100
AcDbLine
 10
441.249093849
 20
75.9553302217
 30
0.0
 11
441.249093849
 21
155.9553302217
 31
0.0
  0
ARC
  5
BD
330
1F
100
AcDbEntity
  8
0
  6
Continuous
 62
     7
370
    25
100
AcDbCircle
 10
408.249093849
 20
75.9553302217
 30
0.0
 40
1.0
100
AcDbArc
 50
180.0
 51
270.0
  0
ARC
  5
BE
330
1F
100
AcDbEntity
  8
0
  6
Continuous
 62
     7
370
    25
100
AcDbCircle
 10
440.249093849
 20
75.9553302217
 30
0.0
 40
1.0
100
AcDbArc
 50
270.0
 51
0.0
  0
ARC
  5
BF
330
1F
100
AcDbEntity
  8
0
  6
Continuous
 62
     7
370
    25
100
AcDbCircle
 10
-20.7650051676
 20
161.9553302217
 30
0.0
 40
3.000000000000004
100
AcDbArc
 50
180.0
 51
270.0
  0
ARC
  5
C0
330
1F
100
AcDbEntity
  8
0
  6
Continuous
 62
     7
370
    25
100
AcDbCircle
 10
21.2349948324
 20
161.9553302217
 30
0.0
 40
3.000000000000004
100
AcDbArc
 50
270.0
 51
0.0
  0
LINE
  5
C1
330
1F
100
AcDbEntity
  8
0
  6
Continuous
 62
     7
370
    25
100
AcDbLine
 10
-23.7650051676
 20
164.9553302217
 30
0.0
 11
-23.7650051676
 21
161.9553302217
 31
0.0
  0
LINE
  5
C2
330
1F
100
AcDbEntity
  8
0
  6
Continuous
 62
     7
370
    25
100
AcDbLine
 10
24.2349948324
 20
161.9553302217
 30
0.0
 11
24.2349948324
 21
164.9553302217
 31
0.0
  0
ARC
  5
C3
330
1F
100
AcDbEntity
  8
0
  6
Continuous
 62
     7
370
    25
100
AcDbCircle
 10
-19.7650051676
 20
155.9553302217
 30
0.0
 40
3.000000000000004
100
AcDbArc
 50
0.0
 51
90.0
  0
ARC
  5
C4
330
1F
100
AcDbEntity
  8
0
  6
Continuous
 62
     7
370
    25
100
AcDbCircle
 10
20.2349948324
 20
155.9553302217
 30
0.0
 40
3.000000000000004
100
AcDbArc
 50
90.0
 51
180.0
  0
LINE
  5
C5
330
1F
100
AcDbEntity
  8
0
  6
Continuous
 62
     7
370
    25
100
AcDbLine
 10
-16.7650051676
 20
155.9553302217
 30
0.0
 11
-16.7650051676
 21
75.9553302217
 31
0.0
  0
LINE
  5
C6
330
1F
100
AcDbEntity
  8
0
  6
Continuous
 62
     7
370
    25
100
AcDbLine
 10
17.2349948324
 20
75.9553302217
 30
0.0
 11
17.2349948324
 21
155.9553302217
 31
0.0
  0
ARC
  5
C7
330
1F
100
AcDbEntity
  8
0
  6
Continuous
 62
     7
370
    25
100
AcDbCircle
 10
-15.7650051676
 20
75.9553302217
 30
0.0
 40
1.000000000000002
100
AcDbArc
 50
180.0
 51
270.0
  0
ARC
  5
C8
330
1F
100
AcDbEntity
  8
0
  6
Continuous
 62
     7
370
    25
100
AcDbCircle
 10
16.2349948324
 20
75.9553302217
 30
0.0
 40
1.0
100
AcDbArc
 50
270.0
 51
0.0
  0
ARC
  5
C9
330
1F
100
AcDbEntity
  8
0
  6
Continuous
 62
     7
370
    25
100
AcDbCircle
 10
21.2349948324
 20
182.9553302217
 30
0.0
 40
3.000000000000004
100
AcDbArc
 50
0.0
 51
90.0
  0
ARC
  5
CA
330
1F
100
AcDbEntity
  8
0
  6
Continuous
 62
     7
370
    25
100
AcDbCircle
 10
-20.7650051676
 20
182.9553302217
 30
0.0
 40
3.000000000000004
100
AcDbArc
 50
90.0
 51
180.0
  0
LINE
  5
CB
330
1F
100
AcDbEntity
  8
0
  6
Continuous
 62
     7
370
    25
100
AcDbLine
 10
24.2349948324
 20
179.9553302217
 30
0.0
 11
24.2349948324
 21
182.9553302217
 31
0.0
  0
LINE
  5
CC
330
1F
100
AcDbEntity
  8
0
  6
Continuous
 62
     7
370
    25
100
AcDbLine
 10
-23.7650051676
 20
182.9553302217
 30
0.0
 11
-23.7650051676
 21
179.9553302217
 31
0.0
  0
ARC
  5
CD
330
1F
100
AcDbEntity
  8
0
  6
Continuous
 62
     7
370
    25
100
AcDbCircle
 10
20.2349948324
 20
188.9553302217
 30
0.0
 40
3.000000000000004
100
AcDbArc
 50
180.0
 51
270.0
  0
ARC
  5
CE
330
1F
100
AcDbEntity
  8
0
  6
Continuous
 62
     7
370
    25
100
AcDbCircle
 10
-19.7650051676
 20
188.9553302217
 30
0.0
 40
3.000000000000004
100
AcDbArc
 50
270.0
 51
0.0
  0
LINE
  5
CF
330
1F
100
AcDbEntity
  8
0
  6
Continuous
 62
     7
370
    25
100
AcDbLine
 10
17.2349948324
 20
188.9553302217
 30
0.0
 11
17.2349948324
 21
268.9553302217
 31
0.0
  0
LINE
  5
D0
330
1F
100
AcDbEntity
  8
0
  6
Continuous
 62
     7
370
    25
100
AcDbLine
 10
-16.7650051676
 20
268.9553302217
 30
0.0
 11
-16.7650051676
 21
188.9553302217
 31
0.0
  0
ARC
  5
D1
330
1F
100
AcDbEntity
  8
0
  6
Continuous
 62
     7
370
    25
100
AcDbCircle
 10
16.2349948324
 20
268.9553302217
 30
0.0
 40
1.0
100
AcDbArc
 50
0.0
 51
90.0
  0
ARC
  5
D2
330
1F
100
AcDbEntity
  8
0
  6
Continuous
 62
     7
370
    25
100
AcDbCircle
 10
-15.7650051676
 20
268.9553302217
 30
0.0
 40
1.000000000000002
100
AcDbArc
 50
90.0
 51
180.0
  0
ARC
  5
D3
330
1F
100
AcDbEntity
  8
0
  6
Continuous
 62
     7
370
    25
100
AcDbCircle
 10
445.249093849
 20
182.9553302217
 30
0.0
 40
3.0
100
AcDbArc
 50
0.0
 51
90.0
  0
ARC
  5
D4
330
1F
100
AcDbEntity
  8
0
  6
Continuous
 62
     7
370
    25
100
AcDbCircle
 10
403.249093849
 20
182.9553302217
 30
0.0
 40
3.0
100
AcDbArc
 50
90.0
 51
180.0
  0
LINE
  5
D5
330
1F
100
AcDbEntity
  8
0
  6
Continuous
 62
     7
370
    25
100
AcDbLine
 10
448.249093849
 20
179.9553302217
 30
0.0
 11
448.249093849
 21
182.9553302217
 31
0.0
  0
LINE
  5
D6
330
1F
100
AcDbEntity
  8
0
  6
Continuous
 62
     7
370
    25
100
AcDbLine
 10
400.249093849
 20
182.9553302217
 30
0.0
 11
400.249093849
 21
179.9553302217
 31
0.0
  0
ARC
  5
D7
330
1F
100
AcDbEntity
  8
0
  6
Continuous
 62
     7
370
    25
100
AcDbCircle
 10
444.249093849
 20
188.9553302217
 30
0.0
 40
3.0
100
AcDbArc
 50
180.0
 51
270.0
  0
ARC
  5
D8
330
1F
100
AcDbEntity
  8
0
  6
Continuous
 62
     7
370
    25
100
AcDbCircle
 10
404.249093849
 20
188.9553302217
 30
0.0
 40
3.0
100
AcDbArc
 50
270.0
 51
0.0
  0
LINE
  5
D9
330
1F
100
AcDbEntity
  8
0
  6
Continuous
 62
     7
370
    25
100
AcDbLine
 10
441.249093849
 20
188.9553302217
 30
0.0
 11
441.249093849
 21
268.9553302217
 31
0.0
  0
LINE
  5
DA
330
1F
100
AcDbEntity
  8
0
  6
Continuous
 62
     7
370
    25
100
AcDbLine
 10
407.249093849
 20
268.9553302217
 30
0.0
 11
407.249093849
 21
188.9553302217
 31
0.0
  0
ARC
  5
DB
330
1F
100
AcDbEntity
  8
0
  6
Continuous
 62
     7
370
    25
100
AcDbCircle
 10
440.249093849
 20
268.9553302217
 30
0.0
 40
1.0
100
AcDbArc
 50
0.0
 51
90.0
  0
ARC
  5
DC
330
1F
100
AcDbEntity
  8
0
  6
Continuous
 62
     7
370
    25
100
AcDbCircle
 10
408.249093849
 20
268.9553302217
 30
0.0
 40
1.0
100
AcDbArc
 50
90.0
 51
180.0
  0
LINE
  5
DD
330
1F
100
AcDbEntity
  8
0
  6
Continuous
 62
     7
370
    25
100
AcDbLine
 10
400.7314322255
 20
148.9553302217
 30
0.0
 11
400.7314322255
 21
75.9553302217
 31
0.0
  0
ARC
  5
DE
330
1F
100
AcDbEntity
  8
0
  6
Continuous
 62
     7
370
    25
100
AcDbCircle
 10
401.7314322255
 20
75.9553302217
 30
0.0
 40
1.0
100
AcDbArc
 50
180.0
 51
270.0
  0
ARC
  5
DF
330
1F
100
AcDbEntity
  8
0
  6
Continuous
 62
     7
370
    25
100
AcDbCircle
 10
30.7526564559
 20
61.5751308994
 30
0.0
 40
1.000000000000005
100
AcDbArc
 50
0.0
 51
41.6335393366
  0
ARC
  5
E0
330
1F
100
AcDbEntity
  8
0
  6
Continuous
 62
     7
370
    25
100
AcDbCircle
 10
30.7526564559
 20
58.7950313977
 30
0.0
 40
1.000000000000008
100
AcDbArc
 50
279.5630855191
 51
0.0
  0
LINE
  5
E1
330
1F
100
AcDbEntity
  8
0
  6
Continuous
 62
     7
370
    25
100
AcDbLine
 10
31.7526564559
 20
58.7950313977
 30
0.0
 11
31.7526564559
 21
61.5751308994
 31
0.0
  0
LINE
  5
E2
330
1F
100
AcDbEntity
  8
0
  6
Continuous
 62
     7
370
    25
100
AcDbLine
 10
31.5000657746
 20
62.2394947382
 30
0.0
 11
24.0052471372
 21
70.6711657052
 31
0.0
  0
ARC
  5
E3
330
1F
100
AcDbEntity
  8
0
  6
Continuous
 62
     7
370
    25
100
AcDbCircle
 10
20.7139955582
 20
118.3806000971
 30
0.0
 40
61.42528204188941
100
AcDbArc
 50
270.036061803
 51
279.5630855191
  0
ARC
  5
E4
330
1F
100
AcDbEntity
  8
0
  6
Continuous
 62
     7
370
    25
100
AcDbCircle
 10
24.7526564559
 20
71.3355295441
 30
0.0
 40
1.0
100
AcDbArc
 50
180.0
 51
221.6335393366
  0
ARC
  5
E5
330
1F
100
AcDbEntity
  8
0
  6
Continuous
 62
     7
370
    25
100
AcDbCircle
 10
22.7526564559
 20
73.9553302217
 30
0.0
 40
1.0
100
AcDbArc
 50
0.0
 51
90.0
  0
LINE
  5
E6
330
1F
100
AcDbEntity
  8
0
  6
Continuous
 62
     7
370
    25
100
AcDbLine
 10
23.7526564559
 20
71.3355295441
 30
0.0
 11
23.7526564559
 21
73.9553302217
 31
0.0
  0
ARC
  5
E7
330
1F
100
AcDbEntity
  8
0
  6
Continuous
 62
     7
370
    25
100
AcDbCircle
 10
24.2349948324
 20
58.7950313977
 30
0.0
 40
1.000000000000002
100
AcDbArc
 50
279.5630855191
 51
0.0
  0
ARC
  5
E8
330
1F
100
AcDbEntity
  8
0
  6
Continuous
 62
     7
370
    25
100
AcDbCircle
 10
-23.7650051676
 20
58.7950313977
 30
0.0
 40
1.000000000000004
100
AcDbArc
 50
180.0
 51
260.4369144809
  0
LINE
  5
E9
330
1F
100
AcDbEntity
  8
0
  6
Continuous
 62
     7
370
    25
100
AcDbLine
 10
-24.7650051676
 20
61.5751308994
 30
0.0
 11
-24.7650051676
 21
58.7950313977
 31
0.0
  0
LINE
  5
EA
330
1F
100
AcDbEntity
  8
0
  6
Continuous
 62
     7
370
    25
100
AcDbLine
 10
25.2349948324
 20
58.7950313977
 30
0.0
 11
25.2349948324
 21
61.5751308994
 31
0.0
  0
ARC
  5
EB
330
1F
100
AcDbEntity
  8
0
  6
Continuous
 62
     7
370
    25
100
AcDbCircle
 10
24.2349948324
 20
61.5751308994
 30
0.0
 40
1.000000000000005
100
AcDbArc
 50
0.0
 51
41.6335393366
  0
ARC
  5
EC
330
1F
100
AcDbEntity
  8
0
  6
Continuous
 62
     7
370
    25
100
AcDbCircle
 10
-23.7650051676
 20
61.5751308994
 30
0.0
 40
1.000000000000004
100
AcDbArc
 50
138.3664606634
 51
180.0
  0
LINE
  5
ED
330
1F
100
AcDbEntity
  8
0
  6
Continuous
 62
     7
370
    25
100
AcDbLine
 10
24.9824041511
 20
62.2394947382
 30
0.0
 11
17.4875855138
 21
70.6711657052
 31
0.0
  0
LINE
  5
EE
330
1F
100
AcDbEntity
  8
0
  6
Continuous
 62
     7
370
    25
100
AcDbLine
 10
-17.0175958489
 20
70.6711657052
 30
0.0
 11
-24.5124144862
 21
62.2394947382
 31
0.0
  0
ARC
  5
EF
330
1F
100
AcDbEntity
  8
0
  6
Continuous
 62
     7
370
    25
100
AcDbCircle
 10
-13.7263442698
 20
118.3806000971
 30
0.0
 40
61.4252820418894
100
AcDbArc
 50
260.4369144809
 51
269.963938197
  0
ARC
  5
F0
330
1F
100
AcDbEntity
  8
0
  6
Continuous
 62
     7
370
    25
100
AcDbCircle
 10
14.1963339347
 20
118.3806000971
 30
0.0
 40
61.4252820418894
100
AcDbArc
 50
270.036061803
 51
279.5630855191
  0
ARC
  5
F1
330
1F
100
AcDbEntity
  8
0
  6
Continuous
 62
     7
370
    25
100
AcDbCircle
 10
-17.7650051676
 20
71.3355295441
 30
0.0
 40
1.000000000000012
100
AcDbArc
 50
318.3664606634
 51
0.0
  0
ARC
  5
F2
330
1F
100
AcDbEntity
  8
0
  6
Continuous
 62
     7
370
    25
100
AcDbCircle
 10
18.2349948324
 20
71.3355295441
 30
0.0
 40
1.0
100
AcDbArc
 50
180.0
 51
221.6335393366
  0
ARC
  5
F3
330
1F
100
AcDbEntity
  8
0
  6
Continuous
 62
     7
370
    25
100
AcDbCircle
 10
-15.7650051676
 20
73.9553302217
 30
0.0
 40
1.000000000000002
100
AcDbArc
 50
90.0
 51
180.0
  0
ARC
  5
F4
330
1F
100
AcDbEntity
  8
0
  6
Continuous
 62
     7
370
    25
100
AcDbCircle
 10
16.2349948324
 20
73.9553302217
 30
0.0
 40
1.0
100
AcDbArc
 50
0.0
 51
90.0
  0
LINE
  5
F5
330
1F
100
AcDbEntity
  8
0
  6
Continuous
 62
     7
370
    25
100
AcDbLine
 10
-16.7650051676
 20
73.9553302217
 30
0.0
 11
-16.7650051676
 21
71.3355295441
 31
0.0
  0
LINE
  5
F6
330
1F
100
AcDbEntity
  8
0
  6
Continuous
 62
     7
370
    25
100
AcDbLine
 10
17.2349948324
 20
71.3355295441
 30
0.0
 11
17.2349948324
 21
73.9553302217
 31
0.0
  0
LINE
  5
F7
330
1F
100
AcDbEntity
  8
0
  6
Continuous
 62
     7
370
    25
100
AcDbLine
 10
392.7314322255
 20
61.5751308994
 30
0.0
 11
392.7314322255
 21
58.7950313977
 31
0.0
  0
ARC
  5
F8
330
1F
100
AcDbEntity
  8
0
  6
Continuous
 62
     7
370
    25
100
AcDbCircle
 10
393.7314322255
 20
61.5751308994
 30
0.0
 40
1.0
100
AcDbArc
 50
138.3664606634
 51
180.0
  0
ARC
  5
F9
330
1F
100
AcDbEntity
  8
0
  6
Continuous
 62
     7
370
    25
100
AcDbCircle
 10
393.7314322255
 20
58.7950313977
 30
0.0
 40
1.0
100
AcDbArc
 50
180.0
 51
260.4369144809
  0
LINE
  5
FA
330
1F
100
AcDbEntity
  8
0
  6
Continuous
 62
     7
370
    25
100
AcDbLine
 10
400.4788415442
 20
70.6711657052
 30
0.0
 11
392.9840229068
 21
62.2394947382
 31
0.0
  0
ARC
  5
FB
330
1F
100
AcDbEntity
  8
0
  6
Continuous
 62
     7
370
    25
100
AcDbCircle
 10
403.7700931233
 20
118.3806000971
 30
0.0
 40
61.4252820418894
100
AcDbArc
 50
260.4369144809
 51
269.963938197
  0
ARC
  5
FC
330
1F
100
AcDbEntity
  8
0
  6
Continuous
 62
     7
370
    25
100
AcDbCircle
 10
399.7314322255
 20
71.3355295441
 30
0.0
 40
1.000000000000042
100
AcDbArc
 50
318.3664606634
 51
0.0
  0
LINE
  5
FD
330
1F
100
AcDbEntity
  8
0
  6
Continuous
 62
     7
370
    25
100
AcDbLine
 10
400.7314322255
 20
73.9553302217
 30
0.0
 11
400.7314322255
 21
71.3355295441
 31
0.0
  0
ARC
  5
FE
330
1F
100
AcDbEntity
  8
0
  6
Continuous
 62
     7
370
    25
100
AcDbCircle
 10
401.7314322255
 20
73.9553302217
 30
0.0
 40
1.0
100
AcDbArc
 50
90.0
 51
180.0
  0
LINE
  5
FF
330
1F
100
AcDbEntity
  8
0
  6
Continuous
 62
     7
370
    25
100
AcDbLine
 10
25.2349948324
 20
283.3355295441
 30
0.0
 11
25.2349948324
 21
286.1156290457
 31
0.0
  0
LINE
  5
100
330
1F
100
AcDbEntity
  8
0
  6
Continuous
 62
     7
370
    25
100
AcDbLine
 10
-24.7650051676
 20
286.1156290457
 30
0.0
 11
-24.7650051676
 21
283.3355295441
 31
0.0
  0
ARC
  5
101
330
1F
100
AcDbEntity
  8
0
  6
Continuous
 62
     7
370
    25
100
AcDbCircle
 10
-23.7650051676
 20
283.3355295441
 30
0.0
 40
1.00000000000001
100
AcDbArc
 50
180.0
 51
221.6335393366
  0
ARC
  5
102
330
1F
100
AcDbEntity
  8
0
  6
Continuous
 62
     7
370
    25
100
AcDbCircle
 10
24.2349948324
 20
283.3355295441
 30
0.0
 40
1.000000000000029
100
AcDbArc
 50
318.3664606634
 51
0.0
  0
ARC
  5
103
330
1F
100
AcDbEntity
  8
0
  6
Continuous
 62
     7
370
    25
100
AcDbCircle
 10
-23.7650051676
 20
286.1156290457
 30
0.0
 40
1.000000000000023
100
AcDbArc
 50
99.5630855191
 51
180.0
  0
ARC
  5
104
330
1F
100
AcDbEntity
  8
0
  6
Continuous
 62
     7
370
    25
100
AcDbCircle
 10
24.2349948324
 20
286.1156290457
 30
0.0
 40
1.000000000000022
100
AcDbArc
 50
0.0
 51
80.4369144809
  0
LINE
  5
105
330
1F
100
AcDbEntity
  8
0
  6
Continuous
 62
     7
370
    25
100
AcDbLine
 10
-24.5124144862
 20
282.6711657052
 30
0.0
 11
-17.0175958489
 21
274.2394947382
 31
0.0
  0
LINE
  5
106
330
1F
100
AcDbEntity
  8
0
  6
Continuous
 62
     7
370
    25
100
AcDbLine
 10
17.4875855138
 20
274.2394947382
 30
0.0
 11
24.9824041511
 21
282.6711657052
 31
0.0
  0
ARC
  5
107
330
1F
100
AcDbEntity
  8
0
  6
Continuous
 62
     7
370
    25
100
AcDbCircle
 10
14.1963339347
 20
226.5300603463
 30
0.0
 40
61.42528204188938
100
AcDbArc
 50
80.4369144809
 51
89.963938197
  0
ARC
  5
108
330
1F
100
AcDbEntity
  8
0
  6
Continuous
 62
     7
370
    25
100
AcDbCircle
 10
-13.7263442698
 20
226.5300603463
 30
0.0
 40
61.42528204188938
100
AcDbArc
 50
90.036061803
 51
99.5630855191
  0
ARC
  5
109
330
1F
100
AcDbEntity
  8
0
  6
Continuous
 62
     7
370
    25
100
AcDbCircle
 10
18.2349948324
 20
273.5751308994
 30
0.0
 40
1.000000000000007
100
AcDbArc
 50
138.3664606634
 51
180.0
  0
ARC
  5
10A
330
1F
100
AcDbEntity
  8
0
  6
Continuous
 62
     7
370
    25
100
AcDbCircle
 10
-17.7650051676
 20
273.5751308994
 30
0.0
 40
1.000000000000031
100
AcDbArc
 50
0.0
 51
41.6335393366
  0
LINE
  5
10B
330
1F
100
AcDbEntity
  8
0
  6
Continuous
 62
     7
370
    25
100
AcDbLine
 10
17.2349948324
 20
270.9553302217
 30
0.0
 11
17.2349948324
 21
273.5751308994
 31
0.0
  0
LINE
  5
10C
330
1F
100
AcDbEntity
  8
0
  6
Continuous
 62
     7
370
    25
100
AcDbLine
 10
-16.7650051676
 20
273.5751308994
 30
0.0
 11
-16.7650051676
 21
270.9553302217
 31
0.0
  0
ARC
  5
10D
330
1F
100
AcDbEntity
  8
0
  6
Continuous
 62
     7
370
    25
100
AcDbCircle
 10
16.2349948324
 20
270.9553302217
 30
0.0
 40
1.0
100
AcDbArc
 50
270.0
 51
0.0
  0
ARC
  5
10E
330
1F
100
AcDbEntity
  8
0
  6
Continuous
 62
     7
370
    25
100
AcDbCircle
 10
-15.7650051676
 20
270.9553302217
 30
0.0
 40
1.000000000000002
100
AcDbArc
 50
180.0
 51
270.0
  0
ARC
  5
10F
330
1F
100
AcDbEntity
  8
0
  6
Continuous
 62
     7
370
    25
100
AcDbCircle
 10
30.7526564559
 20
283.3355295441
 30
0.0
 40
1.0
100
AcDbArc
 50
318.3664606634
 51
0.0
  0
ARC
  5
110
330
1F
100
AcDbEntity
  8
0
  6
Continuous
 62
     7
370
    25
100
AcDbCircle
 10
30.7526564559
 20
286.1156290457
 30
0.0
 40
1.000000000000022
100
AcDbArc
 50
0.0
 51
80.4369144809
  0
LINE
  5
111
330
1F
100
AcDbEntity
  8
0
  6
Continuous
 62
     7
370
    25
100
AcDbLine
 10
31.7526564559
 20
283.3355295441
 30
0.0
 11
31.7526564559
 21
286.1156290457
 31
0.0
  0
LINE
  5
112
330
1F
100
AcDbEntity
  8
0
  6
Continuous
 62
     7
370
    25
100
AcDbLine
 10
24.0052471372
 20
274.2394947382
 30
0.0
 11
31.5000657746
 21
282.6711657052
 31
0.0
  0
ARC
  5
113
330
1F
100
AcDbEntity
  8
0
  6
Continuous
 62
     7
370
    25
100
AcDbCircle
 10
20.7139955582
 20
226.5300603463
 30
0.0
 40
61.42528204188938
100
AcDbArc
 50
80.4369144809
 51
89.963938197
  0
ARC
  5
114
330
1F
100
AcDbEntity
  8
0
  6
Continuous
 62
     7
370
    25
100
AcDbCircle
 10
24.7526564559
 20
273.5751308994
 30
0.0
 40
1.000000000000007
100
AcDbArc
 50
138.3664606634
 51
180.0
  0
LINE
  5
115
330
1F
100
AcDbEntity
  8
0
  6
Continuous
 62
     7
370
    25
100
AcDbLine
 10
23.7526564559
 20
270.9553302217
 30
0.0
 11
23.7526564559
 21
273.5751308994
 31
0.0
  0
ARC
  5
116
330
1F
100
AcDbEntity
  8
0
  6
Continuous
 62
     7
370
    25
100
AcDbCircle
 10
22.7526564559
 20
270.9553302217
 30
0.0
 40
1.0
100
AcDbArc
 50
270.0
 51
0.0
  0
ARC
  5
117
330
1F
100
AcDbEntity
  8
0
  6
Continuous
 62
     7
370
    25
100
AcDbCircle
 10
393.7314322255
 20
283.3355295441
 30
0.0
 40
1.0
100
AcDbArc
 50
180.0
 51
221.6335393366
  0
LINE
  5
118
330
1F
100
AcDbEntity
  8
0
  6
Continuous
 62
     7
370
    25
100
AcDbLine
 10
392.7314322255
 20
286.1156290457
 30
0.0
 11
392.7314322255
 21
283.3355295441
 31
0.0
  0
ARC
  5
119
330
1F
100
AcDbEntity
  8
0
  6
Continuous
 62
     7
370
    25
100
AcDbCircle
 10
393.7314322255
 20
286.1156290457
 30
0.0
 40
1.000000000000025
100
AcDbArc
 50
99.5630855191
 51
180.0
  0
LINE
  5
11A
330
1F
100
AcDbEntity
  8
0
  6
Continuous
 62
     7
370
    25
100
AcDbLine
 10
392.9840229068
 20
282.6711657052
 30
0.0
 11
400.4788415442
 21
274.2394947382
 31
0.0
  0
ARC
  5
11B
330
1F
100
AcDbEntity
  8
0
  6
Continuous
 62
     7
370
    25
100
AcDbCircle
 10
403.7700931233
 20
226.5300603463
 30
0.0
 40
61.42528204188938
100
AcDbArc
 50
90.036061803
 51
99.5630855191
  0
ARC
  5
11C
330
1F
100
AcDbEntity
  8
0
  6
Continuous
 62
     7
370
    25
100
AcDbCircle
 10
399.7314322255
 20
273.5751308994
 30
0.0
 40
1.000000000000018
100
AcDbArc
 50
0.0
 51
41.6335393366
  0
LINE
  5
11D
330
1F
100
AcDbEntity
  8
0
  6
Continuous
 62
     7
370
    25
100
AcDbLine
 10
400.7314322255
 20
273.5751308994
 30
0.0
 11
400.7314322255
 21
270.9553302217
 31
0.0
  0
ARC
  5
11E
330
1F
100
AcDbEntity
  8
0
  6
Continuous
 62
     7
370
    25
100
AcDbCircle
 10
401.7314322255
 20
270.9553302217
 30
0.0
 40
1.0
100
AcDbArc
 50
180.0
 51
270.0
  0
ARC
  5
11F
330
1F
100
AcDbEntity
  8
0
  6
Continuous
 62
     7
370
    25
100
AcDbCircle
 10
448.249093849
 20
58.7950313977
 30
0.0
 40
1.000000000000004
100
AcDbArc
 50
279.5630855191
 51
0.0
  0
ARC
  5
120
330
1F
100
AcDbEntity
  8
0
  6
Continuous
 62
     7
370
    25
100
AcDbCircle
 10
400.249093849
 20
58.7950313977
 30
0.0
 40
1.000000000000004
100
AcDbArc
 50
180.0
 51
260.4369144809
  0
ARC
  5
121
330
1F
100
AcDbEntity
  8
0
  6
Continuous
 62
     7
370
    25
100
AcDbCircle
 10
448.249093849
 20
61.5751308994
 30
0.0
 40
1.0
100
AcDbArc
 50
0.0
 51
41.6335393366
  0
ARC
  5
122
330
1F
100
AcDbEntity
  8
0
  6
Continuous
 62
     7
370
    25
100
AcDbCircle
 10
400.249093849
 20
61.5751308994
 30
0.0
 40
1.0
100
AcDbArc
 50
138.3664606634
 51
180.0
  0
LINE
  5
123
330
1F
100
AcDbEntity
  8
0
  6
Continuous
 62
     7
370
    25
100
AcDbLine
 10
399.249093849
 20
61.5751308994
 30
0.0
 11
399.249093849
 21
58.7950313977
 31
0.0
  0
LINE
  5
124
330
1F
100
AcDbEntity
  8
0
  6
Continuous
 62
     7
370
    25
100
AcDbLine
 10
449.249093849
 20
58.7950313977
 30
0.0
 11
449.249093849
 21
61.5751308994
 31
0.0
  0
LINE
  5
125
330
1F
100
AcDbEntity
  8
0
  6
Continuous
 62
     7
370
    25
100
AcDbLine
 10
448.9965031677
 20
62.2394947382
 30
0.0
 11
441.5016845303
 21
70.6711657052
 31
0.0
  0
LINE
  5
126
330
1F
100
AcDbEntity
  8
0
  6
Continuous
 62
     7
370
    25
100
AcDbLine
 10
406.9965031677
 20
70.6711657052
 30
0.0
 11
399.5016845303
 21
62.2394947382
 31
0.0
  0
ARC
  5
127
330
1F
100
AcDbEntity
  8
0
  6
Continuous
 62
     7
370
    25
100
AcDbCircle
 10
410.2877547468
 20
118.3806000971
 30
0.0
 40
61.42528204188941
100
AcDbArc
 50
260.4369144809
 51
269.963938197
  0
ARC
  5
128
330
1F
100
AcDbEntity
  8
0
  6
Continuous
 62
     7
370
    25
100
AcDbCircle
 10
438.2104329512
 20
118.3806000971
 30
0.0
 40
61.42528204188941
100
AcDbArc
 50
270.036061803
 51
279.5630855191
  0
ARC
  5
129
330
1F
100
AcDbEntity
  8
0
  6
Continuous
 62
     7
370
    25
100
AcDbCircle
 10
406.249093849
 20
71.3355295441
 30
0.0
 40
1.0
100
AcDbArc
 50
318.3664606634
 51
0.0
  0
ARC
  5
12A
330
1F
100
AcDbEntity
  8
0
  6
Continuous
 62
     7
370
    25
100
AcDbCircle
 10
442.249093849
 20
71.3355295441
 30
0.0
 40
1.000000000000042
100
AcDbArc
 50
180.0
 51
221.6335393366
  0
ARC
  5
12B
330
1F
100
AcDbEntity
  8
0
  6
Continuous
 62
     7
370
    25
100
AcDbCircle
 10
408.249093849
 20
73.9553302217
 30
0.0
 40
1.0
100
AcDbArc
 50
90.0
 51
180.0
  0
ARC
  5
12C
330
1F
100
AcDbEntity
  8
0
  6
Continuous
 62
     7
370
    25
100
AcDbCircle
 10
440.249093849
 20
73.9553302217
 30
0.0
 40
1.0
100
AcDbArc
 50
0.0
 51
90.0
  0
LINE
  5
12D
330
1F
100
AcDbEntity
  8
0
  6
Continuous
 62
     7
370
    25
100
AcDbLine
 10
407.249093849
 20
73.9553302217
 30
0.0
 11
407.249093849
 21
71.3355295441
 31
0.0
  0
LINE
  5
12E
330
1F
100
AcDbEntity
  8
0
  6
Continuous
 62
     7
370
    25
100
AcDbLine
 10
441.249093849
 20
71.3355295441
 30
0.0
 11
441.249093849
 21
73.9553302217
 31
0.0
  0
LINE
  5
12F
330
1F
100
AcDbEntity
  8
0
  6
Continuous
 62
     7
370
    25
100
AcDbLine
 10
449.249093849
 20
283.3355295441
 30
0.0
 11
449.249093849
 21
286.1156290457
 31
0.0
  0
LINE
  5
130
330
1F
100
AcDbEntity
  8
0
  6
Continuous
 62
     7
370
    25
100
AcDbLine
 10
399.249093849
 20
286.1156290457
 30
0.0
 11
399.249093849
 21
283.3355295441
 31
0.0
  0
ARC
  5
131
330
1F
100
AcDbEntity
  8
0
  6
Continuous
 62
     7
370
    25
100
AcDbCircle
 10
400.249093849
 20
286.1156290457
 30
0.0
 40
1.000000000000025
100
AcDbArc
 50
99.5630855191
 51
180.0
  0
ARC
  5
132
330
1F
100
AcDbEntity
  8
0
  6
Continuous
 62
     7
370
    25
100
AcDbCircle
 10
448.249093849
 20
286.1156290457
 30
0.0
 40
1.000000000000016
100
AcDbArc
 50
0.0
 51
80.4369144809
  0
ARC
  5
133
330
1F
100
AcDbEntity
  8
0
  6
Continuous
 62
     7
370
    25
100
AcDbCircle
 10
400.249093849
 20
283.3355295441
 30
0.0
 40
1.0
100
AcDbArc
 50
180.0
 51
221.6335393366
  0
ARC
  5
134
330
1F
100
AcDbEntity
  8
0
  6
Continuous
 62
     7
370
    25
100
AcDbCircle
 10
448.249093849
 20
283.3355295441
 30
0.0
 40
1.0
100
AcDbArc
 50
318.3664606634
 51
0.0
  0
LINE
  5
135
330
1F
100
AcDbEntity
  8
0
  6
Continuous
 62
     7
370
    25
100
AcDbLine
 10
399.5016845303
 20
282.6711657052
 30
0.0
 11
406.9965031677
 21
274.2394947382
 31
0.0
  0
LINE
  5
136
330
1F
100
AcDbEntity
  8
0
  6
Continuous
 62
     7
370
    25
100
AcDbLine
 10
441.5016845303
 20
274.2394947382
 30
0.0
 11
448.9965031677
 21
282.6711657052
 31
0.0
  0
ARC
  5
137
330
1F
100
AcDbEntity
  8
0
  6
Continuous
 62
     7
370
    25
100
AcDbCircle
 10
438.2104329512
 20
226.5300603463
 30
0.0
 40
61.42528204188938
100
AcDbArc
 50
80.4369144809
 51
89.963938197
  0
ARC
  5
138
330
1F
100
AcDbEntity
  8
0
  6
Continuous
 62
     7
370
    25
100
AcDbCircle
 10
410.2877547468
 20
226.5300603463
 30
0.0
 40
61.42528204188937
100
AcDbArc
 50
90.036061803
 51
99.5630855191
  0
ARC
  5
139
330
1F
100
AcDbEntity
  8
0
  6
Continuous
 62
     7
370
    25
100
AcDbCircle
 10
442.249093849
 20
273.5751308994
 30
0.0
 40
1.00000000000006
100
AcDbArc
 50
138.3664606634
 51
180.0
  0
ARC
  5
13A
330
1F
100
AcDbEntity
  8
0
  6
Continuous
 62
     7
370
    25
100
AcDbCircle
 10
406.249093849
 20
273.5751308994
 30
0.0
 40
1.0
100
AcDbArc
 50
0.0
 51
41.6335393366
  0
LINE
  5
13B
330
1F
100
AcDbEntity
  8
0
  6
Continuous
 62
     7
370
    25
100
AcDbLine
 10
441.249093849
 20
270.9553302217
 30
0.0
 11
441.249093849
 21
273.5751308994
 31
0.0
  0
LINE
  5
13C
330
1F
100
AcDbEntity
  8
0
  6
Continuous
 62
     7
370
    25
100
AcDbLine
 10
407.249093849
 20
273.5751308994
 30
0.0
 11
407.249093849
 21
270.9553302217
 31
0.0
  0
ARC
  5
13D
330
1F
100
AcDbEntity
  8
0
  6
Continuous
 62
     7
370
    25
100
AcDbCircle
 10
440.249093849
 20
270.9553302217
 30
0.0
 40
1.0
100
AcDbArc
 50
270.0
 51
0.0
  0
ARC
  5
13E
330
1F
100
AcDbEntity
  8
0
  6
Continuous
 62
     7
370
    25
100
AcDbCircle
 10
408.249093849
 20
270.9553302217
 30
0.0
 40
1.0
100
AcDbArc
 50
180.0
 51
270.0
  0
ARC
  5
13F
330
1F
100
AcDbEntity
  8
0
  6
Continuous
 62
     7
370
    25
100
AcDbCircle
 10
404.9814322255
 20
56.7074758267
 30
0.0
 40
1.000000000000007
100
AcDbArc
 50
180.0
 51
254.3504861218
  0
LINE
  5
140
330
1F
100
AcDbEntity
  8
0
  6
Continuous
 62
     7
370
    25
100
AcDbLine
 10
403.9814322255
 20
56.9553302217
 30
0.0
 11
403.9814322255
 21
56.7074758267
 31
0.0
  0
ARC
  5
141
330
1F
100
AcDbEntity
  8
0
  6
Continuous
 62
     7
370
    25
100
AcDbCircle
 10
417.7314322255
 20
102.2209552217
 30
0.0
 40
48.26562500000038
100
AcDbArc
 50
254.3504861218
 51
273.8714801754
  0
LINE
  5
142
330
1F
100
AcDbEntity
  8
0
  6
Continuous
 62
     7
370
    25
100
AcDbLine
 10
13.9849948324
 20
287.9553302217
 30
0.0
 11
13.9849948324
 21
288.2031846167
 31
0.0
  0
LINE
  5
143
330
1F
100
AcDbEntity
  8
0
  6
Continuous
 62
     7
370
    25
100
AcDbLine
 10
-13.5150051676
 20
288.2031846167
 30
0.0
 11
-13.5150051676
 21
287.9553302217
 31
0.0
  0
ARC
  5
144
330
1F
100
AcDbEntity
  8
0
  6
Continuous
 62
     7
370
    25
100
AcDbCircle
 10
12.9849948324
 20
288.2031846167
 30
0.0
 40
1.0
100
AcDbArc
 50
0.0
 51
74.3504861218
  0
ARC
  5
145
330
1F
100
AcDbEntity
  8
0
  6
Continuous
 62
     7
370
    25
100
AcDbCircle
 10
-12.5150051676
 20
288.2031846167
 30
0.0
 40
1.000000000000002
100
AcDbArc
 50
105.6495138782
 51
180.0
  0
ARC
  5
146
330
1F
100
AcDbEntity
  8
0
  6
Continuous
 62
     7
370
    25
100
AcDbCircle
 10
0.2349948324
 20
242.6897052217
 30
0.0
 40
48.26562500000037
100
AcDbArc
 50
74.3504861218
 51
105.6495138782
  0
ARC
  5
147
330
1F
100
AcDbEntity
  8
0
  6
Continuous
 62
     7
370
    25
100
AcDbCircle
 10
19.5026564559
 20
56.7074758267
 30
0.0
 40
1.000000000000009
100
AcDbArc
 50
285.6495138782
 51
0.0
  0
LINE
  5
148
330
1F
100
AcDbEntity
  8
0
  6
Continuous
 62
     7
370
    25
100
AcDbLine
 10
20.5026564559
 20
56.7074758267
 30
0.0
 11
20.5026564559
 21
56.9553302217
 31
0.0
  0
ARC
  5
149
330
1F
100
AcDbEntity
  8
0
  6
Continuous
 62
     7
370
    25
100
AcDbCircle
 10
6.7526564559
 20
102.2209552217
 30
0.0
 40
48.26562500000037
100
AcDbArc
 50
266.1285198245
 51
285.6495138782
  0
ARC
  5
14A
330
1F
100
AcDbEntity
  8
0
  6
Continuous
 62
     7
370
    25
100
AcDbCircle
 10
404.9814322255
 20
288.2031846167
 30
0.0
 40
1.0
100
AcDbArc
 50
105.6495138782
 51
180.0
  0
LINE
  5
14B
330
1F
100
AcDbEntity
  8
0
  6
Continuous
 62
     7
370
    25
100
AcDbLine
 10
403.9814322255
 20
288.2031846167
 30
0.0
 11
403.9814322255
 21
287.9553302217
 31
0.0
  0
ARC
  5
14C
330
1F
100
AcDbEntity
  8
0
  6
Continuous
 62
     7
370
    25
100
AcDbCircle
 10
417.7314322255
 20
242.6897052217
 30
0.0
 40
48.26562500000039
100
AcDbArc
 50
86.1285198245
 51
105.6495138782
  0
LINE
  5
14D
330
1F
100
AcDbEntity
  8
0
  6
Continuous
 62
     7
370
    25
100
AcDbLine
 10
-13.5150051676
 20
56.9553302217
 30
0.0
 11
-13.5150051676
 21
56.7074758267
 31
0.0
  0
LINE
  5
14E
330
1F
100
AcDbEntity
  8
0
  6
Continuous
 62
     7
370
    25
100
AcDbLine
 10
13.9849948324
 20
56.7074758267
 30
0.0
 11
13.9849948324
 21
56.9553302217
 31
0.0
  0
ARC
  5
14F
330
1F
100
AcDbEntity
  8
0
  6
Continuous
 62
     7
370
    25
100
AcDbCircle
 10
-12.5150051676
 20
56.7074758267
 30
0.0
 40
1.000000000000009
100
AcDbArc
 50
180.0
 51
254.3504861218
  0
ARC
  5
150
330
1F
100
AcDbEntity
  8
0
  6
Continuous
 62
     7
370
    25
100
AcDbCircle
 10
12.9849948324
 20
56.7074758267
 30
0.0
 40
1.000000000000009
100
AcDbArc
 50
285.6495138782
 51
0.0
  0
ARC
  5
151
330
1F
100
AcDbEntity
  8
0
  6
Continuous
 62
     7
370
    25
100
AcDbCircle
 10
0.2349948324
 20
102.2209552217
 30
0.0
 40
48.26562500000036
100
AcDbArc
 50
254.3504861218
 51
285.6495138782
  0
ARC
  5
152
330
1F
100
AcDbEntity
  8
0
  6
Continuous
 62
     7
370
    25
100
AcDbCircle
 10
436.999093849
 20
288.2031846167
 30
0.0
 40
1.0
100
AcDbArc
 50
0.0
 51
74.3504861218
  0
ARC
  5
153
330
1F
100
AcDbEntity
  8
0
  6
Continuous
 62
     7
370
    25
100
AcDbCircle
 10
411.499093849
 20
288.2031846167
 30
0.0
 40
1.0
100
AcDbArc
 50
105.6495138782
 51
180.0
  0
LINE
  5
154
330
1F
100
AcDbEntity
  8
0
  6
Continuous
 62
     7
370
    25
100
AcDbLine
 10
437.999093849
 20
287.9553302217
 30
0.0
 11
437.999093849
 21
288.2031846167
 31
0.0
  0
LINE
  5
155
330
1F
100
AcDbEntity
  8
0
  6
Continuous
 62
     7
370
    25
100
AcDbLine
 10
410.499093849
 20
288.2031846167
 30
0.0
 11
410.499093849
 21
287.9553302217
 31
0.0
  0
ARC
  5
156
330
1F
100
AcDbEntity
  8
0
  6
Continuous
 62
     7
370
    25
100
AcDbCircle
 10
424.249093849
 20
242.6897052217
 30
0.0
 40
48.26562500000038
100
AcDbArc
 50
74.3504861218
 51
105.6495138782
  0
ARC
  5
157
330
1F
100
AcDbEntity
  8
0
  6
Continuous
 62
     7
370
    25
100
AcDbCircle
 10
19.5026564559
 20
288.2031846167
 30
0.0
 40
1.0
100
AcDbArc
 50
0.0
 51
74.3504861218
  0
LINE
  5
158
330
1F
100
AcDbEntity
  8
0
  6
Continuous
 62
     7
370
    25
100
AcDbLine
 10
20.5026564559
 20
287.9553302217
 30
0.0
 11
20.5026564559
 21
288.2031846167
 31
0.0
  0
ARC
  5
159
330
1F
100
AcDbEntity
  8
0
  6
Continuous
 62
     7
370
    25
100
AcDbCircle
 10
6.7526564559
 20
242.6897052217
 30
0.0
 40
48.2656250000004
100
AcDbArc
 50
74.3504861218
 51
93.8714801755
  0
ARC
  5
15A
330
1F
100
AcDbEntity
  8
0
  6
Continuous
 62
     7
370
    25
100
AcDbCircle
 10
411.499093849
 20
56.7074758267
 30
0.0
 40
1.000000000000007
100
AcDbArc
 50
180.0
 51
254.3504861218
  0
ARC
  5
15B
330
1F
100
AcDbEntity
  8
0
  6
Continuous
 62
     7
370
    25
100
AcDbCircle
 10
436.999093849
 20
56.7074758267
 30
0.0
 40
1.000000000000022
100
AcDbArc
 50
285.6495138782
 51
0.0
  0
LINE
  5
15C
330
1F
100
AcDbEntity
  8
0
  6
Continuous
 62
     7
370
    25
100
AcDbLine
 10
410.499093849
 20
56.9553302217
 30
0.0
 11
410.499093849
 21
56.7074758267
 31
0.0
  0
LINE
  5
15D
330
1F
100
AcDbEntity
  8
0
  6
Continuous
 62
     7
370
    25
100
AcDbLine
 10
437.999093849
 20
56.7074758267
 30
0.0
 11
437.999093849
 21
56.9553302217
 31
0.0
  0
ARC
  5
15E
330
1F
100
AcDbEntity
  8
0
  6
Continuous
 62
     7
370
    25
100
AcDbCircle
 10
424.249093849
 20
102.2209552217
 30
0.0
 40
48.2656250000004
100
AcDbArc
 50
254.3504861218
 51
285.6495138782
  0
LINE
  5
15F
330
1F
100
AcDbEntity
  8
0
  6
Continuous
 62
     7
370
    25
100
AcDbLine
 10
112.2420443407
 20
197.9553302217
 30
0.0
 11
112.2420443407
 21
199.9553302217
 31
0.0
  0
LINE
  5
160
330
1F
100
AcDbEntity
  8
0
  6
Continuous
 62
     7
370
    25
100
AcDbLine
 10
72.2420443407
 20
199.9553302217
 30
0.0
 11
72.2420443407
 21
197.9553302217
 31
0.0
  0
ARC
  5
161
330
1F
100
AcDbEntity
  8
0
  6
Continuous
 62
     7
370
    25
100
AcDbCircle
 10
92.3697366484
 20
199.9553302217
 30
0.0
 40
19.87230769230769
100
AcDbArc
 50
0.0
 51
46.9233678463
  0
ARC
  5
162
330
1F
100
AcDbEntity
  8
0
  6
Continuous
 62
     7
370
    25
100
AcDbCircle
 10
92.114352033
 20
199.9553302217
 30
0.0
 40
19.87230769230769
100
AcDbArc
 50
133.0766321537
 51
180.0
  0
ARC
  5
163
330
1F
100
AcDbEntity
  8
0
  6
Continuous
 62
     7
370
    25
100
AcDbCircle
 10
92.114352033
 20
144.9553302217
 30
0.0
 40
19.87230769230769
100
AcDbArc
 50
180.0
 51
226.9233678463
  0
ARC
  5
164
330
1F
100
AcDbEntity
  8
0
  6
Continuous
 62
     7
370
    25
100
AcDbCircle
 10
92.3697366484
 20
144.9553302217
 30
0.0
 40
19.87230769230769
100
AcDbArc
 50
313.0766321537
 51
0.0
  0
LINE
  5
165
330
1F
100
AcDbEntity
  8
0
  6
Continuous
 62
     7
370
    25
100
AcDbLine
 10
72.2420443407
 20
146.9553302217
 30
0.0
 11
72.2420443407
 21
144.9553302217
 31
0.0
  0
LINE
  5
166
330
1F
100
AcDbEntity
  8
0
  6
Continuous
 62
     7
370
    25
100
AcDbLine
 10
112.2420443407
 20
144.9553302217
 30
0.0
 11
112.2420443407
 21
146.9553302217
 31
0.0
  0
LINE
  5
167
330
1F
100
AcDbEntity
  8
0
  6
Continuous
 62
     7
370
    25
100
AcDbLine
 10
352.2420443407
 20
197.9553302217
 30
0.0
 11
352.2420443407
 21
199.9553302217
 31
0.0
  0
LINE
  5
168
330
1F
100
AcDbEntity
  8
0
  6
Continuous
 62
     7
370
    25
100
AcDbLine
 10
312.2420443407
 20
199.9553302217
 30
0.0
 11
312.2420443407
 21
197.9553302217
 31
0.0
  0
ARC
  5
169
330
1F
100
AcDbEntity
  8
0
  6
Continuous
 62
     7
370
    25
100
AcDbCircle
 10
332.3697366484
 20
199.9553302217
 30
0.0
 40
19.87230769230771
100
AcDbArc
 50
0.0
 51
46.9233678463
  0
ARC
  5
16A
330
1F
100
AcDbEntity
  8
0
  6
Continuous
 62
     7
370
    25
100
AcDbCircle
 10
332.114352033
 20
199.9553302217
 30
0.0
 40
19.87230769230773
100
AcDbArc
 50
133.0766321537
 51
180.0
  0
LINE
  5
16B
330
1F
100
AcDbEntity
  8
0
  6
Continuous
 62
     7
370
    25
100
AcDbLine
 10
312.2420443407
 20
146.9553302217
 30
0.0
 11
312.2420443407
 21
144.9553302217
 31
0.0
  0
LINE
  5
16C
330
1F
100
AcDbEntity
  8
0
  6
Continuous
 62
     7
370
    25
100
AcDbLine
 10
352.2420443407
 20
144.9553302217
 30
0.0
 11
352.2420443407
 21
146.9553302217
 31
0.0
  0
ARC
  5
16D
330
1F
100
AcDbEntity
  8
0
  6
Continuous
 62
     7
370
    25
100
AcDbCircle
 10
332.114352033
 20
144.9553302217
 30
0.0
 40
19.87230769230771
100
AcDbArc
 50
180.0
 51
226.9233678463
  0
ARC
  5
16E
330
1F
100
AcDbEntity
  8
0
  6
Continuous
 62
     7
370
    25
100
AcDbCircle
 10
332.3697366484
 20
144.9553302217
 30
0.0
 40
19.87230769230769
100
AcDbArc
 50
313.0766321537
 51
0.0
  0
ARC
  5
16F
330
1F
100
AcDbEntity
  8
0
  6
Continuous
 62
     7
370
    25
100
AcDbCircle
 10
79.1420443407
 20
129.8249389033
 30
0.0
 40
0.5999999999999943
100
AcDbArc
 50
180.0
 51
243.6246146768
  0
ARC
  5
170
330
1F
100
AcDbEntity
  8
0
  6
Continuous
 62
     7
370
    25
100
AcDbCircle
 10
105.3420443407
 20
129.8249389033
 30
0.0
 40
0.6000000000000085
100
AcDbArc
 50
296.3753853232
 51
0.0
  0
LINE
  5
171
330
1F
100
AcDbEntity
  8
0
  6
Continuous
 62
     7
370
    25
100
AcDbLine
 10
78.5420443407
 20
130.4397841788
 30
0.0
 11
78.5420443407
 21
129.8249389033
 31
0.0
  0
LINE
  5
172
330
1F
100
AcDbEntity
  8
0
  6
Continuous
 62
     7
370
    25
100
AcDbLine
 10
105.9420443407
 20
129.8249389033
 30
0.0
 11
105.9420443407
 21
130.4397841788
 31
0.0
  0
ARC
  5
173
330
1F
100
AcDbEntity
  8
0
  6
Continuous
 62
     7
370
    25
100
AcDbCircle
 10
92.2420443407
 20
156.2432090096
 30
0.0
 40
30.08787878787877
100
AcDbArc
 50
243.6246146768
 51
296.3753853232
  0
ARC
  5
174
330
1F
100
AcDbEntity
  8
0
  6
Continuous
 62
     7
370
    25
100
AcDbCircle
 10
319.1420443407
 20
129.8249389033
 30
0.0
 40
0.6000000000000227
100
AcDbArc
 50
180.0
 51
243.6246146768
  0
ARC
  5
175
330
1F
100
AcDbEntity
  8
0
  6
Continuous
 62
     7
370
    25
100
AcDbCircle
 10
345.3420443407
 20
129.8249389033
 30
0.0
 40
0.6000000000000227
100
AcDbArc
 50
296.3753853232
 51
0.0
  0
LINE
  5
176
330
1F
100
AcDbEntity
  8
0
  6
Continuous
 62
     7
370
    25
100
AcDbLine
 10
318.5420443407
 20
130.4397841788
 30
0.0
 11
318.5420443407
 21
129.8249389033
 31
0.0
  0
LINE
  5
177
330
1F
100
AcDbEntity
  8
0
  6
Continuous
 62
     7
370
    25
100
AcDbLine
 10
345.9420443407
 20
129.8249389033
 30
0.0
 11
345.9420443407
 21
130.4397841788
 31
0.0
  0
ARC
  5
178
330
1F
100
AcDbEntity
  8
0
  6
Continuous
 62
     7
370
    25
100
AcDbCircle
 10
332.2420443407
 20
156.2432090096
 30
0.0
 40
30.08787878787876
100
AcDbArc
 50
243.6246146768
 51
296.3753853232
  0
ARC
  5
179
330
1F
100
AcDbEntity
  8
0
  6
Continuous
 62
     7
370
    25
100
AcDbCircle
 10
105.3420443407
 20
215.0857215401
 30
0.0
 40
0.6000000000000085
100
AcDbArc
 50
0.0
 51
63.6246146768
  0
ARC
  5
17A
330
1F
100
AcDbEntity
  8
0
  6
Continuous
 62
     7
370
    25
100
AcDbCircle
 10
79.1420443407
 20
215.0857215401
 30
0.0
 40
0.5999999999999943
100
AcDbArc
 50
116.3753853232
 51
180.0
  0
LINE
  5
17B
330
1F
100
AcDbEntity
  8
0
  6
Continuous
 62
     7
370
    25
100
AcDbLine
 10
105.9420443407
 20
214.4708762646
 30
0.0
 11
105.9420443407
 21
215.0857215401
 31
0.0
  0
LINE
  5
17C
330
1F
100
AcDbEntity
  8
0
  6
Continuous
 62
     7
370
    25
100
AcDbLine
 10
78.5420443407
 20
215.0857215401
 30
0.0
 11
78.5420443407
 21
214.4708762646
 31
0.0
  0
ARC
  5
17D
330
1F
100
AcDbEntity
  8
0
  6
Continuous
 62
     7
370
    25
100
AcDbCircle
 10
92.2420443407
 20
188.6674514338
 30
0.0
 40
30.08787878787876
100
AcDbArc
 50
63.6246146768
 51
116.3753853232
  0
LINE
  5
17E
330
1F
100
AcDbEntity
  8
0
  6
Continuous
 62
     7
370
    25
100
AcDbLine
 10
345.9420443407
 20
214.4708762646
 30
0.0
 11
345.9420443407
 21
215.0857215401
 31
0.0
  0
LINE
  5
17F
330
1F
100
AcDbEntity
  8
0
  6
Continuous
 62
     7
370
    25
100
AcDbLine
 10
318.5420443407
 20
215.0857215401
 30
0.0
 11
318.5420443407
 21
214.4708762646
 31
0.0
  0
ARC
  5
180
330
1F
100
AcDbEntity
  8
0
  6
Continuous
 62
     7
370
    25
100
AcDbCircle
 10
345.3420443407
 20
215.0857215401
 30
0.0
 40
0.6000000000000227
100
AcDbArc
 50
0.0
 51
63.6246146768
  0
ARC
  5
181
330
1F
100
AcDbEntity
  8
0
  6
Continuous
 62
     7
370
    25
100
AcDbCircle
 10
319.1420443407
 20
215.0857215401
 30
0.0
 40
0.6000000000000227
100
AcDbArc
 50
116.3753853232
 51
180.0
  0
ARC
  5
182
330
1F
100
AcDbEntity
  8
0
  6
Continuous
 62
     7
370
    25
100
AcDbCircle
 10
332.2420443407
 20
188.6674514338
 30
0.0
 40
30.08787878787876
100
AcDbArc
 50
63.6246146768
 51
116.3753853232
  0
LINE
  5
183
330
1F
100
AcDbEntity
  8
0
  6
Continuous
 62
     7
370
    25
100
AcDbLine
 10
267.4738183213
 20
114.5064858844
 30
0.0
 11
264.7990700804
 21
112.0707688027
 31
0.0
  0
ARC
  5
184
330
1F
100
AcDbEntity
  8
0
  6
Continuous
 62
     7
370
    25
100
AcDbCircle
 10
212.1629682978
 20
172.5972392124
 30
0.0
 40
99.77924780665857
100
AcDbArc
 50
90.2467980482
 51
165.277253332
  0
ARC
  5
185
330
1F
100
AcDbEntity
  8
0
  6
Continuous
 62
     7
370
    25
100
AcDbCircle
 10
212.252920711
 20
172.4355848626
 30
0.0
 40
99.91571107171833
100
AcDbArc
 50
194.7746219873
 51
345.2253780127
  0
ARC
  5
186
330
1F
100
AcDbEntity
  8
0
  6
Continuous
 62
     7
370
    25
100
AcDbCircle
 10
212.8991257008
 20
172.9264550622
 30
0.0
 40
99.1392498984556
100
AcDbArc
 50
14.6232377828
 51
61.3198754453
  0
LINE
  5
187
330
1F
100
AcDbEntity
  8
0
  6
Continuous
 62
     7
370
    25
100
AcDbLine
 10
280.8710573374
 20
99.8851979664
 30
0.0
 11
281.5086234324
 21
100.4996114983
 31
0.0
  0
LINE
  5
188
330
1F
100
AcDbEntity
  8
0
  6
Continuous
 62
     7
370
    25
100
AcDbLine
 10
735.2952081952
 20
1590.9553302217
 30
0.0
 11
-310.8111195138
 21
1590.9553302217
 31
0.0
  0
ARC
  5
189
330
1F
100
AcDbEntity
  8
0
  6
Continuous
 62
     7
370
    25
100
AcDbCircle
 10
735.2952081952
 20
290.9553302217
 30
0.0
 40
1300.0
100
AcDbArc
 50
0.0
 51
90.0
  0
LINE
  5
18A
330
1F
100
AcDbEntity
  8
0
  6
Continuous
 62
     7
370
    25
100
AcDbLine
 10
2035.2952081952
 20
53.9553302217
 30
0.0
 11
2035.2952081952
 21
290.9553302217
 31
0.0
  0
ARC
  5
18B
330
1F
100
AcDbEntity
  8
0
  6
Continuous
 62
     7
370
    25
100
AcDbCircle
 10
735.2952081952
 20
53.9553302217
 30
0.0
 40
1300.0
100
AcDbArc
 50
270.0
 51
0.0
  0
LINE
  5
18C
330
1F
100
AcDbEntity
  8
0
  6
Continuous
 62
     7
370
    25
100
AcDbLine
 10
-310.8111195138
 20
-1246.0446697783
 30
0.0
 11
735.2952081952
 21
-1246.0446697783
 31
0.0
  0
ARC
  5
18D
330
1F
100
AcDbEntity
  8
0
  6
Continuous
 62
     7
370
    25
100
AcDbCircle
 10
-310.8111195138
 20
53.9553302217
 30
0.0
 40
1300.0
100
AcDbArc
 50
180.0
 51
270.0
  0
ARC
  5
18E
330
1F
100
AcDbEntity
  8
0
  6
Continuous
 62
     7
370
    25
100
AcDbCircle
 10
-310.8111195138
 20
290.9553302217
 30
0.0
 40
1300.0
100
AcDbArc
 50
90.0
 51
180.0
  0
LINE
  5
18F
330
1F
100
AcDbEntity
  8
0
  6
Continuous
 62
     7
370
    25
100
AcDbLine
 10
-1610.8111195138
 20
290.9553302217
 30
0.0
 11
-1610.8111195138
 21
53.9553302217
 31
0.0
  0
LINE
  5
190
330
1F
100
AcDbEntity
  8
0
  6
Continuous
 62
     7
370
    25
100
AcDbLine
 10
236.7280152728
 20
164.9553302217
 30
0.0
 11
187.7636986075
 21
164.9553302217
 31
0.0
  0
LINE
  5
191
330
1F
100
AcDbEntity
  8
0
  6
Continuous
 62
     7
370
    25
100
AcDbLine
 10
187.7560734087
 20
179.9553302217
 30
0.0
 11
236.720390074
 21
179.9553302217
 31
0.0
  0
LINE
  5
192
330
1F
100
AcDbEntity
  8
0
  6
Continuous
 62
     7
370
    25
100
AcDbLine
 10
-53.6347057463
 20
164.9553302217
 30
0.0
 11
187.5985876501
 21
164.9553302217
 31
0.0
  0
LINE
  5
193
330
1F
100
AcDbEntity
  8
0
  6
Continuous
 62
     7
370
    25
100
AcDbLine
 10
-53.602048807
 20
179.9553302217
 30
0.0
 11
187.5909724513
 21
179.9553302217
 31
0.0
  0
LINE
  5
194
330
1F
100
AcDbEntity
  8
0
  6
Continuous
 62
     7
370
    25
100
AcDbLine
 10
-289.9756741321
 20
164.9553302217
 30
0.0
 11
-307.8109839727
 21
164.9553302217
 31
0.0
  0
LINE
  5
195
330
1F
100
AcDbEntity
  8
0
  6
Continuous
 62
     7
370
    25
100
AcDbLine
 10
-307.7788839408
 20
179.9553302217
 30
0.0
 11
-289.983819779
 21
179.9553302217
 31
0.0
  0
LINE
  5
196
330
1F
100
AcDbEntity
  8
0
  6
Continuous
 62
     7
370
    25
100
AcDbLine
 10
478.1187944277
 20
179.9553302217
 30
0.0
 11
236.8855010313
 21
179.9553302217
 31
0.0
  0
LINE
  5
197
330
1F
100
AcDbEntity
  8
0
  6
Continuous
 62
     7
370
    25
100
AcDbLine
 10
478.0861374884
 20
164.9553302217
 30
0.0
 11
236.8931162301
 21
164.9553302217
 31
0.0
  0
LINE
  5
198
330
1F
100
AcDbEntity
  8
0
  6
Continuous
 62
     7
370
    25
100
AcDbLine
 10
714.4597628135
 20
179.9553302217
 30
0.0
 11
732.2950726542
 21
179.9553302217
 31
0.0
  0
LINE
  5
199
330
1F
100
AcDbEntity
  8
0
  6
Continuous
 62
     7
370
    25
100
AcDbLine
 10
732.2629726223
 20
164.9553302217
 30
0.0
 11
714.4679084604
 21
164.9553302217
 31
0.0
  0
LINE
  5
19A
330
1F
100
AcDbEntity
  8
0
  6
Continuous
 62
     7
370
    25
100
AcDbLine
 10
476.8976352826
 20
148.9553302217
 30
0.0
 11
447.088504818
 21
148.9553302217
 31
0.0
  0
ARC
  5
19B
330
1F
100
AcDbEntity
  8
0
  6
Continuous
 62
     7
370
    25
100
AcDbCircle
 10
447.5540755912
 20
151.6123534686
 30
0.0
 40
2.697504157442701
100
AcDbArc
 50
172.6953008496
 51
260.0613746417
  0
ARC
  5
19C
330
1F
100
AcDbEntity
  8
0
  6
Continuous
 62
     7
370
    25
100
AcDbCircle
 10
373.7055605127
 20
162.6751822086
 30
0.0
 40
4.253251164950485
100
AcDbArc
 50
350.2559318988
 51
32.4182233493
  0
LINE
  5
19D
330
1F
100
AcDbEntity
  8
0
  6
Continuous
 62
     7
370
    25
100
AcDbLine
 10
377.8974525186
 20
161.9553302217
 30
0.0
 11
377.8974525186
 21
151.9553302217
 31
0.0
  0
ARC
  5
19E
330
1F
100
AcDbEntity
  8
0
  6
Continuous
 62
     7
370
    25
100
AcDbCircle
 10
373.7055605127
 20
151.2354782348
 30
0.0
 40
4.253251164949159
100
AcDbArc
 50
327.5817766507
 51
9.7440681012
  0
LINE
  5
19F
330
1F
100
AcDbEntity
  8
0
  6
Continuous
 62
     7
370
    25
100
AcDbLine
 10
447.088504818
 20
148.9553302217
 30
0.0
 11
441.249093849
 21
148.9553302217
 31
0.0
  0
LINE
  5
1A0
330
1F
100
AcDbEntity
  8
0
  6
Continuous
 62
     7
370
    25
100
AcDbLine
 10
407.249093849
 20
148.9553302217
 30
0.0
 11
377.295974209
 21
148.9553302217
 31
0.0
  0
LINE
  5
1A1
330
1F
100
AcDbEntity
  8
0
  6
Continuous
 62
     7
370
    25
100
AcDbLine
 10
377.295974209
 20
148.9553302217
 30
0.0
 11
364.6048183619
 21
148.9553302217
 31
0.0
  0
LINE
  5
1A2
330
1F
100
AcDbEntity
  8
0
  6
Continuous
 62
     7
370
    25
100
AcDbLine
 10
447.088504818
 20
195.9553302217
 30
0.0
 11
476.8976352826
 21
195.9553302217
 31
0.0
  0
ARC
  5
1A3
330
1F
100
AcDbEntity
  8
0
  6
Continuous
 62
     7
370
    25
100
AcDbCircle
 10
447.5540755912
 20
193.2983069748
 30
0.0
 40
2.697504157443357
100
AcDbArc
 50
99.9386253583
 51
187.3046991504
  0
LINE
  5
1A4
330
1F
100
AcDbEntity
  8
0
  6
Continuous
 62
     7
370
    25
100
AcDbLine
 10
377.8974525186
 20
192.9553302217
 30
0.0
 11
377.8974525186
 21
182.9553302217
 31
0.0
  0
ARC
  5
1A5
330
1F
100
AcDbEntity
  8
0
  6
Continuous
 62
     7
370
    25
100
AcDbCircle
 10
373.7055605127
 20
182.2354782348
 30
0.0
 40
4.25325116494915
100
AcDbArc
 50
327.5817766507
 51
9.7440681012
  0
ARC
  5
1A6
330
1F
100
AcDbEntity
  8
0
  6
Continuous
 62
     7
370
    25
100
AcDbCircle
 10
373.7055605127
 20
193.6751822086
 30
0.0
 40
4.253251164950485
100
AcDbArc
 50
350.2559318988
 51
32.4182233493
  0
LINE
  5
1A7
330
1F
100
AcDbEntity
  8
0
  6
Continuous
 62
     7
370
    25
100
AcDbLine
 10
377.295974209
 20
195.9553302217
 30
0.0
 11
407.249093849
 21
195.9553302217
 31
0.0
  0
LINE
  5
1A8
330
1F
100
AcDbEntity
  8
0
  6
Continuous
 62
     7
370
    25
100
AcDbLine
 10
441.249093849
 20
195.9553302217
 30
0.0
 11
447.088504818
 21
195.9553302217
 31
0.0
  0
LINE
  5
1A9
330
1F
100
AcDbEntity
  8
0
  6
Continuous
 62
     7
370
    25
100
AcDbLine
 10
364.6048183619
 20
195.9553302217
 30
0.0
 11
377.295974209
 21
195.9553302217
 31
0.0
  0
LINE
  5
1AA
330
1F
100
AcDbEntity
  8
0
  6
Continuous
 62
     7
370
    25
100
AcDbLine
 10
-22.6044161365
 20
148.9553302217
 30
0.0
 11
-52.4135466011
 21
148.9553302217
 31
0.0
  0
ARC
  5
1AB
330
1F
100
AcDbEntity
  8
0
  6
Continuous
 62
     7
370
    25
100
AcDbCircle
 10
-23.0699869097
 20
151.6123534686
 30
0.0
 40
2.697504157443333
100
AcDbArc
 50
279.9386253583
 51
7.3046991504
  0
ARC
  5
1AC
330
1F
100
AcDbEntity
  8
0
  6
Continuous
 62
     7
370
    25
100
AcDbCircle
 10
50.7785281687
 20
162.6751822086
 30
0.0
 40
4.253251164948825
100
AcDbArc
 50
147.5817766507
 51
189.7440681012
  0
LINE
  5
1AD
330
1F
100
AcDbEntity
  8
0
  6
Continuous
 62
     7
370
    25
100
AcDbLine
 10
46.5866361629
 20
151.9553302217
 30
0.0
 11
46.5866361629
 21
161.9553302217
 31
0.0
  0
ARC
  5
1AE
330
1F
100
AcDbEntity
  8
0
  6
Continuous
 62
     7
370
    25
100
AcDbCircle
 10
50.7785281687
 20
151.2354782348
 30
0.0
 40
4.253251164949711
100
AcDbArc
 50
170.2559318988
 51
212.4182233493
  0
LINE
  5
1AF
330
1F
100
AcDbEntity
  8
0
  6
Continuous
 62
     7
370
    25
100
AcDbLine
 10
47.1881144724
 20
148.9553302217
 30
0.0
 11
17.2349948324
 21
148.9553302217
 31
0.0
  0
LINE
  5
1B0
330
1F
100
AcDbEntity
  8
0
  6
Continuous
 62
     7
370
    25
100
AcDbLine
 10
-16.7650051676
 20
148.9553302217
 30
0.0
 11
-22.6044161365
 21
148.9553302217
 31
0.0
  0
LINE
  5
1B1
330
1F
100
AcDbEntity
  8
0
  6
Continuous
 62
     7
370
    25
100
AcDbLine
 10
59.8792703196
 20
148.9553302217
 30
0.0
 11
47.1881144724
 21
148.9553302217
 31
0.0
  0
LINE
  5
1B2
330
1F
100
AcDbEntity
  8
0
  6
Continuous
 62
     7
370
    25
100
AcDbLine
 10
-52.4135466011
 20
195.9553302217
 30
0.0
 11
-22.6044161365
 21
195.9553302217
 31
0.0
  0
ARC
  5
1B3
330
1F
100
AcDbEntity
  8
0
  6
Continuous
 62
     7
370
    25
100
AcDbCircle
 10
-23.0699869097
 20
193.2983069748
 30
0.0
 40
2.697504157442601
100
AcDbArc
 50
352.6953008496
 51
80.0613746417
  0
ARC
  5
1B4
330
1F
100
AcDbEntity
  8
0
  6
Continuous
 62
     7
370
    25
100
AcDbCircle
 10
50.7785281687
 20
182.2354782348
 30
0.0
 40
4.253251164949716
100
AcDbArc
 50
170.2559318988
 51
212.4182233493
  0
ARC
  5
1B5
330
1F
100
AcDbEntity
  8
0
  6
Continuous
 62
     7
370
    25
100
AcDbCircle
 10
50.7785281687
 20
193.6751822086
 30
0.0
 40
4.253251164948814
100
AcDbArc
 50
147.5817766507
 51
189.7440681012
  0
LINE
  5
1B6
330
1F
100
AcDbEntity
  8
0
  6
Continuous
 62
     7
370
    25
100
AcDbLine
 10
-22.6044161365
 20
195.9553302217
 30
0.0
 11
-16.7650051676
 21
195.9553302217
 31
0.0
  0
LINE
  5
1B7
330
1F
100
AcDbEntity
  8
0
  6
Continuous
 62
     7
370
    25
100
AcDbLine
 10
17.2349948324
 20
195.9553302217
 30
0.0
 11
47.1881144724
 21
195.9553302217
 31
0.0
  0
LINE
  5
1B8
330
1F
100
AcDbEntity
  8
0
  6
Continuous
 62
     7
370
    25
100
AcDbLine
 10
46.5866361629
 20
182.9553302217
 30
0.0
 11
46.5866361629
 21
192.9553302217
 31
0.0
  0
LINE
  5
1B9
330
1F
100
AcDbEntity
  8
0
  6
Continuous
 62
     7
370
    25
100
AcDbLine
 10
47.1881144724
 20
195.9553302217
 30
0.0
 11
59.8792703196
 21
195.9553302217
 31
0.0
  0
LINE
  5
1BA
330
1F
100
AcDbEntity
  8
0
  6
Continuous
 62
     7
370
    25
100
AcDbLine
 10
62.1153382971
 20
194.9553302217
 30
0.0
 11
362.3687503844
 21
194.9553302217
 31
0.0
  0
LINE
  5
1BB
330
1F
100
AcDbEntity
  8
0
  6
Continuous
 62
     7
370
    25
100
AcDbLine
 10
362.3687503844
 20
149.9553302217
 30
0.0
 11
62.1153382971
 21
149.9553302217
 31
0.0
  0
LINE
  5
1BC
330
1F
100
AcDbEntity
  8
0
  6
Continuous
 62
     7
370
    25
100
AcDbLine
 10
406.4920443407
 20
137.4553302217
 30
0.0
 11
407.249093849
 21
137.4553302217
 31
0.0
  0
LINE
  5
1BD
330
1F
100
AcDbEntity
  8
0
  6
Continuous
 62
     7
370
    25
100
AcDbLine
 10
17.9920443407
 20
207.4553302217
 30
0.0
 11
17.2349948324
 21
207.4553302217
 31
0.0
  0
LINE
  5
1BE
330
1F
100
AcDbEntity
  8
0
  6
Continuous
 62
     7
370
    25
100
AcDbLine
 10
407.249093849
 20
207.4553302217
 30
0.0
 11
406.4920443407
 21
207.4553302217
 31
0.0
  0
LINE
  5
1BF
330
1F
100
AcDbEntity
  8
0
  6
Continuous
 62
     7
370
    25
100
AcDbLine
 10
17.2349948324
 20
137.4553302217
 30
0.0
 11
17.9920443407
 21
137.4553302217
 31
0.0
  0
ARC
  5
1C0
330
1F
100
AcDbEntity
  8
0
  6
Continuous
 62
     7
370
    25
100
AcDbCircle
 10
-200.7128654452
 20
157.4553302217
 30
0.0
 40
2.249999999999988
100
AcDbArc
 50
240.0
 51
300.0
  0
ARC
  5
1C1
330
1F
100
AcDbEntity
  8
0
  6
Continuous
 62
     7
370
    25
100
AcDbCircle
 10
-201.6128654452
 20
155.8964844949
 30
0.0
 40
0.4500000000000068
100
AcDbArc
 50
240.0
 51
316.6582417728
  0
ARC
  5
1C2
330
1F
100
AcDbEntity
  8
0
  6
Continuous
 62
     7
370
    25
100
AcDbCircle
 10
-200.7128654452
 20
155.0471281209
 30
0.0
 40
0.7875000000000214
100
AcDbArc
 50
43.3417582272
 51
136.6582417728
  0
ARC
  5
1C3
330
1F
100
AcDbEntity
  8
0
  6
Continuous
 62
     7
370
    25
100
AcDbCircle
 10
-199.8128654452
 20
155.8964844949
 30
0.0
 40
0.4500000000000068
100
AcDbArc
 50
223.3417582272
 51
300.0
  0
ARC
  5
1C4
330
1F
100
AcDbEntity
  8
0
  6
Continuous
 62
     7
370
    25
100
AcDbCircle
 10
-200.7128654452
 20
157.4553302217
 30
0.0
 40
2.250000000000028
100
AcDbArc
 50
180.0
 51
240.0
  0
ARC
  5
1C5
330
1F
100
AcDbEntity
  8
0
  6
Continuous
 62
     7
370
    25
100
AcDbCircle
 10
-200.7128654452
 20
157.4553302217
 30
0.0
 40
2.250000000000057
100
AcDbArc
 50
300.0
 51
0.0
  0
ARC
  5
1C6
330
1F
100
AcDbEntity
  8
0
  6
Continuous
 62
     7
370
    25
100
AcDbCircle
 10
-200.7128654452
 20
157.4553302217
 30
0.0
 40
2.250000000000057
100
AcDbArc
 50
0.0
 51
60.0
  0
ARC
  5
1C7
330
1F
100
AcDbEntity
  8
0
  6
Continuous
 62
     7
370
    25
100
AcDbCircle
 10
-200.7128654452
 20
157.4553302217
 30
0.0
 40
2.250000000000012
100
AcDbArc
 50
60.0
 51
120.0
  0
ARC
  5
1C8
330
1F
100
AcDbEntity
  8
0
  6
Continuous
 62
     7
370
    25
100
AcDbCircle
 10
-200.7128654452
 20
157.4553302217
 30
0.0
 40
2.250000000000028
100
AcDbArc
 50
120.0
 51
180.0
  0
CIRCLE
  5
1C9
330
1F
100
AcDbEntity
  8
0
  6
Continuous
 62
     7
370
    25
100
AcDbCircle
 10
-200.7128654452
 20
157.4553302217
 30
0.0
 40
3.849999999999937
  0
ARC
  5
1CA
330
1F
100
AcDbEntity
  8
0
  6
Continuous
 62
     7
370
    25
100
AcDbCircle
 10
-198.9128654452
 20
157.4553302217
 30
0.0
 40
0.4500000000000171
100
AcDbArc
 50
0.0
 51
76.6582417728
  0
ARC
  5
1CB
330
1F
100
AcDbEntity
  8
0
  6
Continuous
 62
     7
370
    25
100
AcDbCircle
 10
-198.6273012484
 20
158.6594312721
 30
0.0
 40
0.7875000000000051
100
AcDbArc
 50
163.3417582272
 51
256.6582417728
  0
ARC
  5
1CC
330
1F
100
AcDbEntity
  8
0
  6
Continuous
 62
     7
370
    25
100
AcDbCircle
 10
-199.8128654452
 20
159.0141759485
 30
0.0
 40
0.4500000000000002
100
AcDbArc
 50
343.3417582272
 51
60.0
  0
ARC
  5
1CD
330
1F
100
AcDbEntity
  8
0
  6
Continuous
 62
     7
370
    25
100
AcDbCircle
 10
-198.9128654452
 20
157.4553302217
 30
0.0
 40
0.4500000000000171
100
AcDbArc
 50
283.3417582272
 51
0.0
  0
ARC
  5
1CE
330
1F
100
AcDbEntity
  8
0
  6
Continuous
 62
     7
370
    25
100
AcDbCircle
 10
-199.8128654452
 20
155.8964844949
 30
0.0
 40
0.449999999999992
100
AcDbArc
 50
300.0
 51
16.6582417728
  0
ARC
  5
1CF
330
1F
100
AcDbEntity
  8
0
  6
Continuous
 62
     7
370
    25
100
AcDbCircle
 10
-198.6273012484
 20
156.2512291713
 30
0.0
 40
0.7875000000000051
100
AcDbArc
 50
103.3417582272
 51
196.6582417728
  0
ARC
  5
1D0
330
1F
100
AcDbEntity
  8
0
  6
Continuous
 62
     7
370
    25
100
AcDbCircle
 10
-201.6128654452
 20
155.8964844949
 30
0.0
 40
0.449999999999992
100
AcDbArc
 50
163.3417582272
 51
240.0
  0
ARC
  5
1D1
330
1F
100
AcDbEntity
  8
0
  6
Continuous
 62
     7
370
    25
100
AcDbCircle
 10
-202.5128654452
 20
157.4553302217
 30
0.0
 40
0.4500000000000171
100
AcDbArc
 50
180.0
 51
256.6582417728
  0
ARC
  5
1D2
330
1F
100
AcDbEntity
  8
0
  6
Continuous
 62
     7
370
    25
100
AcDbCircle
 10
-202.7984296419
 20
156.2512291713
 30
0.0
 40
0.7875000000000051
100
AcDbArc
 50
343.3417582272
 51
76.6582417728
  0
ARC
  5
1D3
330
1F
100
AcDbEntity
  8
0
  6
Continuous
 62
     7
370
    25
100
AcDbCircle
 10
-199.8128654452
 20
159.0141759485
 30
0.0
 40
0.4500000000000068
100
AcDbArc
 50
60.0
 51
136.6582417728
  0
ARC
  5
1D4
330
1F
100
AcDbEntity
  8
0
  6
Continuous
 62
     7
370
    25
100
AcDbCircle
 10
-200.7128654452
 20
159.8635323225
 30
0.0
 40
0.787500000000002
100
AcDbArc
 50
223.3417582272
 51
316.6582417728
  0
ARC
  5
1D5
330
1F
100
AcDbEntity
  8
0
  6
Continuous
 62
     7
370
    25
100
AcDbCircle
 10
-201.6128654452
 20
159.0141759485
 30
0.0
 40
0.4500000000000068
100
AcDbArc
 50
43.3417582272
 51
120.0
  0
ARC
  5
1D6
330
1F
100
AcDbEntity
  8
0
  6
Continuous
 62
     7
370
    25
100
AcDbCircle
 10
-202.5128654452
 20
157.4553302217
 30
0.0
 40
0.4500000000000171
100
AcDbArc
 50
103.3417582272
 51
180.0
  0
ARC
  5
1D7
330
1F
100
AcDbEntity
  8
0
  6
Continuous
 62
     7
370
    25
100
AcDbCircle
 10
-201.6128654452
 20
159.0141759485
 30
0.0
 40
0.4500000000000002
100
AcDbArc
 50
120.0
 51
196.6582417728
  0
ARC
  5
1D8
330
1F
100
AcDbEntity
  8
0
  6
Continuous
 62
     7
370
    25
100
AcDbCircle
 10
-202.7984296419
 20
158.6594312721
 30
0.0
 40
0.7875000000000087
100
AcDbArc
 50
283.3417582272
 51
16.6582417728
  0
ARC
  5
1D9
330
1F
100
AcDbEntity
  8
0
  6
Continuous
 62
     7
370
    25
100
AcDbCircle
 10
-110.7128654452
 20
172.4553302217
 30
0.0
 40
2.250000000000028
100
AcDbArc
 50
0.0
 51
60.0
  0
ARC
  5
1DA
330
1F
100
AcDbEntity
  8
0
  6
Continuous
 62
     7
370
    25
100
AcDbCircle
 10
-108.9128654452
 20
172.4553302217
 30
0.0
 40
0.4500000000000073
100
AcDbArc
 50
360.0
 51
76.6582417728
  0
ARC
  5
1DB
330
1F
100
AcDbEntity
  8
0
  6
Continuous
 62
     7
370
    25
100
AcDbCircle
 10
-109.8128654452
 20
174.0141759485
 30
0.0
 40
0.449999999999992
100
AcDbArc
 50
343.3417582272
 51
60.0
  0
ARC
  5
1DC
330
1F
100
AcDbEntity
  8
0
  6
Continuous
 62
     7
370
    25
100
AcDbCircle
 10
-108.6273012484
 20
173.6594312721
 30
0.0
 40
0.7875000000000187
100
AcDbArc
 50
163.3417582272
 51
256.6582417728
  0
ARC
  5
1DD
330
1F
100
AcDbEntity
  8
0
  6
Continuous
 62
     7
370
    25
100
AcDbCircle
 10
-110.7128654452
 20
172.4553302217
 30
0.0
 40
2.250000000000028
100
AcDbArc
 50
300.0
 51
0.0
  0
ARC
  5
1DE
330
1F
100
AcDbEntity
  8
0
  6
Continuous
 62
     7
370
    25
100
AcDbCircle
 10
-108.9128654452
 20
172.4553302217
 30
0.0
 40
0.4500000000000028
100
AcDbArc
 50
283.3417582272
 51
0.0
  0
ARC
  5
1DF
330
1F
100
AcDbEntity
  8
0
  6
Continuous
 62
     7
370
    25
100
AcDbCircle
 10
-108.6273012484
 20
171.2512291713
 30
0.0
 40
0.7875000000000187
100
AcDbArc
 50
103.3417582272
 51
196.6582417728
  0
ARC
  5
1E0
330
1F
100
AcDbEntity
  8
0
  6
Continuous
 62
     7
370
    25
100
AcDbCircle
 10
-109.8128654452
 20
170.8964844949
 30
0.0
 40
0.449999999999992
100
AcDbArc
 50
300.0
 51
16.6582417728
  0
ARC
  5
1E1
330
1F
100
AcDbEntity
  8
0
  6
Continuous
 62
     7
370
    25
100
AcDbCircle
 10
-110.7128654452
 20
172.4553302217
 30
0.0
 40
2.250000000000028
100
AcDbArc
 50
120.0
 51
180.0
  0
ARC
  5
1E2
330
1F
100
AcDbEntity
  8
0
  6
Continuous
 62
     7
370
    25
100
AcDbCircle
 10
-112.7984296419
 20
173.6594312721
 30
0.0
 40
0.7875000000000187
100
AcDbArc
 50
283.3417582272
 51
16.6582417728
  0
ARC
  5
1E3
330
1F
100
AcDbEntity
  8
0
  6
Continuous
 62
     7
370
    25
100
AcDbCircle
 10
-112.5128654452
 20
172.4553302217
 30
0.0
 40
0.4500000000000106
100
AcDbArc
 50
103.3417582272
 51
180.0
  0
ARC
  5
1E4
330
1F
100
AcDbEntity
  8
0
  6
Continuous
 62
     7
370
    25
100
AcDbCircle
 10
-111.6128654452
 20
174.0141759485
 30
0.0
 40
0.449999999999992
100
AcDbArc
 50
120.0
 51
196.6582417728
  0
ARC
  5
1E5
330
1F
100
AcDbEntity
  8
0
  6
Continuous
 62
     7
370
    25
100
AcDbCircle
 10
-110.7128654452
 20
172.4553302217
 30
0.0
 40
2.24999999999998
100
AcDbArc
 50
240.0
 51
300.0
  0
ARC
  5
1E6
330
1F
100
AcDbEntity
  8
0
  6
Continuous
 62
     7
370
    25
100
AcDbCircle
 10
-111.6128654452
 20
170.8964844949
 30
0.0
 40
0.4500000000000068
100
AcDbArc
 50
240.0
 51
316.6582417728
  0
ARC
  5
1E7
330
1F
100
AcDbEntity
  8
0
  6
Continuous
 62
     7
370
    25
100
AcDbCircle
 10
-110.7128654452
 20
170.0471281209
 30
0.0
 40
0.7875000000000111
100
AcDbArc
 50
43.3417582272
 51
136.6582417728
  0
ARC
  5
1E8
330
1F
100
AcDbEntity
  8
0
  6
Continuous
 62
     7
370
    25
100
AcDbCircle
 10
-109.8128654452
 20
170.8964844949
 30
0.0
 40
0.4499999999999965
100
AcDbArc
 50
223.3417582272
 51
300.0
  0
ARC
  5
1E9
330
1F
100
AcDbEntity
  8
0
  6
Continuous
 62
     7
370
    25
100
AcDbCircle
 10
-110.7128654452
 20
172.4553302217
 30
0.0
 40
2.250000000000028
100
AcDbArc
 50
180.0
 51
240.0
  0
ARC
  5
1EA
330
1F
100
AcDbEntity
  8
0
  6
Continuous
 62
     7
370
    25
100
AcDbCircle
 10
-112.7984296419
 20
171.2512291713
 30
0.0
 40
0.7875000000000187
100
AcDbArc
 50
343.3417582272
 51
76.6582417728
  0
ARC
  5
1EB
330
1F
100
AcDbEntity
  8
0
  6
Continuous
 62
     7
370
    25
100
AcDbCircle
 10
-111.6128654452
 20
170.8964844949
 30
0.0
 40
0.449999999999992
100
AcDbArc
 50
163.3417582272
 51
240.0
  0
ARC
  5
1EC
330
1F
100
AcDbEntity
  8
0
  6
Continuous
 62
     7
370
    25
100
AcDbCircle
 10
-112.5128654452
 20
172.4553302217
 30
0.0
 40
0.4500000000000106
100
AcDbArc
 50
180.0
 51
256.6582417728
  0
ARC
  5
1ED
330
1F
100
AcDbEntity
  8
0
  6
Continuous
 62
     7
370
    25
100
AcDbCircle
 10
-110.7128654452
 20
172.4553302217
 30
0.0
 40
2.24999999999998
100
AcDbArc
 50
60.0
 51
120.0
  0
CIRCLE
  5
1EE
330
1F
100
AcDbEntity
  8
0
  6
Continuous
 62
     7
370
    25
100
AcDbCircle
 10
-110.7128654452
 20
172.4553302217
 30
0.0
 40
3.849999999999966
  0
ARC
  5
1EF
330
1F
100
AcDbEntity
  8
0
  6
Continuous
 62
     7
370
    25
100
AcDbCircle
 10
-110.7128654452
 20
174.8635323225
 30
0.0
 40
0.7875000000000111
100
AcDbArc
 50
223.3417582272
 51
316.6582417728
  0
ARC
  5
1F0
330
1F
100
AcDbEntity
  8
0
  6
Continuous
 62
     7
370
    25
100
AcDbCircle
 10
-109.8128654452
 20
174.0141759485
 30
0.0
 40
0.4499999999999965
100
AcDbArc
 50
60.0
 51
136.6582417728
  0
ARC
  5
1F1
330
1F
100
AcDbEntity
  8
0
  6
Continuous
 62
     7
370
    25
100
AcDbCircle
 10
-111.6128654452
 20
174.0141759485
 30
0.0
 40
0.4500000000000068
100
AcDbArc
 50
43.3417582272
 51
120.0
  0
ARC
  5
1F2
330
1F
100
AcDbEntity
  8
0
  6
Continuous
 62
     7
370
    25
100
AcDbCircle
 10
-200.7128654452
 20
187.4553302217
 30
0.0
 40
2.250000000000057
100
AcDbArc
 50
300.0
 51
0.0
  0
ARC
  5
1F3
330
1F
100
AcDbEntity
  8
0
  6
Continuous
 62
     7
370
    25
100
AcDbCircle
 10
-199.8128654452
 20
185.8964844949
 30
0.0
 40
0.4500000000000002
100
AcDbArc
 50
300.0
 51
16.6582417728
  0
ARC
  5
1F4
330
1F
100
AcDbEntity
  8
0
  6
Continuous
 62
     7
370
    25
100
AcDbCircle
 10
-198.6273012484
 20
186.2512291713
 30
0.0
 40
0.787499999999997
100
AcDbArc
 50
103.3417582272
 51
196.6582417728
  0
ARC
  5
1F5
330
1F
100
AcDbEntity
  8
0
  6
Continuous
 62
     7
370
    25
100
AcDbCircle
 10
-198.9128654452
 20
187.4553302217
 30
0.0
 40
0.4500000000000171
100
AcDbArc
 50
283.3417582272
 51
0.0
  0
ARC
  5
1F6
330
1F
100
AcDbEntity
  8
0
  6
Continuous
 62
     7
370
    25
100
AcDbCircle
 10
-200.7128654452
 20
187.4553302217
 30
0.0
 40
2.250000000000028
100
AcDbArc
 50
120.0
 51
180.0
  0
ARC
  5
1F7
330
1F
100
AcDbEntity
  8
0
  6
Continuous
 62
     7
370
    25
100
AcDbCircle
 10
-202.7984296419
 20
188.6594312721
 30
0.0
 40
0.7875000000000087
100
AcDbArc
 50
283.3417582272
 51
16.6582417728
  0
ARC
  5
1F8
330
1F
100
AcDbEntity
  8
0
  6
Continuous
 62
     7
370
    25
100
AcDbCircle
 10
-202.5128654452
 20
187.4553302217
 30
0.0
 40
0.4500000000000171
100
AcDbArc
 50
103.3417582272
 51
180.0
  0
ARC
  5
1F9
330
1F
100
AcDbEntity
  8
0
  6
Continuous
 62
     7
370
    25
100
AcDbCircle
 10
-201.6128654452
 20
189.0141759485
 30
0.0
 40
0.4500000000000002
100
AcDbArc
 50
120.0
 51
196.6582417728
  0
ARC
  5
1FA
330
1F
100
AcDbEntity
  8
0
  6
Continuous
 62
     7
370
    25
100
AcDbCircle
 10
-200.7128654452
 20
187.4553302217
 30
0.0
 40
2.250000000000057
100
AcDbArc
 50
0.0
 51
60.0
  0
ARC
  5
1FB
330
1F
100
AcDbEntity
  8
0
  6
Continuous
 62
     7
370
    25
100
AcDbCircle
 10
-198.9128654452
 20
187.4553302217
 30
0.0
 40
0.4500000000000171
100
AcDbArc
 50
0.0
 51
76.6582417728
  0
ARC
  5
1FC
330
1F
100
AcDbEntity
  8
0
  6
Continuous
 62
     7
370
    25
100
AcDbCircle
 10
-198.6273012484
 20
188.6594312721
 30
0.0
 40
0.7875000000000087
100
AcDbArc
 50
163.3417582272
 51
256.6582417728
  0
ARC
  5
1FD
330
1F
100
AcDbEntity
  8
0
  6
Continuous
 62
     7
370
    25
100
AcDbCircle
 10
-199.8128654452
 20
189.0141759485
 30
0.0
 40
0.4500000000000002
100
AcDbArc
 50
343.3417582272
 51
60.0
  0
ARC
  5
1FE
330
1F
100
AcDbEntity
  8
0
  6
Continuous
 62
     7
370
    25
100
AcDbCircle
 10
-200.7128654452
 20
187.4553302217
 30
0.0
 40
2.250000000000028
100
AcDbArc
 50
180.0
 51
240.0
  0
ARC
  5
1FF
330
1F
100
AcDbEntity
  8
0
  6
Continuous
 62
     7
370
    25
100
AcDbCircle
 10
-200.7128654452
 20
187.4553302217
 30
0.0
 40
2.249999999999988
100
AcDbArc
 50
240.0
 51
300.0
  0
ARC
  5
200
330
1F
100
AcDbEntity
  8
0
  6
Continuous
 62
     7
370
    25
100
AcDbCircle
 10
-200.7128654452
 20
187.4553302217
 30
0.0
 40
2.250000000000012
100
AcDbArc
 50
60.0
 51
120.0
  0
CIRCLE
  5
201
330
1F
100
AcDbEntity
  8
0
  6
Continuous
 62
     7
370
    25
100
AcDbCircle
 10
-200.7128654452
 20
187.4553302217
 30
0.0
 40
3.849999999999937
  0
ARC
  5
202
330
1F
100
AcDbEntity
  8
0
  6
Continuous
 62
     7
370
    25
100
AcDbCircle
 10
-201.6128654452
 20
185.8964844949
 30
0.0
 40
0.4500000000000068
100
AcDbArc
 50
240.0
 51
316.6582417728
  0
ARC
  5
203
330
1F
100
AcDbEntity
  8
0
  6
Continuous
 62
     7
370
    25
100
AcDbCircle
 10
-200.7128654452
 20
185.0471281209
 30
0.0
 40
0.787500000000002
100
AcDbArc
 50
43.3417582272
 51
136.6582417728
  0
ARC
  5
204
330
1F
100
AcDbEntity
  8
0
  6
Continuous
 62
     7
370
    25
100
AcDbCircle
 10
-199.8128654452
 20
185.8964844949
 30
0.0
 40
0.4500000000000068
100
AcDbArc
 50
223.3417582272
 51
300.0
  0
ARC
  5
205
330
1F
100
AcDbEntity
  8
0
  6
Continuous
 62
     7
370
    25
100
AcDbCircle
 10
-200.7128654452
 20
189.8635323225
 30
0.0
 40
0.7875000000000214
100
AcDbArc
 50
223.3417582272
 51
316.6582417728
  0
ARC
  5
206
330
1F
100
AcDbEntity
  8
0
  6
Continuous
 62
     7
370
    25
100
AcDbCircle
 10
-201.6128654452
 20
189.0141759485
 30
0.0
 40
0.4500000000000068
100
AcDbArc
 50
43.3417582272
 51
120.0
  0
ARC
  5
207
330
1F
100
AcDbEntity
  8
0
  6
Continuous
 62
     7
370
    25
100
AcDbCircle
 10
-199.8128654452
 20
189.0141759485
 30
0.0
 40
0.4500000000000068
100
AcDbArc
 50
60.0
 51
136.6582417728
  0
ARC
  5
208
330
1F
100
AcDbEntity
  8
0
  6
Continuous
 62
     7
370
    25
100
AcDbCircle
 10
-202.5128654452
 20
187.4553302217
 30
0.0
 40
0.4500000000000171
100
AcDbArc
 50
180.0
 51
256.6582417728
  0
ARC
  5
209
330
1F
100
AcDbEntity
  8
0
  6
Continuous
 62
     7
370
    25
100
AcDbCircle
 10
-201.6128654452
 20
185.8964844949
 30
0.0
 40
0.4500000000000002
100
AcDbArc
 50
163.3417582272
 51
240.0
  0
ARC
  5
20A
330
1F
100
AcDbEntity
  8
0
  6
Continuous
 62
     7
370
    25
100
AcDbCircle
 10
-202.7984296419
 20
186.2512291713
 30
0.0
 40
0.787499999999997
100
AcDbArc
 50
343.3417582272
 51
76.6582417728
  0
ARC
  5
20B
330
1F
100
AcDbEntity
  8
0
  6
Continuous
 62
     7
370
    25
100
AcDbCircle
 10
625.1969541266
 20
187.4553302217
 30
0.0
 40
2.250000000000012
100
AcDbArc
 50
0.0
 51
60.0
  0
ARC
  5
20C
330
1F
100
AcDbEntity
  8
0
  6
Continuous
 62
     7
370
    25
100
AcDbCircle
 10
626.9969541266
 20
187.4553302217
 30
0.0
 40
0.4499999999999665
100
AcDbArc
 50
360.0
 51
76.6582417728
  0
ARC
  5
20D
330
1F
100
AcDbEntity
  8
0
  6
Continuous
 62
     7
370
    25
100
AcDbCircle
 10
627.2825183233
 20
188.6594312721
 30
0.0
 40
0.7874999999999956
100
AcDbArc
 50
163.3417582272
 51
256.6582417728
  0
ARC
  5
20E
330
1F
100
AcDbEntity
  8
0
  6
Continuous
 62
     7
370
    25
100
AcDbCircle
 10
626.0969541266
 20
189.0141759485
 30
0.0
 40
0.4500000000000737
100
AcDbArc
 50
343.3417582272
 51
60.0
  0
ARC
  5
20F
330
1F
100
AcDbEntity
  8
0
  6
Continuous
 62
     7
370
    25
100
AcDbCircle
 10
625.1969541266
 20
187.4553302217
 30
0.0
 40
2.250000000000012
100
AcDbArc
 50
60.0
 51
120.0
  0
ARC
  5
210
330
1F
100
AcDbEntity
  8
0
  6
Continuous
 62
     7
370
    25
100
AcDbCircle
 10
625.1969541266
 20
187.4553302217
 30
0.0
 40
2.25
100
AcDbArc
 50
120.0
 51
180.0
  0
ARC
  5
211
330
1F
100
AcDbEntity
  8
0
  6
Continuous
 62
     7
370
    25
100
AcDbCircle
 10
625.1969541266
 20
187.4553302217
 30
0.0
 40
2.25
100
AcDbArc
 50
180.0
 51
240.0
  0
ARC
  5
212
330
1F
100
AcDbEntity
  8
0
  6
Continuous
 62
     7
370
    25
100
AcDbCircle
 10
625.1969541266
 20
187.4553302217
 30
0.0
 40
2.249999999999963
100
AcDbArc
 50
240.0
 51
300.0
  0
ARC
  5
213
330
1F
100
AcDbEntity
  8
0
  6
Continuous
 62
     7
370
    25
100
AcDbCircle
 10
625.1969541266
 20
187.4553302217
 30
0.0
 40
2.25
100
AcDbArc
 50
300.0
 51
0.0
  0
CIRCLE
  5
214
330
1F
100
AcDbEntity
  8
0
  6
Continuous
 62
     7
370
    25
100
AcDbCircle
 10
625.1969541266
 20
187.4553302217
 30
0.0
 40
3.850000000000023
  0
ARC
  5
215
330
1F
100
AcDbEntity
  8
0
  6
Continuous
 62
     7
370
    25
100
AcDbCircle
 10
624.2969541266
 20
189.0141759485
 30
0.0
 40
0.4499999999999648
100
AcDbArc
 50
120.0
 51
196.6582417728
  0
ARC
  5
216
330
1F
100
AcDbEntity
  8
0
  6
Continuous
 62
     7
370
    25
100
AcDbCircle
 10
623.1113899299
 20
188.6594312721
 30
0.0
 40
0.7875000000000051
100
AcDbArc
 50
283.3417582272
 51
16.6582417728
  0
ARC
  5
217
330
1F
100
AcDbEntity
  8
0
  6
Continuous
 62
     7
370
    25
100
AcDbCircle
 10
623.3969541266
 20
187.4553302217
 30
0.0
 40
0.4500000000000455
100
AcDbArc
 50
103.3417582272
 51
180.0
  0
ARC
  5
218
330
1F
100
AcDbEntity
  8
0
  6
Continuous
 62
     7
370
    25
100
AcDbCircle
 10
626.0969541266
 20
189.0141759485
 30
0.0
 40
0.4499999999999942
100
AcDbArc
 50
60.0
 51
136.6582417728
  0
ARC
  5
219
330
1F
100
AcDbEntity
  8
0
  6
Continuous
 62
     7
370
    25
100
AcDbCircle
 10
624.2969541266
 20
189.0141759485
 30
0.0
 40
0.4500000000000275
100
AcDbArc
 50
43.3417582272
 51
120.0
  0
ARC
  5
21A
330
1F
100
AcDbEntity
  8
0
  6
Continuous
 62
     7
370
    25
100
AcDbCircle
 10
625.1969541266
 20
189.8635323225
 30
0.0
 40
0.7875000000000422
100
AcDbArc
 50
223.3417582272
 51
316.6582417728
  0
ARC
  5
21B
330
1F
100
AcDbEntity
  8
0
  6
Continuous
 62
     7
370
    25
100
AcDbCircle
 10
624.2969541266
 20
185.8964844949
 30
0.0
 40
0.4500000000000275
100
AcDbArc
 50
240.0
 51
316.6582417728
  0
ARC
  5
21C
330
1F
100
AcDbEntity
  8
0
  6
Continuous
 62
     7
370
    25
100
AcDbCircle
 10
626.0969541266
 20
185.8964844949
 30
0.0
 40
0.4499999999999942
100
AcDbArc
 50
223.3417582272
 51
300.0
  0
ARC
  5
21D
330
1F
100
AcDbEntity
  8
0
  6
Continuous
 62
     7
370
    25
100
AcDbCircle
 10
625.1969541266
 20
185.0471281209
 30
0.0
 40
0.7875000000000422
100
AcDbArc
 50
43.3417582272
 51
136.6582417728
  0
ARC
  5
21E
330
1F
100
AcDbEntity
  8
0
  6
Continuous
 62
     7
370
    25
100
AcDbCircle
 10
624.2969541266
 20
185.8964844949
 30
0.0
 40
0.4499999999999648
100
AcDbArc
 50
163.3417582272
 51
240.0
  0
ARC
  5
21F
330
1F
100
AcDbEntity
  8
0
  6
Continuous
 62
     7
370
    25
100
AcDbCircle
 10
623.1113899299
 20
186.2512291713
 30
0.0
 40
0.7875000000000051
100
AcDbArc
 50
343.3417582272
 51
76.6582417728
  0
ARC
  5
220
330
1F
100
AcDbEntity
  8
0
  6
Continuous
 62
     7
370
    25
100
AcDbCircle
 10
623.3969541266
 20
187.4553302217
 30
0.0
 40
0.4500000000000455
100
AcDbArc
 50
180.0
 51
256.6582417728
  0
ARC
  5
221
330
1F
100
AcDbEntity
  8
0
  6
Continuous
 62
     7
370
    25
100
AcDbCircle
 10
626.9969541266
 20
187.4553302217
 30
0.0
 40
0.4499999999999665
100
AcDbArc
 50
283.3417582272
 51
0.0
  0
ARC
  5
222
330
1F
100
AcDbEntity
  8
0
  6
Continuous
 62
     7
370
    25
100
AcDbCircle
 10
626.0969541266
 20
185.8964844949
 30
0.0
 40
0.4500000000000737
100
AcDbArc
 50
300.0
 51
16.6582417728
  0
ARC
  5
223
330
1F
100
AcDbEntity
  8
0
  6
Continuous
 62
     7
370
    25
100
AcDbCircle
 10
627.2825183233
 20
186.2512291713
 30
0.0
 40
0.787499999999968
100
AcDbArc
 50
103.3417582272
 51
196.6582417728
  0
ARC
  5
224
330
1F
100
AcDbEntity
  8
0
  6
Continuous
 62
     7
370
    25
100
AcDbCircle
 10
535.1969541266
 20
172.4553302217
 30
0.0
 40
2.250000000000012
100
AcDbArc
 50
120.0
 51
180.0
  0
ARC
  5
225
330
1F
100
AcDbEntity
  8
0
  6
Continuous
 62
     7
370
    25
100
AcDbCircle
 10
534.2969541266
 20
174.0141759485
 30
0.0
 40
0.4499999999999373
100
AcDbArc
 50
120.0
 51
196.6582417728
  0
ARC
  5
226
330
1F
100
AcDbEntity
  8
0
  6
Continuous
 62
     7
370
    25
100
AcDbCircle
 10
533.1113899299
 20
173.6594312721
 30
0.0
 40
0.7875000000001059
100
AcDbArc
 50
283.3417582272
 51
16.6582417728
  0
ARC
  5
227
330
1F
100
AcDbEntity
  8
0
  6
Continuous
 62
     7
370
    25
100
AcDbCircle
 10
533.3969541266
 20
172.4553302217
 30
0.0
 40
0.4500000000000743
100
AcDbArc
 50
103.3417582272
 51
180.0
  0
ARC
  5
228
330
1F
100
AcDbEntity
  8
0
  6
Continuous
 62
     7
370
    25
100
AcDbCircle
 10
535.1969541266
 20
172.4553302217
 30
0.0
 40
2.250000000000012
100
AcDbArc
 50
0.0
 51
60.0
  0
ARC
  5
229
330
1F
100
AcDbEntity
  8
0
  6
Continuous
 62
     7
370
    25
100
AcDbCircle
 10
537.2825183233
 20
173.6594312721
 30
0.0
 40
0.7875000000000218
100
AcDbArc
 50
163.3417582272
 51
256.6582417728
  0
ARC
  5
22A
330
1F
100
AcDbEntity
  8
0
  6
Continuous
 62
     7
370
    25
100
AcDbCircle
 10
536.0969541266
 20
174.0141759485
 30
0.0
 40
0.4500000000000818
100
AcDbArc
 50
343.3417582272
 51
60.0
  0
ARC
  5
22B
330
1F
100
AcDbEntity
  8
0
  6
Continuous
 62
     7
370
    25
100
AcDbCircle
 10
536.9969541266
 20
172.4553302217
 30
0.0
 40
0.4499999999999942
100
AcDbArc
 50
0.0
 51
76.6582417728
  0
ARC
  5
22C
330
1F
100
AcDbEntity
  8
0
  6
Continuous
 62
     7
370
    25
100
AcDbCircle
 10
535.1969541266
 20
172.4553302217
 30
0.0
 40
2.25
100
AcDbArc
 50
300.0
 51
0.0
  0
ARC
  5
22D
330
1F
100
AcDbEntity
  8
0
  6
Continuous
 62
     7
370
    25
100
AcDbCircle
 10
536.0969541266
 20
170.8964844949
 30
0.0
 40
0.4500000000000818
100
AcDbArc
 50
300.0
 51
16.6582417728
  0
ARC
  5
22E
330
1F
100
AcDbEntity
  8
0
  6
Continuous
 62
     7
370
    25
100
AcDbCircle
 10
536.9969541266
 20
172.4553302217
 30
0.0
 40
0.4499999999999942
100
AcDbArc
 50
283.3417582272
 51
0.0
  0
ARC
  5
22F
330
1F
100
AcDbEntity
  8
0
  6
Continuous
 62
     7
370
    25
100
AcDbCircle
 10
537.2825183233
 20
171.2512291713
 30
0.0
 40
0.787499999999997
100
AcDbArc
 50
103.3417582272
 51
196.6582417728
  0
ARC
  5
230
330
1F
100
AcDbEntity
  8
0
  6
Continuous
 62
     7
370
    25
100
AcDbCircle
 10
535.1969541266
 20
172.4553302217
 30
0.0
 40
2.25
100
AcDbArc
 50
180.0
 51
240.0
  0
ARC
  5
231
330
1F
100
AcDbEntity
  8
0
  6
Continuous
 62
     7
370
    25
100
AcDbCircle
 10
533.3969541266
 20
172.4553302217
 30
0.0
 40
0.4500000000000466
100
AcDbArc
 50
180.0
 51
256.6582417728
  0
ARC
  5
232
330
1F
100
AcDbEntity
  8
0
  6
Continuous
 62
     7
370
    25
100
AcDbCircle
 10
534.2969541266
 20
170.8964844949
 30
0.0
 40
0.4499999999999373
100
AcDbArc
 50
163.3417582272
 51
240.0
  0
ARC
  5
233
330
1F
100
AcDbEntity
  8
0
  6
Continuous
 62
     7
370
    25
100
AcDbCircle
 10
533.1113899299
 20
171.2512291713
 30
0.0
 40
0.7875000000001059
100
AcDbArc
 50
343.3417582272
 51
76.6582417728
  0
ARC
  5
234
330
1F
100
AcDbEntity
  8
0
  6
Continuous
 62
     7
370
    25
100
AcDbCircle
 10
535.1969541266
 20
172.4553302217
 30
0.0
 40
2.250000000000012
100
AcDbArc
 50
60.0
 51
120.0
  0
ARC
  5
235
330
1F
100
AcDbEntity
  8
0
  6
Continuous
 62
     7
370
    25
100
AcDbCircle
 10
535.1969541266
 20
172.4553302217
 30
0.0
 40
2.249999999999988
100
AcDbArc
 50
240.0
 51
300.0
  0
CIRCLE
  5
236
330
1F
100
AcDbEntity
  8
0
  6
Continuous
 62
     7
370
    25
100
AcDbCircle
 10
535.1969541266
 20
172.4553302217
 30
0.0
 40
3.849999999999909
  0
ARC
  5
237
330
1F
100
AcDbEntity
  8
0
  6
Continuous
 62
     7
370
    25
100
AcDbCircle
 10
534.2969541266
 20
174.0141759485
 30
0.0
 40
0.4500000000000275
100
AcDbArc
 50
43.3417582272
 51
120.0
  0
ARC
  5
238
330
1F
100
AcDbEntity
  8
0
  6
Continuous
 62
     7
370
    25
100
AcDbCircle
 10
536.0969541266
 20
174.0141759485
 30
0.0
 40
0.4500000000000275
100
AcDbArc
 50
60.0
 51
136.6582417728
  0
ARC
  5
239
330
1F
100
AcDbEntity
  8
0
  6
Continuous
 62
     7
370
    25
100
AcDbCircle
 10
535.1969541266
 20
174.8635323225
 30
0.0
 40
0.7875000000000225
100
AcDbArc
 50
223.3417582272
 51
316.6582417728
  0
ARC
  5
23A
330
1F
100
AcDbEntity
  8
0
  6
Continuous
 62
     7
370
    25
100
AcDbCircle
 10
535.1969541266
 20
170.0471281209
 30
0.0
 40
0.7875000000000225
100
AcDbArc
 50
43.3417582272
 51
136.6582417728
  0
ARC
  5
23B
330
1F
100
AcDbEntity
  8
0
  6
Continuous
 62
     7
370
    25
100
AcDbCircle
 10
536.0969541266
 20
170.8964844949
 30
0.0
 40
0.4500000000000275
100
AcDbArc
 50
223.3417582272
 51
300.0
  0
ARC
  5
23C
330
1F
100
AcDbEntity
  8
0
  6
Continuous
 62
     7
370
    25
100
AcDbCircle
 10
534.2969541266
 20
170.8964844949
 30
0.0
 40
0.4500000000000275
100
AcDbArc
 50
240.0
 51
316.6582417728
  0
ARC
  5
23D
330
1F
100
AcDbEntity
  8
0
  6
Continuous
 62
     7
370
    25
100
AcDbCircle
 10
625.1969541266
 20
157.4553302217
 30
0.0
 40
2.249999999999963
100
AcDbArc
 50
240.0
 51
300.0
  0
ARC
  5
23E
330
1F
100
AcDbEntity
  8
0
  6
Continuous
 62
     7
370
    25
100
AcDbCircle
 10
624.2969541266
 20
155.8964844949
 30
0.0
 40
0.450000000000047
100
AcDbArc
 50
240.0
 51
316.6582417728
  0
ARC
  5
23F
330
1F
100
AcDbEntity
  8
0
  6
Continuous
 62
     7
370
    25
100
AcDbCircle
 10
625.1969541266
 20
155.0471281209
 30
0.0
 40
0.7875000000000225
100
AcDbArc
 50
43.3417582272
 51
136.6582417728
  0
ARC
  5
240
330
1F
100
AcDbEntity
  8
0
  6
Continuous
 62
     7
370
    25
100
AcDbCircle
 10
626.0969541266
 20
155.8964844949
 30
0.0
 40
0.4499999999999942
100
AcDbArc
 50
223.3417582272
 51
300.0
  0
ARC
  5
241
330
1F
100
AcDbEntity
  8
0
  6
Continuous
 62
     7
370
    25
100
AcDbCircle
 10
625.1969541266
 20
157.4553302217
 30
0.0
 40
2.250000000000012
100
AcDbArc
 50
0.0
 51
60.0
  0
ARC
  5
242
330
1F
100
AcDbEntity
  8
0
  6
Continuous
 62
     7
370
    25
100
AcDbCircle
 10
625.1969541266
 20
157.4553302217
 30
0.0
 40
2.250000000000012
100
AcDbArc
 50
60.0
 51
120.0
  0
ARC
  5
243
330
1F
100
AcDbEntity
  8
0
  6
Continuous
 62
     7
370
    25
100
AcDbCircle
 10
625.1969541266
 20
157.4553302217
 30
0.0
 40
2.25
100
AcDbArc
 50
120.0
 51
180.0
  0
ARC
  5
244
330
1F
100
AcDbEntity
  8
0
  6
Continuous
 62
     7
370
    25
100
AcDbCircle
 10
625.1969541266
 20
157.4553302217
 30
0.0
 40
2.25
100
AcDbArc
 50
180.0
 51
240.0
  0
ARC
  5
245
330
1F
100
AcDbEntity
  8
0
  6
Continuous
 62
     7
370
    25
100
AcDbCircle
 10
625.1969541266
 20
157.4553302217
 30
0.0
 40
2.25
100
AcDbArc
 50
300.0
 51
0.0
  0
CIRCLE
  5
246
330
1F
100
AcDbEntity
  8
0
  6
Continuous
 62
     7
370
    25
100
AcDbCircle
 10
625.1969541266
 20
157.4553302217
 30
0.0
 40
3.850000000000023
  0
ARC
  5
247
330
1F
100
AcDbEntity
  8
0
  6
Continuous
 62
     7
370
    25
100
AcDbCircle
 10
626.9969541266
 20
157.4553302217
 30
0.0
 40
0.4499999999999665
100
AcDbArc
 50
283.3417582272
 51
0.0
  0
ARC
  5
248
330
1F
100
AcDbEntity
  8
0
  6
Continuous
 62
     7
370
    25
100
AcDbCircle
 10
627.2825183233
 20
156.2512291713
 30
0.0
 40
0.787499999999968
100
AcDbArc
 50
103.3417582272
 51
196.6582417728
  0
ARC
  5
249
330
1F
100
AcDbEntity
  8
0
  6
Continuous
 62
     7
370
    25
100
AcDbCircle
 10
626.0969541266
 20
155.8964844949
 30
0.0
 40
0.4500000000000737
100
AcDbArc
 50
300.0
 51
16.6582417728
  0
ARC
  5
24A
330
1F
100
AcDbEntity
  8
0
  6
Continuous
 62
     7
370
    25
100
AcDbCircle
 10
623.3969541266
 20
157.4553302217
 30
0.0
 40
0.4500000000000455
100
AcDbArc
 50
180.0
 51
256.6582417728
  0
ARC
  5
24B
330
1F
100
AcDbEntity
  8
0
  6
Continuous
 62
     7
370
    25
100
AcDbCircle
 10
623.1113899299
 20
156.2512291713
 30
0.0
 40
0.7875000000000051
100
AcDbArc
 50
343.3417582272
 51
76.6582417728
  0
ARC
  5
24C
330
1F
100
AcDbEntity
  8
0
  6
Continuous
 62
     7
370
    25
100
AcDbCircle
 10
624.2969541266
 20
155.8964844949
 30
0.0
 40
0.4499999999999648
100
AcDbArc
 50
163.3417582272
 51
240.0
  0
ARC
  5
24D
330
1F
100
AcDbEntity
  8
0
  6
Continuous
 62
     7
370
    25
100
AcDbCircle
 10
626.0969541266
 20
159.0141759485
 30
0.0
 40
0.4499999999999942
100
AcDbArc
 50
60.0
 51
136.6582417728
  0
ARC
  5
24E
330
1F
100
AcDbEntity
  8
0
  6
Continuous
 62
     7
370
    25
100
AcDbCircle
 10
625.1969541266
 20
159.8635323225
 30
0.0
 40
0.7875000000000422
100
AcDbArc
 50
223.3417582272
 51
316.6582417728
  0
ARC
  5
24F
330
1F
100
AcDbEntity
  8
0
  6
Continuous
 62
     7
370
    25
100
AcDbCircle
 10
624.2969541266
 20
159.0141759485
 30
0.0
 40
0.4500000000000275
100
AcDbArc
 50
43.3417582272
 51
120.0
  0
ARC
  5
250
330
1F
100
AcDbEntity
  8
0
  6
Continuous
 62
     7
370
    25
100
AcDbCircle
 10
626.9969541266
 20
157.4553302217
 30
0.0
 40
0.4500000000000218
100
AcDbArc
 50
0.0
 51
76.6582417728
  0
ARC
  5
251
330
1F
100
AcDbEntity
  8
0
  6
Continuous
 62
     7
370
    25
100
AcDbCircle
 10
627.2825183233
 20
158.6594312721
 30
0.0
 40
0.787499999999968
100
AcDbArc
 50
163.3417582272
 51
256.6582417728
  0
ARC
  5
252
330
1F
100
AcDbEntity
  8
0
  6
Continuous
 62
     7
370
    25
100
AcDbCircle
 10
626.0969541266
 20
159.0141759485
 30
0.0
 40
0.4500000000000737
100
AcDbArc
 50
343.3417582272
 51
60.0
  0
ARC
  5
253
330
1F
100
AcDbEntity
  8
0
  6
Continuous
 62
     7
370
    25
100
AcDbCircle
 10
624.2969541266
 20
159.0141759485
 30
0.0
 40
0.4499999999999648
100
AcDbArc
 50
120.0
 51
196.6582417728
  0
ARC
  5
254
330
1F
100
AcDbEntity
  8
0
  6
Continuous
 62
     7
370
    25
100
AcDbCircle
 10
623.1113899299
 20
158.6594312721
 30
0.0
 40
0.7875000000000051
100
AcDbArc
 50
283.3417582272
 51
16.6582417728
  0
ARC
  5
255
330
1F
100
AcDbEntity
  8
0
  6
Continuous
 62
     7
370
    25
100
AcDbCircle
 10
623.3969541266
 20
157.4553302217
 30
0.0
 40
0.4500000000000481
100
AcDbArc
 50
103.3417582272
 51
180.0
  0
LINE
  5
256
330
1F
100
AcDbEntity
  8
0
  6
Continuous
 62
     7
370
    25
100
AcDbLine
 10
16.2349948324
 20
269.9553302217
 30
0.0
 11
22.7526564559
 21
269.9553302217
 31
0.0
  0
LINE
  5
257
330
1F
100
AcDbEntity
  8
0
  6
Continuous
 62
     7
370
    25
100
AcDbLine
 10
22.7526564559
 20
74.9553302217
 30
0.0
 11
16.2349948324
 21
74.9553302217
 31
0.0
  0
LINE
  5
258
330
1F
100
AcDbEntity
  8
0
  6
Continuous
 62
     7
370
    25
100
AcDbLine
 10
401.7314322255
 20
269.9553302217
 30
0.0
 11
408.249093849
 21
269.9553302217
 31
0.0
  0
LINE
  5
259
330
1F
100
AcDbEntity
  8
0
  6
Continuous
 62
     7
370
    25
100
AcDbLine
 10
445.249093849
 20
158.9553302217
 30
0.0
 11
403.249093849
 21
158.9553302217
 31
0.0
  0
LINE
  5
25A
330
1F
100
AcDbEntity
  8
0
  6
Continuous
 62
     7
370
    25
100
AcDbLine
 10
440.249093849
 20
74.9553302217
 30
0.0
 11
408.249093849
 21
74.9553302217
 31
0.0
  0
LINE
  5
25B
330
1F
100
AcDbEntity
  8
0
  6
Continuous
 62
     7
370
    25
100
AcDbLine
 10
-20.555794958
 20
158.9553302217
 30
0.0
 11
-20.7650051676
 21
158.9553302217
 31
0.0
  0
LINE
  5
25C
330
1F
100
AcDbEntity
  8
0
  6
Continuous
 62
     7
370
    25
100
AcDbLine
 10
21.2349948324
 20
158.9553302217
 30
0.0
 11
-20.555794958
 21
158.9553302217
 31
0.0
  0
LINE
  5
25D
330
1F
100
AcDbEntity
  8
0
  6
Continuous
 62
     7
370
    25
100
AcDbLine
 10
-15.6056069127
 20
74.9553302217
 30
0.0
 11
-15.7650051676
 21
74.9553302217
 31
0.0
  0
LINE
  5
25E
330
1F
100
AcDbEntity
  8
0
  6
Continuous
 62
     7
370
    25
100
AcDbLine
 10
16.2349948324
 20
74.9553302217
 30
0.0
 11
-15.6056069127
 21
74.9553302217
 31
0.0
  0
LINE
  5
25F
330
1F
100
AcDbEntity
  8
0
  6
Continuous
 62
     7
370
    25
100
AcDbLine
 10
-20.7650051676
 20
185.9553302217
 30
0.0
 11
21.2349948324
 21
185.9553302217
 31
0.0
  0
LINE
  5
260
330
1F
100
AcDbEntity
  8
0
  6
Continuous
 62
     7
370
    25
100
AcDbLine
 10
-15.7650051676
 20
269.9553302217
 30
0.0
 11
16.2349948324
 21
269.9553302217
 31
0.0
  0
LINE
  5
261
330
1F
100
AcDbEntity
  8
0
  6
Continuous
 62
     7
370
    25
100
AcDbLine
 10
445.0398836395
 20
185.9553302217
 30
0.0
 11
445.249093849
 21
185.9553302217
 31
0.0
  0
LINE
  5
262
330
1F
100
AcDbEntity
  8
0
  6
Continuous
 62
     7
370
    25
100
AcDbLine
 10
403.249093849
 20
185.9553302217
 30
0.0
 11
445.0398836395
 21
185.9553302217
 31
0.0
  0
LINE
  5
263
330
1F
100
AcDbEntity
  8
0
  6
Continuous
 62
     7
370
    25
100
AcDbLine
 10
440.0896955941
 20
269.9553302217
 30
0.0
 11
440.249093849
 21
269.9553302217
 31
0.0
  0
LINE
  5
264
330
1F
100
AcDbEntity
  8
0
  6
Continuous
 62
     7
370
    25
100
AcDbLine
 10
408.249093849
 20
269.9553302217
 30
0.0
 11
440.0896955941
 21
269.9553302217
 31
0.0
  0
LINE
  5
265
330
1F
100
AcDbEntity
  8
0
  6
Continuous
 62
     7
370
    25
100
AcDbLine
 10
408.249093849
 20
74.9553302217
 30
0.0
 11
401.7314322255
 21
74.9553302217
 31
0.0
  0
LINE
  5
266
330
1F
100
AcDbEntity
  8
0
  6
Continuous
 62
     7
370
    25
100
AcDbLine
 10
14.2349948324
 20
56.9553302217
 30
0.0
 11
20.7526564559
 21
56.9553302217
 31
0.0
  0
LINE
  5
267
330
1F
100
AcDbEntity
  8
0
  6
Continuous
 62
     7
370
    25
100
AcDbLine
 10
-13.6255316945
 20
56.9553302217
 30
0.0
 11
14.2349948324
 21
56.9553302217
 31
0.0
  0
LINE
  5
268
330
1F
100
AcDbEntity
  8
0
  6
Continuous
 62
     7
370
    25
100
AcDbLine
 10
-13.7650051676
 20
56.9553302217
 30
0.0
 11
-13.6255316945
 21
56.9553302217
 31
0.0
  0
LINE
  5
269
330
1F
100
AcDbEntity
  8
0
  6
Continuous
 62
     7
370
    25
100
AcDbLine
 10
403.7314322255
 20
56.9553302217
 30
0.0
 11
410.2490938489
 21
56.9553302217
 31
0.0
  0
LINE
  5
26A
330
1F
100
AcDbEntity
  8
0
  6
Continuous
 62
     7
370
    25
100
AcDbLine
 10
14.2349948324
 20
287.9553302217
 30
0.0
 11
-13.7650051676
 21
287.9553302217
 31
0.0
  0
LINE
  5
26B
330
1F
100
AcDbEntity
  8
0
  6
Continuous
 62
     7
370
    25
100
AcDbLine
 10
20.7526564559
 20
287.9553302217
 30
0.0
 11
14.2349948324
 21
287.9553302217
 31
0.0
  0
LINE
  5
26C
330
1F
100
AcDbEntity
  8
0
  6
Continuous
 62
     7
370
    25
100
AcDbLine
 10
410.249093849
 20
287.9553302217
 30
0.0
 11
403.7314322255
 21
287.9553302217
 31
0.0
  0
LINE
  5
26D
330
1F
100
AcDbEntity
  8
0
  6
Continuous
 62
     7
370
    25
100
AcDbLine
 10
410.249093849
 20
56.9553302217
 30
0.0
 11
438.249093849
 21
56.9553302217
 31
0.0
  0
LINE
  5
26E
330
1F
100
AcDbEntity
  8
0
  6
Continuous
 62
     7
370
    25
100
AcDbLine
 10
438.109620376
 20
287.9553302217
 30
0.0
 11
410.249093849
 21
287.9553302217
 31
0.0
  0
LINE
  5
26F
330
1F
100
AcDbEntity
  8
0
  6
Continuous
 62
     7
370
    25
100
AcDbLine
 10
438.249093849
 20
287.9553302217
 30
0.0
 11
438.109620376
 21
287.9553302217
 31
0.0
  0
ARC
  5
270
330
1F
100
AcDbEntity
  8
0
  6
Continuous
 62
     7
370
    25
100
AcDbCircle
 10
-50.7129014122
 20
-2.5446080301
 30
0.0
 40
124.9999307039028
100
AcDbArc
 50
97.9281298636
 51
139.8727244278
  0
LWPOLYLINE
  5
271
330
1F
100
AcDbEntity
  8
0
  6
Continuous
 62
     7
370
    25
100
AcDbPolyline
 90
        7
 70
   128
 43
0.0
 10
-146.2896834452
 20
78.0163093691
 10
-146.4195114426
 20
78.1246779367
 10
-146.7943632075
 20
78.4375580373
 10
-147.3719941415
 20
78.9196582646
 10
-148.0873054199
 20
79.5166094827
 10
-148.5076460564
 20
79.8673669433
 10
-148.5929725159
 20
79.9385656536
  0
ARC
  5
272
330
1F
100
AcDbEntity
  8
0
  6
Continuous
 62
     7
370
    25
100
AcDbCircle
 10
-50.7129014122
 20
-2.5446080301
 30
0.0
 40
127.9999307039029
100
AcDbArc
 50
97.928130342
 51
139.8792848399
  0
LINE
  5
273
330
1F
100
AcDbEntity
  8
0
  6
Continuous
 62
     7
370
    25
100
AcDbLine
 10
-67.9542454452
 20
121.2605563691
 30
0.0
 11
-68.36803899
 21
124.2318818145
 31
0.0
  0
ARC
  5
274
330
1F
100
AcDbEntity
  8
0
  6
Continuous
 62
     7
370
    25
100
AcDbCircle
 10
-195.2135571439
 20
118.4571258813
 30
0.0
 40
63.47444413198314
100
AcDbArc
 50
247.7246621443
 51
320.422626138
  0
LWPOLYLINE
  5
275
330
1F
100
AcDbEntity
  8
0
  6
Continuous
 62
     7
370
    25
100
AcDbPolyline
 90
        7
 70
   128
 43
0.0
 10
-219.2740454452
 20
59.7195913691
 10
-219.2054559091
 20
59.8741278704
 10
-219.007455488
 20
60.3202799765
 10
-218.7023742921
 20
61.0078485472
 10
-218.3245317596
 20
61.8596299597
 10
-218.075064112
 20
62.4221550013
 10
-218.0569373564
 20
62.463033572
  0
ARC
  5
276
330
1F
100
AcDbEntity
  8
0
  6
Continuous
 62
     7
370
    25
100
AcDbCircle
 10
-195.2135571439
 20
118.4571258813
 30
0.0
 40
60.47444413198314
100
AcDbArc
 50
247.8064786741
 51
320.4360199895
  0
ARC
  5
277
330
1F
100
AcDbEntity
  8
0
  6
Continuous
 62
     7
370
    25
100
AcDbCircle
 10
-50.7129014122
 20
347.4552677684
 30
0.0
 40
127.9999307039032
100
AcDbArc
 50
220.1207151513
 51
262.0718701364
  0
LWPOLYLINE
  5
278
330
1F
100
AcDbEntity
  8
0
  6
Continuous
 62
     7
370
    25
100
AcDbPolyline
 90
        7
 70
   128
 43
0.0
 10
-148.5929725286
 20
264.9720940997
 10
-148.5076461259
 20
265.0432927617
 10
-148.0873054297
 20
265.3940502674
 10
-147.3719941474
 20
265.9910014807
 10
-146.7943632102
 20
266.4731017043
 10
-146.4195114433
 20
266.7859818024
 10
-146.2896834452
 20
266.8943503691
  0
ARC
  5
279
330
1F
100
AcDbEntity
  8
0
  6
Continuous
 62
     7
370
    25
100
AcDbCircle
 10
-50.7129014122
 20
347.4552677684
 30
0.0
 40
124.9999307039031
100
AcDbArc
 50
220.1272755722
 51
262.0718701364
  0
LINE
  5
27A
330
1F
100
AcDbEntity
  8
0
  6
Continuous
 62
     7
370
    25
100
AcDbLine
 10
-68.3680379313
 20
220.6787777763
 30
0.0
 11
-67.9542454452
 21
223.6501033691
 31
0.0
  0
ARC
  5
27B
330
1F
100
AcDbEntity
  8
0
  6
Continuous
 62
     7
370
    25
100
AcDbCircle
 10
-195.2135578234
 20
226.453534357
 30
0.0
 40
60.47444433711907
100
AcDbArc
 50
39.5639792539
 51
112.1935205693
  0
LWPOLYLINE
  5
27C
330
1F
100
AcDbEntity
  8
0
  6
Continuous
 62
     7
370
    25
100
AcDbPolyline
 90
        7
 70
   128
 43
0.0
 10
-219.2740454452
 20
285.1910693691
 10
-219.2054559101
 20
285.0365328675
 10
-219.007455492
 20
284.5903807601
 10
-218.7023743005
 20
283.9028121875
 10
-218.3245317735
 20
283.0510307725
 10
-218.0750641273
 20
282.4885057241
 10
-218.0569373739
 20
282.4476271578
  0
ARC
  5
27D
330
1F
100
AcDbEntity
  8
0
  6
Continuous
 62
     7
370
    25
100
AcDbCircle
 10
-195.2135578234
 20
226.453534357
 30
0.0
 40
63.47444433711901
100
AcDbArc
 50
39.5773731234
 51
112.2753371171
  0
ARC
  5
27E
330
1F
100
AcDbEntity
  8
0
  6
Continuous
 62
     7
370
    25
100
AcDbCircle
 10
-165.2772773179
 20
172.4553303691
 30
0.0
 40
124.9999912642761
100
AcDbArc
 50
115.5929116477
 51
244.4070883523
  0
ARC
  5
27F
330
1F
100
AcDbEntity
  8
0
  6
Continuous
 62
     7
370
    25
100
AcDbCircle
 10
-165.2772773179
 20
172.4553303691
 30
0.0
 40
121.9999912642762
100
AcDbArc
 50
115.6339596125
 51
244.3660403967
  0
ARC
  5
280
330
1F
100
AcDbEntity
  8
0
  6
Continuous
 62
     7
370
    25
100
AcDbCircle
 10
-70.7128696585
 20
141.0693968446
 30
0.0
 40
17.00000421330669
100
AcDbArc
 50
277.9281502772
 51
359.9999882865
  0
LINE
  5
281
330
1F
100
AcDbEntity
  8
0
  6
Continuous
 62
     7
370
    25
100
AcDbLine
 10
-53.7128654452
 20
141.0693933691
 30
0.0
 11
-50.7128654452
 21
141.0693933691
 31
0.0
  0
ARC
  5
282
330
1F
100
AcDbEntity
  8
0
  6
Continuous
 62
     7
370
    25
100
AcDbCircle
 10
-70.7128696585
 20
141.0693968446
 30
0.0
 40
20.0000042133067
100
AcDbArc
 50
277.9281502772
 51
359.9999900436
  0
ARC
  5
283
330
1F
100
AcDbEntity
  8
0
  6
Continuous
 62
     7
370
    25
100
AcDbCircle
 10
-70.7128696585
 20
203.8412628937
 30
0.0
 40
17.00000421330671
100
AcDbArc
 50
0.0000099564
 51
82.0718461204
  0
ARC
  5
284
330
1F
100
AcDbEntity
  8
0
  6
Continuous
 62
     7
370
    25
100
AcDbCircle
 10
-70.7128696585
 20
203.8412628937
 30
0.0
 40
20.00000421330675
100
AcDbArc
 50
0.0000099564
 51
82.0718497228
  0
LINE
  5
285
330
1F
100
AcDbEntity
  8
0
  6
Continuous
 62
     7
370
    25
100
AcDbLine
 10
-53.7128654452
 20
203.8412658478
 30
0.0
 11
-50.7128654452
 21
203.8412663691
 31
0.0
  0
CIRCLE
  5
286
330
1F
100
AcDbEntity
  8
0
  6
Continuous
 62
     7
370
    25
100
AcDbCircle
 10
-110.7128654452
 20
172.4553302217
 30
0.0
 40
4.69999999999996
  0
CIRCLE
  5
287
330
1F
100
AcDbEntity
  8
0
  6
Continuous
 62
     7
370
    25
100
AcDbCircle
 10
-200.7128654452
 20
187.4553302217
 30
0.0
 40
4.69999999999996
  0
CIRCLE
  5
288
330
1F
100
AcDbEntity
  8
0
  6
Continuous
 62
     7
370
    25
100
AcDbCircle
 10
-200.7128654452
 20
157.4553302217
 30
0.0
 40
4.699999999999989
  0
LINE
  5
289
330
1F
100
AcDbEntity
  8
0
  6
Continuous
 62
     7
370
    25
100
AcDbLine
 10
-50.7128654452
 20
203.8412663691
 30
0.0
 11
-50.7128654452
 21
195.9553302217
 31
0.0
  0
LINE
  5
28A
330
1F
100
AcDbEntity
  8
0
  6
Continuous
 62
     7
370
    25
100
AcDbLine
 10
-50.7128654452
 20
148.9553302217
 30
0.0
 11
-50.7128654452
 21
141.0693933691
 31
0.0
  0
ARC
  5
28B
330
1F
100
AcDbEntity
  8
0
  6
Continuous
 62
     7
370
    25
100
AcDbCircle
 10
619.6976458254
 20
226.4535345621
 30
0.0
 40
63.47444413198324
100
AcDbArc
 50
67.7246621443
 51
140.422626138
  0
LWPOLYLINE
  5
28C
330
1F
100
AcDbEntity
  8
0
  6
Continuous
 62
     7
370
    25
100
AcDbPolyline
 90
        7
 70
   128
 43
0.0
 10
643.7581341266
 20
285.1910690743
 10
643.6895445905
 20
285.036532573
 10
643.4915441695
 20
284.5903804669
 10
643.1864629736
 20
283.9028118962
 10
642.808620441
 20
283.0510304837
 10
642.5591527934
 20
282.4885054421
 10
642.5410260378
 20
282.4476268714
  0
ARC
  5
28D
330
1F
100
AcDbEntity
  8
0
  6
Continuous
 62
     7
370
    25
100
AcDbCircle
 10
619.6976458254
 20
226.4535345621
 30
0.0
 40
60.4744441319832
100
AcDbArc
 50
67.8064786741
 51
140.4360199895
  0
LWPOLYLINE
  5
28E
330
1F
100
AcDbEntity
  8
0
  6
Continuous
 62
     7
370
    25
100
AcDbPolyline
 90
        7
 70
   128
 43
0.0
 10
570.7737721266
 20
266.8943510743
 10
570.903600124
 20
266.7859825067
 10
571.2784518889
 20
266.4731024061
 10
571.856082823
 20
265.9910021788
 10
572.5713941014
 20
265.3940509607
 10
572.9917347379
 20
265.0432935001
 10
573.0770611974
 20
264.9720947898
  0
ARC
  5
28F
330
1F
100
AcDbEntity
  8
0
  6
Continuous
 62
     7
370
    25
100
AcDbCircle
 10
475.1969900936
 20
347.4552684735
 30
0.0
 40
124.9999307039029
100
AcDbArc
 50
277.9281298636
 51
319.8727244278
  0
ARC
  5
290
330
1F
100
AcDbEntity
  8
0
  6
Continuous
 62
     7
370
    25
100
AcDbCircle
 10
475.1969900936
 20
347.4552684735
 30
0.0
 40
127.9999307039029
100
AcDbArc
 50
277.928130342
 51
319.8792848399
  0
LINE
  5
291
330
1F
100
AcDbEntity
  8
0
  6
Continuous
 62
     7
370
    25
100
AcDbLine
 10
492.4383341266
 20
223.6501040743
 30
0.0
 11
492.8521276714
 21
220.6787786289
 31
0.0
  0
ARC
  5
292
330
1F
100
AcDbEntity
  8
0
  6
Continuous
 62
     7
370
    25
100
AcDbCircle
 10
475.1969900936
 20
-2.5446073249
 30
0.0
 40
127.9999307039032
100
AcDbArc
 50
40.1207151513
 51
82.0718701364
  0
LWPOLYLINE
  5
293
330
1F
100
AcDbEntity
  8
0
  6
Continuous
 62
     7
370
    25
100
AcDbPolyline
 90
        7
 70
   128
 43
0.0
 10
573.07706121
 20
79.9385663437
 10
572.9917348074
 20
79.8673676817
 10
572.5713941111
 20
79.5166101761
 10
571.8560828288
 20
78.9196589627
 10
571.2784518916
 20
78.4375587392
 10
570.9036001247
 20
78.124678641
 10
570.7737721266
 20
78.0163100743
  0
ARC
  5
294
330
1F
100
AcDbEntity
  8
0
  6
Continuous
 62
     7
370
    25
100
AcDbCircle
 10
475.1969900936
 20
-2.5446073249
 30
0.0
 40
124.9999307039031
100
AcDbArc
 50
40.1272755722
 51
82.0718701364
  0
LINE
  5
295
330
1F
100
AcDbEntity
  8
0
  6
Continuous
 62
     7
370
    25
100
AcDbLine
 10
492.8521266128
 20
124.2318826671
 30
0.0
 11
492.4383341266
 21
121.2605570743
 31
0.0
  0
ARC
  5
296
330
1F
100
AcDbEntity
  8
0
  6
Continuous
 62
     7
370
    25
100
AcDbCircle
 10
619.6976465048
 20
118.4571260865
 30
0.0
 40
60.47444433711905
100
AcDbArc
 50
219.5639792539
 51
292.1935205693
  0
LWPOLYLINE
  5
297
330
1F
100
AcDbEntity
  8
0
  6
Continuous
 62
     7
370
    25
100
AcDbPolyline
 90
        7
 70
   128
 43
0.0
 10
643.7581341266
 20
59.7195910743
 10
643.6895445915
 20
59.8741275759
 10
643.4915441734
 20
60.3202796833
 10
643.1864629819
 20
61.0078482559
 10
642.8086204549
 20
61.8596296709
 10
642.5591528087
 20
62.4221547193
 10
642.5410260554
 20
62.4630332856
  0
ARC
  5
298
330
1F
100
AcDbEntity
  8
0
  6
Continuous
 62
     7
370
    25
100
AcDbCircle
 10
619.6976465048
 20
118.4571260865
 30
0.0
 40
63.47444433711907
100
AcDbArc
 50
219.5773731234
 51
292.2753371171
  0
ARC
  5
299
330
1F
100
AcDbEntity
  8
0
  6
Continuous
 62
     7
370
    25
100
AcDbCircle
 10
589.7613659993
 20
172.4553300743
 30
0.0
 40
124.9999912642762
100
AcDbArc
 50
295.5929116477
 51
64.4070883523
  0
ARC
  5
29A
330
1F
100
AcDbEntity
  8
0
  6
Continuous
 62
     7
370
    25
100
AcDbCircle
 10
589.7613659993
 20
172.4553300743
 30
0.0
 40
121.9999912642762
100
AcDbArc
 50
295.6339596125
 51
64.3660403967
  0
LINE
  5
29B
330
1F
100
AcDbEntity
  8
0
  6
Continuous
 62
     7
370
    25
100
AcDbLine
 10
478.1969541266
 20
141.0693945956
 30
0.0
 11
475.1969541266
 21
141.0693940743
 31
0.0
  0
LINE
  5
29C
330
1F
100
AcDbEntity
  8
0
  6
Continuous
 62
     7
370
    25
100
AcDbLine
 10
475.1969541266
 20
141.0693940743
 30
0.0
 11
475.1969541266
 21
148.9553302217
 31
0.0
  0
LINE
  5
29D
330
1F
100
AcDbEntity
  8
0
  6
Continuous
 62
     7
370
    25
100
AcDbLine
 10
475.1969541266
 20
195.9553302217
 30
0.0
 11
475.1969541266
 21
203.8412670743
 31
0.0
  0
LINE
  5
29E
330
1F
100
AcDbEntity
  8
0
  6
Continuous
 62
     7
370
    25
100
AcDbLine
 10
478.1969541266
 20
203.8412670743
 30
0.0
 11
475.1969541266
 21
203.8412670743
 31
0.0
  0
ARC
  5
29F
330
1F
100
AcDbEntity
  8
0
  6
Continuous
 62
     7
370
    25
100
AcDbCircle
 10
495.1969583399
 20
203.8412635988
 30
0.0
 40
17.0000042133067
100
AcDbArc
 50
97.9281502772
 51
179.9999882865
  0
ARC
  5
2A0
330
1F
100
AcDbEntity
  8
0
  6
Continuous
 62
     7
370
    25
100
AcDbCircle
 10
495.1969583399
 20
203.8412635988
 30
0.0
 40
20.0000042133067
100
AcDbArc
 50
97.9281502772
 51
179.9999900436
  0
CIRCLE
  5
2A1
330
1F
100
AcDbEntity
  8
0
  6
Continuous
 62
     7
370
    25
100
AcDbCircle
 10
535.1969541266
 20
172.4553302217
 30
0.0
 40
4.699999999999989
  0
ARC
  5
2A2
330
1F
100
AcDbEntity
  8
0
  6
Continuous
 62
     7
370
    25
100
AcDbCircle
 10
495.1969583399
 20
141.0693975497
 30
0.0
 40
17.00000421330671
100
AcDbArc
 50
180.0000099564
 51
262.0718461204
  0
CIRCLE
  5
2A3
330
1F
100
AcDbEntity
  8
0
  6
Continuous
 62
     7
370
    25
100
AcDbCircle
 10
625.1969541266
 20
157.4553302217
 30
0.0
 40
4.700000000000017
  0
CIRCLE
  5
2A4
330
1F
100
AcDbEntity
  8
0
  6
Continuous
 62
     7
370
    25
100
AcDbCircle
 10
625.1969541266
 20
187.4553302217
 30
0.0
 40
4.700000000000017
  0
ARC
  5
2A5
330
1F
100
AcDbEntity
  8
0
  6
Continuous
 62
     7
370
    25
100
AcDbCircle
 10
495.1969583399
 20
141.0693975497
 30
0.0
 40
20.00000421330671
100
AcDbArc
 50
180.0000099564
 51
262.0718497228
  0
LINE
  5
2A6
330
1F
100
AcDbEntity
  8
0
  6
Continuous
 62
     7
370
    25
100
AcDbLine
 10
75.2420443407
 20
146.9553302217
 30
0.0
 11
349.2420443407
 21
146.9553302217
 31
0.0
  0
LINE
  5
2A7
330
1F
100
AcDbEntity
  8
0
  6
Continuous
 62
     7
370
    25
100
AcDbLine
 10
75.2420443407
 20
149.9553302217
 30
0.0
 11
75.2420443407
 21
146.9553302217
 31
0.0
  0
LINE
  5
2A8
330
1F
100
AcDbEntity
  8
0
  6
Continuous
 62
     7
370
    25
100
AcDbLine
 10
349.2420443407
 20
149.9553302217
 30
0.0
 11
349.2420443407
 21
146.9553302217
 31
0.0
  0
LINE
  5
2A9
330
1F
100
AcDbEntity
  8
0
  6
Continuous
 62
     7
370
    25
100
AcDbLine
 10
72.2420443407
 20
197.9553302217
 30
0.0
 11
75.2420443407
 21
197.9553302217
 31
0.0
  0
LINE
  5
2AA
330
1F
100
AcDbEntity
  8
0
  6
Continuous
 62
     7
370
    25
100
AcDbLine
 10
75.2420443407
 20
194.9553302217
 30
0.0
 11
75.2420443407
 21
197.9553302217
 31
0.0
  0
LINE
  5
2AB
330
1F
100
AcDbEntity
  8
0
  6
Continuous
 62
     7
370
    25
100
AcDbLine
 10
72.2420443407
 20
194.9553302217
 30
0.0
 11
72.2420443407
 21
197.9553302217
 31
0.0
  0
LINE
  5
2AC
330
1F
100
AcDbEntity
  8
0
  6
Continuous
 62
     7
370
    25
100
AcDbLine
 10
352.2420443407
 20
146.9553302217
 30
0.0
 11
349.2420443407
 21
146.9553302217
 31
0.0
  0
LINE
  5
2AD
330
1F
100
AcDbEntity
  8
0
  6
Continuous
 62
     7
370
    25
100
AcDbLine
 10
352.2420443407
 20
149.9553302217
 30
0.0
 11
352.2420443407
 21
146.9553302217
 31
0.0
  0
LINE
  5
2AE
330
1F
100
AcDbEntity
  8
0
  6
Continuous
 62
     7
370
    25
100
AcDbLine
 10
75.2420443407
 20
146.9553302217
 30
0.0
 11
72.2420443407
 21
146.9553302217
 31
0.0
  0
LINE
  5
2AF
330
1F
100
AcDbEntity
  8
0
  6
Continuous
 62
     7
370
    25
100
AcDbLine
 10
72.2420443407
 20
149.9553302217
 30
0.0
 11
72.2420443407
 21
146.9553302217
 31
0.0
  0
LINE
  5
2B0
330
1F
100
AcDbEntity
  8
0
  6
Continuous
 62
     7
370
    25
100
AcDbLine
 10
349.2420443407
 20
197.9553302217
 30
0.0
 11
352.2420443407
 21
197.9553302217
 31
0.0
  0
LINE
  5
2B1
330
1F
100
AcDbEntity
  8
0
  6
Continuous
 62
     7
370
    25
100
AcDbLine
 10
352.2420443407
 20
194.9553302217
 30
0.0
 11
352.2420443407
 21
197.9553302217
 31
0.0
  0
LINE
  5
2B2
330
1F
100
AcDbEntity
  8
0
  6
Continuous
 62
     7
370
    25
100
AcDbLine
 10
349.2420443407
 20
194.9553302217
 30
0.0
 11
349.2420443407
 21
197.9553302217
 31
0.0
  0
LINE
  5
2B3
330
1F
100
AcDbEntity
  8
0
  6
Continuous
 62
     7
370
    25
100
AcDbLine
 10
75.2420443407
 20
197.9553302217
 30
0.0
 11
349.2420443407
 21
197.9553302217
 31
0.0
  0
ARC
  5
2B4
330
1F
100
AcDbEntity
  8
0
  6
Continuous
 62
     7
370
    25
100
AcDbCircle
 10
212.0197237111
 20
171.4459008328
 30
0.0
 40
81.06282712486141
100
AcDbArc
 50
36.6121608791
 51
160.9118017175
  0
LWPOLYLINE
  5
2B5
330
1F
100
AcDbEntity
  8
0
  6
Continuous
 62
     7
370
    25
100
AcDbPolyline
 90
       41
 70
   128
 43
0.0
 10
134.0326551225
 20
146.9553302217
 10
135.4369115111
 20
142.3332931364
 10
138.0706502018
 20
135.6961405793
 10
141.2186412598
 20
129.3466988692
 10
144.8708969339
 20
123.2730037067
 10
149.1140013259
 20
117.3600820603
 10
153.8179947782
 20
111.806412885
 10
159.0205391063
 20
106.5732997639
 10
164.6115073509
 20
101.756313362
 10
170.6727316583
 20
97.2700605812
 10
177.0102795212
 20
93.1794682221
 10
182.1016093814
 20
90.1756726876
 10
183.8214785946
 20
89.1955696883
 10
185.5085153508
 20
88.1621382287
 10
187.0620398879
 20
86.9562400582
 10
187.5547663311
 20
86.4003084992
 10
187.6822735012
 20
86.1260974508
 10
187.7030660456
 20
85.9598008607
 10
187.6652678101
 20
85.7950879244
 10
187.5845579507
 20
85.6708673073
 10
187.3990278199
 20
85.5203660103
 10
186.8475867384
 20
85.3135002948
 10
185.8193592249
 20
85.181616673
 10
184.7615671344
 20
85.1741928355
 10
182.698229687
 20
85.3373833338
 10
180.6508600348
 20
85.6525375828
 10
176.554023463
 20
86.5813663827
 10
170.8519295554
 20
88.4088540439
 10
165.3262564587
 20
90.7210559152
 10
159.8524433126
 20
93.5289805316
 10
154.6036155326
 20
96.7387798169
 10
149.5305158575
 20
100.3748040019
 10
144.7304814065
 20
104.3647963736
 10
140.1318787475
 20
108.7735440429
 10
135.8538426813
 20
113.494179097
 10
131.3240942819
 20
119.3168448501
 10
127.2739909994
 20
125.4828477736
 10
123.6403009974
 20
132.1264907687
 10
120.5520666438
 20
139.0407806738
 10
117.9787053926
 20
146.3323257511
 10
117.8142685122
 20
146.9553302217
  0
LWPOLYLINE
  5
2B6
330
1F
100
AcDbEntity
  8
0
  6
Continuous
 62
     7
370
    25
100
AcDbPolyline
 90
       42
 70
   128
 43
0.0
 10
116.6806200051
 20
197.9553302217
 10
117.5556331486
 20
201.3404590756
 10
119.1840544829
 20
206.4488418938
 10
121.0909247778
 20
211.4642772307
 10
123.2670468775
 20
216.3645115576
 10
125.781126747
 20
221.2714835342
 10
128.5693234779
 20
226.0331074038
 10
131.6193100298
 20
230.6261171669
 10
134.8676275275
 20
234.9664751757
 10
138.353477337
 20
239.1239541002
 10
142.0595621212
 20
243.0807831436
 10
146.0923408274
 20
246.932154787
 10
150.3388508818
 20
250.5533390343
 10
154.7791987433
 20
253.9266575988
 10
159.3060839547
 20
256.9801036081
 10
163.9989243906
 20
259.7800602037
 10
168.8356656101
 20
262.3143789692
 10
173.951104555
 20
264.6384926775
 10
179.1943187239
 20
266.6704720343
 10
184.5400666335
 20
268.4002025952
 10
189.8281023332
 20
269.7884273374
 10
195.1886660051
 20
270.8840953607
 10
200.5973126265
 20
271.6822587312
 10
206.1990436592
 20
272.1896030345
 10
211.8250880742
 20
272.3786497813
 10
217.4482943073
 20
272.2490846017
 10
222.9223717005
 20
271.8145599533
 10
228.368230335
 20
271.0774511263
 10
233.7608319634
 20
270.0410547378
 10
239.2409212906
 20
268.6640523568
 10
244.638350274
 20
266.9767427081
 10
249.9268390287
 20
264.9869829727
 10
254.9544499262
 20
262.7642637309
 10
259.8551680877
 20
260.2648729791
 10
264.6067228724
 20
257.5007382613
 10
269.3283101771
 20
254.3857115187
 10
273.8686157345
 20
251.0042078391
 10
278.2054482583
 20
247.3726009278
 10
281.6915553927
 20
244.126749925
 10
285.0182524836
 20
240.7177068173
 10
288.2063546878
 20
237.1189872562
 10
291.2163917429
 20
233.3700693379
  0
ARC
  5
2B7
330
1F
100
AcDbEntity
  8
0
  6
Continuous
 62
     7
370
    25
100
AcDbCircle
 10
148.9627927261
 20
367.2419191444
 30
0.0
 40
195.3401100742488
100
AcDbArc
 50
310.988606936
 51
316.7386714555
  0
LINE
  5
2B8
330
1F
100
AcDbEntity
  8
0
  6
Continuous
 62
     7
370
    25
100
AcDbLine
 10
291.2163917429
 20
233.3700693379
 30
0.0
 11
277.0881181783
 21
219.7913864848
 31
0.0
  0
LINE
  5
2B9
330
1F
100
AcDbEntity
  8
0
  6
Continuous
 62
     8
370
    25
100
AcDbLine
 10
190.6407059004
 20
167.9553302217
 30
0.0
 11
233.843382781
 21
167.9553302217
 31
0.0
  0
LINE
  5
2BA
330
1F
100
AcDbEntity
  8
0
  6
Continuous
 62
     8
370
    25
100
AcDbLine
 10
233.843382781
 20
176.9553302217
 30
0.0
 11
190.6407059004
 21
176.9553302217
 31
0.0
  0
LINE
  5
2BB
330
1F
100
AcDbEntity
  8
0
  6
Continuous
 62
     8
370
    25
100
AcDbLine
 10
-56.622059167
 20
167.9553302217
 30
0.0
 11
190.5921356064
 21
167.9553302217
 31
0.0
  0
LINE
  5
2BC
330
1F
100
AcDbEntity
  8
0
  6
Continuous
 62
     8
370
    25
100
AcDbLine
 10
190.5881269099
 20
176.9553302217
 30
0.0
 11
-56.6143152457
 21
176.9553302217
 31
0.0
  0
LINE
  5
2BD
330
1F
100
AcDbEntity
  8
0
  6
Continuous
 62
     8
370
    25
100
AcDbLine
 10
-310.8069802787
 20
167.9553302217
 30
0.0
 11
-290.1863587626
 21
167.9553302217
 31
0.0
  0
LINE
  5
2BE
330
1F
100
AcDbEntity
  8
0
  6
Continuous
 62
     8
370
    25
100
AcDbLine
 10
-290.1835374368
 20
176.9553302217
 30
0.0
 11
-310.8044938281
 21
176.9553302217
 31
0.0
  0
LINE
  5
2BF
330
1F
100
AcDbEntity
  8
0
  6
Continuous
 62
     8
370
    25
100
AcDbLine
 10
481.1061476197
 20
176.9553302217
 30
0.0
 11
233.891953075
 21
176.9553302217
 31
0.0
  0
LINE
  5
2C0
330
1F
100
AcDbEntity
  8
0
  6
Continuous
 62
     8
370
    25
100
AcDbLine
 10
233.8959617715
 20
167.9553302217
 30
0.0
 11
481.0984039271
 21
167.9553302217
 31
0.0
  0
LINE
  5
2C1
330
1F
100
AcDbEntity
  8
0
  6
Continuous
 62
     8
370
    25
100
AcDbLine
 10
735.2916594877
 20
176.9553302217
 30
0.0
 11
714.6704474441
 21
176.9553302217
 31
0.0
  0
LINE
  5
2C2
330
1F
100
AcDbEntity
  8
0
  6
Continuous
 62
     8
370
    25
100
AcDbLine
 10
714.6676261183
 20
167.9553302217
 30
0.0
 11
735.2885825096
 21
167.9553302217
 31
0.0
  0
LINE
  5
2C3
330
1F
100
AcDbEntity
  8
0
  6
Continuous
 62
     8
370
    25
100
AcDbLine
 10
444.878464329
 20
151.9553302217
 30
0.0
 11
479.8976352826
 21
151.9553302217
 31
0.0
  0
LINE
  5
2C4
330
1F
100
AcDbEntity
  8
0
  6
Continuous
 62
     8
370
    25
100
AcDbLine
 10
479.8976352826
 20
161.9553302217
 30
0.0
 11
448.249093849
 21
161.9553302217
 31
0.0
  0
LINE
  5
2C5
330
1F
100
AcDbEntity
  8
0
  6
Continuous
 62
     8
370
    25
100
AcDbLine
 10
444.878464329
 20
158.9553302217
 30
0.0
 11
444.878464329
 21
151.9553302217
 31
0.0
  0
LINE
  5
2C6
330
1F
100
AcDbEntity
  8
0
  6
Continuous
 62
     8
370
    25
100
AcDbLine
 10
400.249093849
 20
161.9553302217
 30
0.0
 11
377.8974525186
 21
161.9553302217
 31
0.0
  0
LINE
  5
2C7
330
1F
100
AcDbEntity
  8
0
  6
Continuous
 62
     8
370
    25
100
AcDbLine
 10
377.8974525186
 20
151.9553302217
 30
0.0
 11
407.249093849
 21
151.9553302217
 31
0.0
  0
LINE
  5
2C8
330
1F
100
AcDbEntity
  8
0
  6
Continuous
 62
     8
370
    25
100
AcDbLine
 10
441.249093849
 20
151.9553302217
 30
0.0
 11
444.878464329
 21
151.9553302217
 31
0.0
  0
LINE
  5
2C9
330
1F
100
AcDbEntity
  8
0
  6
Continuous
 62
     8
370
    25
100
AcDbLine
 10
361.6048183619
 20
151.9553302217
 30
0.0
 11
377.8974525186
 21
151.9553302217
 31
0.0
  0
LINE
  5
2CA
330
1F
100
AcDbEntity
  8
0
  6
Continuous
 62
     8
370
    25
100
AcDbLine
 10
377.8974525186
 20
161.9553302217
 30
0.0
 11
361.6048183619
 21
161.9553302217
 31
0.0
  0
LINE
  5
2CB
330
1F
100
AcDbEntity
  8
0
  6
Continuous
 62
     8
370
    25
100
AcDbLine
 10
479.8976352826
 20
192.9553302217
 30
0.0
 11
444.878464329
 21
192.9553302217
 31
0.0
  0
LINE
  5
2CC
330
1F
100
AcDbEntity
  8
0
  6
Continuous
 62
     8
370
    25
100
AcDbLine
 10
448.249093849
 20
182.9553302217
 30
0.0
 11
479.8976352826
 21
182.9553302217
 31
0.0
  0
LINE
  5
2CD
330
1F
100
AcDbEntity
  8
0
  6
Continuous
 62
     8
370
    25
100
AcDbLine
 10
444.878464329
 20
192.9553302217
 30
0.0
 11
444.878464329
 21
185.9553302217
 31
0.0
  0
LINE
  5
2CE
330
1F
100
AcDbEntity
  8
0
  6
Continuous
 62
     8
370
    25
100
AcDbLine
 10
444.878464329
 20
192.9553302217
 30
0.0
 11
441.249093849
 21
192.9553302217
 31
0.0
  0
LINE
  5
2CF
330
1F
100
AcDbEntity
  8
0
  6
Continuous
 62
     8
370
    25
100
AcDbLine
 10
407.249093849
 20
192.9553302217
 30
0.0
 11
377.8974525186
 21
192.9553302217
 31
0.0
  0
LINE
  5
2D0
330
1F
100
AcDbEntity
  8
0
  6
Continuous
 62
     8
370
    25
100
AcDbLine
 10
377.8974525186
 20
182.9553302217
 30
0.0
 11
400.249093849
 21
182.9553302217
 31
0.0
  0
LINE
  5
2D1
330
1F
100
AcDbEntity
  8
0
  6
Continuous
 62
     8
370
    25
100
AcDbLine
 10
377.8974525186
 20
192.9553302217
 30
0.0
 11
361.6048183619
 21
192.9553302217
 31
0.0
  0
LINE
  5
2D2
330
1F
100
AcDbEntity
  8
0
  6
Continuous
 62
     8
370
    25
100
AcDbLine
 10
361.6048183619
 20
182.9553302217
 30
0.0
 11
377.8974525186
 21
182.9553302217
 31
0.0
  0
LINE
  5
2D3
330
1F
100
AcDbEntity
  8
0
  6
Continuous
 62
     8
370
    25
100
AcDbLine
 10
-55.4135466011
 20
151.9553302217
 30
0.0
 11
-20.3943756476
 21
151.9553302217
 31
0.0
  0
LINE
  5
2D4
330
1F
100
AcDbEntity
  8
0
  6
Continuous
 62
     8
370
    25
100
AcDbLine
 10
-23.7650051676
 20
161.9553302217
 30
0.0
 11
-55.4135466011
 21
161.9553302217
 31
0.0
  0
LINE
  5
2D5
330
1F
100
AcDbEntity
  8
0
  6
Continuous
 62
     8
370
    25
100
AcDbLine
 10
-20.3943756476
 20
151.9553302217
 30
0.0
 11
-20.3943756476
 21
158.9553302217
 31
0.0
  0
LINE
  5
2D6
330
1F
100
AcDbEntity
  8
0
  6
Continuous
 62
     8
370
    25
100
AcDbLine
 10
46.5866361629
 20
161.9553302217
 30
0.0
 11
24.2349948324
 21
161.9553302217
 31
0.0
  0
LINE
  5
2D7
330
1F
100
AcDbEntity
  8
0
  6
Continuous
 62
     8
370
    25
100
AcDbLine
 10
-20.3943756476
 20
151.9553302217
 30
0.0
 11
-16.7650051676
 21
151.9553302217
 31
0.0
  0
LINE
  5
2D8
330
1F
100
AcDbEntity
  8
0
  6
Continuous
 62
     8
370
    25
100
AcDbLine
 10
17.2349948324
 20
151.9553302217
 30
0.0
 11
46.5866361629
 21
151.9553302217
 31
0.0
  0
LINE
  5
2D9
330
1F
100
AcDbEntity
  8
0
  6
Continuous
 62
     8
370
    25
100
AcDbLine
 10
46.5866361629
 20
151.9553302217
 30
0.0
 11
62.8792703196
 21
151.9553302217
 31
0.0
  0
LINE
  5
2DA
330
1F
100
AcDbEntity
  8
0
  6
Continuous
 62
     8
370
    25
100
AcDbLine
 10
62.8792703196
 20
161.9553302217
 30
0.0
 11
46.5866361629
 21
161.9553302217
 31
0.0
  0
LINE
  5
2DB
330
1F
100
AcDbEntity
  8
0
  6
Continuous
 62
     8
370
    25
100
AcDbLine
 10
-55.4135466011
 20
182.9553302217
 30
0.0
 11
-23.7650051676
 21
182.9553302217
 31
0.0
  0
LINE
  5
2DC
330
1F
100
AcDbEntity
  8
0
  6
Continuous
 62
     8
370
    25
100
AcDbLine
 10
-20.3943756476
 20
192.9553302217
 30
0.0
 11
-55.4135466011
 21
192.9553302217
 31
0.0
  0
LINE
  5
2DD
330
1F
100
AcDbEntity
  8
0
  6
Continuous
 62
     8
370
    25
100
AcDbLine
 10
-20.3943756476
 20
185.9553302217
 30
0.0
 11
-20.3943756476
 21
192.9553302217
 31
0.0
  0
LINE
  5
2DE
330
1F
100
AcDbEntity
  8
0
  6
Continuous
 62
     8
370
    25
100
AcDbLine
 10
24.2349948324
 20
182.9553302217
 30
0.0
 11
46.5866361629
 21
182.9553302217
 31
0.0
  0
LINE
  5
2DF
330
1F
100
AcDbEntity
  8
0
  6
Continuous
 62
     8
370
    25
100
AcDbLine
 10
46.5866361629
 20
192.9553302217
 30
0.0
 11
17.2349948324
 21
192.9553302217
 31
0.0
  0
LINE
  5
2E0
330
1F
100
AcDbEntity
  8
0
  6
Continuous
 62
     8
370
    25
100
AcDbLine
 10
-16.7650051676
 20
192.9553302217
 30
0.0
 11
-20.3943756476
 21
192.9553302217
 31
0.0
  0
LINE
  5
2E1
330
1F
100
AcDbEntity
  8
0
  6
Continuous
 62
     8
370
    25
100
AcDbLine
 10
62.8792703196
 20
192.9553302217
 30
0.0
 11
46.5866361629
 21
192.9553302217
 31
0.0
  0
LINE
  5
2E2
330
1F
100
AcDbEntity
  8
0
  6
Continuous
 62
     8
370
    25
100
AcDbLine
 10
46.5866361629
 20
182.9553302217
 30
0.0
 11
62.8792703196
 21
182.9553302217
 31
0.0
  0
LINE
  5
2E3
330
1F
100
AcDbEntity
  8
0
  6
Continuous
 62
     8
370
    25
100
AcDbLine
 10
62.8792703196
 20
182.9553302217
 30
0.0
 11
361.6048183619
 21
182.9553302217
 31
0.0
  0
LINE
  5
2E4
330
1F
100
AcDbEntity
  8
0
  6
Continuous
 62
     8
370
    25
100
AcDbLine
 10
361.6048183619
 20
191.9553302217
 30
0.0
 11
62.8792703196
 21
191.9553302217
 31
0.0
  0
LINE
  5
2E5
330
1F
100
AcDbEntity
  8
0
  6
Continuous
 62
     8
370
    25
100
AcDbLine
 10
62.8792703196
 20
152.9553302217
 30
0.0
 11
361.6048183619
 21
152.9553302217
 31
0.0
  0
LINE
  5
2E6
330
1F
100
AcDbEntity
  8
0
  6
Continuous
 62
     8
370
    25
100
AcDbLine
 10
361.6048183619
 20
161.9553302217
 30
0.0
 11
62.8792703196
 21
161.9553302217
 31
0.0
  0
LINE
  5
2E7
330
1F
100
AcDbEntity
  8
0
  6
Continuous
 62
     8
370
    25
100
AcDbLine
 10
17.9920443407
 20
208.0404802406
 30
0.0
 11
17.2349948324
 21
208.0404802406
 31
0.0
  0
LINE
  5
2E8
330
1F
100
AcDbEntity
  8
0
  6
Continuous
 62
     8
370
    25
100
AcDbLine
 10
17.5999606962
 20
208.6033041821
 30
0.0
 11
17.2349948324
 21
208.6033041821
 31
0.0
  0
LINE
  5
2E9
330
1F
100
AcDbEntity
  8
0
  6
Continuous
 62
     8
370
    25
100
AcDbLine
 10
407.249093849
 20
208.0404802406
 30
0.0
 11
406.4920443407
 21
208.0404802406
 31
0.0
  0
LINE
  5
2EA
330
1F
100
AcDbEntity
  8
0
  6
Continuous
 62
     8
370
    25
100
AcDbLine
 10
407.249093849
 20
208.6033041821
 30
0.0
 11
406.8841279852
 21
208.6033041821
 31
0.0
  0
LINE
  5
2EB
330
1F
100
AcDbEntity
  8
0
  6
Continuous
 62
     8
370
    25
100
AcDbLine
 10
17.2349948324
 20
136.8701802028
 30
0.0
 11
17.9920443407
 21
136.8701802028
 31
0.0
  0
LINE
  5
2EC
330
1F
100
AcDbEntity
  8
0
  6
Continuous
 62
     8
370
    25
100
AcDbLine
 10
17.2349948324
 20
136.3073562613
 30
0.0
 11
17.5999606962
 21
136.3073562613
 31
0.0
  0
LINE
  5
2ED
330
1F
100
AcDbEntity
  8
0
  6
Continuous
 62
     8
370
    25
100
AcDbLine
 10
406.4920443407
 20
136.8701802028
 30
0.0
 11
407.249093849
 21
136.8701802028
 31
0.0
  0
LINE
  5
2EE
330
1F
100
AcDbEntity
  8
0
  6
Continuous
 62
     8
370
    25
100
AcDbLine
 10
406.8841279852
 20
136.3073562613
 30
0.0
 11
407.249093849
 21
136.3073562613
 31
0.0
  0
LINE
  5
2EF
330
1F
100
AcDbEntity
  8
0
  6
Continuous
 62
     8
370
    25
100
AcDbLine
 10
23.7526564559
 20
268.9553302217
 30
0.0
 11
17.2349948324
 21
268.9553302217
 31
0.0
  0
LINE
  5
2F0
330
1F
100
AcDbEntity
  8
0
  6
Continuous
 62
     8
370
    25
100
AcDbLine
 10
17.2349948324
 20
75.9553302217
 30
0.0
 11
23.7526564559
 21
75.9553302217
 31
0.0
  0
LINE
  5
2F1
330
1F
100
AcDbEntity
  8
0
  6
Continuous
 62
     8
370
    25
100
AcDbLine
 10
407.249093849
 20
268.9553302217
 30
0.0
 11
400.7314322255
 21
268.9553302217
 31
0.0
  0
LINE
  5
2F2
330
1F
100
AcDbEntity
  8
0
  6
Continuous
 62
     8
370
    25
100
AcDbLine
 10
400.249093849
 20
161.9553302217
 30
0.0
 11
448.249093849
 21
161.9553302217
 31
0.0
  0
LINE
  5
2F3
330
1F
100
AcDbEntity
  8
0
  6
Continuous
 62
     8
370
    25
100
AcDbLine
 10
441.249093849
 20
155.9553302217
 30
0.0
 11
407.249093849
 21
155.9553302217
 31
0.0
  0
LINE
  5
2F4
330
1F
100
AcDbEntity
  8
0
  6
Continuous
 62
     8
370
    25
100
AcDbLine
 10
407.249093849
 20
75.9553302217
 30
0.0
 11
441.249093849
 21
75.9553302217
 31
0.0
  0
LINE
  5
2F5
330
1F
100
AcDbEntity
  8
0
  6
Continuous
 62
     8
370
    25
100
AcDbLine
 10
-23.5259077853
 20
161.9553302217
 30
0.0
 11
24.2349948324
 21
161.9553302217
 31
0.0
  0
LINE
  5
2F6
330
1F
100
AcDbEntity
  8
0
  6
Continuous
 62
     8
370
    25
100
AcDbLine
 10
-23.7650051676
 20
161.9553302217
 30
0.0
 11
-23.5259077853
 21
161.9553302217
 31
0.0
  0
LINE
  5
2F7
330
1F
100
AcDbEntity
  8
0
  6
Continuous
 62
     8
370
    25
100
AcDbLine
 10
-16.5956445218
 20
155.9553302217
 30
0.0
 11
-16.7650051676
 21
155.9553302217
 31
0.0
  0
LINE
  5
2F8
330
1F
100
AcDbEntity
  8
0
  6
Continuous
 62
     8
370
    25
100
AcDbLine
 10
17.2349948324
 20
155.9553302217
 30
0.0
 11
-16.5956445218
 21
155.9553302217
 31
0.0
  0
LINE
  5
2F9
330
1F
100
AcDbEntity
  8
0
  6
Continuous
 62
     8
370
    25
100
AcDbLine
 10
-16.5956445218
 20
75.9553302217
 30
0.0
 11
17.2349948324
 21
75.9553302217
 31
0.0
  0
LINE
  5
2FA
330
1F
100
AcDbEntity
  8
0
  6
Continuous
 62
     8
370
    25
100
AcDbLine
 10
-16.7650051676
 20
75.9553302217
 30
0.0
 11
-16.5956445218
 21
75.9553302217
 31
0.0
  0
LINE
  5
2FB
330
1F
100
AcDbEntity
  8
0
  6
Continuous
 62
     8
370
    25
100
AcDbLine
 10
24.2349948324
 20
182.9553302217
 30
0.0
 11
-23.7650051676
 21
182.9553302217
 31
0.0
  0
LINE
  5
2FC
330
1F
100
AcDbEntity
  8
0
  6
Continuous
 62
     8
370
    25
100
AcDbLine
 10
-16.7650051676
 20
188.9553302217
 30
0.0
 11
17.2349948324
 21
188.9553302217
 31
0.0
  0
LINE
  5
2FD
330
1F
100
AcDbEntity
  8
0
  6
Continuous
 62
     8
370
    25
100
AcDbLine
 10
17.2349948324
 20
268.9553302217
 30
0.0
 11
-16.7650051676
 21
268.9553302217
 31
0.0
  0
LINE
  5
2FE
330
1F
100
AcDbEntity
  8
0
  6
Continuous
 62
     8
370
    25
100
AcDbLine
 10
448.0099964667
 20
182.9553302217
 30
0.0
 11
400.249093849
 21
182.9553302217
 31
0.0
  0
LINE
  5
2FF
330
1F
100
AcDbEntity
  8
0
  6
Continuous
 62
     8
370
    25
100
AcDbLine
 10
448.249093849
 20
182.9553302217
 30
0.0
 11
448.0099964667
 21
182.9553302217
 31
0.0
  0
LINE
  5
300
330
1F
100
AcDbEntity
  8
0
  6
Continuous
 62
     8
370
    25
100
AcDbLine
 10
441.0797332032
 20
188.9553302217
 30
0.0
 11
441.249093849
 21
188.9553302217
 31
0.0
  0
LINE
  5
301
330
1F
100
AcDbEntity
  8
0
  6
Continuous
 62
     8
370
    25
100
AcDbLine
 10
407.249093849
 20
188.9553302217
 30
0.0
 11
441.0797332032
 21
188.9553302217
 31
0.0
  0
LINE
  5
302
330
1F
100
AcDbEntity
  8
0
  6
Continuous
 62
     8
370
    25
100
AcDbLine
 10
441.0797332032
 20
268.9553302217
 30
0.0
 11
407.249093849
 21
268.9553302217
 31
0.0
  0
LINE
  5
303
330
1F
100
AcDbEntity
  8
0
  6
Continuous
 62
     8
370
    25
100
AcDbLine
 10
441.249093849
 20
268.9553302217
 30
0.0
 11
441.0797332032
 21
268.9553302217
 31
0.0
  0
LINE
  5
304
330
1F
100
AcDbEntity
  8
0
  6
Continuous
 62
     8
370
    25
100
AcDbLine
 10
400.7314322255
 20
75.9553302217
 30
0.0
 11
407.249093849
 21
75.9553302217
 31
0.0
  0
LINE
  5
305
330
1F
100
AcDbEntity
  8
0
  6
Continuous
 62
     8
370
    25
100
AcDbLine
 10
24.9824041511
 20
62.2394947382
 30
0.0
 11
31.5000657746
 21
62.2394947382
 31
0.0
  0
LINE
  5
306
330
1F
100
AcDbEntity
  8
0
  6
Continuous
 62
     8
370
    25
100
AcDbLine
 10
31.7526564559
 20
61.5751308994
 30
0.0
 11
25.2349948324
 21
61.5751308994
 31
0.0
  0
LINE
  5
307
330
1F
100
AcDbEntity
  8
0
  6
Continuous
 62
     8
370
    25
100
AcDbLine
 10
25.2349948324
 20
58.7950313977
 30
0.0
 11
31.7526564559
 21
58.7950313977
 31
0.0
  0
LINE
  5
308
330
1F
100
AcDbEntity
  8
0
  6
Continuous
 62
     8
370
    25
100
AcDbLine
 10
30.9187899113
 20
57.8089281197
 30
0.0
 11
24.4011282878
 21
57.8089281197
 31
0.0
  0
LINE
  5
309
330
1F
100
AcDbEntity
  8
0
  6
Continuous
 62
     8
370
    25
100
AcDbLine
 10
24.0052471372
 20
70.6711657052
 30
0.0
 11
17.4875855138
 21
70.6711657052
 31
0.0
  0
LINE
  5
30A
330
1F
100
AcDbEntity
  8
0
  6
Continuous
 62
     8
370
    25
100
AcDbLine
 10
17.2349948324
 20
71.3355295441
 30
0.0
 11
23.7526564559
 21
71.3355295441
 31
0.0
  0
LINE
  5
30B
330
1F
100
AcDbEntity
  8
0
  6
Continuous
 62
     8
370
    25
100
AcDbLine
 10
23.7526564559
 20
73.9553302217
 30
0.0
 11
17.2349948324
 21
73.9553302217
 31
0.0
  0
LINE
  5
30C
330
1F
100
AcDbEntity
  8
0
  6
Continuous
 62
     8
370
    25
100
AcDbLine
 10
-24.7650051676
 20
58.7950313977
 30
0.0
 11
25.2349948324
 21
58.7950313977
 31
0.0
  0
LINE
  5
30D
330
1F
100
AcDbEntity
  8
0
  6
Continuous
 62
     8
370
    25
100
AcDbLine
 10
-23.6903861542
 20
57.8089281197
 30
0.0
 11
-23.9311386229
 21
57.8089281197
 31
0.0
  0
LINE
  5
30E
330
1F
100
AcDbEntity
  8
0
  6
Continuous
 62
     8
370
    25
100
AcDbLine
 10
24.4011282878
 20
57.8089281197
 30
0.0
 11
-23.6903861542
 21
57.8089281197
 31
0.0
  0
LINE
  5
30F
330
1F
100
AcDbEntity
  8
0
  6
Continuous
 62
     8
370
    25
100
AcDbLine
 10
25.2349948324
 20
61.5751308994
 30
0.0
 11
-24.7650051676
 21
61.5751308994
 31
0.0
  0
LINE
  5
310
330
1F
100
AcDbEntity
  8
0
  6
Continuous
 62
     8
370
    25
100
AcDbLine
 10
-24.2658711201
 20
62.2394947382
 30
0.0
 11
24.9824041511
 21
62.2394947382
 31
0.0
  0
LINE
  5
311
330
1F
100
AcDbEntity
  8
0
  6
Continuous
 62
     8
370
    25
100
AcDbLine
 10
-24.5124144862
 20
62.2394947382
 30
0.0
 11
-24.2658711201
 21
62.2394947382
 31
0.0
  0
LINE
  5
312
330
1F
100
AcDbEntity
  8
0
  6
Continuous
 62
     8
370
    25
100
AcDbLine
 10
17.4875855138
 20
70.6711657052
 30
0.0
 11
-17.0175958489
 21
70.6711657052
 31
0.0
  0
LINE
  5
313
330
1F
100
AcDbEntity
  8
0
  6
Continuous
 62
     8
370
    25
100
AcDbLine
 10
-16.5956445218
 20
71.3355295441
 30
0.0
 11
17.2349948324
 21
71.3355295441
 31
0.0
  0
LINE
  5
314
330
1F
100
AcDbEntity
  8
0
  6
Continuous
 62
     8
370
    25
100
AcDbLine
 10
-16.7650051676
 20
71.3355295441
 30
0.0
 11
-16.5956445218
 21
71.3355295441
 31
0.0
  0
LINE
  5
315
330
1F
100
AcDbEntity
  8
0
  6
Continuous
 62
     8
370
    25
100
AcDbLine
 10
-16.5956445218
 20
73.9553302217
 30
0.0
 11
-16.7650051676
 21
73.9553302217
 31
0.0
  0
LINE
  5
316
330
1F
100
AcDbEntity
  8
0
  6
Continuous
 62
     8
370
    25
100
AcDbLine
 10
17.2349948324
 20
73.9553302217
 30
0.0
 11
-16.5956445218
 21
73.9553302217
 31
0.0
  0
LINE
  5
317
330
1F
100
AcDbEntity
  8
0
  6
Continuous
 62
     8
370
    25
100
AcDbLine
 10
392.7314322255
 20
58.7950313977
 30
0.0
 11
399.249093849
 21
58.7950313977
 31
0.0
  0
LINE
  5
318
330
1F
100
AcDbEntity
  8
0
  6
Continuous
 62
     8
370
    25
100
AcDbLine
 10
399.249093849
 20
61.5751308994
 30
0.0
 11
392.7314322255
 21
61.5751308994
 31
0.0
  0
LINE
  5
319
330
1F
100
AcDbEntity
  8
0
  6
Continuous
 62
     8
370
    25
100
AcDbLine
 10
392.9840229068
 20
62.2394947382
 30
0.0
 11
399.5016845303
 21
62.2394947382
 31
0.0
  0
LINE
  5
31A
330
1F
100
AcDbEntity
  8
0
  6
Continuous
 62
     8
370
    25
100
AcDbLine
 10
400.0829603936
 20
57.8089281197
 30
0.0
 11
393.5652987701
 21
57.8089281197
 31
0.0
  0
LINE
  5
31B
330
1F
100
AcDbEntity
  8
0
  6
Continuous
 62
     8
370
    25
100
AcDbLine
 10
406.9965031677
 20
70.6711657052
 30
0.0
 11
400.4788415442
 21
70.6711657052
 31
0.0
  0
LINE
  5
31C
330
1F
100
AcDbEntity
  8
0
  6
Continuous
 62
     8
370
    25
100
AcDbLine
 10
400.7314322255
 20
71.3355295441
 30
0.0
 11
407.249093849
 21
71.3355295441
 31
0.0
  0
LINE
  5
31D
330
1F
100
AcDbEntity
  8
0
  6
Continuous
 62
     8
370
    25
100
AcDbLine
 10
407.249093849
 20
73.9553302217
 30
0.0
 11
400.7314322255
 21
73.9553302217
 31
0.0
  0
LINE
  5
31E
330
1F
100
AcDbEntity
  8
0
  6
Continuous
 62
     8
370
    25
100
AcDbLine
 10
-24.5159453943
 20
286.1156290457
 30
0.0
 11
-24.7650051676
 21
286.1156290457
 31
0.0
  0
LINE
  5
31F
330
1F
100
AcDbEntity
  8
0
  6
Continuous
 62
     8
370
    25
100
AcDbLine
 10
25.2349948324
 20
286.1156290457
 30
0.0
 11
-24.5159453943
 21
286.1156290457
 31
0.0
  0
LINE
  5
320
330
1F
100
AcDbEntity
  8
0
  6
Continuous
 62
     8
370
    25
100
AcDbLine
 10
-24.5159453943
 20
283.3355295441
 30
0.0
 11
25.2349948324
 21
283.3355295441
 31
0.0
  0
LINE
  5
321
330
1F
100
AcDbEntity
  8
0
  6
Continuous
 62
     8
370
    25
100
AcDbLine
 10
-24.7650051676
 20
283.3355295441
 30
0.0
 11
-24.5159453943
 21
283.3355295441
 31
0.0
  0
LINE
  5
322
330
1F
100
AcDbEntity
  8
0
  6
Continuous
 62
     8
370
    25
100
AcDbLine
 10
24.9824041511
 20
282.6711657052
 30
0.0
 11
-24.5124144862
 21
282.6711657052
 31
0.0
  0
LINE
  5
323
330
1F
100
AcDbEntity
  8
0
  6
Continuous
 62
     8
370
    25
100
AcDbLine
 10
-23.9311386229
 20
287.1017323237
 30
0.0
 11
24.4011282878
 21
287.1017323237
 31
0.0
  0
LINE
  5
324
330
1F
100
AcDbEntity
  8
0
  6
Continuous
 62
     8
370
    25
100
AcDbLine
 10
-16.845718796
 20
274.2394947382
 30
0.0
 11
17.4875855138
 21
274.2394947382
 31
0.0
  0
LINE
  5
325
330
1F
100
AcDbEntity
  8
0
  6
Continuous
 62
     8
370
    25
100
AcDbLine
 10
-17.0175958489
 20
274.2394947382
 30
0.0
 11
-16.845718796
 21
274.2394947382
 31
0.0
  0
LINE
  5
326
330
1F
100
AcDbEntity
  8
0
  6
Continuous
 62
     8
370
    25
100
AcDbLine
 10
17.2349948324
 20
273.5751308994
 30
0.0
 11
-16.7650051676
 21
273.5751308994
 31
0.0
  0
LINE
  5
327
330
1F
100
AcDbEntity
  8
0
  6
Continuous
 62
     8
370
    25
100
AcDbLine
 10
-16.7650051676
 20
270.9553302217
 30
0.0
 11
17.2349948324
 21
270.9553302217
 31
0.0
  0
LINE
  5
328
330
1F
100
AcDbEntity
  8
0
  6
Continuous
 62
     8
370
    25
100
AcDbLine
 10
31.5000657746
 20
282.6711657052
 30
0.0
 11
24.9824041511
 21
282.6711657052
 31
0.0
  0
LINE
  5
329
330
1F
100
AcDbEntity
  8
0
  6
Continuous
 62
     8
370
    25
100
AcDbLine
 10
25.2349948324
 20
283.3355295441
 30
0.0
 11
31.7526564559
 21
283.3355295441
 31
0.0
  0
LINE
  5
32A
330
1F
100
AcDbEntity
  8
0
  6
Continuous
 62
     8
370
    25
100
AcDbLine
 10
31.7526564559
 20
286.1156290457
 30
0.0
 11
25.2349948324
 21
286.1156290457
 31
0.0
  0
LINE
  5
32B
330
1F
100
AcDbEntity
  8
0
  6
Continuous
 62
     8
370
    25
100
AcDbLine
 10
24.4011282878
 20
287.1017323237
 30
0.0
 11
30.9187899113
 21
287.1017323237
 31
0.0
  0
LINE
  5
32C
330
1F
100
AcDbEntity
  8
0
  6
Continuous
 62
     8
370
    25
100
AcDbLine
 10
17.4875855138
 20
274.2394947382
 30
0.0
 11
24.0052471372
 21
274.2394947382
 31
0.0
  0
LINE
  5
32D
330
1F
100
AcDbEntity
  8
0
  6
Continuous
 62
     8
370
    25
100
AcDbLine
 10
23.7526564559
 20
273.5751308994
 30
0.0
 11
17.2349948324
 21
273.5751308994
 31
0.0
  0
LINE
  5
32E
330
1F
100
AcDbEntity
  8
0
  6
Continuous
 62
     8
370
    25
100
AcDbLine
 10
17.2349948324
 20
270.9553302217
 30
0.0
 11
23.7526564559
 21
270.9553302217
 31
0.0
  0
LINE
  5
32F
330
1F
100
AcDbEntity
  8
0
  6
Continuous
 62
     8
370
    25
100
AcDbLine
 10
399.5016845303
 20
282.6711657052
 30
0.0
 11
392.9840229068
 21
282.6711657052
 31
0.0
  0
LINE
  5
330
330
1F
100
AcDbEntity
  8
0
  6
Continuous
 62
     8
370
    25
100
AcDbLine
 10
392.7314322255
 20
283.3355295441
 30
0.0
 11
399.249093849
 21
283.3355295441
 31
0.0
  0
LINE
  5
331
330
1F
100
AcDbEntity
  8
0
  6
Continuous
 62
     8
370
    25
100
AcDbLine
 10
399.249093849
 20
286.1156290457
 30
0.0
 11
392.7314322255
 21
286.1156290457
 31
0.0
  0
LINE
  5
332
330
1F
100
AcDbEntity
  8
0
  6
Continuous
 62
     8
370
    25
100
AcDbLine
 10
393.5652987701
 20
287.1017323237
 30
0.0
 11
400.0829603936
 21
287.1017323237
 31
0.0
  0
LINE
  5
333
330
1F
100
AcDbEntity
  8
0
  6
Continuous
 62
     8
370
    25
100
AcDbLine
 10
400.4788415442
 20
274.2394947382
 30
0.0
 11
406.9965031677
 21
274.2394947382
 31
0.0
  0
LINE
  5
334
330
1F
100
AcDbEntity
  8
0
  6
Continuous
 62
     8
370
    25
100
AcDbLine
 10
407.249093849
 20
273.5751308994
 30
0.0
 11
400.7314322255
 21
273.5751308994
 31
0.0
  0
LINE
  5
335
330
1F
100
AcDbEntity
  8
0
  6
Continuous
 62
     8
370
    25
100
AcDbLine
 10
400.7314322255
 20
270.9553302217
 30
0.0
 11
407.249093849
 21
270.9553302217
 31
0.0
  0
LINE
  5
336
330
1F
100
AcDbEntity
  8
0
  6
Continuous
 62
     8
370
    25
100
AcDbLine
 10
449.0000340758
 20
58.7950313977
 30
0.0
 11
449.249093849
 21
58.7950313977
 31
0.0
  0
LINE
  5
337
330
1F
100
AcDbEntity
  8
0
  6
Continuous
 62
     8
370
    25
100
AcDbLine
 10
399.249093849
 20
58.7950313977
 30
0.0
 11
449.0000340758
 21
58.7950313977
 31
0.0
  0
LINE
  5
338
330
1F
100
AcDbEntity
  8
0
  6
Continuous
 62
     8
370
    25
100
AcDbLine
 10
448.4152273044
 20
57.8089281197
 30
0.0
 11
400.0829603936
 21
57.8089281197
 31
0.0
  0
LINE
  5
339
330
1F
100
AcDbEntity
  8
0
  6
Continuous
 62
     8
370
    25
100
AcDbLine
 10
399.5016845303
 20
62.2394947382
 30
0.0
 11
448.9965031677
 21
62.2394947382
 31
0.0
  0
LINE
  5
33A
330
1F
100
AcDbEntity
  8
0
  6
Continuous
 62
     8
370
    25
100
AcDbLine
 10
449.0000340758
 20
61.5751308994
 30
0.0
 11
399.249093849
 21
61.5751308994
 31
0.0
  0
LINE
  5
33B
330
1F
100
AcDbEntity
  8
0
  6
Continuous
 62
     8
370
    25
100
AcDbLine
 10
449.249093849
 20
61.5751308994
 30
0.0
 11
449.0000340758
 21
61.5751308994
 31
0.0
  0
LINE
  5
33C
330
1F
100
AcDbEntity
  8
0
  6
Continuous
 62
     8
370
    25
100
AcDbLine
 10
441.3298074774
 20
70.6711657052
 30
0.0
 11
406.9965031677
 21
70.6711657052
 31
0.0
  0
LINE
  5
33D
330
1F
100
AcDbEntity
  8
0
  6
Continuous
 62
     8
370
    25
100
AcDbLine
 10
441.5016845303
 20
70.6711657052
 30
0.0
 11
441.3298074774
 21
70.6711657052
 31
0.0
  0
LINE
  5
33E
330
1F
100
AcDbEntity
  8
0
  6
Continuous
 62
     8
370
    25
100
AcDbLine
 10
407.249093849
 20
71.3355295441
 30
0.0
 11
441.249093849
 21
71.3355295441
 31
0.0
  0
LINE
  5
33F
330
1F
100
AcDbEntity
  8
0
  6
Continuous
 62
     8
370
    25
100
AcDbLine
 10
441.249093849
 20
73.9553302217
 30
0.0
 11
407.249093849
 21
73.9553302217
 31
0.0
  0
LINE
  5
340
330
1F
100
AcDbEntity
  8
0
  6
Continuous
 62
     8
370
    25
100
AcDbLine
 10
449.249093849
 20
286.1156290457
 30
0.0
 11
399.249093849
 21
286.1156290457
 31
0.0
  0
LINE
  5
341
330
1F
100
AcDbEntity
  8
0
  6
Continuous
 62
     8
370
    25
100
AcDbLine
 10
399.249093849
 20
283.3355295441
 30
0.0
 11
449.249093849
 21
283.3355295441
 31
0.0
  0
LINE
  5
342
330
1F
100
AcDbEntity
  8
0
  6
Continuous
 62
     8
370
    25
100
AcDbLine
 10
448.1744748357
 20
287.1017323237
 30
0.0
 11
448.4152273044
 21
287.1017323237
 31
0.0
  0
LINE
  5
343
330
1F
100
AcDbEntity
  8
0
  6
Continuous
 62
     8
370
    25
100
AcDbLine
 10
400.0829603936
 20
287.1017323237
 30
0.0
 11
448.1744748357
 21
287.1017323237
 31
0.0
  0
LINE
  5
344
330
1F
100
AcDbEntity
  8
0
  6
Continuous
 62
     8
370
    25
100
AcDbLine
 10
448.7499598016
 20
282.6711657052
 30
0.0
 11
399.5016845303
 21
282.6711657052
 31
0.0
  0
LINE
  5
345
330
1F
100
AcDbEntity
  8
0
  6
Continuous
 62
     8
370
    25
100
AcDbLine
 10
448.9965031677
 20
282.6711657052
 30
0.0
 11
448.7499598016
 21
282.6711657052
 31
0.0
  0
LINE
  5
346
330
1F
100
AcDbEntity
  8
0
  6
Continuous
 62
     8
370
    25
100
AcDbLine
 10
406.9965031677
 20
274.2394947382
 30
0.0
 11
441.5016845303
 21
274.2394947382
 31
0.0
  0
LINE
  5
347
330
1F
100
AcDbEntity
  8
0
  6
Continuous
 62
     8
370
    25
100
AcDbLine
 10
441.0797332032
 20
273.5751308994
 30
0.0
 11
407.249093849
 21
273.5751308994
 31
0.0
  0
LINE
  5
348
330
1F
100
AcDbEntity
  8
0
  6
Continuous
 62
     8
370
    25
100
AcDbLine
 10
441.249093849
 20
273.5751308994
 30
0.0
 11
441.0797332032
 21
273.5751308994
 31
0.0
  0
LINE
  5
349
330
1F
100
AcDbEntity
  8
0
  6
Continuous
 62
     8
370
    25
100
AcDbLine
 10
441.0797332032
 20
270.9553302217
 30
0.0
 11
441.249093849
 21
270.9553302217
 31
0.0
  0
LINE
  5
34A
330
1F
100
AcDbEntity
  8
0
  6
Continuous
 62
     8
370
    25
100
AcDbLine
 10
407.249093849
 20
270.9553302217
 30
0.0
 11
441.0797332032
 21
270.9553302217
 31
0.0
  0
LINE
  5
34B
330
1F
100
AcDbEntity
  8
0
  6
Continuous
 62
     8
370
    25
100
AcDbLine
 10
403.9814322255
 20
56.7074758267
 30
0.0
 11
410.499093849
 21
56.7074758267
 31
0.0
  0
LINE
  5
34C
330
1F
100
AcDbEntity
  8
0
  6
Continuous
 62
     8
370
    25
100
AcDbLine
 10
411.2293417829
 20
55.7445460147
 30
0.0
 11
404.7116801594
 21
55.7445460147
 31
0.0
  0
LINE
  5
34D
330
1F
100
AcDbEntity
  8
0
  6
Continuous
 62
     8
370
    25
100
AcDbLine
 10
13.9849948324
 20
288.2031846167
 30
0.0
 11
-13.5150051676
 21
288.2031846167
 31
0.0
  0
LINE
  5
34E
330
1F
100
AcDbEntity
  8
0
  6
Continuous
 62
     8
370
    25
100
AcDbLine
 10
-12.7847572337
 20
289.1661144287
 30
0.0
 11
13.2547468986
 21
289.1661144287
 31
0.0
  0
LINE
  5
34F
330
1F
100
AcDbEntity
  8
0
  6
Continuous
 62
     8
370
    25
100
AcDbLine
 10
13.9849948324
 20
56.7074758267
 30
0.0
 11
20.5026564559
 21
56.7074758267
 31
0.0
  0
LINE
  5
350
330
1F
100
AcDbEntity
  8
0
  6
Continuous
 62
     8
370
    25
100
AcDbLine
 10
19.772408522
 20
55.7445460147
 30
0.0
 11
13.2547468986
 21
55.7445460147
 31
0.0
  0
LINE
  5
351
330
1F
100
AcDbEntity
  8
0
  6
Continuous
 62
     8
370
    25
100
AcDbLine
 10
410.499093849
 20
288.2031846167
 30
0.0
 11
403.9814322255
 21
288.2031846167
 31
0.0
  0
LINE
  5
352
330
1F
100
AcDbEntity
  8
0
  6
Continuous
 62
     8
370
    25
100
AcDbLine
 10
404.7116801594
 20
289.1661144287
 30
0.0
 11
411.2293417829
 21
289.1661144287
 31
0.0
  0
LINE
  5
353
330
1F
100
AcDbEntity
  8
0
  6
Continuous
 62
     8
370
    25
100
AcDbLine
 10
-13.3780222923
 20
56.7074758267
 30
0.0
 11
13.9849948324
 21
56.7074758267
 31
0.0
  0
LINE
  5
354
330
1F
100
AcDbEntity
  8
0
  6
Continuous
 62
     8
370
    25
100
AcDbLine
 10
-13.5150051676
 20
56.7074758267
 30
0.0
 11
-13.3780222923
 21
56.7074758267
 31
0.0
  0
LINE
  5
355
330
1F
100
AcDbEntity
  8
0
  6
Continuous
 62
     8
370
    25
100
AcDbLine
 10
-12.6550493738
 20
55.7445460147
 30
0.0
 11
-12.7847572337
 21
55.7445460147
 31
0.0
  0
LINE
  5
356
330
1F
100
AcDbEntity
  8
0
  6
Continuous
 62
     8
370
    25
100
AcDbLine
 10
13.2547468986
 20
55.7445460147
 30
0.0
 11
-12.6550493738
 21
55.7445460147
 31
0.0
  0
LINE
  5
357
330
1F
100
AcDbEntity
  8
0
  6
Continuous
 62
     8
370
    25
100
AcDbLine
 10
437.8621109737
 20
288.2031846167
 30
0.0
 11
410.499093849
 21
288.2031846167
 31
0.0
  0
LINE
  5
358
330
1F
100
AcDbEntity
  8
0
  6
Continuous
 62
     8
370
    25
100
AcDbLine
 10
437.999093849
 20
288.2031846167
 30
0.0
 11
437.8621109737
 21
288.2031846167
 31
0.0
  0
LINE
  5
359
330
1F
100
AcDbEntity
  8
0
  6
Continuous
 62
     8
370
    25
100
AcDbLine
 10
437.1391380552
 20
289.1661144287
 30
0.0
 11
437.2688459151
 21
289.1661144287
 31
0.0
  0
LINE
  5
35A
330
1F
100
AcDbEntity
  8
0
  6
Continuous
 62
     8
370
    25
100
AcDbLine
 10
411.2293417829
 20
289.1661144287
 30
0.0
 11
437.1391380552
 21
289.1661144287
 31
0.0
  0
LINE
  5
35B
330
1F
100
AcDbEntity
  8
0
  6
Continuous
 62
     8
370
    25
100
AcDbLine
 10
20.5026564559
 20
288.2031846167
 30
0.0
 11
13.9849948324
 21
288.2031846167
 31
0.0
  0
LINE
  5
35C
330
1F
100
AcDbEntity
  8
0
  6
Continuous
 62
     8
370
    25
100
AcDbLine
 10
13.2547468986
 20
289.1661144287
 30
0.0
 11
19.772408522
 21
289.1661144287
 31
0.0
  0
LINE
  5
35D
330
1F
100
AcDbEntity
  8
0
  6
Continuous
 62
     8
370
    25
100
AcDbLine
 10
410.499093849
 20
56.7074758267
 30
0.0
 11
437.999093849
 21
56.7074758267
 31
0.0
  0
LINE
  5
35E
330
1F
100
AcDbEntity
  8
0
  6
Continuous
 62
     8
370
    25
100
AcDbLine
 10
437.2688459151
 20
55.7445460147
 30
0.0
 11
411.2293417829
 21
55.7445460147
 31
0.0
  0
LINE
  5
35F
330
1F
100
AcDbEntity
  8
0
  6
Continuous
 62
     8
370
    25
100
AcDbLine
 10
-53.7128654452
 20
141.0693933691
 30
0.0
 11
-53.7128654452
 21
149.2513016454
 31
0.0
  0
LINE
  5
360
330
1F
100
AcDbEntity
  8
0
  6
Continuous
 62
     8
370
    25
100
AcDbLine
 10
-53.7128654452
 20
164.659358798
 30
0.0
 11
-53.7128654452
 21
164.9650972487
 31
0.0
  0
LINE
  5
361
330
1F
100
AcDbEntity
  8
0
  6
Continuous
 62
     8
370
    25
100
AcDbLine
 10
-53.7128654452
 20
179.9455623704
 30
0.0
 11
-53.7128654452
 21
180.2513016454
 31
0.0
  0
LINE
  5
362
330
1F
100
AcDbEntity
  8
0
  6
Continuous
 62
     8
370
    25
100
AcDbLine
 10
-53.7128654452
 20
195.659358798
 30
0.0
 11
-53.7128654452
 21
203.8412658478
 31
0.0
  0
LINE
  5
363
330
1F
100
AcDbEntity
  8
0
  6
Continuous
 62
     8
370
    25
100
AcDbLine
 10
478.1969541266
 20
203.8412670743
 30
0.0
 11
478.1969541266
 21
195.659358798
 31
0.0
  0
LINE
  5
364
330
1F
100
AcDbEntity
  8
0
  6
Continuous
 62
     8
370
    25
100
AcDbLine
 10
478.1969541266
 20
180.2513016454
 30
0.0
 11
478.1969541266
 21
179.9455631947
 31
0.0
  0
LINE
  5
365
330
1F
100
AcDbEntity
  8
0
  6
Continuous
 62
     8
370
    25
100
AcDbLine
 10
478.1969541266
 20
164.965098073
 30
0.0
 11
478.1969541266
 21
164.659358798
 31
0.0
  0
LINE
  5
366
330
1F
100
AcDbEntity
  8
0
  6
Continuous
 62
     8
370
    25
100
AcDbLine
 10
478.1969541266
 20
149.2513016454
 30
0.0
 11
478.1969541266
 21
141.0693945956
 31
0.0
  0
LINE
  5
367
330
1F
100
AcDbEntity
  8
0
  6
Continuous
 62
     8
370
    25
100
AcDbLine
 10
106.4807391497
 20
199.9553302217
 30
0.0
 11
72.2420443407
 21
199.9553302217
 31
0.0
  0
LINE
  5
368
330
1F
100
AcDbEntity
  8
0
  6
Continuous
 62
     8
370
    25
100
AcDbLine
 10
112.2420443407
 20
199.9553302217
 30
0.0
 11
106.4807391497
 21
199.9553302217
 31
0.0
  0
LINE
  5
369
330
1F
100
AcDbEntity
  8
0
  6
Continuous
 62
     8
370
    25
100
AcDbLine
 10
72.2420443407
 20
144.9553302217
 30
0.0
 11
112.2420443407
 21
144.9553302217
 31
0.0
  0
LINE
  5
36A
330
1F
100
AcDbEntity
  8
0
  6
Continuous
 62
     8
370
    25
100
AcDbLine
 10
352.2420443407
 20
199.9553302217
 30
0.0
 11
312.2420443407
 21
199.9553302217
 31
0.0
  0
LINE
  5
36B
330
1F
100
AcDbEntity
  8
0
  6
Continuous
 62
     8
370
    25
100
AcDbLine
 10
318.0033495318
 20
144.9553302217
 30
0.0
 11
352.2420443407
 21
144.9553302217
 31
0.0
  0
LINE
  5
36C
330
1F
100
AcDbEntity
  8
0
  6
Continuous
 62
     8
370
    25
100
AcDbLine
 10
312.2420443407
 20
144.9553302217
 30
0.0
 11
318.0033495318
 21
144.9553302217
 31
0.0
  0
LINE
  5
36D
330
1F
100
AcDbEntity
  8
0
  6
Continuous
 62
     8
370
    25
100
AcDbLine
 10
78.5420443407
 20
129.8249389033
 30
0.0
 11
105.9420443407
 21
129.8249389033
 31
0.0
  0
LINE
  5
36E
330
1F
100
AcDbEntity
  8
0
  6
Continuous
 62
     8
370
    25
100
AcDbLine
 10
78.8754941403
 20
129.2873972857
 30
0.0
 11
105.6085945411
 21
129.2873972857
 31
0.0
  0
LINE
  5
36F
330
1F
100
AcDbEntity
  8
0
  6
Continuous
 62
     8
370
    25
100
AcDbLine
 10
322.4885383966
 20
129.8249389033
 30
0.0
 11
345.9420443407
 21
129.8249389033
 31
0.0
  0
LINE
  5
370
330
1F
100
AcDbEntity
  8
0
  6
Continuous
 62
     8
370
    25
100
AcDbLine
 10
318.5420443407
 20
129.8249389033
 30
0.0
 11
322.4885383966
 21
129.8249389033
 31
0.0
  0
LINE
  5
371
330
1F
100
AcDbEntity
  8
0
  6
Continuous
 62
     8
370
    25
100
AcDbLine
 10
322.7259328931
 20
129.2873972857
 30
0.0
 11
345.6085945411
 21
129.2873972857
 31
0.0
  0
LINE
  5
372
330
1F
100
AcDbEntity
  8
0
  6
Continuous
 62
     8
370
    25
100
AcDbLine
 10
318.8754941403
 20
129.2873972857
 30
0.0
 11
322.7259328931
 21
129.2873972857
 31
0.0
  0
LINE
  5
373
330
1F
100
AcDbEntity
  8
0
  6
Continuous
 62
     8
370
    25
100
AcDbLine
 10
101.9955502848
 20
215.0857215401
 30
0.0
 11
78.5420443407
 21
215.0857215401
 31
0.0
  0
LINE
  5
374
330
1F
100
AcDbEntity
  8
0
  6
Continuous
 62
     8
370
    25
100
AcDbLine
 10
105.9420443407
 20
215.0857215401
 30
0.0
 11
101.9955502848
 21
215.0857215401
 31
0.0
  0
LINE
  5
375
330
1F
100
AcDbEntity
  8
0
  6
Continuous
 62
     8
370
    25
100
AcDbLine
 10
101.7581557883
 20
215.6232631577
 30
0.0
 11
78.8754941403
 21
215.6232631577
 31
0.0
  0
LINE
  5
376
330
1F
100
AcDbEntity
  8
0
  6
Continuous
 62
     8
370
    25
100
AcDbLine
 10
105.6085945411
 20
215.6232631577
 30
0.0
 11
101.7581557883
 21
215.6232631577
 31
0.0
  0
LINE
  5
377
330
1F
100
AcDbEntity
  8
0
  6
Continuous
 62
     8
370
    25
100
AcDbLine
 10
345.9420443407
 20
215.0857215401
 30
0.0
 11
318.5420443407
 21
215.0857215401
 31
0.0
  0
LINE
  5
378
330
1F
100
AcDbEntity
  8
0
  6
Continuous
 62
     8
370
    25
100
AcDbLine
 10
345.6085945411
 20
215.6232631577
 30
0.0
 11
318.8754941403
 21
215.6232631577
 31
0.0
  0
ENDSEC
  0
SECTION
  2
OBJECTS
  0
DICTIONARY
  5
C
330
0
100
AcDbDictionary
281
     1
  3
ACAD_GROUP
350
D
  3
ACAD_LAYOUT
350
1A
  3
ACAD_MLINESTYLE
350
17
  3
ACAD_PLOTSETTINGS
350
19
  3
ACAD_PLOTSTYLENAME
350
E
  3
ACAD_SCALELIST
350
47
  3
DWGPROPS
350
379
  0
DICTIONARY
  5
D
102
{ACAD_REACTORS
330
C
102
}
330
C
100
AcDbDictionary
281
     1
  0
DICTIONARY
  5
1A
102
{ACAD_REACTORS
330
C
102
}
330
C
100
AcDbDictionary
281
     1
  3
Layout1
350
1E
  3
Layout2
350
26
  3
Model
350
22
  0
DICTIONARY
  5
17
102
{ACAD_REACTORS
330
C
102
}
330
C
100
AcDbDictionary
281
     1
  3
Standard
350
18
  0
DICTIONARY
  5
19
102
{ACAD_REACTORS
330
C
102
}
330
C
100
AcDbDictionary
281
     1
  0
ACDBDICTIONARYWDFLT
  5
E
102
{ACAD_REACTORS
330
C
102
}
330
C
100
AcDbDictionary
281
     1
  3
Normal
350
F
100
AcDbDictionaryWithDefault
340
F
  0
DICTIONARY
  5
47
102
{ACAD_REACTORS
330
C
102
}
330
C
100
AcDbDictionary
281
     1
  3
A0
350
48
  3
A1
350
49
  3
A2
350
4A
  3
A3
350
4B
  3
A4
350
4C
  3
A5
350
4D
  3
A6
350
4E
  3
A7
350
4F
  3
A8
350
50
  3
A9
350
51
  3
B0
350
52
  3
B1
350
53
  3
B2
350
54
  3
B3
350
55
  3
B4
350
56
  3
B5
350
57
  3
B6
350
58
  3
B7
350
59
  3
B8
350
5A
  3
B9
350
5B
  3
C0
350
5C
  3
C1
350
5D
  3
C2
350
5E
  3
C3
350
5F
  3
C4
350
60
  3
C5
350
61
  3
C6
350
62
  3
C7
350
63
  3
C8
350
64
  3
C9
350
65
  3
D0
350
66
  3
D1
350
67
  3
D2
350
68
  0
XRECORD
  5
379
102
{ACAD_REACTORS
330
C
102
}
330
C
100
AcDbXrecord
280
     1
  1
DWGPROPS COOKIE
  2

  3

  4

  6

  7

  8
Swing
  9

300
=
301
=
302
=
303
=
304
=
305
=
306
=
307
=
308
=
309
=
 40
0.0
 41
2459758.28493618
 42
2459758.284936644
  1

 90
        0
  0
LAYOUT
  5
1E
102
{ACAD_REACTORS
330
1A
102
}
330
1A
100
AcDbPlotSettings
  1

  2
none_device
  4

  6

 40
0.0
 41
0.0
 42
0.0
 43
0.0
 44
0.0
 45
0.0
 46
0.0
 47
0.0
 48
0.0
 49
0.0
140
0.0
141
0.0
142
1.0
143
1.0
 70
   688
 72
     1
 73
     0
 74
     5
  7

 75
    16
147
1.0
148
0.0
149
0.0
100
AcDbLayout
  1
Layout1
 70
     1
 71
     1
 10
0.0
 20
0.0
 11
420.0
 21
297.0
 12
0.0
 22
0.0
 32
0.0
 14
1.0000000000E+20
 24
1.0000000000E+20
 34
1.0000000000E+20
 15
-1.0000000000E+20
 25
-1.0000000000E+20
 35
-1.0000000000E+20
146
0.0
 13
0.0
 23
0.0
 33
0.0
 16
1.0
 26
0.0
 36
0.0
 17
0.0
 27
1.0
 37
0.0
 76
     0
330
1B
  0
LAYOUT
  5
26
102
{ACAD_REACTORS
330
1A
102
}
330
1A
100
AcDbPlotSettings
  1

  2
none_device
  4

  6

 40
0.0
 41
0.0
 42
0.0
 43
0.0
 44
0.0
 45
0.0
 46
0.0
 47
0.0
 48
0.0
 49
0.0
140
0.0
141
0.0
142
1.0
143
1.0
 70
   688
 72
     1
 73
     0
 74
     5
  7

 75
    16
147
1.0
148
0.0
149
0.0
100
AcDbLayout
  1
Layout2
 70
     1
 71
     2
 10
0.0
 20
0.0
 11
0.0
 21
0.0
 12
0.0
 22
0.0
 32
0.0
 14
0.0
 24
0.0
 34
0.0
 15
0.0
 25
0.0
 35
0.0
146
0.0
 13
0.0
 23
0.0
 33
0.0
 16
1.0
 26
0.0
 36
0.0
 17
0.0
 27
1.0
 37
0.0
 76
     0
330
23
  0
LAYOUT
  5
22
102
{ACAD_REACTORS
330
1A
102
}
330
1A
100
AcDbPlotSettings
  1

  2
none_device
  4
Letter_(8.50_x_11.00_Inches)
  6

 40
6.35
 41
6.35
 42
6.35000508
 43
6.35000508
 44
215.9
 45
279.4
 46
0.0
 47
0.0
 48
0.0
 49
0.0
140
0.0
141
0.0
142
1.0
143
1.0
 70
  1712
 72
     1
 73
     0
 74
     0
  7

 75
     0
147
1.0
148
0.0
149
0.0
100
AcDbLayout
  1
Model
 70
     1
 71
     0
 10
0.0
 20
0.0
 11
431.8
 21
279.4
 12
0.0
 22
0.0
 32
0.0
 14
0.0
 24
0.0
 34
0.0
 15
431.8
 25
279.4
 35
0.0
146
0.0
 13
0.0
 23
0.0
 33
0.0
 16
1.0
 26
0.0
 36
0.0
 17
0.0
 27
1.0
 37
0.0
 76
     0
330
1F
331
29
  0
MLINESTYLE
  5
18
102
{ACAD_REACTORS
330
17
102
}
330
17
100
AcDbMlineStyle
  2
Standard
 70
     0
  3

 62
   256
 51
90.0
 52
90.0
 71
     2
 49
0.5
 62
   256
  6
BYLAYER
 49
-0.5
 62
   256
  6
BYLAYER
  0
ACDBPLACEHOLDER
  5
F
102
{ACAD_REACTORS
330
E
102
}
330
E
  0
SCALE
  5
48
102
{ACAD_REACTORS
330
47
102
}
330
47
100
AcDbScale
 70
     0
300
1:1
140
1.0
141
1.0
290
     1
  0
SCALE
  5
49
102
{ACAD_REACTORS
330
47
102
}
330
47
100
AcDbScale
 70
     0
300
1:2
140
1.0
141
2.0
290
     0
  0
SCALE
  5
4A
102
{ACAD_REACTORS
330
47
102
}
330
47
100
AcDbScale
 70
     0
300
1:4
140
1.0
141
4.0
290
     0
  0
SCALE
  5
4B
102
{ACAD_REACTORS
330
47
102
}
330
47
100
AcDbScale
 70
     0
300
1:5
140
1.0
141
5.0
290
     0
  0
SCALE
  5
4C
102
{ACAD_REACTORS
330
47
102
}
330
47
100
AcDbScale
 70
     0
300
1:8
140
1.0
141
8.0
290
     0
  0
SCALE
  5
4D
102
{ACAD_REACTORS
330
47
102
}
330
47
100
AcDbScale
 70
     0
300
1:10
140
1.0
141
10.0
290
     0
  0
SCALE
  5
4E
102
{ACAD_REACTORS
330
47
102
}
330
47
100
AcDbScale
 70
     0
300
1:16
140
1.0
141
16.0
290
     0
  0
SCALE
  5
4F
102
{ACAD_REACTORS
330
47
102
}
330
47
100
AcDbScale
 70
     0
300
1:20
140
1.0
141
20.0
290
     0
  0
SCALE
  5
50
102
{ACAD_REACTORS
330
47
102
}
330
47
100
AcDbScale
 70
     0
300
1:30
140
1.0
141
30.0
290
     0
  0
SCALE
  5
51
102
{ACAD_REACTORS
330
47
102
}
330
47
100
AcDbScale
 70
     0
300
1:40
140
1.0
141
40.0
290
     0
  0
SCALE
  5
52
102
{ACAD_REACTORS
330
47
102
}
330
47
100
AcDbScale
 70
     0
300
1:50
140
1.0
141
50.0
290
     0
  0
SCALE
  5
53
102
{ACAD_REACTORS
330
47
102
}
330
47
100
AcDbScale
 70
     0
300
1:100
140
1.0
141
100.0
290
     0
  0
SCALE
  5
54
102
{ACAD_REACTORS
330
47
102
}
330
47
100
AcDbScale
 70
     0
300
2:1
140
2.0
141
1.0
290
     0
  0
SCALE
  5
55
102
{ACAD_REACTORS
330
47
102
}
330
47
100
AcDbScale
 70
     0
300
4:1
140
4.0
141
1.0
290
     0
  0
SCALE
  5
56
102
{ACAD_REACTORS
330
47
102
}
330
47
100
AcDbScale
 70
     0
300
8:1
140
8.0
141
1.0
290
     0
  0
SCALE
  5
57
102
{ACAD_REACTORS
330
47
102
}
330
47
100
AcDbScale
 70
     0
300
10:1
140
10.0
141
1.0
290
     0
  0
SCALE
  5
58
102
{ACAD_REACTORS
330
47
102
}
330
47
100
AcDbScale
 70
     0
300
100:1
140
100.0
141
1.0
290
     0
  0
SCALE
  5
59
102
{ACAD_REACTORS
330
47
102
}
330
47
100
AcDbScale
 70
     0
300
1/128" = 1'-0"
140
0.0078125
141
12.0
290
     0
  0
SCALE
  5
5A
102
{ACAD_REACTORS
330
47
102
}
330
47
100
AcDbScale
 70
     0
300
1/64" = 1'-0"
140
0.015625
141
12.0
290
     0
  0
SCALE
  5
5B
102
{ACAD_REACTORS
330
47
102
}
330
47
100
AcDbScale
 70
     0
300
1/32" = 1'-0"
140
0.03125
141
12.0
290
     0
  0
SCALE
  5
5C
102
{ACAD_REACTORS
330
47
102
}
330
47
100
AcDbScale
 70
     0
300
1/16" = 1'-0"
140
0.0625
141
12.0
290
     0
  0
SCALE
  5
5D
102
{ACAD_REACTORS
330
47
102
}
330
47
100
AcDbScale
 70
     0
300
3/32" = 1'-0"
140
0.09375
141
12.0
290
     0
  0
SCALE
  5
5E
102
{ACAD_REACTORS
330
47
102
}
330
47
100
AcDbScale
 70
     0
300
1/8" = 1'-0"
140
0.125
141
12.0
290
     0
  0
SCALE
  5
5F
102
{ACAD_REACTORS
330
47
102
}
330
47
100
AcDbScale
 70
     0
300
3/16" = 1'-0"
140
0.1875
141
12.0
290
     0
  0
SCALE
  5
60
102
{ACAD_REACTORS
330
47
102
}
330
47
100
AcDbScale
 70
     0
300
1/4" = 1'-0"
140
0.25
141
12.0
290
     0
  0
SCALE
  5
61
102
{ACAD_REACTORS
330
47
102
}
330
47
100
AcDbScale
 70
     0
300
3/8" = 1'-0"
140
0.375
141
12.0
290
     0
  0
SCALE
  5
62
102
{ACAD_REACTORS
330
47
102
}
330
47
100
AcDbScale
 70
     0
300
1/2" = 1'-0"
140
0.5
141
12.0
290
     0
  0
SCALE
  5
63
102
{ACAD_REACTORS
330
47
102
}
330
47
100
AcDbScale
 70
     0
300
3/4" = 1'-0"
140
0.75
141
12.0
290
     0
  0
SCALE
  5
64
102
{ACAD_REACTORS
330
47
102
}
330
47
100
AcDbScale
 70
     0
300
1" = 1'-0"
140
1.0
141
12.0
290
     0
  0
SCALE
  5
65
102
{ACAD_REACTORS
330
47
102
}
330
47
100
AcDbScale
 70
     0
300
1-1/2" = 1'-0"
140
1.5
141
12.0
290
     0
  0
SCALE
  5
66
102
{ACAD_REACTORS
330
47
102
}
330
47
100
AcDbScale
 70
     0
300
3" = 1'-0"
140
3.0
141
12.0
290
     0
  0
SCALE
  5
67
102
{ACAD_REACTORS
330
47
102
}
330
47
100
AcDbScale
 70
     0
300
6" = 1'-0"
140
6.0
141
12.0
290
     0
  0
SCALE
  5
68
102
{ACAD_REACTORS
330
47
102
}
330
47
100
AcDbScale
 70
     0
300
1'-0" = 1'-0"
140
12.0
141
12.0
290
     0
  0
ENDSEC
  0
EOF
