  0
SECTION
  2
HEADER
  9
$ACADVER
  1
AC1015
  9
$ACADMAINTVER
 70
     6
  9
$DWGCODEPAGE
  3
ANSI_1250
  9
$INSBASE
 10
0.0
 20
0.0
 30
0.0
  9
$EXTMIN
 10
0.0
 20
0.0
 30
0.0
  9
$EXTMAX
 10
297.0
 20
210.0
 30
0.0
  9
$LIMMIN
 10
0.0
 20
0.0
  9
$LIMMAX
 10
297.0
 20
210.0
  9
$ORTHOMODE
 70
     0
  9
$REGENMODE
 70
     1
  9
$FILLMODE
 70
     1
  9
$QTEXTMODE
 70
     0
  9
$MIRRTEXT
 70
     1
  9
$LTSCALE
 40
1.0
  9
$ATTMODE
 70
     1
  9
$TEXTSIZE
 40
3.5277777778
  9
$TRACEWID
 40
1.0
  9
$TEXTSTYLE
  7
Standard
  9
$CLAYER
  8
0
  9
$CELTYPE
  6
ByLayer
  9
$CECOLOR
 62
   256
  9
$CELTSCALE
 40
1.0
  9
$DISPSILH
 70
     0
  9
$DIMSCALE
 40
1.0
  9
$DIMASZ
 40
2.0
  9
$DIMEXO
 40
1.0
  9
$DIMDLI
 40
3.75
  9
$DIMRND
 40
0.0
  9
$DIMDLE
 40
0.0
  9
$DIMEXE
 40
1.0
  9
$DIMTP
 40
0.0
  9
$DIMTM
 40
0.0
  9
$DIMTXT
 40
3.5277777778
  9
$DIMCEN
 40
2.5
  9
$DIMTSZ
 40
0.0
  9
$DIMTOL
 70
     0
  9
$DIMLIM
 70
     0
  9
$DIMTIH
 70
     1
  9
$DIMTOH
 70
     1
  9
$DIMSE1
 70
     0
  9
$DIMSE2
 70
     0
  9
$DIMTAD
 70
     1
  9
$DIMZIN
 70
     1
  9
$DIMBLK
  1

  9
$DIMASO
 70
     1
  9
$DIMSHO
 70
     1
  9
$DIMPOST
  1

  9
$DIMAPOST
  1

  9
$DIMALT
 70
     0
  9
$DIMALTD
 70
     3
  9
$DIMALTF
 40
0.0393700787
  9
$DIMLFAC
 40
1.0
  9
$DIMTOFL
 70
     1
  9
$DIMTVP
 40
0.0
  9
$DIMTIX
 70
     0
  9
$DIMSOXD
 70
     0
  9
$DIMSAH
 70
     0
  9
$DIMBLK1
  1

  9
$DIMBLK2
  1

  9
$DIMSTYLE
  2
ISO-25
  9
$DIMCLRD
 70
     0
  9
$DIMCLRE
 70
     0
  9
$DIMCLRT
 70
     0
  9
$DIMTFAC
 40
1.0
  9
$DIMGAP
 40
1.524
  9
$DIMJUST
 70
     0
  9
$DIMSD1
 70
     0
  9
$DIMSD2
 70
     0
  9
$DIMTOLJ
 70
     0
  9
$DIMTZIN
 70
     1
  9
$DIMALTZ
 70
     0
  9
$DIMALTTZ
 70
     0
  9
$DIMUPT
 70
     0
  9
$DIMDEC
 70
     0
  9
$DIMTDEC
 70
     0
  9
$DIMALTU
 70
     2
  9
$DIMALTTD
 70
     3
  9
$DIMTXSTY
  7
Standard
  9
$DIMAUNIT
 70
     0
  9
$DIMADEC
 70
     1
  9
$DIMALTRND
 40
0.0
  9
$DIMAZIN
 70
     0
  9
$DIMDSEP
 70
    44
  9
$DIMATFIT
 70
     3
  9
$DIMFRAC
 70
     0
  9
$DIMLDRBLK
  1

  9
$DIMLUNIT
 70
     2
  9
$DIMLWD
 70
    -2
  9
$DIMLWE
 70
    -2
  9
$DIMTMOVE
 70
     0
  9
$LUNITS
 70
     2
  9
$LUPREC
 70
     1
  9
$SKETCHINC
 40
1.0
  9
$FILLETRAD
 40
0.0
  9
$AUNITS
 70
     0
  9
$AUPREC
 70
     1
  9
$MENU
  1
.
  9
$ELEVATION
 40
0.0
  9
$PELEVATION
 40
0.0
  9
$THICKNESS
 40
0.0
  9
$LIMCHECK
 70
     0
  9
$CHAMFERA
 40
0.0
  9
$CHAMFERB
 40
0.0
  9
$CHAMFERC
 40
0.0
  9
$CHAMFERD
 40
0.0
  9
$SKPOLY
 70
     0
  9
$TDCREATE
 40
2460034.558566134
  9
$TDUCREATE
 40
2460034.475232801
  9
$TDUPDATE
 40
2460034.558566759
  9
$TDUUPDATE
 40
2460034.475233426
  9
$TDINDWG
 40
0.0000000116
  9
$TDUSRTIMER
 40
0.0000000116
  9
$USRTIMER
 70
     1
  9
$ANGBASE
 50
0.0
  9
$ANGDIR
 70
     0
  9
$PDMODE
 70
     0
  9
$PDSIZE
 40
-1.0
  9
$PLINEWID
 40
0.0
  9
$SPLFRAME
 70
     0
  9
$SPLINETYPE
 70
     6
  9
$SPLINESEGS
 70
     8
  9
$HANDSEED
  5
49F
  9
$SURFTAB1
 70
     6
  9
$SURFTAB2
 70
     6
  9
$SURFTYPE
 70
     6
  9
$SURFU
 70
     6
  9
$SURFV
 70
     6
  9
$UCSBASE
  2

  9
$UCSNAME
  2

  9
$UCSORG
 10
0.0
 20
0.0
 30
0.0
  9
$UCSXDIR
 10
1.0
 20
0.0
 30
0.0
  9
$UCSYDIR
 10
0.0
 20
1.0
 30
0.0
  9
$UCSORTHOREF
  2

  9
$UCSORTHOVIEW
 70
     0
  9
$UCSORGTOP
 10
0.0
 20
0.0
 30
0.0
  9
$UCSORGBOTTOM
 10
0.0
 20
0.0
 30
0.0
  9
$UCSORGLEFT
 10
0.0
 20
0.0
 30
0.0
  9
$UCSORGRIGHT
 10
0.0
 20
0.0
 30
0.0
  9
$UCSORGFRONT
 10
0.0
 20
0.0
 30
0.0
  9
$UCSORGBACK
 10
0.0
 20
0.0
 30
0.0
  9
$PUCSBASE
  2

  9
$PUCSNAME
  2

  9
$PUCSORG
 10
0.0
 20
0.0
 30
0.0
  9
$PUCSXDIR
 10
1.0
 20
0.0
 30
0.0
  9
$PUCSYDIR
 10
0.0
 20
1.0
 30
0.0
  9
$PUCSORTHOREF
  2

  9
$PUCSORTHOVIEW
 70
     0
  9
$PUCSORGTOP
 10
0.0
 20
0.0
 30
0.0
  9
$PUCSORGBOTTOM
 10
0.0
 20
0.0
 30
0.0
  9
$PUCSORGLEFT
 10
0.0
 20
0.0
 30
0.0
  9
$PUCSORGRIGHT
 10
0.0
 20
0.0
 30
0.0
  9
$PUCSORGFRONT
 10
0.0
 20
0.0
 30
0.0
  9
$PUCSORGBACK
 10
0.0
 20
0.0
 30
0.0
  9
$USERI1
 70
     0
  9
$USERI2
 70
     0
  9
$USERI3
 70
     0
  9
$USERI4
 70
     0
  9
$USERI5
 70
     0
  9
$USERR1
 40
0.0
  9
$USERR2
 40
0.0
  9
$USERR3
 40
0.0
  9
$USERR4
 40
0.0
  9
$USERR5
 40
0.0
  9
$WORLDVIEW
 70
     1
  9
$SHADEDGE
 70
     3
  9
$SHADEDIF
 70
    70
  9
$TILEMODE
 70
     1
  9
$MAXACTVP
 70
    64
  9
$PINSBASE
 10
0.0
 20
0.0
 30
0.0
  9
$PLIMCHECK
 70
     0
  9
$PEXTMIN
 10
1.0000000000E+20
 20
1.0000000000E+20
 30
1.0000000000E+20
  9
$PEXTMAX
 10
-1.0000000000E+20
 20
-1.0000000000E+20
 30
-1.0000000000E+20
  9
$PLIMMIN
 10
0.0
 20
0.0
  9
$PLIMMAX
 10
420.0
 20
297.0
  9
$UNITMODE
 70
     0
  9
$VISRETAIN
 70
     1
  9
$PLINEGEN
 70
     0
  9
$PSLTSCALE
 70
     1
  9
$TREEDEPTH
 70
  3020
  9
$CMLSTYLE
  2
Standard
  9
$CMLJUST
 70
     0
  9
$CMLSCALE
 40
20.0
  9
$PROXYGRAPHICS
 70
     1
  9
$MEASUREMENT
 70
     1
  9
$CELWEIGHT
370
    -1
  9
$ENDCAPS
280
     0
  9
$JOINSTYLE
280
     0
  9
$LWDISPLAY
290
     1
  9
$INSUNITS
 70
     4
  9
$HYPERLINKBASE
  1

  9
$STYLESHEET
  1

  9
$XEDIT
290
     1
  9
$CEPSNTYPE
380
     0
  9
$PSTYLEMODE
290
     1
  9
$FINGERPRINTGUID
  2
{155a84c8-bc66-478a-82fa-1cd8b388491d}
  9
$VERSIONGUID
  2
{FAEB1C32-E019-11D5-929B-00C0DF256EC4}
  9
$EXTNAMES
290
     1
  9
$PSVPSCALE
 40
0.0
  9
$OLESTARTUP
290
     0
  0
ENDSEC
  0
SECTION
  2
CLASSES
  0
CLASS
  1
ACDBDICTIONARYWDFLT
  2
AcDbDictionaryWithDefault
  3
ObjectDBX Classes
 90
        0
280
     0
281
     0
  0
CLASS
  1
VISUALSTYLE
  2
AcDbVisualStyle
  3
ObjectDBX Classes
 90
     4095
280
     0
281
     0
  0
CLASS
  1
MATERIAL
  2
AcDbMaterial
  3
ObjectDBX Classes
 90
     1153
280
     0
281
     0
  0
CLASS
  1
SCALE
  2
AcDbScale
  3
ObjectDBX Classes
 90
     1153
280
     0
281
     0
  0
CLASS
  1
TABLESTYLE
  2
AcDbTableStyle
  3
ObjectDBX Classes
 90
     4095
280
     0
281
     0
  0
CLASS
  1
MLEADERSTYLE
  2
AcDbMLeaderStyle
  3
ACDB_MLEADERSTYLE_CLASS
 90
     4095
280
     0
281
     0
  0
CLASS
  1
SUN
  2
AcDbSun
  3
SCENEOE
 90
     1153
280
     0
281
     0
  0
CLASS
  1
ACDBPLACEHOLDER
  2
AcDbPlaceHolder
  3
ObjectDBX Classes
 90
        0
280
     0
281
     0
  0
CLASS
  1
LAYOUT
  2
AcDbLayout
  3
ObjectDBX Classes
 90
        0
280
     0
281
     0
  0
ENDSEC
  0
SECTION
  2
TABLES
  0
TABLE
  2
VPORT
  5
8
330
0
100
AcDbSymbolTable
 70
     1
  0
VPORT
  5
29
330
8
100
AcDbSymbolTableRecord
100
AcDbViewportTableRecord
  2
*Active
 70
     0
 10
0.0
 20
0.0
 11
1.0
 21
1.0
 12
148.5
 22
105.0
 13
0.0
 23
0.0
 14
10.0
 24
10.0
 15
10.0
 25
10.0
 16
0.0
 26
0.0
 36
1.0
 17
0.0
 27
0.0
 37
0.0
 40
210.0
 41
1.4142857143
 42
50.0
 43
0.0
 44
0.0
 50
0.0
 51
0.0
 71
     0
 72
  2000
 73
     1
 74
     3
 75
     0
 76
     0
 77
     0
 78
     0
281
     0
 65
     1
110
0.0
120
0.0
130
0.0
111
1.0
121
0.0
131
0.0
112
0.0
122
1.0
132
0.0
 79
     0
146
0.0
  0
ENDTAB
  0
TABLE
  2
LTYPE
  5
5
330
0
100
AcDbSymbolTable
 70
     6
  0
LTYPE
  5
14
330
5
100
AcDbSymbolTableRecord
100
AcDbLinetypeTableRecord
  2
ByBlock
 70
     0
  3

 72
    65
 73
     0
 40
0.0
  0
LTYPE
  5
15
330
5
100
AcDbSymbolTableRecord
100
AcDbLinetypeTableRecord
  2
ByLayer
 70
     0
  3

 72
    65
 73
     0
 40
0.0
  0
LTYPE
  5
16
330
5
100
AcDbSymbolTableRecord
100
AcDbLinetypeTableRecord
  2
Continuous
 70
     0
  3
Solid line
 72
    65
 73
     0
 40
0.0
  0
LTYPE
  5
5E
330
5
100
AcDbSymbolTableRecord
100
AcDbLinetypeTableRecord
  2
HIDDEN
 70
     0
  3
Hidden __ __ __ __ __ __ __ __ __ __ __ __ __ __
 72
    65
 73
     2
 40
1.905
 49
1.27
 74
     0
 49
-0.635
 74
     0
  0
LTYPE
  5
5F
330
5
100
AcDbSymbolTableRecord
100
AcDbLinetypeTableRecord
  2
PHANTOM
 70
     0
  3
Phantom ______  __  __  ______  __  __  ______
 72
    65
 73
     6
 40
12.7
 49
6.35
 74
     0
 49
-1.27
 74
     0
 49
1.27
 74
     0
 49
-1.27
 74
     0
 49
1.27
 74
     0
 49
-1.27
 74
     0
  0
LTYPE
  5
60
330
5
100
AcDbSymbolTableRecord
100
AcDbLinetypeTableRecord
  2
CENTER
 70
     0
  3
Center ____ _ ____ _ ____ _ ____ _ ____ _ ____
 72
    65
 73
     4
 40
10.16
 49
6.35
 74
     0
 49
-1.27
 74
     0
 49
1.27
 74
     0
 49
-1.27
 74
     0
  0
LTYPE
  5
61
330
5
100
AcDbSymbolTableRecord
100
AcDbLinetypeTableRecord
  2
CENTERX2
 70
     0
  3
Center (2x) ________  __  ________  __  _____
 72
    65
 73
     4
 40
20.32
 49
12.7
 74
     0
 49
-2.54
 74
     0
 49
2.54
 74
     0
 49
-2.54
 74
     0
  0
LTYPE
  5
62
330
5
100
AcDbSymbolTableRecord
100
AcDbLinetypeTableRecord
  2
DOT2
 70
     0
  3
Dot (.5x) ........................................
 72
    65
 73
     2
 40
0.635
 49
0.0
 74
     0
 49
-0.635
 74
     0
  0
ENDTAB
  0
TABLE
  2
LAYER
  5
2
330
0
100
AcDbSymbolTable
 70
     4
  0
LAYER
  5
10
330
2
100
AcDbSymbolTableRecord
100
AcDbLayerTableRecord
  2
0
 70
     0
 62
     7
  6
Continuous
370
    -3
390
F
  0
LAYER
  5
63
330
2
100
AcDbSymbolTableRecord
100
AcDbLayerTableRecord
  2
FRAME_&_TABLE
 70
     0
 62
     8
  6
Continuous
370
    50
390
F
  0
LAYER
  5
64
330
2
100
AcDbSymbolTableRecord
100
AcDbLayerTableRecord
  2
DIMENSIONS
 70
     0
 62
     7
  6
Continuous
370
    -3
390
F
  0
LAYER
  5
65
330
2
100
AcDbSymbolTableRecord
100
AcDbLayerTableRecord
  2
FORMAT
 70
     0
 62
     7
  6
Continuous
370
    -3
390
F
  0
ENDTAB
  0
TABLE
  2
STYLE
  5
3
330
0
100
AcDbSymbolTable
 70
     1
  0
STYLE
  5
11
330
3
100
AcDbSymbolTableRecord
100
AcDbTextStyleTableRecord
  2
Standard
 70
     0
 40
0.0
 41
1.0
 50
0.0
 71
     0
 42
3.5277777778
  3
txt
  4

  0
ENDTAB
  0
TABLE
  2
VIEW
  5
6
330
0
100
AcDbSymbolTable
 70
     0
  0
ENDTAB
  0
TABLE
  2
UCS
  5
7
330
0
100
AcDbSymbolTable
 70
     0
  0
ENDTAB
  0
TABLE
  2
APPID
  5
9
330
0
100
AcDbSymbolTable
 70
     1
  0
APPID
  5
12
330
9
100
AcDbSymbolTableRecord
100
AcDbRegAppTableRecord
  2
ACAD
 70
     0
  0
ENDTAB
  0
TABLE
  2
DIMSTYLE
  5
A
330
0
100
AcDbSymbolTable
 70
     1
100
AcDbDimStyleTable
  0
DIMSTYLE
105
27
330
A
100
AcDbSymbolTableRecord
100
AcDbDimStyleTableRecord
  2
ISO-25
 70
     0
 41
2.5
 42
0.625
 43
3.75
 44
1.25
 73
     0
 74
     0
 77
     1
 78
     8
140
2.5
141
2.5
143
0.0393700787
147
0.625
171
     3
172
     1
178
     0
271
     2
272
     2
274
     3
278
    44
283
     0
284
     8
340
11
  0
ENDTAB
  0
TABLE
  2
BLOCK_RECORD
  5
1
330
0
100
AcDbSymbolTable
 70
     1
  0
BLOCK_RECORD
  5
1F
330
1
100
AcDbSymbolTableRecord
100
AcDbBlockTableRecord
  2
*Model_Space
340
22
  0
BLOCK_RECORD
  5
1B
330
1
100
AcDbSymbolTableRecord
100
AcDbBlockTableRecord
  2
*Paper_Space
340
1E
  0
BLOCK_RECORD
  5
23
330
1
100
AcDbSymbolTableRecord
100
AcDbBlockTableRecord
  2
*Paper_Space0
340
26
  0
ENDTAB
  0
ENDSEC
  0
SECTION
  2
BLOCKS
  0
BLOCK
  5
20
330
1F
100
AcDbEntity
  8
0
100
AcDbBlockBegin
  2
*Model_Space
 70
     0
 10
0.0
 20
0.0
 30
0.0
  3
*Model_Space
  1

  0
ENDBLK
  5
21
330
1F
100
AcDbEntity
  8
0
100
AcDbBlockEnd
  0
BLOCK
  5
1C
330
1B
100
AcDbEntity
 67
     1
  8
0
100
AcDbBlockBegin
  2
*Paper_Space
 70
     0
 10
0.0
 20
0.0
 30
0.0
  3
*Paper_Space
  1

  0
ENDBLK
  5
1D
330
1B
100
AcDbEntity
 67
     1
  8
0
100
AcDbBlockEnd
  0
BLOCK
  5
24
330
23
100
AcDbEntity
  8
0
100
AcDbBlockBegin
  2
*Paper_Space0
 70
     0
 10
0.0
 20
0.0
 30
0.0
  3
*Paper_Space0
  1

  0
ENDBLK
  5
25
330
23
100
AcDbEntity
  8
0
100
AcDbBlockEnd
  0
ENDSEC
  0
SECTION
  2
ENTITIES
  0
ARC
  5
66
330
1F
100
AcDbEntity
  8
0
  6
Continuous
 62
     7
370
    25
100
AcDbCircle
 10
661.1901818182
 20
-545.1352727273
 30
0.0
 40
1.100000000000023
100
AcDbArc
 50
126.4341903956
 51
270.0
  0
ARC
  5
67
330
1F
100
AcDbEntity
  8
0
  6
Continuous
 62
     7
370
    25
100
AcDbCircle
 10
676.9901818182
 20
-545.1352727273
 30
0.0
 40
1.100000000000023
100
AcDbArc
 50
270.0
 51
53.5658096044
  0
ARC
  5
68
330
1F
100
AcDbEntity
  8
0
  6
Continuous
 62
     7
370
    25
100
AcDbCircle
 10
669.0901818182
 20
-555.8371958042
 30
0.0
 40
14.40192307692313
100
AcDbArc
 50
53.5658096044
 51
126.4341903956
  0
ARC
  5
69
330
1F
100
AcDbEntity
  8
0
  6
Continuous
 62
     7
370
    25
100
AcDbCircle
 10
291.1901818182
 20
-545.1352727273
 30
0.0
 40
1.100000000000106
100
AcDbArc
 50
126.4341903956
 51
270.0
  0
ARC
  5
6A
330
1F
100
AcDbEntity
  8
0
  6
Continuous
 62
     7
370
    25
100
AcDbCircle
 10
306.9901818182
 20
-545.1352727273
 30
0.0
 40
1.100000000000106
100
AcDbArc
 50
270.0
 51
53.5658096044
  0
ARC
  5
6B
330
1F
100
AcDbEntity
  8
0
  6
Continuous
 62
     7
370
    25
100
AcDbCircle
 10
299.0901818182
 20
-555.8371958042
 30
0.0
 40
14.40192307692322
100
AcDbArc
 50
53.5658096044
 51
126.4341903956
  0
ARC
  5
6C
330
1F
100
AcDbEntity
  8
0
  6
Continuous
 62
     7
370
    25
100
AcDbCircle
 10
306.9901818182
 20
762.6647272727
 30
0.0
 40
1.100000000000023
100
AcDbArc
 50
306.4341903956
 51
90.0
  0
ARC
  5
6D
330
1F
100
AcDbEntity
  8
0
  6
Continuous
 62
     7
370
    25
100
AcDbCircle
 10
291.1901818182
 20
762.6647272727
 30
0.0
 40
1.100000000000023
100
AcDbArc
 50
90.0
 51
233.5658096044
  0
ARC
  5
6E
330
1F
100
AcDbEntity
  8
0
  6
Continuous
 62
     7
370
    25
100
AcDbCircle
 10
299.0901818182
 20
773.3666503497
 30
0.0
 40
14.40192307692313
100
AcDbArc
 50
233.5658096044
 51
306.4341903957
  0
ARC
  5
6F
330
1F
100
AcDbEntity
  8
0
  6
Continuous
 62
     7
370
    25
100
AcDbCircle
 10
-1204.0098181818
 20
800.8647272727
 30
0.0
 40
1.099999999999909
100
AcDbArc
 50
216.4341903957
 51
0.0
  0
ARC
  5
70
330
1F
100
AcDbEntity
  8
0
  6
Continuous
 62
     7
370
    25
100
AcDbCircle
 10
-1204.0098181818
 20
816.6647272727
 30
0.0
 40
1.099999999999909
100
AcDbArc
 50
0.0
 51
143.5658096044
  0
ARC
  5
71
330
1F
100
AcDbEntity
  8
0
  6
Continuous
 62
     7
370
    25
100
AcDbCircle
 10
-1193.3078951049
 20
808.7647272727
 30
0.0
 40
14.40192307692322
100
AcDbArc
 50
143.5658096044
 51
216.4341903956
  0
ARC
  5
72
330
1F
100
AcDbEntity
  8
0
  6
Continuous
 62
     7
370
    25
100
AcDbCircle
 10
972.1901818182
 20
816.6647272727
 30
0.0
 40
1.100000000000072
100
AcDbArc
 50
36.4341903956
 51
180.0
  0
ARC
  5
73
330
1F
100
AcDbEntity
  8
0
  6
Continuous
 62
     7
370
    25
100
AcDbCircle
 10
972.1901818182
 20
800.8647272727
 30
0.0
 40
1.100000000000072
100
AcDbArc
 50
180.0
 51
323.5658096044
  0
ARC
  5
74
330
1F
100
AcDbEntity
  8
0
  6
Continuous
 62
     7
370
    25
100
AcDbCircle
 10
961.4882587412
 20
808.7647272727
 30
0.0
 40
14.40192307692322
100
AcDbArc
 50
323.5658096044
 51
36.4341903956
  0
ARC
  5
75
330
1F
100
AcDbEntity
  8
0
  6
Continuous
 62
     7
370
    25
100
AcDbCircle
 10
-2511.8098181818
 20
116.6647272727
 30
0.0
 40
1.100000000000364
100
AcDbArc
 50
36.4341903957
 51
180.0
  0
ARC
  5
76
330
1F
100
AcDbEntity
  8
0
  6
Continuous
 62
     7
370
    25
100
AcDbCircle
 10
-2511.8098181818
 20
100.8647272727
 30
0.0
 40
1.100000000000364
100
AcDbArc
 50
180.0
 51
323.5658096043
  0
ARC
  5
77
330
1F
100
AcDbEntity
  8
0
  6
Continuous
 62
     7
370
    25
100
AcDbCircle
 10
-2522.5117412587
 20
108.7647272727
 30
0.0
 40
14.40192307692339
100
AcDbArc
 50
323.5658096044
 51
36.4341903956
  0
ARC
  5
78
330
1F
100
AcDbEntity
  8
0
  6
Continuous
 62
     7
370
    25
100
AcDbCircle
 10
676.9901818182
 20
762.6647272727
 30
0.0
 40
1.100000000000072
100
AcDbArc
 50
306.4341903956
 51
90.0
  0
ARC
  5
79
330
1F
100
AcDbEntity
  8
0
  6
Continuous
 62
     7
370
    25
100
AcDbCircle
 10
661.1901818182
 20
762.6647272727
 30
0.0
 40
1.100000000000072
100
AcDbArc
 50
90.0
 51
233.5658096044
  0
ARC
  5
7A
330
1F
100
AcDbEntity
  8
0
  6
Continuous
 62
     7
370
    25
100
AcDbCircle
 10
669.0901818182
 20
773.3666503497
 30
0.0
 40
14.40192307692322
100
AcDbArc
 50
233.5658096044
 51
306.4341903956
  0
ARC
  5
7B
330
1F
100
AcDbEntity
  8
0
  6
Continuous
 62
     7
370
    25
100
AcDbCircle
 10
-1204.0098181818
 20
100.8647272727
 30
0.0
 40
1.100000000000136
100
AcDbArc
 50
216.4341903957
 51
0.0
  0
ARC
  5
7C
330
1F
100
AcDbEntity
  8
0
  6
Continuous
 62
     7
370
    25
100
AcDbCircle
 10
-1204.0098181818
 20
116.6647272727
 30
0.0
 40
1.100000000000136
100
AcDbArc
 50
0.0
 51
143.5658096043
  0
ARC
  5
7D
330
1F
100
AcDbEntity
  8
0
  6
Continuous
 62
     7
370
    25
100
AcDbCircle
 10
-1193.3078951049
 20
108.7647272727
 30
0.0
 40
14.40192307692322
100
AcDbArc
 50
143.5658096044
 51
216.4341903957
  0
ARC
  5
7E
330
1F
100
AcDbEntity
  8
0
  6
Continuous
 62
     7
370
    25
100
AcDbCircle
 10
-2511.8098181818
 20
816.6647272727
 30
0.0
 40
1.100000000000364
100
AcDbArc
 50
36.4341903957
 51
180.0
  0
ARC
  5
7F
330
1F
100
AcDbEntity
  8
0
  6
Continuous
 62
     7
370
    25
100
AcDbCircle
 10
-2511.8098181818
 20
800.8647272727
 30
0.0
 40
1.100000000000364
100
AcDbArc
 50
180.0
 51
323.5658096043
  0
ARC
  5
80
330
1F
100
AcDbEntity
  8
0
  6
Continuous
 62
     7
370
    25
100
AcDbCircle
 10
-2522.5117412587
 20
808.7647272727
 30
0.0
 40
14.4019230769234
100
AcDbArc
 50
323.5658096044
 51
36.4341903956
  0
ARC
  5
81
330
1F
100
AcDbEntity
  8
0
  6
Continuous
 62
     7
370
    25
100
AcDbCircle
 10
-293.0098181818
 20
762.6647272727
 30
0.0
 40
1.100000000000023
100
AcDbArc
 50
306.4341903956
 51
90.0
  0
ARC
  5
82
330
1F
100
AcDbEntity
  8
0
  6
Continuous
 62
     7
370
    25
100
AcDbCircle
 10
-308.8098181818
 20
762.6647272727
 30
0.0
 40
1.100000000000023
100
AcDbArc
 50
90.0
 51
233.5658096044
  0
ARC
  5
83
330
1F
100
AcDbEntity
  8
0
  6
Continuous
 62
     7
370
    25
100
AcDbCircle
 10
-300.9098181818
 20
773.3666503497
 30
0.0
 40
14.40192307692313
100
AcDbArc
 50
233.5658096044
 51
306.4341903957
  0
ARC
  5
84
330
1F
100
AcDbEntity
  8
0
  6
Continuous
 62
     7
370
    25
100
AcDbCircle
 10
972.1901818182
 20
-583.3352727272
 30
0.0
 40
1.100000000000049
100
AcDbArc
 50
36.4341903957
 51
180.0
  0
ARC
  5
85
330
1F
100
AcDbEntity
  8
0
  6
Continuous
 62
     7
370
    25
100
AcDbCircle
 10
972.1901818182
 20
-599.1352727272
 30
0.0
 40
1.100000000000136
100
AcDbArc
 50
180.0
 51
323.5658096043
  0
ARC
  5
86
330
1F
100
AcDbEntity
  8
0
  6
Continuous
 62
     7
370
    25
100
AcDbCircle
 10
961.4882587413
 20
-591.2352727272
 30
0.0
 40
14.40192307692313
100
AcDbArc
 50
323.5658096044
 51
36.4341903956
  0
ARC
  5
87
330
1F
100
AcDbEntity
  8
0
  6
Continuous
 62
     7
370
    25
100
AcDbCircle
 10
2279.9901818182
 20
-599.1352727272
 30
0.0
 40
1.099999999999909
100
AcDbArc
 50
216.4341903957
 51
0.0
  0
ARC
  5
88
330
1F
100
AcDbEntity
  8
0
  6
Continuous
 62
     7
370
    25
100
AcDbCircle
 10
2279.9901818182
 20
-583.3352727272
 30
0.0
 40
1.099999999999909
100
AcDbArc
 50
0.0
 51
143.5658096043
  0
ARC
  5
89
330
1F
100
AcDbEntity
  8
0
  6
Continuous
 62
     7
370
    25
100
AcDbCircle
 10
2290.6921048951
 20
-591.2352727272
 30
0.0
 40
14.40192307692304
100
AcDbArc
 50
143.5658096044
 51
216.4341903957
  0
ARC
  5
8A
330
1F
100
AcDbEntity
  8
0
  6
Continuous
 62
     7
370
    25
100
AcDbCircle
 10
2279.9901818182
 20
800.8647272727
 30
0.0
 40
1.100000000000364
100
AcDbArc
 50
216.4341903956
 51
0.0
  0
ARC
  5
8B
330
1F
100
AcDbEntity
  8
0
  6
Continuous
 62
     7
370
    25
100
AcDbCircle
 10
2279.9901818182
 20
816.6647272727
 30
0.0
 40
1.100000000000364
100
AcDbArc
 50
0.0
 51
143.5658096044
  0
ARC
  5
8C
330
1F
100
AcDbEntity
  8
0
  6
Continuous
 62
     7
370
    25
100
AcDbCircle
 10
2290.6921048951
 20
808.7647272727
 30
0.0
 40
14.40192307692304
100
AcDbArc
 50
143.5658096044
 51
216.4341903957
  0
ARC
  5
8D
330
1F
100
AcDbEntity
  8
0
  6
Continuous
 62
     7
370
    25
100
AcDbCircle
 10
-1165.8098181818
 20
154.8647272727
 30
0.0
 40
1.100000000000161
100
AcDbArc
 50
126.4341903957
 51
270.0
  0
ARC
  5
8E
330
1F
100
AcDbEntity
  8
0
  6
Continuous
 62
     7
370
    25
100
AcDbCircle
 10
-1150.0098181818
 20
154.8647272727
 30
0.0
 40
1.100000000000161
100
AcDbArc
 50
270.0
 51
53.5658096043
  0
ARC
  5
8F
330
1F
100
AcDbEntity
  8
0
  6
Continuous
 62
     7
370
    25
100
AcDbCircle
 10
-1157.9098181818
 20
144.1628041958
 30
0.0
 40
14.40192307692319
100
AcDbArc
 50
53.5658096043
 51
126.4341903956
  0
ARC
  5
90
330
1F
100
AcDbEntity
  8
0
  6
Continuous
 62
     7
370
    25
100
AcDbCircle
 10
-538.8098181818
 20
-545.1352727273
 30
0.0
 40
1.100000000000049
100
AcDbArc
 50
126.4341903957
 51
270.0
  0
ARC
  5
91
330
1F
100
AcDbEntity
  8
0
  6
Continuous
 62
     7
370
    25
100
AcDbCircle
 10
-523.0098181818
 20
-545.1352727273
 30
0.0
 40
1.100000000000049
100
AcDbArc
 50
270.0
 51
53.5658096043
  0
ARC
  5
92
330
1F
100
AcDbEntity
  8
0
  6
Continuous
 62
     7
370
    25
100
AcDbCircle
 10
-530.9098181818
 20
-555.8371958042
 30
0.0
 40
14.40192307692313
100
AcDbArc
 50
53.5658096044
 51
126.4341903956
  0
ARC
  5
93
330
1F
100
AcDbEntity
  8
0
  6
Continuous
 62
     7
370
    25
100
AcDbCircle
 10
76.9901818182
 20
762.6647272727
 30
0.0
 40
1.100000000000106
100
AcDbArc
 50
306.4341903956
 51
90.0
  0
ARC
  5
94
330
1F
100
AcDbEntity
  8
0
  6
Continuous
 62
     7
370
    25
100
AcDbCircle
 10
61.1901818182
 20
762.6647272727
 30
0.0
 40
1.100000000000106
100
AcDbArc
 50
90.0
 51
233.5658096044
  0
ARC
  5
95
330
1F
100
AcDbEntity
  8
0
  6
Continuous
 62
     7
370
    25
100
AcDbCircle
 10
69.0901818182
 20
773.3666503497
 30
0.0
 40
14.40192307692321
100
AcDbArc
 50
233.5658096044
 51
306.4341903957
  0
ARC
  5
96
330
1F
100
AcDbEntity
  8
0
  6
Continuous
 62
     7
370
    25
100
AcDbCircle
 10
-308.8098181818
 20
-545.1352727273
 30
0.0
 40
1.100000000000106
100
AcDbArc
 50
126.4341903956
 51
270.0
  0
ARC
  5
97
330
1F
100
AcDbEntity
  8
0
  6
Continuous
 62
     7
370
    25
100
AcDbCircle
 10
-293.0098181818
 20
-545.1352727273
 30
0.0
 40
1.100000000000106
100
AcDbArc
 50
270.0
 51
53.5658096044
  0
ARC
  5
98
330
1F
100
AcDbEntity
  8
0
  6
Continuous
 62
     7
370
    25
100
AcDbCircle
 10
-300.9098181818
 20
-555.8371958042
 30
0.0
 40
14.40192307692313
100
AcDbArc
 50
53.5658096044
 51
126.4341903956
  0
ARC
  5
99
330
1F
100
AcDbEntity
  8
0
  6
Continuous
 62
     7
370
    25
100
AcDbCircle
 10
61.1901818182
 20
-545.1352727273
 30
0.0
 40
1.100000000000023
100
AcDbArc
 50
126.4341903956
 51
270.0
  0
ARC
  5
9A
330
1F
100
AcDbEntity
  8
0
  6
Continuous
 62
     7
370
    25
100
AcDbCircle
 10
76.9901818182
 20
-545.1352727273
 30
0.0
 40
1.100000000000023
100
AcDbArc
 50
270.0
 51
53.5658096044
  0
ARC
  5
9B
330
1F
100
AcDbEntity
  8
0
  6
Continuous
 62
     7
370
    25
100
AcDbCircle
 10
69.0901818182
 20
-555.8371958042
 30
0.0
 40
14.40192307692312
100
AcDbArc
 50
53.5658096044
 51
126.4341903956
  0
ARC
  5
9C
330
1F
100
AcDbEntity
  8
0
  6
Continuous
 62
     7
370
    25
100
AcDbCircle
 10
-908.8098181818
 20
-545.1352727273
 30
0.0
 40
1.100000000000072
100
AcDbArc
 50
126.4341903956
 51
270.0
  0
ARC
  5
9D
330
1F
100
AcDbEntity
  8
0
  6
Continuous
 62
     7
370
    25
100
AcDbCircle
 10
-893.0098181818
 20
-545.1352727273
 30
0.0
 40
1.10000000000014
100
AcDbArc
 50
270.0
 51
53.5658096044
  0
ARC
  5
9E
330
1F
100
AcDbEntity
  8
0
  6
Continuous
 62
     7
370
    25
100
AcDbCircle
 10
-900.9098181818
 20
-555.8371958042
 30
0.0
 40
14.40192307692313
100
AcDbArc
 50
53.5658096044
 51
126.4341903956
  0
ARC
  5
9F
330
1F
100
AcDbEntity
  8
0
  6
Continuous
 62
     7
370
    25
100
AcDbCircle
 10
-893.0098181818
 20
762.6647272727
 30
0.0
 40
1.100000000000049
100
AcDbArc
 50
306.4341903957
 51
90.0
  0
ARC
  5
A0
330
1F
100
AcDbEntity
  8
0
  6
Continuous
 62
     7
370
    25
100
AcDbCircle
 10
-908.8098181818
 20
762.6647272727
 30
0.0
 40
1.100000000000023
100
AcDbArc
 50
90.0
 51
233.5658096044
  0
ARC
  5
A1
330
1F
100
AcDbEntity
  8
0
  6
Continuous
 62
     7
370
    25
100
AcDbCircle
 10
-900.9098181818
 20
773.3666503497
 30
0.0
 40
14.40192307692313
100
AcDbArc
 50
233.5658096044
 51
306.4341903957
  0
ARC
  5
A2
330
1F
100
AcDbEntity
  8
0
  6
Continuous
 62
     7
370
    25
100
AcDbCircle
 10
-523.0098181818
 20
762.6647272727
 30
0.0
 40
1.10000000000014
100
AcDbArc
 50
306.4341903956
 51
90.0
  0
ARC
  5
A3
330
1F
100
AcDbEntity
  8
0
  6
Continuous
 62
     7
370
    25
100
AcDbCircle
 10
-538.8098181818
 20
762.6647272727
 30
0.0
 40
1.10000000000014
100
AcDbArc
 50
90.0
 51
233.5658096044
  0
ARC
  5
A4
330
1F
100
AcDbEntity
  8
0
  6
Continuous
 62
     7
370
    25
100
AcDbCircle
 10
-530.9098181818
 20
773.3666503497
 30
0.0
 40
14.40192307692322
100
AcDbArc
 50
233.5658096044
 51
306.4341903957
  0
LINE
  5
A5
330
1F
100
AcDbEntity
  8
0
  6
Continuous
 62
     7
370
    25
100
AcDbLine
 10
-1175.4098181818
 20
63.7647272727
 30
0.0
 11
-1175.4098181818
 21
-546.2352727273
 31
0.0
  0
LINE
  5
A6
330
1F
100
AcDbEntity
  8
0
  6
Continuous
 62
     7
370
    25
100
AcDbLine
 10
-1140.4098181818
 20
-546.2352727273
 30
0.0
 11
-1140.4098181818
 21
63.7647272727
 31
0.0
  0
LINE
  5
A7
330
1F
100
AcDbEntity
  8
0
  6
Continuous
 62
     7
370
    25
100
AcDbLine
 10
-1175.4098181818
 20
763.7647272727
 30
0.0
 11
-1175.4098181818
 21
153.7647272727
 31
0.0
  0
LINE
  5
A8
330
1F
100
AcDbEntity
  8
0
  6
Continuous
 62
     7
370
    25
100
AcDbLine
 10
-1140.4098181818
 20
153.7647272727
 30
0.0
 11
-1140.4098181818
 21
763.7647272727
 31
0.0
  0
ARC
  5
A9
330
1F
100
AcDbEntity
  8
0
  6
Continuous
 62
     7
370
    25
100
AcDbCircle
 10
2273.0346612994
 20
335.1937802818
 30
0.0
 40
10.00000000000012
100
AcDbArc
 50
194.3479176008
 51
284.3479176008
  0
ARC
  5
AA
330
1F
100
AcDbEntity
  8
0
  6
Continuous
 62
     7
370
    25
100
AcDbCircle
 10
2403.823852318
 20
368.6480402898
 30
0.0
 40
10.00000000000006
100
AcDbArc
 50
284.3479176008
 51
14.3479176008
  0
ARC
  5
AB
330
1F
100
AcDbEntity
  8
0
  6
Continuous
 62
     7
370
    25
100
AcDbCircle
 10
2273.0346612994
 20
335.1937802818
 30
0.0
 40
9.999999999999947
100
AcDbArc
 50
104.3479176008
 51
194.3479176008
  0
ARC
  5
AC
330
1F
100
AcDbEntity
  8
0
  6
Continuous
 62
     7
370
    25
100
AcDbCircle
 10
2403.823852318
 20
368.6480402898
 30
0.0
 40
10.00000000000006
100
AcDbArc
 50
14.3479176008
 51
104.3479176008
  0
ARC
  5
AD
330
1F
100
AcDbEntity
  8
0
  6
Continuous
 62
     7
370
    25
100
AcDbCircle
 10
2271.4529852296
 20
-141.6065267003
 30
0.0
 40
10.00000000000016
100
AcDbArc
 50
186.7887233475
 51
276.7887233475
  0
ARC
  5
AE
330
1F
100
AcDbEntity
  8
0
  6
Continuous
 62
     7
370
    25
100
AcDbCircle
 10
2405.5064722195
 20
-125.6483743685
 30
0.0
 40
10.00000000000017
100
AcDbArc
 50
276.7887233475
 51
6.7887233475
  0
ARC
  5
AF
330
1F
100
AcDbEntity
  8
0
  6
Continuous
 62
     7
370
    25
100
AcDbCircle
 10
2271.4529852296
 20
-141.6065267003
 30
0.0
 40
10.00000000000016
100
AcDbArc
 50
96.7887233475
 51
186.7887233475
  0
ARC
  5
B0
330
1F
100
AcDbEntity
  8
0
  6
Continuous
 62
     7
370
    25
100
AcDbCircle
 10
2405.5064722195
 20
-125.6483743685
 30
0.0
 40
10.00000000000017
100
AcDbArc
 50
6.7887233475
 51
96.7887233475
  0
ARC
  5
B1
330
1F
100
AcDbEntity
  8
0
  6
Continuous
 62
     7
370
    25
100
AcDbCircle
 10
836.1901818182
 20
864.8647272727
 30
0.0
 40
1.100000000000023
100
AcDbArc
 50
126.4341903956
 51
270.0
  0
ARC
  5
B2
330
1F
100
AcDbEntity
  8
0
  6
Continuous
 62
     7
370
    25
100
AcDbCircle
 10
851.9901818182
 20
864.8647272727
 30
0.0
 40
1.100000000000049
100
AcDbArc
 50
270.0
 51
53.5658096043
  0
ARC
  5
B3
330
1F
100
AcDbEntity
  8
0
  6
Continuous
 62
     7
370
    25
100
AcDbCircle
 10
844.0901818182
 20
854.1628041958
 30
0.0
 40
14.40192307692313
100
AcDbArc
 50
53.5658096044
 51
126.4341903956
  0
ARC
  5
B4
330
1F
100
AcDbEntity
  8
0
  6
Continuous
 62
     7
370
    25
100
AcDbCircle
 10
851.9901818182
 20
-647.3352727273
 30
0.0
 40
1.100000000000023
100
AcDbArc
 50
306.4341903956
 51
90.0
  0
ARC
  5
B5
330
1F
100
AcDbEntity
  8
0
  6
Continuous
 62
     7
370
    25
100
AcDbCircle
 10
836.1901818182
 20
-647.3352727273
 30
0.0
 40
1.100000000000023
100
AcDbArc
 50
90.0
 51
233.5658096044
  0
ARC
  5
B6
330
1F
100
AcDbEntity
  8
0
  6
Continuous
 62
     7
370
    25
100
AcDbCircle
 10
844.0901818182
 20
-636.6333496504
 30
0.0
 40
14.40192307692313
100
AcDbArc
 50
233.5658096044
 51
306.4341903957
  0
ARC
  5
B7
330
1F
100
AcDbEntity
  8
0
  6
Continuous
 62
     7
370
    25
100
AcDbCircle
 10
746.1901818182
 20
864.8647272727
 30
0.0
 40
1.100000000000023
100
AcDbArc
 50
126.4341903956
 51
270.0
  0
ARC
  5
B8
330
1F
100
AcDbEntity
  8
0
  6
Continuous
 62
     7
370
    25
100
AcDbCircle
 10
761.9901818182
 20
864.8647272727
 30
0.0
 40
1.100000000000049
100
AcDbArc
 50
270.0
 51
53.5658096043
  0
ARC
  5
B9
330
1F
100
AcDbEntity
  8
0
  6
Continuous
 62
     7
370
    25
100
AcDbCircle
 10
754.0901818182
 20
854.1628041958
 30
0.0
 40
14.40192307692313
100
AcDbArc
 50
53.5658096044
 51
126.4341903956
  0
ARC
  5
BA
330
1F
100
AcDbEntity
  8
0
  6
Continuous
 62
     7
370
    25
100
AcDbCircle
 10
-1068.0098181818
 20
-647.3352727273
 30
0.0
 40
1.100000000000184
100
AcDbArc
 50
306.4341903957
 51
90.0
  0
ARC
  5
BB
330
1F
100
AcDbEntity
  8
0
  6
Continuous
 62
     7
370
    25
100
AcDbCircle
 10
-1083.8098181818
 20
-647.3352727273
 30
0.0
 40
1.100000000000184
100
AcDbArc
 50
90.0
 51
233.5658096043
  0
ARC
  5
BC
330
1F
100
AcDbEntity
  8
0
  6
Continuous
 62
     7
370
    25
100
AcDbCircle
 10
-1075.9098181818
 20
-636.6333496504
 30
0.0
 40
14.40192307692319
100
AcDbArc
 50
233.5658096044
 51
306.4341903957
  0
ARC
  5
BD
330
1F
100
AcDbEntity
  8
0
  6
Continuous
 62
     7
370
    25
100
AcDbCircle
 10
933.9901818182
 20
-647.3352727273
 30
0.0
 40
1.100000000000023
100
AcDbArc
 50
306.4341903956
 51
90.0
  0
ARC
  5
BE
330
1F
100
AcDbEntity
  8
0
  6
Continuous
 62
     7
370
    25
100
AcDbCircle
 10
918.1901818182
 20
-647.3352727273
 30
0.0
 40
1.100000000000116
100
AcDbArc
 50
90.0
 51
233.5658096043
  0
ARC
  5
BF
330
1F
100
AcDbEntity
  8
0
  6
Continuous
 62
     7
370
    25
100
AcDbCircle
 10
926.0901818182
 20
-636.6333496504
 30
0.0
 40
14.40192307692313
100
AcDbArc
 50
233.5658096044
 51
306.4341903957
  0
ARC
  5
C0
330
1F
100
AcDbEntity
  8
0
  6
Continuous
 62
     7
370
    25
100
AcDbCircle
 10
-1165.8098181818
 20
864.8647272727
 30
0.0
 40
1.100000000000049
100
AcDbArc
 50
126.4341903957
 51
270.0
  0
ARC
  5
C1
330
1F
100
AcDbEntity
  8
0
  6
Continuous
 62
     7
370
    25
100
AcDbCircle
 10
-1150.0098181818
 20
864.8647272727
 30
0.0
 40
1.100000000000184
100
AcDbArc
 50
270.0
 51
53.5658096043
  0
ARC
  5
C2
330
1F
100
AcDbEntity
  8
0
  6
Continuous
 62
     7
370
    25
100
AcDbCircle
 10
-1157.9098181818
 20
854.1628041958
 30
0.0
 40
14.40192307692319
100
AcDbArc
 50
53.5658096043
 51
126.4341903956
  0
ARC
  5
C3
330
1F
100
AcDbEntity
  8
0
  6
Continuous
 62
     7
370
    25
100
AcDbCircle
 10
-1083.8098181818
 20
864.8647272727
 30
0.0
 40
1.100000000000184
100
AcDbArc
 50
126.4341903957
 51
270.0
  0
ARC
  5
C4
330
1F
100
AcDbEntity
  8
0
  6
Continuous
 62
     7
370
    25
100
AcDbCircle
 10
-1068.0098181818
 20
864.8647272727
 30
0.0
 40
1.100000000000184
100
AcDbArc
 50
270.0
 51
53.5658096043
  0
ARC
  5
C5
330
1F
100
AcDbEntity
  8
0
  6
Continuous
 62
     7
370
    25
100
AcDbCircle
 10
-1075.9098181818
 20
854.1628041958
 30
0.0
 40
14.40192307692319
100
AcDbArc
 50
53.5658096043
 51
126.4341903956
  0
ARC
  5
C6
330
1F
100
AcDbEntity
  8
0
  6
Continuous
 62
     7
370
    25
100
AcDbCircle
 10
-1150.0098181818
 20
-647.3352727273
 30
0.0
 40
1.100000000000184
100
AcDbArc
 50
306.4341903957
 51
90.0
  0
ARC
  5
C7
330
1F
100
AcDbEntity
  8
0
  6
Continuous
 62
     7
370
    25
100
AcDbCircle
 10
-1165.8098181818
 20
-647.3352727273
 30
0.0
 40
1.100000000000049
100
AcDbArc
 50
90.0
 51
233.5658096044
  0
ARC
  5
C8
330
1F
100
AcDbEntity
  8
0
  6
Continuous
 62
     7
370
    25
100
AcDbCircle
 10
-1157.9098181818
 20
-636.6333496504
 30
0.0
 40
14.40192307692319
100
AcDbArc
 50
233.5658096044
 51
306.4341903957
  0
ARC
  5
C9
330
1F
100
AcDbEntity
  8
0
  6
Continuous
 62
     7
370
    25
100
AcDbCircle
 10
-993.8098181818
 20
864.8647272727
 30
0.0
 40
1.100000000000023
100
AcDbArc
 50
126.4341903956
 51
270.0
  0
ARC
  5
CA
330
1F
100
AcDbEntity
  8
0
  6
Continuous
 62
     7
370
    25
100
AcDbCircle
 10
-978.0098181818
 20
864.8647272727
 30
0.0
 40
1.100000000000049
100
AcDbArc
 50
270.0
 51
53.5658096043
  0
ARC
  5
CB
330
1F
100
AcDbEntity
  8
0
  6
Continuous
 62
     7
370
    25
100
AcDbCircle
 10
-985.9098181818
 20
854.1628041958
 30
0.0
 40
14.40192307692313
100
AcDbArc
 50
53.5658096044
 51
126.4341903956
  0
CIRCLE
  5
CC
330
1F
100
AcDbEntity
  8
0
  6
Continuous
 62
     7
370
    25
100
AcDbCircle
 10
2326.0901818182
 20
348.7647272727
 30
0.0
 40
9.0000000000003
  0
ARC
  5
CD
330
1F
100
AcDbEntity
  8
0
  6
Continuous
 62
     7
370
    25
100
AcDbCircle
 10
918.1901818182
 20
864.8647272727
 30
0.0
 40
1.100000000000049
100
AcDbArc
 50
126.4341903957
 51
270.0
  0
ARC
  5
CE
330
1F
100
AcDbEntity
  8
0
  6
Continuous
 62
     7
370
    25
100
AcDbCircle
 10
933.9901818182
 20
864.8647272727
 30
0.0
 40
1.100000000000023
100
AcDbArc
 50
270.0
 51
53.5658096044
  0
ARC
  5
CF
330
1F
100
AcDbEntity
  8
0
  6
Continuous
 62
     7
370
    25
100
AcDbCircle
 10
926.0901818182
 20
854.1628041958
 30
0.0
 40
14.40192307692313
100
AcDbArc
 50
53.5658096044
 51
126.4341903956
  0
CIRCLE
  5
D0
330
1F
100
AcDbEntity
  8
0
  6
Continuous
 62
     7
370
    25
100
AcDbCircle
 10
2325.8326895019
 20
-135.132994202
 30
0.0
 40
9.000000000000021
  0
ARC
  5
D1
330
1F
100
AcDbEntity
  8
0
  6
Continuous
 62
     7
370
    25
100
AcDbCircle
 10
-978.0098181818
 20
-647.3352727273
 30
0.0
 40
1.100000000000049
100
AcDbArc
 50
306.4341903957
 51
90.0
  0
ARC
  5
D2
330
1F
100
AcDbEntity
  8
0
  6
Continuous
 62
     7
370
    25
100
AcDbCircle
 10
-993.8098181818
 20
-647.3352727273
 30
0.0
 40
1.100000000000023
100
AcDbArc
 50
90.0
 51
233.5658096044
  0
ARC
  5
D3
330
1F
100
AcDbEntity
  8
0
  6
Continuous
 62
     7
370
    25
100
AcDbCircle
 10
-985.9098181818
 20
-636.6333496504
 30
0.0
 40
14.40192307692313
100
AcDbArc
 50
233.5658096044
 51
306.4341903957
  0
ARC
  5
D4
330
1F
100
AcDbEntity
  8
0
  6
Continuous
 62
     7
370
    25
100
AcDbCircle
 10
761.9901818182
 20
-647.3352727273
 30
0.0
 40
1.100000000000049
100
AcDbArc
 50
306.4341903957
 51
90.0
  0
ARC
  5
D5
330
1F
100
AcDbEntity
  8
0
  6
Continuous
 62
     7
370
    25
100
AcDbCircle
 10
746.1901818182
 20
-647.3352727273
 30
0.0
 40
1.100000000000023
100
AcDbArc
 50
90.0
 51
233.5658096044
  0
ARC
  5
D6
330
1F
100
AcDbEntity
  8
0
  6
Continuous
 62
     7
370
    25
100
AcDbCircle
 10
754.0901818182
 20
-636.6333496504
 30
0.0
 40
14.40192307692313
100
AcDbArc
 50
233.5658096044
 51
306.4341903957
  0
LINE
  5
D7
330
1F
100
AcDbEntity
  8
0
  6
Continuous
 62
     7
370
    25
100
AcDbLine
 10
691.0901818182
 20
763.7647272727
 30
0.0
 11
691.0901818182
 21
768.7647272727
 31
0.0
  0
LINE
  5
D8
330
1F
100
AcDbEntity
  8
0
  6
Continuous
 62
     7
370
    25
100
AcDbLine
 10
277.0901818182
 20
768.7647272727
 30
0.0
 11
277.0901818182
 21
763.7647272727
 31
0.0
  0
LINE
  5
D9
330
1F
100
AcDbEntity
  8
0
  6
Continuous
 62
     7
370
    25
100
AcDbLine
 10
691.0901818182
 20
-551.2352727273
 30
0.0
 11
691.0901818182
 21
-546.2352727273
 31
0.0
  0
LINE
  5
DA
330
1F
100
AcDbEntity
  8
0
  6
Continuous
 62
     7
370
    25
100
AcDbLine
 10
277.0901818182
 20
-546.2352727273
 30
0.0
 11
277.0901818182
 21
-551.2352727273
 31
0.0
  0
LINE
  5
DB
330
1F
100
AcDbEntity
  8
0
  6
Continuous
 62
     7
370
    25
100
AcDbLine
 10
-508.9098181818
 20
-551.2352727273
 30
0.0
 11
-508.9098181818
 21
-546.2352727273
 31
0.0
  0
LINE
  5
DC
330
1F
100
AcDbEntity
  8
0
  6
Continuous
 62
     7
370
    25
100
AcDbLine
 10
-922.9098181818
 20
-546.2352727273
 30
0.0
 11
-922.9098181818
 21
-551.2352727273
 31
0.0
  0
LINE
  5
DD
330
1F
100
AcDbEntity
  8
0
  6
Continuous
 62
     7
370
    25
100
AcDbLine
 10
-508.9098181818
 20
763.7647272727
 30
0.0
 11
-508.9098181818
 21
768.7647272727
 31
0.0
  0
LINE
  5
DE
330
1F
100
AcDbEntity
  8
0
  6
Continuous
 62
     7
370
    25
100
AcDbLine
 10
-922.9098181818
 20
768.7647272727
 30
0.0
 11
-922.9098181818
 21
763.7647272727
 31
0.0
  0
LINE
  5
DF
330
1F
100
AcDbEntity
  8
0
  6
Continuous
 62
     7
370
    25
100
AcDbLine
 10
91.0901818182
 20
-551.2352727273
 30
0.0
 11
91.0901818182
 21
-546.2352727273
 31
0.0
  0
LINE
  5
E0
330
1F
100
AcDbEntity
  8
0
  6
Continuous
 62
     7
370
    25
100
AcDbLine
 10
-322.9098181818
 20
-546.2352727273
 30
0.0
 11
-322.9098181818
 21
-551.2352727273
 31
0.0
  0
LINE
  5
E1
330
1F
100
AcDbEntity
  8
0
  6
Continuous
 62
     7
370
    25
100
AcDbLine
 10
91.0901818182
 20
763.7647272727
 30
0.0
 11
91.0901818182
 21
768.7647272727
 31
0.0
  0
LINE
  5
E2
330
1F
100
AcDbEntity
  8
0
  6
Continuous
 62
     7
370
    25
100
AcDbLine
 10
-322.9098181818
 20
768.7647272727
 30
0.0
 11
-322.9098181818
 21
763.7647272727
 31
0.0
  0
LINE
  5
E3
330
1F
100
AcDbEntity
  8
0
  6
Continuous
 62
     7
370
    25
100
AcDbLine
 10
-1202.9098181819
 20
826.2647272727
 30
0.0
 11
-2512.9098181818
 21
826.2647272727
 31
0.0
  0
LINE
  5
E4
330
1F
100
AcDbEntity
  8
0
  6
Continuous
 62
     7
370
    25
100
AcDbLine
 10
-2512.9098181818
 20
791.2647272727
 30
0.0
 11
-1202.9098181819
 21
791.2647272727
 31
0.0
  0
LINE
  5
E5
330
1F
100
AcDbEntity
  8
0
  6
Continuous
 62
     7
370
    25
100
AcDbLine
 10
316.5901818182
 20
763.7647272727
 30
0.0
 11
316.5901818182
 21
-546.2352727273
 31
0.0
  0
LINE
  5
E6
330
1F
100
AcDbEntity
  8
0
  6
Continuous
 62
     7
370
    25
100
AcDbLine
 10
351.5901818182
 20
-546.2352727273
 30
0.0
 11
351.5901818182
 21
763.7647272727
 31
0.0
  0
LINE
  5
E7
330
1F
100
AcDbEntity
  8
0
  6
Continuous
 62
     7
370
    25
100
AcDbLine
 10
-283.4098181818
 20
763.7647272727
 30
0.0
 11
-283.4098181818
 21
-546.2352727273
 31
0.0
  0
LINE
  5
E8
330
1F
100
AcDbEntity
  8
0
  6
Continuous
 62
     7
370
    25
100
AcDbLine
 10
-248.4098181818
 20
-546.2352727273
 30
0.0
 11
-248.4098181818
 21
763.7647272727
 31
0.0
  0
LINE
  5
E9
330
1F
100
AcDbEntity
  8
0
  6
Continuous
 62
     7
370
    25
100
AcDbLine
 10
651.5901818182
 20
-546.2352727273
 30
0.0
 11
651.5901818182
 21
763.7647272727
 31
0.0
  0
LINE
  5
EA
330
1F
100
AcDbEntity
  8
0
  6
Continuous
 62
     7
370
    25
100
AcDbLine
 10
616.5901818182
 20
763.7647272727
 30
0.0
 11
616.5901818182
 21
-546.2352727273
 31
0.0
  0
LINE
  5
EB
330
1F
100
AcDbEntity
  8
0
  6
Continuous
 62
     7
370
    25
100
AcDbLine
 10
-548.4098181818
 20
-546.2352727273
 30
0.0
 11
-548.4098181818
 21
763.7647272727
 31
0.0
  0
LINE
  5
EC
330
1F
100
AcDbEntity
  8
0
  6
Continuous
 62
     7
370
    25
100
AcDbLine
 10
-583.4098181818
 20
763.7647272727
 30
0.0
 11
-583.4098181818
 21
-546.2352727273
 31
0.0
  0
LINE
  5
ED
330
1F
100
AcDbEntity
  8
0
  6
Continuous
 62
     7
370
    25
100
AcDbLine
 10
908.5901818182
 20
763.7647272727
 30
0.0
 11
908.5901818182
 21
-546.2352727273
 31
0.0
  0
LINE
  5
EE
330
1F
100
AcDbEntity
  8
0
  6
Continuous
 62
     7
370
    25
100
AcDbLine
 10
943.5901818182
 20
-546.2352727273
 30
0.0
 11
943.5901818182
 21
763.7647272727
 31
0.0
  0
LINE
  5
EF
330
1F
100
AcDbEntity
  8
0
  6
Continuous
 62
     7
370
    25
100
AcDbLine
 10
-883.4098181818
 20
763.7647272727
 30
0.0
 11
-883.4098181818
 21
-546.2352727273
 31
0.0
  0
LINE
  5
F0
330
1F
100
AcDbEntity
  8
0
  6
Continuous
 62
     7
370
    25
100
AcDbLine
 10
-848.4098181818
 20
-546.2352727273
 30
0.0
 11
-848.4098181818
 21
763.7647272727
 31
0.0
  0
LINE
  5
F1
330
1F
100
AcDbEntity
  8
0
  6
Continuous
 62
     7
370
    25
100
AcDbLine
 10
51.5901818182
 20
-546.2352727273
 30
0.0
 11
51.5901818182
 21
763.7647272727
 31
0.0
  0
LINE
  5
F2
330
1F
100
AcDbEntity
  8
0
  6
Continuous
 62
     7
370
    25
100
AcDbLine
 10
16.5901818182
 20
763.7647272727
 30
0.0
 11
16.5901818182
 21
-546.2352727273
 31
0.0
  0
LINE
  5
F3
330
1F
100
AcDbEntity
  8
0
  6
Continuous
 62
     7
370
    25
100
AcDbLine
 10
2281.0901818181
 20
-573.7352727272
 30
0.0
 11
971.0901818182
 21
-573.7352727272
 31
0.0
  0
LINE
  5
F4
330
1F
100
AcDbEntity
  8
0
  6
Continuous
 62
     7
370
    25
100
AcDbLine
 10
971.0901818182
 20
-608.7352727272
 30
0.0
 11
2281.0901818181
 21
-608.7352727272
 31
0.0
  0
LINE
  5
F5
330
1F
100
AcDbEntity
  8
0
  6
Continuous
 62
     7
370
    25
100
AcDbLine
 10
-2512.9098181818
 20
91.2647272727
 30
0.0
 11
-1202.9098181818
 21
91.2647272727
 31
0.0
  0
LINE
  5
F6
330
1F
100
AcDbEntity
  8
0
  6
Continuous
 62
     7
370
    25
100
AcDbLine
 10
-1202.9098181818
 20
126.2647272727
 30
0.0
 11
-2512.9098181818
 21
126.2647272727
 31
0.0
  0
LINE
  5
F7
330
1F
100
AcDbEntity
  8
0
  6
Continuous
 62
     7
370
    25
100
AcDbLine
 10
2281.0901818181
 20
826.2647272727
 30
0.0
 11
971.0901818182
 21
826.2647272727
 31
0.0
  0
LINE
  5
F8
330
1F
100
AcDbEntity
  8
0
  6
Continuous
 62
     7
370
    25
100
AcDbLine
 10
971.0901818182
 20
791.2647272727
 30
0.0
 11
2281.0901818181
 21
791.2647272727
 31
0.0
  0
ARC
  5
F9
330
1F
100
AcDbEntity
  8
0
  6
Continuous
 62
     7
370
    25
100
AcDbCircle
 10
668.2941291866
 20
-632.2352727273
 30
0.0
 40
16.29605263157896
100
AcDbArc
 50
315.1144932694
 51
0.0
  0
ARC
  5
FA
330
1F
100
AcDbEntity
  8
0
  6
Continuous
 62
     7
370
    25
100
AcDbCircle
 10
669.8862344498
 20
-632.2352727273
 30
0.0
 40
16.29605263157896
100
AcDbArc
 50
180.0
 51
224.8855067306
  0
LINE
  5
FB
330
1F
100
AcDbEntity
  8
0
  6
Continuous
 62
     7
370
    25
100
AcDbLine
 10
653.5901818182
 20
-631.2352727273
 30
0.0
 11
653.5901818182
 21
-632.2352727273
 31
0.0
  0
LINE
  5
FC
330
1F
100
AcDbEntity
  8
0
  6
Continuous
 62
     7
370
    25
100
AcDbLine
 10
684.5901818182
 20
-632.2352727273
 30
0.0
 11
684.5901818182
 21
-631.2352727273
 31
0.0
  0
ARC
  5
FD
330
1F
100
AcDbEntity
  8
0
  6
Continuous
 62
     7
370
    25
100
AcDbCircle
 10
-1158.7058708134
 20
767.7647272727
 30
0.0
 40
16.29605263157873
100
AcDbArc
 50
315.1144932694
 51
0.0
  0
ARC
  5
FE
330
1F
100
AcDbEntity
  8
0
  6
Continuous
 62
     7
370
    25
100
AcDbCircle
 10
-1157.1137655502
 20
767.7647272727
 30
0.0
 40
16.29605263157873
100
AcDbArc
 50
180.0
 51
224.8855067306
  0
LINE
  5
FF
330
1F
100
AcDbEntity
  8
0
  6
Continuous
 62
     7
370
    25
100
AcDbLine
 10
-1173.4098181818
 20
768.7647272727
 30
0.0
 11
-1173.4098181818
 21
767.7647272727
 31
0.0
  0
LINE
  5
100
330
1F
100
AcDbEntity
  8
0
  6
Continuous
 62
     7
370
    25
100
AcDbLine
 10
-1142.4098181818
 20
767.7647272727
 30
0.0
 11
-1142.4098181818
 21
768.7647272727
 31
0.0
  0
LINE
  5
101
330
1F
100
AcDbEntity
  8
0
  6
Continuous
 62
     7
370
    25
100
AcDbLine
 10
283.5901818182
 20
-631.2352727273
 30
0.0
 11
283.5901818182
 21
-632.2352727273
 31
0.0
  0
LINE
  5
102
330
1F
100
AcDbEntity
  8
0
  6
Continuous
 62
     7
370
    25
100
AcDbLine
 10
314.5901818182
 20
-632.2352727273
 30
0.0
 11
314.5901818182
 21
-631.2352727273
 31
0.0
  0
ARC
  5
103
330
1F
100
AcDbEntity
  8
0
  6
Continuous
 62
     7
370
    25
100
AcDbCircle
 10
298.2941291866
 20
-632.2352727273
 30
0.0
 40
16.29605263157903
100
AcDbArc
 50
315.1144932694
 51
0.0
  0
ARC
  5
104
330
1F
100
AcDbEntity
  8
0
  6
Continuous
 62
     7
370
    25
100
AcDbCircle
 10
299.8862344498
 20
-632.2352727273
 30
0.0
 40
16.296052631579
100
AcDbArc
 50
180.0
 51
224.8855067306
  0
LINE
  5
105
330
1F
100
AcDbEntity
  8
0
  6
Continuous
 62
     7
370
    25
100
AcDbLine
 10
-1115.9098181818
 20
824.2340160569
 30
0.0
 11
-1116.9098181818
 21
824.2647272727
 31
0.0
  0
LINE
  5
106
330
1F
100
AcDbEntity
  8
0
  6
Continuous
 62
     7
370
    25
100
AcDbLine
 10
-1116.9098181818
 20
793.2647272727
 30
0.0
 11
-1115.9098181818
 21
793.2954384885
 31
0.0
  0
LINE
  5
107
330
1F
100
AcDbEntity
  8
0
  6
Continuous
 62
     7
370
    25
100
AcDbLine
 10
-1117.9098181818
 20
793.2647272727
 30
0.0
 11
-1116.9098181818
 21
793.2647272727
 31
0.0
  0
LINE
  5
108
330
1F
100
AcDbEntity
  8
0
  6
Continuous
 62
     7
370
    25
100
AcDbLine
 10
-1116.9098181818
 20
824.2647272727
 30
0.0
 11
-1117.9098181818
 21
824.2647272727
 31
0.0
  0
LINE
  5
109
330
1F
100
AcDbEntity
  8
0
  6
Continuous
 62
     7
370
    25
100
AcDbLine
 10
-285.4098181818
 20
848.7647272727
 30
0.0
 11
-285.4098181818
 21
849.7647272727
 31
0.0
  0
LINE
  5
10A
330
1F
100
AcDbEntity
  8
0
  6
Continuous
 62
     7
370
    25
100
AcDbLine
 10
-316.4098181818
 20
849.7647272727
 30
0.0
 11
-316.4098181818
 21
848.7647272727
 31
0.0
  0
ARC
  5
10B
330
1F
100
AcDbEntity
  8
0
  6
Continuous
 62
     7
370
    25
100
AcDbCircle
 10
-300.1137655502
 20
849.7647272727
 30
0.0
 40
16.29605263157896
100
AcDbArc
 50
135.1144932694
 51
180.0
  0
ARC
  5
10C
330
1F
100
AcDbEntity
  8
0
  6
Continuous
 62
     7
370
    25
100
AcDbCircle
 10
-301.7058708134
 20
849.7647272727
 30
0.0
 40
16.29605263157896
100
AcDbArc
 50
0.0
 51
44.8855067306
  0
LINE
  5
10D
330
1F
100
AcDbEntity
  8
0
  6
Continuous
 62
     7
370
    25
100
AcDbLine
 10
314.5901818182
 20
848.7647272727
 30
0.0
 11
314.5901818182
 21
849.7647272727
 31
0.0
  0
LINE
  5
10E
330
1F
100
AcDbEntity
  8
0
  6
Continuous
 62
     7
370
    25
100
AcDbLine
 10
283.5901818182
 20
849.7647272727
 30
0.0
 11
283.5901818182
 21
848.7647272727
 31
0.0
  0
ARC
  5
10F
330
1F
100
AcDbEntity
  8
0
  6
Continuous
 62
     7
370
    25
100
AcDbCircle
 10
299.8862344498
 20
849.7647272727
 30
0.0
 40
16.296052631579
100
AcDbArc
 50
135.1144932694
 51
180.0
  0
ARC
  5
110
330
1F
100
AcDbEntity
  8
0
  6
Continuous
 62
     7
370
    25
100
AcDbCircle
 10
298.2941291866
 20
849.7647272727
 30
0.0
 40
16.29605263157903
100
AcDbArc
 50
0.0
 51
44.8855067306
  0
ARC
  5
111
330
1F
100
AcDbEntity
  8
0
  6
Continuous
 62
     7
370
    25
100
AcDbCircle
 10
-1158.7058708134
 20
62.7647272727
 30
0.0
 40
16.29605263157873
100
AcDbArc
 50
315.1144932694
 51
0.0
  0
ARC
  5
112
330
1F
100
AcDbEntity
  8
0
  6
Continuous
 62
     7
370
    25
100
AcDbCircle
 10
-1157.1137655502
 20
62.7647272727
 30
0.0
 40
16.29605263157879
100
AcDbArc
 50
180.0
 51
224.8855067306
  0
LINE
  5
113
330
1F
100
AcDbEntity
  8
0
  6
Continuous
 62
     7
370
    25
100
AcDbLine
 10
-1173.4098181818
 20
63.7647272727
 30
0.0
 11
-1173.4098181818
 21
62.7647272727
 31
0.0
  0
LINE
  5
114
330
1F
100
AcDbEntity
  8
0
  6
Continuous
 62
     7
370
    25
100
AcDbLine
 10
-1142.4098181818
 20
62.7647272727
 30
0.0
 11
-1142.4098181818
 21
63.7647272727
 31
0.0
  0
LINE
  5
115
330
1F
100
AcDbEntity
  8
0
  6
Continuous
 62
     7
370
    25
100
AcDbLine
 10
884.0901818182
 20
793.2954384885
 30
0.0
 11
885.0901818182
 21
793.2647272727
 31
0.0
  0
LINE
  5
116
330
1F
100
AcDbEntity
  8
0
  6
Continuous
 62
     7
370
    25
100
AcDbLine
 10
885.0901818182
 20
824.2647272727
 30
0.0
 11
884.0901818182
 21
824.2340160569
 31
0.0
  0
LINE
  5
117
330
1F
100
AcDbEntity
  8
0
  6
Continuous
 62
     7
370
    25
100
AcDbLine
 10
886.0901818182
 20
824.2647272727
 30
0.0
 11
885.0901818182
 21
824.2647272727
 31
0.0
  0
LINE
  5
118
330
1F
100
AcDbEntity
  8
0
  6
Continuous
 62
     7
370
    25
100
AcDbLine
 10
885.0901818182
 20
793.2647272727
 30
0.0
 11
886.0901818182
 21
793.2647272727
 31
0.0
  0
LINE
  5
119
330
1F
100
AcDbEntity
  8
0
  6
Continuous
 62
     7
370
    25
100
AcDbLine
 10
-885.4098181818
 20
848.7647272727
 30
0.0
 11
-885.4098181818
 21
849.7647272727
 31
0.0
  0
LINE
  5
11A
330
1F
100
AcDbEntity
  8
0
  6
Continuous
 62
     7
370
    25
100
AcDbLine
 10
-916.4098181818
 20
849.7647272727
 30
0.0
 11
-916.4098181818
 21
848.7647272727
 31
0.0
  0
ARC
  5
11B
330
1F
100
AcDbEntity
  8
0
  6
Continuous
 62
     7
370
    25
100
AcDbCircle
 10
-900.1137655502
 20
849.7647272727
 30
0.0
 40
16.29605263157896
100
AcDbArc
 50
135.1144932694
 51
180.0
  0
ARC
  5
11C
330
1F
100
AcDbEntity
  8
0
  6
Continuous
 62
     7
370
    25
100
AcDbCircle
 10
-901.7058708134
 20
849.7647272727
 30
0.0
 40
16.29605263157896
100
AcDbArc
 50
0.0
 51
44.8855067306
  0
LINE
  5
11D
330
1F
100
AcDbEntity
  8
0
  6
Continuous
 62
     7
370
    25
100
AcDbLine
 10
684.5901818182
 20
848.7647272727
 30
0.0
 11
684.5901818182
 21
849.7647272727
 31
0.0
  0
LINE
  5
11E
330
1F
100
AcDbEntity
  8
0
  6
Continuous
 62
     7
370
    25
100
AcDbLine
 10
653.5901818182
 20
849.7647272727
 30
0.0
 11
653.5901818182
 21
848.7647272727
 31
0.0
  0
ARC
  5
11F
330
1F
100
AcDbEntity
  8
0
  6
Continuous
 62
     7
370
    25
100
AcDbCircle
 10
669.8862344498
 20
849.7647272727
 30
0.0
 40
16.29605263157903
100
AcDbArc
 50
135.1144932694
 51
180.0
  0
ARC
  5
120
330
1F
100
AcDbEntity
  8
0
  6
Continuous
 62
     7
370
    25
100
AcDbCircle
 10
668.2941291866
 20
849.7647272727
 30
0.0
 40
16.29605263157903
100
AcDbArc
 50
0.0
 51
44.8855067306
  0
ARC
  5
121
330
1F
100
AcDbEntity
  8
0
  6
Continuous
 62
     7
370
    25
100
AcDbCircle
 10
2367.0901818182
 20
807.9686746411
 30
0.0
 40
16.29605263157903
100
AcDbArc
 50
45.1144932694
 51
90.0
  0
ARC
  5
122
330
1F
100
AcDbEntity
  8
0
  6
Continuous
 62
     7
370
    25
100
AcDbCircle
 10
2367.0901818182
 20
809.5607799043
 30
0.0
 40
16.29605263157903
100
AcDbArc
 50
270.0
 51
314.8855067306
  0
LINE
  5
123
330
1F
100
AcDbEntity
  8
0
  6
Continuous
 62
     7
370
    25
100
AcDbLine
 10
2366.0901818182
 20
793.2647272727
 30
0.0
 11
2367.0901818182
 21
793.2647272727
 31
0.0
  0
LINE
  5
124
330
1F
100
AcDbEntity
  8
0
  6
Continuous
 62
     7
370
    25
100
AcDbLine
 10
2367.0901818182
 20
824.2647272727
 30
0.0
 11
2366.0901818182
 21
824.2647272727
 31
0.0
  0
LINE
  5
125
330
1F
100
AcDbEntity
  8
0
  6
Continuous
 62
     7
370
    25
100
AcDbLine
 10
886.0901818182
 20
-575.7352727272
 30
0.0
 11
885.0901818182
 21
-575.7352727272
 31
0.0
  0
LINE
  5
126
330
1F
100
AcDbEntity
  8
0
  6
Continuous
 62
     7
370
    25
100
AcDbLine
 10
885.0901818182
 20
-606.7352727272
 30
0.0
 11
886.0901818182
 21
-606.7352727272
 31
0.0
  0
LINE
  5
127
330
1F
100
AcDbEntity
  8
0
  6
Continuous
 62
     7
370
    25
100
AcDbLine
 10
884.0901818182
 20
-606.7045615114
 30
0.0
 11
885.0901818182
 21
-606.7352727272
 31
0.0
  0
LINE
  5
128
330
1F
100
AcDbEntity
  8
0
  6
Continuous
 62
     7
370
    25
100
AcDbLine
 10
885.0901818182
 20
-575.7352727272
 30
0.0
 11
884.0901818182
 21
-575.7659839431
 31
0.0
  0
ARC
  5
129
330
1F
100
AcDbEntity
  8
0
  6
Continuous
 62
     7
370
    25
100
AcDbCircle
 10
-901.7058708134
 20
-632.2352727273
 30
0.0
 40
16.29605263157896
100
AcDbArc
 50
315.1144932694
 51
0.0
  0
ARC
  5
12A
330
1F
100
AcDbEntity
  8
0
  6
Continuous
 62
     7
370
    25
100
AcDbCircle
 10
-900.1137655502
 20
-632.2352727273
 30
0.0
 40
16.29605263157896
100
AcDbArc
 50
180.0
 51
224.8855067306
  0
LINE
  5
12B
330
1F
100
AcDbEntity
  8
0
  6
Continuous
 62
     7
370
    25
100
AcDbLine
 10
-916.4098181818
 20
-631.2352727273
 30
0.0
 11
-916.4098181818
 21
-632.2352727273
 31
0.0
  0
LINE
  5
12C
330
1F
100
AcDbEntity
  8
0
  6
Continuous
 62
     7
370
    25
100
AcDbLine
 10
-885.4098181818
 20
-632.2352727273
 30
0.0
 11
-885.4098181818
 21
-631.2352727273
 31
0.0
  0
ARC
  5
12D
330
1F
100
AcDbEntity
  8
0
  6
Continuous
 62
     7
370
    25
100
AcDbCircle
 10
-301.7058708134
 20
-632.2352727273
 30
0.0
 40
16.29605263157896
100
AcDbArc
 50
315.1144932694
 51
0.0
  0
ARC
  5
12E
330
1F
100
AcDbEntity
  8
0
  6
Continuous
 62
     7
370
    25
100
AcDbCircle
 10
-300.1137655502
 20
-632.2352727273
 30
0.0
 40
16.29605263157896
100
AcDbArc
 50
180.0
 51
224.8855067306
  0
LINE
  5
12F
330
1F
100
AcDbEntity
  8
0
  6
Continuous
 62
     7
370
    25
100
AcDbLine
 10
-316.4098181818
 20
-631.2352727273
 30
0.0
 11
-316.4098181818
 21
-632.2352727273
 31
0.0
  0
LINE
  5
130
330
1F
100
AcDbEntity
  8
0
  6
Continuous
 62
     7
370
    25
100
AcDbLine
 10
-285.4098181818
 20
-632.2352727273
 30
0.0
 11
-285.4098181818
 21
-631.2352727273
 31
0.0
  0
ARC
  5
131
330
1F
100
AcDbEntity
  8
0
  6
Continuous
 62
     7
370
    25
100
AcDbCircle
 10
-530.1137655502
 20
849.7647272727
 30
0.0
 40
16.29605263157896
100
AcDbArc
 50
135.1144932694
 51
180.0
  0
ARC
  5
132
330
1F
100
AcDbEntity
  8
0
  6
Continuous
 62
     7
370
    25
100
AcDbCircle
 10
-531.7058708134
 20
849.7647272727
 30
0.0
 40
16.29605263157903
100
AcDbArc
 50
0.0
 51
44.8855067306
  0
LINE
  5
133
330
1F
100
AcDbEntity
  8
0
  6
Continuous
 62
     7
370
    25
100
AcDbLine
 10
-515.4098181818
 20
848.7647272727
 30
0.0
 11
-515.4098181818
 21
849.7647272727
 31
0.0
  0
LINE
  5
134
330
1F
100
AcDbEntity
  8
0
  6
Continuous
 62
     7
370
    25
100
AcDbLine
 10
-546.4098181818
 20
849.7647272727
 30
0.0
 11
-546.4098181818
 21
848.7647272727
 31
0.0
  0
ARC
  5
135
330
1F
100
AcDbEntity
  8
0
  6
Continuous
 62
     7
370
    25
100
AcDbCircle
 10
925.2941291866
 20
767.7647272727
 30
0.0
 40
16.29605263157896
100
AcDbArc
 50
315.1144932694
 51
0.0
  0
ARC
  5
136
330
1F
100
AcDbEntity
  8
0
  6
Continuous
 62
     7
370
    25
100
AcDbCircle
 10
926.8862344498
 20
767.7647272727
 30
0.0
 40
16.29605263157896
100
AcDbArc
 50
180.0
 51
224.8855067306
  0
LINE
  5
137
330
1F
100
AcDbEntity
  8
0
  6
Continuous
 62
     7
370
    25
100
AcDbLine
 10
910.5901818182
 20
768.7647272727
 30
0.0
 11
910.5901818182
 21
767.7647272727
 31
0.0
  0
LINE
  5
138
330
1F
100
AcDbEntity
  8
0
  6
Continuous
 62
     7
370
    25
100
AcDbLine
 10
941.5901818182
 20
767.7647272727
 30
0.0
 11
941.5901818182
 21
768.7647272727
 31
0.0
  0
LINE
  5
139
330
1F
100
AcDbEntity
  8
0
  6
Continuous
 62
     7
370
    25
100
AcDbLine
 10
-1117.9098181818
 20
93.2647272727
 30
0.0
 11
-1116.9098181818
 21
93.2647272727
 31
0.0
  0
LINE
  5
13A
330
1F
100
AcDbEntity
  8
0
  6
Continuous
 62
     7
370
    25
100
AcDbLine
 10
-1116.9098181818
 20
124.2647272727
 30
0.0
 11
-1117.9098181818
 21
124.2647272727
 31
0.0
  0
ARC
  5
13B
330
1F
100
AcDbEntity
  8
0
  6
Continuous
 62
     7
370
    25
100
AcDbCircle
 10
-1116.9098181818
 20
107.9686746412
 30
0.0
 40
16.2960526315791
100
AcDbArc
 50
45.1144932694
 51
90.0
  0
ARC
  5
13C
330
1F
100
AcDbEntity
  8
0
  6
Continuous
 62
     7
370
    25
100
AcDbCircle
 10
-1116.9098181818
 20
109.5607799043
 30
0.0
 40
16.2960526315791
100
AcDbArc
 50
270.0
 51
314.8855067306
  0
LINE
  5
13D
330
1F
100
AcDbEntity
  8
0
  6
Continuous
 62
     7
370
    25
100
AcDbLine
 10
828.5901818182
 20
768.7647272727
 30
0.0
 11
828.5901818182
 21
767.7647272727
 31
0.0
  0
LINE
  5
13E
330
1F
100
AcDbEntity
  8
0
  6
Continuous
 62
     7
370
    25
100
AcDbLine
 10
859.5901818182
 20
767.7647272727
 30
0.0
 11
859.5901818182
 21
768.7647272727
 31
0.0
  0
ARC
  5
13F
330
1F
100
AcDbEntity
  8
0
  6
Continuous
 62
     7
370
    25
100
AcDbCircle
 10
843.2941291866
 20
767.7647272727
 30
0.0
 40
16.29605263157896
100
AcDbArc
 50
315.1144932694
 51
0.0
  0
ARC
  5
140
330
1F
100
AcDbEntity
  8
0
  6
Continuous
 62
     7
370
    25
100
AcDbCircle
 10
844.8862344498
 20
767.7647272727
 30
0.0
 40
16.29605263157896
100
AcDbArc
 50
180.0
 51
224.8855067306
  0
LINE
  5
141
330
1F
100
AcDbEntity
  8
0
  6
Continuous
 62
     7
370
    25
100
AcDbLine
 10
738.5901818182
 20
768.7647272727
 30
0.0
 11
738.5901818182
 21
767.7647272727
 31
0.0
  0
LINE
  5
142
330
1F
100
AcDbEntity
  8
0
  6
Continuous
 62
     7
370
    25
100
AcDbLine
 10
769.5901818182
 20
767.7647272727
 30
0.0
 11
769.5901818182
 21
768.7647272727
 31
0.0
  0
ARC
  5
143
330
1F
100
AcDbEntity
  8
0
  6
Continuous
 62
     7
370
    25
100
AcDbCircle
 10
753.2941291866
 20
767.7647272727
 30
0.0
 40
16.29605263157896
100
AcDbArc
 50
315.1144932694
 51
0.0
  0
ARC
  5
144
330
1F
100
AcDbEntity
  8
0
  6
Continuous
 62
     7
370
    25
100
AcDbCircle
 10
754.8862344498
 20
767.7647272727
 30
0.0
 40
16.29605263157896
100
AcDbArc
 50
180.0
 51
224.8855067306
  0
LINE
  5
145
330
1F
100
AcDbEntity
  8
0
  6
Continuous
 62
     7
370
    25
100
AcDbLine
 10
84.5901818182
 20
848.7647272727
 30
0.0
 11
84.5901818182
 21
849.7647272727
 31
0.0
  0
LINE
  5
146
330
1F
100
AcDbEntity
  8
0
  6
Continuous
 62
     7
370
    25
100
AcDbLine
 10
53.5901818182
 20
849.7647272727
 30
0.0
 11
53.5901818182
 21
848.7647272727
 31
0.0
  0
ARC
  5
147
330
1F
100
AcDbEntity
  8
0
  6
Continuous
 62
     7
370
    25
100
AcDbCircle
 10
69.8862344498
 20
849.7647272727
 30
0.0
 40
16.29605263157902
100
AcDbArc
 50
135.1144932694
 51
180.0
  0
ARC
  5
148
330
1F
100
AcDbEntity
  8
0
  6
Continuous
 62
     7
370
    25
100
AcDbCircle
 10
68.2941291866
 20
849.7647272727
 30
0.0
 40
16.29605263157902
100
AcDbArc
 50
0.0
 51
44.8855067306
  0
LINE
  5
149
330
1F
100
AcDbEntity
  8
0
  6
Continuous
 62
     7
370
    25
100
AcDbLine
 10
941.5901818182
 20
-551.2352727273
 30
0.0
 11
941.5901818182
 21
-550.2352727273
 31
0.0
  0
LINE
  5
14A
330
1F
100
AcDbEntity
  8
0
  6
Continuous
 62
     7
370
    25
100
AcDbLine
 10
910.5901818182
 20
-550.2352727273
 30
0.0
 11
910.5901818182
 21
-551.2352727273
 31
0.0
  0
ARC
  5
14B
330
1F
100
AcDbEntity
  8
0
  6
Continuous
 62
     7
370
    25
100
AcDbCircle
 10
926.8862344498
 20
-550.2352727273
 30
0.0
 40
16.29605263157896
100
AcDbArc
 50
135.1144932694
 51
180.0
  0
ARC
  5
14C
330
1F
100
AcDbEntity
  8
0
  6
Continuous
 62
     7
370
    25
100
AcDbCircle
 10
925.2941291866
 20
-550.2352727273
 30
0.0
 40
16.29605263157896
100
AcDbArc
 50
0.0
 51
44.8855067306
  0
LINE
  5
14D
330
1F
100
AcDbEntity
  8
0
  6
Continuous
 62
     7
370
    25
100
AcDbLine
 10
-2597.9098181818
 20
824.2647272727
 30
0.0
 11
-2598.9098181818
 21
824.2647272727
 31
0.0
  0
LINE
  5
14E
330
1F
100
AcDbEntity
  8
0
  6
Continuous
 62
     7
370
    25
100
AcDbLine
 10
-2598.9098181818
 20
793.2647272727
 30
0.0
 11
-2597.9098181818
 21
793.2647272727
 31
0.0
  0
ARC
  5
14F
330
1F
100
AcDbEntity
  8
0
  6
Continuous
 62
     7
370
    25
100
AcDbCircle
 10
-2598.9098181818
 20
809.5607799043
 30
0.0
 40
16.29605263157903
100
AcDbArc
 50
225.1144932694
 51
270.0
  0
ARC
  5
150
330
1F
100
AcDbEntity
  8
0
  6
Continuous
 62
     7
370
    25
100
AcDbCircle
 10
-2598.9098181818
 20
807.9686746411
 30
0.0
 40
16.29605263157903
100
AcDbArc
 50
90.0
 51
134.8855067306
  0
ARC
  5
151
330
1F
100
AcDbEntity
  8
0
  6
Continuous
 62
     7
370
    25
100
AcDbCircle
 10
68.2941291866
 20
-632.2352727273
 30
0.0
 40
16.29605263157897
100
AcDbArc
 50
315.1144932694
 51
0.0
  0
ARC
  5
152
330
1F
100
AcDbEntity
  8
0
  6
Continuous
 62
     7
370
    25
100
AcDbCircle
 10
69.8862344498
 20
-632.2352727273
 30
0.0
 40
16.29605263157897
100
AcDbArc
 50
180.0
 51
224.8855067306
  0
LINE
  5
153
330
1F
100
AcDbEntity
  8
0
  6
Continuous
 62
     7
370
    25
100
AcDbLine
 10
53.5901818182
 20
-631.2352727273
 30
0.0
 11
53.5901818182
 21
-632.2352727273
 31
0.0
  0
LINE
  5
154
330
1F
100
AcDbEntity
  8
0
  6
Continuous
 62
     7
370
    25
100
AcDbLine
 10
84.5901818182
 20
-632.2352727273
 30
0.0
 11
84.5901818182
 21
-631.2352727273
 31
0.0
  0
ARC
  5
155
330
1F
100
AcDbEntity
  8
0
  6
Continuous
 62
     7
370
    25
100
AcDbCircle
 10
-985.1137655502
 20
-550.2352727273
 30
0.0
 40
16.29605263157907
100
AcDbArc
 50
135.1144932694
 51
180.0
  0
ARC
  5
156
330
1F
100
AcDbEntity
  8
0
  6
Continuous
 62
     7
370
    25
100
AcDbCircle
 10
-986.7058708134
 20
-550.2352727273
 30
0.0
 40
16.29605263157896
100
AcDbArc
 50
0.0
 51
44.8855067306
  0
LINE
  5
157
330
1F
100
AcDbEntity
  8
0
  6
Continuous
 62
     7
370
    25
100
AcDbLine
 10
-970.4098181818
 20
-551.2352727273
 30
0.0
 11
-970.4098181818
 21
-550.2352727273
 31
0.0
  0
LINE
  5
158
330
1F
100
AcDbEntity
  8
0
  6
Continuous
 62
     7
370
    25
100
AcDbLine
 10
-1001.4098181818
 20
-550.2352727273
 30
0.0
 11
-1001.4098181818
 21
-551.2352727273
 31
0.0
  0
ARC
  5
159
330
1F
100
AcDbEntity
  8
0
  6
Continuous
 62
     7
370
    25
100
AcDbCircle
 10
-1157.1137655502
 20
-550.2352727273
 30
0.0
 40
16.29605263157873
100
AcDbArc
 50
135.1144932694
 51
180.0
  0
ARC
  5
15A
330
1F
100
AcDbEntity
  8
0
  6
Continuous
 62
     7
370
    25
100
AcDbCircle
 10
-1158.7058708134
 20
-550.2352727273
 30
0.0
 40
16.29605263157873
100
AcDbArc
 50
0.0
 51
44.8855067306
  0
LINE
  5
15B
330
1F
100
AcDbEntity
  8
0
  6
Continuous
 62
     7
370
    25
100
AcDbLine
 10
-1142.4098181818
 20
-551.2352727273
 30
0.0
 11
-1142.4098181818
 21
-550.2352727273
 31
0.0
  0
LINE
  5
15C
330
1F
100
AcDbEntity
  8
0
  6
Continuous
 62
     7
370
    25
100
AcDbLine
 10
-1173.4098181818
 20
-550.2352727273
 30
0.0
 11
-1173.4098181818
 21
-551.2352727273
 31
0.0
  0
LINE
  5
15D
330
1F
100
AcDbEntity
  8
0
  6
Continuous
 62
     7
370
    25
100
AcDbLine
 10
769.5901818182
 20
-551.2352727273
 30
0.0
 11
769.5901818182
 21
-550.2352727273
 31
0.0
  0
LINE
  5
15E
330
1F
100
AcDbEntity
  8
0
  6
Continuous
 62
     7
370
    25
100
AcDbLine
 10
738.5901818182
 20
-550.2352727273
 30
0.0
 11
738.5901818182
 21
-551.2352727273
 31
0.0
  0
ARC
  5
15F
330
1F
100
AcDbEntity
  8
0
  6
Continuous
 62
     7
370
    25
100
AcDbCircle
 10
754.8862344498
 20
-550.2352727273
 30
0.0
 40
16.29605263157896
100
AcDbArc
 50
135.1144932694
 51
180.0
  0
ARC
  5
160
330
1F
100
AcDbEntity
  8
0
  6
Continuous
 62
     7
370
    25
100
AcDbCircle
 10
753.2941291866
 20
-550.2352727273
 30
0.0
 40
16.29605263157896
100
AcDbArc
 50
0.0
 51
44.8855067306
  0
ARC
  5
161
330
1F
100
AcDbEntity
  8
0
  6
Continuous
 62
     7
370
    25
100
AcDbCircle
 10
-1075.1137655502
 20
-550.2352727273
 30
0.0
 40
16.29605263157873
100
AcDbArc
 50
135.1144932694
 51
180.0
  0
ARC
  5
162
330
1F
100
AcDbEntity
  8
0
  6
Continuous
 62
     7
370
    25
100
AcDbCircle
 10
-1076.7058708134
 20
-550.2352727273
 30
0.0
 40
16.29605263157873
100
AcDbArc
 50
0.0
 51
44.8855067306
  0
LINE
  5
163
330
1F
100
AcDbEntity
  8
0
  6
Continuous
 62
     7
370
    25
100
AcDbLine
 10
-1060.4098181818
 20
-551.2352727273
 30
0.0
 11
-1060.4098181818
 21
-550.2352727273
 31
0.0
  0
LINE
  5
164
330
1F
100
AcDbEntity
  8
0
  6
Continuous
 62
     7
370
    25
100
AcDbLine
 10
-1091.4098181818
 20
-550.2352727273
 30
0.0
 11
-1091.4098181818
 21
-551.2352727273
 31
0.0
  0
LINE
  5
165
330
1F
100
AcDbEntity
  8
0
  6
Continuous
 62
     7
370
    25
100
AcDbLine
 10
859.5901818182
 20
-551.2352727273
 30
0.0
 11
859.5901818182
 21
-550.2352727273
 31
0.0
  0
LINE
  5
166
330
1F
100
AcDbEntity
  8
0
  6
Continuous
 62
     7
370
    25
100
AcDbLine
 10
828.5901818182
 20
-550.2352727273
 30
0.0
 11
828.5901818182
 21
-551.2352727273
 31
0.0
  0
ARC
  5
167
330
1F
100
AcDbEntity
  8
0
  6
Continuous
 62
     7
370
    25
100
AcDbCircle
 10
844.8862344498
 20
-550.2352727273
 30
0.0
 40
16.29605263157896
100
AcDbArc
 50
135.1144932694
 51
180.0
  0
ARC
  5
168
330
1F
100
AcDbEntity
  8
0
  6
Continuous
 62
     7
370
    25
100
AcDbCircle
 10
843.2941291866
 20
-550.2352727273
 30
0.0
 40
16.29605263157896
100
AcDbArc
 50
0.0
 51
44.8855067306
  0
ARC
  5
169
330
1F
100
AcDbEntity
  8
0
  6
Continuous
 62
     7
370
    25
100
AcDbCircle
 10
-2598.9098181818
 20
109.5607799043
 30
0.0
 40
16.29605263157895
100
AcDbArc
 50
225.1144932694
 51
270.0
  0
ARC
  5
16A
330
1F
100
AcDbEntity
  8
0
  6
Continuous
 62
     7
370
    25
100
AcDbCircle
 10
-2598.9098181818
 20
107.9686746412
 30
0.0
 40
16.29605263157895
100
AcDbArc
 50
90.0
 51
134.8855067306
  0
LINE
  5
16B
330
1F
100
AcDbEntity
  8
0
  6
Continuous
 62
     7
370
    25
100
AcDbLine
 10
-2597.9098181818
 20
124.2647272727
 30
0.0
 11
-2598.9098181818
 21
124.2647272727
 31
0.0
  0
LINE
  5
16C
330
1F
100
AcDbEntity
  8
0
  6
Continuous
 62
     7
370
    25
100
AcDbLine
 10
-2598.9098181818
 20
93.2647272727
 30
0.0
 11
-2597.9098181818
 21
93.2647272727
 31
0.0
  0
ARC
  5
16D
330
1F
100
AcDbEntity
  8
0
  6
Continuous
 62
     7
370
    25
100
AcDbCircle
 10
-986.7058708134
 20
767.7647272727
 30
0.0
 40
16.29605263157896
100
AcDbArc
 50
315.1144932694
 51
0.0
  0
ARC
  5
16E
330
1F
100
AcDbEntity
  8
0
  6
Continuous
 62
     7
370
    25
100
AcDbCircle
 10
-985.1137655502
 20
767.7647272727
 30
0.0
 40
16.29605263157907
100
AcDbArc
 50
180.0
 51
224.8855067306
  0
LINE
  5
16F
330
1F
100
AcDbEntity
  8
0
  6
Continuous
 62
     7
370
    25
100
AcDbLine
 10
-1001.4098181818
 20
768.7647272727
 30
0.0
 11
-1001.4098181818
 21
767.7647272727
 31
0.0
  0
LINE
  5
170
330
1F
100
AcDbEntity
  8
0
  6
Continuous
 62
     7
370
    25
100
AcDbLine
 10
-970.4098181818
 20
767.7647272727
 30
0.0
 11
-970.4098181818
 21
768.7647272727
 31
0.0
  0
ARC
  5
171
330
1F
100
AcDbEntity
  8
0
  6
Continuous
 62
     7
370
    25
100
AcDbCircle
 10
-531.7058708134
 20
-632.2352727273
 30
0.0
 40
16.29605263157896
100
AcDbArc
 50
315.1144932694
 51
0.0
  0
ARC
  5
172
330
1F
100
AcDbEntity
  8
0
  6
Continuous
 62
     7
370
    25
100
AcDbCircle
 10
-530.1137655502
 20
-632.2352727273
 30
0.0
 40
16.29605263157896
100
AcDbArc
 50
180.0
 51
224.8855067306
  0
LINE
  5
173
330
1F
100
AcDbEntity
  8
0
  6
Continuous
 62
     7
370
    25
100
AcDbLine
 10
-546.4098181818
 20
-631.2352727273
 30
0.0
 11
-546.4098181818
 21
-632.2352727273
 31
0.0
  0
LINE
  5
174
330
1F
100
AcDbEntity
  8
0
  6
Continuous
 62
     7
370
    25
100
AcDbLine
 10
-515.4098181818
 20
-632.2352727273
 30
0.0
 11
-515.4098181818
 21
-631.2352727273
 31
0.0
  0
LINE
  5
175
330
1F
100
AcDbEntity
  8
0
  6
Continuous
 62
     7
370
    25
100
AcDbLine
 10
2366.0901818182
 20
-606.7352727272
 30
0.0
 11
2367.0901818182
 21
-606.7352727272
 31
0.0
  0
LINE
  5
176
330
1F
100
AcDbEntity
  8
0
  6
Continuous
 62
     7
370
    25
100
AcDbLine
 10
2367.0901818182
 20
-575.7352727272
 30
0.0
 11
2366.0901818182
 21
-575.7352727272
 31
0.0
  0
ARC
  5
177
330
1F
100
AcDbEntity
  8
0
  6
Continuous
 62
     7
370
    25
100
AcDbCircle
 10
2367.0901818182
 20
-592.0313253588
 30
0.0
 40
16.29605263157903
100
AcDbArc
 50
45.1144932694
 51
90.0
  0
ARC
  5
178
330
1F
100
AcDbEntity
  8
0
  6
Continuous
 62
     7
370
    25
100
AcDbCircle
 10
2367.0901818182
 20
-590.4392200957
 30
0.0
 40
16.29605263157903
100
AcDbArc
 50
270.0
 51
314.8855067306
  0
LINE
  5
179
330
1F
100
AcDbEntity
  8
0
  6
Continuous
 62
     7
370
    25
100
AcDbLine
 10
-1091.4098181818
 20
768.7647272727
 30
0.0
 11
-1091.4098181818
 21
767.7647272727
 31
0.0
  0
LINE
  5
17A
330
1F
100
AcDbEntity
  8
0
  6
Continuous
 62
     7
370
    25
100
AcDbLine
 10
-1060.4098181818
 20
767.7647272727
 30
0.0
 11
-1060.4098181818
 21
768.7647272727
 31
0.0
  0
ARC
  5
17B
330
1F
100
AcDbEntity
  8
0
  6
Continuous
 62
     7
370
    25
100
AcDbCircle
 10
-1076.7058708134
 20
767.7647272727
 30
0.0
 40
16.29605263157873
100
AcDbArc
 50
315.1144932694
 51
0.0
  0
ARC
  5
17C
330
1F
100
AcDbEntity
  8
0
  6
Continuous
 62
     7
370
    25
100
AcDbCircle
 10
-1075.1137655502
 20
767.7647272727
 30
0.0
 40
16.29605263157873
100
AcDbArc
 50
180.0
 51
224.8855067306
  0
ARC
  5
17D
330
1F
100
AcDbEntity
  8
0
  6
Continuous
 62
     7
370
    25
100
AcDbCircle
 10
658.9401818182
 20
-644.3204227462
 30
0.0
 40
0.6000000000000227
100
AcDbArc
 50
180.0
 51
249.724946748
  0
ARC
  5
17E
330
1F
100
AcDbEntity
  8
0
  6
Continuous
 62
     7
370
    25
100
AcDbCircle
 10
679.2401818182
 20
-644.3204227462
 30
0.0
 40
0.6000000000000784
100
AcDbArc
 50
290.275053252
 51
0.0
  0
LINE
  5
17F
330
1F
100
AcDbEntity
  8
0
  6
Continuous
 62
     7
370
    25
100
AcDbLine
 10
658.3401818182
 20
-643.7352727273
 30
0.0
 11
658.3401818182
 21
-644.3204227462
 31
0.0
  0
LINE
  5
180
330
1F
100
AcDbEntity
  8
0
  6
Continuous
 62
     7
370
    25
100
AcDbLine
 10
679.8401818182
 20
-644.3204227462
 30
0.0
 11
679.8401818182
 21
-643.7352727273
 31
0.0
  0
ARC
  5
181
330
1F
100
AcDbEntity
  8
0
  6
Continuous
 62
     7
370
    25
100
AcDbCircle
 10
669.0901818182
 20
-616.8446477273
 30
0.0
 40
29.89062500000002
100
AcDbArc
 50
249.724946748
 51
290.275053252
  0
LINE
  5
182
330
1F
100
AcDbEntity
  8
0
  6
Continuous
 62
     7
370
    25
100
AcDbLine
 10
-1168.6598181818
 20
756.2647272727
 30
0.0
 11
-1168.6598181818
 21
755.6795772538
 31
0.0
  0
LINE
  5
183
330
1F
100
AcDbEntity
  8
0
  6
Continuous
 62
     7
370
    25
100
AcDbLine
 10
-1147.1598181818
 20
755.6795772538
 30
0.0
 11
-1147.1598181818
 21
756.2647272727
 31
0.0
  0
ARC
  5
184
330
1F
100
AcDbEntity
  8
0
  6
Continuous
 62
     7
370
    25
100
AcDbCircle
 10
-1168.0598181818
 20
755.6795772538
 30
0.0
 40
0.6000000000001293
100
AcDbArc
 50
180.0
 51
249.7249467479
  0
ARC
  5
185
330
1F
100
AcDbEntity
  8
0
  6
Continuous
 62
     7
370
    25
100
AcDbCircle
 10
-1147.7598181818
 20
755.6795772538
 30
0.0
 40
0.6000000000000505
100
AcDbArc
 50
290.275053252
 51
0.0
  0
ARC
  5
186
330
1F
100
AcDbEntity
  8
0
  6
Continuous
 62
     7
370
    25
100
AcDbCircle
 10
-1157.9098181818
 20
783.1553522727
 30
0.0
 40
29.890625
100
AcDbArc
 50
249.724946748
 51
290.275053252
  0
LINE
  5
187
330
1F
100
AcDbEntity
  8
0
  6
Continuous
 62
     7
370
    25
100
AcDbLine
 10
-1086.6598181818
 20
756.2647272727
 30
0.0
 11
-1086.6598181818
 21
755.6795772538
 31
0.0
  0
LINE
  5
188
330
1F
100
AcDbEntity
  8
0
  6
Continuous
 62
     7
370
    25
100
AcDbLine
 10
-1065.1598181818
 20
755.6795772538
 30
0.0
 11
-1065.1598181818
 21
756.2647272727
 31
0.0
  0
ARC
  5
189
330
1F
100
AcDbEntity
  8
0
  6
Continuous
 62
     7
370
    25
100
AcDbCircle
 10
-1086.0598181818
 20
755.6795772538
 30
0.0
 40
0.6000000000000505
100
AcDbArc
 50
180.0
 51
249.724946748
  0
ARC
  5
18A
330
1F
100
AcDbEntity
  8
0
  6
Continuous
 62
     7
370
    25
100
AcDbCircle
 10
-1065.7598181818
 20
755.6795772538
 30
0.0
 40
0.6000000000000505
100
AcDbArc
 50
290.275053252
 51
0.0
  0
ARC
  5
18B
330
1F
100
AcDbEntity
  8
0
  6
Continuous
 62
     7
370
    25
100
AcDbCircle
 10
-1075.9098181818
 20
783.1553522727
 30
0.0
 40
29.89062499999992
100
AcDbArc
 50
249.724946748
 51
290.275053252
  0
LINE
  5
18C
330
1F
100
AcDbEntity
  8
0
  6
Continuous
 62
     7
370
    25
100
AcDbLine
 10
2378.5901818182
 20
-601.9852727272
 30
0.0
 11
2379.1753318371
 21
-601.9852727272
 31
0.0
  0
LINE
  5
18D
330
1F
100
AcDbEntity
  8
0
  6
Continuous
 62
     7
370
    25
100
AcDbLine
 10
2379.1753318371
 20
-580.4852727272
 30
0.0
 11
2378.5901818182
 21
-580.4852727272
 31
0.0
  0
ARC
  5
18E
330
1F
100
AcDbEntity
  8
0
  6
Continuous
 62
     7
370
    25
100
AcDbCircle
 10
2379.1753318371
 20
-601.3852727272
 30
0.0
 40
0.600000000000331
100
AcDbArc
 50
270.0
 51
339.724946748
  0
ARC
  5
18F
330
1F
100
AcDbEntity
  8
0
  6
Continuous
 62
     7
370
    25
100
AcDbCircle
 10
2379.1753318371
 20
-581.0852727272
 30
0.0
 40
0.600000000000331
100
AcDbArc
 50
20.275053252
 51
90.0
  0
ARC
  5
190
330
1F
100
AcDbEntity
  8
0
  6
Continuous
 62
     7
370
    25
100
AcDbCircle
 10
2351.6995568182
 20
-591.2352727272
 30
0.0
 40
29.89062500000017
100
AcDbArc
 50
339.724946748
 51
20.275053252
  0
ARC
  5
191
330
1F
100
AcDbEntity
  8
0
  6
Continuous
 62
     7
370
    25
100
AcDbCircle
 10
-996.0598181818
 20
755.6795772538
 30
0.0
 40
0.6000000000000227
100
AcDbArc
 50
180.0
 51
249.724946748
  0
ARC
  5
192
330
1F
100
AcDbEntity
  8
0
  6
Continuous
 62
     7
370
    25
100
AcDbCircle
 10
-975.7598181818
 20
755.6795772538
 30
0.0
 40
0.6000000000000112
100
AcDbArc
 50
290.275053252
 51
0.0
  0
LINE
  5
193
330
1F
100
AcDbEntity
  8
0
  6
Continuous
 62
     7
370
    25
100
AcDbLine
 10
-996.6598181818
 20
756.2647272727
 30
0.0
 11
-996.6598181818
 21
755.6795772538
 31
0.0
  0
LINE
  5
194
330
1F
100
AcDbEntity
  8
0
  6
Continuous
 62
     7
370
    25
100
AcDbLine
 10
-975.1598181818
 20
755.6795772538
 30
0.0
 11
-975.1598181818
 21
756.2647272727
 31
0.0
  0
ARC
  5
195
330
1F
100
AcDbEntity
  8
0
  6
Continuous
 62
     7
370
    25
100
AcDbCircle
 10
-985.9098181818
 20
783.1553522727
 30
0.0
 40
29.89062499999996
100
AcDbArc
 50
249.724946748
 51
290.275053252
  0
LINE
  5
196
330
1F
100
AcDbEntity
  8
0
  6
Continuous
 62
     7
370
    25
100
AcDbLine
 10
-541.6598181818
 20
-643.7352727273
 30
0.0
 11
-541.6598181818
 21
-644.3204227462
 31
0.0
  0
LINE
  5
197
330
1F
100
AcDbEntity
  8
0
  6
Continuous
 62
     7
370
    25
100
AcDbLine
 10
-520.1598181818
 20
-644.3204227462
 30
0.0
 11
-520.1598181818
 21
-643.7352727273
 31
0.0
  0
ARC
  5
198
330
1F
100
AcDbEntity
  8
0
  6
Continuous
 62
     7
370
    25
100
AcDbCircle
 10
-541.0598181818
 20
-644.3204227462
 30
0.0
 40
0.6000000000000227
100
AcDbArc
 50
180.0
 51
249.724946748
  0
ARC
  5
199
330
1F
100
AcDbEntity
  8
0
  6
Continuous
 62
     7
370
    25
100
AcDbCircle
 10
-520.7598181818
 20
-644.3204227462
 30
0.0
 40
0.6000000000001966
100
AcDbArc
 50
290.2750532521
 51
0.0
  0
ARC
  5
19A
330
1F
100
AcDbEntity
  8
0
  6
Continuous
 62
     7
370
    25
100
AcDbCircle
 10
-530.9098181818
 20
-616.8446477273
 30
0.0
 40
29.89062500000007
100
AcDbArc
 50
249.724946748
 51
290.275053252
  0
ARC
  5
19B
330
1F
100
AcDbEntity
  8
0
  6
Continuous
 62
     7
370
    25
100
AcDbCircle
 10
-2610.9949682007
 20
118.9147272727
 30
0.0
 40
0.5999999999999801
100
AcDbArc
 50
90.0
 51
159.724946748
  0
ARC
  5
19C
330
1F
100
AcDbEntity
  8
0
  6
Continuous
 62
     7
370
    25
100
AcDbCircle
 10
-2610.9949682007
 20
98.6147272727
 30
0.0
 40
0.6000000000000085
100
AcDbArc
 50
200.275053252
 51
270.0
  0
LINE
  5
19D
330
1F
100
AcDbEntity
  8
0
  6
Continuous
 62
     7
370
    25
100
AcDbLine
 10
-2610.4098181818
 20
119.5147272727
 30
0.0
 11
-2610.9949682007
 21
119.5147272727
 31
0.0
  0
LINE
  5
19E
330
1F
100
AcDbEntity
  8
0
  6
Continuous
 62
     7
370
    25
100
AcDbLine
 10
-2610.9949682007
 20
98.0147272727
 30
0.0
 11
-2610.4098181818
 21
98.0147272727
 31
0.0
  0
ARC
  5
19F
330
1F
100
AcDbEntity
  8
0
  6
Continuous
 62
     7
370
    25
100
AcDbCircle
 10
-2583.5191931818
 20
108.7647272727
 30
0.0
 40
29.89062500000015
100
AcDbArc
 50
159.724946748
 51
200.275053252
  0
LINE
  5
1A0
330
1F
100
AcDbEntity
  8
0
  6
Continuous
 62
     7
370
    25
100
AcDbLine
 10
-1065.1598181818
 20
-538.7352727273
 30
0.0
 11
-1065.1598181818
 21
-538.1501227083
 31
0.0
  0
LINE
  5
1A1
330
1F
100
AcDbEntity
  8
0
  6
Continuous
 62
     7
370
    25
100
AcDbLine
 10
-1086.6598181818
 20
-538.1501227083
 30
0.0
 11
-1086.6598181818
 21
-538.7352727273
 31
0.0
  0
ARC
  5
1A2
330
1F
100
AcDbEntity
  8
0
  6
Continuous
 62
     7
370
    25
100
AcDbCircle
 10
-1065.7598181818
 20
-538.1501227083
 30
0.0
 40
0.6000000000001293
100
AcDbArc
 50
0.0
 51
69.7249467479
  0
ARC
  5
1A3
330
1F
100
AcDbEntity
  8
0
  6
Continuous
 62
     7
370
    25
100
AcDbCircle
 10
-1086.0598181818
 20
-538.1501227083
 30
0.0
 40
0.6000000000000505
100
AcDbArc
 50
110.275053252
 51
180.0
  0
ARC
  5
1A4
330
1F
100
AcDbEntity
  8
0
  6
Continuous
 62
     7
370
    25
100
AcDbCircle
 10
-1075.9098181818
 20
-565.6258977273
 30
0.0
 40
29.890625
100
AcDbArc
 50
69.724946748
 51
110.275053252
  0
LINE
  5
1A5
330
1F
100
AcDbEntity
  8
0
  6
Continuous
 62
     7
370
    25
100
AcDbLine
 10
854.8401818182
 20
-538.7352727273
 30
0.0
 11
854.8401818182
 21
-538.1501227083
 31
0.0
  0
LINE
  5
1A6
330
1F
100
AcDbEntity
  8
0
  6
Continuous
 62
     7
370
    25
100
AcDbLine
 10
833.3401818182
 20
-538.1501227083
 30
0.0
 11
833.3401818182
 21
-538.7352727273
 31
0.0
  0
ARC
  5
1A7
330
1F
100
AcDbEntity
  8
0
  6
Continuous
 62
     7
370
    25
100
AcDbCircle
 10
854.2401818182
 20
-538.1501227083
 30
0.0
 40
0.6000000000000227
100
AcDbArc
 50
0.0
 51
69.724946748
  0
ARC
  5
1A8
330
1F
100
AcDbEntity
  8
0
  6
Continuous
 62
     7
370
    25
100
AcDbCircle
 10
833.9401818182
 20
-538.1501227083
 30
0.0
 40
0.5999999999999718
100
AcDbArc
 50
110.275053252
 51
180.0
  0
ARC
  5
1A9
330
1F
100
AcDbEntity
  8
0
  6
Continuous
 62
     7
370
    25
100
AcDbCircle
 10
844.0901818182
 20
-565.6258977273
 30
0.0
 40
29.89062499999992
100
AcDbArc
 50
69.724946748
 51
110.275053252
  0
LINE
  5
1AA
330
1F
100
AcDbEntity
  8
0
  6
Continuous
 62
     7
370
    25
100
AcDbLine
 10
-1147.1598181818
 20
-538.7352727273
 30
0.0
 11
-1147.1598181818
 21
-538.1501227083
 31
0.0
  0
LINE
  5
1AB
330
1F
100
AcDbEntity
  8
0
  6
Continuous
 62
     7
370
    25
100
AcDbLine
 10
-1168.6598181818
 20
-538.1501227083
 30
0.0
 11
-1168.6598181818
 21
-538.7352727273
 31
0.0
  0
ARC
  5
1AC
330
1F
100
AcDbEntity
  8
0
  6
Continuous
 62
     7
370
    25
100
AcDbCircle
 10
-1147.7598181818
 20
-538.1501227083
 30
0.0
 40
0.6000000000000505
100
AcDbArc
 50
0.0
 51
69.724946748
  0
ARC
  5
1AD
330
1F
100
AcDbEntity
  8
0
  6
Continuous
 62
     7
370
    25
100
AcDbCircle
 10
-1168.0598181818
 20
-538.1501227083
 30
0.0
 40
0.6000000000001293
100
AcDbArc
 50
110.2750532521
 51
180.0
  0
ARC
  5
1AE
330
1F
100
AcDbEntity
  8
0
  6
Continuous
 62
     7
370
    25
100
AcDbCircle
 10
-1157.9098181818
 20
-565.6258977273
 30
0.0
 40
29.890625
100
AcDbArc
 50
69.724946748
 51
110.275053252
  0
LINE
  5
1AF
330
1F
100
AcDbEntity
  8
0
  6
Continuous
 62
     7
370
    25
100
AcDbLine
 10
764.8401818182
 20
-538.7352727273
 30
0.0
 11
764.8401818182
 21
-538.1501227083
 31
0.0
  0
LINE
  5
1B0
330
1F
100
AcDbEntity
  8
0
  6
Continuous
 62
     7
370
    25
100
AcDbLine
 10
743.3401818182
 20
-538.1501227083
 30
0.0
 11
743.3401818182
 21
-538.7352727273
 31
0.0
  0
ARC
  5
1B1
330
1F
100
AcDbEntity
  8
0
  6
Continuous
 62
     7
370
    25
100
AcDbCircle
 10
764.2401818182
 20
-538.1501227083
 30
0.0
 40
0.5999999999999718
100
AcDbArc
 50
0.0
 51
69.724946748
  0
ARC
  5
1B2
330
1F
100
AcDbEntity
  8
0
  6
Continuous
 62
     7
370
    25
100
AcDbCircle
 10
743.9401818182
 20
-538.1501227083
 30
0.0
 40
0.6000000000000227
100
AcDbArc
 50
110.275053252
 51
180.0
  0
ARC
  5
1B3
330
1F
100
AcDbEntity
  8
0
  6
Continuous
 62
     7
370
    25
100
AcDbCircle
 10
754.0901818182
 20
-565.6258977273
 30
0.0
 40
29.89062499999992
100
AcDbArc
 50
69.724946748
 51
110.275053252
  0
LINE
  5
1B4
330
1F
100
AcDbEntity
  8
0
  6
Continuous
 62
     7
370
    25
100
AcDbLine
 10
58.3401818182
 20
-643.7352727273
 30
0.0
 11
58.3401818182
 21
-644.3204227462
 31
0.0
  0
LINE
  5
1B5
330
1F
100
AcDbEntity
  8
0
  6
Continuous
 62
     7
370
    25
100
AcDbLine
 10
79.8401818182
 20
-644.3204227462
 30
0.0
 11
79.8401818182
 21
-643.7352727273
 31
0.0
  0
ARC
  5
1B6
330
1F
100
AcDbEntity
  8
0
  6
Continuous
 62
     7
370
    25
100
AcDbCircle
 10
58.9401818182
 20
-644.3204227462
 30
0.0
 40
0.600000000000044
100
AcDbArc
 50
180.0
 51
249.724946748
  0
ARC
  5
1B7
330
1F
100
AcDbEntity
  8
0
  6
Continuous
 62
     7
370
    25
100
AcDbCircle
 10
79.2401818182
 20
-644.3204227462
 30
0.0
 40
0.600000000000103
100
AcDbArc
 50
290.275053252
 51
0.0
  0
ARC
  5
1B8
330
1F
100
AcDbEntity
  8
0
  6
Continuous
 62
     7
370
    25
100
AcDbCircle
 10
69.0901818182
 20
-616.8446477273
 30
0.0
 40
29.89062500000002
100
AcDbArc
 50
249.724946748
 51
290.275053252
  0
ARC
  5
1B9
330
1F
100
AcDbEntity
  8
0
  6
Continuous
 62
     7
370
    25
100
AcDbCircle
 10
-975.7598181818
 20
-538.1501227083
 30
0.0
 40
0.6000000000000112
100
AcDbArc
 50
0.0
 51
69.724946748
  0
ARC
  5
1BA
330
1F
100
AcDbEntity
  8
0
  6
Continuous
 62
     7
370
    25
100
AcDbCircle
 10
-996.0598181818
 20
-538.1501227083
 30
0.0
 40
0.6000000000000112
100
AcDbArc
 50
110.275053252
 51
180.0
  0
LINE
  5
1BB
330
1F
100
AcDbEntity
  8
0
  6
Continuous
 62
     7
370
    25
100
AcDbLine
 10
-975.1598181818
 20
-538.7352727273
 30
0.0
 11
-975.1598181818
 21
-538.1501227083
 31
0.0
  0
LINE
  5
1BC
330
1F
100
AcDbEntity
  8
0
  6
Continuous
 62
     7
370
    25
100
AcDbLine
 10
-996.6598181818
 20
-538.1501227083
 30
0.0
 11
-996.6598181818
 21
-538.7352727273
 31
0.0
  0
ARC
  5
1BD
330
1F
100
AcDbEntity
  8
0
  6
Continuous
 62
     7
370
    25
100
AcDbCircle
 10
-985.9098181818
 20
-565.6258977273
 30
0.0
 40
29.89062499999996
100
AcDbArc
 50
69.724946748
 51
110.275053252
  0
LINE
  5
1BE
330
1F
100
AcDbEntity
  8
0
  6
Continuous
 62
     7
370
    25
100
AcDbLine
 10
-2610.4098181818
 20
819.5147272727
 30
0.0
 11
-2610.9949682007
 21
819.5147272727
 31
0.0
  0
LINE
  5
1BF
330
1F
100
AcDbEntity
  8
0
  6
Continuous
 62
     7
370
    25
100
AcDbLine
 10
-2610.9949682007
 20
798.0147272727
 30
0.0
 11
-2610.4098181818
 21
798.0147272727
 31
0.0
  0
ARC
  5
1C0
330
1F
100
AcDbEntity
  8
0
  6
Continuous
 62
     7
370
    25
100
AcDbCircle
 10
-2610.9949682007
 20
818.9147272727
 30
0.0
 40
0.6000000000000227
100
AcDbArc
 50
90.0
 51
159.724946748
  0
ARC
  5
1C1
330
1F
100
AcDbEntity
  8
0
  6
Continuous
 62
     7
370
    25
100
AcDbCircle
 10
-2610.9949682007
 20
798.6147272727
 30
0.0
 40
0.6000000000001364
100
AcDbArc
 50
200.275053252
 51
270.0
  0
ARC
  5
1C2
330
1F
100
AcDbEntity
  8
0
  6
Continuous
 62
     7
370
    25
100
AcDbCircle
 10
-2583.5191931818
 20
808.7647272727
 30
0.0
 40
29.89062500000017
100
AcDbArc
 50
159.724946748
 51
200.275053252
  0
LINE
  5
1C3
330
1F
100
AcDbEntity
  8
0
  6
Continuous
 62
     7
370
    25
100
AcDbLine
 10
79.8401818182
 20
861.2647272727
 30
0.0
 11
79.8401818182
 21
861.8498772917
 31
0.0
  0
LINE
  5
1C4
330
1F
100
AcDbEntity
  8
0
  6
Continuous
 62
     7
370
    25
100
AcDbLine
 10
58.3401818182
 20
861.8498772917
 30
0.0
 11
58.3401818182
 21
861.2647272727
 31
0.0
  0
ARC
  5
1C5
330
1F
100
AcDbEntity
  8
0
  6
Continuous
 62
     7
370
    25
100
AcDbCircle
 10
79.2401818182
 20
861.8498772917
 30
0.0
 40
0.600000000000037
100
AcDbArc
 50
0.0
 51
69.724946748
  0
ARC
  5
1C6
330
1F
100
AcDbEntity
  8
0
  6
Continuous
 62
     7
370
    25
100
AcDbCircle
 10
58.9401818182
 20
861.8498772917
 30
0.0
 40
0.600000000000044
100
AcDbArc
 50
110.275053252
 51
180.0
  0
ARC
  5
1C7
330
1F
100
AcDbEntity
  8
0
  6
Continuous
 62
     7
370
    25
100
AcDbCircle
 10
69.0901818182
 20
834.3741022727
 30
0.0
 40
29.89062500000002
100
AcDbArc
 50
69.724946748
 51
110.275053252
  0
LINE
  5
1C8
330
1F
100
AcDbEntity
  8
0
  6
Continuous
 62
     7
370
    25
100
AcDbLine
 10
936.8401818182
 20
-538.7352727273
 30
0.0
 11
936.8401818182
 21
-538.1501227083
 31
0.0
  0
LINE
  5
1C9
330
1F
100
AcDbEntity
  8
0
  6
Continuous
 62
     7
370
    25
100
AcDbLine
 10
915.3401818182
 20
-538.1501227083
 30
0.0
 11
915.3401818182
 21
-538.7352727273
 31
0.0
  0
ARC
  5
1CA
330
1F
100
AcDbEntity
  8
0
  6
Continuous
 62
     7
370
    25
100
AcDbCircle
 10
936.2401818182
 20
-538.1501227083
 30
0.0
 40
0.6000000000000505
100
AcDbArc
 50
0.0
 51
69.724946748
  0
ARC
  5
1CB
330
1F
100
AcDbEntity
  8
0
  6
Continuous
 62
     7
370
    25
100
AcDbCircle
 10
915.9401818182
 20
-538.1501227083
 30
0.0
 40
0.6000000000000505
100
AcDbArc
 50
110.275053252
 51
180.0
  0
ARC
  5
1CC
330
1F
100
AcDbEntity
  8
0
  6
Continuous
 62
     7
370
    25
100
AcDbCircle
 10
926.0901818182
 20
-565.6258977273
 30
0.0
 40
29.89062499999992
100
AcDbArc
 50
69.724946748
 51
110.275053252
  0
ARC
  5
1CD
330
1F
100
AcDbEntity
  8
0
  6
Continuous
 62
     7
370
    25
100
AcDbCircle
 10
743.9401818182
 20
755.6795772538
 30
0.0
 40
0.6000000000000227
100
AcDbArc
 50
180.0
 51
249.724946748
  0
ARC
  5
1CE
330
1F
100
AcDbEntity
  8
0
  6
Continuous
 62
     7
370
    25
100
AcDbCircle
 10
764.2401818182
 20
755.6795772538
 30
0.0
 40
0.5999999999999718
100
AcDbArc
 50
290.275053252
 51
0.0
  0
LINE
  5
1CF
330
1F
100
AcDbEntity
  8
0
  6
Continuous
 62
     7
370
    25
100
AcDbLine
 10
743.3401818182
 20
756.2647272727
 30
0.0
 11
743.3401818182
 21
755.6795772538
 31
0.0
  0
LINE
  5
1D0
330
1F
100
AcDbEntity
  8
0
  6
Continuous
 62
     7
370
    25
100
AcDbLine
 10
764.8401818182
 20
755.6795772538
 30
0.0
 11
764.8401818182
 21
756.2647272727
 31
0.0
  0
ARC
  5
1D1
330
1F
100
AcDbEntity
  8
0
  6
Continuous
 62
     7
370
    25
100
AcDbCircle
 10
754.0901818182
 20
783.1553522727
 30
0.0
 40
29.89062499999992
100
AcDbArc
 50
249.724946748
 51
290.275053252
  0
LINE
  5
1D2
330
1F
100
AcDbEntity
  8
0
  6
Continuous
 62
     7
370
    25
100
AcDbLine
 10
-520.1598181818
 20
861.2647272727
 30
0.0
 11
-520.1598181818
 21
861.8498772917
 31
0.0
  0
LINE
  5
1D3
330
1F
100
AcDbEntity
  8
0
  6
Continuous
 62
     7
370
    25
100
AcDbLine
 10
-541.6598181818
 20
861.8498772917
 30
0.0
 11
-541.6598181818
 21
861.2647272727
 31
0.0
  0
ARC
  5
1D4
330
1F
100
AcDbEntity
  8
0
  6
Continuous
 62
     7
370
    25
100
AcDbCircle
 10
-520.7598181818
 20
861.8498772917
 30
0.0
 40
0.6000000000001966
100
AcDbArc
 50
0.0
 51
69.7249467479
  0
ARC
  5
1D5
330
1F
100
AcDbEntity
  8
0
  6
Continuous
 62
     7
370
    25
100
AcDbCircle
 10
-541.0598181818
 20
861.8498772917
 30
0.0
 40
0.6000000000000227
100
AcDbArc
 50
110.275053252
 51
180.0
  0
ARC
  5
1D6
330
1F
100
AcDbEntity
  8
0
  6
Continuous
 62
     7
370
    25
100
AcDbCircle
 10
-530.9098181818
 20
834.3741022727
 30
0.0
 40
29.89062500000017
100
AcDbArc
 50
69.724946748
 51
110.275053252
  0
ARC
  5
1D7
330
1F
100
AcDbEntity
  8
0
  6
Continuous
 62
     7
370
    25
100
AcDbCircle
 10
833.9401818182
 20
755.6795772538
 30
0.0
 40
0.5999999999999718
100
AcDbArc
 50
180.0
 51
249.724946748
  0
ARC
  5
1D8
330
1F
100
AcDbEntity
  8
0
  6
Continuous
 62
     7
370
    25
100
AcDbCircle
 10
854.2401818182
 20
755.6795772538
 30
0.0
 40
0.6000000000000227
100
AcDbArc
 50
290.275053252
 51
0.0
  0
LINE
  5
1D9
330
1F
100
AcDbEntity
  8
0
  6
Continuous
 62
     7
370
    25
100
AcDbLine
 10
833.3401818182
 20
756.2647272727
 30
0.0
 11
833.3401818182
 21
755.6795772538
 31
0.0
  0
LINE
  5
1DA
330
1F
100
AcDbEntity
  8
0
  6
Continuous
 62
     7
370
    25
100
AcDbLine
 10
854.8401818182
 20
755.6795772538
 30
0.0
 11
854.8401818182
 21
756.2647272727
 31
0.0
  0
ARC
  5
1DB
330
1F
100
AcDbEntity
  8
0
  6
Continuous
 62
     7
370
    25
100
AcDbCircle
 10
844.0901818182
 20
783.1553522727
 30
0.0
 40
29.89062499999992
100
AcDbArc
 50
249.724946748
 51
290.275053252
  0
ARC
  5
1DC
330
1F
100
AcDbEntity
  8
0
  6
Continuous
 62
     7
370
    25
100
AcDbCircle
 10
-1104.8246681629
 20
98.6147272727
 30
0.0
 40
0.6000000000000085
100
AcDbArc
 50
270.0
 51
339.724946748
  0
ARC
  5
1DD
330
1F
100
AcDbEntity
  8
0
  6
Continuous
 62
     7
370
    25
100
AcDbCircle
 10
-1104.8246681629
 20
118.9147272727
 30
0.0
 40
0.5999999999999801
100
AcDbArc
 50
20.275053252
 51
90.0
  0
LINE
  5
1DE
330
1F
100
AcDbEntity
  8
0
  6
Continuous
 62
     7
370
    25
100
AcDbLine
 10
-1105.4098181818
 20
98.0147272727
 30
0.0
 11
-1104.8246681629
 21
98.0147272727
 31
0.0
  0
LINE
  5
1DF
330
1F
100
AcDbEntity
  8
0
  6
Continuous
 62
     7
370
    25
100
AcDbLine
 10
-1104.8246681629
 20
119.5147272727
 30
0.0
 11
-1105.4098181818
 21
119.5147272727
 31
0.0
  0
ARC
  5
1E0
330
1F
100
AcDbEntity
  8
0
  6
Continuous
 62
     7
370
    25
100
AcDbCircle
 10
-1132.3004431818
 20
108.7647272727
 30
0.0
 40
29.89062499999994
100
AcDbArc
 50
339.724946748
 51
20.275053252
  0
ARC
  5
1E1
330
1F
100
AcDbEntity
  8
0
  6
Continuous
 62
     7
370
    25
100
AcDbCircle
 10
915.9401818182
 20
755.6795772538
 30
0.0
 40
0.6000000000000505
100
AcDbArc
 50
180.0
 51
249.724946748
  0
ARC
  5
1E2
330
1F
100
AcDbEntity
  8
0
  6
Continuous
 62
     7
370
    25
100
AcDbCircle
 10
936.2401818182
 20
755.6795772538
 30
0.0
 40
0.6000000000000505
100
AcDbArc
 50
290.275053252
 51
0.0
  0
LINE
  5
1E3
330
1F
100
AcDbEntity
  8
0
  6
Continuous
 62
     7
370
    25
100
AcDbLine
 10
915.3401818182
 20
756.2647272727
 30
0.0
 11
915.3401818182
 21
755.6795772538
 31
0.0
  0
LINE
  5
1E4
330
1F
100
AcDbEntity
  8
0
  6
Continuous
 62
     7
370
    25
100
AcDbLine
 10
936.8401818182
 20
755.6795772538
 30
0.0
 11
936.8401818182
 21
756.2647272727
 31
0.0
  0
ARC
  5
1E5
330
1F
100
AcDbEntity
  8
0
  6
Continuous
 62
     7
370
    25
100
AcDbCircle
 10
926.0901818182
 20
783.1553522727
 30
0.0
 40
29.89062499999992
100
AcDbArc
 50
249.724946748
 51
290.275053252
  0
LINE
  5
1E6
330
1F
100
AcDbEntity
  8
0
  6
Continuous
 62
     7
370
    25
100
AcDbLine
 10
-311.6598181818
 20
-643.7352727273
 30
0.0
 11
-311.6598181818
 21
-644.3204227462
 31
0.0
  0
LINE
  5
1E7
330
1F
100
AcDbEntity
  8
0
  6
Continuous
 62
     7
370
    25
100
AcDbLine
 10
-290.1598181818
 20
-644.3204227462
 30
0.0
 11
-290.1598181818
 21
-643.7352727273
 31
0.0
  0
ARC
  5
1E8
330
1F
100
AcDbEntity
  8
0
  6
Continuous
 62
     7
370
    25
100
AcDbCircle
 10
-311.0598181818
 20
-644.3204227462
 30
0.0
 40
0.5999999999999914
100
AcDbArc
 50
180.0
 51
249.724946748
  0
ARC
  5
1E9
330
1F
100
AcDbEntity
  8
0
  6
Continuous
 62
     7
370
    25
100
AcDbCircle
 10
-290.7598181818
 20
-644.3204227462
 30
0.0
 40
0.5999999999999914
100
AcDbArc
 50
290.275053252
 51
0.0
  0
ARC
  5
1EA
330
1F
100
AcDbEntity
  8
0
  6
Continuous
 62
     7
370
    25
100
AcDbCircle
 10
-300.9098181818
 20
-616.8446477273
 30
0.0
 40
29.89062499999996
100
AcDbArc
 50
249.724946748
 51
290.275053252
  0
ARC
  5
1EB
330
1F
100
AcDbEntity
  8
0
  6
Continuous
 62
     7
370
    25
100
AcDbCircle
 10
-911.0598181818
 20
-644.3204227462
 30
0.0
 40
0.6000000000000112
100
AcDbArc
 50
180.0
 51
249.724946748
  0
ARC
  5
1EC
330
1F
100
AcDbEntity
  8
0
  6
Continuous
 62
     7
370
    25
100
AcDbCircle
 10
-890.7598181818
 20
-644.3204227462
 30
0.0
 40
0.6000000000000112
100
AcDbArc
 50
290.275053252
 51
0.0
  0
LINE
  5
1ED
330
1F
100
AcDbEntity
  8
0
  6
Continuous
 62
     7
370
    25
100
AcDbLine
 10
-911.6598181818
 20
-643.7352727273
 30
0.0
 11
-911.6598181818
 21
-644.3204227462
 31
0.0
  0
LINE
  5
1EE
330
1F
100
AcDbEntity
  8
0
  6
Continuous
 62
     7
370
    25
100
AcDbLine
 10
-890.1598181818
 20
-644.3204227462
 30
0.0
 11
-890.1598181818
 21
-643.7352727273
 31
0.0
  0
ARC
  5
1EF
330
1F
100
AcDbEntity
  8
0
  6
Continuous
 62
     7
370
    25
100
AcDbCircle
 10
-900.9098181818
 20
-616.8446477273
 30
0.0
 40
29.89062499999996
100
AcDbArc
 50
249.724946748
 51
290.275053252
  0
ARC
  5
1F0
330
1F
100
AcDbEntity
  8
0
  6
Continuous
 62
     7
370
    25
100
AcDbCircle
 10
2379.1753318371
 20
798.6147272727
 30
0.0
 40
0.6000000000001364
100
AcDbArc
 50
270.0
 51
339.724946748
  0
ARC
  5
1F1
330
1F
100
AcDbEntity
  8
0
  6
Continuous
 62
     7
370
    25
100
AcDbCircle
 10
2379.1753318371
 20
818.9147272727
 30
0.0
 40
0.6000000000000227
100
AcDbArc
 50
20.275053252
 51
90.0
  0
LINE
  5
1F2
330
1F
100
AcDbEntity
  8
0
  6
Continuous
 62
     7
370
    25
100
AcDbLine
 10
2378.5901818182
 20
798.0147272727
 30
0.0
 11
2379.1753318371
 21
798.0147272727
 31
0.0
  0
LINE
  5
1F3
330
1F
100
AcDbEntity
  8
0
  6
Continuous
 62
     7
370
    25
100
AcDbLine
 10
2379.1753318371
 20
819.5147272727
 30
0.0
 11
2378.5901818182
 21
819.5147272727
 31
0.0
  0
ARC
  5
1F4
330
1F
100
AcDbEntity
  8
0
  6
Continuous
 62
     7
370
    25
100
AcDbCircle
 10
2351.6995568182
 20
808.7647272727
 30
0.0
 40
29.89062499999975
100
AcDbArc
 50
339.724946748
 51
20.275053252
  0
ARC
  5
1F5
330
1F
100
AcDbEntity
  8
0
  6
Continuous
 62
     7
370
    25
100
AcDbCircle
 10
-890.7598181818
 20
861.8498772917
 30
0.0
 40
0.6000000000000112
100
AcDbArc
 50
0.0
 51
69.724946748
  0
ARC
  5
1F6
330
1F
100
AcDbEntity
  8
0
  6
Continuous
 62
     7
370
    25
100
AcDbCircle
 10
-911.0598181818
 20
861.8498772917
 30
0.0
 40
0.6000000000000112
100
AcDbArc
 50
110.275053252
 51
180.0
  0
LINE
  5
1F7
330
1F
100
AcDbEntity
  8
0
  6
Continuous
 62
     7
370
    25
100
AcDbLine
 10
-890.1598181818
 20
861.2647272727
 30
0.0
 11
-890.1598181818
 21
861.8498772917
 31
0.0
  0
LINE
  5
1F8
330
1F
100
AcDbEntity
  8
0
  6
Continuous
 62
     7
370
    25
100
AcDbLine
 10
-911.6598181818
 20
861.8498772917
 30
0.0
 11
-911.6598181818
 21
861.2647272727
 31
0.0
  0
ARC
  5
1F9
330
1F
100
AcDbEntity
  8
0
  6
Continuous
 62
     7
370
    25
100
AcDbCircle
 10
-900.9098181818
 20
834.3741022727
 30
0.0
 40
29.89062499999996
100
AcDbArc
 50
69.724946748
 51
110.275053252
  0
LINE
  5
1FA
330
1F
100
AcDbEntity
  8
0
  6
Continuous
 62
     7
370
    25
100
AcDbLine
 10
679.8401818182
 20
861.2647272727
 30
0.0
 11
679.8401818182
 21
861.8498772917
 31
0.0
  0
LINE
  5
1FB
330
1F
100
AcDbEntity
  8
0
  6
Continuous
 62
     7
370
    25
100
AcDbLine
 10
658.3401818182
 20
861.8498772917
 30
0.0
 11
658.3401818182
 21
861.2647272727
 31
0.0
  0
ARC
  5
1FC
330
1F
100
AcDbEntity
  8
0
  6
Continuous
 62
     7
370
    25
100
AcDbCircle
 10
679.2401818182
 20
861.8498772917
 30
0.0
 40
0.5999999999999718
100
AcDbArc
 50
0.0
 51
69.724946748
  0
ARC
  5
1FD
330
1F
100
AcDbEntity
  8
0
  6
Continuous
 62
     7
370
    25
100
AcDbCircle
 10
658.9401818182
 20
861.8498772917
 30
0.0
 40
0.6000000000000227
100
AcDbArc
 50
110.275053252
 51
180.0
  0
ARC
  5
1FE
330
1F
100
AcDbEntity
  8
0
  6
Continuous
 62
     7
370
    25
100
AcDbCircle
 10
669.0901818182
 20
834.3741022727
 30
0.0
 40
29.89062500000002
100
AcDbArc
 50
69.724946748
 51
110.275053252
  0
LINE
  5
1FF
330
1F
100
AcDbEntity
  8
0
  6
Continuous
 62
     7
370
    25
100
AcDbLine
 10
-290.1598181818
 20
861.2647272727
 30
0.0
 11
-290.1598181818
 21
861.8498772917
 31
0.0
  0
LINE
  5
200
330
1F
100
AcDbEntity
  8
0
  6
Continuous
 62
     7
370
    25
100
AcDbLine
 10
-311.6598181818
 20
861.8498772917
 30
0.0
 11
-311.6598181818
 21
861.2647272727
 31
0.0
  0
ARC
  5
201
330
1F
100
AcDbEntity
  8
0
  6
Continuous
 62
     7
370
    25
100
AcDbCircle
 10
-290.7598181818
 20
861.8498772917
 30
0.0
 40
0.5999999999999914
100
AcDbArc
 50
0.0
 51
69.724946748
  0
ARC
  5
202
330
1F
100
AcDbEntity
  8
0
  6
Continuous
 62
     7
370
    25
100
AcDbCircle
 10
-311.0598181818
 20
861.8498772917
 30
0.0
 40
0.5999999999999914
100
AcDbArc
 50
110.275053252
 51
180.0
  0
ARC
  5
203
330
1F
100
AcDbEntity
  8
0
  6
Continuous
 62
     7
370
    25
100
AcDbCircle
 10
-300.9098181818
 20
834.3741022727
 30
0.0
 40
29.89062500000007
100
AcDbArc
 50
69.724946748
 51
110.275053252
  0
LINE
  5
204
330
1F
100
AcDbEntity
  8
0
  6
Continuous
 62
     7
370
    25
100
AcDbLine
 10
-1168.6598181818
 20
51.2647272727
 30
0.0
 11
-1168.6598181818
 21
50.6795772538
 31
0.0
  0
LINE
  5
205
330
1F
100
AcDbEntity
  8
0
  6
Continuous
 62
     7
370
    25
100
AcDbLine
 10
-1147.1598181818
 20
50.6795772538
 30
0.0
 11
-1147.1598181818
 21
51.2647272727
 31
0.0
  0
ARC
  5
206
330
1F
100
AcDbEntity
  8
0
  6
Continuous
 62
     7
370
    25
100
AcDbCircle
 10
-1168.0598181818
 20
50.6795772538
 30
0.0
 40
0.6000000000000238
100
AcDbArc
 50
180.0
 51
249.724946748
  0
ARC
  5
207
330
1F
100
AcDbEntity
  8
0
  6
Continuous
 62
     7
370
    25
100
AcDbCircle
 10
-1147.7598181818
 20
50.6795772538
 30
0.0
 40
0.6000000000001027
100
AcDbArc
 50
290.2750532521
 51
0.0
  0
ARC
  5
208
330
1F
100
AcDbEntity
  8
0
  6
Continuous
 62
     7
370
    25
100
AcDbCircle
 10
-1157.9098181818
 20
78.1553522727
 30
0.0
 40
29.89062500000001
100
AcDbArc
 50
249.724946748
 51
290.275053252
  0
ARC
  5
209
330
1F
100
AcDbEntity
  8
0
  6
Continuous
 62
     7
370
    25
100
AcDbCircle
 10
309.2401818182
 20
861.8498772917
 30
0.0
 40
0.6000000000000227
100
AcDbArc
 50
0.0
 51
69.724946748
  0
ARC
  5
20A
330
1F
100
AcDbEntity
  8
0
  6
Continuous
 62
     7
370
    25
100
AcDbCircle
 10
288.9401818182
 20
861.8498772917
 30
0.0
 40
0.6000000000000227
100
AcDbArc
 50
110.275053252
 51
180.0
  0
LINE
  5
20B
330
1F
100
AcDbEntity
  8
0
  6
Continuous
 62
     7
370
    25
100
AcDbLine
 10
309.8401818182
 20
861.2647272727
 30
0.0
 11
309.8401818182
 21
861.8498772917
 31
0.0
  0
LINE
  5
20C
330
1F
100
AcDbEntity
  8
0
  6
Continuous
 62
     7
370
    25
100
AcDbLine
 10
288.3401818182
 20
861.8498772917
 30
0.0
 11
288.3401818182
 21
861.2647272727
 31
0.0
  0
ARC
  5
20D
330
1F
100
AcDbEntity
  8
0
  6
Continuous
 62
     7
370
    25
100
AcDbCircle
 10
299.0901818182
 20
834.3741022727
 30
0.0
 40
29.89062499999996
100
AcDbArc
 50
69.724946748
 51
110.275053252
  0
LINE
  5
20E
330
1F
100
AcDbEntity
  8
0
  6
Continuous
 62
     7
370
    25
100
AcDbLine
 10
288.3401818182
 20
-643.7352727273
 30
0.0
 11
288.3401818182
 21
-644.3204227462
 31
0.0
  0
LINE
  5
20F
330
1F
100
AcDbEntity
  8
0
  6
Continuous
 62
     7
370
    25
100
AcDbLine
 10
309.8401818182
 20
-644.3204227462
 30
0.0
 11
309.8401818182
 21
-643.7352727273
 31
0.0
  0
ARC
  5
210
330
1F
100
AcDbEntity
  8
0
  6
Continuous
 62
     7
370
    25
100
AcDbCircle
 10
288.9401818182
 20
-644.3204227462
 30
0.0
 40
0.6000000000000308
100
AcDbArc
 50
180.0
 51
249.724946748
  0
ARC
  5
211
330
1F
100
AcDbEntity
  8
0
  6
Continuous
 62
     7
370
    25
100
AcDbCircle
 10
309.2401818182
 20
-644.3204227462
 30
0.0
 40
0.6000000000000308
100
AcDbArc
 50
290.275053252
 51
0.0
  0
ARC
  5
212
330
1F
100
AcDbEntity
  8
0
  6
Continuous
 62
     7
370
    25
100
AcDbCircle
 10
299.0901818182
 20
-616.8446477273
 30
0.0
 40
29.89062499999996
100
AcDbArc
 50
249.724946748
 51
290.275053252
  0
LINE
  5
213
330
1F
100
AcDbEntity
  8
0
  6
Continuous
 62
     7
370
    25
100
AcDbLine
 10
960.0901818182
 20
860.7647272727
 30
0.0
 11
940.0901818182
 21
860.7647272727
 31
0.0
  0
LINE
  5
214
330
1F
100
AcDbEntity
  8
0
  6
Continuous
 62
     7
370
    25
100
AcDbLine
 10
960.0901818182
 20
860.7647272727
 30
0.0
 11
960.0901818182
 21
851.7647272727
 31
0.0
  0
LINE
  5
215
330
1F
100
AcDbEntity
  8
0
  6
Continuous
 62
     7
370
    25
100
AcDbLine
 10
940.0901818182
 20
851.7647272727
 30
0.0
 11
960.0901818182
 21
851.7647272727
 31
0.0
  0
LINE
  5
216
330
1F
100
AcDbEntity
  8
0
  6
Continuous
 62
     7
370
    25
100
AcDbLine
 10
940.0901818182
 20
851.7647272727
 30
0.0
 11
940.0901818182
 21
860.7647272727
 31
0.0
  0
ARC
  5
217
330
1F
100
AcDbEntity
  8
0
  6
Continuous
 62
     7
370
    25
100
AcDbCircle
 10
723.0901818182
 20
851.7647272727
 30
0.0
 40
3.000000000000114
100
AcDbArc
 50
180.0
 51
270.0
  0
LINE
  5
218
330
1F
100
AcDbEntity
  8
0
  6
Continuous
 62
     7
370
    25
100
AcDbLine
 10
720.0901818182
 20
851.7647272727
 30
0.0
 11
730.0901818182
 21
851.7647272727
 31
0.0
  0
LINE
  5
219
330
1F
100
AcDbEntity
  8
0
  6
Continuous
 62
     7
370
    25
100
AcDbLine
 10
730.0901818182
 20
848.7647272727
 30
0.0
 11
730.0901818182
 21
851.7647272727
 31
0.0
  0
LINE
  5
21A
330
1F
100
AcDbEntity
  8
0
  6
Continuous
 62
     7
370
    25
100
AcDbLine
 10
940.0901818182
 20
860.7647272727
 30
0.0
 11
730.0901818182
 21
860.7647272727
 31
0.0
  0
LINE
  5
21B
330
1F
100
AcDbEntity
  8
0
  6
Continuous
 62
     7
370
    25
100
AcDbLine
 10
730.0901818182
 20
851.7647272727
 30
0.0
 11
940.0901818182
 21
851.7647272727
 31
0.0
  0
LINE
  5
21C
330
1F
100
AcDbEntity
  8
0
  6
Continuous
 62
     7
370
    25
100
AcDbLine
 10
730.0901818182
 20
860.7647272727
 30
0.0
 11
730.0901818182
 21
851.7647272727
 31
0.0
  0
LINE
  5
21D
330
1F
100
AcDbEntity
  8
0
  6
Continuous
 62
     7
370
    25
100
AcDbLine
 10
940.0901818182
 20
860.7647272727
 30
0.0
 11
940.0901818182
 21
863.7647272727
 31
0.0
  0
LINE
  5
21E
330
1F
100
AcDbEntity
  8
0
  6
Continuous
 62
     7
370
    25
100
AcDbLine
 10
940.0901818182
 20
863.7647272727
 30
0.0
 11
957.0901818182
 21
863.7647272727
 31
0.0
  0
ARC
  5
21F
330
1F
100
AcDbEntity
  8
0
  6
Continuous
 62
     7
370
    25
100
AcDbCircle
 10
957.0901818182
 20
860.7647272727
 30
0.0
 40
3.0
100
AcDbArc
 50
0.0
 51
90.0
  0
LINE
  5
220
330
1F
100
AcDbEntity
  8
0
  6
Continuous
 62
     7
370
    25
100
AcDbLine
 10
730.0901818182
 20
860.7647272727
 30
0.0
 11
720.0901818182
 21
860.7647272727
 31
0.0
  0
ARC
  5
221
330
1F
100
AcDbEntity
  8
0
  6
Continuous
 62
     7
370
    25
100
AcDbCircle
 10
723.0901818182
 20
860.7647272727
 30
0.0
 40
3.000000000000114
100
AcDbArc
 50
90.0
 51
180.0
  0
LINE
  5
222
330
1F
100
AcDbEntity
  8
0
  6
Continuous
 62
     7
370
    25
100
AcDbLine
 10
723.0901818182
 20
863.7647272727
 30
0.0
 11
730.0901818182
 21
863.7647272727
 31
0.0
  0
LINE
  5
223
330
1F
100
AcDbEntity
  8
0
  6
Continuous
 62
     7
370
    25
100
AcDbLine
 10
730.0901818182
 20
860.7647272727
 30
0.0
 11
730.0901818182
 21
863.7647272727
 31
0.0
  0
LINE
  5
224
330
1F
100
AcDbEntity
  8
0
  6
Continuous
 62
     7
370
    25
100
AcDbLine
 10
888.0901818182
 20
848.7647272727
 30
0.0
 11
884.0901818182
 21
848.7647272727
 31
0.0
  0
LINE
  5
225
330
1F
100
AcDbEntity
  8
0
  6
Continuous
 62
     7
370
    25
100
AcDbLine
 10
940.0901818182
 20
848.7647272727
 30
0.0
 11
940.0901818182
 21
851.7647272727
 31
0.0
  0
LINE
  5
226
330
1F
100
AcDbEntity
  8
0
  6
Continuous
 62
     7
370
    25
100
AcDbLine
 10
730.0901818182
 20
863.7647272727
 30
0.0
 11
940.0901818182
 21
863.7647272727
 31
0.0
  0
ARC
  5
227
330
1F
100
AcDbEntity
  8
0
  6
Continuous
 62
     7
370
    25
100
AcDbCircle
 10
957.0901818182
 20
851.7647272727
 30
0.0
 40
3.0
100
AcDbArc
 50
270.0
 51
0.0
  0
LINE
  5
228
330
1F
100
AcDbEntity
  8
0
  6
Continuous
 62
     7
370
    25
100
AcDbLine
 10
720.0901818182
 20
851.7647272727
 30
0.0
 11
720.0901818182
 21
860.7647272727
 31
0.0
  0
LINE
  5
229
330
1F
100
AcDbEntity
  8
0
  6
Continuous
 62
     7
370
    25
100
AcDbLine
 10
730.0901818182
 20
-634.2352727273
 30
0.0
 11
720.0901818182
 21
-634.2352727273
 31
0.0
  0
LINE
  5
22A
330
1F
100
AcDbEntity
  8
0
  6
Continuous
 62
     7
370
    25
100
AcDbLine
 10
730.0901818182
 20
-634.2352727273
 30
0.0
 11
730.0901818182
 21
-643.2352727273
 31
0.0
  0
LINE
  5
22B
330
1F
100
AcDbEntity
  8
0
  6
Continuous
 62
     7
370
    25
100
AcDbLine
 10
720.0901818182
 20
-643.2352727273
 30
0.0
 11
730.0901818182
 21
-643.2352727273
 31
0.0
  0
LINE
  5
22C
330
1F
100
AcDbEntity
  8
0
  6
Continuous
 62
     7
370
    25
100
AcDbLine
 10
720.0901818182
 20
-643.2352727273
 30
0.0
 11
720.0901818182
 21
-634.2352727273
 31
0.0
  0
LINE
  5
22D
330
1F
100
AcDbEntity
  8
0
  6
Continuous
 62
     7
370
    25
100
AcDbLine
 10
940.0901818182
 20
-646.2352727273
 30
0.0
 11
730.0901818182
 21
-646.2352727273
 31
0.0
  0
LINE
  5
22E
330
1F
100
AcDbEntity
  8
0
  6
Continuous
 62
     7
370
    25
100
AcDbLine
 10
730.0901818182
 20
-646.2352727273
 30
0.0
 11
730.0901818182
 21
-643.2352727273
 31
0.0
  0
LINE
  5
22F
330
1F
100
AcDbEntity
  8
0
  6
Continuous
 62
     7
370
    25
100
AcDbLine
 10
730.0901818182
 20
-643.2352727273
 30
0.0
 11
940.0901818182
 21
-643.2352727273
 31
0.0
  0
LINE
  5
230
330
1F
100
AcDbEntity
  8
0
  6
Continuous
 62
     7
370
    25
100
AcDbLine
 10
940.0901818182
 20
-646.2352727273
 30
0.0
 11
940.0901818182
 21
-643.2352727273
 31
0.0
  0
ARC
  5
231
330
1F
100
AcDbEntity
  8
0
  6
Continuous
 62
     7
370
    25
100
AcDbCircle
 10
723.0901818182
 20
-634.2352727273
 30
0.0
 40
3.000000000000114
100
AcDbArc
 50
90.0
 51
180.0
  0
LINE
  5
232
330
1F
100
AcDbEntity
  8
0
  6
Continuous
 62
     7
370
    25
100
AcDbLine
 10
730.0901818182
 20
-634.2352727273
 30
0.0
 11
730.0901818182
 21
-631.2352727273
 31
0.0
  0
LINE
  5
233
330
1F
100
AcDbEntity
  8
0
  6
Continuous
 62
     7
370
    25
100
AcDbLine
 10
957.0901818182
 20
-646.2352727273
 30
0.0
 11
940.0901818182
 21
-646.2352727273
 31
0.0
  0
LINE
  5
234
330
1F
100
AcDbEntity
  8
0
  6
Continuous
 62
     7
370
    25
100
AcDbLine
 10
940.0901818182
 20
-643.2352727273
 30
0.0
 11
960.0901818182
 21
-643.2352727273
 31
0.0
  0
ARC
  5
235
330
1F
100
AcDbEntity
  8
0
  6
Continuous
 62
     7
370
    25
100
AcDbCircle
 10
957.0901818182
 20
-643.2352727273
 30
0.0
 40
3.0
100
AcDbArc
 50
270.0
 51
0.0
  0
LINE
  5
236
330
1F
100
AcDbEntity
  8
0
  6
Continuous
 62
     7
370
    25
100
AcDbLine
 10
940.0901818182
 20
-634.2352727273
 30
0.0
 11
730.0901818182
 21
-634.2352727273
 31
0.0
  0
LINE
  5
237
330
1F
100
AcDbEntity
  8
0
  6
Continuous
 62
     7
370
    25
100
AcDbLine
 10
884.0901818182
 20
-631.2352727273
 30
0.0
 11
888.0901818182
 21
-631.2352727273
 31
0.0
  0
LINE
  5
238
330
1F
100
AcDbEntity
  8
0
  6
Continuous
 62
     7
370
    25
100
AcDbLine
 10
940.0901818182
 20
-634.2352727273
 30
0.0
 11
940.0901818182
 21
-631.2352727273
 31
0.0
  0
LINE
  5
239
330
1F
100
AcDbEntity
  8
0
  6
Continuous
 62
     7
370
    25
100
AcDbLine
 10
960.0901818182
 20
-634.2352727273
 30
0.0
 11
940.0901818182
 21
-634.2352727273
 31
0.0
  0
LINE
  5
23A
330
1F
100
AcDbEntity
  8
0
  6
Continuous
 62
     7
370
    25
100
AcDbLine
 10
960.0901818182
 20
-634.2352727273
 30
0.0
 11
960.0901818182
 21
-643.2352727273
 31
0.0
  0
LINE
  5
23B
330
1F
100
AcDbEntity
  8
0
  6
Continuous
 62
     7
370
    25
100
AcDbLine
 10
940.0901818182
 20
-643.2352727273
 30
0.0
 11
940.0901818182
 21
-634.2352727273
 31
0.0
  0
LINE
  5
23C
330
1F
100
AcDbEntity
  8
0
  6
Continuous
 62
     7
370
    25
100
AcDbLine
 10
730.0901818182
 20
-646.2352727273
 30
0.0
 11
723.0901818182
 21
-646.2352727273
 31
0.0
  0
ARC
  5
23D
330
1F
100
AcDbEntity
  8
0
  6
Continuous
 62
     7
370
    25
100
AcDbCircle
 10
723.0901818182
 20
-643.2352727273
 30
0.0
 40
3.000000000000114
100
AcDbArc
 50
180.0
 51
270.0
  0
ARC
  5
23E
330
1F
100
AcDbEntity
  8
0
  6
Continuous
 62
     7
370
    25
100
AcDbCircle
 10
957.0901818182
 20
-634.2352727273
 30
0.0
 40
3.0
100
AcDbArc
 50
0.0
 51
90.0
  0
LINE
  5
23F
330
1F
100
AcDbEntity
  8
0
  6
Continuous
 62
     7
370
    25
100
AcDbLine
 10
-961.9098181818
 20
-643.2352727273
 30
0.0
 11
-951.9098181818
 21
-643.2352727273
 31
0.0
  0
LINE
  5
240
330
1F
100
AcDbEntity
  8
0
  6
Continuous
 62
     7
370
    25
100
AcDbLine
 10
-961.9098181818
 20
-643.2352727273
 30
0.0
 11
-961.9098181818
 21
-634.2352727273
 31
0.0
  0
LINE
  5
241
330
1F
100
AcDbEntity
  8
0
  6
Continuous
 62
     7
370
    25
100
AcDbLine
 10
-951.9098181818
 20
-634.2352727273
 30
0.0
 11
-961.9098181818
 21
-634.2352727273
 31
0.0
  0
LINE
  5
242
330
1F
100
AcDbEntity
  8
0
  6
Continuous
 62
     7
370
    25
100
AcDbLine
 10
-951.9098181818
 20
-634.2352727273
 30
0.0
 11
-951.9098181818
 21
-643.2352727273
 31
0.0
  0
LINE
  5
243
330
1F
100
AcDbEntity
  8
0
  6
Continuous
 62
     7
370
    25
100
AcDbLine
 10
-1119.9098181818
 20
-631.2352727273
 30
0.0
 11
-1115.9098181818
 21
-631.2352727273
 31
0.0
  0
LINE
  5
244
330
1F
100
AcDbEntity
  8
0
  6
Continuous
 62
     7
370
    25
100
AcDbLine
 10
-961.9098181818
 20
-631.2352727273
 30
0.0
 11
-961.9098181818
 21
-634.2352727273
 31
0.0
  0
LINE
  5
245
330
1F
100
AcDbEntity
  8
0
  6
Continuous
 62
     7
370
    25
100
AcDbLine
 10
-961.9098181818
 20
-634.2352727273
 30
0.0
 11
-1171.9098181818
 21
-634.2352727273
 31
0.0
  0
LINE
  5
246
330
1F
100
AcDbEntity
  8
0
  6
Continuous
 62
     7
370
    25
100
AcDbLine
 10
-1171.9098181818
 20
-631.2352727273
 30
0.0
 11
-1171.9098181818
 21
-634.2352727273
 31
0.0
  0
ARC
  5
247
330
1F
100
AcDbEntity
  8
0
  6
Continuous
 62
     7
370
    25
100
AcDbCircle
 10
-954.9098181818
 20
-643.2352727273
 30
0.0
 40
3.0
100
AcDbArc
 50
270.0
 51
0.0
  0
LINE
  5
248
330
1F
100
AcDbEntity
  8
0
  6
Continuous
 62
     7
370
    25
100
AcDbLine
 10
-954.9098181818
 20
-646.2352727273
 30
0.0
 11
-961.9098181818
 21
-646.2352727273
 31
0.0
  0
LINE
  5
249
330
1F
100
AcDbEntity
  8
0
  6
Continuous
 62
     7
370
    25
100
AcDbLine
 10
-961.9098181818
 20
-643.2352727273
 30
0.0
 11
-961.9098181818
 21
-646.2352727273
 31
0.0
  0
LINE
  5
24A
330
1F
100
AcDbEntity
  8
0
  6
Continuous
 62
     7
370
    25
100
AcDbLine
 10
-1171.9098181818
 20
-634.2352727273
 30
0.0
 11
-1191.9098181818
 21
-634.2352727273
 31
0.0
  0
ARC
  5
24B
330
1F
100
AcDbEntity
  8
0
  6
Continuous
 62
     7
370
    25
100
AcDbCircle
 10
-1188.9098181818
 20
-634.2352727273
 30
0.0
 40
3.000000000000227
100
AcDbArc
 50
90.0
 51
180.0
  0
ARC
  5
24C
330
1F
100
AcDbEntity
  8
0
  6
Continuous
 62
     7
370
    25
100
AcDbCircle
 10
-954.9098181818
 20
-634.2352727273
 30
0.0
 40
3.0
100
AcDbArc
 50
0.0
 51
90.0
  0
LINE
  5
24D
330
1F
100
AcDbEntity
  8
0
  6
Continuous
 62
     7
370
    25
100
AcDbLine
 10
-1171.9098181818
 20
-643.2352727273
 30
0.0
 11
-961.9098181818
 21
-643.2352727273
 31
0.0
  0
LINE
  5
24E
330
1F
100
AcDbEntity
  8
0
  6
Continuous
 62
     7
370
    25
100
AcDbLine
 10
-961.9098181818
 20
-646.2352727273
 30
0.0
 11
-1171.9098181818
 21
-646.2352727273
 31
0.0
  0
LINE
  5
24F
330
1F
100
AcDbEntity
  8
0
  6
Continuous
 62
     7
370
    25
100
AcDbLine
 10
-1171.9098181818
 20
-643.2352727273
 30
0.0
 11
-1171.9098181818
 21
-646.2352727273
 31
0.0
  0
LINE
  5
250
330
1F
100
AcDbEntity
  8
0
  6
Continuous
 62
     7
370
    25
100
AcDbLine
 10
-1171.9098181818
 20
-634.2352727273
 30
0.0
 11
-1171.9098181818
 21
-643.2352727273
 31
0.0
  0
LINE
  5
251
330
1F
100
AcDbEntity
  8
0
  6
Continuous
 62
     7
370
    25
100
AcDbLine
 10
-1191.9098181818
 20
-643.2352727273
 30
0.0
 11
-1171.9098181818
 21
-643.2352727273
 31
0.0
  0
LINE
  5
252
330
1F
100
AcDbEntity
  8
0
  6
Continuous
 62
     7
370
    25
100
AcDbLine
 10
-1171.9098181818
 20
-646.2352727273
 30
0.0
 11
-1188.9098181818
 21
-646.2352727273
 31
0.0
  0
ARC
  5
253
330
1F
100
AcDbEntity
  8
0
  6
Continuous
 62
     7
370
    25
100
AcDbCircle
 10
-1188.9098181818
 20
-643.2352727273
 30
0.0
 40
3.000000000000227
100
AcDbArc
 50
180.0
 51
270.0
  0
LINE
  5
254
330
1F
100
AcDbEntity
  8
0
  6
Continuous
 62
     7
370
    25
100
AcDbLine
 10
-1191.9098181818
 20
-643.2352727273
 30
0.0
 11
-1191.9098181818
 21
-634.2352727273
 31
0.0
  0
LINE
  5
255
330
1F
100
AcDbEntity
  8
0
  6
Continuous
 62
     7
370
    25
100
AcDbLine
 10
-1191.9098181818
 20
851.7647272727
 30
0.0
 11
-1171.9098181818
 21
851.7647272727
 31
0.0
  0
LINE
  5
256
330
1F
100
AcDbEntity
  8
0
  6
Continuous
 62
     7
370
    25
100
AcDbLine
 10
-1171.9098181818
 20
851.7647272727
 30
0.0
 11
-1171.9098181818
 21
848.7647272727
 31
0.0
  0
ARC
  5
257
330
1F
100
AcDbEntity
  8
0
  6
Continuous
 62
     7
370
    25
100
AcDbCircle
 10
-1188.9098181818
 20
851.7647272727
 30
0.0
 40
3.0
100
AcDbArc
 50
180.0
 51
270.0
  0
LINE
  5
258
330
1F
100
AcDbEntity
  8
0
  6
Continuous
 62
     7
370
    25
100
AcDbLine
 10
-961.9098181818
 20
851.7647272727
 30
0.0
 11
-951.9098181818
 21
851.7647272727
 31
0.0
  0
LINE
  5
259
330
1F
100
AcDbEntity
  8
0
  6
Continuous
 62
     7
370
    25
100
AcDbLine
 10
-961.9098181818
 20
851.7647272727
 30
0.0
 11
-961.9098181818
 21
860.7647272727
 31
0.0
  0
LINE
  5
25A
330
1F
100
AcDbEntity
  8
0
  6
Continuous
 62
     7
370
    25
100
AcDbLine
 10
-951.9098181818
 20
860.7647272727
 30
0.0
 11
-961.9098181818
 21
860.7647272727
 31
0.0
  0
LINE
  5
25B
330
1F
100
AcDbEntity
  8
0
  6
Continuous
 62
     7
370
    25
100
AcDbLine
 10
-951.9098181818
 20
860.7647272727
 30
0.0
 11
-951.9098181818
 21
851.7647272727
 31
0.0
  0
LINE
  5
25C
330
1F
100
AcDbEntity
  8
0
  6
Continuous
 62
     7
370
    25
100
AcDbLine
 10
-1188.9098181818
 20
863.7647272727
 30
0.0
 11
-1171.9098181818
 21
863.7647272727
 31
0.0
  0
LINE
  5
25D
330
1F
100
AcDbEntity
  8
0
  6
Continuous
 62
     7
370
    25
100
AcDbLine
 10
-1171.9098181818
 20
863.7647272727
 30
0.0
 11
-1171.9098181818
 21
860.7647272727
 31
0.0
  0
LINE
  5
25E
330
1F
100
AcDbEntity
  8
0
  6
Continuous
 62
     7
370
    25
100
AcDbLine
 10
-1171.9098181818
 20
860.7647272727
 30
0.0
 11
-1191.9098181818
 21
860.7647272727
 31
0.0
  0
ARC
  5
25F
330
1F
100
AcDbEntity
  8
0
  6
Continuous
 62
     7
370
    25
100
AcDbCircle
 10
-1188.9098181818
 20
860.7647272727
 30
0.0
 40
3.0
100
AcDbArc
 50
90.0
 51
180.0
  0
LINE
  5
260
330
1F
100
AcDbEntity
  8
0
  6
Continuous
 62
     7
370
    25
100
AcDbLine
 10
-1171.9098181818
 20
863.7647272727
 30
0.0
 11
-961.9098181818
 21
863.7647272727
 31
0.0
  0
LINE
  5
261
330
1F
100
AcDbEntity
  8
0
  6
Continuous
 62
     7
370
    25
100
AcDbLine
 10
-961.9098181818
 20
863.7647272727
 30
0.0
 11
-961.9098181818
 21
860.7647272727
 31
0.0
  0
LINE
  5
262
330
1F
100
AcDbEntity
  8
0
  6
Continuous
 62
     7
370
    25
100
AcDbLine
 10
-961.9098181818
 20
860.7647272727
 30
0.0
 11
-1171.9098181818
 21
860.7647272727
 31
0.0
  0
ARC
  5
263
330
1F
100
AcDbEntity
  8
0
  6
Continuous
 62
     7
370
    25
100
AcDbCircle
 10
-954.9098181818
 20
851.7647272727
 30
0.0
 40
3.0
100
AcDbArc
 50
270.0
 51
0.0
  0
LINE
  5
264
330
1F
100
AcDbEntity
  8
0
  6
Continuous
 62
     7
370
    25
100
AcDbLine
 10
-961.9098181818
 20
851.7647272727
 30
0.0
 11
-961.9098181818
 21
848.7647272727
 31
0.0
  0
LINE
  5
265
330
1F
100
AcDbEntity
  8
0
  6
Continuous
 62
     7
370
    25
100
AcDbLine
 10
-961.9098181818
 20
863.7647272727
 30
0.0
 11
-954.9098181818
 21
863.7647272727
 31
0.0
  0
ARC
  5
266
330
1F
100
AcDbEntity
  8
0
  6
Continuous
 62
     7
370
    25
100
AcDbCircle
 10
-954.9098181818
 20
860.7647272727
 30
0.0
 40
3.0
100
AcDbArc
 50
0.0
 51
90.0
  0
LINE
  5
267
330
1F
100
AcDbEntity
  8
0
  6
Continuous
 62
     7
370
    25
100
AcDbLine
 10
-1171.9098181818
 20
851.7647272727
 30
0.0
 11
-961.9098181818
 21
851.7647272727
 31
0.0
  0
LINE
  5
268
330
1F
100
AcDbEntity
  8
0
  6
Continuous
 62
     7
370
    25
100
AcDbLine
 10
-1115.9098181818
 20
848.7647272727
 30
0.0
 11
-1119.9098181818
 21
848.7647272727
 31
0.0
  0
LINE
  5
269
330
1F
100
AcDbEntity
  8
0
  6
Continuous
 62
     7
370
    25
100
AcDbLine
 10
-1191.9098181818
 20
851.7647272727
 30
0.0
 11
-1191.9098181818
 21
860.7647272727
 31
0.0
  0
LINE
  5
26A
330
1F
100
AcDbEntity
  8
0
  6
Continuous
 62
     7
370
    25
100
AcDbLine
 10
-1171.9098181818
 20
860.7647272727
 30
0.0
 11
-1171.9098181818
 21
851.7647272727
 31
0.0
  0
LINE
  5
26B
330
1F
100
AcDbEntity
  8
0
  6
Continuous
 62
     7
370
    25
100
AcDbLine
 10
2286.0901818182
 20
328.2112673164
 30
0.0
 11
2275.5127546333
 21
325.5056920582
 31
0.0
  0
LINE
  5
26C
330
1F
100
AcDbEntity
  8
0
  6
Continuous
 62
     7
370
    25
100
AcDbLine
 10
2406.301945652
 20
358.9599520662
 30
0.0
 11
2366.0901818182
 21
348.6742794338
 31
0.0
  0
LINE
  5
26D
330
1F
100
AcDbEntity
  8
0
  6
Continuous
 62
     7
370
    25
100
AcDbLine
 10
2366.0901818182
 20
369.318187229
 30
0.0
 11
2401.3457589841
 21
378.3361285134
 31
0.0
  0
LINE
  5
26E
330
1F
100
AcDbEntity
  8
0
  6
Continuous
 62
     7
370
    25
100
AcDbLine
 10
2270.5565679654
 20
344.8818685054
 30
0.0
 11
2286.0901818182
 21
348.8551751116
 31
0.0
  0
LINE
  5
26F
330
1F
100
AcDbEntity
  8
0
  6
Continuous
 62
     7
370
    25
100
AcDbLine
 10
2286.0901818182
 20
-149.9346755027
 30
0.0
 11
2272.6350705875
 21
-151.5364146255
 31
0.0
  0
LINE
  5
270
330
1F
100
AcDbEntity
  8
0
  6
Continuous
 62
     7
370
    25
100
AcDbLine
 10
2406.6885575774
 20
-135.5782622936
 30
0.0
 11
2366.0901818182
 21
-140.411221729
 31
0.0
  0
LINE
  5
271
330
1F
100
AcDbEntity
  8
0
  6
Continuous
 62
     7
370
    25
100
AcDbLine
 10
2366.0901818182
 20
-120.2700074971
 30
0.0
 11
2404.3243868616
 21
-115.7184864433
 31
0.0
  0
LINE
  5
272
330
1F
100
AcDbEntity
  8
0
  6
Continuous
 62
     7
370
    25
100
AcDbLine
 10
2270.2708998716
 20
-131.6766387751
 30
0.0
 11
2286.0901818182
 21
-129.7934612707
 31
0.0
  0
CIRCLE
  5
273
330
1F
100
AcDbEntity
  8
0
  6
Continuous
 62
     7
370
    25
100
AcDbCircle
 10
2326.0901818182
 20
348.7647272727
 30
0.0
 40
8.553288998120552
  0
CIRCLE
  5
274
330
1F
100
AcDbEntity
  8
0
  6
Continuous
 62
     7
370
    25
100
AcDbCircle
 10
2325.8326895019
 20
-135.132994202
 30
0.0
 40
8.553288998120566
  0
LINE
  5
275
330
1F
100
AcDbEntity
  8
0
  6
Continuous
 62
     7
370
    25
100
AcDbLine
 10
948.0901818182
 20
-551.2352727273
 30
0.0
 11
948.0901818182
 21
-546.2352727273
 31
0.0
  0
LINE
  5
276
330
1F
100
AcDbEntity
  8
0
  6
Continuous
 62
     7
370
    25
100
AcDbLine
 10
904.0901818182
 20
-551.2352727273
 30
0.0
 11
904.0901818182
 21
-546.2352727273
 31
0.0
  0
LINE
  5
277
330
1F
100
AcDbEntity
  8
0
  6
Continuous
 62
     7
370
    25
100
AcDbLine
 10
948.0901818182
 20
-546.2352727273
 30
0.0
 11
941.0916394769
 21
-546.2352727273
 31
0.0
  0
LINE
  5
278
330
1F
100
AcDbEntity
  8
0
  6
Continuous
 62
     7
370
    25
100
AcDbLine
 10
911.0887241595
 20
-546.2352727273
 30
0.0
 11
904.0901818182
 21
-546.2352727273
 31
0.0
  0
LINE
  5
279
330
1F
100
AcDbEntity
  8
0
  6
Continuous
 62
     7
370
    25
100
AcDbLine
 10
948.0901818182
 20
763.7647272727
 30
0.0
 11
948.0901818182
 21
768.7647272727
 31
0.0
  0
LINE
  5
27A
330
1F
100
AcDbEntity
  8
0
  6
Continuous
 62
     7
370
    25
100
AcDbLine
 10
904.0901818182
 20
763.7647272727
 30
0.0
 11
904.0901818182
 21
768.7647272727
 31
0.0
  0
LINE
  5
27B
330
1F
100
AcDbEntity
  8
0
  6
Continuous
 62
     7
370
    25
100
AcDbLine
 10
948.0901818182
 20
763.7647272727
 30
0.0
 11
941.0916394769
 21
763.7647272727
 31
0.0
  0
LINE
  5
27C
330
1F
100
AcDbEntity
  8
0
  6
Continuous
 62
     7
370
    25
100
AcDbLine
 10
911.0887241595
 20
763.7647272727
 30
0.0
 11
904.0901818182
 21
763.7647272727
 31
0.0
  0
LINE
  5
27D
330
1F
100
AcDbEntity
  8
0
  6
Continuous
 62
     7
370
    25
100
AcDbLine
 10
669.0901818182
 20
763.7647272727
 30
0.0
 11
669.0901818182
 21
768.7647272727
 31
0.0
  0
LINE
  5
27E
330
1F
100
AcDbEntity
  8
0
  6
Continuous
 62
     7
370
    25
100
AcDbLine
 10
691.0901818182
 20
763.7647272727
 30
0.0
 11
669.0901818182
 21
763.7647272727
 31
0.0
  0
LINE
  5
27F
330
1F
100
AcDbEntity
  8
0
  6
Continuous
 62
     7
370
    25
100
AcDbLine
 10
299.0901818182
 20
763.7647272727
 30
0.0
 11
299.0901818182
 21
768.7647272727
 31
0.0
  0
LINE
  5
280
330
1F
100
AcDbEntity
  8
0
  6
Continuous
 62
     7
370
    25
100
AcDbLine
 10
669.0901818182
 20
763.7647272727
 30
0.0
 11
299.0901818182
 21
763.7647272727
 31
0.0
  0
LINE
  5
281
330
1F
100
AcDbEntity
  8
0
  6
Continuous
 62
     7
370
    25
100
AcDbLine
 10
299.0901818182
 20
763.7647272727
 30
0.0
 11
277.0901818182
 21
763.7647272727
 31
0.0
  0
LINE
  5
282
330
1F
100
AcDbEntity
  8
0
  6
Continuous
 62
     7
370
    25
100
AcDbLine
 10
669.0901818182
 20
-551.2352727273
 30
0.0
 11
669.0901818182
 21
-546.2352727273
 31
0.0
  0
LINE
  5
283
330
1F
100
AcDbEntity
  8
0
  6
Continuous
 62
     7
370
    25
100
AcDbLine
 10
691.0901818182
 20
-546.2352727273
 30
0.0
 11
669.0901818182
 21
-546.2352727273
 31
0.0
  0
LINE
  5
284
330
1F
100
AcDbEntity
  8
0
  6
Continuous
 62
     7
370
    25
100
AcDbLine
 10
299.0901818182
 20
-551.2352727273
 30
0.0
 11
299.0901818182
 21
-546.2352727273
 31
0.0
  0
LINE
  5
285
330
1F
100
AcDbEntity
  8
0
  6
Continuous
 62
     7
370
    25
100
AcDbLine
 10
669.0901818182
 20
-546.2352727273
 30
0.0
 11
299.0901818182
 21
-546.2352727273
 31
0.0
  0
LINE
  5
286
330
1F
100
AcDbEntity
  8
0
  6
Continuous
 62
     7
370
    25
100
AcDbLine
 10
299.0901818182
 20
-546.2352727273
 30
0.0
 11
277.0901818182
 21
-546.2352727273
 31
0.0
  0
LINE
  5
287
330
1F
100
AcDbEntity
  8
0
  6
Continuous
 62
     7
370
    25
100
AcDbLine
 10
-530.9098181818
 20
-551.2352727273
 30
0.0
 11
-530.9098181818
 21
-546.2352727273
 31
0.0
  0
LINE
  5
288
330
1F
100
AcDbEntity
  8
0
  6
Continuous
 62
     7
370
    25
100
AcDbLine
 10
-900.9098181818
 20
-551.2352727273
 30
0.0
 11
-900.9098181818
 21
-546.2352727273
 31
0.0
  0
LINE
  5
289
330
1F
100
AcDbEntity
  8
0
  6
Continuous
 62
     7
370
    25
100
AcDbLine
 10
-530.9098181818
 20
-546.2352727273
 30
0.0
 11
-900.9098181818
 21
-546.2352727273
 31
0.0
  0
LINE
  5
28A
330
1F
100
AcDbEntity
  8
0
  6
Continuous
 62
     7
370
    25
100
AcDbLine
 10
-508.9098181818
 20
-546.2352727273
 30
0.0
 11
-530.9098181818
 21
-546.2352727273
 31
0.0
  0
LINE
  5
28B
330
1F
100
AcDbEntity
  8
0
  6
Continuous
 62
     7
370
    25
100
AcDbLine
 10
-900.9098181818
 20
-546.2352727273
 30
0.0
 11
-922.9098181818
 21
-546.2352727273
 31
0.0
  0
LINE
  5
28C
330
1F
100
AcDbEntity
  8
0
  6
Continuous
 62
     7
370
    25
100
AcDbLine
 10
-530.9098181818
 20
763.7647272727
 30
0.0
 11
-530.9098181818
 21
768.7647272727
 31
0.0
  0
LINE
  5
28D
330
1F
100
AcDbEntity
  8
0
  6
Continuous
 62
     7
370
    25
100
AcDbLine
 10
-508.9098181818
 20
763.7647272727
 30
0.0
 11
-530.9098181818
 21
763.7647272727
 31
0.0
  0
LINE
  5
28E
330
1F
100
AcDbEntity
  8
0
  6
Continuous
 62
     7
370
    25
100
AcDbLine
 10
-900.9098181818
 20
763.7647272727
 30
0.0
 11
-900.9098181818
 21
768.7647272727
 31
0.0
  0
LINE
  5
28F
330
1F
100
AcDbEntity
  8
0
  6
Continuous
 62
     7
370
    25
100
AcDbLine
 10
-530.9098181818
 20
763.7647272727
 30
0.0
 11
-900.9098181818
 21
763.7647272727
 31
0.0
  0
LINE
  5
290
330
1F
100
AcDbEntity
  8
0
  6
Continuous
 62
     7
370
    25
100
AcDbLine
 10
-900.9098181818
 20
763.7647272727
 30
0.0
 11
-922.9098181818
 21
763.7647272727
 31
0.0
  0
LINE
  5
291
330
1F
100
AcDbEntity
  8
0
  6
Continuous
 62
     7
370
    25
100
AcDbLine
 10
69.0901818182
 20
-551.2352727273
 30
0.0
 11
69.0901818182
 21
-546.2352727273
 31
0.0
  0
LINE
  5
292
330
1F
100
AcDbEntity
  8
0
  6
Continuous
 62
     7
370
    25
100
AcDbLine
 10
91.0901818182
 20
-546.2352727273
 30
0.0
 11
69.0901818182
 21
-546.2352727273
 31
0.0
  0
LINE
  5
293
330
1F
100
AcDbEntity
  8
0
  6
Continuous
 62
     7
370
    25
100
AcDbLine
 10
-300.9098181818
 20
-551.2352727273
 30
0.0
 11
-300.9098181818
 21
-546.2352727273
 31
0.0
  0
LINE
  5
294
330
1F
100
AcDbEntity
  8
0
  6
Continuous
 62
     7
370
    25
100
AcDbLine
 10
69.0901818182
 20
-546.2352727273
 30
0.0
 11
-300.9098181818
 21
-546.2352727273
 31
0.0
  0
LINE
  5
295
330
1F
100
AcDbEntity
  8
0
  6
Continuous
 62
     7
370
    25
100
AcDbLine
 10
-300.9098181818
 20
-546.2352727273
 30
0.0
 11
-322.9098181818
 21
-546.2352727273
 31
0.0
  0
LINE
  5
296
330
1F
100
AcDbEntity
  8
0
  6
Continuous
 62
     7
370
    25
100
AcDbLine
 10
91.0901818182
 20
763.7647272727
 30
0.0
 11
69.0901818182
 21
763.7647272727
 31
0.0
  0
LINE
  5
297
330
1F
100
AcDbEntity
  8
0
  6
Continuous
 62
     7
370
    25
100
AcDbLine
 10
69.0901818182
 20
763.7647272727
 30
0.0
 11
69.0901818182
 21
768.7647272727
 31
0.0
  0
LINE
  5
298
330
1F
100
AcDbEntity
  8
0
  6
Continuous
 62
     7
370
    25
100
AcDbLine
 10
-300.9098181818
 20
763.7647272727
 30
0.0
 11
-300.9098181818
 21
768.7647272727
 31
0.0
  0
LINE
  5
299
330
1F
100
AcDbEntity
  8
0
  6
Continuous
 62
     7
370
    25
100
AcDbLine
 10
69.0901818182
 20
763.7647272727
 30
0.0
 11
-300.9098181818
 21
763.7647272727
 31
0.0
  0
LINE
  5
29A
330
1F
100
AcDbEntity
  8
0
  6
Continuous
 62
     7
370
    25
100
AcDbLine
 10
-300.9098181818
 20
763.7647272727
 30
0.0
 11
-322.9098181818
 21
763.7647272727
 31
0.0
  0
LINE
  5
29B
330
1F
100
AcDbEntity
  8
0
  6
Continuous
 62
     7
370
    25
100
AcDbLine
 10
-1197.9098181818
 20
130.7647272727
 30
0.0
 11
-1202.9098181818
 21
130.7647272727
 31
0.0
  0
LINE
  5
29C
330
1F
100
AcDbEntity
  8
0
  6
Continuous
 62
     7
370
    25
100
AcDbLine
 10
-1197.9098181818
 20
86.7647272727
 30
0.0
 11
-1202.9098181818
 21
86.7647272727
 31
0.0
  0
LINE
  5
29D
330
1F
100
AcDbEntity
  8
0
  6
Continuous
 62
     7
370
    25
100
AcDbLine
 10
-1202.9098181818
 20
130.7647272727
 30
0.0
 11
-1202.9098181818
 21
86.7647272727
 31
0.0
  0
LINE
  5
29E
330
1F
100
AcDbEntity
  8
0
  6
Continuous
 62
     7
370
    25
100
AcDbLine
 10
966.0901818182
 20
-613.2352727272
 30
0.0
 11
971.0901818182
 21
-613.2352727272
 31
0.0
  0
LINE
  5
29F
330
1F
100
AcDbEntity
  8
0
  6
Continuous
 62
     7
370
    25
100
AcDbLine
 10
966.0901818182
 20
-569.2352727272
 30
0.0
 11
971.0901818182
 21
-569.2352727272
 31
0.0
  0
LINE
  5
2A0
330
1F
100
AcDbEntity
  8
0
  6
Continuous
 62
     7
370
    25
100
AcDbLine
 10
971.0901818182
 20
-613.2352727272
 30
0.0
 11
971.0901818182
 21
-569.2352727272
 31
0.0
  0
LINE
  5
2A1
330
1F
100
AcDbEntity
  8
0
  6
Continuous
 62
     7
370
    25
100
AcDbLine
 10
-1135.9098181818
 20
-551.2352727273
 30
0.0
 11
-1135.9098181818
 21
-546.2352727273
 31
0.0
  0
LINE
  5
2A2
330
1F
100
AcDbEntity
  8
0
  6
Continuous
 62
     7
370
    25
100
AcDbLine
 10
-1179.9098181818
 20
-551.2352727273
 30
0.0
 11
-1179.9098181818
 21
-546.2352727273
 31
0.0
  0
LINE
  5
2A3
330
1F
100
AcDbEntity
  8
0
  6
Continuous
 62
     7
370
    25
100
AcDbLine
 10
-1135.9098181818
 20
-546.2352727273
 30
0.0
 11
-1142.9083605231
 21
-546.2352727273
 31
0.0
  0
LINE
  5
2A4
330
1F
100
AcDbEntity
  8
0
  6
Continuous
 62
     7
370
    25
100
AcDbLine
 10
-1172.9112758405
 20
-546.2352727273
 30
0.0
 11
-1179.9098181818
 21
-546.2352727273
 31
0.0
  0
LINE
  5
2A5
330
1F
100
AcDbEntity
  8
0
  6
Continuous
 62
     7
370
    25
100
AcDbLine
 10
2281.0901818182
 20
-613.2352727272
 30
0.0
 11
2286.0901818182
 21
-613.2352727272
 31
0.0
  0
LINE
  5
2A6
330
1F
100
AcDbEntity
  8
0
  6
Continuous
 62
     7
370
    25
100
AcDbLine
 10
2281.0901818182
 20
-613.2352727272
 30
0.0
 11
2281.0901818182
 21
-569.2352727272
 31
0.0
  0
LINE
  5
2A7
330
1F
100
AcDbEntity
  8
0
  6
Continuous
 62
     7
370
    25
100
AcDbLine
 10
2281.0901818182
 20
-569.2352727272
 30
0.0
 11
2286.0901818182
 21
-569.2352727272
 31
0.0
  0
LINE
  5
2A8
330
1F
100
AcDbEntity
  8
0
  6
Continuous
 62
     7
370
    25
100
AcDbLine
 10
-1135.9098181818
 20
763.7647272727
 30
0.0
 11
-1135.9098181818
 21
768.7647272727
 31
0.0
  0
LINE
  5
2A9
330
1F
100
AcDbEntity
  8
0
  6
Continuous
 62
     7
370
    25
100
AcDbLine
 10
-1135.9098181818
 20
763.7647272727
 30
0.0
 11
-1142.9083605231
 21
763.7647272727
 31
0.0
  0
LINE
  5
2AA
330
1F
100
AcDbEntity
  8
0
  6
Continuous
 62
     7
370
    25
100
AcDbLine
 10
-1172.9112758405
 20
763.7647272727
 30
0.0
 11
-1179.9098181818
 21
763.7647272727
 31
0.0
  0
LINE
  5
2AB
330
1F
100
AcDbEntity
  8
0
  6
Continuous
 62
     7
370
    25
100
AcDbLine
 10
-1179.9098181818
 20
763.7647272727
 30
0.0
 11
-1179.9098181818
 21
768.7647272727
 31
0.0
  0
LINE
  5
2AC
330
1F
100
AcDbEntity
  8
0
  6
Continuous
 62
     7
370
    25
100
AcDbLine
 10
-1135.9098181818
 20
148.7647272727
 30
0.0
 11
-1135.9098181818
 21
153.7647272727
 31
0.0
  0
LINE
  5
2AD
330
1F
100
AcDbEntity
  8
0
  6
Continuous
 62
     7
370
    25
100
AcDbLine
 10
-1179.9098181818
 20
148.7647272727
 30
0.0
 11
-1179.9098181818
 21
153.7647272727
 31
0.0
  0
LINE
  5
2AE
330
1F
100
AcDbEntity
  8
0
  6
Continuous
 62
     7
370
    25
100
AcDbLine
 10
-1135.9098181818
 20
153.7647272727
 30
0.0
 11
-1179.9098181818
 21
153.7647272727
 31
0.0
  0
LINE
  5
2AF
330
1F
100
AcDbEntity
  8
0
  6
Continuous
 62
     7
370
    25
100
AcDbLine
 10
2281.0901818182
 20
786.7647272727
 30
0.0
 11
2286.0901818182
 21
786.7647272727
 31
0.0
  0
LINE
  5
2B0
330
1F
100
AcDbEntity
  8
0
  6
Continuous
 62
     7
370
    25
100
AcDbLine
 10
2281.0901818182
 20
786.7647272727
 30
0.0
 11
2281.0901818182
 21
830.7647272727
 31
0.0
  0
LINE
  5
2B1
330
1F
100
AcDbEntity
  8
0
  6
Continuous
 62
     7
370
    25
100
AcDbLine
 10
2281.0901818182
 20
830.7647272727
 30
0.0
 11
2286.0901818182
 21
830.7647272727
 31
0.0
  0
LINE
  5
2B2
330
1F
100
AcDbEntity
  8
0
  6
Continuous
 62
     7
370
    25
100
AcDbLine
 10
966.0901818182
 20
786.7647272727
 30
0.0
 11
971.0901818182
 21
786.7647272727
 31
0.0
  0
LINE
  5
2B3
330
1F
100
AcDbEntity
  8
0
  6
Continuous
 62
     7
370
    25
100
AcDbLine
 10
966.0901818182
 20
830.7647272727
 30
0.0
 11
971.0901818182
 21
830.7647272727
 31
0.0
  0
LINE
  5
2B4
330
1F
100
AcDbEntity
  8
0
  6
Continuous
 62
     7
370
    25
100
AcDbLine
 10
971.0901818182
 20
786.7647272727
 30
0.0
 11
971.0901818182
 21
830.7647272727
 31
0.0
  0
LINE
  5
2B5
330
1F
100
AcDbEntity
  8
0
  6
Continuous
 62
     7
370
    25
100
AcDbLine
 10
-1135.9098181818
 20
63.7647272727
 30
0.0
 11
-1135.9098181818
 21
68.7647272727
 31
0.0
  0
LINE
  5
2B6
330
1F
100
AcDbEntity
  8
0
  6
Continuous
 62
     7
370
    25
100
AcDbLine
 10
-1135.9098181818
 20
63.7647272727
 30
0.0
 11
-1179.9098181818
 21
63.7647272727
 31
0.0
  0
LINE
  5
2B7
330
1F
100
AcDbEntity
  8
0
  6
Continuous
 62
     7
370
    25
100
AcDbLine
 10
-1179.9098181818
 20
63.7647272727
 30
0.0
 11
-1179.9098181818
 21
68.7647272727
 31
0.0
  0
LINE
  5
2B8
330
1F
100
AcDbEntity
  8
0
  6
Continuous
 62
     7
370
    25
100
AcDbLine
 10
-2517.9098181818
 20
786.7647272727
 30
0.0
 11
-2512.9098181818
 21
786.7647272727
 31
0.0
  0
LINE
  5
2B9
330
1F
100
AcDbEntity
  8
0
  6
Continuous
 62
     7
370
    25
100
AcDbLine
 10
-2517.9098181818
 20
830.7647272727
 30
0.0
 11
-2512.9098181818
 21
830.7647272727
 31
0.0
  0
LINE
  5
2BA
330
1F
100
AcDbEntity
  8
0
  6
Continuous
 62
     7
370
    25
100
AcDbLine
 10
-2512.9098181818
 20
786.7647272727
 30
0.0
 11
-2512.9098181818
 21
830.7647272727
 31
0.0
  0
LINE
  5
2BB
330
1F
100
AcDbEntity
  8
0
  6
Continuous
 62
     7
370
    25
100
AcDbLine
 10
-1202.9098181818
 20
786.7647272727
 30
0.0
 11
-1197.9098181818
 21
786.7647272727
 31
0.0
  0
LINE
  5
2BC
330
1F
100
AcDbEntity
  8
0
  6
Continuous
 62
     7
370
    25
100
AcDbLine
 10
-1202.9098181818
 20
786.7647272727
 30
0.0
 11
-1202.9098181818
 21
830.7647272727
 31
0.0
  0
LINE
  5
2BD
330
1F
100
AcDbEntity
  8
0
  6
Continuous
 62
     7
370
    25
100
AcDbLine
 10
-1202.9098181818
 20
830.7647272727
 30
0.0
 11
-1197.9098181818
 21
830.7647272727
 31
0.0
  0
LINE
  5
2BE
330
1F
100
AcDbEntity
  8
0
  6
Continuous
 62
     7
370
    25
100
AcDbLine
 10
-2512.9098181818
 20
130.7647272727
 30
0.0
 11
-2517.9098181818
 21
130.7647272727
 31
0.0
  0
LINE
  5
2BF
330
1F
100
AcDbEntity
  8
0
  6
Continuous
 62
     7
370
    25
100
AcDbLine
 10
-2512.9098181818
 20
86.7647272727
 30
0.0
 11
-2517.9098181818
 21
86.7647272727
 31
0.0
  0
LINE
  5
2C0
330
1F
100
AcDbEntity
  8
0
  6
Continuous
 62
     7
370
    25
100
AcDbLine
 10
-2512.9098181818
 20
130.7647272727
 30
0.0
 11
-2512.9098181818
 21
86.7647272727
 31
0.0
  0
LINE
  5
2C1
330
1F
100
AcDbEntity
  8
0
  6
Continuous
 62
     7
370
    25
100
AcDbLine
 10
884.0901818182
 20
848.7647272727
 30
0.0
 11
-1115.9098181818
 21
848.7647272727
 31
0.0
  0
LINE
  5
2C2
330
1F
100
AcDbEntity
  8
0
  6
Continuous
 62
     7
370
    25
100
AcDbLine
 10
884.0901818182
 20
848.7647272727
 30
0.0
 11
884.0901818182
 21
842.7647272727
 31
0.0
  0
LINE
  5
2C3
330
1F
100
AcDbEntity
  8
0
  6
Continuous
 62
     7
370
    25
100
AcDbLine
 10
884.0901818182
 20
842.7647272727
 30
0.0
 11
-1115.9098181818
 21
842.7647272727
 31
0.0
  0
LINE
  5
2C4
330
1F
100
AcDbEntity
  8
0
  6
Continuous
 62
     7
370
    25
100
AcDbLine
 10
-1115.9098181818
 20
848.7647272727
 30
0.0
 11
-1115.9098181818
 21
842.7647272727
 31
0.0
  0
LINE
  5
2C5
330
1F
100
AcDbEntity
  8
0
  6
Continuous
 62
     7
370
    25
100
AcDbLine
 10
884.0901818182
 20
842.7647272727
 30
0.0
 11
884.0901818182
 21
774.7647272727
 31
0.0
  0
LINE
  5
2C6
330
1F
100
AcDbEntity
  8
0
  6
Continuous
 62
     7
370
    25
100
AcDbLine
 10
884.0901818182
 20
774.7647272727
 30
0.0
 11
-1115.9098181818
 21
774.7647272727
 31
0.0
  0
LINE
  5
2C7
330
1F
100
AcDbEntity
  8
0
  6
Continuous
 62
     7
370
    25
100
AcDbLine
 10
-1115.9098181818
 20
842.7647272727
 30
0.0
 11
-1115.9098181818
 21
774.7647272727
 31
0.0
  0
LINE
  5
2C8
330
1F
100
AcDbEntity
  8
0
  6
Continuous
 62
     7
370
    25
100
AcDbLine
 10
884.0901818182
 20
768.7647272727
 30
0.0
 11
-1115.9098181818
 21
768.7647272727
 31
0.0
  0
LINE
  5
2C9
330
1F
100
AcDbEntity
  8
0
  6
Continuous
 62
     7
370
    25
100
AcDbLine
 10
884.0901818182
 20
774.7647272727
 30
0.0
 11
884.0901818182
 21
768.7647272727
 31
0.0
  0
LINE
  5
2CA
330
1F
100
AcDbEntity
  8
0
  6
Continuous
 62
     7
370
    25
100
AcDbLine
 10
-1115.9098181818
 20
774.7647272727
 30
0.0
 11
-1115.9098181818
 21
768.7647272727
 31
0.0
  0
LINE
  5
2CB
330
1F
100
AcDbEntity
  8
0
  6
Continuous
 62
     7
370
    25
100
AcDbLine
 10
884.0901818182
 20
-551.2352727273
 30
0.0
 11
-1115.9098181818
 21
-551.2352727273
 31
0.0
  0
LINE
  5
2CC
330
1F
100
AcDbEntity
  8
0
  6
Continuous
 62
     7
370
    25
100
AcDbLine
 10
884.0901818182
 20
-551.2352727273
 30
0.0
 11
884.0901818182
 21
-557.2352727273
 31
0.0
  0
LINE
  5
2CD
330
1F
100
AcDbEntity
  8
0
  6
Continuous
 62
     7
370
    25
100
AcDbLine
 10
884.0901818182
 20
-557.2352727273
 30
0.0
 11
-1115.9098181818
 21
-557.2352727273
 31
0.0
  0
LINE
  5
2CE
330
1F
100
AcDbEntity
  8
0
  6
Continuous
 62
     7
370
    25
100
AcDbLine
 10
-1115.9098181818
 20
-551.2352727273
 30
0.0
 11
-1115.9098181818
 21
-557.2352727273
 31
0.0
  0
LINE
  5
2CF
330
1F
100
AcDbEntity
  8
0
  6
Continuous
 62
     7
370
    25
100
AcDbLine
 10
884.0901818182
 20
-625.2352727273
 30
0.0
 11
-1115.9098181818
 21
-625.2352727273
 31
0.0
  0
LINE
  5
2D0
330
1F
100
AcDbEntity
  8
0
  6
Continuous
 62
     7
370
    25
100
AcDbLine
 10
-1115.9098181818
 20
-557.2352727273
 30
0.0
 11
-1115.9098181818
 21
-625.2352727273
 31
0.0
  0
LINE
  5
2D1
330
1F
100
AcDbEntity
  8
0
  6
Continuous
 62
     7
370
    25
100
AcDbLine
 10
884.0901818182
 20
-557.2352727273
 30
0.0
 11
884.0901818182
 21
-625.2352727273
 31
0.0
  0
LINE
  5
2D2
330
1F
100
AcDbEntity
  8
0
  6
Continuous
 62
     7
370
    25
100
AcDbLine
 10
884.0901818182
 20
-631.2352727273
 30
0.0
 11
-1115.9098181818
 21
-631.2352727273
 31
0.0
  0
LINE
  5
2D3
330
1F
100
AcDbEntity
  8
0
  6
Continuous
 62
     7
370
    25
100
AcDbLine
 10
-1115.9098181818
 20
-625.2352727273
 30
0.0
 11
-1115.9098181818
 21
-631.2352727273
 31
0.0
  0
LINE
  5
2D4
330
1F
100
AcDbEntity
  8
0
  6
Continuous
 62
     7
370
    25
100
AcDbLine
 10
884.0901818182
 20
-625.2352727273
 30
0.0
 11
884.0901818182
 21
-631.2352727273
 31
0.0
  0
ARC
  5
2D5
330
1F
100
AcDbEntity
  8
0
  6
Continuous
 62
     7
370
    25
100
AcDbCircle
 10
2292.0901818182
 20
-625.2352727273
 30
0.0
 40
6.000000000000114
100
AcDbArc
 50
180.0
 51
270.0
  0
LINE
  5
2D6
330
1F
100
AcDbEntity
  8
0
  6
Continuous
 62
     7
370
    25
100
AcDbLine
 10
2286.0901818182
 20
-625.2352727273
 30
0.0
 11
2286.0901818182
 21
-355.318533848
 31
0.0
  0
ELLIPSE
  5
2D7
330
1F
100
AcDbEntity
  8
0
  6
Continuous
 62
     7
370
    25
100
AcDbEllipse
 10
2292.0901818182
 20
-355.318533848
 30
0.0
 11
6.0
 21
0.0
 31
0.0
210
0.0
220
0.0
230
1.0
 40
0.4142135624
 41
3.14159265358977
 42
4.712388980384695
  0
LINE
  5
2D8
330
1F
100
AcDbEntity
  8
0
  6
Continuous
 62
     7
370
    25
100
AcDbLine
 10
2292.0901818182
 20
-631.2352727273
 30
0.0
 11
2292.0901818182
 21
-357.8038152222
 31
0.0
  0
LINE
  5
2D9
330
1F
100
AcDbEntity
  8
0
  6
Continuous
 62
     7
370
    25
100
AcDbLine
 10
2360.0901818182
 20
-631.2352727273
 30
0.0
 11
2292.0901818182
 21
-631.2352727273
 31
0.0
  0
LINE
  5
2DA
330
1F
100
AcDbEntity
  8
0
  6
Continuous
 62
     7
370
    25
100
AcDbLine
 10
2360.0901818182
 20
-357.8038152222
 30
0.0
 11
2292.0901818182
 21
-357.8038152222
 31
0.0
  0
LINE
  5
2DB
330
1F
100
AcDbEntity
  8
0
  6
Continuous
 62
     7
370
    25
100
AcDbLine
 10
2360.0901818182
 20
-631.2352727273
 30
0.0
 11
2360.0901818182
 21
-357.8038152222
 31
0.0
  0
LINE
  5
2DC
330
1F
100
AcDbEntity
  8
0
  6
Continuous
 62
     7
370
    25
100
AcDbLine
 10
2286.0901818182
 20
-355.318533848
 30
0.0
 11
2286.0901818182
 21
-91.2352727273
 31
0.0
  0
LINE
  5
2DD
330
1F
100
AcDbEntity
  8
0
  6
Continuous
 62
     7
370
    25
100
AcDbLine
 10
2292.0901818182
 20
-357.8038152222
 30
0.0
 11
2292.0901818182
 21
-91.2352727273
 31
0.0
  0
LINE
  5
2DE
330
1F
100
AcDbEntity
  8
0
  6
Continuous
 62
     7
370
    25
100
AcDbLine
 10
2360.0901818182
 20
-357.8038152222
 30
0.0
 11
2360.0901818182
 21
-91.2352727273
 31
0.0
  0
LWPOLYLINE
  5
2DF
330
1F
100
AcDbEntity
  8
0
  6
Continuous
 62
     7
370
    25
100
AcDbPolyline
 90
        3
 70
   128
 43
0.0
 10
2326.0901818182
 20
-125.9852727273
 10
2324.7313818314
 20
-126.1641621393
 10
2324.4981004869
 20
-126.232495795
  0
LWPOLYLINE
  5
2E0
330
1F
100
AcDbEntity
  8
0
  6
Continuous
 62
     7
370
    25
100
AcDbPolyline
 90
        3
 70
   128
 43
0.0
 10
2328.3265445357
 20
-126.4854114876
 10
2327.448981805
 20
-126.1641621393
 10
2326.0901818182
 20
-125.9852727273
  0
LINE
  5
2E1
330
1F
100
AcDbEntity
  8
0
  6
Continuous
 62
     7
370
    25
100
AcDbLine
 10
2292.0901818182
 20
-91.2352727273
 30
0.0
 11
2360.0901818182
 21
-91.2352727273
 31
0.0
  0
LINE
  5
2E2
330
1F
100
AcDbEntity
  8
0
  6
Continuous
 62
     7
370
    25
100
AcDbLine
 10
2366.0901818182
 20
-355.318533848
 30
0.0
 11
2366.0901818182
 21
-91.2352727273
 31
0.0
  0
ELLIPSE
  5
2E3
330
1F
100
AcDbEntity
  8
0
  6
Continuous
 62
     7
370
    25
100
AcDbEllipse
 10
2360.0901818182
 20
-355.318533848
 30
0.0
 11
6.0
 21
0.0
 31
0.0
210
0.0
220
0.0
230
1.0
 40
0.4142135624
 41
4.712388980384695
 42
6.283185307179586
  0
ARC
  5
2E4
330
1F
100
AcDbEntity
  8
0
  6
Continuous
 62
     7
370
    25
100
AcDbCircle
 10
2360.0901818182
 20
-625.2352727273
 30
0.0
 40
6.000000000000455
100
AcDbArc
 50
270.0
 51
0.0
  0
LINE
  5
2E5
330
1F
100
AcDbEntity
  8
0
  6
Continuous
 62
     7
370
    25
100
AcDbLine
 10
2366.0901818182
 20
-625.2352727273
 30
0.0
 11
2366.0901818182
 21
-355.318533848
 31
0.0
  0
LINE
  5
2E6
330
1F
100
AcDbEntity
  8
0
  6
Continuous
 62
     7
370
    25
100
AcDbLine
 10
2292.0901818182
 20
848.7647272727
 30
0.0
 11
2360.0901818182
 21
848.7647272727
 31
0.0
  0
LINE
  5
2E7
330
1F
100
AcDbEntity
  8
0
  6
Continuous
 62
     7
370
    25
100
AcDbLine
 10
2360.0901818182
 20
848.7647272727
 30
0.0
 11
2360.0901818182
 21
575.3332697677
 31
0.0
  0
LINE
  5
2E8
330
1F
100
AcDbEntity
  8
0
  6
Continuous
 62
     7
370
    25
100
AcDbLine
 10
2292.0901818182
 20
575.3332697677
 30
0.0
 11
2360.0901818182
 21
575.3332697677
 31
0.0
  0
LINE
  5
2E9
330
1F
100
AcDbEntity
  8
0
  6
Continuous
 62
     7
370
    25
100
AcDbLine
 10
2292.0901818182
 20
848.7647272727
 30
0.0
 11
2292.0901818182
 21
575.3332697677
 31
0.0
  0
ARC
  5
2EA
330
1F
100
AcDbEntity
  8
0
  6
Continuous
 62
     7
370
    25
100
AcDbCircle
 10
2292.0901818182
 20
842.7647272727
 30
0.0
 40
6.0
100
AcDbArc
 50
90.0
 51
180.0
  0
ELLIPSE
  5
2EB
330
1F
100
AcDbEntity
  8
0
  6
Continuous
 62
     7
370
    25
100
AcDbEllipse
 10
2292.0901818182
 20
572.8479883934
 30
0.0
 11
6.0
 21
0.0
 31
0.0
210
0.0
220
0.0
230
1.0
 40
0.4142135624
 41
1.570796326794897
 42
3.141592653589872
  0
LINE
  5
2EC
330
1F
100
AcDbEntity
  8
0
  6
Continuous
 62
     7
370
    25
100
AcDbLine
 10
2286.0901818182
 20
842.7647272727
 30
0.0
 11
2286.0901818182
 21
572.8479883934
 31
0.0
  0
ARC
  5
2ED
330
1F
100
AcDbEntity
  8
0
  6
Continuous
 62
     7
370
    25
100
AcDbCircle
 10
2360.0901818182
 20
842.7647272727
 30
0.0
 40
6.000000000000455
100
AcDbArc
 50
360.0
 51
90.0
  0
LINE
  5
2EE
330
1F
100
AcDbEntity
  8
0
  6
Continuous
 62
     7
370
    25
100
AcDbLine
 10
2366.0901818182
 20
842.7647272727
 30
0.0
 11
2366.0901818182
 21
572.8479883934
 31
0.0
  0
ELLIPSE
  5
2EF
330
1F
100
AcDbEntity
  8
0
  6
Continuous
 62
     7
370
    25
100
AcDbEllipse
 10
2360.0901818182
 20
572.8479883934
 30
0.0
 11
6.0
 21
0.0
 31
0.0
210
0.0
220
0.0
230
1.0
 40
0.4142135624
 41
0.0
 42
1.570796326794897
  0
LINE
  5
2F0
330
1F
100
AcDbEntity
  8
0
  6
Continuous
 62
     7
370
    25
100
AcDbLine
 10
2292.0901818182
 20
575.3332697677
 30
0.0
 11
2292.0901818182
 21
308.7647272727
 31
0.0
  0
LINE
  5
2F1
330
1F
100
AcDbEntity
  8
0
  6
Continuous
 62
     7
370
    25
100
AcDbLine
 10
2286.0901818182
 20
572.8479883934
 30
0.0
 11
2286.0901818182
 21
308.7647272727
 31
0.0
  0
LINE
  5
2F2
330
1F
100
AcDbEntity
  8
0
  6
Continuous
 62
     7
370
    25
100
AcDbLine
 10
2366.0901818182
 20
572.8479883934
 30
0.0
 11
2366.0901818182
 21
308.7647272727
 31
0.0
  0
LINE
  5
2F3
330
1F
100
AcDbEntity
  8
0
  6
Continuous
 62
     7
370
    25
100
AcDbLine
 10
2360.0901818182
 20
575.3332697677
 30
0.0
 11
2360.0901818182
 21
308.7647272727
 31
0.0
  0
LINE
  5
2F4
330
1F
100
AcDbEntity
  8
0
  6
Continuous
 62
     7
370
    25
100
AcDbLine
 10
2360.0901818182
 20
308.7647272727
 30
0.0
 11
2292.0901818182
 21
308.7647272727
 31
0.0
  0
LINE
  5
2F5
330
1F
100
AcDbEntity
  8
0
  6
Continuous
 62
     7
370
    25
100
AcDbLine
 10
2866.0901818182
 20
2848.7647272727
 30
0.0
 11
-1697.9098181818
 21
2848.7647272727
 31
0.0
  0
LINE
  5
2F6
330
1F
100
AcDbEntity
  8
0
  6
Continuous
 62
     7
370
    25
100
AcDbLine
 10
4366.0901818182
 20
-1131.2352727273
 30
0.0
 11
4366.0901818182
 21
1348.7647272727
 31
0.0
  0
ARC
  5
2F7
330
1F
100
AcDbEntity
  8
0
  6
Continuous
 62
     7
370
    25
100
AcDbCircle
 10
2866.0901818182
 20
1348.7647272727
 30
0.0
 40
1500.0
100
AcDbArc
 50
0.0
 51
90.0
  0
ARC
  5
2F8
330
1F
100
AcDbEntity
  8
0
  6
Continuous
 62
     7
370
    25
100
AcDbCircle
 10
-2597.9098181818
 20
848.7647272727
 30
0.0
 40
1500.0
100
AcDbArc
 50
98.9834004127
 51
180.0
  0
ARC
  5
2F9
330
1F
100
AcDbEntity
  8
0
  6
Continuous
 62
     7
370
    25
100
AcDbCircle
 10
-1697.9098181818
 20
1348.7647272727
 30
0.0
 40
1500.0
100
AcDbArc
 50
90.0
 51
139.1258077855
  0
LINE
  5
2FA
330
1F
100
AcDbEntity
  8
0
  6
Continuous
 62
     7
370
    25
100
AcDbLine
 10
-4097.9098181818
 20
68.7647272727
 30
0.0
 11
-4097.9098181818
 21
848.7647272727
 31
0.0
  0
ARC
  5
2FB
330
1F
100
AcDbEntity
  8
0
  6
Continuous
 62
     7
370
    25
100
AcDbCircle
 10
2866.0901818182
 20
-1131.2352727273
 30
0.0
 40
1500.0
100
AcDbArc
 50
270.0
 51
0.0
  0
ARC
  5
2FC
330
1F
100
AcDbEntity
  8
0
  6
Continuous
 62
     7
370
    25
100
AcDbCircle
 10
-2597.9098181818
 20
68.7647272727
 30
0.0
 40
1500.0
100
AcDbArc
 50
180.0
 51
246.8698976458
  0
LINE
  5
2FD
330
1F
100
AcDbEntity
  8
0
  6
Continuous
 62
     7
370
    25
100
AcDbLine
 10
2866.0901818182
 20
-2631.2352727273
 30
0.0
 11
-1697.9098181818
 21
-2631.2352727273
 31
0.0
  0
ARC
  5
2FE
330
1F
100
AcDbEntity
  8
0
  6
Continuous
 62
     7
370
    25
100
AcDbCircle
 10
-1697.9098181818
 20
-1131.2352727273
 30
0.0
 40
1500.0
100
AcDbArc
 50
186.8698976458
 51
270.0
  0
LINE
  5
2FF
330
1F
100
AcDbEntity
  8
0
  6
Continuous
 62
     7
370
    25
100
AcDbLine
 10
666.5874264848
 20
-643.7352727273
 30
0.0
 11
679.8401818182
 21
-643.7352727273
 31
0.0
  0
LINE
  5
300
330
1F
100
AcDbEntity
  8
0
  6
Continuous
 62
     7
370
    25
100
AcDbLine
 10
658.3401818182
 20
-643.7352727273
 30
0.0
 11
666.5874264848
 21
-643.7352727273
 31
0.0
  0
LINE
  5
301
330
1F
100
AcDbEntity
  8
0
  6
Continuous
 62
     7
370
    25
100
AcDbLine
 10
-1168.6598181818
 20
756.2647272727
 30
0.0
 11
-1147.1598181818
 21
756.2647272727
 31
0.0
  0
LINE
  5
302
330
1F
100
AcDbEntity
  8
0
  6
Continuous
 62
     7
370
    25
100
AcDbLine
 10
288.3401818182
 20
-643.7352727273
 30
0.0
 11
309.8401818182
 21
-643.7352727273
 31
0.0
  0
LINE
  5
303
330
1F
100
AcDbEntity
  8
0
  6
Continuous
 62
     7
370
    25
100
AcDbLine
 10
-298.4070628484
 20
861.2647272727
 30
0.0
 11
-311.6598181818
 21
861.2647272727
 31
0.0
  0
LINE
  5
304
330
1F
100
AcDbEntity
  8
0
  6
Continuous
 62
     7
370
    25
100
AcDbLine
 10
-290.1598181818
 20
861.2647272727
 30
0.0
 11
-298.4070628484
 21
861.2647272727
 31
0.0
  0
LINE
  5
305
330
1F
100
AcDbEntity
  8
0
  6
Continuous
 62
     7
370
    25
100
AcDbLine
 10
301.5929371516
 20
861.2647272727
 30
0.0
 11
288.3401818182
 21
861.2647272727
 31
0.0
  0
LINE
  5
306
330
1F
100
AcDbEntity
  8
0
  6
Continuous
 62
     7
370
    25
100
AcDbLine
 10
309.8401818182
 20
861.2647272727
 30
0.0
 11
301.5929371516
 21
861.2647272727
 31
0.0
  0
LINE
  5
307
330
1F
100
AcDbEntity
  8
0
  6
Continuous
 62
     7
370
    25
100
AcDbLine
 10
-1159.7207646171
 20
51.2647272727
 30
0.0
 11
-1147.1598181818
 21
51.2647272727
 31
0.0
  0
LINE
  5
308
330
1F
100
AcDbEntity
  8
0
  6
Continuous
 62
     7
370
    25
100
AcDbLine
 10
-1168.6598181818
 20
51.2647272727
 30
0.0
 11
-1159.7207646171
 21
51.2647272727
 31
0.0
  0
LINE
  5
309
330
1F
100
AcDbEntity
  8
0
  6
Continuous
 62
     7
370
    25
100
AcDbLine
 10
-898.4070628484
 20
861.2647272727
 30
0.0
 11
-911.6598181818
 21
861.2647272727
 31
0.0
  0
LINE
  5
30A
330
1F
100
AcDbEntity
  8
0
  6
Continuous
 62
     7
370
    25
100
AcDbLine
 10
-890.1598181818
 20
861.2647272727
 30
0.0
 11
-898.4070628484
 21
861.2647272727
 31
0.0
  0
LINE
  5
30B
330
1F
100
AcDbEntity
  8
0
  6
Continuous
 62
     7
370
    25
100
AcDbLine
 10
679.8401818182
 20
861.2647272727
 30
0.0
 11
658.3401818182
 21
861.2647272727
 31
0.0
  0
LINE
  5
30C
330
1F
100
AcDbEntity
  8
0
  6
Continuous
 62
     7
370
    25
100
AcDbLine
 10
2378.5901818182
 20
798.0147272727
 30
0.0
 11
2378.5901818182
 21
819.5147272727
 31
0.0
  0
LINE
  5
30D
330
1F
100
AcDbEntity
  8
0
  6
Continuous
 62
     7
370
    25
100
AcDbLine
 10
-911.6598181818
 20
-643.7352727273
 30
0.0
 11
-890.1598181818
 21
-643.7352727273
 31
0.0
  0
LINE
  5
30E
330
1F
100
AcDbEntity
  8
0
  6
Continuous
 62
     7
370
    25
100
AcDbLine
 10
-311.6598181818
 20
-643.7352727273
 30
0.0
 11
-290.1598181818
 21
-643.7352727273
 31
0.0
  0
LINE
  5
30F
330
1F
100
AcDbEntity
  8
0
  6
Continuous
 62
     7
370
    25
100
AcDbLine
 10
-520.1598181818
 20
861.2647272727
 30
0.0
 11
-541.6598181818
 21
861.2647272727
 31
0.0
  0
LINE
  5
310
330
1F
100
AcDbEntity
  8
0
  6
Continuous
 62
     7
370
    25
100
AcDbLine
 10
926.0901818182
 20
756.2647272727
 30
0.0
 11
936.8401818182
 21
756.2647272727
 31
0.0
  0
LINE
  5
311
330
1F
100
AcDbEntity
  8
0
  6
Continuous
 62
     7
370
    25
100
AcDbLine
 10
915.3401818182
 20
756.2647272727
 30
0.0
 11
926.0901818182
 21
756.2647272727
 31
0.0
  0
LINE
  5
312
330
1F
100
AcDbEntity
  8
0
  6
Continuous
 62
     7
370
    25
100
AcDbLine
 10
-1105.4098181818
 20
98.0147272727
 30
0.0
 11
-1105.4098181818
 21
119.5147272727
 31
0.0
  0
LINE
  5
313
330
1F
100
AcDbEntity
  8
0
  6
Continuous
 62
     7
370
    25
100
AcDbLine
 10
844.0901818182
 20
756.2647272727
 30
0.0
 11
854.8401818182
 21
756.2647272727
 31
0.0
  0
LINE
  5
314
330
1F
100
AcDbEntity
  8
0
  6
Continuous
 62
     7
370
    25
100
AcDbLine
 10
833.3401818182
 20
756.2647272727
 30
0.0
 11
844.0901818182
 21
756.2647272727
 31
0.0
  0
LINE
  5
315
330
1F
100
AcDbEntity
  8
0
  6
Continuous
 62
     7
370
    25
100
AcDbLine
 10
754.0901818182
 20
756.2647272727
 30
0.0
 11
764.8401818182
 21
756.2647272727
 31
0.0
  0
LINE
  5
316
330
1F
100
AcDbEntity
  8
0
  6
Continuous
 62
     7
370
    25
100
AcDbLine
 10
743.3401818182
 20
756.2647272727
 30
0.0
 11
754.0901818182
 21
756.2647272727
 31
0.0
  0
LINE
  5
317
330
1F
100
AcDbEntity
  8
0
  6
Continuous
 62
     7
370
    25
100
AcDbLine
 10
79.8401818182
 20
861.2647272727
 30
0.0
 11
58.3401818182
 21
861.2647272727
 31
0.0
  0
LINE
  5
318
330
1F
100
AcDbEntity
  8
0
  6
Continuous
 62
     7
370
    25
100
AcDbLine
 10
936.8401818182
 20
-538.7352727273
 30
0.0
 11
915.3401818182
 21
-538.7352727273
 31
0.0
  0
LINE
  5
319
330
1F
100
AcDbEntity
  8
0
  6
Continuous
 62
     7
370
    25
100
AcDbLine
 10
-2610.4098181818
 20
819.5147272727
 30
0.0
 11
-2610.4098181818
 21
798.0147272727
 31
0.0
  0
LINE
  5
31A
330
1F
100
AcDbEntity
  8
0
  6
Continuous
 62
     7
370
    25
100
AcDbLine
 10
66.5874264848
 20
-643.7352727273
 30
0.0
 11
79.8401818182
 21
-643.7352727273
 31
0.0
  0
LINE
  5
31B
330
1F
100
AcDbEntity
  8
0
  6
Continuous
 62
     7
370
    25
100
AcDbLine
 10
58.3401818182
 20
-643.7352727273
 30
0.0
 11
66.5874264848
 21
-643.7352727273
 31
0.0
  0
LINE
  5
31C
330
1F
100
AcDbEntity
  8
0
  6
Continuous
 62
     7
370
    25
100
AcDbLine
 10
-985.9098181818
 20
-538.7352727273
 30
0.0
 11
-996.6598181818
 21
-538.7352727273
 31
0.0
  0
LINE
  5
31D
330
1F
100
AcDbEntity
  8
0
  6
Continuous
 62
     7
370
    25
100
AcDbLine
 10
-975.1598181818
 20
-538.7352727273
 30
0.0
 11
-985.9098181818
 21
-538.7352727273
 31
0.0
  0
LINE
  5
31E
330
1F
100
AcDbEntity
  8
0
  6
Continuous
 62
     7
370
    25
100
AcDbLine
 10
-1157.9098181818
 20
-538.7352727273
 30
0.0
 11
-1168.6598181818
 21
-538.7352727273
 31
0.0
  0
LINE
  5
31F
330
1F
100
AcDbEntity
  8
0
  6
Continuous
 62
     7
370
    25
100
AcDbLine
 10
-1147.1598181818
 20
-538.7352727273
 30
0.0
 11
-1157.9098181818
 21
-538.7352727273
 31
0.0
  0
LINE
  5
320
330
1F
100
AcDbEntity
  8
0
  6
Continuous
 62
     7
370
    25
100
AcDbLine
 10
764.8401818182
 20
-538.7352727273
 30
0.0
 11
743.3401818182
 21
-538.7352727273
 31
0.0
  0
LINE
  5
321
330
1F
100
AcDbEntity
  8
0
  6
Continuous
 62
     7
370
    25
100
AcDbLine
 10
-1075.9098181818
 20
-538.7352727273
 30
0.0
 11
-1086.6598181818
 21
-538.7352727273
 31
0.0
  0
LINE
  5
322
330
1F
100
AcDbEntity
  8
0
  6
Continuous
 62
     7
370
    25
100
AcDbLine
 10
-1065.1598181818
 20
-538.7352727273
 30
0.0
 11
-1075.9098181818
 21
-538.7352727273
 31
0.0
  0
LINE
  5
323
330
1F
100
AcDbEntity
  8
0
  6
Continuous
 62
     7
370
    25
100
AcDbLine
 10
854.8401818182
 20
-538.7352727273
 30
0.0
 11
833.3401818182
 21
-538.7352727273
 31
0.0
  0
LINE
  5
324
330
1F
100
AcDbEntity
  8
0
  6
Continuous
 62
     7
370
    25
100
AcDbLine
 10
-2610.4098181818
 20
110.3435610898
 30
0.0
 11
-2610.4098181818
 21
98.0147272727
 31
0.0
  0
LINE
  5
325
330
1F
100
AcDbEntity
  8
0
  6
Continuous
 62
     7
370
    25
100
AcDbLine
 10
-2610.4098181818
 20
119.5147272727
 30
0.0
 11
-2610.4098181818
 21
110.3435610898
 31
0.0
  0
LINE
  5
326
330
1F
100
AcDbEntity
  8
0
  6
Continuous
 62
     7
370
    25
100
AcDbLine
 10
-996.6598181818
 20
756.2647272727
 30
0.0
 11
-975.1598181818
 21
756.2647272727
 31
0.0
  0
LINE
  5
327
330
1F
100
AcDbEntity
  8
0
  6
Continuous
 62
     7
370
    25
100
AcDbLine
 10
-533.4125735152
 20
-643.7352727273
 30
0.0
 11
-520.1598181818
 21
-643.7352727273
 31
0.0
  0
LINE
  5
328
330
1F
100
AcDbEntity
  8
0
  6
Continuous
 62
     7
370
    25
100
AcDbLine
 10
-541.6598181818
 20
-643.7352727273
 30
0.0
 11
-533.4125735152
 21
-643.7352727273
 31
0.0
  0
LINE
  5
329
330
1F
100
AcDbEntity
  8
0
  6
Continuous
 62
     7
370
    25
100
AcDbLine
 10
2378.5901818182
 20
-587.9361791099
 30
0.0
 11
2378.5901818182
 21
-580.4852727272
 31
0.0
  0
LINE
  5
32A
330
1F
100
AcDbEntity
  8
0
  6
Continuous
 62
     7
370
    25
100
AcDbLine
 10
2378.5901818182
 20
-601.9852727272
 30
0.0
 11
2378.5901818182
 21
-587.9361791099
 31
0.0
  0
LINE
  5
32B
330
1F
100
AcDbEntity
  8
0
  6
Continuous
 62
     7
370
    25
100
AcDbLine
 10
-1086.6598181818
 20
756.2647272727
 30
0.0
 11
-1065.1598181818
 21
756.2647272727
 31
0.0
  0
LINE
  5
32C
330
1F
100
AcDbEntity
  8
0
  6
Continuous
 62
     7
370
    25
100
AcDbLine
 10
966.0901818182
 20
846.7647272727
 30
0.0
 11
963.0901818182
 21
845.7647272727
 31
0.0
  0
LINE
  5
32D
330
1F
100
AcDbEntity
  8
0
  6
Continuous
 62
     7
370
    25
100
AcDbLine
 10
964.0901818182
 20
848.7647272727
 30
0.0
 11
963.0901818182
 21
845.7647272727
 31
0.0
  0
ARC
  5
32E
330
1F
100
AcDbEntity
  8
0
  6
Continuous
 62
     7
370
    25
100
AcDbCircle
 10
964.0901818182
 20
846.7647272727
 30
0.0
 40
2.0
100
AcDbArc
 50
0.0
 51
90.0
  0
LINE
  5
32F
330
1F
100
AcDbEntity
  8
0
  6
Continuous
 62
     7
370
    25
100
AcDbLine
 10
889.0901818182
 20
845.7647272727
 30
0.0
 11
889.0901818182
 21
771.7647272727
 31
0.0
  0
LINE
  5
330
330
1F
100
AcDbEntity
  8
0
  6
Continuous
 62
     7
370
    25
100
AcDbLine
 10
889.0901818182
 20
771.7647272727
 30
0.0
 11
886.0901818182
 21
770.7647272727
 31
0.0
  0
LINE
  5
331
330
1F
100
AcDbEntity
  8
0
  6
Continuous
 62
     7
370
    25
100
AcDbLine
 10
886.0901818182
 20
770.7647272727
 30
0.0
 11
886.0901818182
 21
846.7647272727
 31
0.0
  0
LINE
  5
332
330
1F
100
AcDbEntity
  8
0
  6
Continuous
 62
     7
370
    25
100
AcDbLine
 10
889.0901818182
 20
845.7647272727
 30
0.0
 11
886.0901818182
 21
846.7647272727
 31
0.0
  0
LINE
  5
333
330
1F
100
AcDbEntity
  8
0
  6
Continuous
 62
     7
370
    25
100
AcDbLine
 10
963.0901818182
 20
845.7647272727
 30
0.0
 11
889.0901818182
 21
845.7647272727
 31
0.0
  0
LINE
  5
334
330
1F
100
AcDbEntity
  8
0
  6
Continuous
 62
     7
370
    25
100
AcDbLine
 10
889.0901818182
 20
845.7647272727
 30
0.0
 11
888.0901818182
 21
848.7647272727
 31
0.0
  0
LINE
  5
335
330
1F
100
AcDbEntity
  8
0
  6
Continuous
 62
     7
370
    25
100
AcDbLine
 10
888.0901818182
 20
848.7647272727
 30
0.0
 11
964.0901818182
 21
848.7647272727
 31
0.0
  0
LINE
  5
336
330
1F
100
AcDbEntity
  8
0
  6
Continuous
 62
     7
370
    25
100
AcDbLine
 10
889.0901818182
 20
771.7647272727
 30
0.0
 11
888.0901818182
 21
768.7647272727
 31
0.0
  0
ARC
  5
337
330
1F
100
AcDbEntity
  8
0
  6
Continuous
 62
     7
370
    25
100
AcDbCircle
 10
888.0901818182
 20
770.7647272727
 30
0.0
 40
2.000000000000114
100
AcDbArc
 50
180.0
 51
270.0
  0
ARC
  5
338
330
1F
100
AcDbEntity
  8
0
  6
Continuous
 62
     7
370
    25
100
AcDbCircle
 10
888.0901818182
 20
846.7647272727
 30
0.0
 40
2.0
100
AcDbArc
 50
90.0
 51
180.0
  0
LINE
  5
339
330
1F
100
AcDbEntity
  8
0
  6
Continuous
 62
     7
370
    25
100
AcDbLine
 10
964.0901818182
 20
768.7647272727
 30
0.0
 11
963.0901818182
 21
771.7647272727
 31
0.0
  0
LINE
  5
33A
330
1F
100
AcDbEntity
  8
0
  6
Continuous
 62
     7
370
    25
100
AcDbLine
 10
966.0901818182
 20
770.7647272727
 30
0.0
 11
963.0901818182
 21
771.7647272727
 31
0.0
  0
ARC
  5
33B
330
1F
100
AcDbEntity
  8
0
  6
Continuous
 62
     7
370
    25
100
AcDbCircle
 10
964.0901818182
 20
770.7647272727
 30
0.0
 40
2.000000000000114
100
AcDbArc
 50
270.0
 51
0.0
  0
LINE
  5
33C
330
1F
100
AcDbEntity
  8
0
  6
Continuous
 62
     7
370
    25
100
AcDbLine
 10
889.0901818182
 20
771.7647272727
 30
0.0
 11
963.0901818182
 21
771.7647272727
 31
0.0
  0
LINE
  5
33D
330
1F
100
AcDbEntity
  8
0
  6
Continuous
 62
     7
370
    25
100
AcDbLine
 10
964.0901818182
 20
768.7647272727
 30
0.0
 11
888.0901818182
 21
768.7647272727
 31
0.0
  0
LINE
  5
33E
330
1F
100
AcDbEntity
  8
0
  6
Continuous
 62
     7
370
    25
100
AcDbLine
 10
966.0901818182
 20
846.7647272727
 30
0.0
 11
966.0901818182
 21
770.7647272727
 31
0.0
  0
LINE
  5
33F
330
1F
100
AcDbEntity
  8
0
  6
Continuous
 62
     7
370
    25
100
AcDbLine
 10
963.0901818182
 20
771.7647272727
 30
0.0
 11
963.0901818182
 21
845.7647272727
 31
0.0
  0
CIRCLE
  5
340
330
1F
100
AcDbEntity
  8
0
  6
Continuous
 62
     7
370
    25
100
AcDbCircle
 10
926.0901818182
 20
808.7647272727
 30
0.0
 40
1.0
  0
ARC
  5
341
330
1F
100
AcDbEntity
  8
0
  6
Continuous
 62
     7
370
    25
100
AcDbCircle
 10
2363.0901818182
 20
306.7647272727
 30
0.0
 40
3.0
100
AcDbArc
 50
270.0
 51
0.0
  0
ELLIPSE
  5
342
330
1F
100
AcDbEntity
  8
0
  6
Continuous
 62
     7
370
    25
100
AcDbEllipse
 10
2363.0901818182
 20
306.7647272727
 30
0.0
 11
0.0
 21
3.0
 31
0.0
210
0.0
220
0.0
230
1.0
 40
0.3333333333
 41
3.141592653589793
 42
4.712388980384694
  0
LINE
  5
343
330
1F
100
AcDbEntity
  8
0
  6
Continuous
 62
     7
370
    25
100
AcDbLine
 10
2364.0901818182
 20
306.7647272727
 30
0.0
 11
2366.0901818182
 21
306.7647272727
 31
0.0
  0
ARC
  5
344
330
1F
100
AcDbEntity
  8
0
  6
Continuous
 62
     7
370
    25
100
AcDbCircle
 10
2289.0901818182
 20
306.7647272727
 30
0.0
 40
3.0
100
AcDbArc
 50
180.0
 51
270.0
  0
LINE
  5
345
330
1F
100
AcDbEntity
  8
0
  6
Continuous
 62
     7
370
    25
100
AcDbLine
 10
2286.0901818182
 20
306.7647272727
 30
0.0
 11
2288.0901818182
 21
306.7647272727
 31
0.0
  0
ELLIPSE
  5
346
330
1F
100
AcDbEntity
  8
0
  6
Continuous
 62
     7
370
    25
100
AcDbEllipse
 10
2289.0901818182
 20
306.7647272727
 30
0.0
 11
0.0
 21
3.0
 31
0.0
210
0.0
220
0.0
230
1.0
 40
0.3333333333
 41
1.570796326794897
 42
3.141592653589793
  0
LINE
  5
347
330
1F
100
AcDbEntity
  8
0
  6
Continuous
 62
     7
370
    25
100
AcDbLine
 10
2364.0901818182
 20
308.7647272727
 30
0.0
 11
2288.0901818182
 21
308.7647272727
 31
0.0
  0
LINE
  5
348
330
1F
100
AcDbEntity
  8
0
  6
Continuous
 62
     7
370
    25
100
AcDbLine
 10
2364.0901818182
 20
306.7647272727
 30
0.0
 11
2364.0901818182
 21
308.7647272727
 31
0.0
  0
LINE
  5
349
330
1F
100
AcDbEntity
  8
0
  6
Continuous
 62
     7
370
    25
100
AcDbLine
 10
2288.0901818182
 20
306.7647272727
 30
0.0
 11
2364.0901818182
 21
306.7647272727
 31
0.0
  0
LINE
  5
34A
330
1F
100
AcDbEntity
  8
0
  6
Continuous
 62
     7
370
    25
100
AcDbLine
 10
2288.0901818182
 20
306.7647272727
 30
0.0
 11
2288.0901818182
 21
308.7647272727
 31
0.0
  0
LINE
  5
34B
330
1F
100
AcDbEntity
  8
0
  6
Continuous
 62
     7
370
    25
100
AcDbLine
 10
2288.0901818182
 20
308.7647272727
 30
0.0
 11
2286.0901818182
 21
308.7647272727
 31
0.0
  0
LINE
  5
34C
330
1F
100
AcDbEntity
  8
0
  6
Continuous
 62
     7
370
    25
100
AcDbLine
 10
2286.0901818182
 20
306.7647272727
 30
0.0
 11
2286.0901818182
 21
308.7647272727
 31
0.0
  0
LINE
  5
34D
330
1F
100
AcDbEntity
  8
0
  6
Continuous
 62
     7
370
    25
100
AcDbLine
 10
2363.0901818182
 20
303.7647272727
 30
0.0
 11
2289.0901818182
 21
303.7647272727
 31
0.0
  0
LINE
  5
34E
330
1F
100
AcDbEntity
  8
0
  6
Continuous
 62
     7
370
    25
100
AcDbLine
 10
2366.0901818182
 20
308.7647272727
 30
0.0
 11
2364.0901818182
 21
308.7647272727
 31
0.0
  0
LINE
  5
34F
330
1F
100
AcDbEntity
  8
0
  6
Continuous
 62
     7
370
    25
100
AcDbLine
 10
2366.0901818182
 20
306.7647272727
 30
0.0
 11
2366.0901818182
 21
308.7647272727
 31
0.0
  0
LINE
  5
350
330
1F
100
AcDbEntity
  8
0
  6
Continuous
 62
     7
370
    25
100
AcDbLine
 10
-1197.9098181818
 20
770.7647272727
 30
0.0
 11
-1194.9098181818
 21
771.7647272727
 31
0.0
  0
LINE
  5
351
330
1F
100
AcDbEntity
  8
0
  6
Continuous
 62
     7
370
    25
100
AcDbLine
 10
-1195.9098181818
 20
768.7647272727
 30
0.0
 11
-1194.9098181818
 21
771.7647272727
 31
0.0
  0
ARC
  5
352
330
1F
100
AcDbEntity
  8
0
  6
Continuous
 62
     7
370
    25
100
AcDbCircle
 10
-1195.9098181818
 20
770.7647272727
 30
0.0
 40
2.000000000000227
100
AcDbArc
 50
180.0
 51
270.0
  0
LINE
  5
353
330
1F
100
AcDbEntity
  8
0
  6
Continuous
 62
     7
370
    25
100
AcDbLine
 10
-1195.9098181818
 20
848.7647272727
 30
0.0
 11
-1194.9098181818
 21
845.7647272727
 31
0.0
  0
LINE
  5
354
330
1F
100
AcDbEntity
  8
0
  6
Continuous
 62
     7
370
    25
100
AcDbLine
 10
-1197.9098181818
 20
846.7647272727
 30
0.0
 11
-1194.9098181818
 21
845.7647272727
 31
0.0
  0
ARC
  5
355
330
1F
100
AcDbEntity
  8
0
  6
Continuous
 62
     7
370
    25
100
AcDbCircle
 10
-1195.9098181818
 20
846.7647272727
 30
0.0
 40
2.000000000000227
100
AcDbArc
 50
90.0
 51
180.0
  0
LINE
  5
356
330
1F
100
AcDbEntity
  8
0
  6
Continuous
 62
     7
370
    25
100
AcDbLine
 10
-1194.9098181818
 20
771.7647272727
 30
0.0
 11
-1120.9098181818
 21
771.7647272727
 31
0.0
  0
LINE
  5
357
330
1F
100
AcDbEntity
  8
0
  6
Continuous
 62
     7
370
    25
100
AcDbLine
 10
-1194.9098181818
 20
845.7647272727
 30
0.0
 11
-1194.9098181818
 21
771.7647272727
 31
0.0
  0
LINE
  5
358
330
1F
100
AcDbEntity
  8
0
  6
Continuous
 62
     7
370
    25
100
AcDbLine
 10
-1120.9098181818
 20
845.7647272727
 30
0.0
 11
-1194.9098181818
 21
845.7647272727
 31
0.0
  0
LINE
  5
359
330
1F
100
AcDbEntity
  8
0
  6
Continuous
 62
     7
370
    25
100
AcDbLine
 10
-1120.9098181818
 20
771.7647272727
 30
0.0
 11
-1120.9098181818
 21
845.7647272727
 31
0.0
  0
CIRCLE
  5
35A
330
1F
100
AcDbEntity
  8
0
  6
Continuous
 62
     7
370
    25
100
AcDbCircle
 10
-1157.9098181818
 20
808.7647272727
 30
0.0
 40
1.0
  0
LINE
  5
35B
330
1F
100
AcDbEntity
  8
0
  6
Continuous
 62
     7
370
    25
100
AcDbLine
 10
-1120.9098181818
 20
771.7647272727
 30
0.0
 11
-1117.9098181818
 21
770.7647272727
 31
0.0
  0
ARC
  5
35C
330
1F
100
AcDbEntity
  8
0
  6
Continuous
 62
     7
370
    25
100
AcDbCircle
 10
-1119.9098181818
 20
770.7647272727
 30
0.0
 40
2.000000000000227
100
AcDbArc
 50
270.0
 51
0.0
  0
LINE
  5
35D
330
1F
100
AcDbEntity
  8
0
  6
Continuous
 62
     7
370
    25
100
AcDbLine
 10
-1120.9098181818
 20
771.7647272727
 30
0.0
 11
-1119.9098181818
 21
768.7647272727
 31
0.0
  0
LINE
  5
35E
330
1F
100
AcDbEntity
  8
0
  6
Continuous
 62
     7
370
    25
100
AcDbLine
 10
-1119.9098181818
 20
768.7647272727
 30
0.0
 11
-1195.9098181818
 21
768.7647272727
 31
0.0
  0
LINE
  5
35F
330
1F
100
AcDbEntity
  8
0
  6
Continuous
 62
     7
370
    25
100
AcDbLine
 10
-1120.9098181818
 20
845.7647272727
 30
0.0
 11
-1119.9098181818
 21
848.7647272727
 31
0.0
  0
ARC
  5
360
330
1F
100
AcDbEntity
  8
0
  6
Continuous
 62
     7
370
    25
100
AcDbCircle
 10
-1119.9098181818
 20
846.7647272727
 30
0.0
 40
2.000000000000227
100
AcDbArc
 50
0.0
 51
90.0
  0
LINE
  5
361
330
1F
100
AcDbEntity
  8
0
  6
Continuous
 62
     7
370
    25
100
AcDbLine
 10
-1120.9098181818
 20
845.7647272727
 30
0.0
 11
-1117.9098181818
 21
846.7647272727
 31
0.0
  0
LINE
  5
362
330
1F
100
AcDbEntity
  8
0
  6
Continuous
 62
     7
370
    25
100
AcDbLine
 10
-1195.9098181818
 20
848.7647272727
 30
0.0
 11
-1119.9098181818
 21
848.7647272727
 31
0.0
  0
LINE
  5
363
330
1F
100
AcDbEntity
  8
0
  6
Continuous
 62
     7
370
    25
100
AcDbLine
 10
-1117.9098181818
 20
846.7647272727
 30
0.0
 11
-1117.9098181818
 21
770.7647272727
 31
0.0
  0
LINE
  5
364
330
1F
100
AcDbEntity
  8
0
  6
Continuous
 62
     7
370
    25
100
AcDbLine
 10
-1197.9098181818
 20
770.7647272727
 30
0.0
 11
-1197.9098181818
 21
846.7647272727
 31
0.0
  0
LINE
  5
365
330
1F
100
AcDbEntity
  8
0
  6
Continuous
 62
     7
370
    25
100
AcDbLine
 10
2286.0901818182
 20
-91.2352727273
 30
0.0
 11
2288.0901818182
 21
-91.2352727273
 31
0.0
  0
LINE
  5
366
330
1F
100
AcDbEntity
  8
0
  6
Continuous
 62
     7
370
    25
100
AcDbLine
 10
2286.0901818182
 20
-89.2352727273
 30
0.0
 11
2286.0901818182
 21
-91.2352727273
 31
0.0
  0
LINE
  5
367
330
1F
100
AcDbEntity
  8
0
  6
Continuous
 62
     7
370
    25
100
AcDbLine
 10
2288.0901818182
 20
-89.2352727273
 30
0.0
 11
2286.0901818182
 21
-89.2352727273
 31
0.0
  0
LINE
  5
368
330
1F
100
AcDbEntity
  8
0
  6
Continuous
 62
     7
370
    25
100
AcDbLine
 10
2288.0901818182
 20
-89.2352727273
 30
0.0
 11
2288.0901818182
 21
-91.2352727273
 31
0.0
  0
LINE
  5
369
330
1F
100
AcDbEntity
  8
0
  6
Continuous
 62
     7
370
    25
100
AcDbLine
 10
2364.0901818182
 20
-89.2352727273
 30
0.0
 11
2288.0901818182
 21
-89.2352727273
 31
0.0
  0
LINE
  5
36A
330
1F
100
AcDbEntity
  8
0
  6
Continuous
 62
     7
370
    25
100
AcDbLine
 10
2364.0901818182
 20
-89.2352727273
 30
0.0
 11
2364.0901818182
 21
-91.2352727273
 31
0.0
  0
LINE
  5
36B
330
1F
100
AcDbEntity
  8
0
  6
Continuous
 62
     7
370
    25
100
AcDbLine
 10
2288.0901818182
 20
-91.2352727273
 30
0.0
 11
2364.0901818182
 21
-91.2352727273
 31
0.0
  0
LINE
  5
36C
330
1F
100
AcDbEntity
  8
0
  6
Continuous
 62
     7
370
    25
100
AcDbLine
 10
2366.0901818182
 20
-89.2352727273
 30
0.0
 11
2364.0901818182
 21
-89.2352727273
 31
0.0
  0
LINE
  5
36D
330
1F
100
AcDbEntity
  8
0
  6
Continuous
 62
     7
370
    25
100
AcDbLine
 10
2366.0901818182
 20
-89.2352727273
 30
0.0
 11
2366.0901818182
 21
-91.2352727273
 31
0.0
  0
LINE
  5
36E
330
1F
100
AcDbEntity
  8
0
  6
Continuous
 62
     7
370
    25
100
AcDbLine
 10
2364.0901818182
 20
-91.2352727273
 30
0.0
 11
2366.0901818182
 21
-91.2352727273
 31
0.0
  0
ARC
  5
36F
330
1F
100
AcDbEntity
  8
0
  6
Continuous
 62
     7
370
    25
100
AcDbCircle
 10
2289.0901818182
 20
-89.2352727273
 30
0.0
 40
3.0
100
AcDbArc
 50
90.0
 51
180.0
  0
ELLIPSE
  5
370
330
1F
100
AcDbEntity
  8
0
  6
Continuous
 62
     7
370
    25
100
AcDbEllipse
 10
2289.0901818182
 20
-89.2352727273
 30
0.0
 11
0.0
 21
3.0
 31
0.0
210
0.0
220
0.0
230
1.0
 40
0.3333333333
 41
0.0
 42
1.570796326794897
  0
LINE
  5
371
330
1F
100
AcDbEntity
  8
0
  6
Continuous
 62
     7
370
    25
100
AcDbLine
 10
2289.0901818182
 20
-86.2352727273
 30
0.0
 11
2363.0901818182
 21
-86.2352727273
 31
0.0
  0
ELLIPSE
  5
372
330
1F
100
AcDbEntity
  8
0
  6
Continuous
 62
     7
370
    25
100
AcDbEllipse
 10
2363.0901818182
 20
-89.2352727273
 30
0.0
 11
0.0
 21
3.0
 31
0.0
210
0.0
220
0.0
230
1.0
 40
0.3333333333
 41
4.712388980384694
 42
6.283185307179586
  0
ARC
  5
373
330
1F
100
AcDbEntity
  8
0
  6
Continuous
 62
     7
370
    25
100
AcDbCircle
 10
2363.0901818182
 20
-89.2352727273
 30
0.0
 40
3.0
100
AcDbArc
 50
0.0
 51
90.0
  0
LINE
  5
374
330
1F
100
AcDbEntity
  8
0
  6
Continuous
 62
     7
370
    25
100
AcDbLine
 10
889.0901818182
 20
-628.2352727273
 30
0.0
 11
888.0901818182
 21
-631.2352727273
 31
0.0
  0
ARC
  5
375
330
1F
100
AcDbEntity
  8
0
  6
Continuous
 62
     7
370
    25
100
AcDbCircle
 10
888.0901818182
 20
-629.2352727273
 30
0.0
 40
2.0
100
AcDbArc
 50
180.0
 51
270.0
  0
LINE
  5
376
330
1F
100
AcDbEntity
  8
0
  6
Continuous
 62
     7
370
    25
100
AcDbLine
 10
889.0901818182
 20
-628.2352727273
 30
0.0
 11
886.0901818182
 21
-629.2352727273
 31
0.0
  0
LINE
  5
377
330
1F
100
AcDbEntity
  8
0
  6
Continuous
 62
     7
370
    25
100
AcDbLine
 10
964.0901818182
 20
-631.2352727273
 30
0.0
 11
963.0901818182
 21
-628.2352727273
 31
0.0
  0
LINE
  5
378
330
1F
100
AcDbEntity
  8
0
  6
Continuous
 62
     7
370
    25
100
AcDbLine
 10
966.0901818182
 20
-629.2352727273
 30
0.0
 11
963.0901818182
 21
-628.2352727273
 31
0.0
  0
ARC
  5
379
330
1F
100
AcDbEntity
  8
0
  6
Continuous
 62
     7
370
    25
100
AcDbCircle
 10
964.0901818182
 20
-629.2352727273
 30
0.0
 40
2.0
100
AcDbArc
 50
270.0
 51
0.0
  0
LINE
  5
37A
330
1F
100
AcDbEntity
  8
0
  6
Continuous
 62
     7
370
    25
100
AcDbLine
 10
966.0901818182
 20
-553.2352727273
 30
0.0
 11
963.0901818182
 21
-554.2352727273
 31
0.0
  0
LINE
  5
37B
330
1F
100
AcDbEntity
  8
0
  6
Continuous
 62
     7
370
    25
100
AcDbLine
 10
964.0901818182
 20
-551.2352727273
 30
0.0
 11
963.0901818182
 21
-554.2352727273
 31
0.0
  0
ARC
  5
37C
330
1F
100
AcDbEntity
  8
0
  6
Continuous
 62
     7
370
    25
100
AcDbCircle
 10
964.0901818182
 20
-553.2352727273
 30
0.0
 40
2.0
100
AcDbArc
 50
0.0
 51
90.0
  0
LINE
  5
37D
330
1F
100
AcDbEntity
  8
0
  6
Continuous
 62
     7
370
    25
100
AcDbLine
 10
889.0901818182
 20
-554.2352727273
 30
0.0
 11
889.0901818182
 21
-628.2352727273
 31
0.0
  0
LINE
  5
37E
330
1F
100
AcDbEntity
  8
0
  6
Continuous
 62
     7
370
    25
100
AcDbLine
 10
886.0901818182
 20
-629.2352727273
 30
0.0
 11
886.0901818182
 21
-553.2352727273
 31
0.0
  0
LINE
  5
37F
330
1F
100
AcDbEntity
  8
0
  6
Continuous
 62
     7
370
    25
100
AcDbLine
 10
889.0901818182
 20
-554.2352727273
 30
0.0
 11
886.0901818182
 21
-553.2352727273
 31
0.0
  0
LINE
  5
380
330
1F
100
AcDbEntity
  8
0
  6
Continuous
 62
     7
370
    25
100
AcDbLine
 10
963.0901818182
 20
-554.2352727273
 30
0.0
 11
889.0901818182
 21
-554.2352727273
 31
0.0
  0
LINE
  5
381
330
1F
100
AcDbEntity
  8
0
  6
Continuous
 62
     7
370
    25
100
AcDbLine
 10
889.0901818182
 20
-554.2352727273
 30
0.0
 11
888.0901818182
 21
-551.2352727273
 31
0.0
  0
LINE
  5
382
330
1F
100
AcDbEntity
  8
0
  6
Continuous
 62
     7
370
    25
100
AcDbLine
 10
888.0901818182
 20
-551.2352727273
 30
0.0
 11
964.0901818182
 21
-551.2352727273
 31
0.0
  0
ARC
  5
383
330
1F
100
AcDbEntity
  8
0
  6
Continuous
 62
     7
370
    25
100
AcDbCircle
 10
888.0901818182
 20
-553.2352727273
 30
0.0
 40
2.0
100
AcDbArc
 50
90.0
 51
180.0
  0
LINE
  5
384
330
1F
100
AcDbEntity
  8
0
  6
Continuous
 62
     7
370
    25
100
AcDbLine
 10
966.0901818182
 20
-553.2352727273
 30
0.0
 11
966.0901818182
 21
-629.2352727273
 31
0.0
  0
LINE
  5
385
330
1F
100
AcDbEntity
  8
0
  6
Continuous
 62
     7
370
    25
100
AcDbLine
 10
963.0901818182
 20
-628.2352727273
 30
0.0
 11
963.0901818182
 21
-554.2352727273
 31
0.0
  0
LINE
  5
386
330
1F
100
AcDbEntity
  8
0
  6
Continuous
 62
     7
370
    25
100
AcDbLine
 10
889.0901818182
 20
-628.2352727273
 30
0.0
 11
963.0901818182
 21
-628.2352727273
 31
0.0
  0
LINE
  5
387
330
1F
100
AcDbEntity
  8
0
  6
Continuous
 62
     7
370
    25
100
AcDbLine
 10
964.0901818182
 20
-631.2352727273
 30
0.0
 11
888.0901818182
 21
-631.2352727273
 31
0.0
  0
CIRCLE
  5
388
330
1F
100
AcDbEntity
  8
0
  6
Continuous
 62
     7
370
    25
100
AcDbCircle
 10
926.0901818182
 20
-591.2352727273
 30
0.0
 40
1.0
  0
LINE
  5
389
330
1F
100
AcDbEntity
  8
0
  6
Continuous
 62
     7
370
    25
100
AcDbLine
 10
-1194.9098181818
 20
-628.2352727273
 30
0.0
 11
-1120.9098181818
 21
-628.2352727273
 31
0.0
  0
LINE
  5
38A
330
1F
100
AcDbEntity
  8
0
  6
Continuous
 62
     7
370
    25
100
AcDbLine
 10
-1120.9098181818
 20
-628.2352727273
 30
0.0
 11
-1119.9098181818
 21
-631.2352727273
 31
0.0
  0
LINE
  5
38B
330
1F
100
AcDbEntity
  8
0
  6
Continuous
 62
     7
370
    25
100
AcDbLine
 10
-1119.9098181818
 20
-631.2352727273
 30
0.0
 11
-1195.9098181818
 21
-631.2352727273
 31
0.0
  0
LINE
  5
38C
330
1F
100
AcDbEntity
  8
0
  6
Continuous
 62
     7
370
    25
100
AcDbLine
 10
-1195.9098181818
 20
-631.2352727273
 30
0.0
 11
-1194.9098181818
 21
-628.2352727273
 31
0.0
  0
LINE
  5
38D
330
1F
100
AcDbEntity
  8
0
  6
Continuous
 62
     7
370
    25
100
AcDbLine
 10
-1120.9098181818
 20
-628.2352727273
 30
0.0
 11
-1117.9098181818
 21
-629.2352727273
 31
0.0
  0
ARC
  5
38E
330
1F
100
AcDbEntity
  8
0
  6
Continuous
 62
     7
370
    25
100
AcDbCircle
 10
-1119.9098181818
 20
-629.2352727273
 30
0.0
 40
2.000000000000227
100
AcDbArc
 50
270.0
 51
0.0
  0
LINE
  5
38F
330
1F
100
AcDbEntity
  8
0
  6
Continuous
 62
     7
370
    25
100
AcDbLine
 10
-1194.9098181818
 20
-554.2352727273
 30
0.0
 11
-1194.9098181818
 21
-628.2352727273
 31
0.0
  0
LINE
  5
390
330
1F
100
AcDbEntity
  8
0
  6
Continuous
 62
     7
370
    25
100
AcDbLine
 10
-1120.9098181818
 20
-554.2352727273
 30
0.0
 11
-1194.9098181818
 21
-554.2352727273
 31
0.0
  0
LINE
  5
391
330
1F
100
AcDbEntity
  8
0
  6
Continuous
 62
     7
370
    25
100
AcDbLine
 10
-1120.9098181818
 20
-628.2352727273
 30
0.0
 11
-1120.9098181818
 21
-554.2352727273
 31
0.0
  0
CIRCLE
  5
392
330
1F
100
AcDbEntity
  8
0
  6
Continuous
 62
     7
370
    25
100
AcDbCircle
 10
-1157.9098181818
 20
-591.2352727273
 30
0.0
 40
1.0
  0
LINE
  5
393
330
1F
100
AcDbEntity
  8
0
  6
Continuous
 62
     7
370
    25
100
AcDbLine
 10
-1195.9098181818
 20
-551.2352727273
 30
0.0
 11
-1194.9098181818
 21
-554.2352727273
 31
0.0
  0
LINE
  5
394
330
1F
100
AcDbEntity
  8
0
  6
Continuous
 62
     7
370
    25
100
AcDbLine
 10
-1195.9098181818
 20
-551.2352727273
 30
0.0
 11
-1119.9098181818
 21
-551.2352727273
 31
0.0
  0
LINE
  5
395
330
1F
100
AcDbEntity
  8
0
  6
Continuous
 62
     7
370
    25
100
AcDbLine
 10
-1120.9098181818
 20
-554.2352727273
 30
0.0
 11
-1119.9098181818
 21
-551.2352727273
 31
0.0
  0
LINE
  5
396
330
1F
100
AcDbEntity
  8
0
  6
Continuous
 62
     7
370
    25
100
AcDbLine
 10
-1197.9098181818
 20
-629.2352727273
 30
0.0
 11
-1194.9098181818
 21
-628.2352727273
 31
0.0
  0
ARC
  5
397
330
1F
100
AcDbEntity
  8
0
  6
Continuous
 62
     7
370
    25
100
AcDbCircle
 10
-1195.9098181818
 20
-629.2352727273
 30
0.0
 40
2.000000000000227
100
AcDbArc
 50
180.0
 51
270.0
  0
ARC
  5
398
330
1F
100
AcDbEntity
  8
0
  6
Continuous
 62
     7
370
    25
100
AcDbCircle
 10
-1119.9098181818
 20
-553.2352727273
 30
0.0
 40
2.000000000000227
100
AcDbArc
 50
0.0
 51
90.0
  0
LINE
  5
399
330
1F
100
AcDbEntity
  8
0
  6
Continuous
 62
     7
370
    25
100
AcDbLine
 10
-1120.9098181818
 20
-554.2352727273
 30
0.0
 11
-1117.9098181818
 21
-553.2352727273
 31
0.0
  0
LINE
  5
39A
330
1F
100
AcDbEntity
  8
0
  6
Continuous
 62
     7
370
    25
100
AcDbLine
 10
-1197.9098181818
 20
-629.2352727273
 30
0.0
 11
-1197.9098181818
 21
-553.2352727273
 31
0.0
  0
LINE
  5
39B
330
1F
100
AcDbEntity
  8
0
  6
Continuous
 62
     7
370
    25
100
AcDbLine
 10
-1197.9098181818
 20
-553.2352727273
 30
0.0
 11
-1194.9098181818
 21
-554.2352727273
 31
0.0
  0
ARC
  5
39C
330
1F
100
AcDbEntity
  8
0
  6
Continuous
 62
     7
370
    25
100
AcDbCircle
 10
-1195.9098181818
 20
-553.2352727273
 30
0.0
 40
2.000000000000227
100
AcDbArc
 50
90.0
 51
180.0
  0
LINE
  5
39D
330
1F
100
AcDbEntity
  8
0
  6
Continuous
 62
     7
370
    25
100
AcDbLine
 10
-1117.9098181818
 20
-553.2352727273
 30
0.0
 11
-1117.9098181818
 21
-629.2352727273
 31
0.0
  0
LINE
  5
39E
330
1F
100
AcDbEntity
  8
0
  6
Continuous
 62
     7
370
    25
100
AcDbLine
 10
-1197.9098181818
 20
70.7647272727
 30
0.0
 11
-1197.9098181818
 21
146.7647272727
 31
0.0
  0
LINE
  5
39F
330
1F
100
AcDbEntity
  8
0
  6
Continuous
 62
     7
370
    25
100
AcDbLine
 10
-1197.9098181818
 20
146.7647272727
 30
0.0
 11
-1194.9098181818
 21
145.7647272727
 31
0.0
  0
LINE
  5
3A0
330
1F
100
AcDbEntity
  8
0
  6
Continuous
 62
     7
370
    25
100
AcDbLine
 10
-1194.9098181818
 20
145.7647272727
 30
0.0
 11
-1194.9098181818
 21
71.7647272727
 31
0.0
  0
LINE
  5
3A1
330
1F
100
AcDbEntity
  8
0
  6
Continuous
 62
     7
370
    25
100
AcDbLine
 10
-1197.9098181818
 20
70.7647272727
 30
0.0
 11
-1194.9098181818
 21
71.7647272727
 31
0.0
  0
LINE
  5
3A2
330
1F
100
AcDbEntity
  8
0
  6
Continuous
 62
     7
370
    25
100
AcDbLine
 10
-1120.9098181818
 20
145.7647272727
 30
0.0
 11
-1194.9098181818
 21
145.7647272727
 31
0.0
  0
LINE
  5
3A3
330
1F
100
AcDbEntity
  8
0
  6
Continuous
 62
     7
370
    25
100
AcDbLine
 10
-1195.9098181818
 20
148.7647272727
 30
0.0
 11
-1194.9098181818
 21
145.7647272727
 31
0.0
  0
LINE
  5
3A4
330
1F
100
AcDbEntity
  8
0
  6
Continuous
 62
     7
370
    25
100
AcDbLine
 10
-1195.9098181818
 20
148.7647272727
 30
0.0
 11
-1119.9098181818
 21
148.7647272727
 31
0.0
  0
LINE
  5
3A5
330
1F
100
AcDbEntity
  8
0
  6
Continuous
 62
     7
370
    25
100
AcDbLine
 10
-1120.9098181818
 20
145.7647272727
 30
0.0
 11
-1119.9098181818
 21
148.7647272727
 31
0.0
  0
LINE
  5
3A6
330
1F
100
AcDbEntity
  8
0
  6
Continuous
 62
     7
370
    25
100
AcDbLine
 10
-1120.9098181818
 20
71.7647272727
 30
0.0
 11
-1120.9098181818
 21
145.7647272727
 31
0.0
  0
LINE
  5
3A7
330
1F
100
AcDbEntity
  8
0
  6
Continuous
 62
     7
370
    25
100
AcDbLine
 10
-1120.9098181818
 20
145.7647272727
 30
0.0
 11
-1117.9098181818
 21
146.7647272727
 31
0.0
  0
LINE
  5
3A8
330
1F
100
AcDbEntity
  8
0
  6
Continuous
 62
     7
370
    25
100
AcDbLine
 10
-1117.9098181818
 20
146.7647272727
 30
0.0
 11
-1117.9098181818
 21
70.7647272727
 31
0.0
  0
LINE
  5
3A9
330
1F
100
AcDbEntity
  8
0
  6
Continuous
 62
     7
370
    25
100
AcDbLine
 10
-1120.9098181818
 20
71.7647272727
 30
0.0
 11
-1117.9098181818
 21
70.7647272727
 31
0.0
  0
ARC
  5
3AA
330
1F
100
AcDbEntity
  8
0
  6
Continuous
 62
     7
370
    25
100
AcDbCircle
 10
-1119.9098181818
 20
146.7647272727
 30
0.0
 40
2.000000000000227
100
AcDbArc
 50
0.0
 51
90.0
  0
ARC
  5
3AB
330
1F
100
AcDbEntity
  8
0
  6
Continuous
 62
     7
370
    25
100
AcDbCircle
 10
-1195.9098181818
 20
146.7647272727
 30
0.0
 40
2.000000000000227
100
AcDbArc
 50
90.0
 51
180.0
  0
LINE
  5
3AC
330
1F
100
AcDbEntity
  8
0
  6
Continuous
 62
     7
370
    25
100
AcDbLine
 10
-1194.9098181818
 20
71.7647272727
 30
0.0
 11
-1120.9098181818
 21
71.7647272727
 31
0.0
  0
CIRCLE
  5
3AD
330
1F
100
AcDbEntity
  8
0
  6
Continuous
 62
     7
370
    25
100
AcDbCircle
 10
-1157.9098181818
 20
108.7647272727
 30
0.0
 40
1.0
  0
LINE
  5
3AE
330
1F
100
AcDbEntity
  8
0
  6
Continuous
 62
     7
370
    25
100
AcDbLine
 10
-1195.9098181818
 20
68.7647272727
 30
0.0
 11
-1194.9098181818
 21
71.7647272727
 31
0.0
  0
ARC
  5
3AF
330
1F
100
AcDbEntity
  8
0
  6
Continuous
 62
     7
370
    25
100
AcDbCircle
 10
-1195.9098181818
 20
70.7647272727
 30
0.0
 40
2.000000000000227
100
AcDbArc
 50
180.0
 51
270.0
  0
ARC
  5
3B0
330
1F
100
AcDbEntity
  8
0
  6
Continuous
 62
     7
370
    25
100
AcDbCircle
 10
-1119.9098181818
 20
70.7647272727
 30
0.0
 40
2.000000000000227
100
AcDbArc
 50
270.0
 51
0.0
  0
LINE
  5
3B1
330
1F
100
AcDbEntity
  8
0
  6
Continuous
 62
     7
370
    25
100
AcDbLine
 10
-1120.9098181818
 20
71.7647272727
 30
0.0
 11
-1119.9098181818
 21
68.7647272727
 31
0.0
  0
LINE
  5
3B2
330
1F
100
AcDbEntity
  8
0
  6
Continuous
 62
     7
370
    25
100
AcDbLine
 10
-1119.9098181818
 20
68.7647272727
 30
0.0
 11
-1195.9098181818
 21
68.7647272727
 31
0.0
  0
LINE
  5
3B3
330
1F
100
AcDbEntity
  8
0
  6
Continuous
 62
     7
370
    25
100
AcDbLine
 10
-2594.9098181818
 20
771.7647272727
 30
0.0
 11
-2595.9098181818
 21
768.7647272727
 31
0.0
  0
ARC
  5
3B4
330
1F
100
AcDbEntity
  8
0
  6
Continuous
 62
     7
370
    25
100
AcDbCircle
 10
-2595.9098181818
 20
770.7647272727
 30
0.0
 40
2.000000000000455
100
AcDbArc
 50
180.0
 51
270.0
  0
LINE
  5
3B5
330
1F
100
AcDbEntity
  8
0
  6
Continuous
 62
     7
370
    25
100
AcDbLine
 10
-2594.9098181818
 20
771.7647272727
 30
0.0
 11
-2597.9098181818
 21
770.7647272727
 31
0.0
  0
LINE
  5
3B6
330
1F
100
AcDbEntity
  8
0
  6
Continuous
 62
     7
370
    25
100
AcDbLine
 10
-2517.9098181818
 20
846.7647272727
 30
0.0
 11
-2520.9098181818
 21
845.7647272727
 31
0.0
  0
LINE
  5
3B7
330
1F
100
AcDbEntity
  8
0
  6
Continuous
 62
     7
370
    25
100
AcDbLine
 10
-2519.9098181818
 20
848.7647272727
 30
0.0
 11
-2520.9098181818
 21
845.7647272727
 31
0.0
  0
ARC
  5
3B8
330
1F
100
AcDbEntity
  8
0
  6
Continuous
 62
     7
370
    25
100
AcDbCircle
 10
-2519.9098181818
 20
846.7647272727
 30
0.0
 40
2.0
100
AcDbArc
 50
0.0
 51
90.0
  0
LINE
  5
3B9
330
1F
100
AcDbEntity
  8
0
  6
Continuous
 62
     7
370
    25
100
AcDbLine
 10
-2517.9098181818
 20
846.7647272727
 30
0.0
 11
-2517.9098181818
 21
770.7647272727
 31
0.0
  0
LINE
  5
3BA
330
1F
100
AcDbEntity
  8
0
  6
Continuous
 62
     7
370
    25
100
AcDbLine
 10
-2517.9098181818
 20
770.7647272727
 30
0.0
 11
-2520.9098181818
 21
771.7647272727
 31
0.0
  0
LINE
  5
3BB
330
1F
100
AcDbEntity
  8
0
  6
Continuous
 62
     7
370
    25
100
AcDbLine
 10
-2520.9098181818
 20
771.7647272727
 30
0.0
 11
-2520.9098181818
 21
845.7647272727
 31
0.0
  0
LINE
  5
3BC
330
1F
100
AcDbEntity
  8
0
  6
Continuous
 62
     7
370
    25
100
AcDbLine
 10
-2594.9098181818
 20
845.7647272727
 30
0.0
 11
-2597.9098181818
 21
846.7647272727
 31
0.0
  0
ARC
  5
3BD
330
1F
100
AcDbEntity
  8
0
  6
Continuous
 62
     7
370
    25
100
AcDbCircle
 10
-2595.9098181818
 20
846.7647272727
 30
0.0
 40
2.000000000000455
100
AcDbArc
 50
90.0
 51
180.0
  0
LINE
  5
3BE
330
1F
100
AcDbEntity
  8
0
  6
Continuous
 62
     7
370
    25
100
AcDbLine
 10
-2594.9098181818
 20
845.7647272727
 30
0.0
 11
-2595.9098181818
 21
848.7647272727
 31
0.0
  0
LINE
  5
3BF
330
1F
100
AcDbEntity
  8
0
  6
Continuous
 62
     7
370
    25
100
AcDbLine
 10
-2519.9098181818
 20
768.7647272727
 30
0.0
 11
-2520.9098181818
 21
771.7647272727
 31
0.0
  0
ARC
  5
3C0
330
1F
100
AcDbEntity
  8
0
  6
Continuous
 62
     7
370
    25
100
AcDbCircle
 10
-2519.9098181818
 20
770.7647272727
 30
0.0
 40
2.0
100
AcDbArc
 50
270.0
 51
0.0
  0
LINE
  5
3C1
330
1F
100
AcDbEntity
  8
0
  6
Continuous
 62
     7
370
    25
100
AcDbLine
 10
-2594.9098181818
 20
771.7647272727
 30
0.0
 11
-2520.9098181818
 21
771.7647272727
 31
0.0
  0
LINE
  5
3C2
330
1F
100
AcDbEntity
  8
0
  6
Continuous
 62
     7
370
    25
100
AcDbLine
 10
-2519.9098181818
 20
768.7647272727
 30
0.0
 11
-2595.9098181818
 21
768.7647272727
 31
0.0
  0
LINE
  5
3C3
330
1F
100
AcDbEntity
  8
0
  6
Continuous
 62
     7
370
    25
100
AcDbLine
 10
-2520.9098181818
 20
845.7647272727
 30
0.0
 11
-2594.9098181818
 21
845.7647272727
 31
0.0
  0
LINE
  5
3C4
330
1F
100
AcDbEntity
  8
0
  6
Continuous
 62
     7
370
    25
100
AcDbLine
 10
-2595.9098181818
 20
848.7647272727
 30
0.0
 11
-2519.9098181818
 21
848.7647272727
 31
0.0
  0
LINE
  5
3C5
330
1F
100
AcDbEntity
  8
0
  6
Continuous
 62
     7
370
    25
100
AcDbLine
 10
-2594.9098181818
 20
845.7647272727
 30
0.0
 11
-2594.9098181818
 21
771.7647272727
 31
0.0
  0
CIRCLE
  5
3C6
330
1F
100
AcDbEntity
  8
0
  6
Continuous
 62
     7
370
    25
100
AcDbCircle
 10
-2557.9098181818
 20
808.7647272727
 30
0.0
 40
1.0
  0
LINE
  5
3C7
330
1F
100
AcDbEntity
  8
0
  6
Continuous
 62
     7
370
    25
100
AcDbLine
 10
-2597.9098181818
 20
770.7647272727
 30
0.0
 11
-2597.9098181818
 21
846.7647272727
 31
0.0
  0
LINE
  5
3C8
330
1F
100
AcDbEntity
  8
0
  6
Continuous
 62
     7
370
    25
100
AcDbLine
 10
-2517.9098181818
 20
146.7647272727
 30
0.0
 11
-2517.9098181818
 21
70.7647272727
 31
0.0
  0
LINE
  5
3C9
330
1F
100
AcDbEntity
  8
0
  6
Continuous
 62
     7
370
    25
100
AcDbLine
 10
-2517.9098181818
 20
70.7647272727
 30
0.0
 11
-2520.9098181818
 21
71.7647272727
 31
0.0
  0
LINE
  5
3CA
330
1F
100
AcDbEntity
  8
0
  6
Continuous
 62
     7
370
    25
100
AcDbLine
 10
-2520.9098181818
 20
71.7647272727
 30
0.0
 11
-2520.9098181818
 21
145.7647272727
 31
0.0
  0
LINE
  5
3CB
330
1F
100
AcDbEntity
  8
0
  6
Continuous
 62
     7
370
    25
100
AcDbLine
 10
-2517.9098181818
 20
146.7647272727
 30
0.0
 11
-2520.9098181818
 21
145.7647272727
 31
0.0
  0
LINE
  5
3CC
330
1F
100
AcDbEntity
  8
0
  6
Continuous
 62
     7
370
    25
100
AcDbLine
 10
-2520.9098181818
 20
145.7647272727
 30
0.0
 11
-2594.9098181818
 21
145.7647272727
 31
0.0
  0
LINE
  5
3CD
330
1F
100
AcDbEntity
  8
0
  6
Continuous
 62
     7
370
    25
100
AcDbLine
 10
-2594.9098181818
 20
71.7647272727
 30
0.0
 11
-2520.9098181818
 21
71.7647272727
 31
0.0
  0
LINE
  5
3CE
330
1F
100
AcDbEntity
  8
0
  6
Continuous
 62
     7
370
    25
100
AcDbLine
 10
-2594.9098181818
 20
145.7647272727
 30
0.0
 11
-2594.9098181818
 21
71.7647272727
 31
0.0
  0
CIRCLE
  5
3CF
330
1F
100
AcDbEntity
  8
0
  6
Continuous
 62
     7
370
    25
100
AcDbCircle
 10
-2557.9098181818
 20
108.7647272727
 30
0.0
 40
1.0
  0
LINE
  5
3D0
330
1F
100
AcDbEntity
  8
0
  6
Continuous
 62
     7
370
    25
100
AcDbLine
 10
-2594.9098181818
 20
145.7647272727
 30
0.0
 11
-2597.9098181818
 21
146.7647272727
 31
0.0
  0
ARC
  5
3D1
330
1F
100
AcDbEntity
  8
0
  6
Continuous
 62
     7
370
    25
100
AcDbCircle
 10
-2595.9098181818
 20
146.7647272727
 30
0.0
 40
2.000000000000455
100
AcDbArc
 50
90.0
 51
180.0
  0
LINE
  5
3D2
330
1F
100
AcDbEntity
  8
0
  6
Continuous
 62
     7
370
    25
100
AcDbLine
 10
-2594.9098181818
 20
145.7647272727
 30
0.0
 11
-2595.9098181818
 21
148.7647272727
 31
0.0
  0
LINE
  5
3D3
330
1F
100
AcDbEntity
  8
0
  6
Continuous
 62
     7
370
    25
100
AcDbLine
 10
-2519.9098181818
 20
148.7647272727
 30
0.0
 11
-2520.9098181818
 21
145.7647272727
 31
0.0
  0
ARC
  5
3D4
330
1F
100
AcDbEntity
  8
0
  6
Continuous
 62
     7
370
    25
100
AcDbCircle
 10
-2519.9098181818
 20
146.7647272727
 30
0.0
 40
2.0
100
AcDbArc
 50
0.0
 51
90.0
  0
LINE
  5
3D5
330
1F
100
AcDbEntity
  8
0
  6
Continuous
 62
     7
370
    25
100
AcDbLine
 10
-2595.9098181818
 20
148.7647272727
 30
0.0
 11
-2519.9098181818
 21
148.7647272727
 31
0.0
  0
LINE
  5
3D6
330
1F
100
AcDbEntity
  8
0
  6
Continuous
 62
     7
370
    25
100
AcDbLine
 10
-2519.9098181818
 20
68.7647272727
 30
0.0
 11
-2520.9098181818
 21
71.7647272727
 31
0.0
  0
LINE
  5
3D7
330
1F
100
AcDbEntity
  8
0
  6
Continuous
 62
     7
370
    25
100
AcDbLine
 10
-2519.9098181818
 20
68.7647272727
 30
0.0
 11
-2595.9098181818
 21
68.7647272727
 31
0.0
  0
LINE
  5
3D8
330
1F
100
AcDbEntity
  8
0
  6
Continuous
 62
     7
370
    25
100
AcDbLine
 10
-2594.9098181818
 20
71.7647272727
 30
0.0
 11
-2595.9098181818
 21
68.7647272727
 31
0.0
  0
LINE
  5
3D9
330
1F
100
AcDbEntity
  8
0
  6
Continuous
 62
     7
370
    25
100
AcDbLine
 10
-2594.9098181818
 20
71.7647272727
 30
0.0
 11
-2597.9098181818
 21
70.7647272727
 31
0.0
  0
LINE
  5
3DA
330
1F
100
AcDbEntity
  8
0
  6
Continuous
 62
     7
370
    25
100
AcDbLine
 10
-2597.9098181818
 20
70.7647272727
 30
0.0
 11
-2597.9098181818
 21
146.7647272727
 31
0.0
  0
ARC
  5
3DB
330
1F
100
AcDbEntity
  8
0
  6
Continuous
 62
     7
370
    25
100
AcDbCircle
 10
-2595.9098181818
 20
70.7647272727
 30
0.0
 40
2.000000000000455
100
AcDbArc
 50
180.0
 51
270.0
  0
ARC
  5
3DC
330
1F
100
AcDbEntity
  8
0
  6
Continuous
 62
     7
370
    25
100
AcDbCircle
 10
-2519.9098181818
 20
70.7647272727
 30
0.0
 40
2.0
100
AcDbArc
 50
270.0
 51
0.0
  0
LINE
  5
3DD
330
1F
100
AcDbEntity
  8
0
  6
Continuous
 62
     7
370
    25
100
AcDbLine
 10
662.3400739374
 20
-544.250279233
 30
0.0
 11
677.6434708163
 21
-544.250279233
 31
0.0
  0
LINE
  5
3DE
330
1F
100
AcDbEntity
  8
0
  6
Continuous
 62
     7
370
    25
100
AcDbLine
 10
660.5368928201
 20
-544.250279233
 30
0.0
 11
662.3400739374
 21
-544.250279233
 31
0.0
  0
LINE
  5
3DF
330
1F
100
AcDbEntity
  8
0
  6
Continuous
 62
     7
370
    25
100
AcDbLine
 10
290.5368928201
 20
-544.250279233
 30
0.0
 11
307.6434708163
 21
-544.250279233
 31
0.0
  0
LINE
  5
3E0
330
1F
100
AcDbEntity
  8
0
  6
Continuous
 62
     7
370
    25
100
AcDbLine
 10
305.840289699
 20
761.7797337784
 30
0.0
 11
290.5368928201
 21
761.7797337784
 31
0.0
  0
LINE
  5
3E1
330
1F
100
AcDbEntity
  8
0
  6
Continuous
 62
     7
370
    25
100
AcDbLine
 10
307.6434708163
 20
761.7797337784
 30
0.0
 11
305.840289699
 21
761.7797337784
 31
0.0
  0
LINE
  5
3E2
330
1F
100
AcDbEntity
  8
0
  6
Continuous
 62
     7
370
    25
100
AcDbLine
 10
-1204.8948116761
 20
801.8991213453
 30
0.0
 11
-1204.8948116761
 21
817.3180162708
 31
0.0
  0
LINE
  5
3E3
330
1F
100
AcDbEntity
  8
0
  6
Continuous
 62
     7
370
    25
100
AcDbLine
 10
-1204.8948116761
 20
800.2114382746
 30
0.0
 11
-1204.8948116761
 21
801.8991213453
 31
0.0
  0
LINE
  5
3E4
330
1F
100
AcDbEntity
  8
0
  6
Continuous
 62
     7
370
    25
100
AcDbLine
 10
973.0751753125
 20
814.9979159223
 30
0.0
 11
973.0751753125
 21
800.2114382746
 31
0.0
  0
LINE
  5
3E5
330
1F
100
AcDbEntity
  8
0
  6
Continuous
 62
     7
370
    25
100
AcDbLine
 10
973.0751753125
 20
817.3180162708
 30
0.0
 11
973.0751753125
 21
814.9979159223
 31
0.0
  0
LINE
  5
3E6
330
1F
100
AcDbEntity
  8
0
  6
Continuous
 62
     7
370
    25
100
AcDbLine
 10
-2510.9248246875
 20
115.6303332002
 30
0.0
 11
-2510.9248246875
 21
100.2114382746
 31
0.0
  0
LINE
  5
3E7
330
1F
100
AcDbEntity
  8
0
  6
Continuous
 62
     7
370
    25
100
AcDbLine
 10
-2510.9248246875
 20
117.3180162708
 30
0.0
 11
-2510.9248246875
 21
115.6303332002
 31
0.0
  0
LINE
  5
3E8
330
1F
100
AcDbEntity
  8
0
  6
Continuous
 62
     7
370
    25
100
AcDbLine
 10
677.6434708163
 20
761.7797337784
 30
0.0
 11
660.5368928201
 21
761.7797337784
 31
0.0
  0
LINE
  5
3E9
330
1F
100
AcDbEntity
  8
0
  6
Continuous
 62
     7
370
    25
100
AcDbLine
 10
-1204.8948116761
 20
100.2114382746
 30
0.0
 11
-1204.8948116761
 21
117.3180162709
 31
0.0
  0
LINE
  5
3EA
330
1F
100
AcDbEntity
  8
0
  6
Continuous
 62
     7
370
    25
100
AcDbLine
 10
-2510.9248246875
 20
817.3180162709
 30
0.0
 11
-2510.9248246875
 21
800.2114382746
 31
0.0
  0
LINE
  5
3EB
330
1F
100
AcDbEntity
  8
0
  6
Continuous
 62
     7
370
    25
100
AcDbLine
 10
-294.159710301
 20
761.7797337784
 30
0.0
 11
-309.4631071799
 21
761.7797337784
 31
0.0
  0
LINE
  5
3EC
330
1F
100
AcDbEntity
  8
0
  6
Continuous
 62
     7
370
    25
100
AcDbLine
 10
-292.3565291837
 20
761.7797337784
 30
0.0
 11
-294.159710301
 21
761.7797337784
 31
0.0
  0
LINE
  5
3ED
330
1F
100
AcDbEntity
  8
0
  6
Continuous
 62
     7
370
    25
100
AcDbLine
 10
973.0751753125
 20
-582.6819837291
 30
0.0
 11
973.0751753125
 21
-599.7885617254
 31
0.0
  0
LINE
  5
3EE
330
1F
100
AcDbEntity
  8
0
  6
Continuous
 62
     7
370
    25
100
AcDbLine
 10
2279.1051883239
 20
-598.4688421316
 30
0.0
 11
2279.1051883239
 21
-582.6819837291
 31
0.0
  0
LINE
  5
3EF
330
1F
100
AcDbEntity
  8
0
  6
Continuous
 62
     7
370
    25
100
AcDbLine
 10
2279.1051883239
 20
-599.7885617254
 30
0.0
 11
2279.1051883239
 21
-598.4688421316
 31
0.0
  0
LINE
  5
3F0
330
1F
100
AcDbEntity
  8
0
  6
Continuous
 62
     7
370
    25
100
AcDbLine
 10
2279.1051883239
 20
800.2114382746
 30
0.0
 11
2279.1051883239
 21
817.3180162708
 31
0.0
  0
LINE
  5
3F1
330
1F
100
AcDbEntity
  8
0
  6
Continuous
 62
     7
370
    25
100
AcDbLine
 10
-1166.4631071799
 20
155.749720767
 30
0.0
 11
-1149.3565291837
 21
155.749720767
 31
0.0
  0
LINE
  5
3F2
330
1F
100
AcDbEntity
  8
0
  6
Continuous
 62
     7
370
    25
100
AcDbLine
 10
-537.6599260626
 20
-544.250279233
 30
0.0
 11
-522.3565291837
 21
-544.250279233
 31
0.0
  0
LINE
  5
3F3
330
1F
100
AcDbEntity
  8
0
  6
Continuous
 62
     7
370
    25
100
AcDbLine
 10
-539.4631071799
 20
-544.250279233
 30
0.0
 11
-537.6599260626
 21
-544.250279233
 31
0.0
  0
LINE
  5
3F4
330
1F
100
AcDbEntity
  8
0
  6
Continuous
 62
     7
370
    25
100
AcDbLine
 10
77.6434708163
 20
761.7797337784
 30
0.0
 11
60.5368928201
 21
761.7797337784
 31
0.0
  0
LINE
  5
3F5
330
1F
100
AcDbEntity
  8
0
  6
Continuous
 62
     7
370
    25
100
AcDbLine
 10
-309.4631071799
 20
-544.250279233
 30
0.0
 11
-292.3565291837
 21
-544.250279233
 31
0.0
  0
LINE
  5
3F6
330
1F
100
AcDbEntity
  8
0
  6
Continuous
 62
     7
370
    25
100
AcDbLine
 10
62.3400739374
 20
-544.250279233
 30
0.0
 11
77.6434708163
 21
-544.250279233
 31
0.0
  0
LINE
  5
3F7
330
1F
100
AcDbEntity
  8
0
  6
Continuous
 62
     7
370
    25
100
AcDbLine
 10
60.5368928201
 20
-544.250279233
 30
0.0
 11
62.3400739374
 21
-544.250279233
 31
0.0
  0
LINE
  5
3F8
330
1F
100
AcDbEntity
  8
0
  6
Continuous
 62
     7
370
    25
100
AcDbLine
 10
-909.4631071799
 20
-544.250279233
 30
0.0
 11
-892.3565291837
 21
-544.250279233
 31
0.0
  0
LINE
  5
3F9
330
1F
100
AcDbEntity
  8
0
  6
Continuous
 62
     7
370
    25
100
AcDbLine
 10
-894.159710301
 20
761.7797337784
 30
0.0
 11
-909.4631071799
 21
761.7797337784
 31
0.0
  0
LINE
  5
3FA
330
1F
100
AcDbEntity
  8
0
  6
Continuous
 62
     7
370
    25
100
AcDbLine
 10
-892.3565291837
 20
761.7797337784
 30
0.0
 11
-894.159710301
 21
761.7797337784
 31
0.0
  0
LINE
  5
3FB
330
1F
100
AcDbEntity
  8
0
  6
Continuous
 62
     7
370
    25
100
AcDbLine
 10
-522.3565291837
 20
761.7797337784
 30
0.0
 11
-539.4631071799
 21
761.7797337784
 31
0.0
  0
LINE
  5
3FC
330
1F
100
AcDbEntity
  8
0
  6
Continuous
 62
     7
370
    25
100
AcDbLine
 10
2286.0901818182
 20
338.533221214
 30
0.0
 11
2263.3465730758
 21
332.7156869479
 31
0.0
  0
LINE
  5
3FD
330
1F
100
AcDbEntity
  8
0
  6
Continuous
 62
     7
370
    25
100
AcDbLine
 10
2413.5119405416
 20
371.1261336238
 30
0.0
 11
2366.0901818182
 21
358.9962333314
 31
0.0
  0
LINE
  5
3FE
330
1F
100
AcDbEntity
  8
0
  6
Continuous
 62
     7
370
    25
100
AcDbLine
 10
2286.0901818182
 20
-139.8640683867
 30
0.0
 11
2261.5230973044
 21
-142.7886120582
 31
0.0
  0
LINE
  5
3FF
330
1F
100
AcDbEntity
  8
0
  6
Continuous
 62
     7
370
    25
100
AcDbLine
 10
2415.4363601446
 20
-124.4662890106
 30
0.0
 11
2366.0901818182
 21
-130.340614613
 31
0.0
  0
LINE
  5
400
330
1F
100
AcDbEntity
  8
0
  6
Continuous
 62
     7
370
    25
100
AcDbLine
 10
838.0420931662
 20
865.749720767
 30
0.0
 11
852.6434708163
 21
865.749720767
 31
0.0
  0
LINE
  5
401
330
1F
100
AcDbEntity
  8
0
  6
Continuous
 62
     7
370
    25
100
AcDbLine
 10
835.5368928201
 20
865.749720767
 30
0.0
 11
838.0420931662
 21
865.749720767
 31
0.0
  0
LINE
  5
402
330
1F
100
AcDbEntity
  8
0
  6
Continuous
 62
     7
370
    25
100
AcDbLine
 10
852.6434708163
 20
-648.2202662216
 30
0.0
 11
835.5368928201
 21
-648.2202662216
 31
0.0
  0
LINE
  5
403
330
1F
100
AcDbEntity
  8
0
  6
Continuous
 62
     7
370
    25
100
AcDbLine
 10
748.0420931662
 20
865.749720767
 30
0.0
 11
762.6434708163
 21
865.749720767
 31
0.0
  0
LINE
  5
404
330
1F
100
AcDbEntity
  8
0
  6
Continuous
 62
     7
370
    25
100
AcDbLine
 10
745.5368928201
 20
865.749720767
 30
0.0
 11
748.0420931662
 21
865.749720767
 31
0.0
  0
LINE
  5
405
330
1F
100
AcDbEntity
  8
0
  6
Continuous
 62
     7
370
    25
100
AcDbLine
 10
-1069.8617295298
 20
-648.2202662216
 30
0.0
 11
-1084.4631071799
 21
-648.2202662216
 31
0.0
  0
LINE
  5
406
330
1F
100
AcDbEntity
  8
0
  6
Continuous
 62
     7
370
    25
100
AcDbLine
 10
-1067.3565291837
 20
-648.2202662216
 30
0.0
 11
-1069.8617295298
 21
-648.2202662216
 31
0.0
  0
LINE
  5
407
330
1F
100
AcDbEntity
  8
0
  6
Continuous
 62
     7
370
    25
100
AcDbLine
 10
934.6434708163
 20
-648.2202662216
 30
0.0
 11
917.5368928201
 21
-648.2202662216
 31
0.0
  0
LINE
  5
408
330
1F
100
AcDbEntity
  8
0
  6
Continuous
 62
     7
370
    25
100
AcDbLine
 10
-1166.4631071799
 20
865.749720767
 30
0.0
 11
-1149.3565291837
 21
865.749720767
 31
0.0
  0
LINE
  5
409
330
1F
100
AcDbEntity
  8
0
  6
Continuous
 62
     7
370
    25
100
AcDbLine
 10
-1084.4631071799
 20
865.749720767
 30
0.0
 11
-1067.3565291837
 21
865.749720767
 31
0.0
  0
LINE
  5
40A
330
1F
100
AcDbEntity
  8
0
  6
Continuous
 62
     7
370
    25
100
AcDbLine
 10
-1151.8617295298
 20
-648.2202662216
 30
0.0
 11
-1166.4631071799
 21
-648.2202662216
 31
0.0
  0
LINE
  5
40B
330
1F
100
AcDbEntity
  8
0
  6
Continuous
 62
     7
370
    25
100
AcDbLine
 10
-1149.3565291837
 20
-648.2202662216
 30
0.0
 11
-1151.8617295298
 21
-648.2202662216
 31
0.0
  0
LINE
  5
40C
330
1F
100
AcDbEntity
  8
0
  6
Continuous
 62
     7
370
    25
100
AcDbLine
 10
-994.4631071799
 20
865.749720767
 30
0.0
 11
-977.3565291837
 21
865.749720767
 31
0.0
  0
LINE
  5
40D
330
1F
100
AcDbEntity
  8
0
  6
Continuous
 62
     7
370
    25
100
AcDbLine
 10
920.0420931662
 20
865.749720767
 30
0.0
 11
934.6434708163
 21
865.749720767
 31
0.0
  0
LINE
  5
40E
330
1F
100
AcDbEntity
  8
0
  6
Continuous
 62
     7
370
    25
100
AcDbLine
 10
917.5368928201
 20
865.749720767
 30
0.0
 11
920.0420931662
 21
865.749720767
 31
0.0
  0
LINE
  5
40F
330
1F
100
AcDbEntity
  8
0
  6
Continuous
 62
     7
370
    25
100
AcDbLine
 10
-979.8617295298
 20
-648.2202662216
 30
0.0
 11
-994.4631071799
 21
-648.2202662216
 31
0.0
  0
LINE
  5
410
330
1F
100
AcDbEntity
  8
0
  6
Continuous
 62
     7
370
    25
100
AcDbLine
 10
-977.3565291837
 20
-648.2202662216
 30
0.0
 11
-979.8617295298
 21
-648.2202662216
 31
0.0
  0
LINE
  5
411
330
1F
100
AcDbEntity
  8
0
  6
Continuous
 62
     7
370
    25
100
AcDbLine
 10
762.6434708163
 20
-648.2202662216
 30
0.0
 11
745.5368928201
 21
-648.2202662216
 31
0.0
  0
LINE
  5
412
330
1F
100
AcDbEntity
  8
0
  6
Continuous
 62
     7
370
    25
100
AcDbLine
 10
665.4815578491
 20
-632.2352727273
 30
0.0
 11
684.5901818182
 21
-632.2352727273
 31
0.0
  0
LINE
  5
413
330
1F
100
AcDbEntity
  8
0
  6
Continuous
 62
     7
370
    25
100
AcDbLine
 10
653.5901818182
 20
-632.2352727273
 30
0.0
 11
665.4815578491
 21
-632.2352727273
 31
0.0
  0
LINE
  5
414
330
1F
100
AcDbEntity
  8
0
  6
Continuous
 62
     7
370
    25
100
AcDbLine
 10
-1173.4098181818
 20
767.7647272727
 30
0.0
 11
-1142.4098181818
 21
767.7647272727
 31
0.0
  0
LINE
  5
415
330
1F
100
AcDbEntity
  8
0
  6
Continuous
 62
     7
370
    25
100
AcDbLine
 10
283.5901818182
 20
-632.2352727273
 30
0.0
 11
314.5901818182
 21
-632.2352727273
 31
0.0
  0
LINE
  5
416
330
1F
100
AcDbEntity
  8
0
  6
Continuous
 62
     7
370
    25
100
AcDbLine
 10
-1116.9098181818
 20
806.4882692108
 30
0.0
 11
-1116.9098181818
 21
824.2647272727
 31
0.0
  0
LINE
  5
417
330
1F
100
AcDbEntity
  8
0
  6
Continuous
 62
     7
370
    25
100
AcDbLine
 10
-1116.9098181818
 20
793.2647272727
 30
0.0
 11
-1116.9098181818
 21
806.4882692108
 31
0.0
  0
LINE
  5
418
330
1F
100
AcDbEntity
  8
0
  6
Continuous
 62
     7
370
    25
100
AcDbLine
 10
-297.3011942128
 20
849.7647272727
 30
0.0
 11
-316.4098181818
 21
849.7647272727
 31
0.0
  0
LINE
  5
419
330
1F
100
AcDbEntity
  8
0
  6
Continuous
 62
     7
370
    25
100
AcDbLine
 10
-285.4098181818
 20
849.7647272727
 30
0.0
 11
-297.3011942128
 21
849.7647272727
 31
0.0
  0
LINE
  5
41A
330
1F
100
AcDbEntity
  8
0
  6
Continuous
 62
     7
370
    25
100
AcDbLine
 10
302.6988057872
 20
849.7647272727
 30
0.0
 11
283.5901818182
 21
849.7647272727
 31
0.0
  0
LINE
  5
41B
330
1F
100
AcDbEntity
  8
0
  6
Continuous
 62
     7
370
    25
100
AcDbLine
 10
314.5901818182
 20
849.7647272727
 30
0.0
 11
302.6988057872
 21
849.7647272727
 31
0.0
  0
LINE
  5
41C
330
1F
100
AcDbEntity
  8
0
  6
Continuous
 62
     7
370
    25
100
AcDbLine
 10
-1160.5209502512
 20
62.7647272727
 30
0.0
 11
-1142.4098181818
 21
62.7647272727
 31
0.0
  0
LINE
  5
41D
330
1F
100
AcDbEntity
  8
0
  6
Continuous
 62
     7
370
    25
100
AcDbLine
 10
-1173.4098181818
 20
62.7647272727
 30
0.0
 11
-1160.5209502512
 21
62.7647272727
 31
0.0
  0
LINE
  5
41E
330
1F
100
AcDbEntity
  8
0
  6
Continuous
 62
     7
370
    25
100
AcDbLine
 10
885.0901818182
 20
810.9955597476
 30
0.0
 11
885.0901818182
 21
793.2647272727
 31
0.0
  0
LINE
  5
41F
330
1F
100
AcDbEntity
  8
0
  6
Continuous
 62
     7
370
    25
100
AcDbLine
 10
885.0901818182
 20
824.2647272727
 30
0.0
 11
885.0901818182
 21
810.9955597476
 31
0.0
  0
LINE
  5
420
330
1F
100
AcDbEntity
  8
0
  6
Continuous
 62
     7
370
    25
100
AcDbLine
 10
-897.3011942128
 20
849.7647272727
 30
0.0
 11
-916.4098181818
 21
849.7647272727
 31
0.0
  0
LINE
  5
421
330
1F
100
AcDbEntity
  8
0
  6
Continuous
 62
     7
370
    25
100
AcDbLine
 10
-885.4098181818
 20
849.7647272727
 30
0.0
 11
-897.3011942128
 21
849.7647272727
 31
0.0
  0
LINE
  5
422
330
1F
100
AcDbEntity
  8
0
  6
Continuous
 62
     7
370
    25
100
AcDbLine
 10
684.5901818182
 20
849.7647272727
 30
0.0
 11
653.5901818182
 21
849.7647272727
 31
0.0
  0
LINE
  5
423
330
1F
100
AcDbEntity
  8
0
  6
Continuous
 62
     7
370
    25
100
AcDbLine
 10
2367.0901818182
 20
793.2647272727
 30
0.0
 11
2367.0901818182
 21
824.2647272727
 31
0.0
  0
LINE
  5
424
330
1F
100
AcDbEntity
  8
0
  6
Continuous
 62
     7
370
    25
100
AcDbLine
 10
885.0901818182
 20
-575.7352727272
 30
0.0
 11
885.0901818182
 21
-606.7352727272
 31
0.0
  0
LINE
  5
425
330
1F
100
AcDbEntity
  8
0
  6
Continuous
 62
     7
370
    25
100
AcDbLine
 10
-916.4098181818
 20
-632.2352727273
 30
0.0
 11
-885.4098181818
 21
-632.2352727273
 31
0.0
  0
LINE
  5
426
330
1F
100
AcDbEntity
  8
0
  6
Continuous
 62
     7
370
    25
100
AcDbLine
 10
-316.4098181818
 20
-632.2352727273
 30
0.0
 11
-285.4098181818
 21
-632.2352727273
 31
0.0
  0
LINE
  5
427
330
1F
100
AcDbEntity
  8
0
  6
Continuous
 62
     7
370
    25
100
AcDbLine
 10
-515.4098181818
 20
849.7647272727
 30
0.0
 11
-546.4098181818
 21
849.7647272727
 31
0.0
  0
LINE
  5
428
330
1F
100
AcDbEntity
  8
0
  6
Continuous
 62
     7
370
    25
100
AcDbLine
 10
926.0901818182
 20
767.7647272727
 30
0.0
 11
941.5901818182
 21
767.7647272727
 31
0.0
  0
LINE
  5
429
330
1F
100
AcDbEntity
  8
0
  6
Continuous
 62
     7
370
    25
100
AcDbLine
 10
910.5901818182
 20
767.7647272727
 30
0.0
 11
926.0901818182
 21
767.7647272727
 31
0.0
  0
LINE
  5
42A
330
1F
100
AcDbEntity
  8
0
  6
Continuous
 62
     7
370
    25
100
AcDbLine
 10
-1116.9098181818
 20
93.2647272727
 30
0.0
 11
-1116.9098181818
 21
124.2647272727
 31
0.0
  0
LINE
  5
42B
330
1F
100
AcDbEntity
  8
0
  6
Continuous
 62
     7
370
    25
100
AcDbLine
 10
844.0901818182
 20
767.7647272727
 30
0.0
 11
859.5901818182
 21
767.7647272727
 31
0.0
  0
LINE
  5
42C
330
1F
100
AcDbEntity
  8
0
  6
Continuous
 62
     7
370
    25
100
AcDbLine
 10
828.5901818182
 20
767.7647272727
 30
0.0
 11
844.0901818182
 21
767.7647272727
 31
0.0
  0
LINE
  5
42D
330
1F
100
AcDbEntity
  8
0
  6
Continuous
 62
     7
370
    25
100
AcDbLine
 10
754.0901818182
 20
767.7647272727
 30
0.0
 11
769.5901818182
 21
767.7647272727
 31
0.0
  0
LINE
  5
42E
330
1F
100
AcDbEntity
  8
0
  6
Continuous
 62
     7
370
    25
100
AcDbLine
 10
738.5901818182
 20
767.7647272727
 30
0.0
 11
754.0901818182
 21
767.7647272727
 31
0.0
  0
LINE
  5
42F
330
1F
100
AcDbEntity
  8
0
  6
Continuous
 62
     7
370
    25
100
AcDbLine
 10
84.5901818182
 20
849.7647272727
 30
0.0
 11
53.5901818182
 21
849.7647272727
 31
0.0
  0
LINE
  5
430
330
1F
100
AcDbEntity
  8
0
  6
Continuous
 62
     7
370
    25
100
AcDbLine
 10
941.5901818182
 20
-550.2352727273
 30
0.0
 11
910.5901818182
 21
-550.2352727273
 31
0.0
  0
LINE
  5
431
330
1F
100
AcDbEntity
  8
0
  6
Continuous
 62
     7
370
    25
100
AcDbLine
 10
-2598.9098181818
 20
824.2647272727
 30
0.0
 11
-2598.9098181818
 21
793.2647272727
 31
0.0
  0
LINE
  5
432
330
1F
100
AcDbEntity
  8
0
  6
Continuous
 62
     7
370
    25
100
AcDbLine
 10
65.4815578491
 20
-632.2352727273
 30
0.0
 11
84.5901818182
 21
-632.2352727273
 31
0.0
  0
LINE
  5
433
330
1F
100
AcDbEntity
  8
0
  6
Continuous
 62
     7
370
    25
100
AcDbLine
 10
53.5901818182
 20
-632.2352727273
 30
0.0
 11
65.4815578491
 21
-632.2352727273
 31
0.0
  0
LINE
  5
434
330
1F
100
AcDbEntity
  8
0
  6
Continuous
 62
     7
370
    25
100
AcDbLine
 10
-985.9098181818
 20
-550.2352727273
 30
0.0
 11
-1001.4098181818
 21
-550.2352727273
 31
0.0
  0
LINE
  5
435
330
1F
100
AcDbEntity
  8
0
  6
Continuous
 62
     7
370
    25
100
AcDbLine
 10
-970.4098181818
 20
-550.2352727273
 30
0.0
 11
-985.9098181818
 21
-550.2352727273
 31
0.0
  0
LINE
  5
436
330
1F
100
AcDbEntity
  8
0
  6
Continuous
 62
     7
370
    25
100
AcDbLine
 10
-1157.9098181818
 20
-550.2352727273
 30
0.0
 11
-1173.4098181818
 21
-550.2352727273
 31
0.0
  0
LINE
  5
437
330
1F
100
AcDbEntity
  8
0
  6
Continuous
 62
     7
370
    25
100
AcDbLine
 10
-1142.4098181818
 20
-550.2352727273
 30
0.0
 11
-1157.9098181818
 21
-550.2352727273
 31
0.0
  0
LINE
  5
438
330
1F
100
AcDbEntity
  8
0
  6
Continuous
 62
     7
370
    25
100
AcDbLine
 10
769.5901818182
 20
-550.2352727273
 30
0.0
 11
738.5901818182
 21
-550.2352727273
 31
0.0
  0
LINE
  5
439
330
1F
100
AcDbEntity
  8
0
  6
Continuous
 62
     7
370
    25
100
AcDbLine
 10
-1075.9098181818
 20
-550.2352727273
 30
0.0
 11
-1091.4098181818
 21
-550.2352727273
 31
0.0
  0
LINE
  5
43A
330
1F
100
AcDbEntity
  8
0
  6
Continuous
 62
     7
370
    25
100
AcDbLine
 10
-1060.4098181818
 20
-550.2352727273
 30
0.0
 11
-1075.9098181818
 21
-550.2352727273
 31
0.0
  0
LINE
  5
43B
330
1F
100
AcDbEntity
  8
0
  6
Continuous
 62
     7
370
    25
100
AcDbLine
 10
859.5901818182
 20
-550.2352727273
 30
0.0
 11
828.5901818182
 21
-550.2352727273
 31
0.0
  0
LINE
  5
43C
330
1F
100
AcDbEntity
  8
0
  6
Continuous
 62
     7
370
    25
100
AcDbLine
 10
-2598.9098181818
 20
111.0411853346
 30
0.0
 11
-2598.9098181818
 21
93.2647272727
 31
0.0
  0
LINE
  5
43D
330
1F
100
AcDbEntity
  8
0
  6
Continuous
 62
     7
370
    25
100
AcDbLine
 10
-2598.9098181818
 20
124.2647272727
 30
0.0
 11
-2598.9098181818
 21
111.0411853346
 31
0.0
  0
LINE
  5
43E
330
1F
100
AcDbEntity
  8
0
  6
Continuous
 62
     7
370
    25
100
AcDbLine
 10
-1001.4098181818
 20
767.7647272727
 30
0.0
 11
-970.4098181818
 21
767.7647272727
 31
0.0
  0
LINE
  5
43F
330
1F
100
AcDbEntity
  8
0
  6
Continuous
 62
     7
370
    25
100
AcDbLine
 10
-534.5184421509
 20
-632.2352727273
 30
0.0
 11
-515.4098181818
 21
-632.2352727273
 31
0.0
  0
LINE
  5
440
330
1F
100
AcDbEntity
  8
0
  6
Continuous
 62
     7
370
    25
100
AcDbLine
 10
-546.4098181818
 20
-632.2352727273
 30
0.0
 11
-534.5184421509
 21
-632.2352727273
 31
0.0
  0
LINE
  5
441
330
1F
100
AcDbEntity
  8
0
  6
Continuous
 62
     7
370
    25
100
AcDbLine
 10
2367.0901818182
 20
-586.4784400697
 30
0.0
 11
2367.0901818182
 21
-575.7352727272
 31
0.0
  0
LINE
  5
442
330
1F
100
AcDbEntity
  8
0
  6
Continuous
 62
     7
370
    25
100
AcDbLine
 10
2367.0901818182
 20
-606.7352727272
 30
0.0
 11
2367.0901818182
 21
-586.4784400697
 31
0.0
  0
LINE
  5
443
330
1F
100
AcDbEntity
  8
0
  6
Continuous
 62
     7
370
    25
100
AcDbLine
 10
-1091.4098181818
 20
767.7647272727
 30
0.0
 11
-1060.4098181818
 21
767.7647272727
 31
0.0
  0
LINE
  5
444
330
1F
100
AcDbEntity
  8
0
  6
Continuous
 62
     7
370
    25
100
AcDbLine
 10
666.5874264848
 20
-644.3204227462
 30
0.0
 11
679.8401818182
 21
-644.3204227462
 31
0.0
  0
LINE
  5
445
330
1F
100
AcDbEntity
  8
0
  6
Continuous
 62
     7
370
    25
100
AcDbLine
 10
658.3401818182
 20
-644.3204227462
 30
0.0
 11
666.5874264848
 21
-644.3204227462
 31
0.0
  0
LINE
  5
446
330
1F
100
AcDbEntity
  8
0
  6
Continuous
 62
     7
370
    25
100
AcDbLine
 10
666.6787092227
 20
-644.8832466877
 30
0.0
 11
679.4480981737
 21
-644.8832466877
 31
0.0
  0
LINE
  5
447
330
1F
100
AcDbEntity
  8
0
  6
Continuous
 62
     7
370
    25
100
AcDbLine
 10
658.7322654627
 20
-644.8832466877
 30
0.0
 11
666.6787092227
 21
-644.8832466877
 31
0.0
  0
LINE
  5
448
330
1F
100
AcDbEntity
  8
0
  6
Continuous
 62
     7
370
    25
100
AcDbLine
 10
-1168.6598181818
 20
755.6795772538
 30
0.0
 11
-1147.1598181818
 21
755.6795772538
 31
0.0
  0
LINE
  5
449
330
1F
100
AcDbEntity
  8
0
  6
Continuous
 62
     7
370
    25
100
AcDbLine
 10
-1168.2677345373
 20
755.1167533123
 30
0.0
 11
-1147.5519018263
 21
755.1167533123
 31
0.0
  0
LINE
  5
44A
330
1F
100
AcDbEntity
  8
0
  6
Continuous
 62
     7
370
    25
100
AcDbLine
 10
-1086.6598181818
 20
755.6795772538
 30
0.0
 11
-1065.1598181818
 21
755.6795772538
 31
0.0
  0
LINE
  5
44B
330
1F
100
AcDbEntity
  8
0
  6
Continuous
 62
     7
370
    25
100
AcDbLine
 10
-1086.2677345373
 20
755.1167533123
 30
0.0
 11
-1065.5519018263
 21
755.1167533123
 31
0.0
  0
LINE
  5
44C
330
1F
100
AcDbEntity
  8
0
  6
Continuous
 62
     7
370
    25
100
AcDbLine
 10
2379.1753318371
 20
-587.9361791099
 30
0.0
 11
2379.1753318371
 21
-580.4852727272
 31
0.0
  0
LINE
  5
44D
330
1F
100
AcDbEntity
  8
0
  6
Continuous
 62
     7
370
    25
100
AcDbLine
 10
2379.1753318371
 20
-601.9852727272
 30
0.0
 11
2379.1753318371
 21
-587.9361791099
 31
0.0
  0
LINE
  5
44E
330
1F
100
AcDbEntity
  8
0
  6
Continuous
 62
     7
370
    25
100
AcDbLine
 10
2379.7381557786
 20
-588.0565066121
 30
0.0
 11
2379.7381557786
 21
-580.8773563718
 31
0.0
  0
LINE
  5
44F
330
1F
100
AcDbEntity
  8
0
  6
Continuous
 62
     7
370
    25
100
AcDbLine
 10
2379.7381557786
 20
-601.5931890827
 30
0.0
 11
2379.7381557786
 21
-588.0565066121
 31
0.0
  0
LINE
  5
450
330
1F
100
AcDbEntity
  8
0
  6
Continuous
 62
     7
370
    25
100
AcDbLine
 10
-996.6598181818
 20
755.6795772538
 30
0.0
 11
-975.1598181818
 21
755.6795772538
 31
0.0
  0
LINE
  5
451
330
1F
100
AcDbEntity
  8
0
  6
Continuous
 62
     7
370
    25
100
AcDbLine
 10
-996.2677345373
 20
755.1167533123
 30
0.0
 11
-975.5519018263
 21
755.1167533123
 31
0.0
  0
LINE
  5
452
330
1F
100
AcDbEntity
  8
0
  6
Continuous
 62
     7
370
    25
100
AcDbLine
 10
-533.4125735152
 20
-644.3204227462
 30
0.0
 11
-520.1598181818
 21
-644.3204227462
 31
0.0
  0
LINE
  5
453
330
1F
100
AcDbEntity
  8
0
  6
Continuous
 62
     7
370
    25
100
AcDbLine
 10
-541.6598181818
 20
-644.3204227462
 30
0.0
 11
-533.4125735152
 21
-644.3204227462
 31
0.0
  0
LINE
  5
454
330
1F
100
AcDbEntity
  8
0
  6
Continuous
 62
     7
370
    25
100
AcDbLine
 10
-533.3212907773
 20
-644.8832466877
 30
0.0
 11
-520.5519018263
 21
-644.8832466877
 31
0.0
  0
LINE
  5
455
330
1F
100
AcDbEntity
  8
0
  6
Continuous
 62
     7
370
    25
100
AcDbLine
 10
-541.2677345373
 20
-644.8832466877
 30
0.0
 11
-533.3212907773
 21
-644.8832466877
 31
0.0
  0
LINE
  5
456
330
1F
100
AcDbEntity
  8
0
  6
Continuous
 62
     7
370
    25
100
AcDbLine
 10
-2610.9949682007
 20
110.3435610898
 30
0.0
 11
-2610.9949682007
 21
98.0147272727
 31
0.0
  0
LINE
  5
457
330
1F
100
AcDbEntity
  8
0
  6
Continuous
 62
     7
370
    25
100
AcDbLine
 10
-2610.9949682007
 20
119.5147272727
 30
0.0
 11
-2610.9949682007
 21
110.3435610898
 31
0.0
  0
LINE
  5
458
330
1F
100
AcDbEntity
  8
0
  6
Continuous
 62
     7
370
    25
100
AcDbLine
 10
-2611.5577921422
 20
110.2859764464
 30
0.0
 11
-2611.5577921422
 21
98.4068109172
 31
0.0
  0
LINE
  5
459
330
1F
100
AcDbEntity
  8
0
  6
Continuous
 62
     7
370
    25
100
AcDbLine
 10
-2611.5577921422
 20
119.1226436282
 30
0.0
 11
-2611.5577921422
 21
110.2859764464
 31
0.0
  0
LINE
  5
45A
330
1F
100
AcDbEntity
  8
0
  6
Continuous
 62
     7
370
    25
100
AcDbLine
 10
-1075.9098181818
 20
-538.1501227083
 30
0.0
 11
-1086.6598181818
 21
-538.1501227083
 31
0.0
  0
LINE
  5
45B
330
1F
100
AcDbEntity
  8
0
  6
Continuous
 62
     7
370
    25
100
AcDbLine
 10
-1065.1598181818
 20
-538.1501227083
 30
0.0
 11
-1075.9098181818
 21
-538.1501227083
 31
0.0
  0
LINE
  5
45C
330
1F
100
AcDbEntity
  8
0
  6
Continuous
 62
     7
370
    25
100
AcDbLine
 10
-1075.9098181818
 20
-537.5872987669
 30
0.0
 11
-1086.2677345373
 21
-537.5872987669
 31
0.0
  0
LINE
  5
45D
330
1F
100
AcDbEntity
  8
0
  6
Continuous
 62
     7
370
    25
100
AcDbLine
 10
-1065.5519018263
 20
-537.5872987669
 30
0.0
 11
-1075.9098181818
 21
-537.5872987669
 31
0.0
  0
LINE
  5
45E
330
1F
100
AcDbEntity
  8
0
  6
Continuous
 62
     7
370
    25
100
AcDbLine
 10
854.8401818182
 20
-538.1501227083
 30
0.0
 11
833.3401818182
 21
-538.1501227083
 31
0.0
  0
LINE
  5
45F
330
1F
100
AcDbEntity
  8
0
  6
Continuous
 62
     7
370
    25
100
AcDbLine
 10
854.4480981737
 20
-537.5872987669
 30
0.0
 11
833.7322654627
 21
-537.5872987669
 31
0.0
  0
LINE
  5
460
330
1F
100
AcDbEntity
  8
0
  6
Continuous
 62
     7
370
    25
100
AcDbLine
 10
-1157.9098181818
 20
-538.1501227083
 30
0.0
 11
-1168.6598181818
 21
-538.1501227083
 31
0.0
  0
LINE
  5
461
330
1F
100
AcDbEntity
  8
0
  6
Continuous
 62
     7
370
    25
100
AcDbLine
 10
-1147.1598181818
 20
-538.1501227083
 30
0.0
 11
-1157.9098181818
 21
-538.1501227083
 31
0.0
  0
LINE
  5
462
330
1F
100
AcDbEntity
  8
0
  6
Continuous
 62
     7
370
    25
100
AcDbLine
 10
-1157.9098181818
 20
-537.5872987669
 30
0.0
 11
-1168.2677345373
 21
-537.5872987669
 31
0.0
  0
LINE
  5
463
330
1F
100
AcDbEntity
  8
0
  6
Continuous
 62
     7
370
    25
100
AcDbLine
 10
-1147.5519018263
 20
-537.5872987669
 30
0.0
 11
-1157.9098181818
 21
-537.5872987669
 31
0.0
  0
LINE
  5
464
330
1F
100
AcDbEntity
  8
0
  6
Continuous
 62
     7
370
    25
100
AcDbLine
 10
764.8401818182
 20
-538.1501227083
 30
0.0
 11
743.3401818182
 21
-538.1501227083
 31
0.0
  0
LINE
  5
465
330
1F
100
AcDbEntity
  8
0
  6
Continuous
 62
     7
370
    25
100
AcDbLine
 10
764.4480981737
 20
-537.5872987669
 30
0.0
 11
743.7322654627
 21
-537.5872987669
 31
0.0
  0
LINE
  5
466
330
1F
100
AcDbEntity
  8
0
  6
Continuous
 62
     7
370
    25
100
AcDbLine
 10
66.5874264848
 20
-644.3204227462
 30
0.0
 11
79.8401818182
 21
-644.3204227462
 31
0.0
  0
LINE
  5
467
330
1F
100
AcDbEntity
  8
0
  6
Continuous
 62
     7
370
    25
100
AcDbLine
 10
58.3401818182
 20
-644.3204227462
 30
0.0
 11
66.5874264848
 21
-644.3204227462
 31
0.0
  0
LINE
  5
468
330
1F
100
AcDbEntity
  8
0
  6
Continuous
 62
     7
370
    25
100
AcDbLine
 10
66.6787092227
 20
-644.8832466877
 30
0.0
 11
79.4480981737
 21
-644.8832466877
 31
0.0
  0
LINE
  5
469
330
1F
100
AcDbEntity
  8
0
  6
Continuous
 62
     7
370
    25
100
AcDbLine
 10
58.7322654627
 20
-644.8832466877
 30
0.0
 11
66.6787092227
 21
-644.8832466877
 31
0.0
  0
LINE
  5
46A
330
1F
100
AcDbEntity
  8
0
  6
Continuous
 62
     7
370
    25
100
AcDbLine
 10
-985.9098181818
 20
-538.1501227083
 30
0.0
 11
-996.6598181818
 21
-538.1501227083
 31
0.0
  0
LINE
  5
46B
330
1F
100
AcDbEntity
  8
0
  6
Continuous
 62
     7
370
    25
100
AcDbLine
 10
-975.1598181818
 20
-538.1501227083
 30
0.0
 11
-985.9098181818
 21
-538.1501227083
 31
0.0
  0
LINE
  5
46C
330
1F
100
AcDbEntity
  8
0
  6
Continuous
 62
     7
370
    25
100
AcDbLine
 10
-985.9098181818
 20
-537.5872987669
 30
0.0
 11
-996.2677345373
 21
-537.5872987669
 31
0.0
  0
LINE
  5
46D
330
1F
100
AcDbEntity
  8
0
  6
Continuous
 62
     7
370
    25
100
AcDbLine
 10
-975.5519018263
 20
-537.5872987669
 30
0.0
 11
-985.9098181818
 21
-537.5872987669
 31
0.0
  0
LINE
  5
46E
330
1F
100
AcDbEntity
  8
0
  6
Continuous
 62
     7
370
    25
100
AcDbLine
 10
-2610.9949682007
 20
819.5147272727
 30
0.0
 11
-2610.9949682007
 21
798.0147272727
 31
0.0
  0
LINE
  5
46F
330
1F
100
AcDbEntity
  8
0
  6
Continuous
 62
     7
370
    25
100
AcDbLine
 10
-2611.5577921422
 20
819.1226436282
 30
0.0
 11
-2611.5577921422
 21
798.4068109172
 31
0.0
  0
LINE
  5
470
330
1F
100
AcDbEntity
  8
0
  6
Continuous
 62
     7
370
    25
100
AcDbLine
 10
79.8401818182
 20
861.8498772917
 30
0.0
 11
58.3401818182
 21
861.8498772917
 31
0.0
  0
LINE
  5
471
330
1F
100
AcDbEntity
  8
0
  6
Continuous
 62
     7
370
    25
100
AcDbLine
 10
79.4480981737
 20
862.4127012331
 30
0.0
 11
58.7322654627
 21
862.4127012331
 31
0.0
  0
LINE
  5
472
330
1F
100
AcDbEntity
  8
0
  6
Continuous
 62
     7
370
    25
100
AcDbLine
 10
936.8401818182
 20
-538.1501227083
 30
0.0
 11
915.3401818182
 21
-538.1501227083
 31
0.0
  0
LINE
  5
473
330
1F
100
AcDbEntity
  8
0
  6
Continuous
 62
     7
370
    25
100
AcDbLine
 10
936.4480981737
 20
-537.5872987669
 30
0.0
 11
915.7322654627
 21
-537.5872987669
 31
0.0
  0
LINE
  5
474
330
1F
100
AcDbEntity
  8
0
  6
Continuous
 62
     7
370
    25
100
AcDbLine
 10
754.0901818182
 20
755.6795772538
 30
0.0
 11
764.8401818182
 21
755.6795772538
 31
0.0
  0
LINE
  5
475
330
1F
100
AcDbEntity
  8
0
  6
Continuous
 62
     7
370
    25
100
AcDbLine
 10
743.3401818182
 20
755.6795772538
 30
0.0
 11
754.0901818182
 21
755.6795772538
 31
0.0
  0
LINE
  5
476
330
1F
100
AcDbEntity
  8
0
  6
Continuous
 62
     7
370
    25
100
AcDbLine
 10
754.0901818182
 20
755.1167533123
 30
0.0
 11
764.4480981737
 21
755.1167533123
 31
0.0
  0
LINE
  5
477
330
1F
100
AcDbEntity
  8
0
  6
Continuous
 62
     7
370
    25
100
AcDbLine
 10
743.7322654627
 20
755.1167533123
 30
0.0
 11
754.0901818182
 21
755.1167533123
 31
0.0
  0
LINE
  5
478
330
1F
100
AcDbEntity
  8
0
  6
Continuous
 62
     7
370
    25
100
AcDbLine
 10
-520.1598181818
 20
861.8498772917
 30
0.0
 11
-541.6598181818
 21
861.8498772917
 31
0.0
  0
LINE
  5
479
330
1F
100
AcDbEntity
  8
0
  6
Continuous
 62
     7
370
    25
100
AcDbLine
 10
-520.5519018263
 20
862.4127012331
 30
0.0
 11
-541.2677345373
 21
862.4127012331
 31
0.0
  0
LINE
  5
47A
330
1F
100
AcDbEntity
  8
0
  6
Continuous
 62
     7
370
    25
100
AcDbLine
 10
844.0901818182
 20
755.6795772538
 30
0.0
 11
854.8401818182
 21
755.6795772538
 31
0.0
  0
LINE
  5
47B
330
1F
100
AcDbEntity
  8
0
  6
Continuous
 62
     7
370
    25
100
AcDbLine
 10
833.3401818182
 20
755.6795772538
 30
0.0
 11
844.0901818182
 21
755.6795772538
 31
0.0
  0
LINE
  5
47C
330
1F
100
AcDbEntity
  8
0
  6
Continuous
 62
     7
370
    25
100
AcDbLine
 10
844.0901818182
 20
755.1167533123
 30
0.0
 11
854.4480981737
 21
755.1167533123
 31
0.0
  0
LINE
  5
47D
330
1F
100
AcDbEntity
  8
0
  6
Continuous
 62
     7
370
    25
100
AcDbLine
 10
833.7322654627
 20
755.1167533123
 30
0.0
 11
844.0901818182
 21
755.1167533123
 31
0.0
  0
LINE
  5
47E
330
1F
100
AcDbEntity
  8
0
  6
Continuous
 62
     7
370
    25
100
AcDbLine
 10
-1104.8246681629
 20
98.0147272727
 30
0.0
 11
-1104.8246681629
 21
119.5147272727
 31
0.0
  0
LINE
  5
47F
330
1F
100
AcDbEntity
  8
0
  6
Continuous
 62
     7
370
    25
100
AcDbLine
 10
-1104.2618442214
 20
98.4068109172
 30
0.0
 11
-1104.2618442214
 21
119.1226436282
 31
0.0
  0
LINE
  5
480
330
1F
100
AcDbEntity
  8
0
  6
Continuous
 62
     7
370
    25
100
AcDbLine
 10
926.0901818182
 20
755.6795772538
 30
0.0
 11
936.8401818182
 21
755.6795772538
 31
0.0
  0
LINE
  5
481
330
1F
100
AcDbEntity
  8
0
  6
Continuous
 62
     7
370
    25
100
AcDbLine
 10
915.3401818182
 20
755.6795772538
 30
0.0
 11
926.0901818182
 21
755.6795772538
 31
0.0
  0
LINE
  5
482
330
1F
100
AcDbEntity
  8
0
  6
Continuous
 62
     7
370
    25
100
AcDbLine
 10
926.0901818182
 20
755.1167533123
 30
0.0
 11
936.4480981737
 21
755.1167533123
 31
0.0
  0
LINE
  5
483
330
1F
100
AcDbEntity
  8
0
  6
Continuous
 62
     7
370
    25
100
AcDbLine
 10
915.7322654627
 20
755.1167533123
 30
0.0
 11
926.0901818182
 21
755.1167533123
 31
0.0
  0
LINE
  5
484
330
1F
100
AcDbEntity
  8
0
  6
Continuous
 62
     7
370
    25
100
AcDbLine
 10
-311.6598181818
 20
-644.3204227462
 30
0.0
 11
-290.1598181818
 21
-644.3204227462
 31
0.0
  0
LINE
  5
485
330
1F
100
AcDbEntity
  8
0
  6
Continuous
 62
     7
370
    25
100
AcDbLine
 10
-311.2677345373
 20
-644.8832466877
 30
0.0
 11
-290.5519018263
 21
-644.8832466877
 31
0.0
  0
LINE
  5
486
330
1F
100
AcDbEntity
  8
0
  6
Continuous
 62
     7
370
    25
100
AcDbLine
 10
-911.6598181818
 20
-644.3204227462
 30
0.0
 11
-890.1598181818
 21
-644.3204227462
 31
0.0
  0
LINE
  5
487
330
1F
100
AcDbEntity
  8
0
  6
Continuous
 62
     7
370
    25
100
AcDbLine
 10
-911.2677345373
 20
-644.8832466877
 30
0.0
 11
-890.5519018263
 21
-644.8832466877
 31
0.0
  0
LINE
  5
488
330
1F
100
AcDbEntity
  8
0
  6
Continuous
 62
     7
370
    25
100
AcDbLine
 10
2379.1753318371
 20
798.0147272727
 30
0.0
 11
2379.1753318371
 21
819.5147272727
 31
0.0
  0
LINE
  5
489
330
1F
100
AcDbEntity
  8
0
  6
Continuous
 62
     7
370
    25
100
AcDbLine
 10
2379.7381557786
 20
798.4068109172
 30
0.0
 11
2379.7381557786
 21
819.1226436282
 31
0.0
  0
LINE
  5
48A
330
1F
100
AcDbEntity
  8
0
  6
Continuous
 62
     7
370
    25
100
AcDbLine
 10
-898.4070628484
 20
861.8498772917
 30
0.0
 11
-911.6598181818
 21
861.8498772917
 31
0.0
  0
LINE
  5
48B
330
1F
100
AcDbEntity
  8
0
  6
Continuous
 62
     7
370
    25
100
AcDbLine
 10
-890.1598181818
 20
861.8498772917
 30
0.0
 11
-898.4070628484
 21
861.8498772917
 31
0.0
  0
LINE
  5
48C
330
1F
100
AcDbEntity
  8
0
  6
Continuous
 62
     7
370
    25
100
AcDbLine
 10
-898.4983455863
 20
862.4127012331
 30
0.0
 11
-911.2677345373
 21
862.4127012331
 31
0.0
  0
LINE
  5
48D
330
1F
100
AcDbEntity
  8
0
  6
Continuous
 62
     7
370
    25
100
AcDbLine
 10
-890.5519018263
 20
862.4127012331
 30
0.0
 11
-898.4983455863
 21
862.4127012331
 31
0.0
  0
LINE
  5
48E
330
1F
100
AcDbEntity
  8
0
  6
Continuous
 62
     7
370
    25
100
AcDbLine
 10
679.8401818182
 20
861.8498772917
 30
0.0
 11
658.3401818182
 21
861.8498772917
 31
0.0
  0
LINE
  5
48F
330
1F
100
AcDbEntity
  8
0
  6
Continuous
 62
     7
370
    25
100
AcDbLine
 10
679.4480981737
 20
862.4127012331
 30
0.0
 11
658.7322654627
 21
862.4127012331
 31
0.0
  0
LINE
  5
490
330
1F
100
AcDbEntity
  8
0
  6
Continuous
 62
     7
370
    25
100
AcDbLine
 10
-298.4070628484
 20
861.8498772917
 30
0.0
 11
-311.6598181818
 21
861.8498772917
 31
0.0
  0
LINE
  5
491
330
1F
100
AcDbEntity
  8
0
  6
Continuous
 62
     7
370
    25
100
AcDbLine
 10
-290.1598181818
 20
861.8498772917
 30
0.0
 11
-298.4070628484
 21
861.8498772917
 31
0.0
  0
LINE
  5
492
330
1F
100
AcDbEntity
  8
0
  6
Continuous
 62
     7
370
    25
100
AcDbLine
 10
-298.4983455863
 20
862.4127012331
 30
0.0
 11
-311.2677345373
 21
862.4127012331
 31
0.0
  0
LINE
  5
493
330
1F
100
AcDbEntity
  8
0
  6
Continuous
 62
     7
370
    25
100
AcDbLine
 10
-290.5519018263
 20
862.4127012331
 30
0.0
 11
-298.4983455863
 21
862.4127012331
 31
0.0
  0
LINE
  5
494
330
1F
100
AcDbEntity
  8
0
  6
Continuous
 62
     7
370
    25
100
AcDbLine
 10
-1159.7207646171
 20
50.6795772538
 30
0.0
 11
-1147.1598181818
 21
50.6795772538
 31
0.0
  0
LINE
  5
495
330
1F
100
AcDbEntity
  8
0
  6
Continuous
 62
     7
370
    25
100
AcDbLine
 10
-1168.6598181818
 20
50.6795772538
 30
0.0
 11
-1159.7207646171
 21
50.6795772538
 31
0.0
  0
LINE
  5
496
330
1F
100
AcDbEntity
  8
0
  6
Continuous
 62
     7
370
    25
100
AcDbLine
 10
-1159.654714154
 20
50.1167533123
 30
0.0
 11
-1147.5519018263
 21
50.1167533123
 31
0.0
  0
LINE
  5
497
330
1F
100
AcDbEntity
  8
0
  6
Continuous
 62
     7
370
    25
100
AcDbLine
 10
-1168.2677345373
 20
50.1167533123
 30
0.0
 11
-1159.654714154
 21
50.1167533123
 31
0.0
  0
LINE
  5
498
330
1F
100
AcDbEntity
  8
0
  6
Continuous
 62
     7
370
    25
100
AcDbLine
 10
301.5929371516
 20
861.8498772917
 30
0.0
 11
288.3401818182
 21
861.8498772917
 31
0.0
  0
LINE
  5
499
330
1F
100
AcDbEntity
  8
0
  6
Continuous
 62
     7
370
    25
100
AcDbLine
 10
309.8401818182
 20
861.8498772917
 30
0.0
 11
301.5929371516
 21
861.8498772917
 31
0.0
  0
LINE
  5
49A
330
1F
100
AcDbEntity
  8
0
  6
Continuous
 62
     7
370
    25
100
AcDbLine
 10
301.5016544137
 20
862.4127012331
 30
0.0
 11
288.7322654627
 21
862.4127012331
 31
0.0
  0
LINE
  5
49B
330
1F
100
AcDbEntity
  8
0
  6
Continuous
 62
     7
370
    25
100
AcDbLine
 10
309.4480981737
 20
862.4127012331
 30
0.0
 11
301.5016544137
 21
862.4127012331
 31
0.0
  0
LINE
  5
49C
330
1F
100
AcDbEntity
  8
0
  6
Continuous
 62
     7
370
    25
100
AcDbLine
 10
288.3401818182
 20
-644.3204227462
 30
0.0
 11
309.8401818182
 21
-644.3204227462
 31
0.0
  0
LINE
  5
49D
330
1F
100
AcDbEntity
  8
0
  6
Continuous
 62
     7
370
    25
100
AcDbLine
 10
288.7322654627
 20
-644.8832466877
 30
0.0
 11
309.4480981737
 21
-644.8832466877
 31
0.0
  0
ENDSEC
  0
SECTION
  2
OBJECTS
  0
DICTIONARY
  5
C
330
0
100
AcDbDictionary
281
     1
  3
ACAD_GROUP
350
D
  3
ACAD_LAYOUT
350
1A
  3
ACAD_MLINESTYLE
350
17
  3
ACAD_PLOTSETTINGS
350
19
  3
ACAD_PLOTSTYLENAME
350
E
  3
ACAD_SCALELIST
350
47
  3
DWGPROPS
350
49E
  0
DICTIONARY
  5
D
102
{ACAD_REACTORS
330
C
102
}
330
C
100
AcDbDictionary
281
     1
  0
DICTIONARY
  5
1A
102
{ACAD_REACTORS
330
C
102
}
330
C
100
AcDbDictionary
281
     1
  3
Layout1
350
1E
  3
Layout2
350
26
  3
Model
350
22
  0
DICTIONARY
  5
17
102
{ACAD_REACTORS
330
C
102
}
330
C
100
AcDbDictionary
281
     1
  3
Standard
350
18
  0
DICTIONARY
  5
19
102
{ACAD_REACTORS
330
C
102
}
330
C
100
AcDbDictionary
281
     1
  0
ACDBDICTIONARYWDFLT
  5
E
102
{ACAD_REACTORS
330
C
102
}
330
C
100
AcDbDictionary
281
     1
  3
Normal
350
F
100
AcDbDictionaryWithDefault
340
F
  0
DICTIONARY
  5
47
102
{ACAD_REACTORS
330
C
102
}
330
C
100
AcDbDictionary
281
     1
  3
A0
350
48
  3
A1
350
49
  3
A2
350
4A
  3
A3
350
4B
  3
A4
350
4C
  3
A5
350
4D
  3
A6
350
4E
  3
A7
350
4F
  3
A8
350
50
  3
A9
350
51
  3
B0
350
52
  3
B1
350
53
  3
B2
350
54
  3
B3
350
55
  3
B4
350
56
  3
B5
350
57
  3
B6
350
58
  0
XRECORD
  5
49E
102
{ACAD_REACTORS
330
C
102
}
330
C
100
AcDbXrecord
280
     1
  1
DWGPROPS COOKIE
  2

  3

  4

  6

  7

  8
Swing
  9

300
=
301
=
302
=
303
=
304
=
305
=
306
=
307
=
308
=
309
=
 40
0.0
 41
2460034.475232801
 42
2460034.475233426
  1

 90
        0
  0
LAYOUT
  5
1E
102
{ACAD_REACTORS
330
1A
102
}
330
1A
100
AcDbPlotSettings
  1

  2
none_device
  4

  6

 40
0.0
 41
0.0
 42
0.0
 43
0.0
 44
0.0
 45
0.0
 46
0.0
 47
0.0
 48
0.0
 49
0.0
140
0.0
141
0.0
142
1.0
143
1.0
 70
   688
 72
     1
 73
     0
 74
     5
  7

 75
    16
147
1.0
148
0.0
149
0.0
100
AcDbLayout
  1
Layout1
 70
     1
 71
     1
 10
0.0
 20
0.0
 11
420.0
 21
297.0
 12
0.0
 22
0.0
 32
0.0
 14
1.0000000000E+20
 24
1.0000000000E+20
 34
1.0000000000E+20
 15
-1.0000000000E+20
 25
-1.0000000000E+20
 35
-1.0000000000E+20
146
0.0
 13
0.0
 23
0.0
 33
0.0
 16
1.0
 26
0.0
 36
0.0
 17
0.0
 27
1.0
 37
0.0
 76
     0
330
1B
  0
LAYOUT
  5
26
102
{ACAD_REACTORS
330
1A
102
}
330
1A
100
AcDbPlotSettings
  1

  2
none_device
  4

  6

 40
0.0
 41
0.0
 42
0.0
 43
0.0
 44
0.0
 45
0.0
 46
0.0
 47
0.0
 48
0.0
 49
0.0
140
0.0
141
0.0
142
1.0
143
1.0
 70
   688
 72
     1
 73
     0
 74
     5
  7

 75
    16
147
1.0
148
0.0
149
0.0
100
AcDbLayout
  1
Layout2
 70
     1
 71
     2
 10
0.0
 20
0.0
 11
0.0
 21
0.0
 12
0.0
 22
0.0
 32
0.0
 14
0.0
 24
0.0
 34
0.0
 15
0.0
 25
0.0
 35
0.0
146
0.0
 13
0.0
 23
0.0
 33
0.0
 16
1.0
 26
0.0
 36
0.0
 17
0.0
 27
1.0
 37
0.0
 76
     0
330
23
  0
LAYOUT
  5
22
102
{ACAD_REACTORS
330
1A
102
}
330
1A
100
AcDbPlotSettings
  1

  2
none_device
  4
Letter_(8.50_x_11.00_Inches)
  6

 40
6.35
 41
6.35
 42
6.35000508
 43
6.35000508
 44
215.9
 45
279.4
 46
0.0
 47
0.0
 48
0.0
 49
0.0
140
0.0
141
0.0
142
1.0
143
1.0
 70
  1712
 72
     1
 73
     0
 74
     0
  7

 75
     0
147
1.0
148
0.0
149
0.0
100
AcDbLayout
  1
Model
 70
     1
 71
     0
 10
0.0
 20
0.0
 11
297.0
 21
210.0
 12
0.0
 22
0.0
 32
0.0
 14
0.0
 24
0.0
 34
0.0
 15
297.0
 25
210.0
 35
0.0
146
0.0
 13
0.0
 23
0.0
 33
0.0
 16
1.0
 26
0.0
 36
0.0
 17
0.0
 27
1.0
 37
0.0
 76
     0
330
1F
331
29
  0
MLINESTYLE
  5
18
102
{ACAD_REACTORS
330
17
102
}
330
17
100
AcDbMlineStyle
  2
Standard
 70
     0
  3

 62
   256
 51
90.0
 52
90.0
 71
     2
 49
0.5
 62
   256
  6
BYLAYER
 49
-0.5
 62
   256
  6
BYLAYER
  0
ACDBPLACEHOLDER
  5
F
102
{ACAD_REACTORS
330
E
102
}
330
E
  0
SCALE
  5
48
102
{ACAD_REACTORS
330
47
102
}
330
47
100
AcDbScale
 70
     0
300
1:1
140
1.0
141
1.0
290
     1
  0
SCALE
  5
49
102
{ACAD_REACTORS
330
47
102
}
330
47
100
AcDbScale
 70
     0
300
1:2
140
1.0
141
2.0
290
     0
  0
SCALE
  5
4A
102
{ACAD_REACTORS
330
47
102
}
330
47
100
AcDbScale
 70
     0
300
1:4
140
1.0
141
4.0
290
     0
  0
SCALE
  5
4B
102
{ACAD_REACTORS
330
47
102
}
330
47
100
AcDbScale
 70
     0
300
1:5
140
1.0
141
5.0
290
     0
  0
SCALE
  5
4C
102
{ACAD_REACTORS
330
47
102
}
330
47
100
AcDbScale
 70
     0
300
1:8
140
1.0
141
8.0
290
     0
  0
SCALE
  5
4D
102
{ACAD_REACTORS
330
47
102
}
330
47
100
AcDbScale
 70
     0
300
1:10
140
1.0
141
10.0
290
     0
  0
SCALE
  5
4E
102
{ACAD_REACTORS
330
47
102
}
330
47
100
AcDbScale
 70
     0
300
1:16
140
1.0
141
16.0
290
     0
  0
SCALE
  5
4F
102
{ACAD_REACTORS
330
47
102
}
330
47
100
AcDbScale
 70
     0
300
1:20
140
1.0
141
20.0
290
     0
  0
SCALE
  5
50
102
{ACAD_REACTORS
330
47
102
}
330
47
100
AcDbScale
 70
     0
300
1:30
140
1.0
141
30.0
290
     0
  0
SCALE
  5
51
102
{ACAD_REACTORS
330
47
102
}
330
47
100
AcDbScale
 70
     0
300
1:40
140
1.0
141
40.0
290
     0
  0
SCALE
  5
52
102
{ACAD_REACTORS
330
47
102
}
330
47
100
AcDbScale
 70
     0
300
1:50
140
1.0
141
50.0
290
     0
  0
SCALE
  5
53
102
{ACAD_REACTORS
330
47
102
}
330
47
100
AcDbScale
 70
     0
300
1:100
140
1.0
141
100.0
290
     0
  0
SCALE
  5
54
102
{ACAD_REACTORS
330
47
102
}
330
47
100
AcDbScale
 70
     0
300
2:1
140
2.0
141
1.0
290
     0
  0
SCALE
  5
55
102
{ACAD_REACTORS
330
47
102
}
330
47
100
AcDbScale
 70
     0
300
4:1
140
4.0
141
1.0
290
     0
  0
SCALE
  5
56
102
{ACAD_REACTORS
330
47
102
}
330
47
100
AcDbScale
 70
     0
300
8:1
140
8.0
141
1.0
290
     0
  0
SCALE
  5
57
102
{ACAD_REACTORS
330
47
102
}
330
47
100
AcDbScale
 70
     0
300
10:1
140
10.0
141
1.0
290
     0
  0
SCALE
  5
58
102
{ACAD_REACTORS
330
47
102
}
330
47
100
AcDbScale
 70
     0
300
100:1
140
100.0
141
1.0
290
     0
  0
ENDSEC
  0
EOF
