  0
SECTION
  2
HEADER
  9
$ACADVER
  1
AC1015
  9
$ACADMAINTVER
 70
     6
  9
$DWGCODEPAGE
  3
ANSI_1250
  9
$INSBASE
 10
0.0
 20
0.0
 30
0.0
  9
$EXTMIN
 10
0.0
 20
0.0
 30
0.0
  9
$EXTMAX
 10
297.0
 20
210.0
 30
0.0
  9
$LIMMIN
 10
0.0
 20
0.0
  9
$LIMMAX
 10
297.0
 20
210.0
  9
$ORTHOMODE
 70
     0
  9
$REGENMODE
 70
     1
  9
$FILLMODE
 70
     1
  9
$QTEXTMODE
 70
     0
  9
$MIRRTEXT
 70
     1
  9
$LTSCALE
 40
1.0
  9
$ATTMODE
 70
     1
  9
$TEXTSIZE
 40
3.5277777778
  9
$TRACEWID
 40
1.0
  9
$TEXTSTYLE
  7
Standard
  9
$CLAYER
  8
0
  9
$CELTYPE
  6
ByLayer
  9
$CECOLOR
 62
   256
  9
$CELTSCALE
 40
1.0
  9
$DISPSILH
 70
     0
  9
$DIMSCALE
 40
1.0
  9
$DIMASZ
 40
2.0
  9
$DIMEXO
 40
1.0
  9
$DIMDLI
 40
3.75
  9
$DIMRND
 40
0.0
  9
$DIMDLE
 40
0.0
  9
$DIMEXE
 40
1.0
  9
$DIMTP
 40
0.0
  9
$DIMTM
 40
0.0
  9
$DIMTXT
 40
3.5277777778
  9
$DIMCEN
 40
2.5
  9
$DIMTSZ
 40
0.0
  9
$DIMTOL
 70
     0
  9
$DIMLIM
 70
     0
  9
$DIMTIH
 70
     1
  9
$DIMTOH
 70
     1
  9
$DIMSE1
 70
     0
  9
$DIMSE2
 70
     0
  9
$DIMTAD
 70
     1
  9
$DIMZIN
 70
     1
  9
$DIMBLK
  1

  9
$DIMASO
 70
     1
  9
$DIMSHO
 70
     1
  9
$DIMPOST
  1

  9
$DIMAPOST
  1

  9
$DIMALT
 70
     0
  9
$DIMALTD
 70
     3
  9
$DIMALTF
 40
0.0393700787
  9
$DIMLFAC
 40
1.0
  9
$DIMTOFL
 70
     1
  9
$DIMTVP
 40
0.0
  9
$DIMTIX
 70
     0
  9
$DIMSOXD
 70
     0
  9
$DIMSAH
 70
     0
  9
$DIMBLK1
  1

  9
$DIMBLK2
  1

  9
$DIMSTYLE
  2
ISO-25
  9
$DIMCLRD
 70
     0
  9
$DIMCLRE
 70
     0
  9
$DIMCLRT
 70
     0
  9
$DIMTFAC
 40
1.0
  9
$DIMGAP
 40
1.524
  9
$DIMJUST
 70
     0
  9
$DIMSD1
 70
     0
  9
$DIMSD2
 70
     0
  9
$DIMTOLJ
 70
     0
  9
$DIMTZIN
 70
     1
  9
$DIMALTZ
 70
     0
  9
$DIMALTTZ
 70
     0
  9
$DIMUPT
 70
     0
  9
$DIMDEC
 70
     0
  9
$DIMTDEC
 70
     0
  9
$DIMALTU
 70
     2
  9
$DIMALTTD
 70
     3
  9
$DIMTXSTY
  7
Standard
  9
$DIMAUNIT
 70
     0
  9
$DIMADEC
 70
     1
  9
$DIMALTRND
 40
0.0
  9
$DIMAZIN
 70
     0
  9
$DIMDSEP
 70
    44
  9
$DIMATFIT
 70
     3
  9
$DIMFRAC
 70
     0
  9
$DIMLDRBLK
  1

  9
$DIMLUNIT
 70
     2
  9
$DIMLWD
 70
    -2
  9
$DIMLWE
 70
    -2
  9
$DIMTMOVE
 70
     0
  9
$LUNITS
 70
     2
  9
$LUPREC
 70
     1
  9
$SKETCHINC
 40
1.0
  9
$FILLETRAD
 40
0.0
  9
$AUNITS
 70
     0
  9
$AUPREC
 70
     1
  9
$MENU
  1
.
  9
$ELEVATION
 40
0.0
  9
$PELEVATION
 40
0.0
  9
$THICKNESS
 40
0.0
  9
$LIMCHECK
 70
     0
  9
$CHAMFERA
 40
0.0
  9
$CHAMFERB
 40
0.0
  9
$CHAMFERC
 40
0.0
  9
$CHAMFERD
 40
0.0
  9
$SKPOLY
 70
     0
  9
$TDCREATE
 40
2459997.526390903
  9
$TDUCREATE
 40
2459997.484724236
  9
$TDUPDATE
 40
2459997.526391215
  9
$TDUUPDATE
 40
2459997.484724549
  9
$TDINDWG
 40
0.0000000116
  9
$TDUSRTIMER
 40
0.0000000116
  9
$USRTIMER
 70
     1
  9
$ANGBASE
 50
0.0
  9
$ANGDIR
 70
     0
  9
$PDMODE
 70
     0
  9
$PDSIZE
 40
-1.0
  9
$PLINEWID
 40
0.0
  9
$SPLFRAME
 70
     0
  9
$SPLINETYPE
 70
     6
  9
$SPLINESEGS
 70
     8
  9
$HANDSEED
  5
328
  9
$SURFTAB1
 70
     6
  9
$SURFTAB2
 70
     6
  9
$SURFTYPE
 70
     6
  9
$SURFU
 70
     6
  9
$SURFV
 70
     6
  9
$UCSBASE
  2

  9
$UCSNAME
  2

  9
$UCSORG
 10
0.0
 20
0.0
 30
0.0
  9
$UCSXDIR
 10
1.0
 20
0.0
 30
0.0
  9
$UCSYDIR
 10
0.0
 20
1.0
 30
0.0
  9
$UCSORTHOREF
  2

  9
$UCSORTHOVIEW
 70
     0
  9
$UCSORGTOP
 10
0.0
 20
0.0
 30
0.0
  9
$UCSORGBOTTOM
 10
0.0
 20
0.0
 30
0.0
  9
$UCSORGLEFT
 10
0.0
 20
0.0
 30
0.0
  9
$UCSORGRIGHT
 10
0.0
 20
0.0
 30
0.0
  9
$UCSORGFRONT
 10
0.0
 20
0.0
 30
0.0
  9
$UCSORGBACK
 10
0.0
 20
0.0
 30
0.0
  9
$PUCSBASE
  2

  9
$PUCSNAME
  2

  9
$PUCSORG
 10
0.0
 20
0.0
 30
0.0
  9
$PUCSXDIR
 10
1.0
 20
0.0
 30
0.0
  9
$PUCSYDIR
 10
0.0
 20
1.0
 30
0.0
  9
$PUCSORTHOREF
  2

  9
$PUCSORTHOVIEW
 70
     0
  9
$PUCSORGTOP
 10
0.0
 20
0.0
 30
0.0
  9
$PUCSORGBOTTOM
 10
0.0
 20
0.0
 30
0.0
  9
$PUCSORGLEFT
 10
0.0
 20
0.0
 30
0.0
  9
$PUCSORGRIGHT
 10
0.0
 20
0.0
 30
0.0
  9
$PUCSORGFRONT
 10
0.0
 20
0.0
 30
0.0
  9
$PUCSORGBACK
 10
0.0
 20
0.0
 30
0.0
  9
$USERI1
 70
     0
  9
$USERI2
 70
     0
  9
$USERI3
 70
     0
  9
$USERI4
 70
     0
  9
$USERI5
 70
     0
  9
$USERR1
 40
0.0
  9
$USERR2
 40
0.0
  9
$USERR3
 40
0.0
  9
$USERR4
 40
0.0
  9
$USERR5
 40
0.0
  9
$WORLDVIEW
 70
     1
  9
$SHADEDGE
 70
     3
  9
$SHADEDIF
 70
    70
  9
$TILEMODE
 70
     1
  9
$MAXACTVP
 70
    64
  9
$PINSBASE
 10
0.0
 20
0.0
 30
0.0
  9
$PLIMCHECK
 70
     0
  9
$PEXTMIN
 10
1.0000000000E+20
 20
1.0000000000E+20
 30
1.0000000000E+20
  9
$PEXTMAX
 10
-1.0000000000E+20
 20
-1.0000000000E+20
 30
-1.0000000000E+20
  9
$PLIMMIN
 10
0.0
 20
0.0
  9
$PLIMMAX
 10
420.0
 20
297.0
  9
$UNITMODE
 70
     0
  9
$VISRETAIN
 70
     1
  9
$PLINEGEN
 70
     0
  9
$PSLTSCALE
 70
     1
  9
$TREEDEPTH
 70
  3020
  9
$CMLSTYLE
  2
Standard
  9
$CMLJUST
 70
     0
  9
$CMLSCALE
 40
20.0
  9
$PROXYGRAPHICS
 70
     1
  9
$MEASUREMENT
 70
     1
  9
$CELWEIGHT
370
    -1
  9
$ENDCAPS
280
     0
  9
$JOINSTYLE
280
     0
  9
$LWDISPLAY
290
     1
  9
$INSUNITS
 70
     4
  9
$HYPERLINKBASE
  1

  9
$STYLESHEET
  1

  9
$XEDIT
290
     1
  9
$CEPSNTYPE
380
     0
  9
$PSTYLEMODE
290
     1
  9
$FINGERPRINTGUID
  2
{74dc00c4-e814-4dc5-95a8-29dd34a1d76e}
  9
$VERSIONGUID
  2
{FAEB1C32-E019-11D5-929B-00C0DF256EC4}
  9
$EXTNAMES
290
     1
  9
$PSVPSCALE
 40
0.0
  9
$OLESTARTUP
290
     0
  0
ENDSEC
  0
SECTION
  2
CLASSES
  0
CLASS
  1
ACDBDICTIONARYWDFLT
  2
AcDbDictionaryWithDefault
  3
ObjectDBX Classes
 90
        0
280
     0
281
     0
  0
CLASS
  1
VISUALSTYLE
  2
AcDbVisualStyle
  3
ObjectDBX Classes
 90
     4095
280
     0
281
     0
  0
CLASS
  1
MATERIAL
  2
AcDbMaterial
  3
ObjectDBX Classes
 90
     1153
280
     0
281
     0
  0
CLASS
  1
SCALE
  2
AcDbScale
  3
ObjectDBX Classes
 90
     1153
280
     0
281
     0
  0
CLASS
  1
TABLESTYLE
  2
AcDbTableStyle
  3
ObjectDBX Classes
 90
     4095
280
     0
281
     0
  0
CLASS
  1
MLEADERSTYLE
  2
AcDbMLeaderStyle
  3
ACDB_MLEADERSTYLE_CLASS
 90
     4095
280
     0
281
     0
  0
CLASS
  1
SUN
  2
AcDbSun
  3
SCENEOE
 90
     1153
280
     0
281
     0
  0
CLASS
  1
ACDBPLACEHOLDER
  2
AcDbPlaceHolder
  3
ObjectDBX Classes
 90
        0
280
     0
281
     0
  0
CLASS
  1
LAYOUT
  2
AcDbLayout
  3
ObjectDBX Classes
 90
        0
280
     0
281
     0
  0
ENDSEC
  0
SECTION
  2
TABLES
  0
TABLE
  2
VPORT
  5
8
330
0
100
AcDbSymbolTable
 70
     1
  0
VPORT
  5
29
330
8
100
AcDbSymbolTableRecord
100
AcDbViewportTableRecord
  2
*Active
 70
     0
 10
0.0
 20
0.0
 11
1.0
 21
1.0
 12
148.5
 22
105.0
 13
0.0
 23
0.0
 14
10.0
 24
10.0
 15
10.0
 25
10.0
 16
0.0
 26
0.0
 36
1.0
 17
0.0
 27
0.0
 37
0.0
 40
210.0
 41
1.4142857143
 42
50.0
 43
0.0
 44
0.0
 50
0.0
 51
0.0
 71
     0
 72
  2000
 73
     1
 74
     3
 75
     0
 76
     0
 77
     0
 78
     0
281
     0
 65
     1
110
0.0
120
0.0
130
0.0
111
1.0
121
0.0
131
0.0
112
0.0
122
1.0
132
0.0
 79
     0
146
0.0
  0
ENDTAB
  0
TABLE
  2
LTYPE
  5
5
330
0
100
AcDbSymbolTable
 70
     6
  0
LTYPE
  5
14
330
5
100
AcDbSymbolTableRecord
100
AcDbLinetypeTableRecord
  2
ByBlock
 70
     0
  3

 72
    65
 73
     0
 40
0.0
  0
LTYPE
  5
15
330
5
100
AcDbSymbolTableRecord
100
AcDbLinetypeTableRecord
  2
ByLayer
 70
     0
  3

 72
    65
 73
     0
 40
0.0
  0
LTYPE
  5
16
330
5
100
AcDbSymbolTableRecord
100
AcDbLinetypeTableRecord
  2
Continuous
 70
     0
  3
Solid line
 72
    65
 73
     0
 40
0.0
  0
LTYPE
  5
5E
330
5
100
AcDbSymbolTableRecord
100
AcDbLinetypeTableRecord
  2
HIDDEN
 70
     0
  3
Hidden __ __ __ __ __ __ __ __ __ __ __ __ __ __
 72
    65
 73
     2
 40
1.905
 49
1.27
 74
     0
 49
-0.635
 74
     0
  0
LTYPE
  5
5F
330
5
100
AcDbSymbolTableRecord
100
AcDbLinetypeTableRecord
  2
PHANTOM
 70
     0
  3
Phantom ______  __  __  ______  __  __  ______
 72
    65
 73
     6
 40
12.7
 49
6.35
 74
     0
 49
-1.27
 74
     0
 49
1.27
 74
     0
 49
-1.27
 74
     0
 49
1.27
 74
     0
 49
-1.27
 74
     0
  0
LTYPE
  5
60
330
5
100
AcDbSymbolTableRecord
100
AcDbLinetypeTableRecord
  2
CENTER
 70
     0
  3
Center ____ _ ____ _ ____ _ ____ _ ____ _ ____
 72
    65
 73
     4
 40
10.16
 49
6.35
 74
     0
 49
-1.27
 74
     0
 49
1.27
 74
     0
 49
-1.27
 74
     0
  0
LTYPE
  5
61
330
5
100
AcDbSymbolTableRecord
100
AcDbLinetypeTableRecord
  2
CENTERX2
 70
     0
  3
Center (2x) ________  __  ________  __  _____
 72
    65
 73
     4
 40
20.32
 49
12.7
 74
     0
 49
-2.54
 74
     0
 49
2.54
 74
     0
 49
-2.54
 74
     0
  0
LTYPE
  5
62
330
5
100
AcDbSymbolTableRecord
100
AcDbLinetypeTableRecord
  2
DOT2
 70
     0
  3
Dot (.5x) ........................................
 72
    65
 73
     2
 40
0.635
 49
0.0
 74
     0
 49
-0.635
 74
     0
  0
ENDTAB
  0
TABLE
  2
LAYER
  5
2
330
0
100
AcDbSymbolTable
 70
     4
  0
LAYER
  5
10
330
2
100
AcDbSymbolTableRecord
100
AcDbLayerTableRecord
  2
0
 70
     0
 62
     7
  6
Continuous
370
    -3
390
F
  0
LAYER
  5
63
330
2
100
AcDbSymbolTableRecord
100
AcDbLayerTableRecord
  2
FRAME_&_TABLE
 70
     0
 62
     8
  6
Continuous
370
    50
390
F
  0
LAYER
  5
64
330
2
100
AcDbSymbolTableRecord
100
AcDbLayerTableRecord
  2
DIMENSIONS
 70
     0
 62
     7
  6
Continuous
370
    -3
390
F
  0
LAYER
  5
65
330
2
100
AcDbSymbolTableRecord
100
AcDbLayerTableRecord
  2
FORMAT
 70
     0
 62
     7
  6
Continuous
370
    -3
390
F
  0
ENDTAB
  0
TABLE
  2
STYLE
  5
3
330
0
100
AcDbSymbolTable
 70
     1
  0
STYLE
  5
11
330
3
100
AcDbSymbolTableRecord
100
AcDbTextStyleTableRecord
  2
Standard
 70
     0
 40
0.0
 41
1.0
 50
0.0
 71
     0
 42
3.5277777778
  3
txt
  4

  0
ENDTAB
  0
TABLE
  2
VIEW
  5
6
330
0
100
AcDbSymbolTable
 70
     0
  0
ENDTAB
  0
TABLE
  2
UCS
  5
7
330
0
100
AcDbSymbolTable
 70
     0
  0
ENDTAB
  0
TABLE
  2
APPID
  5
9
330
0
100
AcDbSymbolTable
 70
     1
  0
APPID
  5
12
330
9
100
AcDbSymbolTableRecord
100
AcDbRegAppTableRecord
  2
ACAD
 70
     0
  0
ENDTAB
  0
TABLE
  2
DIMSTYLE
  5
A
330
0
100
AcDbSymbolTable
 70
     1
100
AcDbDimStyleTable
  0
DIMSTYLE
105
27
330
A
100
AcDbSymbolTableRecord
100
AcDbDimStyleTableRecord
  2
ISO-25
 70
     0
 41
2.5
 42
0.625
 43
3.75
 44
1.25
 73
     0
 74
     0
 77
     1
 78
     8
140
2.5
141
2.5
143
0.0393700787
147
0.625
171
     3
172
     1
178
     0
271
     2
272
     2
274
     3
278
    44
283
     0
284
     8
340
11
  0
ENDTAB
  0
TABLE
  2
BLOCK_RECORD
  5
1
330
0
100
AcDbSymbolTable
 70
     1
  0
BLOCK_RECORD
  5
1F
330
1
100
AcDbSymbolTableRecord
100
AcDbBlockTableRecord
  2
*Model_Space
340
22
  0
BLOCK_RECORD
  5
1B
330
1
100
AcDbSymbolTableRecord
100
AcDbBlockTableRecord
  2
*Paper_Space
340
1E
  0
BLOCK_RECORD
  5
23
330
1
100
AcDbSymbolTableRecord
100
AcDbBlockTableRecord
  2
*Paper_Space0
340
26
  0
ENDTAB
  0
ENDSEC
  0
SECTION
  2
BLOCKS
  0
BLOCK
  5
20
330
1F
100
AcDbEntity
  8
0
100
AcDbBlockBegin
  2
*Model_Space
 70
     0
 10
0.0
 20
0.0
 30
0.0
  3
*Model_Space
  1

  0
ENDBLK
  5
21
330
1F
100
AcDbEntity
  8
0
100
AcDbBlockEnd
  0
BLOCK
  5
1C
330
1B
100
AcDbEntity
 67
     1
  8
0
100
AcDbBlockBegin
  2
*Paper_Space
 70
     0
 10
0.0
 20
0.0
 30
0.0
  3
*Paper_Space
  1

  0
ENDBLK
  5
1D
330
1B
100
AcDbEntity
 67
     1
  8
0
100
AcDbBlockEnd
  0
BLOCK
  5
24
330
23
100
AcDbEntity
  8
0
100
AcDbBlockBegin
  2
*Paper_Space0
 70
     0
 10
0.0
 20
0.0
 30
0.0
  3
*Paper_Space0
  1

  0
ENDBLK
  5
25
330
23
100
AcDbEntity
  8
0
100
AcDbBlockEnd
  0
ENDSEC
  0
SECTION
  2
ENTITIES
  0
ARC
  5
66
330
1F
100
AcDbEntity
  8
0
  6
Continuous
 62
     7
370
    25
100
AcDbCircle
 10
164.9178974401
 20
632.1496718224
 30
0.0
 40
0.120000000000033
100
AcDbArc
 50
270.0
 51
0.0
  0
ARC
  5
67
330
1F
100
AcDbEntity
  8
0
  6
Continuous
 62
     7
370
    25
100
AcDbCircle
 10
174.6578974401
 20
632.1496718224
 30
0.0
 40
0.1200000000000045
100
AcDbArc
 50
180.0
 51
270.0
  0
LINE
  5
68
330
1F
100
AcDbEntity
  8
0
  6
Continuous
 62
     7
370
    25
100
AcDbLine
 10
174.5378974401
 20
632.1496718224
 30
0.0
 11
174.5378974401
 21
634.2796718224
 31
0.0
  0
LINE
  5
69
330
1F
100
AcDbEntity
  8
0
  6
Continuous
 62
     7
370
    25
100
AcDbLine
 10
165.0378974401
 20
634.2796718224
 30
0.0
 11
165.0378974401
 21
632.1496718224
 31
0.0
  0
ARC
  5
6A
330
1F
100
AcDbEntity
  8
0
  6
Continuous
 62
     7
370
    25
100
AcDbCircle
 10
169.7878974401
 20
634.2796718224
 30
0.0
 40
4.749999999999972
100
AcDbArc
 50
0.0
 51
180.0
  0
ARC
  5
6B
330
1F
100
AcDbEntity
  8
0
  6
Continuous
 62
     7
370
    25
100
AcDbCircle
 10
224.9178974401
 20
632.1496718224
 30
0.0
 40
0.1200000000000045
100
AcDbArc
 50
270.0
 51
0.0
  0
ARC
  5
6C
330
1F
100
AcDbEntity
  8
0
  6
Continuous
 62
     7
370
    25
100
AcDbCircle
 10
234.6578974401
 20
632.1496718224
 30
0.0
 40
0.1200000000000045
100
AcDbArc
 50
180.0
 51
270.0
  0
ARC
  5
6D
330
1F
100
AcDbEntity
  8
0
  6
Continuous
 62
     7
370
    25
100
AcDbCircle
 10
229.7878974401
 20
634.2796718224
 30
0.0
 40
4.75
100
AcDbArc
 50
0.0
 51
180.0
  0
LINE
  5
6E
330
1F
100
AcDbEntity
  8
0
  6
Continuous
 62
     7
370
    25
100
AcDbLine
 10
234.5378974401
 20
632.1496718224
 30
0.0
 11
234.5378974401
 21
634.2796718224
 31
0.0
  0
LINE
  5
6F
330
1F
100
AcDbEntity
  8
0
  6
Continuous
 62
     7
370
    25
100
AcDbLine
 10
225.0378974401
 20
634.2796718224
 30
0.0
 11
225.0378974401
 21
632.1496718224
 31
0.0
  0
ARC
  5
70
330
1F
100
AcDbEntity
  8
0
  6
Continuous
 62
     7
370
    25
100
AcDbCircle
 10
44.9178974401
 20
632.1496718224
 30
0.0
 40
0.1200000000000117
100
AcDbArc
 50
270.0
 51
0.0
  0
ARC
  5
71
330
1F
100
AcDbEntity
  8
0
  6
Continuous
 62
     7
370
    25
100
AcDbCircle
 10
54.6578974401
 20
632.1496718224
 30
0.0
 40
0.1200000000000117
100
AcDbArc
 50
180.0
 51
270.0
  0
LINE
  5
72
330
1F
100
AcDbEntity
  8
0
  6
Continuous
 62
     7
370
    25
100
AcDbLine
 10
54.5378974401
 20
632.1496718224
 30
0.0
 11
54.5378974401
 21
634.2796718224
 31
0.0
  0
LINE
  5
73
330
1F
100
AcDbEntity
  8
0
  6
Continuous
 62
     7
370
    25
100
AcDbLine
 10
45.0378974401
 20
634.2796718224
 30
0.0
 11
45.0378974401
 21
632.1496718224
 31
0.0
  0
ARC
  5
74
330
1F
100
AcDbEntity
  8
0
  6
Continuous
 62
     7
370
    25
100
AcDbCircle
 10
49.7878974401
 20
634.2796718224
 30
0.0
 40
4.749999999999979
100
AcDbArc
 50
0.0
 51
180.0
  0
ARC
  5
75
330
1F
100
AcDbEntity
  8
0
  6
Continuous
 62
     7
370
    25
100
AcDbCircle
 10
-15.0821025599
 20
632.1496718224
 30
0.0
 40
0.1200000000000045
100
AcDbArc
 50
270.0
 51
0.0
  0
ARC
  5
76
330
1F
100
AcDbEntity
  8
0
  6
Continuous
 62
     7
370
    25
100
AcDbCircle
 10
-5.3421025599
 20
632.1496718224
 30
0.0
 40
0.1200000000000045
100
AcDbArc
 50
180.0
 51
270.0
  0
LINE
  5
77
330
1F
100
AcDbEntity
  8
0
  6
Continuous
 62
     7
370
    25
100
AcDbLine
 10
-5.4621025599
 20
632.1496718224
 30
0.0
 11
-5.4621025599
 21
634.2796718224
 31
0.0
  0
LINE
  5
78
330
1F
100
AcDbEntity
  8
0
  6
Continuous
 62
     7
370
    25
100
AcDbLine
 10
-14.9621025599
 20
634.2796718224
 30
0.0
 11
-14.9621025599
 21
632.1496718224
 31
0.0
  0
ARC
  5
79
330
1F
100
AcDbEntity
  8
0
  6
Continuous
 62
     7
370
    25
100
AcDbCircle
 10
-10.2121025599
 20
634.2796718224
 30
0.0
 40
4.750000000000004
100
AcDbArc
 50
0.0
 51
180.0
  0
ARC
  5
7A
330
1F
100
AcDbEntity
  8
0
  6
Continuous
 62
     7
370
    25
100
AcDbCircle
 10
104.9178974401
 20
632.1496718224
 30
0.0
 40
0.1200000000000045
100
AcDbArc
 50
270.0
 51
0.0
  0
ARC
  5
7B
330
1F
100
AcDbEntity
  8
0
  6
Continuous
 62
     7
370
    25
100
AcDbCircle
 10
114.6578974401
 20
632.1496718224
 30
0.0
 40
0.1200000000000045
100
AcDbArc
 50
180.0
 51
270.0
  0
ARC
  5
7C
330
1F
100
AcDbEntity
  8
0
  6
Continuous
 62
     7
370
    25
100
AcDbCircle
 10
109.7878974401
 20
634.2796718224
 30
0.0
 40
4.749999999999986
100
AcDbArc
 50
0.0
 51
180.0
  0
LINE
  5
7D
330
1F
100
AcDbEntity
  8
0
  6
Continuous
 62
     7
370
    25
100
AcDbLine
 10
114.5378974401
 20
632.1496718224
 30
0.0
 11
114.5378974401
 21
634.2796718224
 31
0.0
  0
LINE
  5
7E
330
1F
100
AcDbEntity
  8
0
  6
Continuous
 62
     7
370
    25
100
AcDbLine
 10
105.0378974401
 20
634.2796718224
 30
0.0
 11
105.0378974401
 21
632.1496718224
 31
0.0
  0
ARC
  5
7F
330
1F
100
AcDbEntity
  8
0
  6
Continuous
 62
     7
370
    25
100
AcDbCircle
 10
-65.0821025599
 20
632.1496718224
 30
0.0
 40
0.1200000000000045
100
AcDbArc
 50
270.0
 51
0.0
  0
ARC
  5
80
330
1F
100
AcDbEntity
  8
0
  6
Continuous
 62
     7
370
    25
100
AcDbCircle
 10
-55.3421025599
 20
632.1496718224
 30
0.0
 40
0.1200000000000045
100
AcDbArc
 50
180.0
 51
270.0
  0
ARC
  5
81
330
1F
100
AcDbEntity
  8
0
  6
Continuous
 62
     7
370
    25
100
AcDbCircle
 10
-60.2121025599
 20
634.2796718224
 30
0.0
 40
4.750000000000007
100
AcDbArc
 50
0.0
 51
180.0
  0
LINE
  5
82
330
1F
100
AcDbEntity
  8
0
  6
Continuous
 62
     7
370
    25
100
AcDbLine
 10
-55.4621025599
 20
632.1496718224
 30
0.0
 11
-55.4621025599
 21
634.2796718224
 31
0.0
  0
LINE
  5
83
330
1F
100
AcDbEntity
  8
0
  6
Continuous
 62
     7
370
    25
100
AcDbLine
 10
-64.9621025599
 20
634.2796718224
 30
0.0
 11
-64.9621025599
 21
632.1496718224
 31
0.0
  0
ARC
  5
84
330
1F
100
AcDbEntity
  8
0
  6
Continuous
 62
     7
370
    25
100
AcDbCircle
 10
274.9178974401
 20
632.1496718224
 30
0.0
 40
0.1200000000000045
100
AcDbArc
 50
270.0
 51
0.0
  0
ARC
  5
85
330
1F
100
AcDbEntity
  8
0
  6
Continuous
 62
     7
370
    25
100
AcDbCircle
 10
284.6578974401
 20
632.1496718224
 30
0.0
 40
0.1200000000000045
100
AcDbArc
 50
180.0
 51
270.0
  0
ARC
  5
86
330
1F
100
AcDbEntity
  8
0
  6
Continuous
 62
     7
370
    25
100
AcDbCircle
 10
279.7878974401
 20
634.2796718224
 30
0.0
 40
4.750000000000057
100
AcDbArc
 50
0.0
 51
180.0
  0
LINE
  5
87
330
1F
100
AcDbEntity
  8
0
  6
Continuous
 62
     7
370
    25
100
AcDbLine
 10
284.5378974401
 20
632.1496718224
 30
0.0
 11
284.5378974401
 21
634.2796718224
 31
0.0
  0
LINE
  5
88
330
1F
100
AcDbEntity
  8
0
  6
Continuous
 62
     7
370
    25
100
AcDbLine
 10
275.0378974401
 20
634.2796718224
 30
0.0
 11
275.0378974401
 21
632.1496718224
 31
0.0
  0
ARC
  5
89
330
1F
100
AcDbEntity
  8
0
  6
Continuous
 62
     7
370
    25
100
AcDbCircle
 10
55.9378974401
 20
597.4796718224
 30
0.0
 40
0.9500000000000455
100
AcDbArc
 50
300.9040212823
 51
90.0
  0
ARC
  5
8A
330
1F
100
AcDbEntity
  8
0
  6
Continuous
 62
     7
370
    25
100
AcDbCircle
 10
43.6378974401
 20
597.4796718224
 30
0.0
 40
0.9500000000000455
100
AcDbArc
 50
90.0
 51
239.0959787177
  0
ARC
  5
8B
330
1F
100
AcDbEntity
  8
0
  6
Continuous
 62
     7
370
    25
100
AcDbCircle
 10
49.7878974401
 20
607.7539365283
 30
0.0
 40
12.92426470588242
100
AcDbArc
 50
239.0959787177
 51
300.9040212823
  0
ARC
  5
8C
330
1F
100
AcDbEntity
  8
0
  6
Continuous
 62
     7
370
    25
100
AcDbCircle
 10
175.9378974401
 20
597.4796718224
 30
0.0
 40
0.9500000000000455
100
AcDbArc
 50
300.9040212823
 51
90.0
  0
ARC
  5
8D
330
1F
100
AcDbEntity
  8
0
  6
Continuous
 62
     7
370
    25
100
AcDbCircle
 10
163.6378974401
 20
597.4796718224
 30
0.0
 40
0.9500000000000455
100
AcDbArc
 50
90.0
 51
239.0959787177
  0
ARC
  5
8E
330
1F
100
AcDbEntity
  8
0
  6
Continuous
 62
     7
370
    25
100
AcDbCircle
 10
169.7878974401
 20
607.7539365283
 30
0.0
 40
12.92426470588242
100
AcDbArc
 50
239.0959787177
 51
300.9040212823
  0
ARC
  5
8F
330
1F
100
AcDbEntity
  8
0
  6
Continuous
 62
     7
370
    25
100
AcDbCircle
 10
235.9378974401
 20
597.4796718224
 30
0.0
 40
0.9500000000000455
100
AcDbArc
 50
300.9040212823
 51
90.0
  0
ARC
  5
90
330
1F
100
AcDbEntity
  8
0
  6
Continuous
 62
     7
370
    25
100
AcDbCircle
 10
223.6378974401
 20
597.4796718224
 30
0.0
 40
0.9500000000000455
100
AcDbArc
 50
90.0
 51
239.0959787177
  0
ARC
  5
91
330
1F
100
AcDbEntity
  8
0
  6
Continuous
 62
     7
370
    25
100
AcDbCircle
 10
229.7878974401
 20
607.7539365283
 30
0.0
 40
12.92426470588242
100
AcDbArc
 50
239.0959787177
 51
300.9040212823
  0
ARC
  5
92
330
1F
100
AcDbEntity
  8
0
  6
Continuous
 62
     7
370
    25
100
AcDbCircle
 10
285.9378974401
 20
597.4796718224
 30
0.0
 40
0.9500000000000455
100
AcDbArc
 50
300.9040212823
 51
90.0
  0
ARC
  5
93
330
1F
100
AcDbEntity
  8
0
  6
Continuous
 62
     7
370
    25
100
AcDbCircle
 10
273.6378974401
 20
597.4796718224
 30
0.0
 40
0.9500000000000455
100
AcDbArc
 50
90.0
 51
239.0959787177
  0
ARC
  5
94
330
1F
100
AcDbEntity
  8
0
  6
Continuous
 62
     7
370
    25
100
AcDbCircle
 10
279.7878974401
 20
607.7539365283
 30
0.0
 40
12.92426470588239
100
AcDbArc
 50
239.0959787177
 51
300.9040212823
  0
ARC
  5
95
330
1F
100
AcDbEntity
  8
0
  6
Continuous
 62
     7
370
    25
100
AcDbCircle
 10
115.9378974401
 20
597.4796718224
 30
0.0
 40
0.9500000000000455
100
AcDbArc
 50
300.9040212823
 51
90.0
  0
ARC
  5
96
330
1F
100
AcDbEntity
  8
0
  6
Continuous
 62
     7
370
    25
100
AcDbCircle
 10
103.6378974401
 20
597.4796718224
 30
0.0
 40
0.9500000000000455
100
AcDbArc
 50
90.0
 51
239.0959787177
  0
ARC
  5
97
330
1F
100
AcDbEntity
  8
0
  6
Continuous
 62
     7
370
    25
100
AcDbCircle
 10
109.7878974401
 20
607.7539365283
 30
0.0
 40
12.92426470588242
100
AcDbArc
 50
239.0959787177
 51
300.9040212823
  0
ARC
  5
98
330
1F
100
AcDbEntity
  8
0
  6
Continuous
 62
     7
370
    25
100
AcDbCircle
 10
-4.0621025599
 20
597.4796718224
 30
0.0
 40
0.9500000000000455
100
AcDbArc
 50
300.9040212823
 51
90.0
  0
ARC
  5
99
330
1F
100
AcDbEntity
  8
0
  6
Continuous
 62
     7
370
    25
100
AcDbCircle
 10
-16.3621025599
 20
597.4796718224
 30
0.0
 40
0.9500000000000455
100
AcDbArc
 50
90.0
 51
239.0959787177
  0
ARC
  5
9A
330
1F
100
AcDbEntity
  8
0
  6
Continuous
 62
     7
370
    25
100
AcDbCircle
 10
-10.2121025599
 20
607.7539365283
 30
0.0
 40
12.92426470588242
100
AcDbArc
 50
239.0959787177
 51
300.9040212823
  0
ARC
  5
9B
330
1F
100
AcDbEntity
  8
0
  6
Continuous
 62
     7
370
    25
100
AcDbCircle
 10
-54.0621025599
 20
597.4796718224
 30
0.0
 40
0.9500000000000455
100
AcDbArc
 50
300.9040212823
 51
90.0
  0
ARC
  5
9C
330
1F
100
AcDbEntity
  8
0
  6
Continuous
 62
     7
370
    25
100
AcDbCircle
 10
-66.3621025599
 20
597.4796718224
 30
0.0
 40
0.9500000000000455
100
AcDbArc
 50
90.0
 51
239.0959787177
  0
ARC
  5
9D
330
1F
100
AcDbEntity
  8
0
  6
Continuous
 62
     7
370
    25
100
AcDbCircle
 10
-60.2121025599
 20
607.7539365283
 30
0.0
 40
12.92426470588242
100
AcDbArc
 50
239.0959787177
 51
300.9040212823
  0
LWPOLYLINE
  5
9E
330
1F
100
AcDbEntity
  8
0
  6
Continuous
 62
     7
370
    25
100
AcDbPolyline
 90
        3
 70
   128
 43
0.0
 10
49.6422004462
 20
585.9296718224
 10
50.7112237503
 20
587.1136071411
 10
51.3404398681
 20
587.9349333124
  0
ARC
  5
9F
330
1F
100
AcDbEntity
  8
0
  6
Continuous
 62
     7
370
    25
100
AcDbCircle
 10
208.0970414218
 20
597.4296718224
 30
0.0
 40
16.29605263157899
100
AcDbArc
 50
315.1144932694
 51
355.09758485
  0
LWPOLYLINE
  5
A0
330
1F
100
AcDbEntity
  8
0
  6
Continuous
 62
     7
370
    25
100
AcDbPolyline
 90
        3
 70
   128
 43
0.0
 10
-18.3560822142
 20
585.9296718224
 10
-17.2870589102
 20
587.1136071411
 10
-16.6587138796
 20
587.933718343
  0
LINE
  5
A1
330
1F
100
AcDbEntity
  8
0
  6
Continuous
 62
     7
370
    25
100
AcDbLine
 10
-24.7121025599
 20
597.4296718224
 30
0.0
 11
-24.7121025599
 21
598.4296718224
 31
0.0
  0
ARC
  5
A2
330
1F
100
AcDbEntity
  8
0
  6
Continuous
 62
     7
370
    25
100
AcDbCircle
 10
-41.0081551915
 20
597.4296718224
 30
0.0
 40
16.29605263157902
100
AcDbArc
 50
315.1144932694
 51
0.0
  0
ARC
  5
A3
330
1F
100
AcDbEntity
  8
0
  6
Continuous
 62
     7
370
    25
100
AcDbCircle
 10
-39.4160499283
 20
597.4296718224
 30
0.0
 40
16.29605263157896
100
AcDbArc
 50
186.1846967612
 51
224.8855067306
  0
ARC
  5
A4
330
1F
100
AcDbEntity
  8
0
  6
Continuous
 62
     7
370
    25
100
AcDbCircle
 10
18.9918448085
 20
597.4296718224
 30
0.0
 40
16.29605263157901
100
AcDbArc
 50
315.1144932694
 51
0.0
  0
ARC
  5
A5
330
1F
100
AcDbEntity
  8
0
  6
Continuous
 62
     7
370
    25
100
AcDbCircle
 10
20.5839500717
 20
597.4296718224
 30
0.0
 40
16.29605263157902
100
AcDbArc
 50
180.0
 51
224.8855067306
  0
LINE
  5
A6
330
1F
100
AcDbEntity
  8
0
  6
Continuous
 62
     7
370
    25
100
AcDbLine
 10
4.2878974401
 20
598.4296718224
 30
0.0
 11
4.2878974401
 21
597.4296718224
 31
0.0
  0
LINE
  5
A7
330
1F
100
AcDbEntity
  8
0
  6
Continuous
 62
     7
370
    25
100
AcDbLine
 10
35.2878974401
 20
597.4296718224
 30
0.0
 11
35.2878974401
 21
598.4296718224
 31
0.0
  0
LWPOLYLINE
  5
A8
330
1F
100
AcDbEntity
  8
0
  6
Continuous
 62
     7
370
    25
100
AcDbPolyline
 90
        3
 70
   128
 43
0.0
 10
117.6422252812
 20
585.9296718224
 10
118.7112485852
 20
587.1136071411
 10
119.3404647031
 20
587.9349333124
  0
LWPOLYLINE
  5
A9
330
1F
100
AcDbEntity
  8
0
  6
Continuous
 62
     7
370
    25
100
AcDbPolyline
 90
        3
 70
   128
 43
0.0
 10
185.6422501161
 20
585.9296718224
 10
186.7112734202
 20
587.1136071411
 10
187.3400737781
 20
587.9343533922
  0
ARC
  5
AA
330
1F
100
AcDbEntity
  8
0
  6
Continuous
 62
     7
370
    25
100
AcDbCircle
 10
78.9918448085
 20
597.4296718224
 30
0.0
 40
16.29605263157902
100
AcDbArc
 50
315.1144932694
 51
0.0
  0
ARC
  5
AB
330
1F
100
AcDbEntity
  8
0
  6
Continuous
 62
     7
370
    25
100
AcDbCircle
 10
80.5839500717
 20
597.4296718224
 30
0.0
 40
16.29605263157902
100
AcDbArc
 50
180.0
 51
224.8855067306
  0
LINE
  5
AC
330
1F
100
AcDbEntity
  8
0
  6
Continuous
 62
     7
370
    25
100
AcDbLine
 10
64.2878974401
 20
598.4296718224
 30
0.0
 11
64.2878974401
 21
597.4296718224
 31
0.0
  0
LINE
  5
AD
330
1F
100
AcDbEntity
  8
0
  6
Continuous
 62
     7
370
    25
100
AcDbLine
 10
95.2878974401
 20
597.4296718224
 30
0.0
 11
95.2878974401
 21
598.4296718224
 31
0.0
  0
LINE
  5
AE
330
1F
100
AcDbEntity
  8
0
  6
Continuous
 62
     7
370
    25
100
AcDbLine
 10
-21.560997697
 20
597.4296718224
 30
0.0
 11
-21.560997697
 21
598.4296718224
 31
0.0
  0
ARC
  5
AF
330
1F
100
AcDbEntity
  8
0
  6
Continuous
 62
     7
370
    25
100
AcDbCircle
 10
-37.8570503286
 20
597.4296718224
 30
0.0
 40
16.29605263157902
100
AcDbArc
 50
315.1144932694
 51
0.0
  0
LINE
  5
B0
330
1F
100
AcDbEntity
  8
0
  6
Continuous
 62
     7
370
    25
100
AcDbLine
 10
184.2878974401
 20
598.4296718224
 30
0.0
 11
184.2878974401
 21
597.4296718224
 31
0.0
  0
LINE
  5
B1
330
1F
100
AcDbEntity
  8
0
  6
Continuous
 62
     7
370
    25
100
AcDbLine
 10
215.2878974401
 20
597.4296718224
 30
0.0
 11
215.2878974401
 21
598.4296718224
 31
0.0
  0
ARC
  5
B2
330
1F
100
AcDbEntity
  8
0
  6
Continuous
 62
     7
370
    25
100
AcDbCircle
 10
198.9918448085
 20
597.4296718224
 30
0.0
 40
16.29605263157902
100
AcDbArc
 50
315.1144932694
 51
0.0
  0
ARC
  5
B3
330
1F
100
AcDbEntity
  8
0
  6
Continuous
 62
     7
370
    25
100
AcDbCircle
 10
200.5839500717
 20
597.4296718224
 30
0.0
 40
16.29605263157902
100
AcDbArc
 50
180.0
 51
224.8855067306
  0
ARC
  5
B4
330
1F
100
AcDbEntity
  8
0
  6
Continuous
 62
     7
370
    25
100
AcDbCircle
 10
138.9918448085
 20
597.4296718224
 30
0.0
 40
16.29605263157902
100
AcDbArc
 50
315.1144932694
 51
0.0
  0
ARC
  5
B5
330
1F
100
AcDbEntity
  8
0
  6
Continuous
 62
     7
370
    25
100
AcDbCircle
 10
140.5839500717
 20
597.4296718224
 30
0.0
 40
16.29605263157899
100
AcDbArc
 50
180.0
 51
224.8855067306
  0
LINE
  5
B6
330
1F
100
AcDbEntity
  8
0
  6
Continuous
 62
     7
370
    25
100
AcDbLine
 10
124.2878974401
 20
598.4296718224
 30
0.0
 11
124.2878974401
 21
597.4296718224
 31
0.0
  0
LINE
  5
B7
330
1F
100
AcDbEntity
  8
0
  6
Continuous
 62
     7
370
    25
100
AcDbLine
 10
155.2878974401
 20
597.4296718224
 30
0.0
 11
155.2878974401
 21
598.4296718224
 31
0.0
  0
LWPOLYLINE
  5
B8
330
1F
100
AcDbEntity
  8
0
  6
Continuous
 62
     7
370
    25
100
AcDbPolyline
 90
        3
 70
   128
 43
0.0
 10
6.538654455
 20
585.9296718224
 10
7.6076777591
 20
587.1136071411
 10
7.7882759476
 20
587.3384848219
  0
ARC
  5
B9
330
1F
100
AcDbEntity
  8
0
  6
Continuous
 62
     7
370
    25
100
AcDbCircle
 10
-3.4152929134
 20
597.4296718224
 30
0.0
 40
16.29605263157902
100
AcDbArc
 50
180.0
 51
224.8855067306
  0
LINE
  5
BA
330
1F
100
AcDbEntity
  8
0
  6
Continuous
 62
     7
370
    25
100
AcDbLine
 10
-19.711345545
 20
598.4296718224
 30
0.0
 11
-19.711345545
 21
597.4296718224
 31
0.0
  0
LINE
  5
BB
330
1F
100
AcDbEntity
  8
0
  6
Continuous
 62
     7
370
    25
100
AcDbLine
 10
181.2895480622
 20
597.4296718224
 30
0.0
 11
181.2895480622
 21
598.4296718224
 31
0.0
  0
ARC
  5
BC
330
1F
100
AcDbEntity
  8
0
  6
Continuous
 62
     7
370
    25
100
AcDbCircle
 10
164.9934954306
 20
597.4296718224
 30
0.0
 40
16.29605263157902
100
AcDbArc
 50
315.1144932694
 51
0.0
  0
ARC
  5
BD
330
1F
100
AcDbEntity
  8
0
  6
Continuous
 62
     7
370
    25
100
AcDbCircle
 10
166.5856006938
 20
597.4296718224
 30
0.0
 40
16.29605263157903
100
AcDbArc
 50
212.1520032741
 51
224.8855067306
  0
LINE
  5
BE
330
1F
100
AcDbEntity
  8
0
  6
Continuous
 62
     7
370
    25
100
AcDbLine
 10
116.2887041249
 20
598.4296718224
 30
0.0
 11
116.2887041249
 21
598.3625277959
 31
0.0
  0
ARC
  5
BF
330
1F
100
AcDbEntity
  8
0
  6
Continuous
 62
     7
370
    25
100
AcDbCircle
 10
132.5847567565
 20
597.4296718224
 30
0.0
 40
16.29605263157894
100
AcDbArc
 50
183.5181403001
 51
224.8855067306
  0
LWPOLYLINE
  5
C0
330
1F
100
AcDbEntity
  8
0
  6
Continuous
 62
     7
370
    25
100
AcDbPolyline
 90
        3
 70
   128
 43
0.0
 10
151.6414061789
 20
585.9296718224
 10
152.7104294829
 20
587.1136071411
 10
153.3404771205
 20
587.9360933137
  0
ARC
  5
C1
330
1F
100
AcDbEntity
  8
0
  6
Continuous
 62
     7
370
    25
100
AcDbCircle
 10
64.5847319216
 20
597.4296718224
 30
0.0
 40
16.29605263157896
100
AcDbArc
 50
188.9469403266
 51
224.8855067306
  0
ARC
  5
C2
330
1F
100
AcDbEntity
  8
0
  6
Continuous
 62
     7
370
    25
100
AcDbCircle
 10
96.9918075561
 20
597.4296718224
 30
0.0
 40
16.29605263157898
100
AcDbArc
 50
315.1144932694
 51
352.3955815669
  0
ARC
  5
C3
330
1F
100
AcDbEntity
  8
0
  6
Continuous
 62
     7
370
    25
100
AcDbCircle
 10
28.9934457607
 20
597.4296718224
 30
0.0
 40
16.29605263157898
100
AcDbArc
 50
315.1144932694
 51
353.8132353013
  0
ARC
  5
C4
330
1F
100
AcDbEntity
  8
0
  6
Continuous
 62
     7
370
    25
100
AcDbCircle
 10
189.6378974401
 20
585.3445218035
 30
0.0
 40
0.6000000000000703
100
AcDbArc
 50
180.0
 51
249.724946748
  0
ARC
  5
C5
330
1F
100
AcDbEntity
  8
0
  6
Continuous
 62
     7
370
    25
100
AcDbCircle
 10
209.9378974401
 20
585.3445218035
 30
0.0
 40
0.60000000000008
100
AcDbArc
 50
290.2750532521
 51
0.0
  0
LINE
  5
C6
330
1F
100
AcDbEntity
  8
0
  6
Continuous
 62
     7
370
    25
100
AcDbLine
 10
189.0378974401
 20
585.9296718224
 30
0.0
 11
189.0378974401
 21
585.3445218035
 31
0.0
  0
LINE
  5
C7
330
1F
100
AcDbEntity
  8
0
  6
Continuous
 62
     7
370
    25
100
AcDbLine
 10
210.5378974401
 20
585.3445218035
 30
0.0
 11
210.5378974401
 21
585.9296718224
 31
0.0
  0
ARC
  5
C8
330
1F
100
AcDbEntity
  8
0
  6
Continuous
 62
     7
370
    25
100
AcDbCircle
 10
199.7878974401
 20
612.8202968224
 30
0.0
 40
29.89062499999999
100
AcDbArc
 50
249.724946748
 51
290.275053252
  0
LINE
  5
C9
330
1F
100
AcDbEntity
  8
0
  6
Continuous
 62
     7
370
    25
100
AcDbLine
 10
-18.3560822142
 20
585.3445218035
 30
0.0
 11
-18.3560822142
 21
585.9296718224
 31
0.0
  0
ARC
  5
CA
330
1F
100
AcDbEntity
  8
0
  6
Continuous
 62
     7
370
    25
100
AcDbCircle
 10
-18.9560822142
 20
585.3445218035
 30
0.0
 40
0.600000000000085
100
AcDbArc
 50
290.2750532521
 51
0.0
  0
ARC
  5
CB
330
1F
100
AcDbEntity
  8
0
  6
Continuous
 62
     7
370
    25
100
AcDbCircle
 10
-29.1060822142
 20
612.8202968224
 30
0.0
 40
29.89062499999999
100
AcDbArc
 50
262.3531375545
 51
290.275053252
  0
ARC
  5
CC
330
1F
100
AcDbEntity
  8
0
  6
Continuous
 62
     7
370
    25
100
AcDbCircle
 10
117.0422252812
 20
585.3445218035
 30
0.0
 40
0.6000000000000751
100
AcDbArc
 50
290.2750532521
 51
0.0
  0
LINE
  5
CD
330
1F
100
AcDbEntity
  8
0
  6
Continuous
 62
     7
370
    25
100
AcDbLine
 10
117.6422252812
 20
585.3445218035
 30
0.0
 11
117.6422252812
 21
585.9296718224
 31
0.0
  0
ARC
  5
CE
330
1F
100
AcDbEntity
  8
0
  6
Continuous
 62
     7
370
    25
100
AcDbCircle
 10
106.8922252812
 20
612.8202968224
 30
0.0
 40
29.89062500000001
100
AcDbArc
 50
261.2400710927
 51
290.275053252
  0
ARC
  5
CF
330
1F
100
AcDbEntity
  8
0
  6
Continuous
 62
     7
370
    25
100
AcDbCircle
 10
-26.910997697
 20
585.3445218035
 30
0.0
 40
0.600000000000085
100
AcDbArc
 50
290.2750532521
 51
0.0
  0
LINE
  5
D0
330
1F
100
AcDbEntity
  8
0
  6
Continuous
 62
     7
370
    25
100
AcDbLine
 10
-26.310997697
 20
585.3445218035
 30
0.0
 11
-26.310997697
 21
585.9296718224
 31
0.0
  0
ARC
  5
D1
330
1F
100
AcDbEntity
  8
0
  6
Continuous
 62
     7
370
    25
100
AcDbCircle
 10
-37.060997697
 20
612.8202968224
 30
0.0
 40
29.89062499999999
100
AcDbArc
 50
266.9785054895
 51
290.275053252
  0
ARC
  5
D2
330
1F
100
AcDbEntity
  8
0
  6
Continuous
 62
     7
370
    25
100
AcDbCircle
 10
-14.361345545
 20
585.3445218035
 30
0.0
 40
0.6000000000000862
100
AcDbArc
 50
180.0
 51
249.7249467479
  0
ARC
  5
D3
330
1F
100
AcDbEntity
  8
0
  6
Continuous
 62
     7
370
    25
100
AcDbCircle
 10
5.938654455
 20
585.3445218035
 30
0.0
 40
0.6000000000000764
100
AcDbArc
 50
290.2750532521
 51
0.0
  0
LINE
  5
D4
330
1F
100
AcDbEntity
  8
0
  6
Continuous
 62
     7
370
    25
100
AcDbLine
 10
-14.961345545
 20
585.9296718224
 30
0.0
 11
-14.961345545
 21
585.3445218035
 31
0.0
  0
LINE
  5
D5
330
1F
100
AcDbEntity
  8
0
  6
Continuous
 62
     7
370
    25
100
AcDbLine
 10
6.538654455
 20
585.3445218035
 30
0.0
 11
6.538654455
 21
585.9296718224
 31
0.0
  0
ARC
  5
D6
330
1F
100
AcDbEntity
  8
0
  6
Continuous
 62
     7
370
    25
100
AcDbCircle
 10
-4.211345545
 20
612.8202968224
 30
0.0
 40
29.890625
100
AcDbArc
 50
249.724946748
 51
290.275053252
  0
ARC
  5
D7
330
1F
100
AcDbEntity
  8
0
  6
Continuous
 62
     7
370
    25
100
AcDbCircle
 10
155.6395480622
 20
585.3445218035
 30
0.0
 40
0.60000000000008
100
AcDbArc
 50
180.0
 51
249.7249467479
  0
ARC
  5
D8
330
1F
100
AcDbEntity
  8
0
  6
Continuous
 62
     7
370
    25
100
AcDbCircle
 10
175.9395480622
 20
585.3445218035
 30
0.0
 40
0.6000000000000703
100
AcDbArc
 50
290.2750532521
 51
0.0
  0
LINE
  5
D9
330
1F
100
AcDbEntity
  8
0
  6
Continuous
 62
     7
370
    25
100
AcDbLine
 10
155.0395480622
 20
585.9296718224
 30
0.0
 11
155.0395480622
 21
585.3445218035
 31
0.0
  0
LINE
  5
DA
330
1F
100
AcDbEntity
  8
0
  6
Continuous
 62
     7
370
    25
100
AcDbLine
 10
176.5395480622
 20
585.3445218035
 30
0.0
 11
176.5395480622
 21
585.9296718224
 31
0.0
  0
ARC
  5
DB
330
1F
100
AcDbEntity
  8
0
  6
Continuous
 62
     7
370
    25
100
AcDbCircle
 10
165.7895480622
 20
612.8202968224
 30
0.0
 40
29.89062499999999
100
AcDbArc
 50
249.724946748
 51
290.275053252
  0
LINE
  5
DC
330
1F
100
AcDbEntity
  8
0
  6
Continuous
 62
     7
370
    25
100
AcDbLine
 10
121.0387041249
 20
585.9296718224
 30
0.0
 11
121.0387041249
 21
585.3445218035
 31
0.0
  0
ARC
  5
DD
330
1F
100
AcDbEntity
  8
0
  6
Continuous
 62
     7
370
    25
100
AcDbCircle
 10
121.6387041249
 20
585.3445218035
 30
0.0
 40
0.60000000000008
100
AcDbArc
 50
180.0
 51
249.7249467479
  0
ARC
  5
DE
330
1F
100
AcDbEntity
  8
0
  6
Continuous
 62
     7
370
    25
100
AcDbCircle
 10
131.7887041249
 20
612.8202968224
 30
0.0
 40
29.89062499999997
100
AcDbArc
 50
249.724946748
 51
277.6896823075
  0
LINE
  5
DF
330
1F
100
AcDbEntity
  8
0
  6
Continuous
 62
     7
370
    25
100
AcDbLine
 10
53.03867929
 20
585.9296718224
 30
0.0
 11
53.03867929
 21
585.3445218035
 31
0.0
  0
ARC
  5
E0
330
1F
100
AcDbEntity
  8
0
  6
Continuous
 62
     7
370
    25
100
AcDbCircle
 10
53.63867929
 20
585.3445218035
 30
0.0
 40
0.6000000000000751
100
AcDbArc
 50
180.0
 51
249.7249467479
  0
ARC
  5
E1
330
1F
100
AcDbEntity
  8
0
  6
Continuous
 62
     7
370
    25
100
AcDbCircle
 10
63.78867929
 20
612.8202968224
 30
0.0
 40
29.89062499999997
100
AcDbArc
 50
249.724946748
 51
285.5232489982
  0
ARC
  5
E2
330
1F
100
AcDbEntity
  8
0
  6
Continuous
 62
     7
370
    25
100
AcDbCircle
 10
4.891356509
 20
612.8202968224
 30
0.0
 40
29.8906249999999
100
AcDbArc
 50
261.2416837981
 51
284.4292406024
  0
LINE
  5
E3
330
1F
100
AcDbEntity
  8
0
  6
Continuous
 62
     7
370
    25
100
AcDbLine
 10
108.5378601877
 20
585.3445218035
 30
0.0
 11
108.5378601877
 21
585.9296718224
 31
0.0
  0
ARC
  5
E4
330
1F
100
AcDbEntity
  8
0
  6
Continuous
 62
     7
370
    25
100
AcDbCircle
 10
107.9378601877
 20
585.3445218035
 30
0.0
 40
0.6000000000000751
100
AcDbArc
 50
290.2750532521
 51
0.0
  0
ARC
  5
E5
330
1F
100
AcDbEntity
  8
0
  6
Continuous
 62
     7
370
    25
100
AcDbCircle
 10
97.7878601877
 20
612.8202968224
 30
0.0
 40
29.89062499999999
100
AcDbArc
 50
252.4764888482
 51
290.275053252
  0
ARC
  5
E6
330
1F
100
AcDbEntity
  8
0
  6
Continuous
 62
     7
370
    25
100
AcDbCircle
 10
39.9394983923
 20
585.3445218035
 30
0.0
 40
0.6000000000000751
100
AcDbArc
 50
290.2750532521
 51
0.0
  0
LINE
  5
E7
330
1F
100
AcDbEntity
  8
0
  6
Continuous
 62
     7
370
    25
100
AcDbLine
 10
40.5394983923
 20
585.3445218035
 30
0.0
 11
40.5394983923
 21
585.9296718224
 31
0.0
  0
ARC
  5
E8
330
1F
100
AcDbEntity
  8
0
  6
Continuous
 62
     7
370
    25
100
AcDbCircle
 10
29.7894983923
 20
612.8202968224
 30
0.0
 40
29.89062499999999
100
AcDbArc
 50
260.3689353932
 51
290.275053252
  0
LWPOLYLINE
  5
E9
330
1F
100
AcDbEntity
  8
0
  6
Continuous
 62
     7
370
    25
100
AcDbPolyline
 90
        3
 70
   128
 43
0.0
 10
-40.3112291542
 20
582.9298389593
 10
-40.2112710401
 20
582.9296718224
 10
-38.6361343686
 20
582.9712029106
  0
LINE
  5
EA
330
1F
100
AcDbEntity
  8
0
  6
Continuous
 62
     7
370
    25
100
AcDbLine
 10
49.6422004462
 20
585.3445218035
 30
0.0
 11
49.6422004462
 21
585.9296718224
 31
0.0
  0
ARC
  5
EB
330
1F
100
AcDbEntity
  8
0
  6
Continuous
 62
     7
370
    25
100
AcDbCircle
 10
49.0422004462
 20
585.3445218035
 30
0.0
 40
0.6000000000000776
100
AcDbArc
 50
290.2750532521
 51
0.0
  0
ARC
  5
EC
330
1F
100
AcDbEntity
  8
0
  6
Continuous
 62
     7
370
    25
100
AcDbCircle
 10
38.8922004462
 20
612.8202968224
 30
0.0
 40
29.89062499999999
100
AcDbArc
 50
261.2416837981
 51
290.275053252
  0
ARC
  5
ED
330
1F
100
AcDbEntity
  8
0
  6
Continuous
 62
     7
370
    25
100
AcDbCircle
 10
72.8930443835
 20
612.8202968224
 30
0.0
 40
29.89062499999996
100
AcDbArc
 50
261.2400710927
 51
276.6229309059
  0
ARC
  5
EE
330
1F
100
AcDbEntity
  8
0
  6
Continuous
 62
     7
370
    25
100
AcDbCircle
 10
151.0414061789
 20
585.3445218035
 30
0.0
 40
0.60000000000008
100
AcDbArc
 50
290.2750532521
 51
0.0
  0
LINE
  5
EF
330
1F
100
AcDbEntity
  8
0
  6
Continuous
 62
     7
370
    25
100
AcDbLine
 10
151.6414061789
 20
585.3445218035
 30
0.0
 11
151.6414061789
 21
585.9296718224
 31
0.0
  0
ARC
  5
F0
330
1F
100
AcDbEntity
  8
0
  6
Continuous
 62
     7
370
    25
100
AcDbCircle
 10
140.8914061789
 20
612.8202968224
 30
0.0
 40
29.89062500000003
100
AcDbArc
 50
268.9423107659
 51
290.275053252
  0
LINE
  5
F1
330
1F
100
AcDbEntity
  8
0
  6
Continuous
 62
     7
370
    25
100
AcDbLine
 10
185.6422501161
 20
585.3445218035
 30
0.0
 11
185.6422501161
 21
585.9296718224
 31
0.0
  0
ARC
  5
F2
330
1F
100
AcDbEntity
  8
0
  6
Continuous
 62
     7
370
    25
100
AcDbCircle
 10
185.0422501161
 20
585.3445218035
 30
0.0
 40
0.6000000000000703
100
AcDbArc
 50
290.2750532521
 51
0.0
  0
ARC
  5
F3
330
1F
100
AcDbEntity
  8
0
  6
Continuous
 62
     7
370
    25
100
AcDbCircle
 10
174.8922501161
 20
612.8202968224
 30
0.0
 40
29.890625
100
AcDbArc
 50
261.2416837981
 51
290.275053252
  0
ARC
  5
F4
330
1F
100
AcDbEntity
  8
0
  6
Continuous
 62
     7
370
    25
100
AcDbCircle
 10
219.0430940534
 20
585.3445218035
 30
0.0
 40
0.6000000000000703
100
AcDbArc
 50
290.2750532521
 51
0.0
  0
LINE
  5
F5
330
1F
100
AcDbEntity
  8
0
  6
Continuous
 62
     7
370
    25
100
AcDbLine
 10
219.6430940534
 20
585.3445218035
 30
0.0
 11
219.6430940534
 21
585.9296718224
 31
0.0
  0
ARC
  5
F6
330
1F
100
AcDbEntity
  8
0
  6
Continuous
 62
     7
370
    25
100
AcDbCircle
 10
208.8930940534
 20
612.8202968224
 30
0.0
 40
29.89062499999999
100
AcDbArc
 50
261.2392647374
 51
290.275053252
  0
LINE
  5
F7
330
1F
100
AcDbEntity
  8
0
  6
Continuous
 62
     7
370
    25
100
AcDbLine
 10
69.0378974401
 20
585.9296718224
 30
0.0
 11
69.0378974401
 21
585.3445218035
 31
0.0
  0
LINE
  5
F8
330
1F
100
AcDbEntity
  8
0
  6
Continuous
 62
     7
370
    25
100
AcDbLine
 10
90.5378974401
 20
585.3445218035
 30
0.0
 11
90.5378974401
 21
585.9296718224
 31
0.0
  0
ARC
  5
F9
330
1F
100
AcDbEntity
  8
0
  6
Continuous
 62
     7
370
    25
100
AcDbCircle
 10
69.6378974401
 20
585.3445218035
 30
0.0
 40
0.6000000000000751
100
AcDbArc
 50
180.0
 51
249.7249467479
  0
ARC
  5
FA
330
1F
100
AcDbEntity
  8
0
  6
Continuous
 62
     7
370
    25
100
AcDbCircle
 10
89.9378974401
 20
585.3445218035
 30
0.0
 40
0.6000000000000751
100
AcDbArc
 50
290.2750532521
 51
0.0
  0
ARC
  5
FB
330
1F
100
AcDbEntity
  8
0
  6
Continuous
 62
     7
370
    25
100
AcDbCircle
 10
79.7878974401
 20
612.8202968224
 30
0.0
 40
29.89062499999999
100
AcDbArc
 50
249.724946748
 51
290.275053252
  0
ARC
  5
FC
330
1F
100
AcDbEntity
  8
0
  6
Continuous
 62
     7
370
    25
100
AcDbCircle
 10
-50.3621025599
 20
585.3445218035
 30
0.0
 40
0.6000000000000875
100
AcDbArc
 50
180.0
 51
249.7249467479
  0
ARC
  5
FD
330
1F
100
AcDbEntity
  8
0
  6
Continuous
 62
     7
370
    25
100
AcDbCircle
 10
-30.0621025599
 20
585.3445218035
 30
0.0
 40
0.6000000000000862
100
AcDbArc
 50
290.2750532521
 51
0.0
  0
LINE
  5
FE
330
1F
100
AcDbEntity
  8
0
  6
Continuous
 62
     7
370
    25
100
AcDbLine
 10
-50.9621025599
 20
585.9296718224
 30
0.0
 11
-50.9621025599
 21
585.3445218035
 31
0.0
  0
LINE
  5
FF
330
1F
100
AcDbEntity
  8
0
  6
Continuous
 62
     7
370
    25
100
AcDbLine
 10
-29.4621025599
 20
585.3445218035
 30
0.0
 11
-29.4621025599
 21
585.9296718224
 31
0.0
  0
ARC
  5
100
330
1F
100
AcDbEntity
  8
0
  6
Continuous
 62
     7
370
    25
100
AcDbCircle
 10
-40.2121025599
 20
612.8202968224
 30
0.0
 40
29.89062499999999
100
AcDbArc
 50
249.724946748
 51
290.275053252
  0
ARC
  5
101
330
1F
100
AcDbEntity
  8
0
  6
Continuous
 62
     7
370
    25
100
AcDbCircle
 10
9.6378974401
 20
585.3445218035
 30
0.0
 40
0.6000000000000764
100
AcDbArc
 50
180.0
 51
249.7249467479
  0
ARC
  5
102
330
1F
100
AcDbEntity
  8
0
  6
Continuous
 62
     7
370
    25
100
AcDbCircle
 10
29.9378974401
 20
585.3445218035
 30
0.0
 40
0.6000000000000764
100
AcDbArc
 50
290.2750532521
 51
0.0
  0
LINE
  5
103
330
1F
100
AcDbEntity
  8
0
  6
Continuous
 62
     7
370
    25
100
AcDbLine
 10
9.0378974401
 20
585.9296718224
 30
0.0
 11
9.0378974401
 21
585.3445218035
 31
0.0
  0
LINE
  5
104
330
1F
100
AcDbEntity
  8
0
  6
Continuous
 62
     7
370
    25
100
AcDbLine
 10
30.5378974401
 20
585.3445218035
 30
0.0
 11
30.5378974401
 21
585.9296718224
 31
0.0
  0
ARC
  5
105
330
1F
100
AcDbEntity
  8
0
  6
Continuous
 62
     7
370
    25
100
AcDbCircle
 10
19.7878974401
 20
612.8202968224
 30
0.0
 40
29.89062499999999
100
AcDbArc
 50
249.724946748
 51
290.275053252
  0
ARC
  5
106
330
1F
100
AcDbEntity
  8
0
  6
Continuous
 62
     7
370
    25
100
AcDbCircle
 10
129.6378974401
 20
585.3445218035
 30
0.0
 40
0.6000000000000703
100
AcDbArc
 50
180.0
 51
249.724946748
  0
ARC
  5
107
330
1F
100
AcDbEntity
  8
0
  6
Continuous
 62
     7
370
    25
100
AcDbCircle
 10
149.9378974401
 20
585.3445218035
 30
0.0
 40
0.60000000000008
100
AcDbArc
 50
290.2750532521
 51
0.0
  0
LINE
  5
108
330
1F
100
AcDbEntity
  8
0
  6
Continuous
 62
     7
370
    25
100
AcDbLine
 10
129.0378974401
 20
585.9296718224
 30
0.0
 11
129.0378974401
 21
585.3445218035
 31
0.0
  0
LINE
  5
109
330
1F
100
AcDbEntity
  8
0
  6
Continuous
 62
     7
370
    25
100
AcDbLine
 10
150.5378974401
 20
585.3445218035
 30
0.0
 11
150.5378974401
 21
585.9296718224
 31
0.0
  0
ARC
  5
10A
330
1F
100
AcDbEntity
  8
0
  6
Continuous
 62
     7
370
    25
100
AcDbCircle
 10
139.7878974401
 20
612.8202968224
 30
0.0
 40
29.89062499999999
100
AcDbArc
 50
249.724946748
 51
290.275053252
  0
LINE
  5
10B
330
1F
100
AcDbEntity
  8
0
  6
Continuous
 62
     7
370
    25
100
AcDbLine
 10
43.7878974401
 20
627.0296718224
 30
0.0
 11
43.7878974401
 21
625.4296718224
 31
0.0
  0
LINE
  5
10C
330
1F
100
AcDbEntity
  8
0
  6
Continuous
 62
     7
370
    25
100
AcDbLine
 10
55.7878974401
 20
625.4296718224
 30
0.0
 11
55.7878974401
 21
627.0296718224
 31
0.0
  0
LINE
  5
10D
330
1F
100
AcDbEntity
  8
0
  6
Continuous
 62
     7
370
    25
100
AcDbLine
 10
223.7878974401
 20
627.0296718224
 30
0.0
 11
223.7878974401
 21
625.4296718224
 31
0.0
  0
LINE
  5
10E
330
1F
100
AcDbEntity
  8
0
  6
Continuous
 62
     7
370
    25
100
AcDbLine
 10
235.7878974401
 20
625.4296718224
 30
0.0
 11
235.7878974401
 21
627.0296718224
 31
0.0
  0
LINE
  5
10F
330
1F
100
AcDbEntity
  8
0
  6
Continuous
 62
     7
370
    25
100
AcDbLine
 10
-16.2121025599
 20
627.0296718224
 30
0.0
 11
-16.2121025599
 21
625.4296718224
 31
0.0
  0
LINE
  5
110
330
1F
100
AcDbEntity
  8
0
  6
Continuous
 62
     7
370
    25
100
AcDbLine
 10
-4.2121025599
 20
625.4296718224
 30
0.0
 11
-4.2121025599
 21
627.0296718224
 31
0.0
  0
LINE
  5
111
330
1F
100
AcDbEntity
  8
0
  6
Continuous
 62
     7
370
    25
100
AcDbLine
 10
103.7878974401
 20
627.0296718224
 30
0.0
 11
103.7878974401
 21
625.4296718224
 31
0.0
  0
LINE
  5
112
330
1F
100
AcDbEntity
  8
0
  6
Continuous
 62
     7
370
    25
100
AcDbLine
 10
115.7878974401
 20
625.4296718224
 30
0.0
 11
115.7878974401
 21
627.0296718224
 31
0.0
  0
LINE
  5
113
330
1F
100
AcDbEntity
  8
0
  6
Continuous
 62
     7
370
    25
100
AcDbLine
 10
163.7878974401
 20
627.0296718224
 30
0.0
 11
163.7878974401
 21
625.4296718224
 31
0.0
  0
LINE
  5
114
330
1F
100
AcDbEntity
  8
0
  6
Continuous
 62
     7
370
    25
100
AcDbLine
 10
175.7878974401
 20
625.4296718224
 30
0.0
 11
175.7878974401
 21
627.0296718224
 31
0.0
  0
LINE
  5
115
330
1F
100
AcDbEntity
  8
0
  6
Continuous
 62
     7
370
    25
100
AcDbLine
 10
273.7878974401
 20
627.0296718224
 30
0.0
 11
273.7878974401
 21
625.4296718224
 31
0.0
  0
LINE
  5
116
330
1F
100
AcDbEntity
  8
0
  6
Continuous
 62
     7
370
    25
100
AcDbLine
 10
285.7878974401
 20
625.4296718224
 30
0.0
 11
285.7878974401
 21
627.0296718224
 31
0.0
  0
LINE
  5
117
330
1F
100
AcDbEntity
  8
0
  6
Continuous
 62
     7
370
    25
100
AcDbLine
 10
-66.2121025599
 20
627.0296718224
 30
0.0
 11
-66.2121025599
 21
625.4296718224
 31
0.0
  0
LINE
  5
118
330
1F
100
AcDbEntity
  8
0
  6
Continuous
 62
     7
370
    25
100
AcDbLine
 10
-54.2121025599
 20
625.4296718224
 30
0.0
 11
-54.2121025599
 21
627.0296718224
 31
0.0
  0
ARC
  5
119
330
1F
100
AcDbEntity
  8
0
  6
Continuous
 62
     7
370
    25
100
AcDbCircle
 10
-198.2121025599
 20
616.8019795147
 30
0.0
 40
19.87230769230772
100
AcDbArc
 50
271.4417506859
 51
316.9233678463
  0
ARC
  5
11A
330
1F
100
AcDbEntity
  8
0
  6
Continuous
 62
     7
370
    25
100
AcDbCircle
 10
-198.2121025599
 20
617.0573641301
 30
0.0
 40
19.87230769230783
100
AcDbArc
 50
43.0766321537
 51
88.5582493141
  0
ARC
  5
11B
330
1F
100
AcDbEntity
  8
0
  6
Continuous
 62
     7
370
    25
100
AcDbCircle
 10
417.7878974401
 20
617.0573641301
 30
0.0
 40
19.87230769230784
100
AcDbArc
 50
91.4417506859
 51
136.9233678463
  0
ARC
  5
11C
330
1F
100
AcDbEntity
  8
0
  6
Continuous
 62
     7
370
    25
100
AcDbCircle
 10
417.7878974401
 20
616.8019795147
 30
0.0
 40
19.87230769230772
100
AcDbArc
 50
223.0766321537
 51
268.5582493141
  0
ARC
  5
11D
330
1F
100
AcDbEntity
  8
0
  6
Continuous
 62
     7
370
    25
100
AcDbCircle
 10
-183.0817112415
 20
603.8296718224
 30
0.0
 40
0.6000000000000303
100
AcDbArc
 50
270.0
 51
333.6246146768
  0
ARC
  5
11E
330
1F
100
AcDbEntity
  8
0
  6
Continuous
 62
     7
370
    25
100
AcDbCircle
 10
-183.0817112415
 20
630.0296718224
 30
0.0
 40
0.6000000000000227
100
AcDbArc
 50
26.3753853232
 51
90.0
  0
LINE
  5
11F
330
1F
100
AcDbEntity
  8
0
  6
Continuous
 62
     7
370
    25
100
AcDbLine
 10
-183.696556517
 20
603.2296718224
 30
0.0
 11
-183.0817112415
 21
603.2296718224
 31
0.0
  0
LINE
  5
120
330
1F
100
AcDbEntity
  8
0
  6
Continuous
 62
     7
370
    25
100
AcDbLine
 10
-183.0817112415
 20
630.6296718224
 30
0.0
 11
-183.696556517
 21
630.6296718224
 31
0.0
  0
ARC
  5
121
330
1F
100
AcDbEntity
  8
0
  6
Continuous
 62
     7
370
    25
100
AcDbCircle
 10
-209.4999813478
 20
616.9296718224
 30
0.0
 40
30.08787878787878
100
AcDbArc
 50
333.6246146768
 51
348.7320568139
  0
LINE
  5
122
330
1F
100
AcDbEntity
  8
0
  6
Continuous
 62
     7
370
    25
100
AcDbLine
 10
-181.8518072484
 20
628.7980718378
 30
0.0
 11
-182.5441696239
 21
630.2962220228
 31
0.0
  0
ARC
  5
123
330
1F
100
AcDbEntity
  8
0
  6
Continuous
 62
     7
370
    25
100
AcDbCircle
 10
402.6575061217
 20
630.0296718224
 30
0.0
 40
0.599999999999909
100
AcDbArc
 50
90.0
 51
153.6246146768
  0
ARC
  5
124
330
1F
100
AcDbEntity
  8
0
  6
Continuous
 62
     7
370
    25
100
AcDbCircle
 10
402.6575061217
 20
603.8296718224
 30
0.0
 40
0.6000000000000227
100
AcDbArc
 50
206.3753853232
 51
270.0
  0
LINE
  5
125
330
1F
100
AcDbEntity
  8
0
  6
Continuous
 62
     7
370
    25
100
AcDbLine
 10
403.2723513972
 20
630.6296718224
 30
0.0
 11
402.6575061217
 21
630.6296718224
 31
0.0
  0
LINE
  5
126
330
1F
100
AcDbEntity
  8
0
  6
Continuous
 62
     7
370
    25
100
AcDbLine
 10
402.6575061217
 20
603.2296718224
 30
0.0
 11
403.2723513972
 21
603.2296718224
 31
0.0
  0
LINE
  5
127
330
1F
100
AcDbEntity
  8
0
  6
Continuous
 62
     7
370
    25
100
AcDbLine
 10
402.1199645041
 20
630.2962220228
 30
0.0
 11
401.4276021286
 21
628.7980718378
 31
0.0
  0
ARC
  5
128
330
1F
100
AcDbEntity
  8
0
  6
Continuous
 62
     7
370
    25
100
AcDbCircle
 10
429.075776228
 20
616.9296718224
 30
0.0
 40
30.08787878787883
100
AcDbArc
 50
191.2679431861
 51
206.3753853232
  0
ARC
  5
129
330
1F
100
AcDbEntity
  8
0
  6
Continuous
 62
     7
370
    25
100
AcDbCircle
 10
514.0378974401
 20
626.8296718224
 30
0.0
 40
1.25
100
AcDbArc
 50
36.8698976458
 51
180.0
  0
ARC
  5
12A
330
1F
100
AcDbEntity
  8
0
  6
Continuous
 62
     7
370
    25
100
AcDbCircle
 10
514.0378974401
 20
607.0296718224
 30
0.0
 40
1.25
100
AcDbArc
 50
180.0
 51
323.1301023542
  0
ARC
  5
12B
330
1F
100
AcDbEntity
  8
0
  6
Continuous
 62
     7
370
    25
100
AcDbCircle
 10
500.8378974401
 20
616.9296718224
 30
0.0
 40
17.75000000000009
100
AcDbArc
 50
323.1301023542
 51
36.8698976458
  0
ARC
  5
12C
330
1F
100
AcDbEntity
  8
0
  6
Continuous
 62
     7
370
    25
100
AcDbCircle
 10
-294.4621025599
 20
607.0296718224
 30
0.0
 40
1.25
100
AcDbArc
 50
216.8698976458
 51
0.0
  0
ARC
  5
12D
330
1F
100
AcDbEntity
  8
0
  6
Continuous
 62
     7
370
    25
100
AcDbCircle
 10
-294.4621025599
 20
626.8296718224
 30
0.0
 40
1.25
100
AcDbArc
 50
0.0
 51
143.1301023542
  0
ARC
  5
12E
330
1F
100
AcDbEntity
  8
0
  6
Continuous
 62
     7
370
    25
100
AcDbCircle
 10
-281.2621025599
 20
616.9296718224
 30
0.0
 40
17.74999999999998
100
AcDbArc
 50
143.1301023542
 51
216.8698976458
  0
ARC
  5
12F
330
1F
100
AcDbEntity
  8
0
  6
Continuous
 62
     7
370
    25
100
AcDbCircle
 10
397.7878974401
 20
624.9246559996
 30
0.0
 40
5.315148208181389
100
AcDbArc
 50
116.5408707232
 51
153.3383795227
  0
ARC
  5
130
330
1F
100
AcDbEntity
  8
0
  6
Continuous
 62
     7
370
    25
100
AcDbCircle
 10
397.7878974401
 20
624.9246559996
 30
0.0
 40
5.31514820818144
100
AcDbArc
 50
26.6616204773
 51
63.4591292768
  0
LINE
  5
131
330
1F
100
AcDbEntity
  8
0
  6
Continuous
 62
     7
370
    25
100
AcDbLine
 10
393.0378974401
 20
627.3096718224
 30
0.0
 11
393.0378974401
 21
626.9296718224
 31
0.0
  0
LINE
  5
132
330
1F
100
AcDbEntity
  8
0
  6
Continuous
 62
     7
370
    25
100
AcDbLine
 10
402.5378974401
 20
626.9296718224
 30
0.0
 11
402.5378974401
 21
627.3096718224
 31
0.0
  0
ARC
  5
133
330
1F
100
AcDbEntity
  8
0
  6
Continuous
 62
     7
370
    25
100
AcDbCircle
 10
-178.2121025599
 20
624.9246559996
 30
0.0
 40
5.315148208181414
100
AcDbArc
 50
26.6616204773
 51
63.4591292768
  0
ARC
  5
134
330
1F
100
AcDbEntity
  8
0
  6
Continuous
 62
     7
370
    25
100
AcDbCircle
 10
-178.2121025599
 20
624.9246559996
 30
0.0
 40
5.315148208181389
100
AcDbArc
 50
116.5408707232
 51
153.3383795227
  0
LINE
  5
135
330
1F
100
AcDbEntity
  8
0
  6
Continuous
 62
     7
370
    25
100
AcDbLine
 10
-182.9621025599
 20
627.3096718224
 30
0.0
 11
-182.9621025599
 21
626.9296718224
 31
0.0
  0
LINE
  5
136
330
1F
100
AcDbEntity
  8
0
  6
Continuous
 62
     7
370
    25
100
AcDbLine
 10
-173.4621025599
 20
626.9296718224
 30
0.0
 11
-173.4621025599
 21
627.3096718224
 31
0.0
  0
LINE
  5
137
330
1F
100
AcDbEntity
  8
0
  6
Continuous
 62
     7
370
    25
100
AcDbLine
 10
-197.4621025599
 20
616.5796718224
 30
0.0
 11
-196.9621025599
 21
616.5796718224
 31
0.0
  0
LINE
  5
138
330
1F
100
AcDbEntity
  8
0
  6
Continuous
 62
     7
370
    25
100
AcDbLine
 10
-196.9621025599
 20
624.2796718224
 30
0.0
 11
-197.4621025599
 21
624.2796718224
 31
0.0
  0
LINE
  5
139
330
1F
100
AcDbEntity
  8
0
  6
Continuous
 62
     7
370
    25
100
AcDbLine
 10
-197.4621025599
 20
624.2796718224
 30
0.0
 11
-197.7121025599
 21
624.0296718224
 31
0.0
  0
LINE
  5
13A
330
1F
100
AcDbEntity
  8
0
  6
Continuous
 62
     7
370
    25
100
AcDbLine
 10
-197.7121025599
 20
616.8296718224
 30
0.0
 11
-197.4621025599
 21
616.5796718224
 31
0.0
  0
ARC
  5
13B
330
1F
100
AcDbEntity
  8
0
  6
Continuous
 62
     7
370
    25
100
AcDbCircle
 10
-205.6470032502
 20
620.4296718224
 30
0.0
 40
9.499999999999972
100
AcDbArc
 50
13.7002334884
 51
23.9076190177
  0
ARC
  5
13C
330
1F
100
AcDbEntity
  8
0
  6
Continuous
 62
     7
370
    25
100
AcDbCircle
 10
-205.6470032502
 20
620.4296718224
 30
0.0
 40
9.499999999999991
100
AcDbArc
 50
336.0923809823
 51
346.2997665116
  0
ARC
  5
13D
330
1F
100
AcDbEntity
  8
0
  6
Continuous
 62
     7
370
    25
100
AcDbCircle
 10
425.2227981304
 20
620.4296718224
 30
0.0
 40
9.499999999999945
100
AcDbArc
 50
193.7002334884
 51
203.9076190177
  0
ARC
  5
13E
330
1F
100
AcDbEntity
  8
0
  6
Continuous
 62
     7
370
    25
100
AcDbCircle
 10
425.2227981304
 20
620.4296718224
 30
0.0
 40
9.499999999999991
100
AcDbArc
 50
156.0923809823
 51
166.2997665116
  0
LINE
  5
13F
330
1F
100
AcDbEntity
  8
0
  6
Continuous
 62
     7
370
    25
100
AcDbLine
 10
417.0378974401
 20
616.5796718224
 30
0.0
 11
417.2878974401
 21
616.8296718224
 31
0.0
  0
LINE
  5
140
330
1F
100
AcDbEntity
  8
0
  6
Continuous
 62
     7
370
    25
100
AcDbLine
 10
417.2878974401
 20
624.0296718224
 30
0.0
 11
417.0378974401
 21
624.2796718224
 31
0.0
  0
LINE
  5
141
330
1F
100
AcDbEntity
  8
0
  6
Continuous
 62
     7
370
    25
100
AcDbLine
 10
417.0378974401
 20
624.2796718224
 30
0.0
 11
416.5378974401
 21
624.2796718224
 31
0.0
  0
LINE
  5
142
330
1F
100
AcDbEntity
  8
0
  6
Continuous
 62
     7
370
    25
100
AcDbLine
 10
416.5378974401
 20
616.5796718224
 30
0.0
 11
417.0378974401
 21
616.5796718224
 31
0.0
  0
LINE
  5
143
330
1F
100
AcDbEntity
  8
0
  6
Continuous
 62
     7
370
    25
100
AcDbLine
 10
-185.7121025599
 20
613.4296718224
 30
0.0
 11
-185.7121025599
 21
611.5505766495
 31
0.0
  0
LINE
  5
144
330
1F
100
AcDbEntity
  8
0
  6
Continuous
 62
     7
370
    25
100
AcDbLine
 10
-170.7121025599
 20
611.5505766495
 30
0.0
 11
-170.7121025599
 21
613.4296718224
 31
0.0
  0
LINE
  5
145
330
1F
100
AcDbEntity
  8
0
  6
Continuous
 62
     7
370
    25
100
AcDbLine
 10
-185.7121025599
 20
611.5505766495
 30
0.0
 11
-185.2121025599
 21
611.0505766495
 31
0.0
  0
LINE
  5
146
330
1F
100
AcDbEntity
  8
0
  6
Continuous
 62
     7
370
    25
100
AcDbLine
 10
-171.2121025599
 20
611.0505766495
 30
0.0
 11
-170.7121025599
 21
611.5505766495
 31
0.0
  0
LINE
  5
147
330
1F
100
AcDbEntity
  8
0
  6
Continuous
 62
     7
370
    25
100
AcDbLine
 10
390.2878974401
 20
613.4296718224
 30
0.0
 11
390.2878974401
 21
611.5505766495
 31
0.0
  0
LINE
  5
148
330
1F
100
AcDbEntity
  8
0
  6
Continuous
 62
     7
370
    25
100
AcDbLine
 10
405.2878974401
 20
611.5505766495
 30
0.0
 11
405.2878974401
 21
613.4296718224
 31
0.0
  0
LINE
  5
149
330
1F
100
AcDbEntity
  8
0
  6
Continuous
 62
     7
370
    25
100
AcDbLine
 10
390.2878974401
 20
611.5505766495
 30
0.0
 11
390.7878974401
 21
611.0505766495
 31
0.0
  0
LINE
  5
14A
330
1F
100
AcDbEntity
  8
0
  6
Continuous
 62
     7
370
    25
100
AcDbLine
 10
404.7878974401
 20
611.0505766495
 30
0.0
 11
405.2878974401
 21
611.5505766495
 31
0.0
  0
LINE
  5
14B
330
1F
100
AcDbEntity
  8
0
  6
Continuous
 62
     7
370
    25
100
AcDbLine
 10
387.4982519875
 20
626.9296718224
 30
0.0
 11
387.4982519875
 21
625.4296718224
 31
0.0
  0
LINE
  5
14C
330
1F
100
AcDbEntity
  8
0
  6
Continuous
 62
     7
370
    25
100
AcDbLine
 10
-167.9224571073
 20
625.4296718224
 30
0.0
 11
-167.9224571073
 21
626.9296718224
 31
0.0
  0
LWPOLYLINE
  5
14D
330
1F
100
AcDbEntity
  8
0
  6
Continuous
 62
     7
370
    25
100
AcDbPolyline
 90
        3
 70
   128
 43
0.0
 10
172.2878974401
 20
632.0296718224
 10
172.4656084067
 20
632.0272417243
 10
174.7878974401
 20
631.583089835
  0
LINE
  5
14E
330
1F
100
AcDbEntity
  8
0
  6
Continuous
 62
     7
370
    25
100
AcDbLine
 10
174.7878974401
 20
631.583089835
 30
0.0
 11
174.7878974401
 21
627.4762538098
 31
0.0
  0
LINE
  5
14F
330
1F
100
AcDbEntity
  8
0
  6
Continuous
 62
     7
370
    25
100
AcDbLine
 10
174.7878974401
 20
627.4762538098
 30
0.0
 11
172.2878974401
 21
627.0296718224
 31
0.0
  0
LWPOLYLINE
  5
150
330
1F
100
AcDbEntity
  8
0
  6
Continuous
 62
     7
370
    25
100
AcDbPolyline
 90
        3
 70
   128
 43
0.0
 10
172.2878974401
 20
627.0296718224
 10
172.1101864735
 20
627.0321019205
 10
169.7878974401
 20
627.4762538098
  0
LINE
  5
151
330
1F
100
AcDbEntity
  8
0
  6
Continuous
 62
     7
370
    25
100
AcDbLine
 10
169.7878974401
 20
631.583089835
 30
0.0
 11
169.7878974401
 21
627.4762538098
 31
0.0
  0
LINE
  5
152
330
1F
100
AcDbEntity
  8
0
  6
Continuous
 62
     7
370
    25
100
AcDbLine
 10
169.7878974401
 20
631.583089835
 30
0.0
 11
172.2878974401
 21
632.0296718224
 31
0.0
  0
LWPOLYLINE
  5
153
330
1F
100
AcDbEntity
  8
0
  6
Continuous
 62
     7
370
    25
100
AcDbPolyline
 90
        3
 70
   128
 43
0.0
 10
167.2878974401
 20
632.0296718224
 10
167.4656084067
 20
632.0272417243
 10
169.7878974401
 20
631.583089835
  0
LINE
  5
154
330
1F
100
AcDbEntity
  8
0
  6
Continuous
 62
     7
370
    25
100
AcDbLine
 10
167.2878974401
 20
632.0296718224
 30
0.0
 11
172.2878974401
 21
632.0296718224
 31
0.0
  0
LINE
  5
155
330
1F
100
AcDbEntity
  8
0
  6
Continuous
 62
     7
370
    25
100
AcDbLine
 10
169.7878974401
 20
627.4762538098
 30
0.0
 11
167.2878974401
 21
627.0296718224
 31
0.0
  0
LWPOLYLINE
  5
156
330
1F
100
AcDbEntity
  8
0
  6
Continuous
 62
     7
370
    25
100
AcDbPolyline
 90
        3
 70
   128
 43
0.0
 10
167.2878974401
 20
627.0296718224
 10
167.1101864735
 20
627.0321019205
 10
164.7878974401
 20
627.4762538098
  0
LINE
  5
157
330
1F
100
AcDbEntity
  8
0
  6
Continuous
 62
     7
370
    25
100
AcDbLine
 10
164.7878974401
 20
631.583089835
 30
0.0
 11
164.7878974401
 21
627.4762538098
 31
0.0
  0
LINE
  5
158
330
1F
100
AcDbEntity
  8
0
  6
Continuous
 62
     7
370
    25
100
AcDbLine
 10
164.7878974401
 20
631.583089835
 30
0.0
 11
167.2878974401
 21
632.0296718224
 31
0.0
  0
LINE
  5
159
330
1F
100
AcDbEntity
  8
0
  6
Continuous
 62
     7
370
    25
100
AcDbLine
 10
174.7878974401
 20
631.583089835
 30
0.0
 11
174.7878974401
 21
632.0296718224
 31
0.0
  0
LINE
  5
15A
330
1F
100
AcDbEntity
  8
0
  6
Continuous
 62
     7
370
    25
100
AcDbLine
 10
174.7878974401
 20
632.0296718224
 30
0.0
 11
172.2878974401
 21
632.0296718224
 31
0.0
  0
LINE
  5
15B
330
1F
100
AcDbEntity
  8
0
  6
Continuous
 62
     7
370
    25
100
AcDbLine
 10
164.7878974401
 20
631.583089835
 30
0.0
 11
164.7878974401
 21
632.0296718224
 31
0.0
  0
LINE
  5
15C
330
1F
100
AcDbEntity
  8
0
  6
Continuous
 62
     7
370
    25
100
AcDbLine
 10
164.7878974401
 20
632.0296718224
 30
0.0
 11
167.2878974401
 21
632.0296718224
 31
0.0
  0
LINE
  5
15D
330
1F
100
AcDbEntity
  8
0
  6
Continuous
 62
     7
370
    25
100
AcDbLine
 10
174.7878974401
 20
627.0296718224
 30
0.0
 11
174.7878974401
 21
627.4762538098
 31
0.0
  0
LINE
  5
15E
330
1F
100
AcDbEntity
  8
0
  6
Continuous
 62
     7
370
    25
100
AcDbLine
 10
164.7878974401
 20
627.0296718224
 30
0.0
 11
164.7878974401
 21
627.4762538098
 31
0.0
  0
LWPOLYLINE
  5
15F
330
1F
100
AcDbEntity
  8
0
  6
Continuous
 62
     7
370
    25
100
AcDbPolyline
 90
        3
 70
   128
 43
0.0
 10
227.2878974401
 20
632.0296718224
 10
227.4656084067
 20
632.0272417243
 10
229.7878974401
 20
631.583089835
  0
LINE
  5
160
330
1F
100
AcDbEntity
  8
0
  6
Continuous
 62
     7
370
    25
100
AcDbLine
 10
227.2878974401
 20
632.0296718224
 30
0.0
 11
232.2878974401
 21
632.0296718224
 31
0.0
  0
LINE
  5
161
330
1F
100
AcDbEntity
  8
0
  6
Continuous
 62
     7
370
    25
100
AcDbLine
 10
229.7878974401
 20
631.583089835
 30
0.0
 11
232.2878974401
 21
632.0296718224
 31
0.0
  0
LINE
  5
162
330
1F
100
AcDbEntity
  8
0
  6
Continuous
 62
     7
370
    25
100
AcDbLine
 10
229.7878974401
 20
631.583089835
 30
0.0
 11
229.7878974401
 21
627.4762538098
 31
0.0
  0
LINE
  5
163
330
1F
100
AcDbEntity
  8
0
  6
Continuous
 62
     7
370
    25
100
AcDbLine
 10
229.7878974401
 20
627.4762538098
 30
0.0
 11
227.2878974401
 21
627.0296718224
 31
0.0
  0
LWPOLYLINE
  5
164
330
1F
100
AcDbEntity
  8
0
  6
Continuous
 62
     7
370
    25
100
AcDbPolyline
 90
        3
 70
   128
 43
0.0
 10
227.2878974401
 20
627.0296718224
 10
227.1101864735
 20
627.0321019205
 10
224.7878974401
 20
627.4762538098
  0
LINE
  5
165
330
1F
100
AcDbEntity
  8
0
  6
Continuous
 62
     7
370
    25
100
AcDbLine
 10
224.7878974401
 20
631.583089835
 30
0.0
 11
224.7878974401
 21
627.4762538098
 31
0.0
  0
LINE
  5
166
330
1F
100
AcDbEntity
  8
0
  6
Continuous
 62
     7
370
    25
100
AcDbLine
 10
224.7878974401
 20
631.583089835
 30
0.0
 11
227.2878974401
 21
632.0296718224
 31
0.0
  0
LWPOLYLINE
  5
167
330
1F
100
AcDbEntity
  8
0
  6
Continuous
 62
     7
370
    25
100
AcDbPolyline
 90
        3
 70
   128
 43
0.0
 10
232.2878974401
 20
627.0296718224
 10
232.1101864735
 20
627.0321019205
 10
229.7878974401
 20
627.4762538098
  0
LWPOLYLINE
  5
168
330
1F
100
AcDbEntity
  8
0
  6
Continuous
 62
     7
370
    25
100
AcDbPolyline
 90
        3
 70
   128
 43
0.0
 10
232.2878974401
 20
632.0296718224
 10
232.4656084067
 20
632.0272417243
 10
234.7878974401
 20
631.583089835
  0
LINE
  5
169
330
1F
100
AcDbEntity
  8
0
  6
Continuous
 62
     7
370
    25
100
AcDbLine
 10
234.7878974401
 20
631.583089835
 30
0.0
 11
234.7878974401
 21
627.4762538098
 31
0.0
  0
LINE
  5
16A
330
1F
100
AcDbEntity
  8
0
  6
Continuous
 62
     7
370
    25
100
AcDbLine
 10
234.7878974401
 20
627.4762538098
 30
0.0
 11
232.2878974401
 21
627.0296718224
 31
0.0
  0
LINE
  5
16B
330
1F
100
AcDbEntity
  8
0
  6
Continuous
 62
     7
370
    25
100
AcDbLine
 10
224.7878974401
 20
631.583089835
 30
0.0
 11
224.7878974401
 21
632.0296718224
 31
0.0
  0
LINE
  5
16C
330
1F
100
AcDbEntity
  8
0
  6
Continuous
 62
     7
370
    25
100
AcDbLine
 10
224.7878974401
 20
632.0296718224
 30
0.0
 11
227.2878974401
 21
632.0296718224
 31
0.0
  0
LINE
  5
16D
330
1F
100
AcDbEntity
  8
0
  6
Continuous
 62
     7
370
    25
100
AcDbLine
 10
234.7878974401
 20
627.0296718224
 30
0.0
 11
234.7878974401
 21
627.4762538098
 31
0.0
  0
LINE
  5
16E
330
1F
100
AcDbEntity
  8
0
  6
Continuous
 62
     7
370
    25
100
AcDbLine
 10
224.7878974401
 20
627.0296718224
 30
0.0
 11
224.7878974401
 21
627.4762538098
 31
0.0
  0
LINE
  5
16F
330
1F
100
AcDbEntity
  8
0
  6
Continuous
 62
     7
370
    25
100
AcDbLine
 10
234.7878974401
 20
631.583089835
 30
0.0
 11
234.7878974401
 21
632.0296718224
 31
0.0
  0
LINE
  5
170
330
1F
100
AcDbEntity
  8
0
  6
Continuous
 62
     7
370
    25
100
AcDbLine
 10
234.7878974401
 20
632.0296718224
 30
0.0
 11
232.2878974401
 21
632.0296718224
 31
0.0
  0
LWPOLYLINE
  5
171
330
1F
100
AcDbEntity
  8
0
  6
Continuous
 62
     7
370
    25
100
AcDbPolyline
 90
        3
 70
   128
 43
0.0
 10
52.2878974401
 20
632.0296718224
 10
52.4656084067
 20
632.0272417243
 10
54.7878974401
 20
631.583089835
  0
LINE
  5
172
330
1F
100
AcDbEntity
  8
0
  6
Continuous
 62
     7
370
    25
100
AcDbLine
 10
54.7878974401
 20
631.583089835
 30
0.0
 11
54.7878974401
 21
627.4762538098
 31
0.0
  0
LINE
  5
173
330
1F
100
AcDbEntity
  8
0
  6
Continuous
 62
     7
370
    25
100
AcDbLine
 10
54.7878974401
 20
627.4762538098
 30
0.0
 11
52.2878974401
 21
627.0296718224
 31
0.0
  0
LWPOLYLINE
  5
174
330
1F
100
AcDbEntity
  8
0
  6
Continuous
 62
     7
370
    25
100
AcDbPolyline
 90
        3
 70
   128
 43
0.0
 10
52.2878974401
 20
627.0296718224
 10
52.1101864735
 20
627.0321019205
 10
49.7878974401
 20
627.4762538098
  0
LINE
  5
175
330
1F
100
AcDbEntity
  8
0
  6
Continuous
 62
     7
370
    25
100
AcDbLine
 10
49.7878974401
 20
631.583089835
 30
0.0
 11
49.7878974401
 21
627.4762538098
 31
0.0
  0
LINE
  5
176
330
1F
100
AcDbEntity
  8
0
  6
Continuous
 62
     7
370
    25
100
AcDbLine
 10
49.7878974401
 20
631.583089835
 30
0.0
 11
52.2878974401
 21
632.0296718224
 31
0.0
  0
LWPOLYLINE
  5
177
330
1F
100
AcDbEntity
  8
0
  6
Continuous
 62
     7
370
    25
100
AcDbPolyline
 90
        3
 70
   128
 43
0.0
 10
47.2878974401
 20
632.0296718224
 10
47.4656084067
 20
632.0272417243
 10
49.7878974401
 20
631.583089835
  0
LINE
  5
178
330
1F
100
AcDbEntity
  8
0
  6
Continuous
 62
     7
370
    25
100
AcDbLine
 10
47.2878974401
 20
632.0296718224
 30
0.0
 11
52.2878974401
 21
632.0296718224
 31
0.0
  0
LINE
  5
179
330
1F
100
AcDbEntity
  8
0
  6
Continuous
 62
     7
370
    25
100
AcDbLine
 10
49.7878974401
 20
627.4762538098
 30
0.0
 11
47.2878974401
 21
627.0296718224
 31
0.0
  0
LWPOLYLINE
  5
17A
330
1F
100
AcDbEntity
  8
0
  6
Continuous
 62
     7
370
    25
100
AcDbPolyline
 90
        3
 70
   128
 43
0.0
 10
47.2878974401
 20
627.0296718224
 10
47.1101864735
 20
627.0321019205
 10
44.7878974401
 20
627.4762538098
  0
LINE
  5
17B
330
1F
100
AcDbEntity
  8
0
  6
Continuous
 62
     7
370
    25
100
AcDbLine
 10
44.7878974401
 20
631.583089835
 30
0.0
 11
44.7878974401
 21
627.4762538098
 31
0.0
  0
LINE
  5
17C
330
1F
100
AcDbEntity
  8
0
  6
Continuous
 62
     7
370
    25
100
AcDbLine
 10
44.7878974401
 20
631.583089835
 30
0.0
 11
47.2878974401
 21
632.0296718224
 31
0.0
  0
LINE
  5
17D
330
1F
100
AcDbEntity
  8
0
  6
Continuous
 62
     7
370
    25
100
AcDbLine
 10
54.7878974401
 20
627.0296718224
 30
0.0
 11
54.7878974401
 21
627.4762538098
 31
0.0
  0
LINE
  5
17E
330
1F
100
AcDbEntity
  8
0
  6
Continuous
 62
     7
370
    25
100
AcDbLine
 10
44.7878974401
 20
627.0296718224
 30
0.0
 11
44.7878974401
 21
627.4762538098
 31
0.0
  0
LINE
  5
17F
330
1F
100
AcDbEntity
  8
0
  6
Continuous
 62
     7
370
    25
100
AcDbLine
 10
44.7878974401
 20
631.583089835
 30
0.0
 11
44.7878974401
 21
632.0296718224
 31
0.0
  0
LINE
  5
180
330
1F
100
AcDbEntity
  8
0
  6
Continuous
 62
     7
370
    25
100
AcDbLine
 10
44.7878974401
 20
632.0296718224
 30
0.0
 11
47.2878974401
 21
632.0296718224
 31
0.0
  0
LINE
  5
181
330
1F
100
AcDbEntity
  8
0
  6
Continuous
 62
     7
370
    25
100
AcDbLine
 10
54.7878974401
 20
631.583089835
 30
0.0
 11
54.7878974401
 21
632.0296718224
 31
0.0
  0
LINE
  5
182
330
1F
100
AcDbEntity
  8
0
  6
Continuous
 62
     7
370
    25
100
AcDbLine
 10
54.7878974401
 20
632.0296718224
 30
0.0
 11
52.2878974401
 21
632.0296718224
 31
0.0
  0
LWPOLYLINE
  5
183
330
1F
100
AcDbEntity
  8
0
  6
Continuous
 62
     7
370
    25
100
AcDbPolyline
 90
        3
 70
   128
 43
0.0
 10
-7.7121025599
 20
632.0296718224
 10
-7.5343915933
 20
632.0272417243
 10
-5.2121025599
 20
631.583089835
  0
LINE
  5
184
330
1F
100
AcDbEntity
  8
0
  6
Continuous
 62
     7
370
    25
100
AcDbLine
 10
-5.2121025599
 20
631.583089835
 30
0.0
 11
-5.2121025599
 21
627.4762538098
 31
0.0
  0
LINE
  5
185
330
1F
100
AcDbEntity
  8
0
  6
Continuous
 62
     7
370
    25
100
AcDbLine
 10
-5.2121025599
 20
627.4762538098
 30
0.0
 11
-7.7121025599
 21
627.0296718224
 31
0.0
  0
LWPOLYLINE
  5
186
330
1F
100
AcDbEntity
  8
0
  6
Continuous
 62
     7
370
    25
100
AcDbPolyline
 90
        3
 70
   128
 43
0.0
 10
-7.7121025599
 20
627.0296718224
 10
-7.8898135265
 20
627.0321019205
 10
-10.2121025599
 20
627.4762538098
  0
LINE
  5
187
330
1F
100
AcDbEntity
  8
0
  6
Continuous
 62
     7
370
    25
100
AcDbLine
 10
-10.2121025599
 20
631.583089835
 30
0.0
 11
-10.2121025599
 21
627.4762538098
 31
0.0
  0
LINE
  5
188
330
1F
100
AcDbEntity
  8
0
  6
Continuous
 62
     7
370
    25
100
AcDbLine
 10
-10.2121025599
 20
631.583089835
 30
0.0
 11
-7.7121025599
 21
632.0296718224
 31
0.0
  0
LINE
  5
189
330
1F
100
AcDbEntity
  8
0
  6
Continuous
 62
     7
370
    25
100
AcDbLine
 10
-10.2121025599
 20
627.4762538098
 30
0.0
 11
-12.7121025599
 21
627.0296718224
 31
0.0
  0
LWPOLYLINE
  5
18A
330
1F
100
AcDbEntity
  8
0
  6
Continuous
 62
     7
370
    25
100
AcDbPolyline
 90
        3
 70
   128
 43
0.0
 10
-12.7121025599
 20
632.0296718224
 10
-12.5343915933
 20
632.0272417243
 10
-10.2121025599
 20
631.583089835
  0
LWPOLYLINE
  5
18B
330
1F
100
AcDbEntity
  8
0
  6
Continuous
 62
     7
370
    25
100
AcDbPolyline
 90
        3
 70
   128
 43
0.0
 10
-12.7121025599
 20
627.0296718224
 10
-12.8898135265
 20
627.0321019205
 10
-15.2121025599
 20
627.4762538098
  0
LINE
  5
18C
330
1F
100
AcDbEntity
  8
0
  6
Continuous
 62
     7
370
    25
100
AcDbLine
 10
-15.2121025599
 20
631.583089835
 30
0.0
 11
-15.2121025599
 21
627.4762538098
 31
0.0
  0
LINE
  5
18D
330
1F
100
AcDbEntity
  8
0
  6
Continuous
 62
     7
370
    25
100
AcDbLine
 10
-15.2121025599
 20
631.583089835
 30
0.0
 11
-12.7121025599
 21
632.0296718224
 31
0.0
  0
LINE
  5
18E
330
1F
100
AcDbEntity
  8
0
  6
Continuous
 62
     7
370
    25
100
AcDbLine
 10
-12.7121025599
 20
632.0296718224
 30
0.0
 11
-7.7121025599
 21
632.0296718224
 31
0.0
  0
LINE
  5
18F
330
1F
100
AcDbEntity
  8
0
  6
Continuous
 62
     7
370
    25
100
AcDbLine
 10
-5.2121025599
 20
631.583089835
 30
0.0
 11
-5.2121025599
 21
632.0296718224
 31
0.0
  0
LINE
  5
190
330
1F
100
AcDbEntity
  8
0
  6
Continuous
 62
     7
370
    25
100
AcDbLine
 10
-5.2121025599
 20
632.0296718224
 30
0.0
 11
-7.7121025599
 21
632.0296718224
 31
0.0
  0
LINE
  5
191
330
1F
100
AcDbEntity
  8
0
  6
Continuous
 62
     7
370
    25
100
AcDbLine
 10
-15.2121025599
 20
631.583089835
 30
0.0
 11
-15.2121025599
 21
632.0296718224
 31
0.0
  0
LINE
  5
192
330
1F
100
AcDbEntity
  8
0
  6
Continuous
 62
     7
370
    25
100
AcDbLine
 10
-15.2121025599
 20
632.0296718224
 30
0.0
 11
-12.7121025599
 21
632.0296718224
 31
0.0
  0
LINE
  5
193
330
1F
100
AcDbEntity
  8
0
  6
Continuous
 62
     7
370
    25
100
AcDbLine
 10
-5.2121025599
 20
627.0296718224
 30
0.0
 11
-5.2121025599
 21
627.4762538098
 31
0.0
  0
LINE
  5
194
330
1F
100
AcDbEntity
  8
0
  6
Continuous
 62
     7
370
    25
100
AcDbLine
 10
-15.2121025599
 20
627.0296718224
 30
0.0
 11
-15.2121025599
 21
627.4762538098
 31
0.0
  0
LINE
  5
195
330
1F
100
AcDbEntity
  8
0
  6
Continuous
 62
     7
370
    25
100
AcDbLine
 10
109.7878974401
 20
627.4762538098
 30
0.0
 11
107.2878974401
 21
627.0296718224
 31
0.0
  0
LWPOLYLINE
  5
196
330
1F
100
AcDbEntity
  8
0
  6
Continuous
 62
     7
370
    25
100
AcDbPolyline
 90
        3
 70
   128
 43
0.0
 10
112.2878974401
 20
627.0296718224
 10
112.1101864735
 20
627.0321019205
 10
109.7878974401
 20
627.4762538098
  0
LWPOLYLINE
  5
197
330
1F
100
AcDbEntity
  8
0
  6
Continuous
 62
     7
370
    25
100
AcDbPolyline
 90
        3
 70
   128
 43
0.0
 10
107.2878974401
 20
632.0296718224
 10
107.4656084067
 20
632.0272417243
 10
109.7878974401
 20
631.583089835
  0
LINE
  5
198
330
1F
100
AcDbEntity
  8
0
  6
Continuous
 62
     7
370
    25
100
AcDbLine
 10
109.7878974401
 20
631.583089835
 30
0.0
 11
109.7878974401
 21
627.4762538098
 31
0.0
  0
LWPOLYLINE
  5
199
330
1F
100
AcDbEntity
  8
0
  6
Continuous
 62
     7
370
    25
100
AcDbPolyline
 90
        3
 70
   128
 43
0.0
 10
107.2878974401
 20
627.0296718224
 10
107.1101864735
 20
627.0321019205
 10
104.7878974401
 20
627.4762538098
  0
LINE
  5
19A
330
1F
100
AcDbEntity
  8
0
  6
Continuous
 62
     7
370
    25
100
AcDbLine
 10
104.7878974401
 20
631.583089835
 30
0.0
 11
104.7878974401
 21
627.4762538098
 31
0.0
  0
LINE
  5
19B
330
1F
100
AcDbEntity
  8
0
  6
Continuous
 62
     7
370
    25
100
AcDbLine
 10
104.7878974401
 20
631.583089835
 30
0.0
 11
107.2878974401
 21
632.0296718224
 31
0.0
  0
LINE
  5
19C
330
1F
100
AcDbEntity
  8
0
  6
Continuous
 62
     7
370
    25
100
AcDbLine
 10
107.2878974401
 20
632.0296718224
 30
0.0
 11
112.2878974401
 21
632.0296718224
 31
0.0
  0
LINE
  5
19D
330
1F
100
AcDbEntity
  8
0
  6
Continuous
 62
     7
370
    25
100
AcDbLine
 10
109.7878974401
 20
631.583089835
 30
0.0
 11
112.2878974401
 21
632.0296718224
 31
0.0
  0
LWPOLYLINE
  5
19E
330
1F
100
AcDbEntity
  8
0
  6
Continuous
 62
     7
370
    25
100
AcDbPolyline
 90
        3
 70
   128
 43
0.0
 10
112.2878974401
 20
632.0296718224
 10
112.4656084067
 20
632.0272417243
 10
114.7878974401
 20
631.583089835
  0
LINE
  5
19F
330
1F
100
AcDbEntity
  8
0
  6
Continuous
 62
     7
370
    25
100
AcDbLine
 10
114.7878974401
 20
631.583089835
 30
0.0
 11
114.7878974401
 21
627.4762538098
 31
0.0
  0
LINE
  5
1A0
330
1F
100
AcDbEntity
  8
0
  6
Continuous
 62
     7
370
    25
100
AcDbLine
 10
114.7878974401
 20
627.4762538098
 30
0.0
 11
112.2878974401
 21
627.0296718224
 31
0.0
  0
LINE
  5
1A1
330
1F
100
AcDbEntity
  8
0
  6
Continuous
 62
     7
370
    25
100
AcDbLine
 10
114.7878974401
 20
631.583089835
 30
0.0
 11
114.7878974401
 21
632.0296718224
 31
0.0
  0
LINE
  5
1A2
330
1F
100
AcDbEntity
  8
0
  6
Continuous
 62
     7
370
    25
100
AcDbLine
 10
114.7878974401
 20
632.0296718224
 30
0.0
 11
112.2878974401
 21
632.0296718224
 31
0.0
  0
LINE
  5
1A3
330
1F
100
AcDbEntity
  8
0
  6
Continuous
 62
     7
370
    25
100
AcDbLine
 10
104.7878974401
 20
631.583089835
 30
0.0
 11
104.7878974401
 21
632.0296718224
 31
0.0
  0
LINE
  5
1A4
330
1F
100
AcDbEntity
  8
0
  6
Continuous
 62
     7
370
    25
100
AcDbLine
 10
104.7878974401
 20
632.0296718224
 30
0.0
 11
107.2878974401
 21
632.0296718224
 31
0.0
  0
LINE
  5
1A5
330
1F
100
AcDbEntity
  8
0
  6
Continuous
 62
     7
370
    25
100
AcDbLine
 10
104.7878974401
 20
627.0296718224
 30
0.0
 11
104.7878974401
 21
627.4762538098
 31
0.0
  0
LINE
  5
1A6
330
1F
100
AcDbEntity
  8
0
  6
Continuous
 62
     7
370
    25
100
AcDbLine
 10
114.7878974401
 20
627.0296718224
 30
0.0
 11
114.7878974401
 21
627.4762538098
 31
0.0
  0
LWPOLYLINE
  5
1A7
330
1F
100
AcDbEntity
  8
0
  6
Continuous
 62
     7
370
    25
100
AcDbPolyline
 90
        3
 70
   128
 43
0.0
 10
-57.7121025599
 20
632.0296718224
 10
-57.5343915933
 20
632.0272417243
 10
-55.2121025599
 20
631.583089835
  0
LINE
  5
1A8
330
1F
100
AcDbEntity
  8
0
  6
Continuous
 62
     7
370
    25
100
AcDbLine
 10
-55.2121025599
 20
631.583089835
 30
0.0
 11
-55.2121025599
 21
627.4762538098
 31
0.0
  0
LINE
  5
1A9
330
1F
100
AcDbEntity
  8
0
  6
Continuous
 62
     7
370
    25
100
AcDbLine
 10
-55.2121025599
 20
627.4762538098
 30
0.0
 11
-57.7121025599
 21
627.0296718224
 31
0.0
  0
LWPOLYLINE
  5
1AA
330
1F
100
AcDbEntity
  8
0
  6
Continuous
 62
     7
370
    25
100
AcDbPolyline
 90
        3
 70
   128
 43
0.0
 10
-57.7121025599
 20
627.0296718224
 10
-57.8898135265
 20
627.0321019205
 10
-60.2121025599
 20
627.4762538098
  0
LINE
  5
1AB
330
1F
100
AcDbEntity
  8
0
  6
Continuous
 62
     7
370
    25
100
AcDbLine
 10
-60.2121025599
 20
631.583089835
 30
0.0
 11
-60.2121025599
 21
627.4762538098
 31
0.0
  0
LINE
  5
1AC
330
1F
100
AcDbEntity
  8
0
  6
Continuous
 62
     7
370
    25
100
AcDbLine
 10
-60.2121025599
 20
631.583089835
 30
0.0
 11
-57.7121025599
 21
632.0296718224
 31
0.0
  0
LWPOLYLINE
  5
1AD
330
1F
100
AcDbEntity
  8
0
  6
Continuous
 62
     7
370
    25
100
AcDbPolyline
 90
        3
 70
   128
 43
0.0
 10
-62.7121025599
 20
632.0296718224
 10
-62.5343915933
 20
632.0272417243
 10
-60.2121025599
 20
631.583089835
  0
LINE
  5
1AE
330
1F
100
AcDbEntity
  8
0
  6
Continuous
 62
     7
370
    25
100
AcDbLine
 10
-62.7121025599
 20
632.0296718224
 30
0.0
 11
-57.7121025599
 21
632.0296718224
 31
0.0
  0
LINE
  5
1AF
330
1F
100
AcDbEntity
  8
0
  6
Continuous
 62
     7
370
    25
100
AcDbLine
 10
-60.2121025599
 20
627.4762538098
 30
0.0
 11
-62.7121025599
 21
627.0296718224
 31
0.0
  0
LWPOLYLINE
  5
1B0
330
1F
100
AcDbEntity
  8
0
  6
Continuous
 62
     7
370
    25
100
AcDbPolyline
 90
        3
 70
   128
 43
0.0
 10
-62.7121025599
 20
627.0296718224
 10
-62.8898135265
 20
627.0321019205
 10
-65.2121025599
 20
627.4762538098
  0
LINE
  5
1B1
330
1F
100
AcDbEntity
  8
0
  6
Continuous
 62
     7
370
    25
100
AcDbLine
 10
-65.2121025599
 20
631.583089835
 30
0.0
 11
-65.2121025599
 21
627.4762538098
 31
0.0
  0
LINE
  5
1B2
330
1F
100
AcDbEntity
  8
0
  6
Continuous
 62
     7
370
    25
100
AcDbLine
 10
-65.2121025599
 20
631.583089835
 30
0.0
 11
-62.7121025599
 21
632.0296718224
 31
0.0
  0
LINE
  5
1B3
330
1F
100
AcDbEntity
  8
0
  6
Continuous
 62
     7
370
    25
100
AcDbLine
 10
-65.2121025599
 20
631.583089835
 30
0.0
 11
-65.2121025599
 21
632.0296718224
 31
0.0
  0
LINE
  5
1B4
330
1F
100
AcDbEntity
  8
0
  6
Continuous
 62
     7
370
    25
100
AcDbLine
 10
-65.2121025599
 20
632.0296718224
 30
0.0
 11
-62.7121025599
 21
632.0296718224
 31
0.0
  0
LINE
  5
1B5
330
1F
100
AcDbEntity
  8
0
  6
Continuous
 62
     7
370
    25
100
AcDbLine
 10
-65.2121025599
 20
627.0296718224
 30
0.0
 11
-65.2121025599
 21
627.4762538098
 31
0.0
  0
LINE
  5
1B6
330
1F
100
AcDbEntity
  8
0
  6
Continuous
 62
     7
370
    25
100
AcDbLine
 10
-55.2121025599
 20
627.0296718224
 30
0.0
 11
-55.2121025599
 21
627.4762538098
 31
0.0
  0
LINE
  5
1B7
330
1F
100
AcDbEntity
  8
0
  6
Continuous
 62
     7
370
    25
100
AcDbLine
 10
-55.2121025599
 20
631.583089835
 30
0.0
 11
-55.2121025599
 21
632.0296718224
 31
0.0
  0
LINE
  5
1B8
330
1F
100
AcDbEntity
  8
0
  6
Continuous
 62
     7
370
    25
100
AcDbLine
 10
-55.2121025599
 20
632.0296718224
 30
0.0
 11
-57.7121025599
 21
632.0296718224
 31
0.0
  0
LWPOLYLINE
  5
1B9
330
1F
100
AcDbEntity
  8
0
  6
Continuous
 62
     7
370
    25
100
AcDbPolyline
 90
        3
 70
   128
 43
0.0
 10
282.2878974401
 20
632.0296718224
 10
282.4656084067
 20
632.0272417243
 10
284.7878974401
 20
631.583089835
  0
LINE
  5
1BA
330
1F
100
AcDbEntity
  8
0
  6
Continuous
 62
     7
370
    25
100
AcDbLine
 10
284.7878974401
 20
631.583089835
 30
0.0
 11
284.7878974401
 21
627.4762538098
 31
0.0
  0
LINE
  5
1BB
330
1F
100
AcDbEntity
  8
0
  6
Continuous
 62
     7
370
    25
100
AcDbLine
 10
284.7878974401
 20
627.4762538098
 30
0.0
 11
282.2878974401
 21
627.0296718224
 31
0.0
  0
LWPOLYLINE
  5
1BC
330
1F
100
AcDbEntity
  8
0
  6
Continuous
 62
     7
370
    25
100
AcDbPolyline
 90
        3
 70
   128
 43
0.0
 10
282.2878974401
 20
627.0296718224
 10
282.1101864735
 20
627.0321019205
 10
279.7878974401
 20
627.4762538098
  0
LINE
  5
1BD
330
1F
100
AcDbEntity
  8
0
  6
Continuous
 62
     7
370
    25
100
AcDbLine
 10
279.7878974401
 20
631.583089835
 30
0.0
 11
279.7878974401
 21
627.4762538098
 31
0.0
  0
LINE
  5
1BE
330
1F
100
AcDbEntity
  8
0
  6
Continuous
 62
     7
370
    25
100
AcDbLine
 10
279.7878974401
 20
631.583089835
 30
0.0
 11
282.2878974401
 21
632.0296718224
 31
0.0
  0
LWPOLYLINE
  5
1BF
330
1F
100
AcDbEntity
  8
0
  6
Continuous
 62
     7
370
    25
100
AcDbPolyline
 90
        3
 70
   128
 43
0.0
 10
277.2878974401
 20
632.0296718224
 10
277.4656084067
 20
632.0272417243
 10
279.7878974401
 20
631.583089835
  0
LINE
  5
1C0
330
1F
100
AcDbEntity
  8
0
  6
Continuous
 62
     7
370
    25
100
AcDbLine
 10
277.2878974401
 20
632.0296718224
 30
0.0
 11
282.2878974401
 21
632.0296718224
 31
0.0
  0
LINE
  5
1C1
330
1F
100
AcDbEntity
  8
0
  6
Continuous
 62
     7
370
    25
100
AcDbLine
 10
279.7878974401
 20
627.4762538098
 30
0.0
 11
277.2878974401
 21
627.0296718224
 31
0.0
  0
LWPOLYLINE
  5
1C2
330
1F
100
AcDbEntity
  8
0
  6
Continuous
 62
     7
370
    25
100
AcDbPolyline
 90
        3
 70
   128
 43
0.0
 10
277.2878974401
 20
627.0296718224
 10
277.1101864735
 20
627.0321019205
 10
274.7878974401
 20
627.4762538098
  0
LINE
  5
1C3
330
1F
100
AcDbEntity
  8
0
  6
Continuous
 62
     7
370
    25
100
AcDbLine
 10
274.7878974401
 20
631.583089835
 30
0.0
 11
274.7878974401
 21
627.4762538098
 31
0.0
  0
LINE
  5
1C4
330
1F
100
AcDbEntity
  8
0
  6
Continuous
 62
     7
370
    25
100
AcDbLine
 10
274.7878974401
 20
631.583089835
 30
0.0
 11
277.2878974401
 21
632.0296718224
 31
0.0
  0
LINE
  5
1C5
330
1F
100
AcDbEntity
  8
0
  6
Continuous
 62
     7
370
    25
100
AcDbLine
 10
274.7878974401
 20
631.583089835
 30
0.0
 11
274.7878974401
 21
632.0296718224
 31
0.0
  0
LINE
  5
1C6
330
1F
100
AcDbEntity
  8
0
  6
Continuous
 62
     7
370
    25
100
AcDbLine
 10
274.7878974401
 20
632.0296718224
 30
0.0
 11
277.2878974401
 21
632.0296718224
 31
0.0
  0
LINE
  5
1C7
330
1F
100
AcDbEntity
  8
0
  6
Continuous
 62
     7
370
    25
100
AcDbLine
 10
284.7878974401
 20
631.583089835
 30
0.0
 11
284.7878974401
 21
632.0296718224
 31
0.0
  0
LINE
  5
1C8
330
1F
100
AcDbEntity
  8
0
  6
Continuous
 62
     7
370
    25
100
AcDbLine
 10
284.7878974401
 20
632.0296718224
 30
0.0
 11
282.2878974401
 21
632.0296718224
 31
0.0
  0
LINE
  5
1C9
330
1F
100
AcDbEntity
  8
0
  6
Continuous
 62
     7
370
    25
100
AcDbLine
 10
284.7878974401
 20
627.0296718224
 30
0.0
 11
284.7878974401
 21
627.4762538098
 31
0.0
  0
LINE
  5
1CA
330
1F
100
AcDbEntity
  8
0
  6
Continuous
 62
     7
370
    25
100
AcDbLine
 10
274.7878974401
 20
627.0296718224
 30
0.0
 11
274.7878974401
 21
627.4762538098
 31
0.0
  0
ARC
  5
1CB
330
1F
100
AcDbEntity
  8
0
  6
Continuous
 62
     7
370
    25
100
AcDbCircle
 10
306.7878974401
 20
610.4296718224
 30
0.0
 40
3.0
100
AcDbArc
 50
0.0
 51
90.0
  0
LINE
  5
1CC
330
1F
100
AcDbEntity
  8
0
  6
Continuous
 62
     7
370
    25
100
AcDbLine
 10
309.7878974401
 20
610.4296718224
 30
0.0
 11
259.7878974401
 21
610.4296718224
 31
0.0
  0
LINE
  5
1CD
330
1F
100
AcDbEntity
  8
0
  6
Continuous
 62
     7
370
    25
100
AcDbLine
 10
259.7878974401
 20
613.4296718224
 30
0.0
 11
259.7878974401
 21
610.4296718224
 31
0.0
  0
LINE
  5
1CE
330
1F
100
AcDbEntity
  8
0
  6
Continuous
 62
     7
370
    25
100
AcDbLine
 10
-60.2121025599
 20
613.4296718224
 30
0.0
 11
-60.2121025599
 21
610.4296718224
 31
0.0
  0
LINE
  5
1CF
330
1F
100
AcDbEntity
  8
0
  6
Continuous
 62
     7
370
    25
100
AcDbLine
 10
-60.2121025599
 20
610.4296718224
 30
0.0
 11
-90.2121025599
 21
610.4296718224
 31
0.0
  0
ARC
  5
1D0
330
1F
100
AcDbEntity
  8
0
  6
Continuous
 62
     7
370
    25
100
AcDbCircle
 10
-87.2121025599
 20
610.4296718224
 30
0.0
 40
3.0
100
AcDbArc
 50
90.0
 51
180.0
  0
LINE
  5
1D1
330
1F
100
AcDbEntity
  8
0
  6
Continuous
 62
     7
370
    25
100
AcDbLine
 10
259.7878974401
 20
610.4296718224
 30
0.0
 11
-60.2121025599
 21
610.4296718224
 31
0.0
  0
LINE
  5
1D2
330
1F
100
AcDbEntity
  8
0
  6
Continuous
 62
     7
370
    25
100
AcDbLine
 10
306.7878974401
 20
598.4296718224
 30
0.0
 11
259.7878974401
 21
598.4296718224
 31
0.0
  0
LINE
  5
1D3
330
1F
100
AcDbEntity
  8
0
  6
Continuous
 62
     7
370
    25
100
AcDbLine
 10
259.7878974401
 20
601.4296718224
 30
0.0
 11
259.7878974401
 21
598.4296718224
 31
0.0
  0
LINE
  5
1D4
330
1F
100
AcDbEntity
  8
0
  6
Continuous
 62
     7
370
    25
100
AcDbLine
 10
259.7878974401
 20
601.4296718224
 30
0.0
 11
309.7878974401
 21
601.4296718224
 31
0.0
  0
ARC
  5
1D5
330
1F
100
AcDbEntity
  8
0
  6
Continuous
 62
     7
370
    25
100
AcDbCircle
 10
306.7878974401
 20
601.4296718224
 30
0.0
 40
3.0
100
AcDbArc
 50
270.0
 51
0.0
  0
LINE
  5
1D6
330
1F
100
AcDbEntity
  8
0
  6
Continuous
 62
     7
370
    25
100
AcDbLine
 10
-90.2121025599
 20
601.4296718224
 30
0.0
 11
-60.2121025599
 21
601.4296718224
 31
0.0
  0
LINE
  5
1D7
330
1F
100
AcDbEntity
  8
0
  6
Continuous
 62
     7
370
    25
100
AcDbLine
 10
-90.2121025599
 20
601.4296718224
 30
0.0
 11
-90.2121025599
 21
610.4296718224
 31
0.0
  0
LINE
  5
1D8
330
1F
100
AcDbEntity
  8
0
  6
Continuous
 62
     7
370
    25
100
AcDbLine
 10
-60.2121025599
 20
610.4296718224
 30
0.0
 11
-60.2121025599
 21
601.4296718224
 31
0.0
  0
LINE
  5
1D9
330
1F
100
AcDbEntity
  8
0
  6
Continuous
 62
     7
370
    25
100
AcDbLine
 10
-60.2121025599
 20
601.4296718224
 30
0.0
 11
259.7878974401
 21
601.4296718224
 31
0.0
  0
LINE
  5
1DA
330
1F
100
AcDbEntity
  8
0
  6
Continuous
 62
     7
370
    25
100
AcDbLine
 10
259.7878974401
 20
601.4296718224
 30
0.0
 11
259.7878974401
 21
610.4296718224
 31
0.0
  0
LINE
  5
1DB
330
1F
100
AcDbEntity
  8
0
  6
Continuous
 62
     7
370
    25
100
AcDbLine
 10
309.7878974401
 20
610.4296718224
 30
0.0
 11
309.7878974401
 21
601.4296718224
 31
0.0
  0
LINE
  5
1DC
330
1F
100
AcDbEntity
  8
0
  6
Continuous
 62
     7
370
    25
100
AcDbLine
 10
259.7878974401
 20
598.4296718224
 30
0.0
 11
-60.2121025599
 21
598.4296718224
 31
0.0
  0
LINE
  5
1DD
330
1F
100
AcDbEntity
  8
0
  6
Continuous
 62
     7
370
    25
100
AcDbLine
 10
-60.2121025599
 20
601.4296718224
 30
0.0
 11
-60.2121025599
 21
598.4296718224
 31
0.0
  0
LINE
  5
1DE
330
1F
100
AcDbEntity
  8
0
  6
Continuous
 62
     7
370
    25
100
AcDbLine
 10
-60.2121025599
 20
598.4296718224
 30
0.0
 11
-87.2121025599
 21
598.4296718224
 31
0.0
  0
ARC
  5
1DF
330
1F
100
AcDbEntity
  8
0
  6
Continuous
 62
     7
370
    25
100
AcDbCircle
 10
-87.2121025599
 20
601.4296718224
 30
0.0
 40
3.0
100
AcDbArc
 50
180.0
 51
270.0
  0
LINE
  5
1E0
330
1F
100
AcDbEntity
  8
0
  6
Continuous
 62
     7
370
    25
100
AcDbLine
 10
-11.9221991195
 20
613.4296718224
 30
0.0
 11
-18.6983860637
 21
613.4296718224
 31
0.0
  0
ARC
  5
1E1
330
1F
100
AcDbEntity
  8
0
  6
Continuous
 62
     7
370
    25
100
AcDbCircle
 10
-14.5095443346
 20
615.7022870896
 30
0.0
 40
4.765624322610114
100
AcDbArc
 50
171.2205390529
 51
208.4816131802
  0
LINE
  5
1E2
330
1F
100
AcDbEntity
  8
0
  6
Continuous
 62
     7
370
    25
100
AcDbLine
 10
-19.2193305967
 20
616.4296718224
 30
0.0
 11
-11.2473459565
 21
616.4296718224
 31
0.0
  0
ARC
  5
1E3
330
1F
100
AcDbEntity
  8
0
  6
Continuous
 62
     7
370
    25
100
AcDbCircle
 10
-15.0875444407
 20
615.7176240551
 30
0.0
 40
3.905654416504645
100
AcDbArc
 50
324.1401137676
 51
10.5044578024
  0
LINE
  5
1E4
330
1F
100
AcDbEntity
  8
0
  6
Continuous
 62
     7
370
    25
100
AcDbLine
 10
-19.2193305967
 20
616.4296718224
 30
0.0
 11
-19.2193305967
 21
622.4296718224
 31
0.0
  0
LINE
  5
1E5
330
1F
100
AcDbEntity
  8
0
  6
Continuous
 62
     7
370
    25
100
AcDbLine
 10
-11.2473459565
 20
622.4296718224
 30
0.0
 11
-19.2193305967
 21
622.4296718224
 31
0.0
  0
LINE
  5
1E6
330
1F
100
AcDbEntity
  8
0
  6
Continuous
 62
     7
370
    25
100
AcDbLine
 10
-11.2473459565
 20
622.4296718224
 30
0.0
 11
-11.2473459565
 21
616.4296718224
 31
0.0
  0
ARC
  5
1E7
330
1F
100
AcDbEntity
  8
0
  6
Continuous
 62
     7
370
    25
100
AcDbCircle
 10
-14.5095443346
 20
623.1570565552
 30
0.0
 40
4.765624322608663
100
AcDbArc
 50
151.5183868198
 51
188.7794609471
  0
LINE
  5
1E8
330
1F
100
AcDbEntity
  8
0
  6
Continuous
 62
     7
370
    25
100
AcDbLine
 10
-18.6983860637
 20
625.4296718224
 30
0.0
 11
-11.9221991195
 21
625.4296718224
 31
0.0
  0
ARC
  5
1E9
330
1F
100
AcDbEntity
  8
0
  6
Continuous
 62
     7
370
    25
100
AcDbCircle
 10
-15.0875444407
 20
623.1417195898
 30
0.0
 40
3.905654416503956
100
AcDbArc
 50
349.4955421976
 51
35.8598862324
  0
LINE
  5
1EA
330
1F
100
AcDbEntity
  8
0
  6
Continuous
 62
     7
370
    25
100
AcDbLine
 10
-19.2193305967
 20
622.4296718224
 30
0.0
 11
-178.6850661132
 21
622.4296718224
 31
0.0
  0
ARC
  5
1EB
330
1F
100
AcDbEntity
  8
0
  6
Continuous
 62
     7
370
    25
100
AcDbCircle
 10
-173.9752798511
 20
623.1570565552
 30
0.0
 40
4.765624322608275
100
AcDbArc
 50
151.5183868198
 51
188.7794609471
  0
LINE
  5
1EC
330
1F
100
AcDbEntity
  8
0
  6
Continuous
 62
     7
370
    25
100
AcDbLine
 10
-178.1641215802
 20
625.4296718224
 30
0.0
 11
-18.6983860637
 21
625.4296718224
 31
0.0
  0
LINE
  5
1ED
330
1F
100
AcDbEntity
  8
0
  6
Continuous
 62
     7
370
    25
100
AcDbLine
 10
-18.6983860637
 20
613.4296718224
 30
0.0
 11
-178.1641215802
 21
613.4296718224
 31
0.0
  0
ARC
  5
1EE
330
1F
100
AcDbEntity
  8
0
  6
Continuous
 62
     7
370
    25
100
AcDbCircle
 10
-173.9752798511
 20
615.7022870896
 30
0.0
 40
4.765624322609736
100
AcDbArc
 50
171.2205390529
 51
208.4816131802
  0
LINE
  5
1EF
330
1F
100
AcDbEntity
  8
0
  6
Continuous
 62
     7
370
    25
100
AcDbLine
 10
-178.6850661132
 20
616.4296718224
 30
0.0
 11
-19.2193305967
 21
616.4296718224
 31
0.0
  0
LINE
  5
1F0
330
1F
100
AcDbEntity
  8
0
  6
Continuous
 62
     7
370
    25
100
AcDbLine
 10
-178.6850661132
 20
622.4296718224
 30
0.0
 11
-178.6850661132
 21
616.4296718224
 31
0.0
  0
LINE
  5
1F1
330
1F
100
AcDbEntity
  8
0
  6
Continuous
 62
     7
370
    25
100
AcDbLine
 10
-11.2473459565
 20
616.4296718224
 30
0.0
 11
172.222332388
 21
616.4296718224
 31
0.0
  0
LINE
  5
1F2
330
1F
100
AcDbEntity
  8
0
  6
Continuous
 62
     7
370
    25
100
AcDbLine
 10
172.222332388
 20
622.4296718224
 30
0.0
 11
-11.2473459565
 21
622.4296718224
 31
0.0
  0
LINE
  5
1F3
330
1F
100
AcDbEntity
  8
0
  6
Continuous
 62
     7
370
    25
100
AcDbLine
 10
172.222332388
 20
616.4296718224
 30
0.0
 11
172.222332388
 21
622.4296718224
 31
0.0
  0
LINE
  5
1F4
330
1F
100
AcDbEntity
  8
0
  6
Continuous
 62
     7
370
    25
100
AcDbLine
 10
-11.9221991195
 20
625.4296718224
 30
0.0
 11
171.547479225
 21
625.4296718224
 31
0.0
  0
ARC
  5
1F5
330
1F
100
AcDbEntity
  8
0
  6
Continuous
 62
     7
370
    25
100
AcDbCircle
 10
168.3821339038
 20
623.1417195898
 30
0.0
 40
3.905654416503353
100
AcDbArc
 50
349.4955421976
 51
35.8598862325
  0
LINE
  5
1F6
330
1F
100
AcDbEntity
  8
0
  6
Continuous
 62
     7
370
    25
100
AcDbLine
 10
171.547479225
 20
613.4296718224
 30
0.0
 11
-11.9221991195
 21
613.4296718224
 31
0.0
  0
ARC
  5
1F7
330
1F
100
AcDbEntity
  8
0
  6
Continuous
 62
     7
370
    25
100
AcDbCircle
 10
168.3821339038
 20
615.7176240551
 30
0.0
 40
3.905654416504867
100
AcDbArc
 50
324.1401137676
 51
10.5044578024
  0
LINE
  5
1F8
330
1F
100
AcDbEntity
  8
0
  6
Continuous
 62
     7
370
    25
100
AcDbLine
 10
-178.6850661132
 20
622.4296718224
 30
0.0
 11
-195.2121025599
 21
622.4296718224
 31
0.0
  0
ARC
  5
1F9
330
1F
100
AcDbEntity
  8
0
  6
Continuous
 62
     7
370
    25
100
AcDbCircle
 10
-192.2121025599
 20
622.4296718224
 30
0.0
 40
3.0
100
AcDbArc
 50
90.0
 51
180.0
  0
LINE
  5
1FA
330
1F
100
AcDbEntity
  8
0
  6
Continuous
 62
     7
370
    25
100
AcDbLine
 10
-192.2121025599
 20
625.4296718224
 30
0.0
 11
-178.1641215802
 21
625.4296718224
 31
0.0
  0
LINE
  5
1FB
330
1F
100
AcDbEntity
  8
0
  6
Continuous
 62
     7
370
    25
100
AcDbLine
 10
-195.2121025599
 20
616.4296718224
 30
0.0
 11
-178.6850661132
 21
616.4296718224
 31
0.0
  0
LINE
  5
1FC
330
1F
100
AcDbEntity
  8
0
  6
Continuous
 62
     7
370
    25
100
AcDbLine
 10
-195.2121025599
 20
616.4296718224
 30
0.0
 11
-195.2121025599
 21
622.4296718224
 31
0.0
  0
ARC
  5
1FD
330
1F
100
AcDbEntity
  8
0
  6
Continuous
 62
     7
370
    25
100
AcDbCircle
 10
-192.2121025599
 20
616.4296718224
 30
0.0
 40
3.0
100
AcDbArc
 50
180.0
 51
270.0
  0
LINE
  5
1FE
330
1F
100
AcDbEntity
  8
0
  6
Continuous
 62
     7
370
    25
100
AcDbLine
 10
-178.1641215802
 20
613.4296718224
 30
0.0
 11
-192.2121025599
 21
613.4296718224
 31
0.0
  0
LINE
  5
1FF
330
1F
100
AcDbEntity
  8
0
  6
Continuous
 62
     7
370
    25
100
AcDbLine
 10
394.0899075061
 20
616.4296718224
 30
0.0
 11
414.7878974401
 21
616.4296718224
 31
0.0
  0
LINE
  5
200
330
1F
100
AcDbEntity
  8
0
  6
Continuous
 62
     7
370
    25
100
AcDbLine
 10
394.0899075061
 20
616.4296718224
 30
0.0
 11
394.0899075061
 21
622.4296718224
 31
0.0
  0
LINE
  5
201
330
1F
100
AcDbEntity
  8
0
  6
Continuous
 62
     7
370
    25
100
AcDbLine
 10
414.7878974401
 20
622.4296718224
 30
0.0
 11
394.0899075061
 21
622.4296718224
 31
0.0
  0
LINE
  5
202
330
1F
100
AcDbEntity
  8
0
  6
Continuous
 62
     7
370
    25
100
AcDbLine
 10
414.7878974401
 20
622.4296718224
 30
0.0
 11
414.7878974401
 21
616.4296718224
 31
0.0
  0
ARC
  5
203
330
1F
100
AcDbEntity
  8
0
  6
Continuous
 62
     7
370
    25
100
AcDbCircle
 10
411.7878974401
 20
622.4296718224
 30
0.0
 40
3.000000000000114
100
AcDbArc
 50
0.0
 51
90.0
  0
ARC
  5
204
330
1F
100
AcDbEntity
  8
0
  6
Continuous
 62
     7
370
    25
100
AcDbCircle
 10
415.6587126345
 20
623.1787583413
 30
0.0
 40
21.58180912901025
100
AcDbArc
 50
174.0133466758
 51
181.9890880391
  0
LINE
  5
205
330
1F
100
AcDbEntity
  8
0
  6
Continuous
 62
     7
370
    25
100
AcDbLine
 10
394.1946059962
 20
625.4296718224
 30
0.0
 11
411.7878974401
 21
625.4296718224
 31
0.0
  0
ARC
  5
206
330
1F
100
AcDbEntity
  8
0
  6
Continuous
 62
     7
370
    25
100
AcDbCircle
 10
415.6587126345
 20
615.6805853036
 30
0.0
 40
21.58180912902234
100
AcDbArc
 50
178.0109119609
 51
185.9866533242
  0
ARC
  5
207
330
1F
100
AcDbEntity
  8
0
  6
Continuous
 62
     7
370
    25
100
AcDbCircle
 10
411.7878974401
 20
616.4296718224
 30
0.0
 40
3.000000000000114
100
AcDbArc
 50
270.0
 51
0.0
  0
LINE
  5
208
330
1F
100
AcDbEntity
  8
0
  6
Continuous
 62
     7
370
    25
100
AcDbLine
 10
411.7878974401
 20
613.4296718224
 30
0.0
 11
394.1946059962
 21
613.4296718224
 31
0.0
  0
ARC
  5
209
330
1F
100
AcDbEntity
  8
0
  6
Continuous
 62
     7
370
    25
100
AcDbCircle
 10
198.9881485374
 20
615.6805853036
 30
0.0
 40
21.5818091290591
100
AcDbArc
 50
178.0109119609
 51
185.9866533242
  0
LINE
  5
20A
330
1F
100
AcDbEntity
  8
0
  6
Continuous
 62
     7
370
    25
100
AcDbLine
 10
177.419343409
 20
616.4296718224
 30
0.0
 11
394.0899075061
 21
616.4296718224
 31
0.0
  0
LINE
  5
20B
330
1F
100
AcDbEntity
  8
0
  6
Continuous
 62
     7
370
    25
100
AcDbLine
 10
394.1946059962
 20
613.4296718224
 30
0.0
 11
177.5240418991
 21
613.4296718224
 31
0.0
  0
LINE
  5
20C
330
1F
100
AcDbEntity
  8
0
  6
Continuous
 62
     7
370
    25
100
AcDbLine
 10
394.0899075061
 20
622.4296718224
 30
0.0
 11
177.419343409
 21
622.4296718224
 31
0.0
  0
ARC
  5
20D
330
1F
100
AcDbEntity
  8
0
  6
Continuous
 62
     7
370
    25
100
AcDbCircle
 10
198.9881485374
 20
623.1787583413
 30
0.0
 40
21.58180912905102
100
AcDbArc
 50
174.0133466758
 51
181.9890880391
  0
LINE
  5
20E
330
1F
100
AcDbEntity
  8
0
  6
Continuous
 62
     7
370
    25
100
AcDbLine
 10
177.5240418991
 20
625.4296718224
 30
0.0
 11
394.1946059962
 21
625.4296718224
 31
0.0
  0
LINE
  5
20F
330
1F
100
AcDbEntity
  8
0
  6
Continuous
 62
     7
370
    25
100
AcDbLine
 10
177.419343409
 20
622.4296718224
 30
0.0
 11
177.419343409
 21
616.4296718224
 31
0.0
  0
LINE
  5
210
330
1F
100
AcDbEntity
  8
0
  6
Continuous
 62
     7
370
    25
100
AcDbLine
 10
172.222332388
 20
616.4296718224
 30
0.0
 11
177.419343409
 21
616.4296718224
 31
0.0
  0
LINE
  5
211
330
1F
100
AcDbEntity
  8
0
  6
Continuous
 62
     7
370
    25
100
AcDbLine
 10
177.419343409
 20
622.4296718224
 30
0.0
 11
172.222332388
 21
622.4296718224
 31
0.0
  0
LINE
  5
212
330
1F
100
AcDbEntity
  8
0
  6
Continuous
 62
     7
370
    25
100
AcDbLine
 10
171.547479225
 20
625.4296718224
 30
0.0
 11
177.5240418991
 21
625.4296718224
 31
0.0
  0
LINE
  5
213
330
1F
100
AcDbEntity
  8
0
  6
Continuous
 62
     7
370
    25
100
AcDbLine
 10
177.5240418991
 20
613.4296718224
 30
0.0
 11
171.547479225
 21
613.4296718224
 31
0.0
  0
LINE
  5
214
330
1F
100
AcDbEntity
  8
0
  6
Continuous
 62
     7
370
    25
100
AcDbLine
 10
40.5394983923
 20
585.9296718224
 30
0.0
 11
49.6422004462
 21
585.9296718224
 31
0.0
  0
LINE
  5
215
330
1F
100
AcDbEntity
  8
0
  6
Continuous
 62
     7
370
    25
100
AcDbLine
 10
210.5378974401
 20
585.9296718224
 30
0.0
 11
219.6430940534
 21
585.9296718224
 31
0.0
  0
LINE
  5
216
330
1F
100
AcDbEntity
  8
0
  6
Continuous
 62
     7
370
    25
100
AcDbLine
 10
-26.310997697
 20
585.9296718224
 30
0.0
 11
-18.3560822142
 21
585.9296718224
 31
0.0
  0
LINE
  5
217
330
1F
100
AcDbEntity
  8
0
  6
Continuous
 62
     7
370
    25
100
AcDbLine
 10
-40.4908068745
 20
585.9296718224
 30
0.0
 11
-29.4621025599
 21
585.9296718224
 31
0.0
  0
LINE
  5
218
330
1F
100
AcDbEntity
  8
0
  6
Continuous
 62
     7
370
    25
100
AcDbLine
 10
-50.9621025599
 20
585.9296718224
 30
0.0
 11
-40.4908068745
 21
585.9296718224
 31
0.0
  0
LINE
  5
219
330
1F
100
AcDbEntity
  8
0
  6
Continuous
 62
     7
370
    25
100
AcDbLine
 10
19.5091931255
 20
585.9296718224
 30
0.0
 11
30.5378974401
 21
585.9296718224
 31
0.0
  0
LINE
  5
21A
330
1F
100
AcDbEntity
  8
0
  6
Continuous
 62
     7
370
    25
100
AcDbLine
 10
9.0378974401
 20
585.9296718224
 30
0.0
 11
19.5091931255
 21
585.9296718224
 31
0.0
  0
LINE
  5
21B
330
1F
100
AcDbEntity
  8
0
  6
Continuous
 62
     7
370
    25
100
AcDbLine
 10
108.5378601877
 20
585.9296718224
 30
0.0
 11
117.6422252812
 21
585.9296718224
 31
0.0
  0
LINE
  5
21C
330
1F
100
AcDbEntity
  8
0
  6
Continuous
 62
     7
370
    25
100
AcDbLine
 10
176.5395480622
 20
585.9296718224
 30
0.0
 11
185.6422501161
 21
585.9296718224
 31
0.0
  0
LINE
  5
21D
330
1F
100
AcDbEntity
  8
0
  6
Continuous
 62
     7
370
    25
100
AcDbLine
 10
79.5091931255
 20
585.9296718224
 30
0.0
 11
90.5378974401
 21
585.9296718224
 31
0.0
  0
LINE
  5
21E
330
1F
100
AcDbEntity
  8
0
  6
Continuous
 62
     7
370
    25
100
AcDbLine
 10
69.0378974401
 20
585.9296718224
 30
0.0
 11
79.5091931255
 21
585.9296718224
 31
0.0
  0
LINE
  5
21F
330
1F
100
AcDbEntity
  8
0
  6
Continuous
 62
     7
370
    25
100
AcDbLine
 10
-29.4621025599
 20
585.9296718224
 30
0.0
 11
-26.310997697
 21
585.9296718224
 31
0.0
  0
LINE
  5
220
330
1F
100
AcDbEntity
  8
0
  6
Continuous
 62
     7
370
    25
100
AcDbLine
 10
199.5091931255
 20
585.9296718224
 30
0.0
 11
210.5378974401
 21
585.9296718224
 31
0.0
  0
LINE
  5
221
330
1F
100
AcDbEntity
  8
0
  6
Continuous
 62
     7
370
    25
100
AcDbLine
 10
189.0378974401
 20
585.9296718224
 30
0.0
 11
199.5091931255
 21
585.9296718224
 31
0.0
  0
LINE
  5
222
330
1F
100
AcDbEntity
  8
0
  6
Continuous
 62
     7
370
    25
100
AcDbLine
 10
139.5091931255
 20
585.9296718224
 30
0.0
 11
150.5378974401
 21
585.9296718224
 31
0.0
  0
LINE
  5
223
330
1F
100
AcDbEntity
  8
0
  6
Continuous
 62
     7
370
    25
100
AcDbLine
 10
129.0378974401
 20
585.9296718224
 30
0.0
 11
139.5091931255
 21
585.9296718224
 31
0.0
  0
LINE
  5
224
330
1F
100
AcDbEntity
  8
0
  6
Continuous
 62
     7
370
    25
100
AcDbLine
 10
-4.4900498596
 20
585.9296718224
 30
0.0
 11
6.538654455
 21
585.9296718224
 31
0.0
  0
LINE
  5
225
330
1F
100
AcDbEntity
  8
0
  6
Continuous
 62
     7
370
    25
100
AcDbLine
 10
-14.961345545
 20
585.9296718224
 30
0.0
 11
-4.4900498596
 21
585.9296718224
 31
0.0
  0
LINE
  5
226
330
1F
100
AcDbEntity
  8
0
  6
Continuous
 62
     7
370
    25
100
AcDbLine
 10
165.5108437476
 20
585.9296718224
 30
0.0
 11
176.5395480622
 21
585.9296718224
 31
0.0
  0
LINE
  5
227
330
1F
100
AcDbEntity
  8
0
  6
Continuous
 62
     7
370
    25
100
AcDbLine
 10
155.0395480622
 20
585.9296718224
 30
0.0
 11
165.5108437476
 21
585.9296718224
 31
0.0
  0
LINE
  5
228
330
1F
100
AcDbEntity
  8
0
  6
Continuous
 62
     7
370
    25
100
AcDbLine
 10
121.0387041249
 20
585.9296718224
 30
0.0
 11
129.0378974401
 21
585.9296718224
 31
0.0
  0
LINE
  5
229
330
1F
100
AcDbEntity
  8
0
  6
Continuous
 62
     7
370
    25
100
AcDbLine
 10
150.5378974401
 20
585.9296718224
 30
0.0
 11
151.6414061789
 21
585.9296718224
 31
0.0
  0
LINE
  5
22A
330
1F
100
AcDbEntity
  8
0
  6
Continuous
 62
     7
370
    25
100
AcDbLine
 10
63.5099749754
 20
585.9296718224
 30
0.0
 11
69.0378974401
 21
585.9296718224
 31
0.0
  0
LINE
  5
22B
330
1F
100
AcDbEntity
  8
0
  6
Continuous
 62
     7
370
    25
100
AcDbLine
 10
53.03867929
 20
585.9296718224
 30
0.0
 11
63.5099749754
 21
585.9296718224
 31
0.0
  0
LINE
  5
22C
330
1F
100
AcDbEntity
  8
0
  6
Continuous
 62
     7
370
    25
100
AcDbLine
 10
6.538654455
 20
585.9296718224
 30
0.0
 11
9.0378974401
 21
585.9296718224
 31
0.0
  0
LINE
  5
22D
330
1F
100
AcDbEntity
  8
0
  6
Continuous
 62
     7
370
    25
100
AcDbLine
 10
97.5091558731
 20
585.9296718224
 30
0.0
 11
108.5378601877
 21
585.9296718224
 31
0.0
  0
LINE
  5
22E
330
1F
100
AcDbEntity
  8
0
  6
Continuous
 62
     7
370
    25
100
AcDbLine
 10
90.5378974401
 20
585.9296718224
 30
0.0
 11
97.5091558731
 21
585.9296718224
 31
0.0
  0
LINE
  5
22F
330
1F
100
AcDbEntity
  8
0
  6
Continuous
 62
     7
370
    25
100
AcDbLine
 10
30.5378974401
 20
585.9296718224
 30
0.0
 11
40.5394983923
 21
585.9296718224
 31
0.0
  0
LINE
  5
230
330
1F
100
AcDbEntity
  8
0
  6
Continuous
 62
     7
370
    25
100
AcDbLine
 10
504.7878974401
 20
665.4296718224
 30
0.0
 11
479.7878974401
 21
665.4296718224
 31
0.0
  0
LINE
  5
231
330
1F
100
AcDbEntity
  8
0
  6
Continuous
 62
     7
370
    25
100
AcDbLine
 10
479.7878974401
 20
664.4296718224
 30
0.0
 11
479.7878974401
 21
665.4296718224
 31
0.0
  0
ARC
  5
232
330
1F
100
AcDbEntity
  8
0
  6
Continuous
 62
     7
370
    25
100
AcDbCircle
 10
504.7878974401
 20
657.4296718224
 30
0.0
 40
8.0
100
AcDbArc
 50
48.6379930459
 51
90.0
  0
ARC
  5
233
330
1F
100
AcDbEntity
  8
0
  6
Continuous
 62
     7
370
    25
100
AcDbCircle
 10
504.7878974401
 20
657.4296718224
 30
0.0
 40
8.000000000000057
100
AcDbArc
 50
0.0
 51
26.9411569222
  0
LINE
  5
234
330
1F
100
AcDbEntity
  8
0
  6
Continuous
 62
     7
370
    25
100
AcDbLine
 10
512.7878974401
 20
576.4296718224
 30
0.0
 11
512.7878974401
 21
657.4296718224
 31
0.0
  0
LINE
  5
235
330
1F
100
AcDbEntity
  8
0
  6
Continuous
 62
     7
370
    25
100
AcDbLine
 10
479.7878974401
 20
569.4296718224
 30
0.0
 11
479.7878974401
 21
568.4296718224
 31
0.0
  0
LINE
  5
236
330
1F
100
AcDbEntity
  8
0
  6
Continuous
 62
     7
370
    25
100
AcDbLine
 10
479.7878974401
 20
568.4296718224
 30
0.0
 11
504.7878974401
 21
568.4296718224
 31
0.0
  0
ARC
  5
237
330
1F
100
AcDbEntity
  8
0
  6
Continuous
 62
     7
370
    25
100
AcDbCircle
 10
504.7878974401
 20
576.4296718224
 30
0.0
 40
8.000000000000066
100
AcDbArc
 50
332.3873162905
 51
0.0
  0
ARC
  5
238
330
1F
100
AcDbEntity
  8
0
  6
Continuous
 62
     7
370
    25
100
AcDbCircle
 10
504.7878974401
 20
576.4296718224
 30
0.0
 40
8.000000000000052
100
AcDbArc
 50
270.0
 51
309.5329608667
  0
LINE
  5
239
330
1F
100
AcDbEntity
  8
0
  6
Continuous
 62
     7
370
    25
100
AcDbLine
 10
-293.2121025599
 20
657.4296718224
 30
0.0
 11
-293.2121025599
 21
576.4296718224
 31
0.0
  0
ARC
  5
23A
330
1F
100
AcDbEntity
  8
0
  6
Continuous
 62
     7
370
    25
100
AcDbCircle
 10
-285.2121025599
 20
657.4296718224
 30
0.0
 40
8.000000000000004
100
AcDbArc
 50
152.3873162905
 51
180.0
  0
ARC
  5
23B
330
1F
100
AcDbEntity
  8
0
  6
Continuous
 62
     7
370
    25
100
AcDbCircle
 10
-285.2121025599
 20
657.4296718224
 30
0.0
 40
8.0
100
AcDbArc
 50
90.0
 51
129.5329608667
  0
LINE
  5
23C
330
1F
100
AcDbEntity
  8
0
  6
Continuous
 62
     7
370
    25
100
AcDbLine
 10
-260.2121025599
 20
664.4296718224
 30
0.0
 11
-260.2121025599
 21
665.4296718224
 31
0.0
  0
LINE
  5
23D
330
1F
100
AcDbEntity
  8
0
  6
Continuous
 62
     7
370
    25
100
AcDbLine
 10
-260.2121025599
 20
665.4296718224
 30
0.0
 11
-285.2121025599
 21
665.4296718224
 31
0.0
  0
ARC
  5
23E
330
1F
100
AcDbEntity
  8
0
  6
Continuous
 62
     7
370
    25
100
AcDbCircle
 10
-285.2121025599
 20
576.4296718224
 30
0.0
 40
8.000000000000028
100
AcDbArc
 50
228.6379930459
 51
270.0
  0
ARC
  5
23F
330
1F
100
AcDbEntity
  8
0
  6
Continuous
 62
     7
370
    25
100
AcDbCircle
 10
-285.2121025599
 20
576.4296718224
 30
0.0
 40
8.0
100
AcDbArc
 50
180.0
 51
206.9411569222
  0
LINE
  5
240
330
1F
100
AcDbEntity
  8
0
  6
Continuous
 62
     7
370
    25
100
AcDbLine
 10
-260.2121025599
 20
569.4296718224
 30
0.0
 11
-260.2121025599
 21
568.4296718224
 31
0.0
  0
LINE
  5
241
330
1F
100
AcDbEntity
  8
0
  6
Continuous
 62
     7
370
    25
100
AcDbLine
 10
-285.2121025599
 20
568.4296718224
 30
0.0
 11
-260.2121025599
 21
568.4296718224
 31
0.0
  0
ARC
  5
242
330
1F
100
AcDbEntity
  8
0
  6
Continuous
 62
     7
370
    25
100
AcDbCircle
 10
-290.2121025599
 20
575.4296718224
 30
0.0
 40
1000.0
100
AcDbArc
 50
180.0
 51
270.0
  0
LINE
  5
243
330
1F
100
AcDbEntity
  8
0
  6
Continuous
 62
     7
370
    25
100
AcDbLine
 10
-1290.2121025599
 20
665.4296718224
 30
0.0
 11
-1290.2121025599
 21
575.4296718224
 31
0.0
  0
LINE
  5
244
330
1F
100
AcDbEntity
  8
0
  6
Continuous
 62
     7
370
    25
100
AcDbLine
 10
1509.7878974401
 20
575.4296718224
 30
0.0
 11
1509.7878974401
 21
665.4296718224
 31
0.0
  0
LINE
  5
245
330
1F
100
AcDbEntity
  8
0
  6
Continuous
 62
     7
370
    25
100
AcDbLine
 10
1509.7878974401
 20
665.4296718224
 30
0.0
 11
504.7878974401
 21
665.4296718224
 31
0.0
  0
LINE
  5
246
330
1F
100
AcDbEntity
  8
0
  6
Continuous
 62
     7
370
    25
100
AcDbLine
 10
479.7878974401
 20
665.4296718224
 30
0.0
 11
-260.2121025599
 21
665.4296718224
 31
0.0
  0
LINE
  5
247
330
1F
100
AcDbEntity
  8
0
  6
Continuous
 62
     7
370
    25
100
AcDbLine
 10
-285.2121025599
 20
665.4296718224
 30
0.0
 11
-1290.2121025599
 21
665.4296718224
 31
0.0
  0
LINE
  5
248
330
1F
100
AcDbEntity
  8
0
  6
Continuous
 62
     7
370
    25
100
AcDbLine
 10
-290.2121025599
 20
-424.5703281776
 30
0.0
 11
509.7878974401
 21
-424.5703281776
 31
0.0
  0
ARC
  5
249
330
1F
100
AcDbEntity
  8
0
  6
Continuous
 62
     7
370
    25
100
AcDbCircle
 10
509.7878974401
 20
575.4296718224
 30
0.0
 40
1000.0
100
AcDbArc
 50
270.0
 51
0.0
  0
LINE
  5
24A
330
1F
100
AcDbEntity
  8
0
  6
Continuous
 62
     7
370
    25
100
AcDbLine
 10
43.788530621
 20
627.0296718224
 30
0.0
 11
55.7878974401
 21
627.0296718224
 31
0.0
  0
LINE
  5
24B
330
1F
100
AcDbEntity
  8
0
  6
Continuous
 62
     7
370
    25
100
AcDbLine
 10
223.788530621
 20
627.0296718224
 30
0.0
 11
235.7878974401
 21
627.0296718224
 31
0.0
  0
LINE
  5
24C
330
1F
100
AcDbEntity
  8
0
  6
Continuous
 62
     7
370
    25
100
AcDbLine
 10
-16.211469379
 20
627.0296718224
 30
0.0
 11
-4.2121025599
 21
627.0296718224
 31
0.0
  0
LINE
  5
24D
330
1F
100
AcDbEntity
  8
0
  6
Continuous
 62
     7
370
    25
100
AcDbLine
 10
103.788530621
 20
627.0296718224
 30
0.0
 11
115.7878974401
 21
627.0296718224
 31
0.0
  0
LINE
  5
24E
330
1F
100
AcDbEntity
  8
0
  6
Continuous
 62
     7
370
    25
100
AcDbLine
 10
163.788530621
 20
627.0296718224
 30
0.0
 11
175.7878974401
 21
627.0296718224
 31
0.0
  0
LINE
  5
24F
330
1F
100
AcDbEntity
  8
0
  6
Continuous
 62
     7
370
    25
100
AcDbLine
 10
273.788530621
 20
627.0296718224
 30
0.0
 11
285.7878974401
 21
627.0296718224
 31
0.0
  0
LINE
  5
250
330
1F
100
AcDbEntity
  8
0
  6
Continuous
 62
     7
370
    25
100
AcDbLine
 10
-66.211469379
 20
627.0296718224
 30
0.0
 11
-54.2121025599
 21
627.0296718224
 31
0.0
  0
ARC
  5
251
330
1F
100
AcDbEntity
  8
0
  6
Continuous
 62
     7
370
    25
100
AcDbCircle
 10
-287.8425272778
 20
659.5600965404
 30
0.0
 40
2.740527303296517
100
AcDbArc
 50
90.0
 51
180.0
  0
LINE
  5
252
330
1F
100
AcDbEntity
  8
0
  6
Continuous
 62
     7
370
    25
100
AcDbLine
 10
-202.5816778419
 20
662.3006238437
 30
0.0
 11
-287.8425272778
 21
662.3006238437
 31
0.0
  0
ARC
  5
253
330
1F
100
AcDbEntity
  8
0
  6
Continuous
 62
     7
370
    25
100
AcDbCircle
 10
-202.5816778419
 20
659.5600965404
 30
0.0
 40
2.740527303296602
100
AcDbArc
 50
360.0
 51
90.0
  0
LINE
  5
254
330
1F
100
AcDbEntity
  8
0
  6
Continuous
 62
     7
370
    25
100
AcDbLine
 10
-199.8411505386
 20
574.2992471045
 30
0.0
 11
-199.8411505386
 21
659.5600965404
 31
0.0
  0
ARC
  5
255
330
1F
100
AcDbEntity
  8
0
  6
Continuous
 62
     7
370
    25
100
AcDbCircle
 10
-202.5816778419
 20
574.2992471045
 30
0.0
 40
2.740527303296858
100
AcDbArc
 50
270.0
 51
0.0
  0
LINE
  5
256
330
1F
100
AcDbEntity
  8
0
  6
Continuous
 62
     7
370
    25
100
AcDbLine
 10
-287.8425272778
 20
571.5587198012
 30
0.0
 11
-202.5816778419
 21
571.5587198012
 31
0.0
  0
ARC
  5
257
330
1F
100
AcDbEntity
  8
0
  6
Continuous
 62
     7
370
    25
100
AcDbCircle
 10
-287.8425272778
 20
574.2992471045
 30
0.0
 40
2.740527303297085
100
AcDbArc
 50
180.0
 51
270.0
  0
LINE
  5
258
330
1F
100
AcDbEntity
  8
0
  6
Continuous
 62
     7
370
    25
100
AcDbLine
 10
-290.5830545811
 20
659.5600965404
 30
0.0
 11
-290.5830545811
 21
574.2992471045
 31
0.0
  0
ARC
  5
259
330
1F
100
AcDbEntity
  8
0
  6
Continuous
 62
     7
370
    25
100
AcDbCircle
 10
-285.2524383134
 20
662.6915423264
 30
0.0
 40
2.619423238806077
100
AcDbArc
 50
138.4284910908
 51
188.5827922009
  0
LINE
  5
25A
330
1F
100
AcDbEntity
  8
0
  6
Continuous
 62
     7
370
    25
100
AcDbLine
 10
-287.2121025599
 20
664.4296718224
 30
0.0
 11
-203.2121025599
 21
664.4296718224
 31
0.0
  0
ARC
  5
25B
330
1F
100
AcDbEntity
  8
0
  6
Continuous
 62
     7
370
    25
100
AcDbCircle
 10
-205.1717668064
 20
662.6915423264
 30
0.0
 40
2.619423238806055
100
AcDbArc
 50
351.4172077991
 51
41.5715089092
  0
LINE
  5
25C
330
1F
100
AcDbEntity
  8
0
  6
Continuous
 62
     7
370
    25
100
AcDbLine
 10
-197.7121025599
 20
658.9296718224
 30
0.0
 11
-197.7121025599
 21
574.9296718224
 31
0.0
  0
ARC
  5
25D
330
1F
100
AcDbEntity
  8
0
  6
Continuous
 62
     7
370
    25
100
AcDbCircle
 10
-199.4502320559
 20
576.8893360689
 30
0.0
 40
2.619423238802118
100
AcDbArc
 50
261.4172077991
 51
311.5715089093
  0
ARC
  5
25E
330
1F
100
AcDbEntity
  8
0
  6
Continuous
 62
     7
370
    25
100
AcDbCircle
 10
-199.4502320559
 20
656.9700075759
 30
0.0
 40
2.619423238802648
100
AcDbArc
 50
48.4284910907
 51
98.5827922009
  0
ARC
  5
25F
330
1F
100
AcDbEntity
  8
0
  6
Continuous
 62
     7
370
    25
100
AcDbCircle
 10
-290.9739730639
 20
576.8893360689
 30
0.0
 40
2.619423238803291
100
AcDbArc
 50
228.4284910907
 51
278.5827922009
  0
LINE
  5
260
330
1F
100
AcDbEntity
  8
0
  6
Continuous
 62
     7
370
    25
100
AcDbLine
 10
-292.7121025599
 20
574.9296718224
 30
0.0
 11
-292.7121025599
 21
658.9296718224
 31
0.0
  0
ARC
  5
261
330
1F
100
AcDbEntity
  8
0
  6
Continuous
 62
     7
370
    25
100
AcDbCircle
 10
-290.9739730639
 20
656.9700075759
 30
0.0
 40
2.619423238804892
100
AcDbArc
 50
81.4172077991
 51
131.5715089092
  0
LINE
  5
262
330
1F
100
AcDbEntity
  8
0
  6
Continuous
 62
     7
370
    25
100
AcDbLine
 10
-203.2121025599
 20
569.4296718224
 30
0.0
 11
-287.2121025599
 21
569.4296718224
 31
0.0
  0
ARC
  5
263
330
1F
100
AcDbEntity
  8
0
  6
Continuous
 62
     7
370
    25
100
AcDbCircle
 10
-285.2524383134
 20
571.1678013184
 30
0.0
 40
2.619423238802209
100
AcDbArc
 50
171.4172077991
 51
221.5715089093
  0
ARC
  5
264
330
1F
100
AcDbEntity
  8
0
  6
Continuous
 62
     7
370
    25
100
AcDbCircle
 10
-205.1717668064
 20
571.1678013184
 30
0.0
 40
2.61942323880227
100
AcDbArc
 50
318.4284910907
 51
8.5827922009
  0
ARC
  5
265
330
1F
100
AcDbEntity
  8
0
  6
Continuous
 62
     7
370
    25
100
AcDbCircle
 10
-203.2121025599
 20
658.9296718224
 30
0.0
 40
5.500000000000114
100
AcDbArc
 50
360.0
 51
90.0
  0
ARC
  5
266
330
1F
100
AcDbEntity
  8
0
  6
Continuous
 62
     7
370
    25
100
AcDbCircle
 10
-203.2121025599
 20
574.9296718224
 30
0.0
 40
5.500000000000114
100
AcDbArc
 50
270.0
 51
360.0
  0
ARC
  5
267
330
1F
100
AcDbEntity
  8
0
  6
Continuous
 62
     7
370
    25
100
AcDbCircle
 10
-287.2121025599
 20
574.9296718224
 30
0.0
 40
5.499999999999886
100
AcDbArc
 50
180.0
 51
270.0
  0
ARC
  5
268
330
1F
100
AcDbEntity
  8
0
  6
Continuous
 62
     7
370
    25
100
AcDbCircle
 10
-287.2121025599
 20
658.9296718224
 30
0.0
 40
5.500000000000227
100
AcDbArc
 50
90.0
 51
180.0
  0
ARC
  5
269
330
1F
100
AcDbEntity
  8
0
  6
Continuous
 62
     7
370
    25
100
AcDbCircle
 10
507.4183221581
 20
574.2992471045
 30
0.0
 40
2.74052730329646
100
AcDbArc
 50
270.0
 51
0.0
  0
LINE
  5
26A
330
1F
100
AcDbEntity
  8
0
  6
Continuous
 62
     7
370
    25
100
AcDbLine
 10
422.1574727222
 20
571.5587198012
 30
0.0
 11
507.4183221581
 21
571.5587198012
 31
0.0
  0
ARC
  5
26B
330
1F
100
AcDbEntity
  8
0
  6
Continuous
 62
     7
370
    25
100
AcDbCircle
 10
422.1574727222
 20
574.2992471045
 30
0.0
 40
2.740527303296631
100
AcDbArc
 50
180.0
 51
270.0
  0
LINE
  5
26C
330
1F
100
AcDbEntity
  8
0
  6
Continuous
 62
     7
370
    25
100
AcDbLine
 10
419.4169454189
 20
659.5600965404
 30
0.0
 11
419.4169454189
 21
574.2992471045
 31
0.0
  0
ARC
  5
26D
330
1F
100
AcDbEntity
  8
0
  6
Continuous
 62
     7
370
    25
100
AcDbCircle
 10
422.1574727222
 20
659.5600965404
 30
0.0
 40
2.740527303297142
100
AcDbArc
 50
90.0
 51
180.0
  0
LINE
  5
26E
330
1F
100
AcDbEntity
  8
0
  6
Continuous
 62
     7
370
    25
100
AcDbLine
 10
507.4183221581
 20
662.3006238437
 30
0.0
 11
422.1574727222
 21
662.3006238437
 31
0.0
  0
ARC
  5
26F
330
1F
100
AcDbEntity
  8
0
  6
Continuous
 62
     7
370
    25
100
AcDbCircle
 10
507.4183221581
 20
659.5600965404
 30
0.0
 40
2.740527303297199
100
AcDbArc
 50
0.0
 51
90.0
  0
LINE
  5
270
330
1F
100
AcDbEntity
  8
0
  6
Continuous
 62
     7
370
    25
100
AcDbLine
 10
510.1588494614
 20
574.2992471045
 30
0.0
 11
510.1588494614
 21
659.5600965404
 31
0.0
  0
ARC
  5
271
330
1F
100
AcDbEntity
  8
0
  6
Continuous
 62
     7
370
    25
100
AcDbCircle
 10
504.8282331936
 20
571.1678013184
 30
0.0
 40
2.619423238804881
100
AcDbArc
 50
318.4284910908
 51
8.5827922009
  0
LINE
  5
272
330
1F
100
AcDbEntity
  8
0
  6
Continuous
 62
     7
370
    25
100
AcDbLine
 10
506.7878974401
 20
569.4296718224
 30
0.0
 11
422.7878974401
 21
569.4296718224
 31
0.0
  0
ARC
  5
273
330
1F
100
AcDbEntity
  8
0
  6
Continuous
 62
     7
370
    25
100
AcDbCircle
 10
424.7475616866
 20
571.1678013184
 30
0.0
 40
2.619423238804391
100
AcDbArc
 50
171.4172077991
 51
221.5715089093
  0
LINE
  5
274
330
1F
100
AcDbEntity
  8
0
  6
Continuous
 62
     7
370
    25
100
AcDbLine
 10
417.2878974401
 20
574.9296718224
 30
0.0
 11
417.2878974401
 21
658.9296718224
 31
0.0
  0
ARC
  5
275
330
1F
100
AcDbEntity
  8
0
  6
Continuous
 62
     7
370
    25
100
AcDbCircle
 10
419.0260269361
 20
656.9700075759
 30
0.0
 40
2.61942323880244
100
AcDbArc
 50
81.4172077991
 51
131.5715089093
  0
ARC
  5
276
330
1F
100
AcDbEntity
  8
0
  6
Continuous
 62
     7
370
    25
100
AcDbCircle
 10
419.0260269361
 20
576.8893360689
 30
0.0
 40
2.619423238801788
100
AcDbArc
 50
228.4284910907
 51
278.5827922009
  0
ARC
  5
277
330
1F
100
AcDbEntity
  8
0
  6
Continuous
 62
     7
370
    25
100
AcDbCircle
 10
510.5497679441
 20
656.9700075759
 30
0.0
 40
2.61942323880381
100
AcDbArc
 50
48.4284910907
 51
98.5827922009
  0
LINE
  5
278
330
1F
100
AcDbEntity
  8
0
  6
Continuous
 62
     7
370
    25
100
AcDbLine
 10
512.2878974401
 20
658.9296718224
 30
0.0
 11
512.2878974401
 21
574.9296718224
 31
0.0
  0
ARC
  5
279
330
1F
100
AcDbEntity
  8
0
  6
Continuous
 62
     7
370
    25
100
AcDbCircle
 10
510.5497679441
 20
576.8893360689
 30
0.0
 40
2.619423238804065
100
AcDbArc
 50
261.4172077991
 51
311.5715089093
  0
LINE
  5
27A
330
1F
100
AcDbEntity
  8
0
  6
Continuous
 62
     7
370
    25
100
AcDbLine
 10
422.7878974401
 20
664.4296718224
 30
0.0
 11
506.7878974401
 21
664.4296718224
 31
0.0
  0
ARC
  5
27B
330
1F
100
AcDbEntity
  8
0
  6
Continuous
 62
     7
370
    25
100
AcDbCircle
 10
504.8282331936
 20
662.6915423264
 30
0.0
 40
2.619423238802846
100
AcDbArc
 50
351.4172077991
 51
41.5715089093
  0
ARC
  5
27C
330
1F
100
AcDbEntity
  8
0
  6
Continuous
 62
     7
370
    25
100
AcDbCircle
 10
424.7475616866
 20
662.6915423264
 30
0.0
 40
2.619423238802483
100
AcDbArc
 50
138.4284910907
 51
188.5827922009
  0
ARC
  5
27D
330
1F
100
AcDbEntity
  8
0
  6
Continuous
 62
     7
370
    25
100
AcDbCircle
 10
422.7878974401
 20
658.9296718224
 30
0.0
 40
5.500000000000455
100
AcDbArc
 50
90.0
 51
180.0
  0
ARC
  5
27E
330
1F
100
AcDbEntity
  8
0
  6
Continuous
 62
     7
370
    25
100
AcDbCircle
 10
506.7878974401
 20
658.9296718224
 30
0.0
 40
5.500000000000114
100
AcDbArc
 50
360.0
 51
90.0
  0
ARC
  5
27F
330
1F
100
AcDbEntity
  8
0
  6
Continuous
 62
     7
370
    25
100
AcDbCircle
 10
422.7878974401
 20
574.9296718224
 30
0.0
 40
5.499999999999943
100
AcDbArc
 50
180.0
 51
270.0
  0
ARC
  5
280
330
1F
100
AcDbEntity
  8
0
  6
Continuous
 62
     7
370
    25
100
AcDbCircle
 10
506.7878974401
 20
574.9296718224
 30
0.0
 40
5.500000000000057
100
AcDbArc
 50
270.0
 51
0.0
  0
CIRCLE
  5
281
330
1F
100
AcDbEntity
  8
0
  6
Continuous
 62
     7
370
    25
100
AcDbCircle
 10
464.7878974401
 20
616.9296718224
 30
0.0
 40
8.600000000000023
  0
CIRCLE
  5
282
330
1F
100
AcDbEntity
  8
0
  6
Continuous
 62
     7
370
    25
100
AcDbCircle
 10
464.7878974401
 20
616.9296718224
 30
0.0
 40
11.09999999999997
  0
CIRCLE
  5
283
330
1F
100
AcDbEntity
  8
0
  6
Continuous
 62
     7
370
    25
100
AcDbCircle
 10
-245.2121025599
 20
616.9296718224
 30
0.0
 40
8.599999999999994
  0
CIRCLE
  5
284
330
1F
100
AcDbEntity
  8
0
  6
Continuous
 62
     7
370
    25
100
AcDbCircle
 10
-245.2121025599
 20
616.9296718224
 30
0.0
 40
11.09999999999999
  0
LINE
  5
285
330
1F
100
AcDbEntity
  8
0
  6
Continuous
 62
     7
370
    25
100
AcDbLine
 10
395.4128974401
 20
629.6796718224
 30
0.0
 11
400.1628974401
 21
629.6796718224
 31
0.0
  0
LINE
  5
286
330
1F
100
AcDbEntity
  8
0
  6
Continuous
 62
     7
370
    25
100
AcDbLine
 10
393.0378974401
 20
627.3096718224
 30
0.0
 11
402.5378974401
 21
627.3096718224
 31
0.0
  0
LINE
  5
287
330
1F
100
AcDbEntity
  8
0
  6
Continuous
 62
     7
370
    25
100
AcDbLine
 10
-180.5871025599
 20
629.6796718224
 30
0.0
 11
-175.8371025599
 21
629.6796718224
 31
0.0
  0
LINE
  5
288
330
1F
100
AcDbEntity
  8
0
  6
Continuous
 62
     7
370
    25
100
AcDbLine
 10
-182.9621025599
 20
627.3096718224
 30
0.0
 11
-173.4621025599
 21
627.3096718224
 31
0.0
  0
LINE
  5
289
330
1F
100
AcDbEntity
  8
0
  6
Continuous
 62
     7
370
    25
100
AcDbLine
 10
-197.4621025599
 20
619.880464386
 30
0.0
 11
-197.4621025599
 21
624.2796718224
 31
0.0
  0
LINE
  5
28A
330
1F
100
AcDbEntity
  8
0
  6
Continuous
 62
     7
370
    25
100
AcDbLine
 10
-197.4621025599
 20
616.5796718224
 30
0.0
 11
-197.4621025599
 21
619.880464386
 31
0.0
  0
LINE
  5
28B
330
1F
100
AcDbEntity
  8
0
  6
Continuous
 62
     7
370
    25
100
AcDbLine
 10
-196.9621025599
 20
619.880464386
 30
0.0
 11
-196.9621025599
 21
624.2796718224
 31
0.0
  0
LINE
  5
28C
330
1F
100
AcDbEntity
  8
0
  6
Continuous
 62
     7
370
    25
100
AcDbLine
 10
-196.9621025599
 20
616.5796718224
 30
0.0
 11
-196.9621025599
 21
619.880464386
 31
0.0
  0
LINE
  5
28D
330
1F
100
AcDbEntity
  8
0
  6
Continuous
 62
     7
370
    25
100
AcDbLine
 10
-196.4172957792
 20
618.3405598457
 30
0.0
 11
-196.4172957792
 21
620.1087064375
 31
0.0
  0
LINE
  5
28E
330
1F
100
AcDbEntity
  8
0
  6
Continuous
 62
     7
370
    25
100
AcDbLine
 10
-196.4172957792
 20
618.1796718224
 30
0.0
 11
-196.4172957792
 21
618.3405598457
 31
0.0
  0
LINE
  5
28F
330
1F
100
AcDbEntity
  8
0
  6
Continuous
 62
     7
370
    25
100
AcDbLine
 10
-196.4172957792
 20
622.1978184143
 30
0.0
 11
-196.4172957792
 21
622.6796718224
 31
0.0
  0
LINE
  5
290
330
1F
100
AcDbEntity
  8
0
  6
Continuous
 62
     7
370
    25
100
AcDbLine
 10
-196.4172957792
 20
620.1087064375
 30
0.0
 11
-196.4172957792
 21
622.1978184143
 31
0.0
  0
LINE
  5
291
330
1F
100
AcDbEntity
  8
0
  6
Continuous
 62
     7
370
    25
100
AcDbLine
 10
415.9930906594
 20
618.4443671647
 30
0.0
 11
415.9930906594
 21
618.1796718224
 31
0.0
  0
LINE
  5
292
330
1F
100
AcDbEntity
  8
0
  6
Continuous
 62
     7
370
    25
100
AcDbLine
 10
415.9930906594
 20
620.353970453
 30
0.0
 11
415.9930906594
 21
618.4443671647
 31
0.0
  0
LINE
  5
293
330
1F
100
AcDbEntity
  8
0
  6
Continuous
 62
     7
370
    25
100
AcDbLine
 10
415.9930906594
 20
622.3392751107
 30
0.0
 11
415.9930906594
 21
620.353970453
 31
0.0
  0
LINE
  5
294
330
1F
100
AcDbEntity
  8
0
  6
Continuous
 62
     7
370
    25
100
AcDbLine
 10
415.9930906594
 20
622.6796718224
 30
0.0
 11
415.9930906594
 21
622.3392751107
 31
0.0
  0
LINE
  5
295
330
1F
100
AcDbEntity
  8
0
  6
Continuous
 62
     7
370
    25
100
AcDbLine
 10
416.5378974401
 20
624.2796718224
 30
0.0
 11
416.5378974401
 21
616.5796718224
 31
0.0
  0
LINE
  5
296
330
1F
100
AcDbEntity
  8
0
  6
Continuous
 62
     7
370
    25
100
AcDbLine
 10
417.0378974401
 20
624.2796718224
 30
0.0
 11
417.0378974401
 21
616.5796718224
 31
0.0
  0
LINE
  5
297
330
1F
100
AcDbEntity
  8
0
  6
Continuous
 62
     7
370
    25
100
AcDbLine
 10
-184.1114952785
 20
611.5505766495
 30
0.0
 11
-170.7121025599
 21
611.5505766495
 31
0.0
  0
LINE
  5
298
330
1F
100
AcDbEntity
  8
0
  6
Continuous
 62
     7
370
    25
100
AcDbLine
 10
-185.7121025599
 20
611.5505766495
 30
0.0
 11
-184.1114952785
 21
611.5505766495
 31
0.0
  0
LINE
  5
299
330
1F
100
AcDbEntity
  8
0
  6
Continuous
 62
     7
370
    25
100
AcDbLine
 10
-183.7182024306
 20
611.0505766495
 30
0.0
 11
-185.2121025599
 21
611.0505766495
 31
0.0
  0
LINE
  5
29A
330
1F
100
AcDbEntity
  8
0
  6
Continuous
 62
     7
370
    25
100
AcDbLine
 10
-171.2121025599
 20
611.0505766495
 30
0.0
 11
-183.7182024306
 21
611.0505766495
 31
0.0
  0
LINE
  5
29B
330
1F
100
AcDbEntity
  8
0
  6
Continuous
 62
     7
370
    25
100
AcDbLine
 10
390.2878974401
 20
611.5505766495
 30
0.0
 11
405.2878974401
 21
611.5505766495
 31
0.0
  0
LINE
  5
29C
330
1F
100
AcDbEntity
  8
0
  6
Continuous
 62
     7
370
    25
100
AcDbLine
 10
404.7878974401
 20
611.0505766495
 30
0.0
 11
390.7878974401
 21
611.0505766495
 31
0.0
  0
LINE
  5
29D
330
1F
100
AcDbEntity
  8
0
  6
Continuous
 62
     7
370
    25
100
AcDbLine
 10
417.2878974401
 20
625.4296718224
 30
0.0
 11
416.5611111896
 21
625.4296718224
 31
0.0
  0
LINE
  5
29E
330
1F
100
AcDbEntity
  8
0
  6
Continuous
 62
     7
370
    25
100
AcDbLine
 10
416.5611111896
 20
626.9296718224
 30
0.0
 11
416.5611111896
 21
625.4296718224
 31
0.0
  0
LINE
  5
29F
330
1F
100
AcDbEntity
  8
0
  6
Continuous
 62
     7
370
    25
100
AcDbLine
 10
416.5611111896
 20
626.9296718224
 30
0.0
 11
417.2878974401
 21
626.9296718224
 31
0.0
  0
LINE
  5
2A0
330
1F
100
AcDbEntity
  8
0
  6
Continuous
 62
     7
370
    25
100
AcDbLine
 10
415.2157656016
 20
625.4296718224
 30
0.0
 11
415.2157656016
 21
626.9296718224
 31
0.0
  0
LINE
  5
2A1
330
1F
100
AcDbEntity
  8
0
  6
Continuous
 62
     7
370
    25
100
AcDbLine
 10
416.5611111896
 20
625.4296718224
 30
0.0
 11
415.2157656016
 21
625.4296718224
 31
0.0
  0
LINE
  5
2A2
330
1F
100
AcDbEntity
  8
0
  6
Continuous
 62
     7
370
    25
100
AcDbLine
 10
415.2157656016
 20
626.9296718224
 30
0.0
 11
416.5611111896
 21
626.9296718224
 31
0.0
  0
LINE
  5
2A3
330
1F
100
AcDbEntity
  8
0
  6
Continuous
 62
     7
370
    25
100
AcDbLine
 10
390.6667793416
 20
626.9296718224
 30
0.0
 11
390.6667793416
 21
625.4296718224
 31
0.0
  0
LINE
  5
2A4
330
1F
100
AcDbEntity
  8
0
  6
Continuous
 62
     7
370
    25
100
AcDbLine
 10
415.2157656016
 20
625.4296718224
 30
0.0
 11
411.7878974401
 21
625.4296718224
 31
0.0
  0
LINE
  5
2A5
330
1F
100
AcDbEntity
  8
0
  6
Continuous
 62
     7
370
    25
100
AcDbLine
 10
390.6667793416
 20
626.9296718224
 30
0.0
 11
415.2157656016
 21
626.9296718224
 31
0.0
  0
LINE
  5
2A6
330
1F
100
AcDbEntity
  8
0
  6
Continuous
 62
     7
370
    25
100
AcDbLine
 10
387.4982519875
 20
626.9296718224
 30
0.0
 11
390.6667793416
 21
626.9296718224
 31
0.0
  0
LINE
  5
2A7
330
1F
100
AcDbEntity
  8
0
  6
Continuous
 62
     7
370
    25
100
AcDbLine
 10
-195.6399707214
 20
626.9296718224
 30
0.0
 11
-195.6399707214
 21
625.4296718224
 31
0.0
  0
LINE
  5
2A8
330
1F
100
AcDbEntity
  8
0
  6
Continuous
 62
     7
370
    25
100
AcDbLine
 10
-196.9853163094
 20
625.4296718224
 30
0.0
 11
-196.9853163094
 21
626.9296718224
 31
0.0
  0
LINE
  5
2A9
330
1F
100
AcDbEntity
  8
0
  6
Continuous
 62
     7
370
    25
100
AcDbLine
 10
-195.6399707214
 20
625.4296718224
 30
0.0
 11
-196.9853163094
 21
625.4296718224
 31
0.0
  0
LINE
  5
2AA
330
1F
100
AcDbEntity
  8
0
  6
Continuous
 62
     7
370
    25
100
AcDbLine
 10
-196.9853163094
 20
626.9296718224
 30
0.0
 11
-195.6399707214
 21
626.9296718224
 31
0.0
  0
LINE
  5
2AB
330
1F
100
AcDbEntity
  8
0
  6
Continuous
 62
     7
370
    25
100
AcDbLine
 10
-197.7121025599
 20
625.4296718224
 30
0.0
 11
-196.9853163094
 21
625.4296718224
 31
0.0
  0
LINE
  5
2AC
330
1F
100
AcDbEntity
  8
0
  6
Continuous
 62
     7
370
    25
100
AcDbLine
 10
-196.9853163094
 20
626.9296718224
 30
0.0
 11
-197.7121025599
 21
626.9296718224
 31
0.0
  0
LINE
  5
2AD
330
1F
100
AcDbEntity
  8
0
  6
Continuous
 62
     7
370
    25
100
AcDbLine
 10
-171.0909844614
 20
625.4296718224
 30
0.0
 11
-171.0909844614
 21
626.9296718224
 31
0.0
  0
LINE
  5
2AE
330
1F
100
AcDbEntity
  8
0
  6
Continuous
 62
     7
370
    25
100
AcDbLine
 10
-192.2121025599
 20
625.4296718224
 30
0.0
 11
-195.6399707214
 21
625.4296718224
 31
0.0
  0
LINE
  5
2AF
330
1F
100
AcDbEntity
  8
0
  6
Continuous
 62
     7
370
    25
100
AcDbLine
 10
-195.6399707214
 20
626.9296718224
 30
0.0
 11
-171.0909844614
 21
626.9296718224
 31
0.0
  0
LINE
  5
2B0
330
1F
100
AcDbEntity
  8
0
  6
Continuous
 62
     7
370
    25
100
AcDbLine
 10
-171.0909844614
 20
626.9296718224
 30
0.0
 11
-167.9224571073
 21
626.9296718224
 31
0.0
  0
LINE
  5
2B1
330
1F
100
AcDbEntity
  8
0
  6
Continuous
 62
     7
370
    25
100
AcDbLine
 10
165.0378974401
 20
632.1496718224
 30
0.0
 11
174.5378974401
 21
632.1496718224
 31
0.0
  0
LINE
  5
2B2
330
1F
100
AcDbEntity
  8
0
  6
Continuous
 62
     7
370
    25
100
AcDbLine
 10
174.5378974401
 20
634.2796718224
 30
0.0
 11
165.0378974401
 21
634.2796718224
 31
0.0
  0
LINE
  5
2B3
330
1F
100
AcDbEntity
  8
0
  6
Continuous
 62
     7
370
    25
100
AcDbLine
 10
225.0378974401
 20
632.1496718224
 30
0.0
 11
234.5378974401
 21
632.1496718224
 31
0.0
  0
LINE
  5
2B4
330
1F
100
AcDbEntity
  8
0
  6
Continuous
 62
     7
370
    25
100
AcDbLine
 10
234.5378974401
 20
634.2796718224
 30
0.0
 11
225.0378974401
 21
634.2796718224
 31
0.0
  0
LINE
  5
2B5
330
1F
100
AcDbEntity
  8
0
  6
Continuous
 62
     7
370
    25
100
AcDbLine
 10
45.0378974401
 20
632.1496718224
 30
0.0
 11
54.5378974401
 21
632.1496718224
 31
0.0
  0
LINE
  5
2B6
330
1F
100
AcDbEntity
  8
0
  6
Continuous
 62
     7
370
    25
100
AcDbLine
 10
54.5378974401
 20
634.2796718224
 30
0.0
 11
45.0378974401
 21
634.2796718224
 31
0.0
  0
LINE
  5
2B7
330
1F
100
AcDbEntity
  8
0
  6
Continuous
 62
     7
370
    25
100
AcDbLine
 10
-14.9621025599
 20
632.1496718224
 30
0.0
 11
-5.4621025599
 21
632.1496718224
 31
0.0
  0
LINE
  5
2B8
330
1F
100
AcDbEntity
  8
0
  6
Continuous
 62
     7
370
    25
100
AcDbLine
 10
-5.4621025599
 20
634.2796718224
 30
0.0
 11
-14.9621025599
 21
634.2796718224
 31
0.0
  0
LINE
  5
2B9
330
1F
100
AcDbEntity
  8
0
  6
Continuous
 62
     7
370
    25
100
AcDbLine
 10
105.0378974401
 20
632.1496718224
 30
0.0
 11
114.5378974401
 21
632.1496718224
 31
0.0
  0
LINE
  5
2BA
330
1F
100
AcDbEntity
  8
0
  6
Continuous
 62
     7
370
    25
100
AcDbLine
 10
114.5378974401
 20
634.2796718224
 30
0.0
 11
105.0378974401
 21
634.2796718224
 31
0.0
  0
LINE
  5
2BB
330
1F
100
AcDbEntity
  8
0
  6
Continuous
 62
     7
370
    25
100
AcDbLine
 10
-64.9621025599
 20
632.1496718224
 30
0.0
 11
-55.4621025599
 21
632.1496718224
 31
0.0
  0
LINE
  5
2BC
330
1F
100
AcDbEntity
  8
0
  6
Continuous
 62
     7
370
    25
100
AcDbLine
 10
-55.4621025599
 20
634.2796718224
 30
0.0
 11
-64.9621025599
 21
634.2796718224
 31
0.0
  0
LINE
  5
2BD
330
1F
100
AcDbEntity
  8
0
  6
Continuous
 62
     7
370
    25
100
AcDbLine
 10
275.0378974401
 20
632.1496718224
 30
0.0
 11
284.5378974401
 21
632.1496718224
 31
0.0
  0
LINE
  5
2BE
330
1F
100
AcDbEntity
  8
0
  6
Continuous
 62
     7
370
    25
100
AcDbLine
 10
284.5378974401
 20
634.2796718224
 30
0.0
 11
275.0378974401
 21
634.2796718224
 31
0.0
  0
LINE
  5
2BF
330
1F
100
AcDbEntity
  8
0
  6
Continuous
 62
     7
370
    25
100
AcDbLine
 10
56.4258188402
 20
596.6645444046
 30
0.0
 11
43.14997604
 21
596.6645444046
 31
0.0
  0
LINE
  5
2C0
330
1F
100
AcDbEntity
  8
0
  6
Continuous
 62
     7
370
    25
100
AcDbLine
 10
176.4258188402
 20
596.6645444046
 30
0.0
 11
163.14997604
 21
596.6645444046
 31
0.0
  0
LINE
  5
2C1
330
1F
100
AcDbEntity
  8
0
  6
Continuous
 62
     7
370
    25
100
AcDbLine
 10
236.4258188402
 20
596.6645444046
 30
0.0
 11
223.14997604
 21
596.6645444046
 31
0.0
  0
LINE
  5
2C2
330
1F
100
AcDbEntity
  8
0
  6
Continuous
 62
     7
370
    25
100
AcDbLine
 10
286.4258188402
 20
596.6645444046
 30
0.0
 11
273.14997604
 21
596.6645444046
 31
0.0
  0
LINE
  5
2C3
330
1F
100
AcDbEntity
  8
0
  6
Continuous
 62
     7
370
    25
100
AcDbLine
 10
116.4258188402
 20
596.6645444046
 30
0.0
 11
103.14997604
 21
596.6645444046
 31
0.0
  0
LINE
  5
2C4
330
1F
100
AcDbEntity
  8
0
  6
Continuous
 62
     7
370
    25
100
AcDbLine
 10
-3.5741811598
 20
596.6645444046
 30
0.0
 11
-16.85002396
 21
596.6645444046
 31
0.0
  0
LINE
  5
2C5
330
1F
100
AcDbEntity
  8
0
  6
Continuous
 62
     7
370
    25
100
AcDbLine
 10
-53.5741811598
 20
596.6645444046
 30
0.0
 11
-66.85002396
 21
596.6645444046
 31
0.0
  0
LINE
  5
2C6
330
1F
100
AcDbEntity
  8
0
  6
Continuous
 62
     7
370
    25
100
AcDbLine
 10
215.2878974401
 20
597.4296718224
 30
0.0
 11
222.6892141421
 21
597.4296718224
 31
0.0
  0
LINE
  5
2C7
330
1F
100
AcDbEntity
  8
0
  6
Continuous
 62
     7
370
    25
100
AcDbLine
 10
-21.560997697
 20
597.4296718224
 30
0.0
 11
-19.711345545
 21
597.4296718224
 31
0.0
  0
LINE
  5
2C8
330
1F
100
AcDbEntity
  8
0
  6
Continuous
 62
     7
370
    25
100
AcDbLine
 10
-40.6139552926
 20
597.4296718224
 30
0.0
 11
-24.7121025599
 21
597.4296718224
 31
0.0
  0
LINE
  5
2C9
330
1F
100
AcDbEntity
  8
0
  6
Continuous
 62
     7
370
    25
100
AcDbLine
 10
-53.1134192618
 20
597.4296718224
 30
0.0
 11
-40.6139552926
 21
597.4296718224
 31
0.0
  0
LINE
  5
2CA
330
1F
100
AcDbEntity
  8
0
  6
Continuous
 62
     7
370
    25
100
AcDbLine
 10
19.3860447074
 20
597.4296718224
 30
0.0
 11
35.2878974401
 21
597.4296718224
 31
0.0
  0
LINE
  5
2CB
330
1F
100
AcDbEntity
  8
0
  6
Continuous
 62
     7
370
    25
100
AcDbLine
 10
4.2878974401
 20
597.4296718224
 30
0.0
 11
19.3860447074
 21
597.4296718224
 31
0.0
  0
LINE
  5
2CC
330
1F
100
AcDbEntity
  8
0
  6
Continuous
 62
     7
370
    25
100
AcDbLine
 10
181.2895480622
 20
597.4296718224
 30
0.0
 11
184.2878974401
 21
597.4296718224
 31
0.0
  0
LINE
  5
2CD
330
1F
100
AcDbEntity
  8
0
  6
Continuous
 62
     7
370
    25
100
AcDbLine
 10
79.3860447074
 20
597.4296718224
 30
0.0
 11
95.2878974401
 21
597.4296718224
 31
0.0
  0
LINE
  5
2CE
330
1F
100
AcDbEntity
  8
0
  6
Continuous
 62
     7
370
    25
100
AcDbLine
 10
64.2878974401
 20
597.4296718224
 30
0.0
 11
79.3860447074
 21
597.4296718224
 31
0.0
  0
LINE
  5
2CF
330
1F
100
AcDbEntity
  8
0
  6
Continuous
 62
     7
370
    25
100
AcDbLine
 10
-24.7121025599
 20
597.4296718224
 30
0.0
 11
-21.560997697
 21
597.4296718224
 31
0.0
  0
LINE
  5
2D0
330
1F
100
AcDbEntity
  8
0
  6
Continuous
 62
     7
370
    25
100
AcDbLine
 10
199.3860447074
 20
597.4296718224
 30
0.0
 11
215.2878974401
 21
597.4296718224
 31
0.0
  0
LINE
  5
2D1
330
1F
100
AcDbEntity
  8
0
  6
Continuous
 62
     7
370
    25
100
AcDbLine
 10
184.2878974401
 20
597.4296718224
 30
0.0
 11
199.3860447074
 21
597.4296718224
 31
0.0
  0
LINE
  5
2D2
330
1F
100
AcDbEntity
  8
0
  6
Continuous
 62
     7
370
    25
100
AcDbLine
 10
139.3860447074
 20
597.4296718224
 30
0.0
 11
155.2878974401
 21
597.4296718224
 31
0.0
  0
LINE
  5
2D3
330
1F
100
AcDbEntity
  8
0
  6
Continuous
 62
     7
370
    25
100
AcDbLine
 10
124.2878974401
 20
597.4296718224
 30
0.0
 11
139.3860447074
 21
597.4296718224
 31
0.0
  0
LINE
  5
2D4
330
1F
100
AcDbEntity
  8
0
  6
Continuous
 62
     7
370
    25
100
AcDbLine
 10
-3.1134192618
 20
597.4296718224
 30
0.0
 11
4.2878974401
 21
597.4296718224
 31
0.0
  0
LINE
  5
2D5
330
1F
100
AcDbEntity
  8
0
  6
Continuous
 62
     7
370
    25
100
AcDbLine
 10
-19.711345545
 20
597.4296718224
 30
0.0
 11
-17.3107858579
 21
597.4296718224
 31
0.0
  0
LINE
  5
2D6
330
1F
100
AcDbEntity
  8
0
  6
Continuous
 62
     7
370
    25
100
AcDbLine
 10
176.8865807382
 20
597.4296718224
 30
0.0
 11
181.2895480622
 21
597.4296718224
 31
0.0
  0
LINE
  5
2D7
330
1F
100
AcDbEntity
  8
0
  6
Continuous
 62
     7
370
    25
100
AcDbLine
 10
155.2878974401
 20
597.4296718224
 30
0.0
 11
162.6892141421
 21
597.4296718224
 31
0.0
  0
LINE
  5
2D8
330
1F
100
AcDbEntity
  8
0
  6
Continuous
 62
     7
370
    25
100
AcDbLine
 10
116.8865807382
 20
597.4296718224
 30
0.0
 11
124.2878974401
 21
597.4296718224
 31
0.0
  0
LINE
  5
2D9
330
1F
100
AcDbEntity
  8
0
  6
Continuous
 62
     7
370
    25
100
AcDbLine
 10
63.3868265573
 20
597.4296718224
 30
0.0
 11
64.2878974401
 21
597.4296718224
 31
0.0
  0
LINE
  5
2DA
330
1F
100
AcDbEntity
  8
0
  6
Continuous
 62
     7
370
    25
100
AcDbLine
 10
56.8865807382
 20
597.4296718224
 30
0.0
 11
63.3868265573
 21
597.4296718224
 31
0.0
  0
LINE
  5
2DB
330
1F
100
AcDbEntity
  8
0
  6
Continuous
 62
     7
370
    25
100
AcDbLine
 10
95.2878974401
 20
597.4296718224
 30
0.0
 11
102.6892141421
 21
597.4296718224
 31
0.0
  0
LINE
  5
2DC
330
1F
100
AcDbEntity
  8
0
  6
Continuous
 62
     7
370
    25
100
AcDbLine
 10
35.2878974401
 20
597.4296718224
 30
0.0
 11
42.6892141421
 21
597.4296718224
 31
0.0
  0
LINE
  5
2DD
330
1F
100
AcDbEntity
  8
0
  6
Continuous
 62
     7
370
    25
100
AcDbLine
 10
199.5091931255
 20
585.3445218035
 30
0.0
 11
210.5378974401
 21
585.3445218035
 31
0.0
  0
LINE
  5
2DE
330
1F
100
AcDbEntity
  8
0
  6
Continuous
 62
     7
370
    25
100
AcDbLine
 10
189.0378974401
 20
585.3445218035
 30
0.0
 11
199.5091931255
 21
585.3445218035
 31
0.0
  0
LINE
  5
2DF
330
1F
100
AcDbEntity
  8
0
  6
Continuous
 62
     7
370
    25
100
AcDbLine
 10
199.5193582793
 20
584.781697862
 30
0.0
 11
210.1458137956
 21
584.781697862
 31
0.0
  0
LINE
  5
2E0
330
1F
100
AcDbEntity
  8
0
  6
Continuous
 62
     7
370
    25
100
AcDbLine
 10
189.4299810846
 20
584.781697862
 30
0.0
 11
199.5193582793
 21
584.781697862
 31
0.0
  0
LINE
  5
2E1
330
1F
100
AcDbEntity
  8
0
  6
Continuous
 62
     7
370
    25
100
AcDbLine
 10
-26.310997697
 20
585.3445218035
 30
0.0
 11
-18.3560822142
 21
585.3445218035
 31
0.0
  0
LINE
  5
2E2
330
1F
100
AcDbEntity
  8
0
  6
Continuous
 62
     7
370
    25
100
AcDbLine
 10
-26.7030813416
 20
584.781697862
 30
0.0
 11
-18.7481658587
 21
584.781697862
 31
0.0
  0
LINE
  5
2E3
330
1F
100
AcDbEntity
  8
0
  6
Continuous
 62
     7
370
    25
100
AcDbLine
 10
108.5378601877
 20
585.3445218035
 30
0.0
 11
117.6422252812
 21
585.3445218035
 31
0.0
  0
LINE
  5
2E4
330
1F
100
AcDbEntity
  8
0
  6
Continuous
 62
     7
370
    25
100
AcDbLine
 10
108.1457765432
 20
584.781697862
 30
0.0
 11
117.2501416367
 21
584.781697862
 31
0.0
  0
LINE
  5
2E5
330
1F
100
AcDbEntity
  8
0
  6
Continuous
 62
     7
370
    25
100
AcDbLine
 10
-29.4621025599
 20
585.3445218035
 30
0.0
 11
-26.310997697
 21
585.3445218035
 31
0.0
  0
LINE
  5
2E6
330
1F
100
AcDbEntity
  8
0
  6
Continuous
 62
     7
370
    25
100
AcDbLine
 10
-29.8541862044
 20
584.781697862
 30
0.0
 11
-26.7030813416
 21
584.781697862
 31
0.0
  0
LINE
  5
2E7
330
1F
100
AcDbEntity
  8
0
  6
Continuous
 62
     7
370
    25
100
AcDbLine
 10
-4.4900498596
 20
585.3445218035
 30
0.0
 11
6.538654455
 21
585.3445218035
 31
0.0
  0
LINE
  5
2E8
330
1F
100
AcDbEntity
  8
0
  6
Continuous
 62
     7
370
    25
100
AcDbLine
 10
-14.961345545
 20
585.3445218035
 30
0.0
 11
-4.4900498596
 21
585.3445218035
 31
0.0
  0
LINE
  5
2E9
330
1F
100
AcDbEntity
  8
0
  6
Continuous
 62
     7
370
    25
100
AcDbLine
 10
-4.4798847058
 20
584.781697862
 30
0.0
 11
6.1465708105
 21
584.781697862
 31
0.0
  0
LINE
  5
2EA
330
1F
100
AcDbEntity
  8
0
  6
Continuous
 62
     7
370
    25
100
AcDbLine
 10
-14.5692619005
 20
584.781697862
 30
0.0
 11
-4.4798847058
 21
584.781697862
 31
0.0
  0
LINE
  5
2EB
330
1F
100
AcDbEntity
  8
0
  6
Continuous
 62
     7
370
    25
100
AcDbLine
 10
165.5108437476
 20
585.3445218035
 30
0.0
 11
176.5395480622
 21
585.3445218035
 31
0.0
  0
LINE
  5
2EC
330
1F
100
AcDbEntity
  8
0
  6
Continuous
 62
     7
370
    25
100
AcDbLine
 10
155.0395480622
 20
585.3445218035
 30
0.0
 11
165.5108437476
 21
585.3445218035
 31
0.0
  0
LINE
  5
2ED
330
1F
100
AcDbEntity
  8
0
  6
Continuous
 62
     7
370
    25
100
AcDbLine
 10
165.5210089014
 20
584.781697862
 30
0.0
 11
176.1474644177
 21
584.781697862
 31
0.0
  0
LINE
  5
2EE
330
1F
100
AcDbEntity
  8
0
  6
Continuous
 62
     7
370
    25
100
AcDbLine
 10
155.4316317067
 20
584.781697862
 30
0.0
 11
165.5210089014
 21
584.781697862
 31
0.0
  0
LINE
  5
2EF
330
1F
100
AcDbEntity
  8
0
  6
Continuous
 62
     7
370
    25
100
AcDbLine
 10
121.0387041249
 20
585.3445218035
 30
0.0
 11
129.0378974401
 21
585.3445218035
 31
0.0
  0
LINE
  5
2F0
330
1F
100
AcDbEntity
  8
0
  6
Continuous
 62
     7
370
    25
100
AcDbLine
 10
121.4307877694
 20
584.781697862
 30
0.0
 11
129.4299810846
 21
584.781697862
 31
0.0
  0
LINE
  5
2F1
330
1F
100
AcDbEntity
  8
0
  6
Continuous
 62
     7
370
    25
100
AcDbLine
 10
63.5099749754
 20
585.3445218035
 30
0.0
 11
69.0378974401
 21
585.3445218035
 31
0.0
  0
LINE
  5
2F2
330
1F
100
AcDbEntity
  8
0
  6
Continuous
 62
     7
370
    25
100
AcDbLine
 10
53.03867929
 20
585.3445218035
 30
0.0
 11
63.5099749754
 21
585.3445218035
 31
0.0
  0
LINE
  5
2F3
330
1F
100
AcDbEntity
  8
0
  6
Continuous
 62
     7
370
    25
100
AcDbLine
 10
63.5201401292
 20
584.781697862
 30
0.0
 11
69.4299810846
 21
584.781697862
 31
0.0
  0
LINE
  5
2F4
330
1F
100
AcDbEntity
  8
0
  6
Continuous
 62
     7
370
    25
100
AcDbLine
 10
53.4307629345
 20
584.781697862
 30
0.0
 11
63.5201401292
 21
584.781697862
 31
0.0
  0
LINE
  5
2F5
330
1F
100
AcDbEntity
  8
0
  6
Continuous
 62
     7
370
    25
100
AcDbLine
 10
6.538654455
 20
585.3445218035
 30
0.0
 11
9.0378974401
 21
585.3445218035
 31
0.0
  0
LINE
  5
2F6
330
1F
100
AcDbEntity
  8
0
  6
Continuous
 62
     7
370
    25
100
AcDbLine
 10
6.1465708105
 20
584.781697862
 30
0.0
 11
9.4299810846
 21
584.781697862
 31
0.0
  0
LINE
  5
2F7
330
1F
100
AcDbEntity
  8
0
  6
Continuous
 62
     7
370
    25
100
AcDbLine
 10
97.5091558731
 20
585.3445218035
 30
0.0
 11
108.5378601877
 21
585.3445218035
 31
0.0
  0
LINE
  5
2F8
330
1F
100
AcDbEntity
  8
0
  6
Continuous
 62
     7
370
    25
100
AcDbLine
 10
90.5378974401
 20
585.3445218035
 30
0.0
 11
97.5091558731
 21
585.3445218035
 31
0.0
  0
LINE
  5
2F9
330
1F
100
AcDbEntity
  8
0
  6
Continuous
 62
     7
370
    25
100
AcDbLine
 10
97.5193210269
 20
584.781697862
 30
0.0
 11
108.1457765432
 21
584.781697862
 31
0.0
  0
LINE
  5
2FA
330
1F
100
AcDbEntity
  8
0
  6
Continuous
 62
     7
370
    25
100
AcDbLine
 10
90.1458137956
 20
584.781697862
 30
0.0
 11
97.5193210269
 21
584.781697862
 31
0.0
  0
LINE
  5
2FB
330
1F
100
AcDbEntity
  8
0
  6
Continuous
 62
     7
370
    25
100
AcDbLine
 10
30.5378974401
 20
585.3445218035
 30
0.0
 11
40.5394983923
 21
585.3445218035
 31
0.0
  0
LINE
  5
2FC
330
1F
100
AcDbEntity
  8
0
  6
Continuous
 62
     7
370
    25
100
AcDbLine
 10
30.1458137956
 20
584.781697862
 30
0.0
 11
40.1474147478
 21
584.781697862
 31
0.0
  0
LINE
  5
2FD
330
1F
100
AcDbEntity
  8
0
  6
Continuous
 62
     7
370
    25
100
AcDbLine
 10
40.5394983923
 20
585.3445218035
 30
0.0
 11
49.6422004462
 21
585.3445218035
 31
0.0
  0
LINE
  5
2FE
330
1F
100
AcDbEntity
  8
0
  6
Continuous
 62
     7
370
    25
100
AcDbLine
 10
40.1474147478
 20
584.781697862
 30
0.0
 11
49.2501168017
 21
584.781697862
 31
0.0
  0
LINE
  5
2FF
330
1F
100
AcDbEntity
  8
0
  6
Continuous
 62
     7
370
    25
100
AcDbLine
 10
150.5378974401
 20
585.3445218035
 30
0.0
 11
151.6414061789
 21
585.3445218035
 31
0.0
  0
LINE
  5
300
330
1F
100
AcDbEntity
  8
0
  6
Continuous
 62
     7
370
    25
100
AcDbLine
 10
150.1458137956
 20
584.781697862
 30
0.0
 11
151.2493225344
 21
584.781697862
 31
0.0
  0
LINE
  5
301
330
1F
100
AcDbEntity
  8
0
  6
Continuous
 62
     7
370
    25
100
AcDbLine
 10
176.5395480622
 20
585.3445218035
 30
0.0
 11
185.6422501161
 21
585.3445218035
 31
0.0
  0
LINE
  5
302
330
1F
100
AcDbEntity
  8
0
  6
Continuous
 62
     7
370
    25
100
AcDbLine
 10
176.1474644177
 20
584.781697862
 30
0.0
 11
185.2501664716
 21
584.781697862
 31
0.0
  0
LINE
  5
303
330
1F
100
AcDbEntity
  8
0
  6
Continuous
 62
     7
370
    25
100
AcDbLine
 10
210.5378974401
 20
585.3445218035
 30
0.0
 11
219.6430940534
 21
585.3445218035
 31
0.0
  0
LINE
  5
304
330
1F
100
AcDbEntity
  8
0
  6
Continuous
 62
     7
370
    25
100
AcDbLine
 10
210.1458137956
 20
584.781697862
 30
0.0
 11
219.2510104089
 21
584.781697862
 31
0.0
  0
LINE
  5
305
330
1F
100
AcDbEntity
  8
0
  6
Continuous
 62
     7
370
    25
100
AcDbLine
 10
79.5091931255
 20
585.3445218035
 30
0.0
 11
90.5378974401
 21
585.3445218035
 31
0.0
  0
LINE
  5
306
330
1F
100
AcDbEntity
  8
0
  6
Continuous
 62
     7
370
    25
100
AcDbLine
 10
69.0378974401
 20
585.3445218035
 30
0.0
 11
79.5091931255
 21
585.3445218035
 31
0.0
  0
LINE
  5
307
330
1F
100
AcDbEntity
  8
0
  6
Continuous
 62
     7
370
    25
100
AcDbLine
 10
79.5193582793
 20
584.781697862
 30
0.0
 11
90.1458137956
 21
584.781697862
 31
0.0
  0
LINE
  5
308
330
1F
100
AcDbEntity
  8
0
  6
Continuous
 62
     7
370
    25
100
AcDbLine
 10
69.4299810846
 20
584.781697862
 30
0.0
 11
79.5193582793
 21
584.781697862
 31
0.0
  0
LINE
  5
309
330
1F
100
AcDbEntity
  8
0
  6
Continuous
 62
     7
370
    25
100
AcDbLine
 10
-40.4908068745
 20
585.3445218035
 30
0.0
 11
-29.4621025599
 21
585.3445218035
 31
0.0
  0
LINE
  5
30A
330
1F
100
AcDbEntity
  8
0
  6
Continuous
 62
     7
370
    25
100
AcDbLine
 10
-50.9621025599
 20
585.3445218035
 30
0.0
 11
-40.4908068745
 21
585.3445218035
 31
0.0
  0
LINE
  5
30B
330
1F
100
AcDbEntity
  8
0
  6
Continuous
 62
     7
370
    25
100
AcDbLine
 10
-40.4806417207
 20
584.781697862
 30
0.0
 11
-29.8541862044
 21
584.781697862
 31
0.0
  0
LINE
  5
30C
330
1F
100
AcDbEntity
  8
0
  6
Continuous
 62
     7
370
    25
100
AcDbLine
 10
-50.5700189154
 20
584.781697862
 30
0.0
 11
-40.4806417207
 21
584.781697862
 31
0.0
  0
LINE
  5
30D
330
1F
100
AcDbEntity
  8
0
  6
Continuous
 62
     7
370
    25
100
AcDbLine
 10
19.5091931255
 20
585.3445218035
 30
0.0
 11
30.5378974401
 21
585.3445218035
 31
0.0
  0
LINE
  5
30E
330
1F
100
AcDbEntity
  8
0
  6
Continuous
 62
     7
370
    25
100
AcDbLine
 10
9.0378974401
 20
585.3445218035
 30
0.0
 11
19.5091931255
 21
585.3445218035
 31
0.0
  0
LINE
  5
30F
330
1F
100
AcDbEntity
  8
0
  6
Continuous
 62
     7
370
    25
100
AcDbLine
 10
19.5193582793
 20
584.781697862
 30
0.0
 11
30.1458137956
 21
584.781697862
 31
0.0
  0
LINE
  5
310
330
1F
100
AcDbEntity
  8
0
  6
Continuous
 62
     7
370
    25
100
AcDbLine
 10
9.4299810846
 20
584.781697862
 30
0.0
 11
19.5193582793
 21
584.781697862
 31
0.0
  0
LINE
  5
311
330
1F
100
AcDbEntity
  8
0
  6
Continuous
 62
     7
370
    25
100
AcDbLine
 10
139.5091931255
 20
585.3445218035
 30
0.0
 11
150.5378974401
 21
585.3445218035
 31
0.0
  0
LINE
  5
312
330
1F
100
AcDbEntity
  8
0
  6
Continuous
 62
     7
370
    25
100
AcDbLine
 10
129.0378974401
 20
585.3445218035
 30
0.0
 11
139.5091931255
 21
585.3445218035
 31
0.0
  0
LINE
  5
313
330
1F
100
AcDbEntity
  8
0
  6
Continuous
 62
     7
370
    25
100
AcDbLine
 10
139.5193582793
 20
584.781697862
 30
0.0
 11
150.1458137956
 21
584.781697862
 31
0.0
  0
LINE
  5
314
330
1F
100
AcDbEntity
  8
0
  6
Continuous
 62
     7
370
    25
100
AcDbLine
 10
129.4299810846
 20
584.781697862
 30
0.0
 11
139.5193582793
 21
584.781697862
 31
0.0
  0
LINE
  5
315
330
1F
100
AcDbEntity
  8
0
  6
Continuous
 62
     7
370
    25
100
AcDbLine
 10
504.7878974401
 20
664.4296718224
 30
0.0
 11
504.7878974401
 21
665.4296718224
 31
0.0
  0
LINE
  5
316
330
1F
100
AcDbEntity
  8
0
  6
Continuous
 62
     7
370
    25
100
AcDbLine
 10
512.2878974401
 20
657.4296718224
 30
0.0
 11
512.7878974401
 21
657.4296718224
 31
0.0
  0
LINE
  5
317
330
1F
100
AcDbEntity
  8
0
  6
Continuous
 62
     7
370
    25
100
AcDbLine
 10
512.2878974401
 20
576.4296718224
 30
0.0
 11
512.7878974401
 21
576.4296718224
 31
0.0
  0
LINE
  5
318
330
1F
100
AcDbEntity
  8
0
  6
Continuous
 62
     7
370
    25
100
AcDbLine
 10
504.7878974401
 20
569.4296718224
 30
0.0
 11
504.7878974401
 21
568.4296718224
 31
0.0
  0
LINE
  5
319
330
1F
100
AcDbEntity
  8
0
  6
Continuous
 62
     7
370
    25
100
AcDbLine
 10
-292.7121025599
 20
657.4296718224
 30
0.0
 11
-293.2121025599
 21
657.4296718224
 31
0.0
  0
LINE
  5
31A
330
1F
100
AcDbEntity
  8
0
  6
Continuous
 62
     7
370
    25
100
AcDbLine
 10
-292.7121025599
 20
576.4296718224
 30
0.0
 11
-293.2121025599
 21
576.4296718224
 31
0.0
  0
LINE
  5
31B
330
1F
100
AcDbEntity
  8
0
  6
Continuous
 62
     7
370
    25
100
AcDbLine
 10
-285.2121025599
 20
664.4296718224
 30
0.0
 11
-285.2121025599
 21
665.4296718224
 31
0.0
  0
LINE
  5
31C
330
1F
100
AcDbEntity
  8
0
  6
Continuous
 62
     7
370
    25
100
AcDbLine
 10
-285.2121025599
 20
569.4296718224
 30
0.0
 11
-285.2121025599
 21
568.4296718224
 31
0.0
  0
LINE
  5
31D
330
1F
100
AcDbEntity
  8
0
  6
Continuous
 62
     7
370
    25
100
AcDbLine
 10
-183.0817112415
 20
603.2296718224
 30
0.0
 11
-183.0817112415
 21
611.0505766495
 31
0.0
  0
LINE
  5
31E
330
1F
100
AcDbEntity
  8
0
  6
Continuous
 62
     7
370
    25
100
AcDbLine
 10
-183.0817112415
 20
626.9296718224
 30
0.0
 11
-183.0817112415
 21
630.6296718224
 31
0.0
  0
LINE
  5
31F
330
1F
100
AcDbEntity
  8
0
  6
Continuous
 62
     7
370
    25
100
AcDbLine
 10
-182.5441696239
 20
603.563121622
 30
0.0
 11
-182.5441696239
 21
611.0505766495
 31
0.0
  0
LINE
  5
320
330
1F
100
AcDbEntity
  8
0
  6
Continuous
 62
     7
370
    25
100
AcDbLine
 10
-182.5441696239
 20
628.0042656223
 30
0.0
 11
-182.5441696239
 21
630.2962220228
 31
0.0
  0
LINE
  5
321
330
1F
100
AcDbEntity
  8
0
  6
Continuous
 62
     7
370
    25
100
AcDbLine
 10
402.6575061217
 20
630.6296718224
 30
0.0
 11
402.6575061217
 21
626.9296718224
 31
0.0
  0
LINE
  5
322
330
1F
100
AcDbEntity
  8
0
  6
Continuous
 62
     7
370
    25
100
AcDbLine
 10
402.6575061217
 20
611.0505766495
 30
0.0
 11
402.6575061217
 21
603.2296718224
 31
0.0
  0
LINE
  5
323
330
1F
100
AcDbEntity
  8
0
  6
Continuous
 62
     7
370
    25
100
AcDbLine
 10
402.1199645041
 20
630.2962220228
 30
0.0
 11
402.1199645041
 21
628.0042656223
 31
0.0
  0
LINE
  5
324
330
1F
100
AcDbEntity
  8
0
  6
Continuous
 62
     7
370
    25
100
AcDbLine
 10
402.1199645041
 20
611.0505766495
 30
0.0
 11
402.1199645041
 21
603.563121622
 31
0.0
  0
LINE
  5
325
330
1F
100
AcDbEntity
  8
0
  6
Continuous
 62
     7
370
    25
100
AcDbLine
 10
515.0378974401
 20
627.5796718224
 30
0.0
 11
515.0378974401
 21
606.2796718224
 31
0.0
  0
LINE
  5
326
330
1F
100
AcDbEntity
  8
0
  6
Continuous
 62
     7
370
    25
100
AcDbLine
 10
-295.4621025599
 20
606.2796718224
 30
0.0
 11
-295.4621025599
 21
627.5796718224
 31
0.0
  0
ENDSEC
  0
SECTION
  2
OBJECTS
  0
DICTIONARY
  5
C
330
0
100
AcDbDictionary
281
     1
  3
ACAD_GROUP
350
D
  3
ACAD_LAYOUT
350
1A
  3
ACAD_MLINESTYLE
350
17
  3
ACAD_PLOTSETTINGS
350
19
  3
ACAD_PLOTSTYLENAME
350
E
  3
ACAD_SCALELIST
350
47
  3
DWGPROPS
350
327
  0
DICTIONARY
  5
D
102
{ACAD_REACTORS
330
C
102
}
330
C
100
AcDbDictionary
281
     1
  0
DICTIONARY
  5
1A
102
{ACAD_REACTORS
330
C
102
}
330
C
100
AcDbDictionary
281
     1
  3
Layout1
350
1E
  3
Layout2
350
26
  3
Model
350
22
  0
DICTIONARY
  5
17
102
{ACAD_REACTORS
330
C
102
}
330
C
100
AcDbDictionary
281
     1
  3
Standard
350
18
  0
DICTIONARY
  5
19
102
{ACAD_REACTORS
330
C
102
}
330
C
100
AcDbDictionary
281
     1
  0
ACDBDICTIONARYWDFLT
  5
E
102
{ACAD_REACTORS
330
C
102
}
330
C
100
AcDbDictionary
281
     1
  3
Normal
350
F
100
AcDbDictionaryWithDefault
340
F
  0
DICTIONARY
  5
47
102
{ACAD_REACTORS
330
C
102
}
330
C
100
AcDbDictionary
281
     1
  3
A0
350
48
  3
A1
350
49
  3
A2
350
4A
  3
A3
350
4B
  3
A4
350
4C
  3
A5
350
4D
  3
A6
350
4E
  3
A7
350
4F
  3
A8
350
50
  3
A9
350
51
  3
B0
350
52
  3
B1
350
53
  3
B2
350
54
  3
B3
350
55
  3
B4
350
56
  3
B5
350
57
  3
B6
350
58
  0
XRECORD
  5
327
102
{ACAD_REACTORS
330
C
102
}
330
C
100
AcDbXrecord
280
     1
  1
DWGPROPS COOKIE
  2

  3

  4

  6

  7

  8
Swing
  9

300
=
301
=
302
=
303
=
304
=
305
=
306
=
307
=
308
=
309
=
 40
0.0
 41
2459997.484724236
 42
2459997.484724549
  1

 90
        0
  0
LAYOUT
  5
1E
102
{ACAD_REACTORS
330
1A
102
}
330
1A
100
AcDbPlotSettings
  1

  2
none_device
  4

  6

 40
0.0
 41
0.0
 42
0.0
 43
0.0
 44
0.0
 45
0.0
 46
0.0
 47
0.0
 48
0.0
 49
0.0
140
0.0
141
0.0
142
1.0
143
1.0
 70
   688
 72
     1
 73
     0
 74
     5
  7

 75
    16
147
1.0
148
0.0
149
0.0
100
AcDbLayout
  1
Layout1
 70
     1
 71
     1
 10
0.0
 20
0.0
 11
420.0
 21
297.0
 12
0.0
 22
0.0
 32
0.0
 14
1.0000000000E+20
 24
1.0000000000E+20
 34
1.0000000000E+20
 15
-1.0000000000E+20
 25
-1.0000000000E+20
 35
-1.0000000000E+20
146
0.0
 13
0.0
 23
0.0
 33
0.0
 16
1.0
 26
0.0
 36
0.0
 17
0.0
 27
1.0
 37
0.0
 76
     0
330
1B
  0
LAYOUT
  5
26
102
{ACAD_REACTORS
330
1A
102
}
330
1A
100
AcDbPlotSettings
  1

  2
none_device
  4

  6

 40
0.0
 41
0.0
 42
0.0
 43
0.0
 44
0.0
 45
0.0
 46
0.0
 47
0.0
 48
0.0
 49
0.0
140
0.0
141
0.0
142
1.0
143
1.0
 70
   688
 72
     1
 73
     0
 74
     5
  7

 75
    16
147
1.0
148
0.0
149
0.0
100
AcDbLayout
  1
Layout2
 70
     1
 71
     2
 10
0.0
 20
0.0
 11
0.0
 21
0.0
 12
0.0
 22
0.0
 32
0.0
 14
0.0
 24
0.0
 34
0.0
 15
0.0
 25
0.0
 35
0.0
146
0.0
 13
0.0
 23
0.0
 33
0.0
 16
1.0
 26
0.0
 36
0.0
 17
0.0
 27
1.0
 37
0.0
 76
     0
330
23
  0
LAYOUT
  5
22
102
{ACAD_REACTORS
330
1A
102
}
330
1A
100
AcDbPlotSettings
  1

  2
none_device
  4
Letter_(8.50_x_11.00_Inches)
  6

 40
6.35
 41
6.35
 42
6.35000508
 43
6.35000508
 44
215.9
 45
279.4
 46
0.0
 47
0.0
 48
0.0
 49
0.0
140
0.0
141
0.0
142
1.0
143
1.0
 70
  1712
 72
     1
 73
     0
 74
     0
  7

 75
     0
147
1.0
148
0.0
149
0.0
100
AcDbLayout
  1
Model
 70
     1
 71
     0
 10
0.0
 20
0.0
 11
297.0
 21
210.0
 12
0.0
 22
0.0
 32
0.0
 14
0.0
 24
0.0
 34
0.0
 15
297.0
 25
210.0
 35
0.0
146
0.0
 13
0.0
 23
0.0
 33
0.0
 16
1.0
 26
0.0
 36
0.0
 17
0.0
 27
1.0
 37
0.0
 76
     0
330
1F
331
29
  0
MLINESTYLE
  5
18
102
{ACAD_REACTORS
330
17
102
}
330
17
100
AcDbMlineStyle
  2
Standard
 70
     0
  3

 62
   256
 51
90.0
 52
90.0
 71
     2
 49
0.5
 62
   256
  6
BYLAYER
 49
-0.5
 62
   256
  6
BYLAYER
  0
ACDBPLACEHOLDER
  5
F
102
{ACAD_REACTORS
330
E
102
}
330
E
  0
SCALE
  5
48
102
{ACAD_REACTORS
330
47
102
}
330
47
100
AcDbScale
 70
     0
300
1:1
140
1.0
141
1.0
290
     1
  0
SCALE
  5
49
102
{ACAD_REACTORS
330
47
102
}
330
47
100
AcDbScale
 70
     0
300
1:2
140
1.0
141
2.0
290
     0
  0
SCALE
  5
4A
102
{ACAD_REACTORS
330
47
102
}
330
47
100
AcDbScale
 70
     0
300
1:4
140
1.0
141
4.0
290
     0
  0
SCALE
  5
4B
102
{ACAD_REACTORS
330
47
102
}
330
47
100
AcDbScale
 70
     0
300
1:5
140
1.0
141
5.0
290
     0
  0
SCALE
  5
4C
102
{ACAD_REACTORS
330
47
102
}
330
47
100
AcDbScale
 70
     0
300
1:8
140
1.0
141
8.0
290
     0
  0
SCALE
  5
4D
102
{ACAD_REACTORS
330
47
102
}
330
47
100
AcDbScale
 70
     0
300
1:10
140
1.0
141
10.0
290
     0
  0
SCALE
  5
4E
102
{ACAD_REACTORS
330
47
102
}
330
47
100
AcDbScale
 70
     0
300
1:16
140
1.0
141
16.0
290
     0
  0
SCALE
  5
4F
102
{ACAD_REACTORS
330
47
102
}
330
47
100
AcDbScale
 70
     0
300
1:20
140
1.0
141
20.0
290
     0
  0
SCALE
  5
50
102
{ACAD_REACTORS
330
47
102
}
330
47
100
AcDbScale
 70
     0
300
1:30
140
1.0
141
30.0
290
     0
  0
SCALE
  5
51
102
{ACAD_REACTORS
330
47
102
}
330
47
100
AcDbScale
 70
     0
300
1:40
140
1.0
141
40.0
290
     0
  0
SCALE
  5
52
102
{ACAD_REACTORS
330
47
102
}
330
47
100
AcDbScale
 70
     0
300
1:50
140
1.0
141
50.0
290
     0
  0
SCALE
  5
53
102
{ACAD_REACTORS
330
47
102
}
330
47
100
AcDbScale
 70
     0
300
1:100
140
1.0
141
100.0
290
     0
  0
SCALE
  5
54
102
{ACAD_REACTORS
330
47
102
}
330
47
100
AcDbScale
 70
     0
300
2:1
140
2.0
141
1.0
290
     0
  0
SCALE
  5
55
102
{ACAD_REACTORS
330
47
102
}
330
47
100
AcDbScale
 70
     0
300
4:1
140
4.0
141
1.0
290
     0
  0
SCALE
  5
56
102
{ACAD_REACTORS
330
47
102
}
330
47
100
AcDbScale
 70
     0
300
8:1
140
8.0
141
1.0
290
     0
  0
SCALE
  5
57
102
{ACAD_REACTORS
330
47
102
}
330
47
100
AcDbScale
 70
     0
300
10:1
140
10.0
141
1.0
290
     0
  0
SCALE
  5
58
102
{ACAD_REACTORS
330
47
102
}
330
47
100
AcDbScale
 70
     0
300
100:1
140
100.0
141
1.0
290
     0
  0
ENDSEC
  0
EOF
