  0
SECTION
  2
HEADER
  9
$ACADVER
  1
AC1015
  9
$ACADMAINTVER
 70
     6
  9
$DWGCODEPAGE
  3
ANSI_1250
  9
$INSBASE
 10
0.0
 20
0.0
 30
0.0
  9
$EXTMIN
 10
0.0
 20
0.0
 30
0.0
  9
$EXTMAX
 10
297.0
 20
210.0
 30
0.0
  9
$LIMMIN
 10
0.0
 20
0.0
  9
$LIMMAX
 10
297.0
 20
210.0
  9
$ORTHOMODE
 70
     0
  9
$REGENMODE
 70
     1
  9
$FILLMODE
 70
     1
  9
$QTEXTMODE
 70
     0
  9
$MIRRTEXT
 70
     1
  9
$LTSCALE
 40
1.0
  9
$ATTMODE
 70
     1
  9
$TEXTSIZE
 40
3.5277777778
  9
$TRACEWID
 40
1.0
  9
$TEXTSTYLE
  7
Standard
  9
$CLAYER
  8
0
  9
$CELTYPE
  6
ByLayer
  9
$CECOLOR
 62
   256
  9
$CELTSCALE
 40
1.0
  9
$DISPSILH
 70
     0
  9
$DIMSCALE
 40
1.0
  9
$DIMASZ
 40
2.0
  9
$DIMEXO
 40
1.0
  9
$DIMDLI
 40
3.75
  9
$DIMRND
 40
0.0
  9
$DIMDLE
 40
0.0
  9
$DIMEXE
 40
1.0
  9
$DIMTP
 40
0.0
  9
$DIMTM
 40
0.0
  9
$DIMTXT
 40
3.5277777778
  9
$DIMCEN
 40
2.5
  9
$DIMTSZ
 40
0.0
  9
$DIMTOL
 70
     0
  9
$DIMLIM
 70
     0
  9
$DIMTIH
 70
     1
  9
$DIMTOH
 70
     1
  9
$DIMSE1
 70
     0
  9
$DIMSE2
 70
     0
  9
$DIMTAD
 70
     1
  9
$DIMZIN
 70
     1
  9
$DIMBLK
  1

  9
$DIMASO
 70
     1
  9
$DIMSHO
 70
     1
  9
$DIMPOST
  1

  9
$DIMAPOST
  1

  9
$DIMALT
 70
     0
  9
$DIMALTD
 70
     3
  9
$DIMALTF
 40
0.0393700787
  9
$DIMLFAC
 40
1.0
  9
$DIMTOFL
 70
     1
  9
$DIMTVP
 40
0.0
  9
$DIMTIX
 70
     0
  9
$DIMSOXD
 70
     0
  9
$DIMSAH
 70
     0
  9
$DIMBLK1
  1

  9
$DIMBLK2
  1

  9
$DIMSTYLE
  2
ISO-25
  9
$DIMCLRD
 70
     0
  9
$DIMCLRE
 70
     0
  9
$DIMCLRT
 70
     0
  9
$DIMTFAC
 40
1.0
  9
$DIMGAP
 40
1.524
  9
$DIMJUST
 70
     0
  9
$DIMSD1
 70
     0
  9
$DIMSD2
 70
     0
  9
$DIMTOLJ
 70
     0
  9
$DIMTZIN
 70
     1
  9
$DIMALTZ
 70
     0
  9
$DIMALTTZ
 70
     0
  9
$DIMUPT
 70
     0
  9
$DIMDEC
 70
     0
  9
$DIMTDEC
 70
     0
  9
$DIMALTU
 70
     2
  9
$DIMALTTD
 70
     3
  9
$DIMTXSTY
  7
Standard
  9
$DIMAUNIT
 70
     0
  9
$DIMADEC
 70
     1
  9
$DIMALTRND
 40
0.0
  9
$DIMAZIN
 70
     0
  9
$DIMDSEP
 70
    44
  9
$DIMATFIT
 70
     3
  9
$DIMFRAC
 70
     0
  9
$DIMLDRBLK
  1

  9
$DIMLUNIT
 70
     2
  9
$DIMLWD
 70
    -2
  9
$DIMLWE
 70
    -2
  9
$DIMTMOVE
 70
     0
  9
$LUNITS
 70
     2
  9
$LUPREC
 70
     1
  9
$SKETCHINC
 40
1.0
  9
$FILLETRAD
 40
0.0
  9
$AUNITS
 70
     0
  9
$AUPREC
 70
     1
  9
$MENU
  1
.
  9
$ELEVATION
 40
0.0
  9
$PELEVATION
 40
0.0
  9
$THICKNESS
 40
0.0
  9
$LIMCHECK
 70
     0
  9
$CHAMFERA
 40
0.0
  9
$CHAMFERB
 40
0.0
  9
$CHAMFERC
 40
0.0
  9
$CHAMFERD
 40
0.0
  9
$SKPOLY
 70
     0
  9
$TDCREATE
 40
2459997.535642627
  9
$TDUCREATE
 40
2459997.493975961
  9
$TDUPDATE
 40
2459997.53564309
  9
$TDUUPDATE
 40
2459997.493976424
  9
$TDINDWG
 40
0.0000000116
  9
$TDUSRTIMER
 40
0.0000000116
  9
$USRTIMER
 70
     1
  9
$ANGBASE
 50
0.0
  9
$ANGDIR
 70
     0
  9
$PDMODE
 70
     0
  9
$PDSIZE
 40
-1.0
  9
$PLINEWID
 40
0.0
  9
$SPLFRAME
 70
     0
  9
$SPLINETYPE
 70
     6
  9
$SPLINESEGS
 70
     8
  9
$HANDSEED
  5
295
  9
$SURFTAB1
 70
     6
  9
$SURFTAB2
 70
     6
  9
$SURFTYPE
 70
     6
  9
$SURFU
 70
     6
  9
$SURFV
 70
     6
  9
$UCSBASE
  2

  9
$UCSNAME
  2

  9
$UCSORG
 10
0.0
 20
0.0
 30
0.0
  9
$UCSXDIR
 10
1.0
 20
0.0
 30
0.0
  9
$UCSYDIR
 10
0.0
 20
1.0
 30
0.0
  9
$UCSORTHOREF
  2

  9
$UCSORTHOVIEW
 70
     0
  9
$UCSORGTOP
 10
0.0
 20
0.0
 30
0.0
  9
$UCSORGBOTTOM
 10
0.0
 20
0.0
 30
0.0
  9
$UCSORGLEFT
 10
0.0
 20
0.0
 30
0.0
  9
$UCSORGRIGHT
 10
0.0
 20
0.0
 30
0.0
  9
$UCSORGFRONT
 10
0.0
 20
0.0
 30
0.0
  9
$UCSORGBACK
 10
0.0
 20
0.0
 30
0.0
  9
$PUCSBASE
  2

  9
$PUCSNAME
  2

  9
$PUCSORG
 10
0.0
 20
0.0
 30
0.0
  9
$PUCSXDIR
 10
1.0
 20
0.0
 30
0.0
  9
$PUCSYDIR
 10
0.0
 20
1.0
 30
0.0
  9
$PUCSORTHOREF
  2

  9
$PUCSORTHOVIEW
 70
     0
  9
$PUCSORGTOP
 10
0.0
 20
0.0
 30
0.0
  9
$PUCSORGBOTTOM
 10
0.0
 20
0.0
 30
0.0
  9
$PUCSORGLEFT
 10
0.0
 20
0.0
 30
0.0
  9
$PUCSORGRIGHT
 10
0.0
 20
0.0
 30
0.0
  9
$PUCSORGFRONT
 10
0.0
 20
0.0
 30
0.0
  9
$PUCSORGBACK
 10
0.0
 20
0.0
 30
0.0
  9
$USERI1
 70
     0
  9
$USERI2
 70
     0
  9
$USERI3
 70
     0
  9
$USERI4
 70
     0
  9
$USERI5
 70
     0
  9
$USERR1
 40
0.0
  9
$USERR2
 40
0.0
  9
$USERR3
 40
0.0
  9
$USERR4
 40
0.0
  9
$USERR5
 40
0.0
  9
$WORLDVIEW
 70
     1
  9
$SHADEDGE
 70
     3
  9
$SHADEDIF
 70
    70
  9
$TILEMODE
 70
     1
  9
$MAXACTVP
 70
    64
  9
$PINSBASE
 10
0.0
 20
0.0
 30
0.0
  9
$PLIMCHECK
 70
     0
  9
$PEXTMIN
 10
1.0000000000E+20
 20
1.0000000000E+20
 30
1.0000000000E+20
  9
$PEXTMAX
 10
-1.0000000000E+20
 20
-1.0000000000E+20
 30
-1.0000000000E+20
  9
$PLIMMIN
 10
0.0
 20
0.0
  9
$PLIMMAX
 10
420.0
 20
297.0
  9
$UNITMODE
 70
     0
  9
$VISRETAIN
 70
     1
  9
$PLINEGEN
 70
     0
  9
$PSLTSCALE
 70
     1
  9
$TREEDEPTH
 70
  3020
  9
$CMLSTYLE
  2
Standard
  9
$CMLJUST
 70
     0
  9
$CMLSCALE
 40
20.0
  9
$PROXYGRAPHICS
 70
     1
  9
$MEASUREMENT
 70
     1
  9
$CELWEIGHT
370
    -1
  9
$ENDCAPS
280
     0
  9
$JOINSTYLE
280
     0
  9
$LWDISPLAY
290
     1
  9
$INSUNITS
 70
     4
  9
$HYPERLINKBASE
  1

  9
$STYLESHEET
  1

  9
$XEDIT
290
     1
  9
$CEPSNTYPE
380
     0
  9
$PSTYLEMODE
290
     1
  9
$FINGERPRINTGUID
  2
{5785e93b-4679-40ee-bb97-dfa9d5a627ad}
  9
$VERSIONGUID
  2
{FAEB1C32-E019-11D5-929B-00C0DF256EC4}
  9
$EXTNAMES
290
     1
  9
$PSVPSCALE
 40
0.0
  9
$OLESTARTUP
290
     0
  0
ENDSEC
  0
SECTION
  2
CLASSES
  0
CLASS
  1
ACDBDICTIONARYWDFLT
  2
AcDbDictionaryWithDefault
  3
ObjectDBX Classes
 90
        0
280
     0
281
     0
  0
CLASS
  1
VISUALSTYLE
  2
AcDbVisualStyle
  3
ObjectDBX Classes
 90
     4095
280
     0
281
     0
  0
CLASS
  1
MATERIAL
  2
AcDbMaterial
  3
ObjectDBX Classes
 90
     1153
280
     0
281
     0
  0
CLASS
  1
SCALE
  2
AcDbScale
  3
ObjectDBX Classes
 90
     1153
280
     0
281
     0
  0
CLASS
  1
TABLESTYLE
  2
AcDbTableStyle
  3
ObjectDBX Classes
 90
     4095
280
     0
281
     0
  0
CLASS
  1
MLEADERSTYLE
  2
AcDbMLeaderStyle
  3
ACDB_MLEADERSTYLE_CLASS
 90
     4095
280
     0
281
     0
  0
CLASS
  1
SUN
  2
AcDbSun
  3
SCENEOE
 90
     1153
280
     0
281
     0
  0
CLASS
  1
ACDBPLACEHOLDER
  2
AcDbPlaceHolder
  3
ObjectDBX Classes
 90
        0
280
     0
281
     0
  0
CLASS
  1
LAYOUT
  2
AcDbLayout
  3
ObjectDBX Classes
 90
        0
280
     0
281
     0
  0
ENDSEC
  0
SECTION
  2
TABLES
  0
TABLE
  2
VPORT
  5
8
330
0
100
AcDbSymbolTable
 70
     1
  0
VPORT
  5
29
330
8
100
AcDbSymbolTableRecord
100
AcDbViewportTableRecord
  2
*Active
 70
     0
 10
0.0
 20
0.0
 11
1.0
 21
1.0
 12
148.5
 22
105.0
 13
0.0
 23
0.0
 14
10.0
 24
10.0
 15
10.0
 25
10.0
 16
0.0
 26
0.0
 36
1.0
 17
0.0
 27
0.0
 37
0.0
 40
210.0
 41
1.4142857143
 42
50.0
 43
0.0
 44
0.0
 50
0.0
 51
0.0
 71
     0
 72
  2000
 73
     1
 74
     3
 75
     0
 76
     0
 77
     0
 78
     0
281
     0
 65
     1
110
0.0
120
0.0
130
0.0
111
1.0
121
0.0
131
0.0
112
0.0
122
1.0
132
0.0
 79
     0
146
0.0
  0
ENDTAB
  0
TABLE
  2
LTYPE
  5
5
330
0
100
AcDbSymbolTable
 70
     6
  0
LTYPE
  5
14
330
5
100
AcDbSymbolTableRecord
100
AcDbLinetypeTableRecord
  2
ByBlock
 70
     0
  3

 72
    65
 73
     0
 40
0.0
  0
LTYPE
  5
15
330
5
100
AcDbSymbolTableRecord
100
AcDbLinetypeTableRecord
  2
ByLayer
 70
     0
  3

 72
    65
 73
     0
 40
0.0
  0
LTYPE
  5
16
330
5
100
AcDbSymbolTableRecord
100
AcDbLinetypeTableRecord
  2
Continuous
 70
     0
  3
Solid line
 72
    65
 73
     0
 40
0.0
  0
LTYPE
  5
5E
330
5
100
AcDbSymbolTableRecord
100
AcDbLinetypeTableRecord
  2
HIDDEN
 70
     0
  3
Hidden __ __ __ __ __ __ __ __ __ __ __ __ __ __
 72
    65
 73
     2
 40
1.905
 49
1.27
 74
     0
 49
-0.635
 74
     0
  0
LTYPE
  5
5F
330
5
100
AcDbSymbolTableRecord
100
AcDbLinetypeTableRecord
  2
PHANTOM
 70
     0
  3
Phantom ______  __  __  ______  __  __  ______
 72
    65
 73
     6
 40
12.7
 49
6.35
 74
     0
 49
-1.27
 74
     0
 49
1.27
 74
     0
 49
-1.27
 74
     0
 49
1.27
 74
     0
 49
-1.27
 74
     0
  0
LTYPE
  5
60
330
5
100
AcDbSymbolTableRecord
100
AcDbLinetypeTableRecord
  2
CENTER
 70
     0
  3
Center ____ _ ____ _ ____ _ ____ _ ____ _ ____
 72
    65
 73
     4
 40
10.16
 49
6.35
 74
     0
 49
-1.27
 74
     0
 49
1.27
 74
     0
 49
-1.27
 74
     0
  0
LTYPE
  5
61
330
5
100
AcDbSymbolTableRecord
100
AcDbLinetypeTableRecord
  2
CENTERX2
 70
     0
  3
Center (2x) ________  __  ________  __  _____
 72
    65
 73
     4
 40
20.32
 49
12.7
 74
     0
 49
-2.54
 74
     0
 49
2.54
 74
     0
 49
-2.54
 74
     0
  0
LTYPE
  5
62
330
5
100
AcDbSymbolTableRecord
100
AcDbLinetypeTableRecord
  2
DOT2
 70
     0
  3
Dot (.5x) ........................................
 72
    65
 73
     2
 40
0.635
 49
0.0
 74
     0
 49
-0.635
 74
     0
  0
ENDTAB
  0
TABLE
  2
LAYER
  5
2
330
0
100
AcDbSymbolTable
 70
     4
  0
LAYER
  5
10
330
2
100
AcDbSymbolTableRecord
100
AcDbLayerTableRecord
  2
0
 70
     0
 62
     7
  6
Continuous
370
    -3
390
F
  0
LAYER
  5
63
330
2
100
AcDbSymbolTableRecord
100
AcDbLayerTableRecord
  2
FRAME_&_TABLE
 70
     0
 62
     8
  6
Continuous
370
    50
390
F
  0
LAYER
  5
64
330
2
100
AcDbSymbolTableRecord
100
AcDbLayerTableRecord
  2
DIMENSIONS
 70
     0
 62
     7
  6
Continuous
370
    -3
390
F
  0
LAYER
  5
65
330
2
100
AcDbSymbolTableRecord
100
AcDbLayerTableRecord
  2
FORMAT
 70
     0
 62
     7
  6
Continuous
370
    -3
390
F
  0
ENDTAB
  0
TABLE
  2
STYLE
  5
3
330
0
100
AcDbSymbolTable
 70
     1
  0
STYLE
  5
11
330
3
100
AcDbSymbolTableRecord
100
AcDbTextStyleTableRecord
  2
Standard
 70
     0
 40
0.0
 41
1.0
 50
0.0
 71
     0
 42
3.5277777778
  3
txt
  4

  0
ENDTAB
  0
TABLE
  2
VIEW
  5
6
330
0
100
AcDbSymbolTable
 70
     0
  0
ENDTAB
  0
TABLE
  2
UCS
  5
7
330
0
100
AcDbSymbolTable
 70
     0
  0
ENDTAB
  0
TABLE
  2
APPID
  5
9
330
0
100
AcDbSymbolTable
 70
     1
  0
APPID
  5
12
330
9
100
AcDbSymbolTableRecord
100
AcDbRegAppTableRecord
  2
ACAD
 70
     0
  0
ENDTAB
  0
TABLE
  2
DIMSTYLE
  5
A
330
0
100
AcDbSymbolTable
 70
     1
100
AcDbDimStyleTable
  0
DIMSTYLE
105
27
330
A
100
AcDbSymbolTableRecord
100
AcDbDimStyleTableRecord
  2
ISO-25
 70
     0
 41
2.5
 42
0.625
 43
3.75
 44
1.25
 73
     0
 74
     0
 77
     1
 78
     8
140
2.5
141
2.5
143
0.0393700787
147
0.625
171
     3
172
     1
178
     0
271
     2
272
     2
274
     3
278
    44
283
     0
284
     8
340
11
  0
ENDTAB
  0
TABLE
  2
BLOCK_RECORD
  5
1
330
0
100
AcDbSymbolTable
 70
     1
  0
BLOCK_RECORD
  5
1F
330
1
100
AcDbSymbolTableRecord
100
AcDbBlockTableRecord
  2
*Model_Space
340
22
  0
BLOCK_RECORD
  5
1B
330
1
100
AcDbSymbolTableRecord
100
AcDbBlockTableRecord
  2
*Paper_Space
340
1E
  0
BLOCK_RECORD
  5
23
330
1
100
AcDbSymbolTableRecord
100
AcDbBlockTableRecord
  2
*Paper_Space0
340
26
  0
ENDTAB
  0
ENDSEC
  0
SECTION
  2
BLOCKS
  0
BLOCK
  5
20
330
1F
100
AcDbEntity
  8
0
100
AcDbBlockBegin
  2
*Model_Space
 70
     0
 10
0.0
 20
0.0
 30
0.0
  3
*Model_Space
  1

  0
ENDBLK
  5
21
330
1F
100
AcDbEntity
  8
0
100
AcDbBlockEnd
  0
BLOCK
  5
1C
330
1B
100
AcDbEntity
 67
     1
  8
0
100
AcDbBlockBegin
  2
*Paper_Space
 70
     0
 10
0.0
 20
0.0
 30
0.0
  3
*Paper_Space
  1

  0
ENDBLK
  5
1D
330
1B
100
AcDbEntity
 67
     1
  8
0
100
AcDbBlockEnd
  0
BLOCK
  5
24
330
23
100
AcDbEntity
  8
0
100
AcDbBlockBegin
  2
*Paper_Space0
 70
     0
 10
0.0
 20
0.0
 30
0.0
  3
*Paper_Space0
  1

  0
ENDBLK
  5
25
330
23
100
AcDbEntity
  8
0
100
AcDbBlockEnd
  0
ENDSEC
  0
SECTION
  2
ENTITIES
  0
CIRCLE
  5
66
330
1F
100
AcDbEntity
  8
0
  6
CENTERX2
 62
     7
100
AcDbCircle
 10
75.8974545455
 20
106.1887272727
 30
0.0
 40
5.0
  0
CIRCLE
  5
67
330
1F
100
AcDbEntity
  8
0
  6
CENTERX2
 62
     7
100
AcDbCircle
 10
621.8974545455
 20
106.1887272727
 30
0.0
 40
5.0
  0
ARC
  5
68
330
1F
100
AcDbEntity
  8
0
  6
Continuous
 62
     7
370
    25
100
AcDbCircle
 10
-247.3879932658
 20
167.7671682005
 30
0.0
 40
3.0
100
AcDbArc
 50
0.0
 51
90.0
  0
LINE
  5
69
330
1F
100
AcDbEntity
  8
0
  6
Continuous
 62
     7
370
    25
100
AcDbLine
 10
-247.3879932658
 20
170.7671682005
 30
0.0
 11
-256.3879932658
 21
170.7671682005
 31
0.0
  0
ARC
  5
6A
330
1F
100
AcDbEntity
  8
0
  6
Continuous
 62
     7
370
    25
100
AcDbCircle
 10
-256.3879932658
 20
167.7671682005
 30
0.0
 40
3.000000000000057
100
AcDbArc
 50
90.0
 51
180.0
  0
ARC
  5
6B
330
1F
100
AcDbEntity
  8
0
  6
Continuous
 62
     7
370
    25
100
AcDbCircle
 10
-137.0459483486
 20
161.8891138201
 30
0.0
 40
3.0
100
AcDbArc
 50
90.0
 51
180.0
  0
ARC
  5
6C
330
1F
100
AcDbEntity
  8
0
  6
Continuous
 62
     7
370
    25
100
AcDbCircle
 10
-128.0459483486
 20
161.8891138201
 30
0.0
 40
3.0
100
AcDbArc
 50
0.0
 51
90.0
  0
LINE
  5
6D
330
1F
100
AcDbEntity
  8
0
  6
Continuous
 62
     7
370
    25
100
AcDbLine
 10
-128.0459483486
 20
164.8891138201
 30
0.0
 11
-137.0459483486
 21
164.8891138201
 31
0.0
  0
ARC
  5
6E
330
1F
100
AcDbEntity
  8
0
  6
Continuous
 62
     7
370
    25
100
AcDbCircle
 10
-170.249562433
 20
159.5186788468
 30
0.0
 40
3.0
100
AcDbArc
 50
90.0
 51
180.0
  0
ARC
  5
6F
330
1F
100
AcDbEntity
  8
0
  6
Continuous
 62
     7
370
    25
100
AcDbCircle
 10
-161.249562433
 20
159.5186788468
 30
0.0
 40
3.0
100
AcDbArc
 50
0.0
 51
90.0
  0
LINE
  5
70
330
1F
100
AcDbEntity
  8
0
  6
Continuous
 62
     7
370
    25
100
AcDbLine
 10
-161.249562433
 20
162.5186788468
 30
0.0
 11
-170.249562433
 21
162.5186788468
 31
0.0
  0
ARC
  5
71
330
1F
100
AcDbEntity
  8
0
  6
Continuous
 62
     7
370
    25
100
AcDbCircle
 10
-189.9574136907
 20
161.2211827125
 30
0.0
 40
3.0
100
AcDbArc
 50
90.0
 51
180.0
  0
ARC
  5
72
330
1F
100
AcDbEntity
  8
0
  6
Continuous
 62
     7
370
    25
100
AcDbCircle
 10
-180.9574136907
 20
161.2211827125
 30
0.0
 40
3.0
100
AcDbArc
 50
0.0
 51
90.0
  0
LINE
  5
73
330
1F
100
AcDbEntity
  8
0
  6
Continuous
 62
     7
370
    25
100
AcDbLine
 10
-180.9574136907
 20
164.2211827125
 30
0.0
 11
-189.9574136907
 21
164.2211827125
 31
0.0
  0
LINE
  5
74
330
1F
100
AcDbEntity
  8
0
  6
Continuous
 62
     7
370
    25
100
AcDbLine
 10
-233.8906290604
 20
166.2854650839
 30
0.0
 11
-242.8906290604
 21
166.2854650839
 31
0.0
  0
ARC
  5
75
330
1F
100
AcDbEntity
  8
0
  6
Continuous
 62
     7
370
    25
100
AcDbCircle
 10
-242.8906290604
 20
163.2854650839
 30
0.0
 40
3.000000000000014
100
AcDbArc
 50
90.0
 51
119.9418894131
  0
ARC
  5
76
330
1F
100
AcDbEntity
  8
0
  6
Continuous
 62
     7
370
    25
100
AcDbCircle
 10
-233.8906290604
 20
163.2854650839
 30
0.0
 40
3.0
100
AcDbArc
 50
0.0
 51
90.0
  0
ARC
  5
77
330
1F
100
AcDbEntity
  8
0
  6
Continuous
 62
     7
370
    25
100
AcDbCircle
 10
-308.8488004015
 20
161.1887272727
 30
0.0
 40
3.0
100
AcDbArc
 50
0.0
 51
90.0
  0
LINE
  5
78
330
1F
100
AcDbEntity
  8
0
  6
Continuous
 62
     7
370
    25
100
AcDbLine
 10
-308.8488004015
 20
164.1887272727
 30
0.0
 11
-311.8038214598
 21
164.1887272727
 31
0.0
  0
LINE
  5
79
330
1F
100
AcDbEntity
  8
0
  6
Continuous
 62
     7
370
    25
100
AcDbLine
 10
-311.8038214598
 20
164.1887272727
 30
0.0
 11
-320.8038214598
 21
164.1887272727
 31
0.0
  0
ARC
  5
7A
330
1F
100
AcDbEntity
  8
0
  6
Continuous
 62
     7
370
    25
100
AcDbCircle
 10
-320.8038214598
 20
161.1887272727
 30
0.0
 40
3.000000000000114
100
AcDbArc
 50
90.0
 51
180.0
  0
ARC
  5
7B
330
1F
100
AcDbEntity
  8
0
  6
Continuous
 62
     7
370
    25
100
AcDbCircle
 10
-311.8038214598
 20
161.1887272727
 30
0.0
 40
3.0
100
AcDbArc
 50
0.0
 51
90.0
  0
ARC
  5
7C
330
1F
100
AcDbEntity
  8
0
  6
Continuous
 62
     7
370
    25
100
AcDbCircle
 10
-155.2458706807
 20
161.1887272727
 30
0.0
 40
3.0
100
AcDbArc
 50
90.0
 51
180.0
  0
LINE
  5
7D
330
1F
100
AcDbEntity
  8
0
  6
Continuous
 62
     7
370
    25
100
AcDbLine
 10
-146.2458706807
 20
164.1887272727
 30
0.0
 11
-155.2458706807
 21
164.1887272727
 31
0.0
  0
ARC
  5
7E
330
1F
100
AcDbEntity
  8
0
  6
Continuous
 62
     7
370
    25
100
AcDbCircle
 10
-146.2458706807
 20
161.1887272727
 30
0.0
 40
3.0
100
AcDbArc
 50
0.0
 51
90.0
  0
LINE
  5
7F
330
1F
100
AcDbEntity
  8
0
  6
Continuous
 62
     7
370
    25
100
AcDbLine
 10
-259.3879932658
 20
164.1887272727
 30
0.0
 11
-263.3484387818
 21
164.1887272727
 31
0.0
  0
ARC
  5
80
330
1F
100
AcDbEntity
  8
0
  6
Continuous
 62
     7
370
    25
100
AcDbCircle
 10
-263.3484387818
 20
161.1887272727
 30
0.0
 40
3.0
100
AcDbArc
 50
90.0
 51
180.0
  0
ARC
  5
81
330
1F
100
AcDbEntity
  8
0
  6
Continuous
 62
     7
370
    25
100
AcDbCircle
 10
-216.332740108
 20
159.8199526892
 30
0.0
 40
3.000000000000028
100
AcDbArc
 50
121.5566433216
 51
180.0
  0
ARC
  5
82
330
1F
100
AcDbEntity
  8
0
  6
Continuous
 62
     7
370
    25
100
AcDbCircle
 10
-205.9027638278
 20
164.4984322627
 30
0.0
 40
3.000000000000028
100
AcDbArc
 50
0.0
 51
90.0
  0
ARC
  5
83
330
1F
100
AcDbEntity
  8
0
  6
Continuous
 62
     7
370
    25
100
AcDbCircle
 10
-214.9027638278
 20
164.4984322627
 30
0.0
 40
3.0
100
AcDbArc
 50
90.0
 51
180.0
  0
LINE
  5
84
330
1F
100
AcDbEntity
  8
0
  6
Continuous
 62
     7
370
    25
100
AcDbLine
 10
-205.9027638278
 20
167.4984322627
 30
0.0
 11
-214.9027638278
 21
167.4984322627
 31
0.0
  0
ARC
  5
85
330
1F
100
AcDbEntity
  8
0
  6
Continuous
 62
     7
370
    25
100
AcDbCircle
 10
-293.3178830186
 20
167.7737986854
 30
0.0
 40
3.0
100
AcDbArc
 50
90.0
 51
180.0
  0
LINE
  5
86
330
1F
100
AcDbEntity
  8
0
  6
Continuous
 62
     7
370
    25
100
AcDbLine
 10
-284.3178830186
 20
170.7737986854
 30
0.0
 11
-293.3178830186
 21
170.7737986854
 31
0.0
  0
ARC
  5
87
330
1F
100
AcDbEntity
  8
0
  6
Continuous
 62
     7
370
    25
100
AcDbCircle
 10
-284.3178830186
 20
167.7737986854
 30
0.0
 40
3.0
100
AcDbArc
 50
0.0
 51
90.0
  0
LWPOLYLINE
  5
88
330
1F
100
AcDbEntity
  8
0
  6
Continuous
 62
     7
370
    25
100
AcDbPolyline
 90
       11
 70
   128
 43
0.0
 10
760.7168770187
 20
147.7311849188
 10
760.1055111026
 20
148.7482464971
 10
758.8494330683
 20
150.3783820319
 10
757.3320115895
 20
151.8729945184
 10
755.5681951999
 20
153.2154769492
 10
753.5858993768
 20
154.3818445404
 10
751.4188911806
 20
155.3515736413
 10
749.1043855145
 20
156.1087705859
 10
746.6817612776
 20
156.6420271095
 10
744.1893688182
 20
156.944315658
 10
742.2071136364
 20
157.0171543975
  0
LWPOLYLINE
  5
89
330
1F
100
AcDbEntity
  8
0
  6
Continuous
 62
     7
370
    25
100
AcDbPolyline
 90
       11
 70
   128
 43
0.0
 10
-482.561886226
 20
157.0171543975
 10
-483.929199002
 20
156.9825446714
 10
-486.4347254493
 20
156.7370866506
 10
-488.8841540375
 20
156.2579882642
 10
-491.2392073149
 20
155.5499616419
 10
-493.4633719278
 20
154.6200160407
 10
-495.520526207
 20
153.4778194034
 10
-497.3738149964
 20
152.1372807949
 10
-498.9872283397
 20
150.6177279385
 10
-500.3273172261
 20
148.9454415136
 10
-500.9571548104
 20
147.9378557263
  0
LINE
  5
8A
330
1F
100
AcDbEntity
  8
0
  6
Continuous
 62
     7
370
    25
100
AcDbLine
 10
742.2071136364
 20
157.0171543975
 30
0.0
 11
-482.561886226
 21
157.0171543975
 31
0.0
  0
LINE
  5
8B
330
1F
100
AcDbEntity
  8
0
  6
Continuous
 62
     7
370
    25
100
AcDbLine
 10
-500.9571548104
 20
147.9378557263
 30
0.0
 11
-537.6001004794
 21
83.1616673132
 31
0.0
  0
LINE
  5
8C
330
1F
100
AcDbEntity
  8
0
  6
Continuous
 62
     7
370
    25
100
AcDbLine
 10
796.5332719649
 20
81.6959438677
 30
0.0
 11
760.7168770187
 21
147.7311849188
 31
0.0
  0
LWPOLYLINE
  5
8D
330
1F
100
AcDbEntity
  8
0
  6
Continuous
 62
     7
370
    25
100
AcDbPolyline
 90
       13
 70
   128
 43
0.0
 10
-539.165899254
 20
72.9729339765
 10
-539.176127812
 20
72.1653064848
 10
-538.8854036926
 20
70.2788700751
 10
-538.2905257552
 20
68.4492524908
 10
-537.4018886835
 20
66.6972792395
 10
-536.2294800233
 20
65.0433750651
 10
-534.7858293761
 20
63.5100807199
 10
-533.089305419
 20
62.1219429706
 10
-531.165711051
 20
60.9033974001
 10
-529.04737596
 20
59.876117358
 10
-526.7707817073
 20
59.0573519266
 10
-524.4973774736
 20
58.4843333471
 10
-524.162736022
 20
58.4186410969
  0
LWPOLYLINE
  5
8E
330
1F
100
AcDbEntity
  8
0
  6
Continuous
 62
     7
370
    25
100
AcDbPolyline
 90
       11
 70
   128
 43
0.0
 10
784.7022466941
 20
57.5475898548
 10
785.9837159598
 20
57.9214459793
 10
788.2505102163
 20
58.782768305
 10
790.3633759402
 20
59.8602729205
 10
792.2839190229
 20
61.1410155207
 10
793.9755709275
 20
62.607432177
 10
795.4038580721
 20
64.2355660264
 10
796.5388442294
 20
65.9938961313
 10
797.3590203167
 20
67.8446913784
 10
797.8539234605
 20
69.7480900614
 10
798.0071423594
 20
71.4829129427
  0
LINE
  5
8F
330
1F
100
AcDbEntity
  8
0
  6
Continuous
 62
     7
370
    25
100
AcDbLine
 10
-539.2048318951
 20
77.2201507042
 30
0.0
 11
-539.2048318951
 21
72.9775100171
 31
0.0
  0
LINE
  5
90
330
1F
100
AcDbEntity
  8
0
  6
Continuous
 62
     7
370
    25
100
AcDbLine
 10
798.0235085825
 20
71.718457379
 30
0.0
 11
798.0235085825
 21
75.9610980661
 31
0.0
  0
ARC
  5
91
330
1F
100
AcDbEntity
  8
0
  6
Continuous
 62
     7
370
    25
100
AcDbCircle
 10
-527.9885380175
 20
77.4584473449
 30
0.0
 40
11.17626283548286
100
AcDbArc
 50
149.3163460354
 51
180.5737075752
  0
ARC
  5
92
330
1F
100
AcDbEntity
  8
0
  6
Continuous
 62
     7
370
    25
100
AcDbCircle
 10
786.9382535664
 20
76.1636564964
 30
0.0
 40
11.07567522208336
100
AcDbArc
 50
357.5254074307
 51
29.9668517175
  0
LINE
  5
93
330
1F
100
AcDbEntity
  8
0
  6
Continuous
 62
     7
370
    25
100
AcDbLine
 10
518.479743196
 20
57.9111531969
 30
0.0
 11
518.479743196
 21
60.0324735405
 31
0.0
  0
LWPOLYLINE
  5
94
330
1F
100
AcDbEntity
  8
0
  6
Continuous
 62
     7
370
    25
100
AcDbPolyline
 90
       25
 70
   128
 43
0.0
 10
-524.162736022
 20
58.4186410969
 10
-509.9497928456
 20
55.7580721881
 10
-482.8900754365
 20
50.8690919753
 10
-455.753846622
 20
46.1969229193
 10
-428.5446764412
 20
41.7421796017
 10
-401.2660448183
 20
37.5054304717
 10
-373.9214405217
 20
33.4872161576
 10
-346.5143607207
 20
29.6880493989
 10
-319.0483105409
 20
26.1084149814
 10
-291.5268026173
 20
22.7487696762
 10
-263.9533566478
 20
19.6095421813
 10
-236.3314989447
 20
16.6911330682
 10
-208.6647619858
 20
13.9939147304
 10
-180.9566839647
 20
11.5182313369
 10
-153.21080834
 20
9.2643987885
 10
-125.4306833844
 20
7.2327046775
 10
-97.6198617322
 20
5.4234082517
 10
-69.7818999276
 20
3.8367403812
 10
-41.9203579708
 20
2.4729035296
 10
-14.0387988651
 20
1.3320717278
 10
13.859211837
 20
0.4143905527
 10
41.7701064884
 20
-0.2800228919
 10
69.6903158016
 20
-0.7510799898
 10
97.6162693034
 20
-0.9987206234
 10
125.8797352599
 20
-1.0218460179
  0
LWPOLYLINE
  5
95
330
1F
100
AcDbEntity
  8
0
  6
Continuous
 62
     7
370
    25
100
AcDbPolyline
 90
       29
 70
   128
 43
0.0
 10
149.1025095732
 20
-25.6829320925
 10
161.9479453387
 20
-25.5545496308
 10
186.3432942607
 20
-25.1401508614
 10
210.7291452678
 20
-24.5023708387
 10
235.1012909002
 20
-23.6413175855
 10
259.4556491501
 20
-22.5571348811
 10
283.7881409799
 20
-21.250003765
 10
308.0946910002
 20
-19.7201425068
 10
332.3712281487
 20
-17.9678065695
 10
356.6136863687
 20
-15.9932885676
 10
380.8180052866
 20
-13.7969182176
 10
404.9801308884
 20
-11.3790622839
 10
429.0960161948
 20
-8.7401245173
 10
453.1616219357
 20
-5.8805455885
 10
477.1729172224
 20
-2.8008030144
 10
501.1258802191
 20
0.4985889209
 10
525.0164988129
 20
4.017079251
 10
548.8407712811
 20
7.7540804192
 10
572.5947069575
 20
11.708968375
 10
596.2743268969
 20
15.8810826778
 10
619.8756645367
 20
20.2697266061
 10
643.3947663572
 20
24.8741672723
 10
666.8276925387
 20
29.693635744
 10
690.1705176174
 20
34.7273271707
 10
713.4193311376
 20
39.974400916
 10
736.5702383018
 20
45.433980697
 10
759.6193606185
 20
51.1051547272
 10
781.3579844719
 20
56.6721713172
 10
784.7022466941
 20
57.5475898548
  0
LINE
  5
96
330
1F
100
AcDbEntity
  8
0
  6
Continuous
 62
     7
370
    25
100
AcDbLine
 10
308.6526818264
 20
35.5565082321
 30
0.0
 11
308.6526818264
 21
33.4351878885
 31
0.0
  0
LINE
  5
97
330
1F
100
AcDbEntity
  8
0
  6
Continuous
 62
     7
370
    25
100
AcDbLine
 10
329.8564212832
 20
21.3970461012
 30
0.0
 11
329.8564212832
 21
23.5183664447
 31
0.0
  0
LWPOLYLINE
  5
98
330
1F
100
AcDbEntity
  8
0
  6
Continuous
 62
     7
370
    25
100
AcDbPolyline
 90
        8
 70
   128
 43
0.0
 10
125.8797352599
 20
-1.0218460179
 10
126.3429000998
 20
-1.0399808169
 10
127.2582939188
 20
-1.1979025914
 10
128.0195476021
 20
-1.4834541844
 10
128.5455381848
 20
-1.8189019168
 10
128.8167282805
 20
-2.102267508
 10
128.8934021897
 20
-2.246208571
 10
128.8974545455
 20
-2.2644580852
  0
LWPOLYLINE
  5
99
330
1F
100
AcDbEntity
  8
0
  6
Continuous
 62
     7
370
    25
100
AcDbPolyline
 90
       14
 70
   128
 43
0.0
 10
128.8974545455
 20
-10.6628942933
 10
128.956257293
 20
-11.8249115696
 10
129.3035469261
 20
-13.7020447257
 10
129.9530478916
 20
-15.5189109561
 10
130.8945117302
 20
-17.2544708841
 10
132.1177449022
 20
-18.8880151128
 10
133.6093680963
 20
-20.3965555731
 10
135.3496934677
 20
-21.755366936
 10
137.3115872736
 20
-22.9403353554
 10
139.4617652464
 20
-23.9305178698
 10
141.7632511981
 20
-24.7095422238
 10
144.1767899049
 20
-25.2655635479
 10
146.6639317175
 20
-25.5911708093
 10
149.1025095732
 20
-25.6829320925
  0
ARC
  5
9A
330
1F
100
AcDbEntity
  8
0
  6
Continuous
 62
     7
370
    25
100
AcDbCircle
 10
703.6425518092
 20
88.1482653446
 30
0.0
 40
19.72895980439274
100
AcDbArc
 50
179.6274890483
 51
241.1882659848
  0
ARC
  5
9B
330
1F
100
AcDbEntity
  8
0
  6
Continuous
 62
     7
370
    25
100
AcDbCircle
 10
704.2054440037
 20
88.1304518088
 30
0.0
 40
19.67303399017025
100
AcDbArc
 50
300.5949356923
 51
0.3482416039
  0
LINE
  5
9C
330
1F
100
AcDbEntity
  8
0
  6
Continuous
 62
     7
370
    25
100
AcDbLine
 10
683.8974545455
 20
89.6704373095
 30
0.0
 11
683.8974545455
 21
88.2562237471
 31
0.0
  0
LINE
  5
9D
330
1F
100
AcDbEntity
  8
0
  6
Continuous
 62
     7
370
    25
100
AcDbLine
 10
723.8974545455
 20
88.2562237471
 30
0.0
 11
723.8974545455
 21
89.6704373095
 31
0.0
  0
ARC
  5
9E
330
1F
100
AcDbEntity
  8
0
  6
Continuous
 62
     7
370
    25
100
AcDbCircle
 10
-446.3574481908
 20
88.1482653446
 30
0.0
 40
19.72895980439234
100
AcDbArc
 50
179.6274890483
 51
241.1882659848
  0
ARC
  5
9F
330
1F
100
AcDbEntity
  8
0
  6
Continuous
 62
     7
370
    25
100
AcDbCircle
 10
-445.7945559963
 20
88.1304518088
 30
0.0
 40
19.67303399017057
100
AcDbArc
 50
300.5949356923
 51
0.3482416039
  0
LINE
  5
A0
330
1F
100
AcDbEntity
  8
0
  6
Continuous
 62
     7
370
    25
100
AcDbLine
 10
-466.1025454545
 20
89.6704373095
 30
0.0
 11
-466.1025454545
 21
88.2562237471
 31
0.0
  0
LINE
  5
A1
330
1F
100
AcDbEntity
  8
0
  6
Continuous
 62
     7
370
    25
100
AcDbLine
 10
-426.1025454545
 20
88.2562237471
 30
0.0
 11
-426.1025454545
 21
89.6704373095
 31
0.0
  0
LINE
  5
A2
330
1F
100
AcDbEntity
  8
0
  6
Continuous
 62
     7
370
    25
100
AcDbLine
 10
690.1974545455
 20
77.9921827076
 30
0.0
 11
690.1974545455
 21
77.5574214439
 31
0.0
  0
LINE
  5
A3
330
1F
100
AcDbEntity
  8
0
  6
Continuous
 62
     7
370
    25
100
AcDbLine
 10
717.5974545455
 20
77.5574214439
 30
0.0
 11
717.5974545455
 21
77.9921827076
 31
0.0
  0
LINE
  5
A4
330
1F
100
AcDbEntity
  8
0
  6
Continuous
 62
     7
370
    25
100
AcDbLine
 10
-459.8025454545
 20
77.9921827076
 30
0.0
 11
-459.8025454545
 21
77.5574214439
 31
0.0
  0
LINE
  5
A5
330
1F
100
AcDbEntity
  8
0
  6
Continuous
 62
     7
370
    25
100
AcDbLine
 10
-432.4025454545
 20
77.5574214439
 30
0.0
 11
-432.4025454545
 21
77.9921827076
 31
0.0
  0
LINE
  5
A6
330
1F
100
AcDbEntity
  8
0
  6
Continuous
 62
     7
370
    25
100
AcDbLine
 10
-491.1025454545
 20
-950.8112727273
 30
0.0
 11
748.8974545455
 21
-950.8112727273
 31
0.0
  0
ARC
  5
A7
330
1F
100
AcDbEntity
  8
0
  6
Continuous
 62
     7
370
    25
100
AcDbCircle
 10
-491.1025454545
 20
49.1887272727
 30
0.0
 40
1000.0
100
AcDbArc
 50
180.0
 51
270.0
  0
ARC
  5
A8
330
1F
100
AcDbEntity
  8
0
  6
Continuous
 62
     7
370
    25
100
AcDbCircle
 10
-491.1025454545
 20
181.1887272727
 30
0.0
 40
1000.0
100
AcDbArc
 50
90.0
 51
180.0
  0
LINE
  5
A9
330
1F
100
AcDbEntity
  8
0
  6
Continuous
 62
     7
370
    25
100
AcDbLine
 10
748.8974545455
 20
1181.1887272727
 30
0.0
 11
-491.1025454545
 21
1181.1887272727
 31
0.0
  0
ARC
  5
AA
330
1F
100
AcDbEntity
  8
0
  6
Continuous
 62
     7
370
    25
100
AcDbCircle
 10
748.8974545455
 20
181.1887272727
 30
0.0
 40
1000.0
100
AcDbArc
 50
0.0
 51
90.0
  0
LINE
  5
AB
330
1F
100
AcDbEntity
  8
0
  6
Continuous
 62
     7
370
    25
100
AcDbLine
 10
1748.8974545455
 20
49.1887272727
 30
0.0
 11
1748.8974545455
 21
181.1887272727
 31
0.0
  0
ARC
  5
AC
330
1F
100
AcDbEntity
  8
0
  6
Continuous
 62
     7
370
    25
100
AcDbCircle
 10
748.8974545455
 20
49.1887272727
 30
0.0
 40
1000.0
100
AcDbArc
 50
270.0
 51
0.0
  0
LINE
  5
AD
330
1F
100
AcDbEntity
  8
0
  6
Continuous
 62
     7
370
    25
100
AcDbLine
 10
-1491.1025454545
 20
181.1887272727
 30
0.0
 11
-1491.1025454545
 21
49.1887272727
 31
0.0
  0
ARC
  5
AE
330
1F
100
AcDbEntity
  8
0
  6
Continuous
 62
     7
370
    25
100
AcDbCircle
 10
-247.3604447122
 20
167.4239614416
 30
0.0
 40
2.972583970826553
100
AcDbArc
 50
0.54102839
 51
90.5309987743
  0
LINE
  5
AF
330
1F
100
AcDbEntity
  8
0
  6
Continuous
 62
     7
370
    25
100
AcDbLine
 10
-244.3879932658
 20
167.4520303226
 30
0.0
 11
-244.3879932658
 21
157.0171543975
 31
0.0
  0
ARC
  5
B0
330
1F
100
AcDbEntity
  8
0
  6
Continuous
 62
     7
370
    25
100
AcDbCircle
 10
-256.4155418193
 20
167.4239614416
 30
0.0
 40
2.972583970826837
100
AcDbArc
 50
89.4690012257
 51
179.45897161
  0
LINE
  5
B1
330
1F
100
AcDbEntity
  8
0
  6
Continuous
 62
     7
370
    25
100
AcDbLine
 10
-259.3879932658
 20
157.0171543975
 30
0.0
 11
-259.3879932658
 21
167.4520303226
 31
0.0
  0
LINE
  5
B2
330
1F
100
AcDbEntity
  8
0
  6
Continuous
 62
     7
370
    25
100
AcDbLine
 10
-256.3879932658
 20
170.3964177559
 30
0.0
 11
-247.3879932658
 21
170.3964177559
 31
0.0
  0
LINE
  5
B3
330
1F
100
AcDbEntity
  8
0
  6
Continuous
 62
     7
370
    25
100
AcDbLine
 10
-244.3879932658
 20
167.7671682005
 30
0.0
 11
-244.3879932658
 21
167.4520303226
 31
0.0
  0
LINE
  5
B4
330
1F
100
AcDbEntity
  8
0
  6
Continuous
 62
     7
370
    25
100
AcDbLine
 10
-259.3879932658
 20
167.4520303226
 30
0.0
 11
-259.3879932658
 21
167.7671682005
 31
0.0
  0
LINE
  5
B5
330
1F
100
AcDbEntity
  8
0
  6
Continuous
 62
     7
370
    25
100
AcDbLine
 10
-140.0459483486
 20
157.0171543975
 30
0.0
 11
-140.0459483486
 21
161.8891138201
 31
0.0
  0
LINE
  5
B6
330
1F
100
AcDbEntity
  8
0
  6
Continuous
 62
     7
370
    25
100
AcDbLine
 10
-125.0459483486
 20
161.8891138201
 30
0.0
 11
-125.0459483486
 21
157.0171543975
 31
0.0
  0
ARC
  5
B7
330
1F
100
AcDbEntity
  8
0
  6
Continuous
 62
     7
370
    25
100
AcDbCircle
 10
-161.02915525
 20
157.1804387947
 30
0.0
 40
2.791940796776123
100
AcDbArc
 50
5.3906691326
 51
94.5278737109
  0
LINE
  5
B8
330
1F
100
AcDbEntity
  8
0
  6
Continuous
 62
     7
370
    25
100
AcDbLine
 10
-158.249562433
 20
157.4427309686
 30
0.0
 11
-158.249562433
 21
157.0171543975
 31
0.0
  0
ARC
  5
B9
330
1F
100
AcDbEntity
  8
0
  6
Continuous
 62
     7
370
    25
100
AcDbCircle
 10
-170.469969616
 20
157.1804387947
 30
0.0
 40
2.791940796776183
100
AcDbArc
 50
85.4721262891
 51
174.6093308674
  0
LINE
  5
BA
330
1F
100
AcDbEntity
  8
0
  6
Continuous
 62
     7
370
    25
100
AcDbLine
 10
-173.249562433
 20
157.0171543975
 30
0.0
 11
-173.249562433
 21
157.4427309686
 31
0.0
  0
LINE
  5
BB
330
1F
100
AcDbEntity
  8
0
  6
Continuous
 62
     7
370
    25
100
AcDbLine
 10
-170.249562433
 20
159.9636660736
 30
0.0
 11
-161.249562433
 21
159.9636660736
 31
0.0
  0
LINE
  5
BC
330
1F
100
AcDbEntity
  8
0
  6
Continuous
 62
     7
370
    25
100
AcDbLine
 10
-173.249562433
 20
157.4427309686
 30
0.0
 11
-173.249562433
 21
159.5186788468
 31
0.0
  0
LINE
  5
BD
330
1F
100
AcDbEntity
  8
0
  6
Continuous
 62
     7
370
    25
100
AcDbLine
 10
-158.249562433
 20
159.5186788468
 30
0.0
 11
-158.249562433
 21
157.4427309686
 31
0.0
  0
ARC
  5
BE
330
1F
100
AcDbEntity
  8
0
  6
Continuous
 62
     7
370
    25
100
AcDbCircle
 10
-180.6731292293
 20
158.1045014605
 30
0.0
 40
2.739573263820742
100
AcDbArc
 50
7.5670458357
 51
95.9562834223
  0
LINE
  5
BF
330
1F
100
AcDbEntity
  8
0
  6
Continuous
 62
     7
370
    25
100
AcDbLine
 10
-177.9574136907
 20
158.4652656237
 30
0.0
 11
-177.9574136907
 21
157.0171543975
 31
0.0
  0
ARC
  5
C0
330
1F
100
AcDbEntity
  8
0
  6
Continuous
 62
     7
370
    25
100
AcDbCircle
 10
-190.2416981521
 20
158.1045014605
 30
0.0
 40
2.73957326382077
100
AcDbArc
 50
84.0437165777
 51
172.4329541643
  0
LINE
  5
C1
330
1F
100
AcDbEntity
  8
0
  6
Continuous
 62
     7
370
    25
100
AcDbLine
 10
-192.9574136907
 20
157.0171543975
 30
0.0
 11
-192.9574136907
 21
158.4652656237
 31
0.0
  0
LINE
  5
C2
330
1F
100
AcDbEntity
  8
0
  6
Continuous
 62
     7
370
    25
100
AcDbLine
 10
-189.9574136907
 20
160.829284757
 30
0.0
 11
-180.9574136907
 21
160.829284757
 31
0.0
  0
LINE
  5
C3
330
1F
100
AcDbEntity
  8
0
  6
Continuous
 62
     7
370
    25
100
AcDbLine
 10
-192.9574136907
 20
158.4652656237
 30
0.0
 11
-192.9574136907
 21
161.2211827125
 31
0.0
  0
LINE
  5
C4
330
1F
100
AcDbEntity
  8
0
  6
Continuous
 62
     7
370
    25
100
AcDbLine
 10
-177.9574136907
 20
161.2211827125
 30
0.0
 11
-177.9574136907
 21
158.4652656237
 31
0.0
  0
LINE
  5
C5
330
1F
100
AcDbEntity
  8
0
  6
Continuous
 62
     7
370
    25
100
AcDbLine
 10
-242.8906290604
 20
161.9370527014
 30
0.0
 11
-233.8906290604
 21
161.9370527014
 31
0.0
  0
ARC
  5
C6
330
1F
100
AcDbEntity
  8
0
  6
Continuous
 62
     7
370
    25
100
AcDbCircle
 10
-233.8882101271
 20
158.9394716315
 30
0.0
 40
2.997582045837132
100
AcDbArc
 50
0.0463102346
 51
90.0462354934
  0
LINE
  5
C7
330
1F
100
AcDbEntity
  8
0
  6
Continuous
 62
     7
370
    25
100
AcDbLine
 10
-230.8906290604
 20
158.9418944751
 30
0.0
 11
-230.8906290604
 21
157.0171543975
 31
0.0
  0
LINE
  5
C8
330
1F
100
AcDbEntity
  8
0
  6
Continuous
 62
     7
370
    25
100
AcDbLine
 10
-242.8906290604
 20
166.2531865922
 30
0.0
 11
-242.8906290604
 21
161.9370527014
 31
0.0
  0
LINE
  5
C9
330
1F
100
AcDbEntity
  8
0
  6
Continuous
 62
     7
370
    25
100
AcDbLine
 10
-233.8906290604
 20
161.9370527014
 30
0.0
 11
-233.8906290604
 21
166.2531865922
 31
0.0
  0
ARC
  5
CA
330
1F
100
AcDbEntity
  8
0
  6
Continuous
 62
     7
370
    25
100
AcDbCircle
 10
-233.8882101271
 20
163.2556055223
 30
0.0
 40
2.997582045837179
100
AcDbArc
 50
0.0463102346
 51
90.0462354934
  0
LINE
  5
CB
330
1F
100
AcDbEntity
  8
0
  6
Continuous
 62
     7
370
    25
100
AcDbLine
 10
-230.8906290604
 20
163.2580283659
 30
0.0
 11
-230.8906290604
 21
158.9418944751
 31
0.0
  0
LINE
  5
CC
330
1F
100
AcDbEntity
  8
0
  6
Continuous
 62
     7
370
    25
100
AcDbLine
 10
-242.8906290604
 20
166.2531865922
 30
0.0
 11
-233.8906290604
 21
166.2531865922
 31
0.0
  0
LINE
  5
CD
330
1F
100
AcDbEntity
  8
0
  6
Continuous
 62
     7
370
    25
100
AcDbLine
 10
-230.8906290604
 20
163.2854650839
 30
0.0
 11
-230.8906290604
 21
163.2580283659
 31
0.0
  0
LINE
  5
CE
330
1F
100
AcDbEntity
  8
0
  6
Continuous
 62
     7
370
    25
100
AcDbLine
 10
-305.8488004015
 20
161.1887272727
 30
0.0
 11
-305.8488004015
 21
157.0171543975
 31
0.0
  0
LINE
  5
CF
330
1F
100
AcDbEntity
  8
0
  6
Continuous
 62
     7
370
    25
100
AcDbLine
 10
-323.8038214598
 20
157.0171543975
 30
0.0
 11
-323.8038214598
 21
161.1887272727
 31
0.0
  0
LINE
  5
D0
330
1F
100
AcDbEntity
  8
0
  6
Continuous
 62
     7
370
    25
100
AcDbLine
 10
-308.8038214598
 20
161.1887272727
 30
0.0
 11
-308.8038214598
 21
157.0171543975
 31
0.0
  0
LINE
  5
D1
330
1F
100
AcDbEntity
  8
0
  6
Continuous
 62
     7
370
    25
100
AcDbLine
 10
-158.2458706807
 20
157.0171543975
 30
0.0
 11
-158.2458706807
 21
161.1887272727
 31
0.0
  0
LINE
  5
D2
330
1F
100
AcDbEntity
  8
0
  6
Continuous
 62
     7
370
    25
100
AcDbLine
 10
-143.2458706807
 20
161.1887272727
 30
0.0
 11
-143.2458706807
 21
157.0171543975
 31
0.0
  0
LINE
  5
D3
330
1F
100
AcDbEntity
  8
0
  6
Continuous
 62
     7
370
    25
100
AcDbLine
 10
-266.3484387818
 20
157.0171543975
 30
0.0
 11
-266.3484387818
 21
161.1887272727
 31
0.0
  0
LINE
  5
D4
330
1F
100
AcDbEntity
  8
0
  6
Continuous
 62
     7
370
    25
100
AcDbLine
 10
-219.332740108
 20
157.0171543975
 30
0.0
 11
-219.332740108
 21
157.6387623551
 31
0.0
  0
LINE
  5
D5
330
1F
100
AcDbEntity
  8
0
  6
Continuous
 62
     7
370
    25
100
AcDbLine
 10
-219.332740108
 20
157.6387623551
 30
0.0
 11
-219.332740108
 21
159.8199526892
 31
0.0
  0
LWPOLYLINE
  5
D6
330
1F
100
AcDbEntity
  8
0
  6
Continuous
 62
     7
370
    25
100
AcDbPolyline
 90
        9
 70
   128
 43
0.0
 10
-205.9027638278
 20
159.0469440917
 10
-205.3174928617
 20
159.0197486158
 10
-204.7547135307
 20
158.9392072949
 10
-204.2360531287
 20
158.808415287
 10
-203.7814434842
 20
158.6323988554
 10
-203.4083549909
 20
158.417922213
 10
-203.1311252303
 20
158.1732275767
 10
-202.9604079866
 20
157.9077184244
 10
-202.9027638278
 20
157.6315981238
  0
LINE
  5
D7
330
1F
100
AcDbEntity
  8
0
  6
Continuous
 62
     7
370
    25
100
AcDbLine
 10
-202.9027638278
 20
157.6315981238
 30
0.0
 11
-202.9027638278
 21
157.0171543975
 31
0.0
  0
LINE
  5
D8
330
1F
100
AcDbEntity
  8
0
  6
Continuous
 62
     7
370
    25
100
AcDbLine
 10
-214.9027638278
 20
159.0469440917
 30
0.0
 11
-205.9027638278
 21
159.0469440917
 31
0.0
  0
LWPOLYLINE
  5
D9
330
1F
100
AcDbEntity
  8
0
  6
Continuous
 62
     7
370
    25
100
AcDbPolyline
 90
        9
 70
   128
 43
0.0
 10
-217.9027638278
 20
157.6315981238
 10
-217.845119669
 20
157.9077184244
 10
-217.6744024253
 20
158.1732275767
 10
-217.3971726647
 20
158.417922213
 10
-217.0240841714
 20
158.6323988554
 10
-216.5694745269
 20
158.808415287
 10
-216.0508141249
 20
158.9392072949
 10
-215.4880347938
 20
159.0197486158
 10
-214.9027638278
 20
159.0469440917
  0
LINE
  5
DA
330
1F
100
AcDbEntity
  8
0
  6
Continuous
 62
     7
370
    25
100
AcDbLine
 10
-217.9027638278
 20
157.0171543975
 30
0.0
 11
-217.9027638278
 21
157.6315981238
 31
0.0
  0
LINE
  5
DB
330
1F
100
AcDbEntity
  8
0
  6
Continuous
 62
     7
370
    25
100
AcDbLine
 10
-202.9027638278
 20
164.4984322627
 30
0.0
 11
-202.9027638278
 21
157.6315981238
 31
0.0
  0
LINE
  5
DC
330
1F
100
AcDbEntity
  8
0
  6
Continuous
 62
     7
370
    25
100
AcDbLine
 10
-217.9027638278
 20
157.6315981238
 30
0.0
 11
-217.9027638278
 21
164.4984322627
 31
0.0
  0
LINE
  5
DD
330
1F
100
AcDbEntity
  8
0
  6
Continuous
 62
     7
370
    25
100
AcDbLine
 10
-293.3178830186
 20
170.402200807
 30
0.0
 11
-284.3178830186
 21
170.402200807
 31
0.0
  0
ARC
  5
DE
330
1F
100
AcDbEntity
  8
0
  6
Continuous
 62
     7
370
    25
100
AcDbCircle
 10
-284.290272087
 20
167.4298068369
 30
0.0
 40
2.972522207939281
100
AcDbArc
 50
0.5422881528
 51
90.5322122039
  0
LINE
  5
DF
330
1F
100
AcDbEntity
  8
0
  6
Continuous
 62
     7
370
    25
100
AcDbLine
 10
-281.3178830186
 20
167.4579404887
 30
0.0
 11
-281.3178830186
 21
157.0171543975
 31
0.0
  0
ARC
  5
E0
330
1F
100
AcDbEntity
  8
0
  6
Continuous
 62
     7
370
    25
100
AcDbCircle
 10
-293.3454939501
 20
167.4298068369
 30
0.0
 40
2.97252220793928
100
AcDbArc
 50
89.4677877961
 51
179.4577118472
  0
LINE
  5
E1
330
1F
100
AcDbEntity
  8
0
  6
Continuous
 62
     7
370
    25
100
AcDbLine
 10
-296.3178830186
 20
157.0171543975
 30
0.0
 11
-296.3178830186
 21
167.4579404887
 31
0.0
  0
LINE
  5
E2
330
1F
100
AcDbEntity
  8
0
  6
Continuous
 62
     7
370
    25
100
AcDbLine
 10
-296.3178830186
 20
167.4579404887
 30
0.0
 11
-296.3178830186
 21
167.7737986854
 31
0.0
  0
LINE
  5
E3
330
1F
100
AcDbEntity
  8
0
  6
Continuous
 62
     7
370
    25
100
AcDbLine
 10
-281.3178830186
 20
167.7737986854
 30
0.0
 11
-281.3178830186
 21
167.4579404887
 31
0.0
  0
LWPOLYLINE
  5
E4
330
1F
100
AcDbEntity
  8
0
  6
Continuous
 62
     7
370
    25
100
AcDbPolyline
 90
        9
 70
   128
 43
0.0
 10
-482.561886226
 20
147.6531933668
 10
-485.0819304508
 20
147.5203841664
 10
-487.5462904228
 20
147.1248911887
 10
-489.9005123184
 20
146.4754534593
 10
-492.0925759842
 20
145.5864213036
 10
-494.0740444022
 20
144.4774392545
 10
-495.8011339804
 20
143.1730119757
 10
-497.2356820184
 20
141.7019627941
 10
-498.3459899711
 20
140.0967968038
  0
ARC
  5
E5
330
1F
100
AcDbEntity
  8
0
  6
Continuous
 62
     7
370
    25
100
AcDbCircle
 10
-497.6011355994
 20
143.5980331371
 30
0.0
 40
3.579589906193917
100
AcDbArc
 50
189.5206866547
 51
257.9899232624
  0
LWPOLYLINE
  5
E6
330
1F
100
AcDbEntity
  8
0
  6
Continuous
 62
     7
370
    25
100
AcDbPolyline
 90
        9
 70
   128
 43
0.0
 10
-501.1314200437
 20
143.0059557446
 10
-499.8251753935
 20
144.8943863214
 10
-498.1374718194
 20
146.6250324173
 10
-496.1056017274
 20
148.1596527453
 10
-493.7744624121
 20
149.464337509
 10
-491.1955639818
 20
150.5102576922
 10
-488.4258911634
 20
151.2743020797
 10
-485.5266441375
 20
151.7395879358
 10
-482.561886226
 20
151.8958340539
  0
LINE
  5
E7
330
1F
100
AcDbEntity
  8
0
  6
Continuous
 62
     7
370
    25
100
AcDbLine
 10
-482.561886226
 20
151.8958340539
 30
0.0
 11
-482.561886226
 21
147.6531933668
 31
0.0
  0
LWPOLYLINE
  5
E8
330
1F
100
AcDbEntity
  8
0
  6
Continuous
 62
     7
370
    25
100
AcDbPolyline
 90
       10
 70
   128
 43
0.0
 10
742.2071136364
 20
151.8958340539
 10
744.8759614972
 20
151.7693548739
 10
747.4970720576
 20
151.3921796488
 10
750.0235618872
 20
150.7710548581
 10
752.4102400233
 20
149.9170904721
 10
754.614416295
 20
148.8455612299
 10
756.5966649161
 20
147.575633422
 10
758.3215296886
 20
146.1300220657
 10
759.7581582027
 20
144.5345846049
 10
760.8808536894
 20
142.8178584015
  0
ARC
  5
E9
330
1F
100
AcDbEntity
  8
0
  6
Continuous
 62
     7
370
    25
100
AcDbCircle
 10
757.3894839582
 20
143.4102503013
 30
0.0
 40
3.541269654092374
100
AcDbArc
 50
281.2407833684
 51
350.3701535943
  0
LWPOLYLINE
  5
EA
330
1F
100
AcDbEntity
  8
0
  6
Continuous
 62
     7
370
    25
100
AcDbPolyline
 90
        9
 70
   128
 43
0.0
 10
758.0797926815
 20
139.9369140623
 10
756.9870492302
 20
141.571801621
 10
755.559849496
 20
143.0722855143
 10
753.8304896897
 20
144.4044111783
 10
751.8381036254
 20
145.5380338405
 10
749.6277771586
 20
146.4475006677
 10
747.2495279344
 20
147.1122312661
 10
744.7571735348
 20
147.5171833966
 10
742.2071136364
 20
147.6531933668
  0
LINE
  5
EB
330
1F
100
AcDbEntity
  8
0
  6
Continuous
 62
     7
370
    25
100
AcDbLine
 10
742.2071136364
 20
151.8958340539
 30
0.0
 11
742.2071136364
 21
147.6531933668
 31
0.0
  0
LINE
  5
EC
330
1F
100
AcDbEntity
  8
0
  6
Continuous
 62
     7
370
    25
100
AcDbLine
 10
-482.561886226
 20
151.8958340539
 30
0.0
 11
742.2071136364
 21
151.8958340539
 31
0.0
  0
LINE
  5
ED
330
1F
100
AcDbEntity
  8
0
  6
Continuous
 62
     7
370
    25
100
AcDbLine
 10
742.2071136364
 20
147.6531933668
 30
0.0
 11
-482.561886226
 21
147.6531933668
 31
0.0
  0
LINE
  5
EE
330
1F
100
AcDbEntity
  8
0
  6
Continuous
 62
     7
370
    25
100
AcDbLine
 10
742.2071136364
 20
151.8958340539
 30
0.0
 11
742.2071136364
 21
156.138474741
 31
0.0
  0
LWPOLYLINE
  5
EF
330
1F
100
AcDbEntity
  8
0
  6
Continuous
 62
     7
370
    25
100
AcDbPolyline
 90
       10
 70
   128
 43
0.0
 10
760.8808536894
 20
147.0604990887
 10
759.7581582027
 20
148.777225292
 10
758.3215296886
 20
150.3726627528
 10
756.5966649161
 20
151.8182741091
 10
754.614416295
 20
153.088201917
 10
752.4102400233
 20
154.1597311592
 10
750.0235618872
 20
155.0136955452
 10
747.4970720576
 20
155.6348203359
 10
744.8759614972
 20
156.011995561
 10
742.2071136364
 20
156.138474741
  0
LINE
  5
F0
330
1F
100
AcDbEntity
  8
0
  6
Continuous
 62
     7
370
    25
100
AcDbLine
 10
760.8808536894
 20
147.0604990887
 30
0.0
 11
760.8808536894
 21
142.8178584015
 31
0.0
  0
ARC
  5
F1
330
1F
100
AcDbEntity
  8
0
  6
Continuous
 62
     7
370
    25
100
AcDbCircle
 10
330.5266868232
 20
20.7044977896
 30
0.0
 40
9.494401581858643
100
AcDbArc
 50
7.9914113153
 51
67.318200639
  0
ARC
  5
F2
330
1F
100
AcDbEntity
  8
0
  6
Continuous
 62
     7
370
    25
100
AcDbCircle
 10
323.6623629508
 20
4.9673678296
 30
0.0
 40
26.66272107957594
100
AcDbArc
 50
66.748730214
 51
93.0886987077
  0
LWPOLYLINE
  5
F3
330
1F
100
AcDbEntity
  8
0
  6
Continuous
 62
     7
370
    25
100
AcDbPolyline
 90
        3
 70
   128
 43
0.0
 10
313.770923439
 20
31.3419657875
 10
318.5056212395
 20
31.4814832906
 10
322.2257260581
 20
31.5913564452
  0
LWPOLYLINE
  5
F4
330
1F
100
AcDbEntity
  8
0
  6
Continuous
 62
     7
370
    25
100
AcDbPolyline
 90
        6
 70
   128
 43
0.0
 10
308.6568945084
 20
33.2470333113
 10
308.8597072597
 20
32.7109841214
 10
309.3269932778
 20
32.2634121795
 10
310.6724759666
 20
31.699022917
 10
312.2032350158
 20
31.4427787219
 10
313.770923439
 20
31.3419657875
  0
LWPOLYLINE
  5
F5
330
1F
100
AcDbEntity
  8
0
  6
Continuous
 62
     7
370
    25
100
AcDbPolyline
 90
        5
 70
   128
 43
0.0
 10
312.1642170317
 20
36.6276622263
 10
310.7535422118
 20
35.9066304782
 10
309.525730241
 20
35.0358048008
 10
308.8468583479
 20
34.1988471236
 10
308.6568945084
 20
33.2470333113
  0
ARC
  5
F6
330
1F
100
AcDbEntity
  8
0
  6
Continuous
 62
     7
370
    25
100
AcDbCircle
 10
321.4347336755
 20
16.3060882351
 30
0.0
 40
22.33626755574024
100
AcDbArc
 50
93.7285523047
 51
114.5220389434
  0
LWPOLYLINE
  5
F7
330
1F
100
AcDbEntity
  8
0
  6
Continuous
 62
     7
370
    25
100
AcDbPolyline
 90
        3
 70
   128
 43
0.0
 10
329.3187470271
 20
38.3387592385
 10
324.091629272
 20
38.5106176085
 10
319.982215282
 20
38.5950774145
  0
ARC
  5
F8
330
1F
100
AcDbEntity
  8
0
  6
Continuous
 62
     7
370
    25
100
AcDbCircle
 10
329.2725974538
 20
43.2526847562
 30
0.0
 40
4.914142221861278
100
AcDbArc
 50
270.5380826445
 51
311.8582237254
  0
LWPOLYLINE
  5
F9
330
1F
100
AcDbEntity
  8
0
  6
Continuous
 62
     7
370
    25
100
AcDbPolyline
 90
        3
 70
   128
 43
0.0
 10
333.4432799386
 20
41.7748082996
 10
333.2312176346
 20
40.4906571749
 10
332.5517538223
 20
39.5926400451
  0
LWPOLYLINE
  5
FA
330
1F
100
AcDbEntity
  8
0
  6
Continuous
 62
     7
370
    25
100
AcDbPolyline
 90
        4
 70
   128
 43
0.0
 10
327.1242212024
 20
44.3102799858
 10
331.2215785545
 20
43.4310829204
 10
332.6419394153
 20
42.7964831784
 10
333.4432799386
 20
41.7748082996
  0
ARC
  5
FB
330
1F
100
AcDbEntity
  8
0
  6
Continuous
 62
     7
370
    25
100
AcDbCircle
 10
320.7777425171
 20
6.3444487773
 30
0.0
 40
38.49262437221263
100
AcDbArc
 50
80.5100160271
 51
92.6725360065
  0
LWPOLYLINE
  5
FC
330
1F
100
AcDbEntity
  8
0
  6
Continuous
 62
     7
370
    25
100
AcDbPolyline
 90
        8
 70
   128
 43
0.0
 10
298.801122278
 20
31.2657630866
 10
299.2101248506
 20
34.2443496447
 10
300.9529028903
 20
36.975910579
 10
303.5844838522
 20
39.3315633234
 10
306.7372431442
 20
41.3447462272
 10
310.4816047438
 20
43.0433344727
 10
314.6137077156
 20
44.2066639462
 10
318.9829222726
 20
44.7952062646
  0
LWPOLYLINE
  5
FD
330
1F
100
AcDbEntity
  8
0
  6
Continuous
 62
     7
370
    25
100
AcDbPolyline
 90
        5
 70
   128
 43
0.0
 10
305.5610455772
 20
26.1601821228
 10
302.8623178319
 20
27.000046085
 10
300.5528431349
 20
28.2894254582
 10
299.3228241865
 20
29.6731645937
 10
298.801122278
 20
31.2657630866
  0
ARC
  5
FE
330
1F
100
AcDbEntity
  8
0
  6
Continuous
 62
     7
370
    25
100
AcDbCircle
 10
313.6710902057
 20
62.9983195608
 30
0.0
 40
37.72030214315128
100
AcDbArc
 50
257.5841932511
 51
273.5319289838
  0
ARC
  5
FF
330
1F
100
AcDbEntity
  8
0
  6
Continuous
 62
     7
370
    25
100
AcDbCircle
 10
320.3381196873
 20
-25.9369638234
 30
0.0
 40
51.47020608613855
100
AcDbArc
 50
83.7969446506
 51
94.8406230483
  0
ARC
  5
100
330
1F
100
AcDbEntity
  8
0
  6
Continuous
 62
     7
370
    25
100
AcDbCircle
 10
325.5960410068
 20
20.9289038148
 30
0.0
 40
4.313684832683132
100
AcDbArc
 50
9.7213093621
 51
85.9647288738
  0
LWPOLYLINE
  5
101
330
1F
100
AcDbEntity
  8
0
  6
Continuous
 62
     7
370
    25
100
AcDbPolyline
 90
        5
 70
   128
 43
0.0
 10
324.9884773195
 20
17.41072655
 10
326.8884892113
 20
18.2937911287
 10
328.5769770503
 20
19.3690093247
 10
329.552305931
 20
20.4229377895
 10
329.8477845027
 20
21.6572952484
  0
ARC
  5
102
330
1F
100
AcDbEntity
  8
0
  6
Continuous
 62
     7
370
    25
100
AcDbCircle
 10
312.374146379
 20
47.7178849442
 30
0.0
 40
32.82750668283266
100
AcDbArc
 50
273.6886710196
 51
292.5978706488
  0
LWPOLYLINE
  5
103
330
1F
100
AcDbEntity
  8
0
  6
Continuous
 62
     7
370
    25
100
AcDbPolyline
 90
        6
 70
   128
 43
0.0
 10
305.7765793635
 20
17.1821184471
 10
306.931624152
 20
16.1829889554
 10
308.4515262466
 20
15.4678923687
 10
310.1900199503
 20
15.0674368628
 10
312.3317399912
 20
14.8975641848
 10
314.4861037301
 20
14.958385083
  0
ARC
  5
104
330
1F
100
AcDbEntity
  8
0
  6
Continuous
 62
     7
370
    25
100
AcDbCircle
 10
301.7167598235
 20
13.5725327351
 30
0.0
 40
5.432425214364835
100
AcDbArc
 50
41.6402968321
 51
97.7323428519
  0
LWPOLYLINE
  5
105
330
1F
100
AcDbEntity
  8
0
  6
Continuous
 62
     7
370
    25
100
AcDbPolyline
 90
        5
 70
   128
 43
0.0
 10
296.5576115019
 20
15.2216307772
 10
296.7605818731
 20
16.7421933796
 10
297.8940204757
 20
18.0386104574
 10
299.3262014692
 20
18.686423303
 10
300.9858511124
 20
18.9555631238
  0
LWPOLYLINE
  5
106
330
1F
100
AcDbEntity
  8
0
  6
Continuous
 62
     7
370
    25
100
AcDbPolyline
 90
        5
 70
   128
 43
0.0
 10
301.3091517919
 20
10.4485706903
 10
299.3876414265
 20
11.4614907543
 10
297.8083240662
 20
12.7333276446
 10
296.960591672
 20
13.9219210446
 10
296.5576115019
 20
15.2216307772
  0
ARC
  5
107
330
1F
100
AcDbEntity
  8
0
  6
Continuous
 62
     7
370
    25
100
AcDbCircle
 10
311.6557046434
 20
37.5092601662
 30
0.0
 40
28.97122832772159
100
AcDbArc
 50
249.075833273
 51
276.366348482
  0
ARC
  5
108
330
1F
100
AcDbEntity
  8
0
  6
Continuous
 62
     7
370
    25
100
AcDbCircle
 10
311.9657586887
 20
63.3973480839
 30
0.0
 40
54.75763263679838
100
AcDbArc
 50
273.0383859804
 51
290.8601326454
  0
LWPOLYLINE
  5
109
330
1F
100
AcDbEntity
  8
0
  6
Continuous
 62
     7
370
    25
100
AcDbPolyline
 90
        6
 70
   128
 43
0.0
 10
339.9288875097
 20
22.0244537167
 10
339.8620549344
 20
19.7498761745
 10
338.9729667156
 20
17.5655801279
 10
337.2988670902
 20
15.6230827736
 10
334.6114170557
 20
13.7307005494
 10
331.4642879003
 20
12.2289428853
  0
ARC
  5
10A
330
1F
100
AcDbEntity
  8
0
  6
Continuous
 62
     7
370
    25
100
AcDbCircle
 10
388.007249314
 20
19.6369454682
 30
0.0
 40
4.010370576300742
100
AcDbArc
 50
270.8603268069
 51
322.8206187184
  0
LWPOLYLINE
  5
10B
330
1F
100
AcDbEntity
  8
0
  6
Continuous
 62
     7
370
    25
100
AcDbPolyline
 90
        3
 70
   128
 43
0.0
 10
391.7021483097
 20
19.2224089664
 10
391.6307380983
 20
18.0697198666
 10
391.202501805
 20
17.2134286685
  0
LWPOLYLINE
  5
10C
330
1F
100
AcDbEntity
  8
0
  6
Continuous
 62
     7
370
    25
100
AcDbPolyline
 90
        5
 70
   128
 43
0.0
 10
387.5874123885
 20
21.9172135727
 10
389.2134112866
 20
21.5809507084
 10
390.6112431003
 20
20.9107211517
 10
391.350460851
 20
20.1297903237
 10
391.7021483097
 20
19.2224089664
  0
LWPOLYLINE
  5
10D
330
1F
100
AcDbEntity
  8
0
  6
Continuous
 62
     7
370
    25
100
AcDbPolyline
 90
        3
 70
   128
 43
0.0
 10
383.7273982148
 20
22.8593560572
 10
385.8372350983
 20
22.2231536557
 10
387.5874123885
 20
21.9172135727
  0
LWPOLYLINE
  5
10E
330
1F
100
AcDbEntity
  8
0
  6
Continuous
 62
     7
370
    25
100
AcDbPolyline
 90
        3
 70
   128
 43
0.0
 10
375.3117835569
 20
26.6209984769
 10
379.9553994236
 20
24.4365403092
 10
383.7273982148
 20
22.8593560572
  0
LWPOLYLINE
  5
10F
330
1F
100
AcDbEntity
  8
0
  6
Continuous
 62
     7
370
    25
100
AcDbPolyline
 90
        3
 70
   128
 43
0.0
 10
367.1900786076
 20
30.6943792187
 10
371.7366279608
 20
28.4116855241
 10
375.3117835569
 20
26.6209984769
  0
LWPOLYLINE
  5
110
330
1F
100
AcDbEntity
  8
0
  6
Continuous
 62
     7
370
    25
100
AcDbPolyline
 90
        3
 70
   128
 43
0.0
 10
377.6630612261
 20
40.5106726049
 10
371.9054235396
 20
34.9562437109
 10
367.1900786076
 20
30.6943792187
  0
LWPOLYLINE
  5
111
330
1F
100
AcDbEntity
  8
0
  6
Continuous
 62
     7
370
    25
100
AcDbPolyline
 90
        6
 70
   128
 43
0.0
 10
384.0115109332
 20
48.6435790519
 10
383.5938884618
 20
47.3776582657
 10
382.7951297308
 20
46.1941237976
 10
381.8752760582
 20
45.0550536835
 10
380.905423237
 20
43.936849433
 10
377.6630612261
 20
40.5106726049
  0
LWPOLYLINE
  5
112
330
1F
100
AcDbEntity
  8
0
  6
Continuous
 62
     7
370
    25
100
AcDbPolyline
 90
        5
 70
   128
 43
0.0
 10
378.7505271482
 20
51.3176011034
 10
380.7442568452
 20
51.2224468949
 10
382.503714899
 20
50.5483209286
 10
383.5216325852
 20
49.6997335183
 10
384.0115109332
 20
48.6435790519
  0
LWPOLYLINE
  5
113
330
1F
100
AcDbEntity
  8
0
  6
Continuous
 62
     7
370
    25
100
AcDbPolyline
 90
        3
 70
   128
 43
0.0
 10
375.5077233626
 20
49.835112194
 10
377.1046825686
 20
50.9179968015
 10
378.7505271482
 20
51.3176011034
  0
LWPOLYLINE
  5
114
330
1F
100
AcDbEntity
  8
0
  6
Continuous
 62
     7
370
    25
100
AcDbPolyline
 90
        4
 70
   128
 43
0.0
 10
361.0375687063
 20
35.4674393055
 10
365.1679832688
 20
39.4499766592
 10
369.2037512242
 20
43.4812827921
 10
375.5077233626
 20
49.835112194
  0
LWPOLYLINE
  5
115
330
1F
100
AcDbEntity
  8
0
  6
Continuous
 62
     7
370
    25
100
AcDbPolyline
 90
        3
 70
   128
 43
0.0
 10
360.312591425
 20
41.0925841394
 10
360.7026158653
 20
37.9414121468
 10
361.0375687063
 20
35.4674393055
  0
LWPOLYLINE
  5
116
330
1F
100
AcDbEntity
  8
0
  6
Continuous
 62
     7
370
    25
100
AcDbPolyline
 90
        3
 70
   128
 43
0.0
 10
359.4700502602
 20
46.6900189002
 10
359.9850723387
 20
43.558711117
 10
360.312591425
 20
41.0925841394
  0
LWPOLYLINE
  5
117
330
1F
100
AcDbEntity
  8
0
  6
Continuous
 62
     7
370
    25
100
AcDbPolyline
 90
        5
 70
   128
 43
0.0
 10
354.1796755043
 20
49.3571134335
 10
356.1922163079
 20
49.2866916022
 10
357.9719209951
 20
48.6213376562
 10
358.9813690221
 20
47.7566460238
 10
359.4700502602
 20
46.6900189002
  0
LWPOLYLINE
  5
118
330
1F
100
AcDbEntity
  8
0
  6
Continuous
 62
     7
370
    25
100
AcDbPolyline
 90
        5
 70
   128
 43
0.0
 10
350.0649395831
 20
45.7686589705
 10
350.2527744413
 20
47.1900670712
 10
351.3414614291
 20
48.3967184151
 10
352.6472511381
 20
49.0441410577
 10
354.1796755043
 20
49.3571134335
  0
LWPOLYLINE
  5
119
330
1F
100
AcDbEntity
  8
0
  6
Continuous
 62
     7
370
    25
100
AcDbPolyline
 90
        4
 70
   128
 43
0.0
 10
355.4532842418
 20
15.0728255236
 10
353.899009894
 20
23.6636374576
 10
352.4529439139
 20
32.2639857923
 10
350.0649395831
 20
45.7686589705
  0
LWPOLYLINE
  5
11A
330
1F
100
AcDbEntity
  8
0
  6
Continuous
 62
     7
370
    25
100
AcDbPolyline
 90
        3
 70
   128
 43
0.0
 10
357.0795846297
 20
12.7313243489
 10
355.9089721546
 20
13.9561316962
 10
355.4532842418
 20
15.0728255236
  0
ARC
  5
11B
330
1F
100
AcDbEntity
  8
0
  6
Continuous
 62
     7
370
    25
100
AcDbCircle
 10
360.6128528754
 20
17.6971134644
 30
0.0
 40
6.0945094991266
100
AcDbArc
 50
234.5673118273
 51
277.7001457417
  0
ARC
  5
11C
330
1F
100
AcDbEntity
  8
0
  6
Continuous
 62
     7
370
    25
100
AcDbCircle
 10
361.4202107225
 20
15.6681971382
 30
0.0
 40
4.010648759171489
100
AcDbArc
 50
270.1319676007
 51
321.1778826856
  0
LWPOLYLINE
  5
11D
330
1F
100
AcDbEntity
  8
0
  6
Continuous
 62
     7
370
    25
100
AcDbPolyline
 90
        3
 70
   128
 43
0.0
 10
365.0053497732
 20
15.1005355967
 10
364.9526370488
 20
13.9843906939
 10
364.5448912297
 20
13.1539029633
  0
LINE
  5
11E
330
1F
100
AcDbEntity
  8
0
  6
Continuous
 62
     7
370
    25
100
AcDbLine
 10
363.1341246281
 20
24.764423581
 30
0.0
 11
365.0053497732
 21
15.1005355967
 31
0.0
  0
LWPOLYLINE
  5
11F
330
1F
100
AcDbEntity
  8
0
  6
Continuous
 62
     7
370
    25
100
AcDbPolyline
 90
        3
 70
   128
 43
0.0
 10
375.0374678288
 20
18.7929028337
 10
368.3219126695
 20
22.08698103
 10
363.1341246281
 20
24.764423581
  0
ARC
  5
120
330
1F
100
AcDbEntity
  8
0
  6
Continuous
 62
     7
370
    25
100
AcDbCircle
 10
388.1541664518
 20
44.3810028522
 30
0.0
 40
28.75410658185912
100
AcDbArc
 50
242.8598998363
 51
269.8272372058
  0
LWPOLYLINE
  5
121
330
1F
100
AcDbEntity
  8
0
  6
Continuous
 62
     7
370
    25
100
AcDbPolyline
 90
        3
 70
   128
 43
0.0
 10
433.6382816186
 20
28.647414503
 10
435.7665306399
 20
28.5463344446
 10
437.214183074
 20
27.9408076396
  0
LWPOLYLINE
  5
122
330
1F
100
AcDbEntity
  8
0
  6
Continuous
 62
     7
370
    25
100
AcDbPolyline
 90
        3
 70
   128
 43
0.0
 10
432.2471089976
 20
28.3356761809
 10
433.0118889611
 20
28.5423641716
 10
433.6382816186
 20
28.647414503
  0
ARC
  5
123
330
1F
100
AcDbEntity
  8
0
  6
Continuous
 62
     7
370
    25
100
AcDbCircle
 10
397.5887455283
 20
127.3336642863
 30
0.0
 40
104.8894837783396
100
AcDbArc
 50
278.4521844241
 51
289.2947213247
  0
LWPOLYLINE
  5
124
330
1F
100
AcDbEntity
  8
0
  6
Continuous
 62
     7
370
    25
100
AcDbPolyline
 90
        3
 70
   128
 43
0.0
 10
412.2416548283
 20
29.2986012202
 10
412.6363708129
 20
26.0959324747
 10
413.0058200708
 20
23.5833986488
  0
LWPOLYLINE
  5
125
330
1F
100
AcDbEntity
  8
0
  6
Continuous
 62
     7
370
    25
100
AcDbPolyline
 90
        3
 70
   128
 43
0.0
 10
407.8428061887
 20
52.0485712133
 10
410.5099684596
 20
39.3280799249
 10
412.2416548283
 20
29.2986012202
  0
ARC
  5
126
330
1F
100
AcDbEntity
  8
0
  6
Continuous
 62
     7
370
    25
100
AcDbCircle
 10
403.771224882
 20
50.4708381212
 30
0.0
 40
4.366579444647078
100
AcDbArc
 50
21.1812924337
 51
103.9442027376
  0
LWPOLYLINE
  5
127
330
1F
100
AcDbEntity
  8
0
  6
Continuous
 62
     7
370
    25
100
AcDbPolyline
 90
        5
 70
   128
 43
0.0
 10
399.0647028901
 20
51.0510085827
 10
399.1505454623
 20
52.437702489
 10
400.0574875095
 20
53.6690776843
 10
401.2525213996
 20
54.3627916786
 10
402.7189802677
 20
54.7087382284
  0
LWPOLYLINE
  5
128
330
1F
100
AcDbEntity
  8
0
  6
Continuous
 62
     7
370
    25
100
AcDbPolyline
 90
        3
 70
   128
 43
0.0
 10
403.4047695879
 20
28.7097621674
 10
401.1635336102
 20
41.2392600087
 10
399.0647028901
 20
51.0510085827
  0
LWPOLYLINE
  5
129
330
1F
100
AcDbEntity
  8
0
  6
Continuous
 62
     7
370
    25
100
AcDbPolyline
 90
       18
 70
   128
 43
0.0
 10
404.5118294905
 20
21.3388827299
 10
404.5183741205
 20
21.329100881
 10
404.5219362107
 20
21.3247548615
 10
404.5223974715
 20
21.3244554574
 10
404.5225493663
 20
21.3244000294
 10
404.5226851868
 20
21.3243787671
 10
404.5228204037
 20
21.3243953074
 10
404.5229357051
 20
21.3244542935
 10
404.5230315387
 20
21.3245548356
 10
404.5231083522
 20
21.3246960437
 10
404.5232289638
 20
21.3253510815
 10
404.5231958324
 20
21.3263372224
 10
404.5228618323
 20
21.3284988129
 10
404.5052138814
 20
21.3941594528
 10
404.5010461237
 20
21.4341504785
 10
404.456334586
 20
21.774178477
 10
404.2517039711
 20
23.1600685641
 10
403.4047695879
 20
28.7097621674
  0
LWPOLYLINE
  5
12A
330
1F
100
AcDbEntity
  8
0
  6
Continuous
 62
     7
370
    25
100
AcDbPolyline
 90
        7
 70
   128
 43
0.0
 10
413.5348575464
 20
17.2793570247
 10
411.2568010995
 20
17.1423874142
 10
408.9913668119
 20
17.3387271052
 10
406.9411303647
 20
18.0362034673
 10
405.7243146811
 20
18.9656645332
 10
404.9349986793
 20
20.1045171338
 10
404.5118294905
 20
21.3388827299
  0
LWPOLYLINE
  5
12B
330
1F
100
AcDbEntity
  8
0
  6
Continuous
 62
     7
370
    25
100
AcDbPolyline
 90
        3
 70
   128
 43
0.0
 10
425.3402308442
 20
19.4061051331
 10
418.7807174725
 20
18.067985418
 10
413.5348575464
 20
17.2793570247
  0
LWPOLYLINE
  5
12C
330
1F
100
AcDbEntity
  8
0
  6
Continuous
 62
     7
370
    25
100
AcDbPolyline
 90
        3
 70
   128
 43
0.0
 10
436.704739579
 20
22.6274011278
 10
430.4484979435
 20
20.6359142379
 10
425.3402308442
 20
19.4061051331
  0
ARC
  5
12D
330
1F
100
AcDbEntity
  8
0
  6
Continuous
 62
     7
370
    25
100
AcDbCircle
 10
435.8568790747
 20
25.5136038032
 30
0.0
 40
3.008161119005338
100
AcDbArc
 50
286.3708538949
 51
7.3260225803
  0
LWPOLYLINE
  5
12E
330
1F
100
AcDbEntity
  8
0
  6
Continuous
 62
     7
370
    25
100
AcDbPolyline
 90
        3
 70
   128
 43
0.0
 10
437.214183074
 20
27.9408076396
 10
438.3904569945
 20
26.8973218875
 10
438.8404834619
 20
25.8971897505
  0
ARC
  5
12F
330
1F
100
AcDbEntity
  8
0
  6
Continuous
 62
     7
370
    25
100
AcDbCircle
 10
477.9145156947
 20
59.7239292868
 30
0.0
 40
3.715551364514088
100
AcDbArc
 50
20.8356410209
 51
92.6518748272
  0
ARC
  5
130
330
1F
100
AcDbEntity
  8
0
  6
Continuous
 62
     7
370
    25
100
AcDbCircle
 10
472.2205638721
 20
14.0881965632
 30
0.0
 40
49.65530660632823
100
AcDbArc
 50
83.6150723001
 51
98.9596784635
  0
ARC
  5
131
330
1F
100
AcDbEntity
  8
0
  6
Continuous
 62
     7
370
    25
100
AcDbCircle
 10
472.5256743456
 20
-9.2193868189
 30
0.0
 40
72.80214281257227
100
AcDbArc
 50
96.3391970006
 51
106.9263316825
  0
LWPOLYLINE
  5
132
330
1F
100
AcDbEntity
  8
0
  6
Continuous
 62
     7
370
    25
100
AcDbPolyline
 90
        3
 70
   128
 43
0.0
 10
448.5867636057
 20
60.6783493568
 10
450.1533535572
 20
60.6884763318
 10
451.3299208865
 20
60.4289586992
  0
LWPOLYLINE
  5
133
330
1F
100
AcDbEntity
  8
0
  6
Continuous
 62
     7
370
    25
100
AcDbPolyline
 90
        6
 70
   128
 43
0.0
 10
444.9814711795
 20
56.6049686151
 10
444.8340917403
 20
57.6264001613
 10
445.0034646099
 20
58.6443360885
 10
445.6297539353
 20
59.5657834309
 10
446.9545402824
 20
60.3206911068
 10
448.5867636057
 20
60.6783493568
  0
LWPOLYLINE
  5
134
330
1F
100
AcDbEntity
  8
0
  6
Continuous
 62
     7
370
    25
100
AcDbPolyline
 90
        3
 70
   128
 43
0.0
 10
446.8135083634
 20
51.9081112292
 10
445.7638110854
 20
54.5335625384
 10
444.9814711795
 20
56.6049686151
  0
LWPOLYLINE
  5
135
330
1F
100
AcDbEntity
  8
0
  6
Continuous
 62
     7
370
    25
100
AcDbPolyline
 90
        4
 70
   128
 43
0.0
 10
450.2326579742
 20
33.1899568682
 10
449.181846328
 20
38.4223908516
 10
448.3531780199
 20
43.6753227397
 10
446.8135083634
 20
51.9081112292
  0
LWPOLYLINE
  5
136
330
1F
100
AcDbEntity
  8
0
  6
Continuous
 62
     7
370
    25
100
AcDbPolyline
 90
        5
 70
   128
 43
0.0
 10
456.267603992
 20
23.94171998
 10
454.2569463893
 20
25.2626323683
 10
452.8304128442
 20
26.9278646504
 10
451.7962463243
 20
28.7340091282
 10
450.2326579742
 20
33.1899568682
  0
LWPOLYLINE
  5
137
330
1F
100
AcDbEntity
  8
0
  6
Continuous
 62
     7
370
    25
100
AcDbPolyline
 90
        5
 70
   128
 43
0.0
 10
470.7769466094
 20
23.6784742858
 10
466.6898145472
 20
23.2495425213
 10
462.5674322708
 20
23.0640594956
 10
459.3312841365
 20
23.2181619409
 10
456.267603992
 20
23.94171998
  0
ARC
  5
138
330
1F
100
AcDbEntity
  8
0
  6
Continuous
 62
     7
370
    25
100
AcDbCircle
 10
455.5854677418
 20
163.6034409869
 30
0.0
 40
140.7472107592025
100
AcDbArc
 50
276.1962618025
 51
281.7908765626
  0
LWPOLYLINE
  5
139
330
1F
100
AcDbEntity
  8
0
  6
Continuous
 62
     7
370
    25
100
AcDbPolyline
 90
        5
 70
   128
 43
0.0
 10
487.4416270904
 20
29.3036191197
 10
487.4551244615
 20
28.0384111101
 10
486.6905429857
 20
26.9023280933
 10
485.6170550953
 20
26.2584396946
 10
484.3457781592
 20
25.826004949
  0
ARC
  5
13A
330
1F
100
AcDbEntity
  8
0
  6
Continuous
 62
     7
370
    25
100
AcDbCircle
 10
484.4866722896
 20
28.4474894207
 30
0.0
 40
3.076477845848945
100
AcDbArc
 50
16.157720861
 51
75.3126637551
  0
LWPOLYLINE
  5
13B
330
1F
100
AcDbEntity
  8
0
  6
Continuous
 62
     7
370
    25
100
AcDbPolyline
 90
        3
 70
   128
 43
0.0
 10
481.7495757327
 20
31.7490330684
 10
483.7631150393
 20
31.7740297852
 10
485.2666952463
 20
31.4234397098
  0
LWPOLYLINE
  5
13C
330
1F
100
AcDbEntity
  8
0
  6
Continuous
 62
     7
370
    25
100
AcDbPolyline
 90
        3
 70
   128
 43
0.0
 10
477.8797645687
 20
30.9800785406
 10
480.0438082396
 20
31.4182533487
 10
481.7495757327
 20
31.7490330684
  0
LWPOLYLINE
  5
13D
330
1F
100
AcDbEntity
  8
0
  6
Continuous
 62
     7
370
    25
100
AcDbPolyline
 90
        3
 70
   128
 43
0.0
 10
465.3102260284
 20
29.2481989735
 10
472.3493589495
 20
30.2173837979
 10
477.8797645687
 20
30.9800785406
  0
ARC
  5
13E
330
1F
100
AcDbEntity
  8
0
  6
Continuous
 62
     7
370
    25
100
AcDbCircle
 10
462.3111837007
 20
44.9865189499
 30
0.0
 40
16.02151586340079
100
AcDbArc
 50
265.268956434
 51
280.7887491903
  0
ARC
  5
13F
330
1F
100
AcDbEntity
  8
0
  6
Continuous
 62
     7
370
    25
100
AcDbCircle
 10
471.6085552734
 20
35.96059684
 30
0.0
 40
12.68607579123888
100
AcDbArc
 50
188.1290888543
 51
213.1707365213
  0
LWPOLYLINE
  5
140
330
1F
100
AcDbEntity
  8
0
  6
Continuous
 62
     7
370
    25
100
AcDbPolyline
 90
        3
 70
   128
 43
0.0
 10
457.8351224382
 20
38.9744346222
 10
458.521827333
 20
36.2829316074
 10
459.0499492339
 20
34.166736944
  0
LWPOLYLINE
  5
141
330
1F
100
AcDbEntity
  8
0
  6
Continuous
 62
     7
370
    25
100
AcDbPolyline
 90
        3
 70
   128
 43
0.0
 10
471.884006512
 20
41.3505733883
 10
464.0247583029
 20
39.9959818673
 10
457.8351224382
 20
38.9744346222
  0
LWPOLYLINE
  5
142
330
1F
100
AcDbEntity
  8
0
  6
Continuous
 62
     7
370
    25
100
AcDbPolyline
 90
        3
 70
   128
 43
0.0
 10
479.7313957332
 20
42.6460193044
 10
475.3358308715
 20
41.9237102245
 10
471.884006512
 20
41.3505733883
  0
LWPOLYLINE
  5
143
330
1F
100
AcDbEntity
  8
0
  6
Continuous
 62
     7
370
    25
100
AcDbPolyline
 90
        5
 70
   128
 43
0.0
 10
483.1701393245
 20
46.2621838405
 10
483.1806019729
 20
44.907426787
 10
482.3243366551
 20
43.7028457865
 10
481.1287549983
 20
43.0535691626
 10
479.7313957332
 20
42.6460193044
  0
LWPOLYLINE
  5
144
330
1F
100
AcDbEntity
  8
0
  6
Continuous
 62
     7
370
    25
100
AcDbPolyline
 90
        5
 70
   128
 43
0.0
 10
477.7622006852
 20
48.804583045
 10
479.7826854856
 20
48.7818651693
 10
481.6107120578
 20
48.173824776
 10
482.6559523136
 20
47.3281167915
 10
483.1701393245
 20
46.2621838405
  0
LWPOLYLINE
  5
145
330
1F
100
AcDbEntity
  8
0
  6
Continuous
 62
     7
370
    25
100
AcDbPolyline
 90
        3
 70
   128
 43
0.0
 10
470.0127813669
 20
47.5160646471
 10
474.3425577068
 20
48.2684506175
 10
477.7622006852
 20
48.804583045
  0
LWPOLYLINE
  5
146
330
1F
100
AcDbEntity
  8
0
  6
Continuous
 62
     7
370
    25
100
AcDbPolyline
 90
        3
 70
   128
 43
0.0
 10
457.5216187489
 20
45.3338963925
 10
464.5193643681
 20
46.5480943534
 10
470.0127813669
 20
47.5160646471
  0
LWPOLYLINE
  5
147
330
1F
100
AcDbEntity
  8
0
  6
Continuous
 62
     7
370
    25
100
AcDbPolyline
 90
        3
 70
   128
 43
0.0
 10
455.1801380699
 20
54.6444809451
 10
456.4910693259
 20
49.4305261376
 10
457.5216187489
 20
45.3338963925
  0
LWPOLYLINE
  5
148
330
1F
100
AcDbEntity
  8
0
  6
Continuous
 62
     7
370
    25
100
AcDbPolyline
 90
        3
 70
   128
 43
0.0
 10
466.0058123389
 20
56.9236344554
 10
459.8672061417
 20
55.8275666579
 10
455.1801380699
 20
54.6444809451
  0
LWPOLYLINE
  5
149
330
1F
100
AcDbEntity
  8
0
  6
Continuous
 62
     7
370
    25
100
AcDbPolyline
 90
        3
 70
   128
 43
0.0
 10
476.3318401031
 20
57.4224157707
 10
470.5294505163
 20
57.3330947454
 10
466.0058123389
 20
56.9236344554
  0
LWPOLYLINE
  5
14A
330
1F
100
AcDbEntity
  8
0
  6
Continuous
 62
     7
370
    25
100
AcDbPolyline
 90
        3
 70
   128
 43
0.0
 10
477.7034187435
 20
57.4847634352
 10
476.937669044
 20
57.4249772563
 10
476.3318401031
 20
57.4224157707
  0
ARC
  5
14B
330
1F
100
AcDbEntity
  8
0
  6
Continuous
 62
     7
370
    25
100
AcDbCircle
 10
477.4232819701
 20
62.0338403871
 30
0.0
 40
4.557694343295576
100
AcDbArc
 50
273.5238822733
 51
316.5250641352
  0
LWPOLYLINE
  5
14C
330
1F
100
AcDbEntity
  8
0
  6
Continuous
 62
     7
370
    25
100
AcDbPolyline
 90
        3
 70
   128
 43
0.0
 10
481.387087092
 20
61.0455078251
 10
481.3145863417
 20
59.7951973764
 10
480.7306887427
 20
58.8979771619
  0
LWPOLYLINE
  5
14D
330
1F
100
AcDbEntity
  8
0
  6
Continuous
 62
     7
370
    25
100
AcDbPolyline
 90
        5
 70
   128
 43
0.0
 10
517.8720817205
 20
67.5030519182
 10
521.1460932109
 20
66.1734886219
 10
523.885491931
 20
64.3405652203
 10
525.4570916414
 20
62.5626116151
 10
526.4052602619
 20
60.5755336499
  0
ARC
  5
14E
330
1F
100
AcDbEntity
  8
0
  6
Continuous
 62
     7
370
    25
100
AcDbCircle
 10
509.3250730026
 20
41.5684713005
 30
0.0
 40
27.3066627371262
100
AcDbArc
 50
71.7598308047
 51
98.5749677156
  0
ARC
  5
14F
330
1F
100
AcDbEntity
  8
0
  6
Continuous
 62
     7
370
    25
100
AcDbCircle
 10
511.3459057506
 20
21.3220810788
 30
0.0
 40
47.63897690768309
100
AcDbArc
 50
97.3474364159
 51
106.5959056059
  0
LWPOLYLINE
  5
150
330
1F
100
AcDbEntity
  8
0
  6
Continuous
 62
     7
370
    25
100
AcDbPolyline
 90
        7
 70
   128
 43
0.0
 10
494.8491545422
 20
60.5686061316
 10
494.418009912
 20
62.453092243
 10
494.4259474419
 20
64.3591362885
 10
494.7347041287
 20
65.2869823314
 10
495.3997067996
 20
66.1139088125
 10
496.4478331389
 20
66.7069432337
 10
497.7392666774
 20
66.9765605298
  0
LWPOLYLINE
  5
151
330
1F
100
AcDbEntity
  8
0
  6
Continuous
 62
     7
370
    25
100
AcDbPolyline
 90
        3
 70
   128
 43
0.0
 10
497.4943419202
 20
49.9695031811
 10
496.1035820174
 20
55.9165153084
 10
494.8491545422
 20
60.5686061316
  0
LWPOLYLINE
  5
152
330
1F
100
AcDbEntity
  8
0
  6
Continuous
 62
     7
370
    25
100
AcDbPolyline
 90
        3
 70
   128
 43
0.0
 10
500.1199353175
 20
39.405037822
 10
498.5532426209
 20
45.3090444392
 10
497.4943419202
 20
49.9695031811
  0
LINE
  5
153
330
1F
100
AcDbEntity
  8
0
  6
Continuous
 62
     7
370
    25
100
AcDbLine
 10
502.0989273558
 20
33.0455760517
 30
0.0
 11
500.1199353175
 21
39.405037822
 31
0.0
  0
LWPOLYLINE
  5
154
330
1F
100
AcDbEntity
  8
0
  6
Continuous
 62
     7
370
    25
100
AcDbPolyline
 90
        5
 70
   128
 43
0.0
 10
507.4186930825
 20
30.7941326145
 10
505.4962644159
 20
30.7599032729
 10
503.7294124199
 20
31.2906146295
 10
502.6728610408
 20
32.056181291
 10
502.0989273558
 20
33.0455760517
  0
LWPOLYLINE
  5
155
330
1F
100
AcDbEntity
  8
0
  6
Continuous
 62
     7
370
    25
100
AcDbPolyline
 90
        5
 70
   128
 43
0.0
 10
510.8672336641
 20
34.4241521871
 10
510.8589393452
 20
33.070164026
 10
509.985375847
 20
31.8620853715
 10
508.8315871264
 20
31.1727235211
 10
507.4186930825
 20
30.7941326145
  0
LWPOLYLINE
  5
156
330
1F
100
AcDbEntity
  8
0
  6
Continuous
 62
     7
370
    25
100
AcDbPolyline
 90
        3
 70
   128
 43
0.0
 10
507.604835898
 20
44.9331974001
 10
509.4256292146
 20
39.0471915337
 10
510.8672336641
 20
34.4241521871
  0
LWPOLYLINE
  5
157
330
1F
100
AcDbEntity
  8
0
  6
Continuous
 62
     7
370
    25
100
AcDbPolyline
 90
        3
 70
   128
 43
0.0
 10
510.2990082274
 20
45.189515576
 10
508.7925256059
 20
45.0349455186
 10
507.604835898
 20
44.9331974001
  0
ARC
  5
158
330
1F
100
AcDbEntity
  8
0
  6
Continuous
 62
     7
370
    25
100
AcDbCircle
 10
507.1573268338
 20
70.92588273
 30
0.0
 40
25.9274132197297
100
AcDbArc
 50
276.9597577067
 51
307.3530854762
  0
ARC
  5
159
330
1F
100
AcDbEntity
  8
0
  6
Continuous
 62
     7
370
    25
100
AcDbCircle
 10
517.5757486128
 20
57.869704446
 30
0.0
 40
9.234813893193953
100
AcDbArc
 50
305.1176381145
 51
17.0378337471
  0
LWPOLYLINE
  5
15A
330
1F
100
AcDbEntity
  8
0
  6
Continuous
 62
     7
370
    25
100
AcDbPolyline
 90
        9
 70
   128
 43
0.0
 10
125.8700441826
 20
-0.1431820143
 10
127.0444638861
 20
-0.2213835404
 10
128.1745487282
 20
-0.4605496404
 10
129.2166180232
 20
-0.8514359292
 10
130.1303931124
 20
-1.3789336466
 10
130.8805542382
 20
-2.0226536488
 10
131.4381057437
 20
-2.757714502
 10
131.781496829
 20
-3.5557042136
 10
131.8974545455
 20
-4.3857784288
  0
LWPOLYLINE
  5
15B
330
1F
100
AcDbEntity
  8
0
  6
Continuous
 62
     7
370
    25
100
AcDbPolyline
 90
       23
 70
   128
 43
0.0
 10
-523.6043225383
 20
59.2448916823
 10
-494.7198123585
 20
53.9050538877
 10
-465.7459973607
 20
48.812868299
 10
-436.6871240576
 20
43.9690812461
 10
-407.5474514286
 20
39.3744026531
 10
-378.3312502953
 20
35.0295059337
 10
-349.0428026955
 20
30.9350278923
 10
-319.6864012558
 20
27.0915686313
 10
-290.2663485623
 20
23.4996914629
 10
-260.7869565303
 20
20.1599228261
 10
-231.2525457719
 20
17.0727522103
 10
-201.6674449629
 20
14.2386320829
 10
-172.0359902086
 20
11.6579778234
 10
-142.362524408
 20
9.3311676624
 10
-112.6513966175
 20
7.2585426259
 10
-82.9069614132
 20
5.4404064858
 10
-53.133578253
 20
3.8770257152
 10
-23.3356108376
 20
2.568629449
 10
6.4825735293
 20
1.5154094507
 10
36.316604581
 20
0.7175200844
 10
66.1621097278
 20
0.1750782918
 10
96.014714699
 20
-0.1118364249
 10
125.8700441826
 20
-0.1431820143
  0
LWPOLYLINE
  5
15C
330
1F
100
AcDbEntity
  8
0
  6
Continuous
 62
     7
370
    25
100
AcDbPolyline
 90
       12
 70
   128
 43
0.0
 10
-534.9889356401
 20
75.3206083908
 10
-535.76904664
 20
73.5605185998
 10
-536.1591589172
 20
71.736756317
 10
-536.1500874125
 20
69.8922613963
 10
-535.7420457116
 20
68.0704618344
 10
-534.9446410154
 20
66.3142512737
 10
-533.7766479425
 20
64.6649790859
 10
-532.2655664869
 20
63.161476816
 10
-530.4469745404
 20
61.8391439061
 10
-528.3636902229
 20
60.7291142287
 10
-526.0647637452
 20
59.8575230495
 10
-523.6043225383
 20
59.2448916823
  0
LINE
  5
15D
330
1F
100
AcDbEntity
  8
0
  6
Continuous
 62
     7
370
    25
100
AcDbLine
 10
-498.3459899711
 20
140.0967968038
 30
0.0
 11
-534.9889356401
 21
75.3206083908
 31
0.0
  0
LINE
  5
15E
330
1F
100
AcDbEntity
  8
0
  6
Continuous
 62
     7
370
    25
100
AcDbLine
 10
793.8961876276
 20
73.9016730111
 30
0.0
 11
758.0797926815
 21
139.9369140623
 31
0.0
  0
LWPOLYLINE
  5
15F
330
1F
100
AcDbEntity
  8
0
  6
Continuous
 62
     7
370
    25
100
AcDbPolyline
 90
       12
 70
   128
 43
0.0
 10
783.9404752949
 20
58.3279421901
 10
786.1628818503
 20
59.043687296
 10
788.2173279881
 20
59.9772086073
 10
790.0614190891
 20
61.1092424015
 10
791.657101325
 20
62.4164285422
 10
792.9714469205
 20
63.8717925287
 10
793.9773336356
 20
65.4453021294
 10
794.654004448
 20
67.1044871134
 10
794.9874958854
 20
68.8151092914
 10
794.9709261699
 20
70.5418690395
 10
794.6046372264
 20
72.2491337262
 10
793.8961876276
 20
73.9016730111
  0
LWPOLYLINE
  5
160
330
1F
100
AcDbEntity
  8
0
  6
Continuous
 62
     7
370
    25
100
AcDbPolyline
 90
       26
 70
   128
 43
0.0
 10
149.0797601755
 20
-24.8043386932
 10
175.0300751119
 20
-24.4809930212
 10
200.971616223
 20
-23.9046272823
 10
226.8994497645
 20
-23.0753510938
 10
252.8086445992
 20
-21.9933221732
 10
278.6942731345
 20
-20.6587463084
 10
304.5514122602
 20
-19.0718773184
 10
330.3751442842
 20
-17.233017005
 10
356.1605578679
 20
-15.1425150956
 10
381.9027489605
 20
-12.8007691765
 10
407.5968217316
 20
-10.2082246175
 10
433.2378895022
 20
-7.3653744867
 10
458.8210756742
 20
-4.2727594574
 10
484.3415146577
 20
-0.9309677048
 10
509.7943527968
 20
2.6593652058
 10
535.174749292
 20
6.4975564395
 10
560.4778771216
 20
10.5828760223
 10
585.6989239593
 20
14.9145469795
 10
610.8330930893
 20
19.4917454835
 10
635.8756043193
 20
24.3136010105
 10
660.8216948886
 20
29.3791965064
 10
685.6666203749
 20
34.6875685604
 10
710.405655596
 20
40.2377075894
 10
735.0340955085
 20
46.0285580288
 10
759.5472561031
 20
52.0590185341
 10
783.9404752949
 20
58.3279421901
  0
LWPOLYLINE
  5
161
330
1F
100
AcDbEntity
  8
0
  6
Continuous
 62
     7
370
    25
100
AcDbPolyline
 90
       12
 70
   128
 43
0.0
 10
131.8974545455
 20
-12.7842146369
 10
132.0728566928
 20
-14.5065541936
 10
132.5954436157
 20
-16.1933523319
 10
133.4544314473
 20
-17.8098010499
 10
134.632094504
 20
-19.3225440446
 10
136.1041310647
 20
-20.7003650371
 10
137.8401648502
 20
-21.9148319379
 10
139.8043718541
 20
-22.9408835585
 10
141.956219591
 20
-23.7573467628
 10
144.2513035063
 20
-24.3473733862
 10
146.6422632886
 20
-24.6987879065
 10
149.0797601755
 20
-24.8043386932
  0
LINE
  5
162
330
1F
100
AcDbEntity
  8
0
  6
Continuous
 62
     7
370
    25
100
AcDbLine
 10
131.8974545455
 20
-4.3857784288
 30
0.0
 11
131.8974545455
 21
-12.7842146369
 31
0.0
  0
ARC
  5
163
330
1F
100
AcDbEntity
  8
0
  6
Continuous
 62
     7
370
    25
100
AcDbCircle
 10
626.2346325274
 20
54.1959390041
 30
0.0
 40
3.599573695063458
100
AcDbArc
 50
274.6789090597
 51
330.8783986448
  0
LWPOLYLINE
  5
164
330
1F
100
AcDbEntity
  8
0
  6
Continuous
 62
     7
370
    25
100
AcDbPolyline
 90
        3
 70
   128
 43
0.0
 10
629.5457286463
 20
54.5085537404
 10
629.664353048
 20
53.3427643714
 10
629.3791798113
 20
52.4441532965
  0
LWPOLYLINE
  5
165
330
1F
100
AcDbEntity
  8
0
  6
Continuous
 62
     7
370
    25
100
AcDbPolyline
 90
        5
 70
   128
 43
0.0
 10
624.9607371912
 20
56.8708374699
 10
626.6519767104
 20
56.6729325467
 10
628.1664948965
 20
56.1131565015
 10
629.0417144674
 20
55.391034914
 10
629.5457286463
 20
54.5085537404
  0
LWPOLYLINE
  5
166
330
1F
100
AcDbEntity
  8
0
  6
Continuous
 62
     7
370
    25
100
AcDbPolyline
 90
        3
 70
   128
 43
0.0
 10
620.9537681631
 20
57.5012416323
 10
623.1638169409
 20
57.0375648598
 10
624.9607371912
 20
56.8708374699
  0
LWPOLYLINE
  5
167
330
1F
100
AcDbEntity
  8
0
  6
Continuous
 62
     7
370
    25
100
AcDbPolyline
 90
        3
 70
   128
 43
0.0
 10
611.9405370976
 20
60.59091478
 10
616.9346736321
 20
58.7822657543
 10
620.9537681631
 20
57.5012416323
  0
LWPOLYLINE
  5
168
330
1F
100
AcDbEntity
  8
0
  6
Continuous
 62
     7
370
    25
100
AcDbPolyline
 90
        3
 70
   128
 43
0.0
 10
603.1722307893
 20
64.0200363228
 10
608.0833901776
 20
62.1008889593
 10
611.9405370976
 20
60.59091478
  0
LWPOLYLINE
  5
169
330
1F
100
AcDbEntity
  8
0
  6
Continuous
 62
     7
370
    25
100
AcDbPolyline
 90
        3
 70
   128
 43
0.0
 10
611.9797250587
 20
74.7230520473
 10
607.164341467
 20
68.6811587674
 10
603.1722307893
 20
64.0200363228
  0
LWPOLYLINE
  5
16A
330
1F
100
AcDbEntity
  8
0
  6
Continuous
 62
     7
370
    25
100
AcDbPolyline
 90
        6
 70
   128
 43
0.0
 10
616.9761901059
 20
83.3963049193
 10
616.7707427619
 20
82.0931310005
 10
616.1612950736
 20
80.8434556031
 10
615.4352824018
 20
79.6249806941
 10
614.6523374059
 20
78.4241156513
 10
611.9797250587
 20
74.7230520473
  0
ARC
  5
16B
330
1F
100
AcDbEntity
  8
0
  6
Continuous
 62
     7
370
    25
100
AcDbCircle
 10
612.6893369578
 20
80.9050796985
 30
0.0
 40
4.958156211148019
100
AcDbArc
 50
30.1622185904
 51
106.1100777939
  0
ARC
  5
16C
330
1F
100
AcDbEntity
  8
0
  6
Continuous
 62
     7
370
    25
100
AcDbCircle
 10
611.9779023585
 20
81.1530826242
 30
0.0
 40
4.564062251616781
100
AcDbArc
 50
98.3700608489
 51
142.7470551469
  0
LWPOLYLINE
  5
16D
330
1F
100
AcDbEntity
  8
0
  6
Continuous
 62
     7
370
    25
100
AcDbPolyline
 90
        4
 70
   128
 43
0.0
 10
596.3927135095
 20
68.3497352405
 10
599.8245632664
 20
72.6748288436
 10
603.1602051644
 20
77.0379414038
 10
608.3450416617
 20
83.9158687894
  0
LWPOLYLINE
  5
16E
330
1F
100
AcDbEntity
  8
0
  6
Continuous
 62
     7
370
    25
100
AcDbPolyline
 90
        3
 70
   128
 43
0.0
 10
594.746819141
 20
73.9263874465
 10
595.6436252418
 20
70.7997205814
 10
596.3927135095
 20
68.3497352405
  0
LWPOLYLINE
  5
16F
330
1F
100
AcDbEntity
  8
0
  6
Continuous
 62
     7
370
    25
100
AcDbPolyline
 90
        3
 70
   128
 43
0.0
 10
592.9833608891
 20
79.4891846159
 10
594.0154021454
 20
76.381083682
 10
594.746819141
 20
73.9263874465
  0
LWPOLYLINE
  5
170
330
1F
100
AcDbEntity
  8
0
  6
Continuous
 62
     7
370
    25
100
AcDbPolyline
 90
        5
 70
   128
 43
0.0
 10
587.1737456479
 20
81.7198454983
 10
589.2197466583
 20
81.8270897963
 10
591.1320971124
 20
81.3070079642
 10
592.3092360246
 20
80.5264268284
 10
592.9833608891
 20
79.4891846159
  0
LWPOLYLINE
  5
171
330
1F
100
AcDbEntity
  8
0
  6
Continuous
 62
     7
370
    25
100
AcDbPolyline
 90
        5
 70
   128
 43
0.0
 10
583.578250212
 20
77.7711600854
 10
583.5396546097
 20
79.2230072243
 10
584.4560300672
 20
80.5259901882
 10
585.6719123572
 20
81.2839137911
 10
587.1737456479
 20
81.7198454983
  0
LWPOLYLINE
  5
172
330
1F
100
AcDbEntity
  8
0
  6
Continuous
 62
     7
370
    25
100
AcDbPolyline
 90
        3
 70
   128
 43
0.0
 10
594.0218418597
 20
47.3801374423
 10
588.1881807233
 20
64.4016394898
 10
583.578250212
 20
77.7711600854
  0
LWPOLYLINE
  5
173
330
1F
100
AcDbEntity
  8
0
  6
Continuous
 62
     7
370
    25
100
AcDbPolyline
 90
        3
 70
   128
 43
0.0
 10
596.0498188494
 20
45.1702591147
 10
594.6645274326
 20
46.2970304357
 10
594.0218418597
 20
47.3801374423
  0
ARC
  5
174
330
1F
100
AcDbEntity
  8
0
  6
Continuous
 62
     7
370
    25
100
AcDbCircle
 10
599.2988108968
 20
50.9227391544
 30
0.0
 40
6.60658579983492
100
AcDbArc
 50
240.5423042855
 51
281.8405157836
  0
ARC
  5
175
330
1F
100
AcDbEntity
  8
0
  6
Continuous
 62
     7
370
    25
100
AcDbCircle
 10
600.3991063313
 20
48.1744264074
 30
0.0
 40
3.726457135674289
100
AcDbArc
 50
273.9283859915
 51
328.4257477112
  0
LWPOLYLINE
  5
176
330
1F
100
AcDbEntity
  8
0
  6
Continuous
 62
     7
370
    25
100
AcDbPolyline
 90
        3
 70
   128
 43
0.0
 10
603.7208622454
 20
48.2183671528
 10
603.8534987456
 20
47.0916498137
 10
603.5739073911
 20
46.2232418915
  0
LINE
  5
177
330
1F
100
AcDbEntity
  8
0
  6
Continuous
 62
     7
370
    25
100
AcDbLine
 10
600.2527276833
 20
57.7783423631
 30
0.0
 11
603.7208622454
 21
48.2183671528
 31
0.0
  0
ARC
  5
178
330
1F
100
AcDbEntity
  8
0
  6
Continuous
 62
     7
370
    25
100
AcDbCircle
 10
719.3716927546
 20
341.8549656793
 30
0.0
 40
308.0403476079741
100
AcDbArc
 50
247.2507289092
 51
249.8140852876
  0
ARC
  5
179
330
1F
100
AcDbEntity
  8
0
  6
Continuous
 62
     7
370
    25
100
AcDbCircle
 10
624.1530202233
 20
79.187157903
 30
0.0
 40
28.67733213265577
100
AcDbArc
 50
247.2799083409
 51
274.7510363867
  0
ARC
  5
17A
330
1F
100
AcDbEntity
  8
0
  6
Continuous
 62
     7
370
    25
100
AcDbCircle
 10
564.3918097916
 20
71.7839953803
 30
0.0
 40
4.234841705085629
100
AcDbArc
 50
22.6736502724
 51
103.8053464211
  0
LWPOLYLINE
  5
17B
330
1F
100
AcDbEntity
  8
0
  6
Continuous
 62
     7
370
    25
100
AcDbPolyline
 90
        3
 70
   128
 43
0.0
 10
547.5983232492
 20
73.9567959371
 10
556.3949586454
 20
75.2117820716
 10
563.3812746042
 20
75.8965010522
  0
LWPOLYLINE
  5
17C
330
1F
100
AcDbEntity
  8
0
  6
Continuous
 62
     7
370
    25
100
AcDbPolyline
 90
        3
 70
   128
 43
0.0
 10
538.2813854847
 20
72.0655834499
 10
543.4760119538
 20
73.1802781062
 10
547.5983232492
 20
73.9567959371
  0
LWPOLYLINE
  5
17D
330
1F
100
AcDbEntity
  8
0
  6
Continuous
 62
     7
370
    25
100
AcDbPolyline
 90
        3
 70
   128
 43
0.0
 10
535.8223409223
 20
70.6870073145
 10
537.0416909676
 20
71.6035134673
 10
538.2813854847
 20
72.0655834499
  0
LWPOLYLINE
  5
17E
330
1F
100
AcDbEntity
  8
0
  6
Continuous
 62
     7
370
    25
100
AcDbPolyline
 90
        3
 70
   128
 43
0.0
 10
535.371679369
 20
68.3316511032
 10
535.269335981
 20
69.6901415646
 10
535.8223409223
 20
70.6870073145
  0
LWPOLYLINE
  5
17F
330
1F
100
AcDbEntity
  8
0
  6
Continuous
 62
     7
370
    25
100
AcDbPolyline
 90
        5
 70
   128
 43
0.0
 10
540.9265728627
 20
66.1148452574
 10
538.9501348749
 20
66.0335932518
 10
537.1132434686
 20
66.5497572948
 10
536.0040721591
 20
67.3230594447
 10
535.371679369
 20
68.3316511032
  0
LINE
  5
180
330
1F
100
AcDbEntity
  8
0
  6
Continuous
 62
     7
370
    25
100
AcDbLine
 10
547.7648720841
 20
67.368726064
 30
0.0
 11
540.9265728627
 21
66.1148452574
 31
0.0
  0
LWPOLYLINE
  5
181
330
1F
100
AcDbEntity
  8
0
  6
Continuous
 62
     7
370
    25
100
AcDbPolyline
 90
        3
 70
   128
 43
0.0
 10
551.4191494618
 20
55.3979744963
 10
549.1949769573
 20
62.0748049307
 10
547.7648720841
 20
67.368726064
  0
LWPOLYLINE
  5
182
330
1F
100
AcDbEntity
  8
0
  6
Continuous
 62
     7
370
    25
100
AcDbPolyline
 90
        3
 70
   128
 43
0.0
 10
555.2497726646
 20
45.0828997948
 10
553.0839621573
 20
50.8554811546
 10
551.4191494618
 20
55.3979744963
  0
LWPOLYLINE
  5
183
330
1F
100
AcDbEntity
  8
0
  6
Continuous
 62
     7
370
    25
100
AcDbPolyline
 90
        3
 70
   128
 43
0.0
 10
549.254014608
 20
43.9883519084
 10
552.610923562
 20
44.6032320245
 10
555.2497726646
 20
45.0828997948
  0
LWPOLYLINE
  5
184
330
1F
100
AcDbEntity
  8
0
  6
Continuous
 62
     7
370
    25
100
AcDbPolyline
 90
        5
 70
   128
 43
0.0
 10
545.8054740264
 20
39.7972033561
 10
545.7029723214
 20
41.2996092506
 10
546.5223074378
 20
42.6874477965
 10
547.7177405276
 20
43.5159970917
 10
549.254014608
 20
43.9883519084
  0
ARC
  5
185
330
1F
100
AcDbEntity
  8
0
  6
Continuous
 62
     7
370
    25
100
AcDbCircle
 10
550.163334081
 20
42.008636309
 30
0.0
 40
4.886857882170291
100
AcDbArc
 50
206.9059008903
 51
285.9632626026
  0
LWPOLYLINE
  5
186
330
1F
100
AcDbEntity
  8
0
  6
Continuous
 62
     7
370
    25
100
AcDbPolyline
 90
        4
 70
   128
 43
0.0
 10
564.0082819827
 20
40.4206800002
 10
560.4787207172
 20
39.6094254695
 10
557.0175515796
 20
38.6595100686
 10
551.5073223744
 20
37.3102242978
  0
LWPOLYLINE
  5
187
330
1F
100
AcDbEntity
  8
0
  6
Continuous
 62
     7
370
    25
100
AcDbPolyline
 90
        3
 70
   128
 43
0.0
 10
574.814362271
 20
42.5127905173
 10
568.7637329663
 20
41.3392452329
 10
564.0082819827
 20
40.4206800002
  0
LWPOLYLINE
  5
188
330
1F
100
AcDbEntity
  8
0
  6
Continuous
 62
     7
370
    25
100
AcDbPolyline
 90
        5
 70
   128
 43
0.0
 10
578.1551359594
 20
46.4614759302
 10
578.2446229178
 20
45.03520683
 10
577.432622109
 20
43.7274031898
 10
576.2785871806
 20
42.954377878
 10
574.814362271
 20
42.5127905173
  0
ARC
  5
189
330
1F
100
AcDbEntity
  8
0
  6
Continuous
 62
     7
370
    25
100
AcDbCircle
 10
573.9278898675
 20
44.1996444429
 30
0.0
 40
4.794318637594436
100
AcDbArc
 50
28.1494664632
 51
106.8089735589
  0
LWPOLYLINE
  5
18A
330
1F
100
AcDbEntity
  8
0
  6
Continuous
 62
     7
370
    25
100
AcDbPolyline
 90
        3
 70
   128
 43
0.0
 10
563.8613271283
 20
47.1334452022
 10
568.7159837925
 20
48.0769210815
 10
572.5414605241
 20
48.7891220683
  0
LINE
  5
18B
330
1F
100
AcDbEntity
  8
0
  6
Continuous
 62
     7
370
    25
100
AcDbLine
 10
560.1776587798
 20
57.3238245749
 30
0.0
 11
563.8613271283
 21
47.1334452022
 31
0.0
  0
LWPOLYLINE
  5
18C
330
1F
100
AcDbEntity
  8
0
  6
Continuous
 62
     7
370
    25
100
AcDbPolyline
 90
        3
 70
   128
 43
0.0
 10
556.7095242176
 20
68.532549133
 10
558.475611638
 20
62.2285220024
 10
560.1776587798
 20
57.3238245749
  0
LWPOLYLINE
  5
18D
330
1F
100
AcDbEntity
  8
0
  6
Continuous
 62
     7
370
    25
100
AcDbPolyline
 90
        3
 70
   128
 43
0.0
 10
565.2133117882
 20
69.6132419829
 10
560.4608410702
 20
68.9711905051
 10
556.7095242176
 20
68.532549133
  0
LWPOLYLINE
  5
18E
330
1F
100
AcDbEntity
  8
0
  6
Continuous
 62
     7
370
    25
100
AcDbPolyline
 90
        3
 70
   128
 43
0.0
 10
567.6821533409
 20
70.8255576798
 10
566.4496609756
 20
69.9884802835
 10
565.2133117882
 20
69.6132419829
  0
ARC
  5
18F
330
1F
100
AcDbEntity
  8
0
  6
Continuous
 62
     7
370
    25
100
AcDbCircle
 10
566.2041183213
 20
72.5466226381
 30
0.0
 40
2.268623395303354
100
AcDbArc
 50
310.6556859149
 51
22.5454487704
  0
LINE
  5
190
330
1F
100
AcDbEntity
  8
0
  6
Continuous
 62
     7
370
    25
100
AcDbLine
 10
-482.561886226
 20
156.138474741
 30
0.0
 11
-482.561886226
 21
151.8958340539
 31
0.0
  0
LINE
  5
191
330
1F
100
AcDbEntity
  8
0
  6
Continuous
 62
     7
370
    25
100
AcDbLine
 10
742.2071136364
 20
156.138474741
 30
0.0
 11
-482.561886226
 21
156.138474741
 31
0.0
  0
LINE
  5
192
330
1F
100
AcDbEntity
  8
0
  6
Continuous
 62
     7
370
    25
100
AcDbLine
 10
-501.1314200437
 20
143.0059557446
 30
0.0
 11
-501.1314200437
 21
147.2485964317
 31
0.0
  0
LWPOLYLINE
  5
193
330
1F
100
AcDbEntity
  8
0
  6
Continuous
 62
     7
370
    25
100
AcDbPolyline
 90
        9
 70
   128
 43
0.0
 10
-482.561886226
 20
156.138474741
 10
-485.5266441375
 20
155.9822286229
 10
-488.4258911634
 20
155.5169427668
 10
-491.1955639818
 20
154.7528983793
 10
-493.7744624121
 20
153.7069781962
 10
-496.1056017274
 20
152.4022934324
 10
-498.1374718194
 20
150.8676731044
 10
-499.8251753935
 20
149.1370270085
 10
-501.1314200437
 20
147.2485964317
  0
ARC
  5
194
330
1F
100
AcDbEntity
  8
0
  6
Continuous
 62
     7
370
    25
100
AcDbCircle
 10
-534.2440812685
 20
78.821844724
 30
0.0
 40
3.579589906194188
100
AcDbArc
 50
189.5206866547
 51
257.9899232624
  0
LINE
  5
195
330
1F
100
AcDbEntity
  8
0
  6
Continuous
 62
     7
370
    25
100
AcDbLine
 10
-537.7743657128
 20
78.2297673315
 30
0.0
 11
-501.1314200437
 21
143.0059557446
 31
0.0
  0
LINE
  5
196
330
1F
100
AcDbEntity
  8
0
  6
Continuous
 62
     7
370
    25
100
AcDbLine
 10
760.8808536894
 20
142.8178584015
 30
0.0
 11
796.6972486355
 21
76.7826173504
 31
0.0
  0
ARC
  5
197
330
1F
100
AcDbEntity
  8
0
  6
Continuous
 62
     7
370
    25
100
AcDbCircle
 10
793.2058789043
 20
77.3750092502
 30
0.0
 40
3.541269654092278
100
AcDbArc
 50
281.2407833684
 51
350.3701535943
  0
LINE
  5
198
330
1F
100
AcDbEntity
  8
0
  6
Continuous
 62
     7
370
    25
100
AcDbLine
 10
-537.7743657128
 20
82.4724080186
 30
0.0
 11
-537.7743657128
 21
78.2297673315
 31
0.0
  0
LINE
  5
199
330
1F
100
AcDbEntity
  8
0
  6
Continuous
 62
     7
370
    25
100
AcDbLine
 10
-501.1314200437
 20
147.2485964317
 30
0.0
 11
-537.7743657128
 21
82.4724080186
 31
0.0
  0
LINE
  5
19A
330
1F
100
AcDbEntity
  8
0
  6
Continuous
 62
     7
370
    25
100
AcDbLine
 10
796.6972486355
 20
81.0252580375
 30
0.0
 11
760.8808536894
 21
147.0604990887
 31
0.0
  0
LINE
  5
19B
330
1F
100
AcDbEntity
  8
0
  6
Continuous
 62
     7
370
    25
100
AcDbLine
 10
796.6972486355
 20
76.7826173504
 30
0.0
 11
796.6972486355
 21
81.0252580375
 31
0.0
  0
ARC
  5
19C
330
1F
100
AcDbEntity
  8
0
  6
Continuous
 62
     7
370
    25
100
AcDbCircle
 10
600.3991063313
 20
50.2957467509
 30
0.0
 40
3.726457135674325
100
AcDbArc
 50
273.9283859915
 51
328.4257477112
  0
ARC
  5
19D
330
1F
100
AcDbEntity
  8
0
  6
Continuous
 62
     7
370
    25
100
AcDbCircle
 10
599.2988108968
 20
53.0440594979
 30
0.0
 40
6.606585799834771
100
AcDbArc
 50
240.5423042855
 51
281.8405157836
  0
LWPOLYLINE
  5
19E
330
1F
100
AcDbEntity
  8
0
  6
Continuous
 62
     7
370
    25
100
AcDbPolyline
 90
        3
 70
   128
 43
0.0
 10
596.0498188494
 20
47.2915794583
 10
594.6645274326
 20
48.4183507793
 10
594.0218418597
 20
49.5014577859
  0
LWPOLYLINE
  5
19F
330
1F
100
AcDbEntity
  8
0
  6
Continuous
 62
     7
370
    25
100
AcDbPolyline
 90
        3
 70
   128
 43
0.0
 10
594.0218418597
 20
49.5014577859
 10
588.1881807233
 20
66.5229598334
 10
583.7204501871
 20
79.4800782265
  0
ARC
  5
1A0
330
1F
100
AcDbEntity
  8
0
  6
Continuous
 62
     7
370
    25
100
AcDbCircle
 10
583.5774734733
 20
100.5628770272
 30
0.0
 40
37.0034506135354
100
AcDbArc
 50
320.1349992023
 51
333.2891966258
  0
LWPOLYLINE
  5
1A1
330
1F
100
AcDbEntity
  8
0
  6
Continuous
 62
     7
370
    25
100
AcDbPolyline
 90
        3
 70
   128
 43
0.0
 10
611.9797250587
 20
76.8443723909
 10
607.164341467
 20
70.802479111
 10
603.1722307893
 20
66.1413566664
  0
ARC
  5
1A2
330
1F
100
AcDbEntity
  8
0
  6
Continuous
 62
     7
370
    25
100
AcDbCircle
 10
626.2346325274
 20
56.3172593476
 30
0.0
 40
3.599573695063373
100
AcDbArc
 50
274.6789090597
 51
330.8783986448
  0
ARC
  5
1A3
330
1F
100
AcDbEntity
  8
0
  6
Continuous
 62
     7
370
    25
100
AcDbCircle
 10
624.1530202233
 20
81.3084782466
 30
0.0
 40
28.6773321326558
100
AcDbArc
 50
247.2799083409
 51
274.7510363867
  0
ARC
  5
1A4
330
1F
100
AcDbEntity
  8
0
  6
Continuous
 62
     7
370
    25
100
AcDbCircle
 10
719.3716927546
 20
343.9762860229
 30
0.0
 40
308.0403476079991
100
AcDbArc
 50
247.2507289092
 51
249.8140852876
  0
LINE
  5
1A5
330
1F
100
AcDbEntity
  8
0
  6
Continuous
 62
     7
370
    25
100
AcDbLine
 10
611.9797250587
 20
76.8443723909
 30
0.0
 11
611.9797250587
 21
74.7230520473
 31
0.0
  0
LINE
  5
1A6
330
1F
100
AcDbEntity
  8
0
  6
Continuous
 62
     7
370
    25
100
AcDbLine
 10
583.578250212
 20
79.2778858352
 30
0.0
 11
583.578250212
 21
77.7711600854
 31
0.0
  0
LINE
  5
1A7
330
1F
100
AcDbEntity
  8
0
  6
Continuous
 62
     7
370
    25
100
AcDbLine
 10
594.0218418597
 20
49.5014577859
 30
0.0
 11
594.0218418597
 21
47.3801374423
 31
0.0
  0
LINE
  5
1A8
330
1F
100
AcDbEntity
  8
0
  6
Continuous
 62
     7
370
    25
100
AcDbLine
 10
603.1722307893
 20
66.1413566664
 30
0.0
 11
603.1722307893
 21
64.0200363228
 31
0.0
  0
LINE
  5
1A9
330
1F
100
AcDbEntity
  8
0
  6
Continuous
 62
     7
370
    25
100
AcDbLine
 10
798.0235085825
 20
71.718457379
 30
0.0
 11
798.0214154712
 21
71.5138601273
 31
0.0
  0
LWPOLYLINE
  5
1AA
330
1F
100
AcDbEntity
  8
0
  6
Continuous
 62
     7
370
    25
100
AcDbPolyline
 90
        3
 70
   128
 43
0.0
 10
565.2133117882
 20
71.7345623264
 10
560.4608410702
 20
71.0925108486
 10
556.7095242176
 20
70.6538694766
  0
ARC
  5
1AB
330
1F
100
AcDbEntity
  8
0
  6
Continuous
 62
     7
370
    25
100
AcDbCircle
 10
574.5865631254
 20
48.4180951125
 30
0.0
 40
3.790834903792577
100
AcDbArc
 50
273.4450979679
 51
333.6906456692
  0
LWPOLYLINE
  5
1AC
330
1F
100
AcDbEntity
  8
0
  6
Continuous
 62
     7
370
    25
100
AcDbPolyline
 90
        3
 70
   128
 43
0.0
 10
574.814362271
 20
44.6341108608
 10
568.7637329663
 20
43.4605655764
 10
564.0082819827
 20
42.5420003438
  0
LWPOLYLINE
  5
1AD
330
1F
100
AcDbEntity
  8
0
  6
Continuous
 62
     7
370
    25
100
AcDbPolyline
 90
        4
 70
   128
 43
0.0
 10
564.0082819827
 20
42.5420003438
 10
560.4787207172
 20
41.730745813
 10
557.0175515796
 20
40.7808304122
 10
551.5073223744
 20
39.4315446413
  0
ARC
  5
1AE
330
1F
100
AcDbEntity
  8
0
  6
Continuous
 62
     7
370
    25
100
AcDbCircle
 10
550.163334081
 20
44.1299566526
 30
0.0
 40
4.886857882170261
100
AcDbArc
 50
206.9059008903
 51
285.9632626026
  0
LWPOLYLINE
  5
1AF
330
1F
100
AcDbEntity
  8
0
  6
Continuous
 62
     7
370
    25
100
AcDbPolyline
 90
        3
 70
   128
 43
0.0
 10
555.2497726646
 20
47.2042201384
 10
553.0839621573
 20
52.9768014982
 10
551.4191494618
 20
57.5192948399
  0
LWPOLYLINE
  5
1B0
330
1F
100
AcDbEntity
  8
0
  6
Continuous
 62
     7
370
    25
100
AcDbPolyline
 90
        3
 70
   128
 43
0.0
 10
551.4191494618
 20
57.5192948399
 10
549.1949769573
 20
64.1961252743
 10
547.7648720841
 20
69.4900464075
  0
LINE
  5
1B1
330
1F
100
AcDbEntity
  8
0
  6
Continuous
 62
     7
370
    25
100
AcDbLine
 10
547.7648720841
 20
69.4900464075
 30
0.0
 11
540.9265728627
 21
68.2361656009
 31
0.0
  0
LWPOLYLINE
  5
1B2
330
1F
100
AcDbEntity
  8
0
  6
Continuous
 62
     7
370
    25
100
AcDbPolyline
 90
        5
 70
   128
 43
0.0
 10
540.9265728627
 20
68.2361656009
 10
538.9501348749
 20
68.1549135954
 10
537.1132434686
 20
68.6710776384
 10
536.0040721591
 20
69.4443797882
 10
535.371679369
 20
70.4529714468
  0
LINE
  5
1B3
330
1F
100
AcDbEntity
  8
0
  6
Continuous
 62
     7
370
    25
100
AcDbLine
 10
568.1589509713
 20
73.684591192
 30
0.0
 11
567.6821533409
 21
72.9468780234
 31
0.0
  0
LWPOLYLINE
  5
1B4
330
1F
100
AcDbEntity
  8
0
  6
Continuous
 62
     7
370
    25
100
AcDbPolyline
 90
        3
 70
   128
 43
0.0
 10
567.6821533409
 20
72.9468780234
 10
566.4496609756
 20
72.109800627
 10
565.2133117882
 20
71.7345623264
  0
LINE
  5
1B5
330
1F
100
AcDbEntity
  8
0
  6
Continuous
 62
     7
370
    25
100
AcDbLine
 10
567.6821533409
 20
72.9468780234
 30
0.0
 11
567.6821533409
 21
70.8255576798
 31
0.0
  0
LINE
  5
1B6
330
1F
100
AcDbEntity
  8
0
  6
Continuous
 62
     7
370
    25
100
AcDbLine
 10
565.2133117882
 20
71.7345623264
 30
0.0
 11
565.2133117882
 21
69.6132419829
 31
0.0
  0
LINE
  5
1B7
330
1F
100
AcDbEntity
  8
0
  6
Continuous
 62
     7
370
    25
100
AcDbLine
 10
535.371679369
 20
69.8746292801
 30
0.0
 11
535.371679369
 21
68.3316511032
 31
0.0
  0
LINE
  5
1B8
330
1F
100
AcDbEntity
  8
0
  6
Continuous
 62
     7
370
    25
100
AcDbLine
 10
556.7095242176
 20
70.6538694766
 30
0.0
 11
556.7095242176
 21
68.532549133
 31
0.0
  0
LINE
  5
1B9
330
1F
100
AcDbEntity
  8
0
  6
Continuous
 62
     7
370
    25
100
AcDbLine
 10
540.9265728627
 20
68.2361656009
 30
0.0
 11
540.9265728627
 21
66.1148452574
 31
0.0
  0
LINE
  5
1BA
330
1F
100
AcDbEntity
  8
0
  6
Continuous
 62
     7
370
    25
100
AcDbLine
 10
547.7648720841
 20
69.4900464075
 30
0.0
 11
547.7648720841
 21
67.368726064
 31
0.0
  0
LINE
  5
1BB
330
1F
100
AcDbEntity
  8
0
  6
Continuous
 62
     7
370
    25
100
AcDbLine
 10
551.4191494618
 20
57.5192948399
 30
0.0
 11
551.4191494618
 21
55.3979744963
 31
0.0
  0
LINE
  5
1BC
330
1F
100
AcDbEntity
  8
0
  6
Continuous
 62
     7
370
    25
100
AcDbLine
 10
494.8491545422
 20
62.6899264752
 30
0.0
 11
494.4504298634
 21
64.4327085183
 31
0.0
  0
LINE
  5
1BD
330
1F
100
AcDbEntity
  8
0
  6
Continuous
 62
     7
370
    25
100
AcDbLine
 10
494.8491545422
 20
62.6899264752
 30
0.0
 11
494.8491545422
 21
60.5686061316
 31
0.0
  0
LWPOLYLINE
  5
1BE
330
1F
100
AcDbEntity
  8
0
  6
Continuous
 62
     7
370
    25
100
AcDbPolyline
 90
        3
 70
   128
 43
0.0
 10
510.2990082274
 20
47.3108359196
 10
508.7925256059
 20
47.1562658622
 10
507.604835898
 20
47.0545177436
  0
ARC
  5
1BF
330
1F
100
AcDbEntity
  8
0
  6
Continuous
 62
     7
370
    25
100
AcDbCircle
 10
507.2102879808
 20
36.8932876409
 30
0.0
 40
3.983290279468645
100
AcDbArc
 50
272.9990752201
 51
331.1010495664
  0
LWPOLYLINE
  5
1C0
330
1F
100
AcDbEntity
  8
0
  6
Continuous
 62
     7
370
    25
100
AcDbPolyline
 90
        5
 70
   128
 43
0.0
 10
507.4186930825
 20
32.915452958
 10
505.4962644159
 20
32.8812236165
 10
503.7294124199
 20
33.4119349731
 10
502.6728610408
 20
34.1775016346
 10
502.0989273558
 20
35.1668963952
  0
LINE
  5
1C1
330
1F
100
AcDbEntity
  8
0
  6
Continuous
 62
     7
370
    25
100
AcDbLine
 10
502.0989273558
 20
35.1668963952
 30
0.0
 11
500.1199353175
 21
41.5263581655
 31
0.0
  0
LWPOLYLINE
  5
1C2
330
1F
100
AcDbEntity
  8
0
  6
Continuous
 62
     7
370
    25
100
AcDbPolyline
 90
        3
 70
   128
 43
0.0
 10
500.1199353175
 20
41.5263581655
 10
498.5532426209
 20
47.4303647828
 10
497.4943419202
 20
52.0908235247
  0
LWPOLYLINE
  5
1C3
330
1F
100
AcDbEntity
  8
0
  6
Continuous
 62
     7
370
    25
100
AcDbPolyline
 90
        3
 70
   128
 43
0.0
 10
497.4943419202
 20
52.0908235247
 10
496.1035820174
 20
58.0378356519
 10
494.8491545422
 20
62.6899264752
  0
ARC
  5
1C4
330
1F
100
AcDbEntity
  8
0
  6
Continuous
 62
     7
370
    25
100
AcDbCircle
 10
516.9079124815
 20
60.5052949686
 30
0.0
 40
10.04277330284455
100
AcDbArc
 50
306.5465568181
 51
349.2168168041
  0
ARC
  5
1C5
330
1F
100
AcDbEntity
  8
0
  6
Continuous
 62
     7
370
    25
100
AcDbCircle
 10
507.1573268338
 20
73.0472030736
 30
0.0
 40
25.92741321972997
100
AcDbArc
 50
276.9597577067
 51
307.3530854762
  0
ARC
  5
1C6
330
1F
100
AcDbEntity
  8
0
  6
Continuous
 62
     7
370
    25
100
AcDbCircle
 10
509.2981003418
 20
48.0033102849
 30
0.0
 40
17.07240325017727
100
AcDbArc
 50
74.3474042305
 51
99.0076493996
  0
LWPOLYLINE
  5
1C7
330
1F
100
AcDbEntity
  8
0
  6
Continuous
 62
     7
370
    25
100
AcDbPolyline
 90
        3
 70
   128
 43
0.0
 10
506.6251368692
 20
64.8651672115
 10
504.8917928081
 20
64.582393034
 10
503.5488819185
 20
64.31096575
  0
LWPOLYLINE
  5
1C8
330
1F
100
AcDbEntity
  8
0
  6
Continuous
 62
     7
370
    25
100
AcDbPolyline
 90
        3
 70
   128
 43
0.0
 10
518.4574242026
 20
60.0337686967
 10
518.4763352161
 20
60.1967122831
 10
518.2443673515
 20
61.4568282234
  0
ARC
  5
1C9
330
1F
100
AcDbEntity
  8
0
  6
Continuous
 62
     7
370
    25
100
AcDbCircle
 10
513.3239730819
 20
58.9518156309
 30
0.0
 40
5.521355617647969
100
AcDbArc
 50
26.9810130814
 51
83.9667266266
  0
ARC
  5
1CA
330
1F
100
AcDbEntity
  8
0
  6
Continuous
 62
     7
370
    25
100
AcDbCircle
 10
513.6754621289
 20
57.9507060487
 30
0.0
 40
4.774156579410026
100
AcDbArc
 50
303.1333989606
 51
16.8616732433
  0
ARC
  5
1CB
330
1F
100
AcDbEntity
  8
0
  6
Continuous
 62
     7
370
    25
100
AcDbCircle
 10
506.942982163
 20
66.6325172376
 30
0.0
 40
15.74951709515456
100
AcDbArc
 50
276.1619442688
 51
306.3815896642
  0
LWPOLYLINE
  5
1CC
330
1F
100
AcDbEntity
  8
0
  6
Continuous
 62
     7
370
    25
100
AcDbPolyline
 90
        3
 70
   128
 43
0.0
 10
506.4291970634
 20
50.8215879281
 10
507.6674726288
 20
50.8815541799
 10
508.6335198783
 20
50.97399333
  0
LWPOLYLINE
  5
1CD
330
1F
100
AcDbEntity
  8
0
  6
Continuous
 62
     7
370
    25
100
AcDbPolyline
 90
        3
 70
   128
 43
0.0
 10
504.5383779377
 20
58.9267843021
 10
505.6508418918
 20
54.3941887228
 10
506.4291970634
 20
50.8215879281
  0
LWPOLYLINE
  5
1CE
330
1F
100
AcDbEntity
  8
0
  6
Continuous
 62
     7
370
    25
100
AcDbPolyline
 90
        3
 70
   128
 43
0.0
 10
503.5488819185
 20
62.1896454064
 10
504.1112174425
 20
60.3636977708
 10
504.5383779377
 20
58.9267843021
  0
LWPOLYLINE
  5
1CF
330
1F
100
AcDbEntity
  8
0
  6
Continuous
 62
     7
370
    25
100
AcDbPolyline
 90
        3
 70
   128
 43
0.0
 10
506.6251368692
 20
62.7438468679
 10
504.8917928081
 20
62.4610726904
 10
503.5488819185
 20
62.1896454064
  0
ARC
  5
1D0
330
1F
100
AcDbEntity
  8
0
  6
Continuous
 62
     7
370
    25
100
AcDbCircle
 10
509.2981003418
 20
45.8819899414
 30
0.0
 40
17.07240325017743
100
AcDbArc
 50
74.3474042305
 51
99.0076493996
  0
ARC
  5
1D1
330
1F
100
AcDbEntity
  8
0
  6
Continuous
 62
     7
370
    25
100
AcDbCircle
 10
513.3239730819
 20
56.8304952874
 30
0.0
 40
5.521355617647927
100
AcDbArc
 50
26.9810130814
 51
83.9667266266
  0
LINE
  5
1D2
330
1F
100
AcDbEntity
  8
0
  6
Continuous
 62
     7
370
    25
100
AcDbLine
 10
506.6251368692
 20
64.8651672115
 30
0.0
 11
506.6251368692
 21
62.7438468679
 31
0.0
  0
LINE
  5
1D3
330
1F
100
AcDbEntity
  8
0
  6
Continuous
 62
     7
370
    25
100
AcDbLine
 10
513.9043006536
 20
64.4425885971
 30
0.0
 11
513.9043006536
 21
62.3212682535
 31
0.0
  0
LINE
  5
1D4
330
1F
100
AcDbEntity
  8
0
  6
Continuous
 62
     7
370
    25
100
AcDbLine
 10
503.5488819185
 20
64.31096575
 30
0.0
 11
503.5488819185
 21
62.1896454064
 31
0.0
  0
LINE
  5
1D5
330
1F
100
AcDbEntity
  8
0
  6
Continuous
 62
     7
370
    25
100
AcDbLine
 10
518.2443673515
 20
61.4568282234
 30
0.0
 11
518.2443673515
 21
59.3355078799
 31
0.0
  0
LWPOLYLINE
  5
1D6
330
1F
100
AcDbEntity
  8
0
  6
Continuous
 62
     7
370
    25
100
AcDbPolyline
 90
        3
 70
   128
 43
0.0
 10
477.7034187435
 20
59.6060837787
 10
476.937669044
 20
59.5462975999
 10
476.3318401031
 20
59.5437361143
  0
LWPOLYLINE
  5
1D7
330
1F
100
AcDbEntity
  8
0
  6
Continuous
 62
     7
370
    25
100
AcDbPolyline
 90
        3
 70
   128
 43
0.0
 10
476.3318401031
 20
59.5437361143
 10
470.5294505163
 20
59.454415089
 10
466.0058123389
 20
59.044954799
  0
LWPOLYLINE
  5
1D8
330
1F
100
AcDbEntity
  8
0
  6
Continuous
 62
     7
370
    25
100
AcDbPolyline
 90
        3
 70
   128
 43
0.0
 10
466.0058123389
 20
59.044954799
 10
459.8672061417
 20
57.9488870015
 10
455.1801380699
 20
56.7658012887
  0
ARC
  5
1D9
330
1F
100
AcDbEntity
  8
0
  6
Continuous
 62
     7
370
    25
100
AcDbCircle
 10
479.4770734785
 20
48.8335387905
 30
0.0
 40
4.074144729339905
100
AcDbArc
 50
273.5789283219
 51
328.5870059775
  0
LWPOLYLINE
  5
1DA
330
1F
100
AcDbEntity
  8
0
  6
Continuous
 62
     7
370
    25
100
AcDbPolyline
 90
        3
 70
   128
 43
0.0
 10
479.7313957332
 20
44.767339648
 10
475.3358308715
 20
44.045030568
 10
471.884006512
 20
43.4718937318
  0
LWPOLYLINE
  5
1DB
330
1F
100
AcDbEntity
  8
0
  6
Continuous
 62
     7
370
    25
100
AcDbPolyline
 90
        3
 70
   128
 43
0.0
 10
471.884006512
 20
43.4718937318
 10
464.0247583029
 20
42.1173022109
 10
457.8351224382
 20
41.0957549658
  0
ARC
  5
1DC
330
1F
100
AcDbEntity
  8
0
  6
Continuous
 62
     7
370
    25
100
AcDbCircle
 10
483.9280964109
 20
31.7357972223
 30
0.0
 40
3.811427239965184
100
AcDbArc
 50
276.2914914155
 51
329.1025012989
  0
ARC
  5
1DD
330
1F
100
AcDbEntity
  8
0
  6
Continuous
 62
     7
370
    25
100
AcDbCircle
 10
455.5854677418
 20
165.7247613305
 30
0.0
 40
140.7472107591967
100
AcDbArc
 50
276.1962618025
 51
281.7908765626
  0
LWPOLYLINE
  5
1DE
330
1F
100
AcDbEntity
  8
0
  6
Continuous
 62
     7
370
    25
100
AcDbPolyline
 90
        5
 70
   128
 43
0.0
 10
470.7769466094
 20
25.7997946294
 10
466.6898145472
 20
25.3708628649
 10
462.5674322708
 20
25.1853798392
 10
459.3312841365
 20
25.3394822845
 10
456.267603992
 20
26.0630403236
  0
LWPOLYLINE
  5
1DF
330
1F
100
AcDbEntity
  8
0
  6
Continuous
 62
     7
370
    25
100
AcDbPolyline
 90
        5
 70
   128
 43
0.0
 10
456.267603992
 20
26.0630403236
 10
454.2569463893
 20
27.3839527118
 10
452.8304128442
 20
29.049184994
 10
451.7962463243
 20
30.8553294718
 10
450.2326579742
 20
35.3112772118
  0
LWPOLYLINE
  5
1E0
330
1F
100
AcDbEntity
  8
0
  6
Continuous
 62
     7
370
    25
100
AcDbPolyline
 90
        4
 70
   128
 43
0.0
 10
450.2326579742
 20
35.3112772118
 10
449.181846328
 20
40.5437111952
 10
448.3531780199
 20
45.7966430832
 10
446.8135083634
 20
54.0294315727
  0
LWPOLYLINE
  5
1E1
330
1F
100
AcDbEntity
  8
0
  6
Continuous
 62
     7
370
    25
100
AcDbPolyline
 90
        3
 70
   128
 43
0.0
 10
446.8135083634
 20
54.0294315727
 10
445.7638110854
 20
56.654882882
 10
444.9814711795
 20
58.7262889586
  0
LINE
  5
1E2
330
1F
100
AcDbEntity
  8
0
  6
Continuous
 62
     7
370
    25
100
AcDbLine
 10
481.131065243
 20
61.6345182053
 30
0.0
 11
480.7306887427
 21
61.0192975055
 31
0.0
  0
ARC
  5
1E3
330
1F
100
AcDbEntity
  8
0
  6
Continuous
 62
     7
370
    25
100
AcDbCircle
 10
477.4232819701
 20
64.1551607307
 30
0.0
 40
4.557694343295541
100
AcDbArc
 50
273.5238822733
 51
316.5250641352
  0
LINE
  5
1E4
330
1F
100
AcDbEntity
  8
0
  6
Continuous
 62
     7
370
    25
100
AcDbLine
 10
480.7306887427
 20
61.0192975055
 30
0.0
 11
480.7306887427
 21
58.8979771619
 31
0.0
  0
LINE
  5
1E5
330
1F
100
AcDbEntity
  8
0
  6
Continuous
 62
     7
370
    25
100
AcDbLine
 10
444.9814711795
 20
58.5121549248
 30
0.0
 11
444.9814711795
 21
56.6049686151
 31
0.0
  0
LINE
  5
1E6
330
1F
100
AcDbEntity
  8
0
  6
Continuous
 62
     7
370
    25
100
AcDbLine
 10
522.8881407483
 20
52.4371994381
 30
0.0
 11
522.8881407483
 21
50.3158790946
 31
0.0
  0
LINE
  5
1E7
330
1F
100
AcDbEntity
  8
0
  6
Continuous
 62
     7
370
    25
100
AcDbLine
 10
497.4943419202
 20
52.0908235247
 30
0.0
 11
497.4943419202
 21
49.9695031811
 31
0.0
  0
LINE
  5
1E8
330
1F
100
AcDbEntity
  8
0
  6
Continuous
 62
     7
370
    25
100
AcDbLine
 10
477.7034187435
 20
59.6060837787
 30
0.0
 11
477.7034187435
 21
57.4847634352
 31
0.0
  0
LINE
  5
1E9
330
1F
100
AcDbEntity
  8
0
  6
Continuous
 62
     7
370
    25
100
AcDbLine
 10
600.2527276833
 20
59.8996627066
 30
0.0
 11
600.2527276833
 21
57.7783423631
 31
0.0
  0
LINE
  5
1EA
330
1F
100
AcDbEntity
  8
0
  6
Continuous
 62
     7
370
    25
100
AcDbLine
 10
613.0769879711
 20
54.8564294073
 30
0.0
 11
613.0769879711
 21
52.7351090637
 31
0.0
  0
LINE
  5
1EB
330
1F
100
AcDbEntity
  8
0
  6
Continuous
 62
     7
370
    25
100
AcDbLine
 10
476.3318401031
 20
59.5437361143
 30
0.0
 11
476.3318401031
 21
57.4224157707
 31
0.0
  0
LINE
  5
1EC
330
1F
100
AcDbEntity
  8
0
  6
Continuous
 62
     7
370
    25
100
AcDbLine
 10
466.0058123389
 20
59.044954799
 30
0.0
 11
466.0058123389
 21
56.9236344554
 31
0.0
  0
LINE
  5
1ED
330
1F
100
AcDbEntity
  8
0
  6
Continuous
 62
     7
370
    25
100
AcDbLine
 10
455.1801380699
 20
56.7658012887
 30
0.0
 11
455.1801380699
 21
54.6444809451
 31
0.0
  0
LINE
  5
1EE
330
1F
100
AcDbEntity
  8
0
  6
Continuous
 62
     7
370
    25
100
AcDbLine
 10
446.8135083634
 20
54.0294315727
 30
0.0
 11
446.8135083634
 21
51.9081112292
 31
0.0
  0
LINE
  5
1EF
330
1F
100
AcDbEntity
  8
0
  6
Continuous
 62
     7
370
    25
100
AcDbLine
 10
555.2497726646
 20
47.2042201384
 30
0.0
 11
555.2497726646
 21
45.0828997948
 31
0.0
  0
LINE
  5
1F0
330
1F
100
AcDbEntity
  8
0
  6
Continuous
 62
     7
370
    25
100
AcDbLine
 10
399.0647028901
 20
52.0511470644
 30
0.0
 11
399.0647028901
 21
51.0510085827
 31
0.0
  0
LINE
  5
1F1
330
1F
100
AcDbEntity
  8
0
  6
Continuous
 62
     7
370
    25
100
AcDbLine
 10
629.3791798113
 20
54.56547364
 30
0.0
 11
629.3791798113
 21
52.4441532965
 31
0.0
  0
LINE
  5
1F2
330
1F
100
AcDbEntity
  8
0
  6
Continuous
 62
     7
370
    25
100
AcDbLine
 10
626.5282556374
 20
52.7296812989
 30
0.0
 11
626.5282556374
 21
50.6083609554
 31
0.0
  0
LWPOLYLINE
  5
1F3
330
1F
100
AcDbEntity
  8
0
  6
Continuous
 62
     7
370
    25
100
AcDbPolyline
 90
        3
 70
   128
 43
0.0
 10
436.704739579
 20
24.7487214714
 10
430.4484979435
 20
22.7572345814
 10
425.3402308442
 20
21.5274254766
  0
LWPOLYLINE
  5
1F4
330
1F
100
AcDbEntity
  8
0
  6
Continuous
 62
     7
370
    25
100
AcDbPolyline
 90
        3
 70
   128
 43
0.0
 10
425.3402308442
 20
21.5274254766
 10
418.7807174725
 20
20.1893057616
 10
413.5348575464
 20
19.4006773682
  0
LWPOLYLINE
  5
1F5
330
1F
100
AcDbEntity
  8
0
  6
Continuous
 62
     7
370
    25
100
AcDbPolyline
 90
        7
 70
   128
 43
0.0
 10
413.5348575464
 20
19.4006773682
 10
411.2568010995
 20
19.2637077577
 10
408.9913668119
 20
19.4600474487
 10
406.9411303647
 20
20.1575238108
 10
405.7243146811
 20
21.0869848767
 10
404.9349986793
 20
22.2258374773
 10
404.5118294905
 20
23.4602030735
  0
LWPOLYLINE
  5
1F6
330
1F
100
AcDbEntity
  8
0
  6
Continuous
 62
     7
370
    25
100
AcDbPolyline
 90
       18
 70
   128
 43
0.0
 10
404.5118294905
 20
23.4602030735
 10
404.5183741205
 20
23.4504212246
 10
404.5219362107
 20
23.446075205
 10
404.5223974715
 20
23.4457758009
 10
404.5225493663
 20
23.445720373
 10
404.5226851868
 20
23.4456991106
 10
404.5228204037
 20
23.4457156509
 10
404.5229357051
 20
23.4457746371
 10
404.5230315387
 20
23.4458751791
 10
404.5231083522
 20
23.4460163873
 10
404.5232289638
 20
23.4466714251
 10
404.5231958324
 20
23.447657566
 10
404.5228618323
 20
23.4498191564
 10
404.5052138814
 20
23.5154797964
 10
404.5010461237
 20
23.5554708221
 10
404.456334586
 20
23.8954988206
 10
404.2517039711
 20
25.2813889077
 10
403.4047695879
 20
30.831082511
  0
LWPOLYLINE
  5
1F7
330
1F
100
AcDbEntity
  8
0
  6
Continuous
 62
     7
370
    25
100
AcDbPolyline
 90
        3
 70
   128
 43
0.0
 10
403.4047695879
 20
30.831082511
 10
401.1635336102
 20
43.3605803522
 10
399.2057993879
 20
52.512721961
  0
ARC
  5
1F8
330
1F
100
AcDbEntity
  8
0
  6
Continuous
 62
     7
370
    25
100
AcDbCircle
 10
435.6650912439
 20
27.8307704223
 30
0.0
 40
3.252674960175171
100
AcDbArc
 50
288.6404729543
 51
334.4920556959
  0
LINE
  5
1F9
330
1F
100
AcDbEntity
  8
0
  6
Continuous
 62
     7
370
    25
100
AcDbLine
 10
450.2326579742
 20
35.3112772118
 30
0.0
 11
450.2326579742
 21
33.1899568682
 31
0.0
  0
LINE
  5
1FA
330
1F
100
AcDbEntity
  8
0
  6
Continuous
 62
     7
370
    25
100
AcDbLine
 10
403.4047695879
 20
30.831082511
 30
0.0
 11
403.4047695879
 21
28.7097621674
 31
0.0
  0
LINE
  5
1FB
330
1F
100
AcDbEntity
  8
0
  6
Continuous
 62
     7
370
    25
100
AcDbLine
 10
510.2990082274
 20
47.3108359196
 30
0.0
 11
510.2990082274
 21
45.189515576
 31
0.0
  0
LINE
  5
1FC
330
1F
100
AcDbEntity
  8
0
  6
Continuous
 62
     7
370
    25
100
AcDbLine
 10
500.1199353175
 20
41.5263581655
 30
0.0
 11
500.1199353175
 21
39.405037822
 31
0.0
  0
LINE
  5
1FD
330
1F
100
AcDbEntity
  8
0
  6
Continuous
 62
     7
370
    25
100
AcDbLine
 10
350.0649395831
 20
46.6063867571
 30
0.0
 11
350.0649395831
 21
45.7686589705
 31
0.0
  0
LINE
  5
1FE
330
1F
100
AcDbEntity
  8
0
  6
Continuous
 62
     7
370
    25
100
AcDbLine
 10
364.8508571908
 20
15.8984080576
 30
0.0
 11
364.5448912297
 21
15.2752233069
 31
0.0
  0
ARC
  5
1FF
330
1F
100
AcDbEntity
  8
0
  6
Continuous
 62
     7
370
    25
100
AcDbCircle
 10
361.4202107225
 20
17.7895174818
 30
0.0
 40
4.010648759171492
100
AcDbArc
 50
270.1319676007
 51
321.1778826856
  0
ARC
  5
200
330
1F
100
AcDbEntity
  8
0
  6
Continuous
 62
     7
370
    25
100
AcDbCircle
 10
360.6128528754
 20
19.8184338079
 30
0.0
 40
6.0945094991266
100
AcDbArc
 50
234.5673118273
 51
277.7001457417
  0
LWPOLYLINE
  5
201
330
1F
100
AcDbEntity
  8
0
  6
Continuous
 62
     7
370
    25
100
AcDbPolyline
 90
        3
 70
   128
 43
0.0
 10
357.0795846297
 20
14.8526446925
 10
355.9089721546
 20
16.0774520398
 10
355.4532842418
 20
17.1941458672
  0
LWPOLYLINE
  5
202
330
1F
100
AcDbEntity
  8
0
  6
Continuous
 62
     7
370
    25
100
AcDbPolyline
 90
        4
 70
   128
 43
0.0
 10
355.4532842418
 20
17.1941458672
 10
353.899009894
 20
25.7849578012
 10
352.4529439139
 20
34.3853061359
 10
350.2253716996
 20
46.98270152
  0
ARC
  5
203
330
1F
100
AcDbEntity
  8
0
  6
Continuous
 62
     7
370
    25
100
AcDbCircle
 10
355.9378464966
 20
67.3567322781
 30
0.0
 40
32.91348796410293
100
AcDbArc
 50
311.3052318359
 51
327.1959302158
  0
LWPOLYLINE
  5
204
330
1F
100
AcDbEntity
  8
0
  6
Continuous
 62
     7
370
    25
100
AcDbPolyline
 90
        3
 70
   128
 43
0.0
 10
377.6630612261
 20
42.6319929484
 10
371.9054235396
 20
37.0775640545
 10
367.1900786076
 20
32.8156995622
  0
LINE
  5
205
330
1F
100
AcDbEntity
  8
0
  6
Continuous
 62
     7
370
    25
100
AcDbLine
 10
391.4594616088
 20
19.8485597789
 30
0.0
 11
391.202501805
 21
19.3347490121
 31
0.0
  0
ARC
  5
206
330
1F
100
AcDbEntity
  8
0
  6
Continuous
 62
     7
370
    25
100
AcDbCircle
 10
388.007249314
 20
21.7582658117
 30
0.0
 40
4.010370576300867
100
AcDbArc
 50
270.8603268069
 51
322.8206187184
  0
ARC
  5
207
330
1F
100
AcDbEntity
  8
0
  6
Continuous
 62
     7
370
    25
100
AcDbCircle
 10
388.1541664518
 20
46.5023231957
 30
0.0
 40
28.75410658185968
100
AcDbArc
 50
242.8598998363
 51
269.8272372058
  0
LWPOLYLINE
  5
208
330
1F
100
AcDbEntity
  8
0
  6
Continuous
 62
     7
370
    25
100
AcDbPolyline
 90
        3
 70
   128
 43
0.0
 10
375.0374678288
 20
20.9142231773
 10
368.3219126695
 20
24.2083013736
 10
363.1341246281
 20
26.8857439246
  0
LINE
  5
209
330
1F
100
AcDbEntity
  8
0
  6
Continuous
 62
     7
370
    25
100
AcDbLine
 10
377.6630612261
 20
42.6319929484
 30
0.0
 11
377.6630612261
 21
40.5106726049
 31
0.0
  0
LINE
  5
20A
330
1F
100
AcDbEntity
  8
0
  6
Continuous
 62
     7
370
    25
100
AcDbLine
 10
603.5739073911
 20
48.3445622351
 30
0.0
 11
603.5739073911
 21
46.2232418915
 31
0.0
  0
LINE
  5
20B
330
1F
100
AcDbEntity
  8
0
  6
Continuous
 62
     7
370
    25
100
AcDbLine
 10
596.0498188494
 20
47.2915794583
 30
0.0
 11
596.0498188494
 21
45.1702591147
 31
0.0
  0
LINE
  5
20C
330
1F
100
AcDbEntity
  8
0
  6
Continuous
 62
     7
370
    25
100
AcDbLine
 10
574.814362271
 20
44.6341108608
 30
0.0
 11
574.814362271
 21
42.5127905173
 31
0.0
  0
LINE
  5
20D
330
1F
100
AcDbEntity
  8
0
  6
Continuous
 62
     7
370
    25
100
AcDbLine
 10
479.7313957332
 20
44.767339648
 30
0.0
 11
479.7313957332
 21
42.6460193044
 31
0.0
  0
LINE
  5
20E
330
1F
100
AcDbEntity
  8
0
  6
Continuous
 62
     7
370
    25
100
AcDbLine
 10
600.6544042851
 20
46.5780450767
 30
0.0
 11
600.6544042851
 21
44.4567247331
 31
0.0
  0
LINE
  5
20F
330
1F
100
AcDbEntity
  8
0
  6
Continuous
 62
     7
370
    25
100
AcDbLine
 10
355.4532842418
 20
17.1941458672
 30
0.0
 11
355.4532842418
 21
15.0728255236
 31
0.0
  0
LINE
  5
210
330
1F
100
AcDbEntity
  8
0
  6
Continuous
 62
     7
370
    25
100
AcDbLine
 10
507.604835898
 20
47.0545177436
 30
0.0
 11
507.604835898
 21
44.9331974001
 31
0.0
  0
LINE
  5
211
330
1F
100
AcDbEntity
  8
0
  6
Continuous
 62
     7
370
    25
100
AcDbLine
 10
298.801122278
 20
32.3007802956
 30
0.0
 11
298.801122278
 21
31.2657630866
 31
0.0
  0
LINE
  5
212
330
1F
100
AcDbEntity
  8
0
  6
Continuous
 62
     7
370
    25
100
AcDbLine
 10
545.8054740264
 20
41.4732327343
 30
0.0
 11
545.8054740264
 21
39.7972033561
 31
0.0
  0
ARC
  5
213
330
1F
100
AcDbEntity
  8
0
  6
Continuous
 62
     7
370
    25
100
AcDbCircle
 10
311.6557046434
 20
39.6305805097
 30
0.0
 40
28.97122832772129
100
AcDbArc
 50
249.075833273
 51
276.366348482
  0
LWPOLYLINE
  5
214
330
1F
100
AcDbEntity
  8
0
  6
Continuous
 62
     7
370
    25
100
AcDbPolyline
 90
        5
 70
   128
 43
0.0
 10
301.3091517919
 20
12.5698910339
 10
299.3876414265
 20
13.5828110978
 10
297.8083240662
 20
14.8546479882
 10
296.960591672
 20
16.0432413882
 10
296.7555550519
 20
16.7045346987
  0
LINE
  5
215
330
1F
100
AcDbEntity
  8
0
  6
Continuous
 62
     7
370
    25
100
AcDbLine
 10
329.7874622137
 20
23.5266201022
 30
0.0
 11
329.8477845027
 21
23.778615592
 31
0.0
  0
ARC
  5
216
330
1F
100
AcDbEntity
  8
0
  6
Continuous
 62
     7
370
    25
100
AcDbCircle
 10
325.5960410068
 20
23.0502241584
 30
0.0
 40
4.313684832683132
100
AcDbArc
 50
9.7213093621
 51
85.9647288738
  0
ARC
  5
217
330
1F
100
AcDbEntity
  8
0
  6
Continuous
 62
     7
370
    25
100
AcDbCircle
 10
320.3381196873
 20
-23.8156434799
 30
0.0
 40
51.47020608613854
100
AcDbArc
 50
83.7969446506
 51
94.8406230483
  0
ARC
  5
218
330
1F
100
AcDbEntity
  8
0
  6
Continuous
 62
     7
370
    25
100
AcDbCircle
 10
313.6710902057
 20
65.1196399043
 30
0.0
 40
37.72030214315141
100
AcDbArc
 50
257.5841932511
 51
273.5319289838
  0
LWPOLYLINE
  5
219
330
1F
100
AcDbEntity
  8
0
  6
Continuous
 62
     7
370
    25
100
AcDbPolyline
 90
        5
 70
   128
 43
0.0
 10
305.5610455772
 20
28.2815024664
 10
302.8623178319
 20
29.1213664286
 10
300.5528431349
 20
30.4107458017
 10
299.3228241865
 20
31.7944849373
 10
299.0063730713
 20
32.7605146967
  0
LINE
  5
21A
330
1F
100
AcDbEntity
  8
0
  6
Continuous
 62
     7
370
    25
100
AcDbLine
 10
333.0129336995
 20
42.3234813405
 30
0.0
 11
332.5517538223
 21
41.7139603887
 31
0.0
  0
ARC
  5
21B
330
1F
100
AcDbEntity
  8
0
  6
Continuous
 62
     7
370
    25
100
AcDbCircle
 10
329.2725974538
 20
45.3740050998
 30
0.0
 40
4.914142221861191
100
AcDbArc
 50
270.5380826445
 51
311.8582237254
  0
LWPOLYLINE
  5
21C
330
1F
100
AcDbEntity
  8
0
  6
Continuous
 62
     7
370
    25
100
AcDbPolyline
 90
        3
 70
   128
 43
0.0
 10
329.3187470271
 20
40.4600795821
 10
324.091629272
 20
40.631937952
 10
319.982215282
 20
40.716397758
  0
ARC
  5
21D
330
1F
100
AcDbEntity
  8
0
  6
Continuous
 62
     7
370
    25
100
AcDbCircle
 10
321.4347336755
 20
18.4274085786
 30
0.0
 40
22.33626755574029
100
AcDbArc
 50
93.7285523047
 51
114.5220389434
  0
LWPOLYLINE
  5
21E
330
1F
100
AcDbEntity
  8
0
  6
Continuous
 62
     7
370
    25
100
AcDbPolyline
 90
        5
 70
   128
 43
0.0
 10
312.1642170317
 20
38.7489825698
 10
310.7535422118
 20
38.0279508218
 10
309.525730241
 20
37.1571251443
 10
308.8468583479
 20
36.3201674672
 10
308.69363101
 20
35.552421895
  0
LWPOLYLINE
  5
21F
330
1F
100
AcDbEntity
  8
0
  6
Continuous
 62
     7
370
    25
100
AcDbPolyline
 90
        6
 70
   128
 43
0.0
 10
339.8693909681
 20
22.1208708349
 10
339.8620549344
 20
21.871196518
 10
338.9729667156
 20
19.6869004714
 10
337.2988670902
 20
17.7444031171
 10
334.6114170557
 20
15.852020893
 10
331.4642879003
 20
14.3502632288
  0
ARC
  5
220
330
1F
100
AcDbEntity
  8
0
  6
Continuous
 62
     7
370
    25
100
AcDbCircle
 10
311.9657586887
 20
65.5186684275
 30
0.0
 40
54.75763263679978
100
AcDbArc
 50
273.0383859804
 51
290.8601326454
  0
LINE
  5
221
330
1F
100
AcDbEntity
  8
0
  6
Continuous
 62
     7
370
    25
100
AcDbLine
 10
471.884006512
 20
43.4718937318
 30
0.0
 11
471.884006512
 21
41.3505733883
 31
0.0
  0
LINE
  5
222
330
1F
100
AcDbEntity
  8
0
  6
Continuous
 62
     7
370
    25
100
AcDbLine
 10
564.0082819827
 20
42.5420003438
 30
0.0
 11
564.0082819827
 21
40.4206800002
 31
0.0
  0
LINE
  5
223
330
1F
100
AcDbEntity
  8
0
  6
Continuous
 62
     7
370
    25
100
AcDbLine
 10
332.5517538223
 20
41.7139603887
 30
0.0
 11
332.5517538223
 21
39.5926400451
 31
0.0
  0
LINE
  5
224
330
1F
100
AcDbEntity
  8
0
  6
Continuous
 62
     7
370
    25
100
AcDbLine
 10
457.8351224382
 20
41.0957549658
 30
0.0
 11
457.8351224382
 21
38.9744346222
 31
0.0
  0
LINE
  5
225
330
1F
100
AcDbEntity
  8
0
  6
Continuous
 62
     7
370
    25
100
AcDbLine
 10
367.1900786076
 20
32.8156995622
 30
0.0
 11
367.1900786076
 21
30.6943792187
 31
0.0
  0
LINE
  5
226
330
1F
100
AcDbEntity
  8
0
  6
Continuous
 62
     7
370
    25
100
AcDbLine
 10
551.5073223744
 20
39.4315446413
 30
0.0
 11
551.5073223744
 21
37.3102242978
 31
0.0
  0
LINE
  5
227
330
1F
100
AcDbEntity
  8
0
  6
Continuous
 62
     7
370
    25
100
AcDbLine
 10
329.3187470271
 20
40.4600795821
 30
0.0
 11
329.3187470271
 21
38.3387592385
 31
0.0
  0
LINE
  5
228
330
1F
100
AcDbEntity
  8
0
  6
Continuous
 62
     7
370
    25
100
AcDbLine
 10
502.0989273558
 20
35.1668963952
 30
0.0
 11
502.0989273558
 21
33.0455760517
 31
0.0
  0
LINE
  5
229
330
1F
100
AcDbEntity
  8
0
  6
Continuous
 62
     7
370
    25
100
AcDbLine
 10
319.982215282
 20
40.716397758
 30
0.0
 11
319.982215282
 21
38.5950774145
 31
0.0
  0
LINE
  5
22A
330
1F
100
AcDbEntity
  8
0
  6
Continuous
 62
     7
370
    25
100
AcDbLine
 10
312.1642170317
 20
38.7489825698
 30
0.0
 11
312.1642170317
 21
36.6276622263
 31
0.0
  0
LINE
  5
22B
330
1F
100
AcDbEntity
  8
0
  6
Continuous
 62
     7
370
    25
100
AcDbLine
 10
507.4186930825
 20
32.915452958
 30
0.0
 11
507.4186930825
 21
30.7941326145
 31
0.0
  0
LINE
  5
22C
330
1F
100
AcDbEntity
  8
0
  6
Continuous
 62
     7
370
    25
100
AcDbLine
 10
456.267603992
 20
26.0630403236
 30
0.0
 11
456.267603992
 21
23.94171998
 31
0.0
  0
LINE
  5
22D
330
1F
100
AcDbEntity
  8
0
  6
Continuous
 62
     7
370
    25
100
AcDbLine
 10
305.5610455772
 20
28.2815024664
 30
0.0
 11
305.5610455772
 21
26.1601821228
 31
0.0
  0
LINE
  5
22E
330
1F
100
AcDbEntity
  8
0
  6
Continuous
 62
     7
370
    25
100
AcDbLine
 10
484.3457781592
 20
27.9473252925
 30
0.0
 11
484.3457781592
 21
25.826004949
 31
0.0
  0
LINE
  5
22F
330
1F
100
AcDbEntity
  8
0
  6
Continuous
 62
     7
370
    25
100
AcDbLine
 10
404.5118294905
 20
23.4602030735
 30
0.0
 11
404.5118294905
 21
21.3388827299
 31
0.0
  0
LINE
  5
230
330
1F
100
AcDbEntity
  8
0
  6
Continuous
 62
     7
370
    25
100
AcDbLine
 10
315.9948402346
 20
27.470982829
 30
0.0
 11
315.9948402346
 21
25.3496624855
 31
0.0
  0
LINE
  5
231
330
1F
100
AcDbEntity
  8
0
  6
Continuous
 62
     7
370
    25
100
AcDbLine
 10
436.704739579
 20
24.7487214714
 30
0.0
 11
436.704739579
 21
22.6274011278
 31
0.0
  0
LINE
  5
232
330
1F
100
AcDbEntity
  8
0
  6
Continuous
 62
     7
370
    25
100
AcDbLine
 10
470.7769466094
 20
25.7997946294
 30
0.0
 11
470.7769466094
 21
23.6784742858
 31
0.0
  0
LINE
  5
233
330
1F
100
AcDbEntity
  8
0
  6
Continuous
 62
     7
370
    25
100
AcDbLine
 10
325.8995974164
 20
27.3532150184
 30
0.0
 11
325.8995974164
 21
25.2318946749
 31
0.0
  0
LINE
  5
234
330
1F
100
AcDbEntity
  8
0
  6
Continuous
 62
     7
370
    25
100
AcDbLine
 10
329.8477845027
 20
23.778615592
 30
0.0
 11
329.8477845027
 21
21.6572952484
 31
0.0
  0
LINE
  5
235
330
1F
100
AcDbEntity
  8
0
  6
Continuous
 62
     7
370
    25
100
AcDbLine
 10
363.1341246281
 20
26.8857439246
 30
0.0
 11
363.1341246281
 21
24.764423581
 31
0.0
  0
LINE
  5
236
330
1F
100
AcDbEntity
  8
0
  6
Continuous
 62
     7
370
    25
100
AcDbLine
 10
375.0374678288
 20
20.9142231773
 30
0.0
 11
375.0374678288
 21
18.7929028337
 31
0.0
  0
LINE
  5
237
330
1F
100
AcDbEntity
  8
0
  6
Continuous
 62
     7
370
    25
100
AcDbLine
 10
425.3402308442
 20
21.5274254766
 30
0.0
 11
425.3402308442
 21
19.4061051331
 31
0.0
  0
LINE
  5
238
330
1F
100
AcDbEntity
  8
0
  6
Continuous
 62
     7
370
    25
100
AcDbLine
 10
331.4642879003
 20
14.3502632288
 30
0.0
 11
331.4642879003
 21
12.2289428853
 31
0.0
  0
LINE
  5
239
330
1F
100
AcDbEntity
  8
0
  6
Continuous
 62
     7
370
    25
100
AcDbLine
 10
413.5348575464
 20
19.4006773682
 30
0.0
 11
413.5348575464
 21
17.2793570247
 31
0.0
  0
LINE
  5
23A
330
1F
100
AcDbEntity
  8
0
  6
Continuous
 62
     7
370
    25
100
AcDbLine
 10
391.202501805
 20
19.3347490121
 30
0.0
 11
391.202501805
 21
17.2134286685
 31
0.0
  0
LINE
  5
23B
330
1F
100
AcDbEntity
  8
0
  6
Continuous
 62
     7
370
    25
100
AcDbLine
 10
296.5576115019
 20
16.0437645812
 30
0.0
 11
296.5576115019
 21
15.2216307772
 31
0.0
  0
LINE
  5
23C
330
1F
100
AcDbEntity
  8
0
  6
Continuous
 62
     7
370
    25
100
AcDbLine
 10
388.0674649127
 20
17.7483473287
 30
0.0
 11
388.0674649127
 21
15.6270269851
 31
0.0
  0
LINE
  5
23D
330
1F
100
AcDbEntity
  8
0
  6
Continuous
 62
     7
370
    25
100
AcDbLine
 10
301.3091517919
 20
12.5698910339
 30
0.0
 11
301.3091517919
 21
10.4485706903
 31
0.0
  0
LINE
  5
23E
330
1F
100
AcDbEntity
  8
0
  6
Continuous
 62
     7
370
    25
100
AcDbLine
 10
364.5448912297
 20
15.2752233069
 30
0.0
 11
364.5448912297
 21
13.1539029633
 31
0.0
  0
LINE
  5
23F
330
1F
100
AcDbEntity
  8
0
  6
Continuous
 62
     7
370
    25
100
AcDbLine
 10
357.0795846297
 20
14.8526446925
 30
0.0
 11
357.0795846297
 21
12.7313243489
 31
0.0
  0
LINE
  5
240
330
1F
100
AcDbEntity
  8
0
  6
Continuous
 62
     7
370
    25
100
AcDbLine
 10
361.4294483179
 20
13.7788793609
 30
0.0
 11
361.4294483179
 21
11.6575590174
 31
0.0
  0
LINE
  5
241
330
1F
100
AcDbEntity
  8
0
  6
Continuous
 62
     7
370
    25
100
AcDbLine
 10
314.8681863514
 20
10.8380114668
 30
0.0
 11
314.8681863514
 21
8.7166911232
 31
0.0
  0
ARC
  5
242
330
1F
100
AcDbEntity
  8
0
  6
Continuous
 62
     7
370
    25
100
AcDbCircle
 10
131.5224545455
 20
-1.7341279993
 30
0.0
 40
2.678035660703514
100
AcDbArc
 50
191.421753659
 51
278.0494669755
  0
ARC
  5
243
330
1F
100
AcDbEntity
  8
0
  6
Continuous
 62
     7
370
    25
100
AcDbCircle
 10
131.5224545455
 20
-10.1325642074
 30
0.0
 40
2.678035660703669
100
AcDbArc
 50
191.421753659
 51
278.0494669755
  0
LINE
  5
244
330
1F
100
AcDbEntity
  8
0
  6
Continuous
 62
     7
370
    25
100
AcDbLine
 10
128.8974545455
 20
-10.6628942933
 30
0.0
 11
128.8974545455
 21
-2.2644580852
 31
0.0
  0
LINE
  5
245
330
1F
100
AcDbEntity
  8
0
  6
Continuous
 62
     7
370
    25
100
AcDbLine
 10
628.8974545455
 20
178.1887272727
 30
0.0
 11
68.8974545455
 21
178.1887272727
 31
0.0
  0
LINE
  5
246
330
1F
100
AcDbEntity
  8
0
  6
Continuous
 62
     7
370
    25
100
AcDbLine
 10
68.8974545455
 20
181.1887272727
 30
0.0
 11
628.8974545455
 21
181.1887272727
 31
0.0
  0
LINE
  5
247
330
1F
100
AcDbEntity
  8
0
  6
Continuous
 62
     7
370
    25
100
AcDbLine
 10
628.8974545455
 20
181.1887272727
 30
0.0
 11
628.8974545455
 21
178.1887272727
 31
0.0
  0
LINE
  5
248
330
1F
100
AcDbEntity
  8
0
  6
Continuous
 62
     7
370
    25
100
AcDbLine
 10
68.8974545455
 20
181.1887272727
 30
0.0
 11
68.8974545455
 21
178.1887272727
 31
0.0
  0
ARC
  5
249
330
1F
100
AcDbEntity
  8
0
  6
Continuous
 62
     7
370
    25
100
AcDbCircle
 10
628.8974545455
 20
151.1887272727
 30
0.0
 40
30.0
100
AcDbArc
 50
11.2027190839
 51
90.0
  0
ARC
  5
24A
330
1F
100
AcDbEntity
  8
0
  6
Continuous
 62
     7
370
    25
100
AcDbCircle
 10
68.8974545455
 20
151.1887272727
 30
0.0
 40
30.0
100
AcDbArc
 50
90.0
 51
168.7972809161
  0
LWPOLYLINE
  5
24B
330
1F
100
AcDbEntity
  8
0
  6
Continuous
 62
     7
370
    25
100
AcDbPolyline
 90
       13
 70
   128
 43
0.0
 10
703.8974545455
 20
103.8125729332
 10
706.5631936529
 20
103.6863895606
 10
709.1813625829
 20
103.310091188
 10
711.7052400487
 20
102.6903928688
 10
714.0897873973
 20
101.8383531343
 10
716.2924523247
 20
100.7691766535
 10
718.273928223
 20
99.5019429063
 10
719.998855608
 20
98.0592657087
 10
721.4364531096
 20
96.4668896696
 10
722.5610667663
 20
94.7532307772
 10
723.3526278208
 20
92.9488693149
 10
723.7970108472
 20
91.0860041558
 10
723.8974545455
 20
89.6704373095
  0
LWPOLYLINE
  5
24C
330
1F
100
AcDbEntity
  8
0
  6
Continuous
 62
     7
370
    25
100
AcDbPolyline
 90
       13
 70
   128
 43
0.0
 10
683.8974545455
 20
89.6704373095
 10
683.9978982437
 20
91.0860041558
 10
684.4422812702
 20
92.9488693149
 10
685.2338423246
 20
94.7532307772
 10
686.3584559813
 20
96.4668896696
 10
687.7960534829
 20
98.0592657087
 10
689.5209808679
 20
99.5019429063
 10
691.5024567663
 20
100.7691766535
 10
693.7051216936
 20
101.8383531343
 10
696.0896690422
 20
102.6903928688
 10
698.613546508
 20
103.310091188
 10
701.231715438
 20
103.6863895606
 10
703.8974545455
 20
103.8125729332
  0
LWPOLYLINE
  5
24D
330
1F
100
AcDbEntity
  8
0
  6
Continuous
 62
     7
370
    25
100
AcDbPolyline
 90
       13
 70
   128
 43
0.0
 10
-446.1025454545
 20
103.8125729332
 10
-443.4368063471
 20
103.6863895606
 10
-440.8186374171
 20
103.310091188
 10
-438.2947599513
 20
102.6903928688
 10
-435.9102126027
 20
101.8383531343
 10
-433.7075476753
 20
100.7691766535
 10
-431.726071777
 20
99.5019429063
 10
-430.001144392
 20
98.0592657087
 10
-428.5635468904
 20
96.4668896696
 10
-427.4389332337
 20
94.7532307772
 10
-426.6473721792
 20
92.9488693149
 10
-426.2029891528
 20
91.0860041558
 10
-426.1025454545
 20
89.6704373095
  0
LWPOLYLINE
  5
24E
330
1F
100
AcDbEntity
  8
0
  6
Continuous
 62
     7
370
    25
100
AcDbPolyline
 90
       13
 70
   128
 43
0.0
 10
-466.1025454545
 20
89.6704373095
 10
-466.0021017563
 20
91.0860041558
 10
-465.5577187298
 20
92.9488693149
 10
-464.7661576754
 20
94.7532307772
 10
-463.6415440187
 20
96.4668896696
 10
-462.2039465171
 20
98.0592657087
 10
-460.4790191321
 20
99.5019429063
 10
-458.4975432337
 20
100.7691766535
 10
-456.2948783064
 20
101.8383531343
 10
-453.9103309578
 20
102.6903928688
 10
-451.386453492
 20
103.310091188
 10
-448.768284562
 20
103.6863895606
 10
-446.1025454545
 20
103.8125729332
  0
LWPOLYLINE
  5
24F
330
1F
100
AcDbEntity
  8
0
  6
Continuous
 62
     7
370
    25
100
AcDbPolyline
 90
       14
 70
   128
 43
0.0
 10
714.3190276608
 20
71.2588984261
 10
713.7315451311
 20
70.7759423238
 10
712.1073596033
 20
69.7186988163
 10
710.2592292672
 20
68.8649071093
 10
708.2375663006
 20
68.237856415
 10
706.0975163992
 20
67.8546510417
 10
703.8974545455
 20
67.7257438331
 10
701.6973926918
 20
67.8546510417
 10
699.5573427903
 20
68.237856415
 10
697.5356798237
 20
68.8649071093
 10
695.6875494876
 20
69.7186988163
 10
694.0633639598
 20
70.7759423238
 10
692.7074267877
 20
72.007798785
 10
692.1706726247
 20
72.6415063154
  0
LWPOLYLINE
  5
250
330
1F
100
AcDbEntity
  8
0
  6
Continuous
 62
     7
370
    25
100
AcDbPolyline
 90
       12
 70
   128
 43
0.0
 10
713.4117274685
 20
84.5276657275
 10
713.7779280741
 20
84.2680936475
 10
715.1723335082
 20
83.0604707974
 10
716.2747254996
 20
81.7103218597
 10
717.0565526748
 20
80.2526149826
 10
717.4975661206
 20
78.7251040085
 10
717.5863438204
 20
77.1673506694
 10
717.3205864784
 20
75.6196999585
 10
716.7071770702
 20
74.1222352162
 10
715.7620025773
 20
72.7137399927
 10
714.5095425225
 20
71.4306935746
 10
713.187345784
 20
70.4374523155
  0
LWPOLYLINE
  5
251
330
1F
100
AcDbEntity
  8
0
  6
Continuous
 62
     7
370
    25
100
AcDbPolyline
 90
       11
 70
   128
 43
0.0
 10
693.284778998
 20
71.4312024744
 10
692.0329065136
 20
72.7137399927
 10
691.0877320207
 20
74.1222352162
 10
690.4743226125
 20
75.6196999585
 10
690.2085652705
 20
77.1673506694
 10
690.2973429703
 20
78.7251040085
 10
690.7383564161
 20
80.2526149826
 10
691.5201835913
 20
81.7103218597
 10
692.6225755827
 20
83.0604707974
 10
694.0169810168
 20
84.2680936475
 10
694.3858537006
 20
84.5294889051
  0
LWPOLYLINE
  5
252
330
1F
100
AcDbEntity
  8
0
  6
Continuous
 62
     7
370
    25
100
AcDbPolyline
 90
       14
 70
   128
 43
0.0
 10
-435.6809723392
 20
71.2588984261
 10
-436.2684548689
 20
70.7759423238
 10
-437.8926403967
 20
69.7186988163
 10
-439.7407707328
 20
68.8649071093
 10
-441.7624336994
 20
68.237856415
 10
-443.9024836008
 20
67.8546510417
 10
-446.1025454545
 20
67.7257438331
 10
-448.3026073082
 20
67.8546510417
 10
-450.4426572097
 20
68.237856415
 10
-452.4643201763
 20
68.8649071093
 10
-454.3124505124
 20
69.7186988163
 10
-455.9366360402
 20
70.7759423238
 10
-457.2925732123
 20
72.007798785
 10
-457.8293273753
 20
72.6415063154
  0
LWPOLYLINE
  5
253
330
1F
100
AcDbEntity
  8
0
  6
Continuous
 62
     7
370
    25
100
AcDbPolyline
 90
       12
 70
   128
 43
0.0
 10
-436.5882725315
 20
84.5276657275
 10
-436.2220719259
 20
84.2680936475
 10
-434.8276664918
 20
83.0604707974
 10
-433.7252745004
 20
81.7103218597
 10
-432.9434473252
 20
80.2526149826
 10
-432.5024338794
 20
78.7251040085
 10
-432.4136561796
 20
77.1673506694
 10
-432.6794135216
 20
75.6196999585
 10
-433.2928229298
 20
74.1222352162
 10
-434.2379974227
 20
72.7137399927
 10
-435.4904574775
 20
71.4306935746
 10
-436.812654216
 20
70.4374523155
  0
LWPOLYLINE
  5
254
330
1F
100
AcDbEntity
  8
0
  6
Continuous
 62
     7
370
    25
100
AcDbPolyline
 90
       11
 70
   128
 43
0.0
 10
-456.7152211201
 20
71.4312025767
 10
-457.9670934864
 20
72.7137399927
 10
-458.9122679793
 20
74.1222352162
 10
-459.5256773875
 20
75.6196999585
 10
-459.7914347295
 20
77.1673506694
 10
-459.7026570297
 20
78.7251040085
 10
-459.2616435839
 20
80.2526149826
 10
-458.4798164087
 20
81.7103218597
 10
-457.3774244173
 20
83.0604707974
 10
-455.9830189832
 20
84.2680936475
 10
-455.6141462994
 20
84.5294889051
  0
LINE
  5
255
330
1F
100
AcDbEntity
  8
0
  6
Continuous
 62
     7
370
    25
100
AcDbLine
 10
-247.3879932658
 20
157.0171543975
 30
0.0
 11
-247.3879932658
 21
170.3964177559
 31
0.0
  0
LINE
  5
256
330
1F
100
AcDbEntity
  8
0
  6
Continuous
 62
     7
370
    25
100
AcDbLine
 10
-256.3879932658
 20
170.3964177559
 30
0.0
 11
-256.3879932658
 21
157.0171543975
 31
0.0
  0
LINE
  5
257
330
1F
100
AcDbEntity
  8
0
  6
Continuous
 62
     7
370
    25
100
AcDbLine
 10
-247.3879932658
 20
170.3964177559
 30
0.0
 11
-247.3879932658
 21
170.7671682005
 31
0.0
  0
LINE
  5
258
330
1F
100
AcDbEntity
  8
0
  6
Continuous
 62
     7
370
    25
100
AcDbLine
 10
-256.3879932658
 20
170.7671682005
 30
0.0
 11
-256.3879932658
 21
170.3964177559
 31
0.0
  0
LINE
  5
259
330
1F
100
AcDbEntity
  8
0
  6
Continuous
 62
     7
370
    25
100
AcDbLine
 10
-137.0459483486
 20
164.8891138201
 30
0.0
 11
-137.0459483486
 21
157.0171543975
 31
0.0
  0
LINE
  5
25A
330
1F
100
AcDbEntity
  8
0
  6
Continuous
 62
     7
370
    25
100
AcDbLine
 10
-128.0459483486
 20
157.0171543975
 30
0.0
 11
-128.0459483486
 21
164.8891138201
 31
0.0
  0
LINE
  5
25B
330
1F
100
AcDbEntity
  8
0
  6
Continuous
 62
     7
370
    25
100
AcDbLine
 10
-161.249562433
 20
157.0171543975
 30
0.0
 11
-161.249562433
 21
159.9636660736
 31
0.0
  0
LINE
  5
25C
330
1F
100
AcDbEntity
  8
0
  6
Continuous
 62
     7
370
    25
100
AcDbLine
 10
-170.249562433
 20
159.9636660736
 30
0.0
 11
-170.249562433
 21
157.0171543975
 31
0.0
  0
LINE
  5
25D
330
1F
100
AcDbEntity
  8
0
  6
Continuous
 62
     7
370
    25
100
AcDbLine
 10
-170.249562433
 20
162.5186788468
 30
0.0
 11
-170.249562433
 21
159.9636660736
 31
0.0
  0
LINE
  5
25E
330
1F
100
AcDbEntity
  8
0
  6
Continuous
 62
     7
370
    25
100
AcDbLine
 10
-161.249562433
 20
159.9636660736
 30
0.0
 11
-161.249562433
 21
162.5186788468
 31
0.0
  0
LINE
  5
25F
330
1F
100
AcDbEntity
  8
0
  6
Continuous
 62
     7
370
    25
100
AcDbLine
 10
-180.9574136907
 20
157.0171543975
 30
0.0
 11
-180.9574136907
 21
160.829284757
 31
0.0
  0
LINE
  5
260
330
1F
100
AcDbEntity
  8
0
  6
Continuous
 62
     7
370
    25
100
AcDbLine
 10
-189.9574136907
 20
160.829284757
 30
0.0
 11
-189.9574136907
 21
157.0171543975
 31
0.0
  0
LINE
  5
261
330
1F
100
AcDbEntity
  8
0
  6
Continuous
 62
     7
370
    25
100
AcDbLine
 10
-189.9574136907
 20
164.2211827125
 30
0.0
 11
-189.9574136907
 21
160.829284757
 31
0.0
  0
LINE
  5
262
330
1F
100
AcDbEntity
  8
0
  6
Continuous
 62
     7
370
    25
100
AcDbLine
 10
-180.9574136907
 20
160.829284757
 30
0.0
 11
-180.9574136907
 21
164.2211827125
 31
0.0
  0
LINE
  5
263
330
1F
100
AcDbEntity
  8
0
  6
Continuous
 62
     7
370
    25
100
AcDbLine
 10
-242.8906290604
 20
161.9370527014
 30
0.0
 11
-242.8906290604
 21
157.0171543975
 31
0.0
  0
LINE
  5
264
330
1F
100
AcDbEntity
  8
0
  6
Continuous
 62
     7
370
    25
100
AcDbLine
 10
-233.8906290604
 20
157.0171543975
 30
0.0
 11
-233.8906290604
 21
161.9370527014
 31
0.0
  0
ARC
  5
265
330
1F
100
AcDbEntity
  8
0
  6
Continuous
 62
     7
370
    25
100
AcDbCircle
 10
-242.8907798786
 20
158.9334147613
 30
0.0
 40
3.00363794379461
100
AcDbArc
 50
89.9971230734
 51
119.898607082
  0
ARC
  5
266
330
1F
100
AcDbEntity
  8
0
  6
Continuous
 62
     7
370
    25
100
AcDbCircle
 10
-242.8907798786
 20
163.2495486521
 30
0.0
 40
3.003637943794733
100
AcDbArc
 50
89.9971230734
 51
119.898607082
  0
LINE
  5
267
330
1F
100
AcDbEntity
  8
0
  6
Continuous
 62
     7
370
    25
100
AcDbLine
 10
-242.8906290604
 20
166.2854650839
 30
0.0
 11
-242.8906290604
 21
166.2531865922
 31
0.0
  0
LINE
  5
268
330
1F
100
AcDbEntity
  8
0
  6
Continuous
 62
     7
370
    25
100
AcDbLine
 10
-233.8906290604
 20
166.2531865922
 30
0.0
 11
-233.8906290604
 21
166.2854650839
 31
0.0
  0
LINE
  5
269
330
1F
100
AcDbEntity
  8
0
  6
Continuous
 62
     7
370
    25
100
AcDbLine
 10
-308.8488004015
 20
161.7062700683
 30
0.0
 11
-308.8488004015
 21
164.1887272727
 31
0.0
  0
LINE
  5
26A
330
1F
100
AcDbEntity
  8
0
  6
Continuous
 62
     7
370
    25
100
AcDbLine
 10
-320.8038214598
 20
164.1887272727
 30
0.0
 11
-320.8038214598
 21
157.0171543975
 31
0.0
  0
LINE
  5
26B
330
1F
100
AcDbEntity
  8
0
  6
Continuous
 62
     7
370
    25
100
AcDbLine
 10
-311.8038214598
 20
157.0171543975
 30
0.0
 11
-311.8038214598
 21
164.1887272727
 31
0.0
  0
LINE
  5
26C
330
1F
100
AcDbEntity
  8
0
  6
Continuous
 62
     7
370
    25
100
AcDbLine
 10
-155.2458706807
 20
164.1887272727
 30
0.0
 11
-155.2458706807
 21
157.0171543975
 31
0.0
  0
LINE
  5
26D
330
1F
100
AcDbEntity
  8
0
  6
Continuous
 62
     7
370
    25
100
AcDbLine
 10
-146.2458706807
 20
157.0171543975
 30
0.0
 11
-146.2458706807
 21
164.1887272727
 31
0.0
  0
LINE
  5
26E
330
1F
100
AcDbEntity
  8
0
  6
Continuous
 62
     7
370
    25
100
AcDbLine
 10
-263.3484387818
 20
164.1887272727
 30
0.0
 11
-263.3484387818
 21
157.0171543975
 31
0.0
  0
ARC
  5
26F
330
1F
100
AcDbEntity
  8
0
  6
Continuous
 62
     7
370
    25
100
AcDbCircle
 10
-216.8575658204
 20
157.5193714527
 30
0.0
 40
2.478052045765159
100
AcDbArc
 50
114.9471504312
 51
177.2384583063
  0
LINE
  5
270
330
1F
100
AcDbEntity
  8
0
  6
Continuous
 62
     7
370
    25
100
AcDbLine
 10
-205.9027638278
 20
157.0171543975
 30
0.0
 11
-205.9027638278
 21
159.0469440917
 31
0.0
  0
LINE
  5
271
330
1F
100
AcDbEntity
  8
0
  6
Continuous
 62
     7
370
    25
100
AcDbLine
 10
-214.9027638278
 20
159.0469440917
 30
0.0
 11
-214.9027638278
 21
157.0171543975
 31
0.0
  0
LINE
  5
272
330
1F
100
AcDbEntity
  8
0
  6
Continuous
 62
     7
370
    25
100
AcDbLine
 10
-205.9027638278
 20
159.0469440917
 30
0.0
 11
-205.9027638278
 21
167.4984322627
 31
0.0
  0
LINE
  5
273
330
1F
100
AcDbEntity
  8
0
  6
Continuous
 62
     7
370
    25
100
AcDbLine
 10
-214.9027638278
 20
167.4984322627
 30
0.0
 11
-214.9027638278
 21
159.0469440917
 31
0.0
  0
LINE
  5
274
330
1F
100
AcDbEntity
  8
0
  6
Continuous
 62
     7
370
    25
100
AcDbLine
 10
-293.3178830186
 20
170.402200807
 30
0.0
 11
-293.3178830186
 21
157.0171543975
 31
0.0
  0
LINE
  5
275
330
1F
100
AcDbEntity
  8
0
  6
Continuous
 62
     7
370
    25
100
AcDbLine
 10
-284.3178830186
 20
157.0171543975
 30
0.0
 11
-284.3178830186
 21
170.402200807
 31
0.0
  0
LINE
  5
276
330
1F
100
AcDbEntity
  8
0
  6
Continuous
 62
     7
370
    25
100
AcDbLine
 10
-293.3178830186
 20
170.7737986854
 30
0.0
 11
-293.3178830186
 21
170.402200807
 31
0.0
  0
LINE
  5
277
330
1F
100
AcDbEntity
  8
0
  6
Continuous
 62
     7
370
    25
100
AcDbLine
 10
-284.3178830186
 20
170.402200807
 30
0.0
 11
-284.3178830186
 21
170.7737986854
 31
0.0
  0
LWPOLYLINE
  5
278
330
1F
100
AcDbEntity
  8
0
  6
Continuous
 62
     7
370
    25
100
AcDbPolyline
 90
        3
 70
   128
 43
0.0
 10
760.7166319156
 20
147.7316366074
 10
760.8270320876
 20
147.4597521955
 10
760.8808536894
 20
147.0604990887
  0
LINE
  5
279
330
1F
100
AcDbEntity
  8
0
  6
Continuous
 62
     7
370
    25
100
AcDbLine
 10
742.2071136364
 20
157.0171543459
 30
0.0
 11
742.2071136364
 21
156.138474741
 31
0.0
  0
LINE
  5
27A
330
1F
100
AcDbEntity
  8
0
  6
Continuous
 62
     7
370
    25
100
AcDbLine
 10
-482.561886226
 20
157.0171543448
 30
0.0
 11
-482.561886226
 21
156.138474741
 31
0.0
  0
LWPOLYLINE
  5
27B
330
1F
100
AcDbEntity
  8
0
  6
Continuous
 62
     7
370
    25
100
AcDbPolyline
 90
        3
 70
   128
 43
0.0
 10
-501.1314200437
 20
147.2485964317
 10
-501.0778987859
 20
147.6473074029
 10
-500.9566959905
 20
147.9386661319
  0
LWPOLYLINE
  5
27C
330
1F
100
AcDbEntity
  8
0
  6
Continuous
 62
     7
370
    25
100
AcDbPolyline
 90
        3
 70
   128
 43
0.0
 10
-537.7743657128
 20
82.4724080186
 10
-537.720844455
 20
82.8711189898
 10
-537.6001004794
 20
83.1616673132
  0
LWPOLYLINE
  5
27D
330
1F
100
AcDbEntity
  8
0
  6
Continuous
 62
     7
370
    25
100
AcDbPolyline
 90
        3
 70
   128
 43
0.0
 10
796.5332719649
 20
81.6959438677
 10
796.6434270337
 20
81.4245111444
 10
796.6972486355
 20
81.0252580375
  0
LWPOLYLINE
  5
27E
330
1F
100
AcDbEntity
  8
0
  6
Continuous
 62
     7
370
    25
100
AcDbPolyline
 90
        6
 70
   128
 43
0.0
 10
-523.6043225383
 20
59.2448916823
 10
-523.7557868994
 20
58.885901929
 10
-523.9014305701
 20
58.6222291016
 10
-524.0356565457
 20
58.4640059992
 10
-524.1533065973
 20
58.4173130468
 10
-524.1627261061
 20
58.4186392189
  0
ARC
  5
27F
330
1F
100
AcDbEntity
  8
0
  6
Continuous
 62
     7
370
    25
100
AcDbCircle
 10
-528.6110001729
 20
72.9132513698
 30
0.0
 40
10.59398933302945
100
AcDbArc
 50
149.8780144394
 51
179.6856070624
  0
ARC
  5
280
330
1F
100
AcDbEntity
  8
0
  6
Continuous
 62
     7
370
    25
100
AcDbCircle
 10
787.4909814653
 20
71.6658271253
 30
0.0
 40
10.53265861103839
100
AcDbArc
 50
0.2863003612
 51
29.0650530814
  0
LWPOLYLINE
  5
281
330
1F
100
AcDbEntity
  8
0
  6
Continuous
 62
     7
370
    25
100
AcDbPolyline
 90
        6
 70
   128
 43
0.0
 10
784.7019396434
 20
57.5475095319
 10
784.6788154042
 20
57.5430523995
 10
784.5205853964
 20
57.5805969172
 10
784.3400620826
 20
57.7283826458
 10
784.1441828727
 20
57.9807302625
 10
783.9404752949
 20
58.3279421901
  0
ARC
  5
282
330
1F
100
AcDbEntity
  8
0
  6
Continuous
 62
     7
370
    25
100
AcDbCircle
 10
-528.6104359823
 20
77.1556632168
 30
0.0
 40
10.59459217681525
100
AcDbArc
 50
149.8784751898
 51
179.6512481448
  0
ARC
  5
283
330
1F
100
AcDbEntity
  8
0
  6
Continuous
 62
     7
370
    25
100
AcDbCircle
 10
787.4909814654
 20
75.9084678124
 30
0.0
 40
10.5326586110179
100
AcDbArc
 50
0.2863003611
 51
29.0650530815
  0
LWPOLYLINE
  5
284
330
1F
100
AcDbEntity
  8
0
  6
Continuous
 62
     7
370
    25
100
AcDbPolyline
 90
        6
 70
   128
 43
0.0
 10
125.8700441826
 20
-0.1431820143
 10
125.8727179309
 20
-0.5162661891
 10
125.8752889285
 20
-0.7934917971
 10
125.8776583735
 20
-0.9642052137
 10
125.8797352093
 20
-1.021846018
 10
125.8797370908
 20
-1.0218459584
  0
ARC
  5
285
330
1F
100
AcDbEntity
  8
0
  6
Continuous
 62
     7
370
    25
100
AcDbCircle
 10
166.2047752794
 20
-24.8005961508
 30
0.0
 40
17.12501551288717
100
AcDbArc
 50
180.0125215585
 51
182.9533706565
  0
ARC
  5
286
330
1F
100
AcDbEntity
  8
0
  6
Continuous
 62
     7
370
    25
100
AcDbCircle
 10
68.8974545455
 20
151.1887272727
 30
0.0
 40
27.0
100
AcDbArc
 50
90.0
 51
167.5335633598
  0
ARC
  5
287
330
1F
100
AcDbEntity
  8
0
  6
Continuous
 62
     7
370
    25
100
AcDbCircle
 10
628.8974545455
 20
151.1887272727
 30
0.0
 40
27.0
100
AcDbArc
 50
12.4664366402
 51
90.0
  0
LWPOLYLINE
  5
288
330
1F
100
AcDbEntity
  8
0
  6
Continuous
 62
     7
370
    25
100
AcDbPolyline
 90
       13
 70
   128
 43
0.0
 10
703.8974545455
 20
102.3983593708
 10
706.5631936529
 20
102.2721759982
 10
709.1813625829
 20
101.8958776256
 10
711.7052400487
 20
101.2761793065
 10
714.0897873973
 20
100.4241395719
 10
716.2924523247
 20
99.3549630911
 10
718.273928223
 20
98.0877293439
 10
719.998855608
 20
96.6450521463
 10
721.4364531096
 20
95.0526761073
 10
722.5610667663
 20
93.3390172148
 10
723.3526278208
 20
91.5346557525
 10
723.7970108472
 20
89.6717905934
 10
723.897454175
 20
88.2535016543
  0
LWPOLYLINE
  5
289
330
1F
100
AcDbEntity
  8
0
  6
Continuous
 62
     7
370
    25
100
AcDbPolyline
 90
       13
 70
   128
 43
0.0
 10
683.8974610045
 20
88.2675895323
 10
683.9978982437
 20
89.6717905934
 10
684.4422812702
 20
91.5346557525
 10
685.2338423246
 20
93.3390172148
 10
686.3584559813
 20
95.0526761073
 10
687.7960534829
 20
96.6450521463
 10
689.5209808679
 20
98.0877293439
 10
691.5024567663
 20
99.3549630911
 10
693.7051216936
 20
100.4241395719
 10
696.0896690422
 20
101.2761793065
 10
698.613546508
 20
101.8958776256
 10
701.231715438
 20
102.2721759982
 10
703.8974545455
 20
102.3983593708
  0
LWPOLYLINE
  5
28A
330
1F
100
AcDbEntity
  8
0
  6
Continuous
 62
     7
370
    25
100
AcDbPolyline
 90
       13
 70
   128
 43
0.0
 10
-446.1025454545
 20
102.3983593708
 10
-443.4368063471
 20
102.2721759982
 10
-440.8186374171
 20
101.8958776256
 10
-438.2947599513
 20
101.2761793065
 10
-435.9102126027
 20
100.4241395719
 10
-433.7075476753
 20
99.3549630911
 10
-431.726071777
 20
98.0877293439
 10
-430.001144392
 20
96.6450521463
 10
-428.5635468904
 20
95.0526761073
 10
-427.4389332337
 20
93.3390172148
 10
-426.6473721792
 20
91.5346557525
 10
-426.2029891528
 20
89.6717905934
 10
-426.102545825
 20
88.2535016543
  0
LWPOLYLINE
  5
28B
330
1F
100
AcDbEntity
  8
0
  6
Continuous
 62
     7
370
    25
100
AcDbPolyline
 90
       13
 70
   128
 43
0.0
 10
-466.1025389955
 20
88.2675895323
 10
-466.0021017563
 20
89.6717905934
 10
-465.5577187298
 20
91.5346557525
 10
-464.7661576754
 20
93.3390172148
 10
-463.6415440187
 20
95.0526761073
 10
-462.2039465171
 20
96.6450521463
 10
-460.4790191321
 20
98.0877293439
 10
-458.4975432337
 20
99.3549630911
 10
-456.2948783064
 20
100.4241395719
 10
-453.9103309578
 20
101.2761793065
 10
-451.386453492
 20
101.8958776256
 10
-448.768284562
 20
102.2721759982
 10
-446.1025454545
 20
102.3983593708
  0
LWPOLYLINE
  5
28C
330
1F
100
AcDbEntity
  8
0
  6
Continuous
 62
     7
370
    25
100
AcDbPolyline
 90
       15
 70
   128
 43
0.0
 10
703.8974545455
 20
86.6289004086
 10
706.0975163992
 20
86.4999932
 10
708.2375663006
 20
86.1167878267
 10
710.2592292672
 20
85.4897371324
 10
712.1073596033
 20
84.6359454255
 10
713.7315451311
 20
83.578701918
 10
715.0874823032
 20
82.3468454567
 10
716.1381846884
 20
80.9739778748
 10
716.8549918644
 20
79.4975474211
 10
717.2183512002
 20
77.9578272696
 10
717.2183512002
 20
76.3968169722
 10
716.8549918644
 20
74.8570968207
 10
716.1381846884
 20
73.3806663669
 10
715.0874823032
 20
72.007798785
 10
714.3190276608
 20
71.2588984261
  0
LWPOLYLINE
  5
28D
330
1F
100
AcDbEntity
  8
0
  6
Continuous
 62
     7
370
    25
100
AcDbPolyline
 90
       14
 70
   128
 43
0.0
 10
692.1706726247
 20
72.6415063154
 10
691.6567244025
 20
73.3806663669
 10
690.9399172265
 20
74.8570968207
 10
690.5765578908
 20
76.3968169722
 10
690.5765578908
 20
77.9578272696
 10
690.9399172265
 20
79.4975474211
 10
691.6567244025
 20
80.9739778748
 10
692.7074267877
 20
82.3468454567
 10
694.0633639598
 20
83.578701918
 10
695.6875494876
 20
84.6359454255
 10
697.5356798237
 20
85.4897371324
 10
699.5573427903
 20
86.1167878267
 10
701.6973926918
 20
86.4999932
 10
703.8974545455
 20
86.6289004086
  0
ARC
  5
28E
330
1F
100
AcDbEntity
  8
0
  6
Continuous
 62
     7
370
    25
100
AcDbCircle
 10
704.2237755024
 20
70.371264559
 30
0.0
 40
16.87667489088289
100
AcDbArc
 50
57.0151543859
 51
91.1079184102
  0
ARC
  5
28F
330
1F
100
AcDbEntity
  8
0
  6
Continuous
 62
     7
370
    25
100
AcDbCircle
 10
703.6199905089
 20
70.199654701
 30
0.0
 40
17.04738780316519
100
AcDbArc
 50
89.0674101844
 51
122.7977083981
  0
LWPOLYLINE
  5
290
330
1F
100
AcDbEntity
  8
0
  6
Continuous
 62
     7
370
    25
100
AcDbPolyline
 90
       15
 70
   128
 43
0.0
 10
-446.1025454545
 20
86.6289004086
 10
-443.9024836008
 20
86.4999932
 10
-441.7624336994
 20
86.1167878267
 10
-439.7407707328
 20
85.4897371324
 10
-437.8926403967
 20
84.6359454255
 10
-436.2684548689
 20
83.578701918
 10
-434.9125176968
 20
82.3468454567
 10
-433.8618153116
 20
80.9739778748
 10
-433.1450081356
 20
79.4975474211
 10
-432.7816487998
 20
77.9578272696
 10
-432.7816487998
 20
76.3968169722
 10
-433.1450081356
 20
74.8570968207
 10
-433.8618153116
 20
73.3806663669
 10
-434.9125176968
 20
72.007798785
 10
-435.6809723392
 20
71.2588984261
  0
LWPOLYLINE
  5
291
330
1F
100
AcDbEntity
  8
0
  6
Continuous
 62
     7
370
    25
100
AcDbPolyline
 90
       14
 70
   128
 43
0.0
 10
-457.8293273753
 20
72.6415063154
 10
-458.3432755975
 20
73.3806663669
 10
-459.0600827735
 20
74.8570968207
 10
-459.4234421092
 20
76.3968169722
 10
-459.4234421092
 20
77.9578272696
 10
-459.0600827735
 20
79.4975474211
 10
-458.3432755975
 20
80.9739778748
 10
-457.2925732123
 20
82.3468454567
 10
-455.9366360402
 20
83.578701918
 10
-454.3124505124
 20
84.6359454255
 10
-452.4643201763
 20
85.4897371324
 10
-450.4426572097
 20
86.1167878267
 10
-448.3026073082
 20
86.4999932
 10
-446.1025454545
 20
86.6289004086
  0
ARC
  5
292
330
1F
100
AcDbEntity
  8
0
  6
Continuous
 62
     7
370
    25
100
AcDbCircle
 10
-445.7762244976
 20
70.371264559
 30
0.0
 40
16.87667489088256
100
AcDbArc
 50
57.0151543859
 51
91.1079184102
  0
ARC
  5
293
330
1F
100
AcDbEntity
  8
0
  6
Continuous
 62
     7
370
    25
100
AcDbCircle
 10
-446.3800094911
 20
70.199654701
 30
0.0
 40
17.04738780316316
100
AcDbArc
 50
89.0674101844
 51
122.7977083981
  0
ENDSEC
  0
SECTION
  2
OBJECTS
  0
DICTIONARY
  5
C
330
0
100
AcDbDictionary
281
     1
  3
ACAD_GROUP
350
D
  3
ACAD_LAYOUT
350
1A
  3
ACAD_MLINESTYLE
350
17
  3
ACAD_PLOTSETTINGS
350
19
  3
ACAD_PLOTSTYLENAME
350
E
  3
ACAD_SCALELIST
350
47
  3
DWGPROPS
350
294
  0
DICTIONARY
  5
D
102
{ACAD_REACTORS
330
C
102
}
330
C
100
AcDbDictionary
281
     1
  0
DICTIONARY
  5
1A
102
{ACAD_REACTORS
330
C
102
}
330
C
100
AcDbDictionary
281
     1
  3
Layout1
350
1E
  3
Layout2
350
26
  3
Model
350
22
  0
DICTIONARY
  5
17
102
{ACAD_REACTORS
330
C
102
}
330
C
100
AcDbDictionary
281
     1
  3
Standard
350
18
  0
DICTIONARY
  5
19
102
{ACAD_REACTORS
330
C
102
}
330
C
100
AcDbDictionary
281
     1
  0
ACDBDICTIONARYWDFLT
  5
E
102
{ACAD_REACTORS
330
C
102
}
330
C
100
AcDbDictionary
281
     1
  3
Normal
350
F
100
AcDbDictionaryWithDefault
340
F
  0
DICTIONARY
  5
47
102
{ACAD_REACTORS
330
C
102
}
330
C
100
AcDbDictionary
281
     1
  3
A0
350
48
  3
A1
350
49
  3
A2
350
4A
  3
A3
350
4B
  3
A4
350
4C
  3
A5
350
4D
  3
A6
350
4E
  3
A7
350
4F
  3
A8
350
50
  3
A9
350
51
  3
B0
350
52
  3
B1
350
53
  3
B2
350
54
  3
B3
350
55
  3
B4
350
56
  3
B5
350
57
  3
B6
350
58
  0
XRECORD
  5
294
102
{ACAD_REACTORS
330
C
102
}
330
C
100
AcDbXrecord
280
     1
  1
DWGPROPS COOKIE
  2

  3

  4

  6

  7

  8
Swing
  9

300
=
301
=
302
=
303
=
304
=
305
=
306
=
307
=
308
=
309
=
 40
0.0
 41
2459997.493975961
 42
2459997.493976424
  1

 90
        0
  0
LAYOUT
  5
1E
102
{ACAD_REACTORS
330
1A
102
}
330
1A
100
AcDbPlotSettings
  1

  2
none_device
  4

  6

 40
0.0
 41
0.0
 42
0.0
 43
0.0
 44
0.0
 45
0.0
 46
0.0
 47
0.0
 48
0.0
 49
0.0
140
0.0
141
0.0
142
1.0
143
1.0
 70
   688
 72
     1
 73
     0
 74
     5
  7

 75
    16
147
1.0
148
0.0
149
0.0
100
AcDbLayout
  1
Layout1
 70
     1
 71
     1
 10
0.0
 20
0.0
 11
420.0
 21
297.0
 12
0.0
 22
0.0
 32
0.0
 14
1.0000000000E+20
 24
1.0000000000E+20
 34
1.0000000000E+20
 15
-1.0000000000E+20
 25
-1.0000000000E+20
 35
-1.0000000000E+20
146
0.0
 13
0.0
 23
0.0
 33
0.0
 16
1.0
 26
0.0
 36
0.0
 17
0.0
 27
1.0
 37
0.0
 76
     0
330
1B
  0
LAYOUT
  5
26
102
{ACAD_REACTORS
330
1A
102
}
330
1A
100
AcDbPlotSettings
  1

  2
none_device
  4

  6

 40
0.0
 41
0.0
 42
0.0
 43
0.0
 44
0.0
 45
0.0
 46
0.0
 47
0.0
 48
0.0
 49
0.0
140
0.0
141
0.0
142
1.0
143
1.0
 70
   688
 72
     1
 73
     0
 74
     5
  7

 75
    16
147
1.0
148
0.0
149
0.0
100
AcDbLayout
  1
Layout2
 70
     1
 71
     2
 10
0.0
 20
0.0
 11
0.0
 21
0.0
 12
0.0
 22
0.0
 32
0.0
 14
0.0
 24
0.0
 34
0.0
 15
0.0
 25
0.0
 35
0.0
146
0.0
 13
0.0
 23
0.0
 33
0.0
 16
1.0
 26
0.0
 36
0.0
 17
0.0
 27
1.0
 37
0.0
 76
     0
330
23
  0
LAYOUT
  5
22
102
{ACAD_REACTORS
330
1A
102
}
330
1A
100
AcDbPlotSettings
  1

  2
none_device
  4
Letter_(8.50_x_11.00_Inches)
  6

 40
6.35
 41
6.35
 42
6.35000508
 43
6.35000508
 44
215.9
 45
279.4
 46
0.0
 47
0.0
 48
0.0
 49
0.0
140
0.0
141
0.0
142
1.0
143
1.0
 70
  1712
 72
     1
 73
     0
 74
     0
  7

 75
     0
147
1.0
148
0.0
149
0.0
100
AcDbLayout
  1
Model
 70
     1
 71
     0
 10
0.0
 20
0.0
 11
297.0
 21
210.0
 12
0.0
 22
0.0
 32
0.0
 14
0.0
 24
0.0
 34
0.0
 15
297.0
 25
210.0
 35
0.0
146
0.0
 13
0.0
 23
0.0
 33
0.0
 16
1.0
 26
0.0
 36
0.0
 17
0.0
 27
1.0
 37
0.0
 76
     0
330
1F
331
29
  0
MLINESTYLE
  5
18
102
{ACAD_REACTORS
330
17
102
}
330
17
100
AcDbMlineStyle
  2
Standard
 70
     0
  3

 62
   256
 51
90.0
 52
90.0
 71
     2
 49
0.5
 62
   256
  6
BYLAYER
 49
-0.5
 62
   256
  6
BYLAYER
  0
ACDBPLACEHOLDER
  5
F
102
{ACAD_REACTORS
330
E
102
}
330
E
  0
SCALE
  5
48
102
{ACAD_REACTORS
330
47
102
}
330
47
100
AcDbScale
 70
     0
300
1:1
140
1.0
141
1.0
290
     1
  0
SCALE
  5
49
102
{ACAD_REACTORS
330
47
102
}
330
47
100
AcDbScale
 70
     0
300
1:2
140
1.0
141
2.0
290
     0
  0
SCALE
  5
4A
102
{ACAD_REACTORS
330
47
102
}
330
47
100
AcDbScale
 70
     0
300
1:4
140
1.0
141
4.0
290
     0
  0
SCALE
  5
4B
102
{ACAD_REACTORS
330
47
102
}
330
47
100
AcDbScale
 70
     0
300
1:5
140
1.0
141
5.0
290
     0
  0
SCALE
  5
4C
102
{ACAD_REACTORS
330
47
102
}
330
47
100
AcDbScale
 70
     0
300
1:8
140
1.0
141
8.0
290
     0
  0
SCALE
  5
4D
102
{ACAD_REACTORS
330
47
102
}
330
47
100
AcDbScale
 70
     0
300
1:10
140
1.0
141
10.0
290
     0
  0
SCALE
  5
4E
102
{ACAD_REACTORS
330
47
102
}
330
47
100
AcDbScale
 70
     0
300
1:16
140
1.0
141
16.0
290
     0
  0
SCALE
  5
4F
102
{ACAD_REACTORS
330
47
102
}
330
47
100
AcDbScale
 70
     0
300
1:20
140
1.0
141
20.0
290
     0
  0
SCALE
  5
50
102
{ACAD_REACTORS
330
47
102
}
330
47
100
AcDbScale
 70
     0
300
1:30
140
1.0
141
30.0
290
     0
  0
SCALE
  5
51
102
{ACAD_REACTORS
330
47
102
}
330
47
100
AcDbScale
 70
     0
300
1:40
140
1.0
141
40.0
290
     0
  0
SCALE
  5
52
102
{ACAD_REACTORS
330
47
102
}
330
47
100
AcDbScale
 70
     0
300
1:50
140
1.0
141
50.0
290
     0
  0
SCALE
  5
53
102
{ACAD_REACTORS
330
47
102
}
330
47
100
AcDbScale
 70
     0
300
1:100
140
1.0
141
100.0
290
     0
  0
SCALE
  5
54
102
{ACAD_REACTORS
330
47
102
}
330
47
100
AcDbScale
 70
     0
300
2:1
140
2.0
141
1.0
290
     0
  0
SCALE
  5
55
102
{ACAD_REACTORS
330
47
102
}
330
47
100
AcDbScale
 70
     0
300
4:1
140
4.0
141
1.0
290
     0
  0
SCALE
  5
56
102
{ACAD_REACTORS
330
47
102
}
330
47
100
AcDbScale
 70
     0
300
8:1
140
8.0
141
1.0
290
     0
  0
SCALE
  5
57
102
{ACAD_REACTORS
330
47
102
}
330
47
100
AcDbScale
 70
     0
300
10:1
140
10.0
141
1.0
290
     0
  0
SCALE
  5
58
102
{ACAD_REACTORS
330
47
102
}
330
47
100
AcDbScale
 70
     0
300
100:1
140
100.0
141
1.0
290
     0
  0
ENDSEC
  0
EOF
