  0
SECTION
  2
HEADER
  9
$ACADVER
  1
AC1015
  9
$ACADMAINTVER
 70
     6
  9
$DWGCODEPAGE
  3
ANSI_1250
  9
$INSBASE
 10
0.0
 20
0.0
 30
0.0
  9
$EXTMIN
 10
0.0
 20
0.0
 30
0.0
  9
$EXTMAX
 10
297.0
 20
210.0
 30
0.0
  9
$LIMMIN
 10
0.0
 20
0.0
  9
$LIMMAX
 10
297.0
 20
210.0
  9
$ORTHOMODE
 70
     0
  9
$REGENMODE
 70
     1
  9
$FILLMODE
 70
     1
  9
$QTEXTMODE
 70
     0
  9
$MIRRTEXT
 70
     1
  9
$LTSCALE
 40
1.0
  9
$ATTMODE
 70
     1
  9
$TEXTSIZE
 40
3.5277777778
  9
$TRACEWID
 40
1.0
  9
$TEXTSTYLE
  7
Standard
  9
$CLAYER
  8
0
  9
$CELTYPE
  6
ByLayer
  9
$CECOLOR
 62
   256
  9
$CELTSCALE
 40
1.0
  9
$DISPSILH
 70
     0
  9
$DIMSCALE
 40
1.0
  9
$DIMASZ
 40
2.0
  9
$DIMEXO
 40
1.0
  9
$DIMDLI
 40
3.75
  9
$DIMRND
 40
0.0
  9
$DIMDLE
 40
0.0
  9
$DIMEXE
 40
1.0
  9
$DIMTP
 40
0.0
  9
$DIMTM
 40
0.0
  9
$DIMTXT
 40
3.5277777778
  9
$DIMCEN
 40
2.5
  9
$DIMTSZ
 40
0.0
  9
$DIMTOL
 70
     0
  9
$DIMLIM
 70
     0
  9
$DIMTIH
 70
     1
  9
$DIMTOH
 70
     1
  9
$DIMSE1
 70
     0
  9
$DIMSE2
 70
     0
  9
$DIMTAD
 70
     1
  9
$DIMZIN
 70
     1
  9
$DIMBLK
  1

  9
$DIMASO
 70
     1
  9
$DIMSHO
 70
     1
  9
$DIMPOST
  1

  9
$DIMAPOST
  1

  9
$DIMALT
 70
     0
  9
$DIMALTD
 70
     3
  9
$DIMALTF
 40
0.0393700787
  9
$DIMLFAC
 40
1.0
  9
$DIMTOFL
 70
     1
  9
$DIMTVP
 40
0.0
  9
$DIMTIX
 70
     0
  9
$DIMSOXD
 70
     0
  9
$DIMSAH
 70
     0
  9
$DIMBLK1
  1

  9
$DIMBLK2
  1

  9
$DIMSTYLE
  2
ISO-25
  9
$DIMCLRD
 70
     0
  9
$DIMCLRE
 70
     0
  9
$DIMCLRT
 70
     0
  9
$DIMTFAC
 40
1.0
  9
$DIMGAP
 40
1.524
  9
$DIMJUST
 70
     0
  9
$DIMSD1
 70
     0
  9
$DIMSD2
 70
     0
  9
$DIMTOLJ
 70
     0
  9
$DIMTZIN
 70
     1
  9
$DIMALTZ
 70
     0
  9
$DIMALTTZ
 70
     0
  9
$DIMUPT
 70
     0
  9
$DIMDEC
 70
     0
  9
$DIMTDEC
 70
     0
  9
$DIMALTU
 70
     2
  9
$DIMALTTD
 70
     3
  9
$DIMTXSTY
  7
Standard
  9
$DIMAUNIT
 70
     0
  9
$DIMADEC
 70
     1
  9
$DIMALTRND
 40
0.0
  9
$DIMAZIN
 70
     0
  9
$DIMDSEP
 70
    44
  9
$DIMATFIT
 70
     3
  9
$DIMFRAC
 70
     0
  9
$DIMLDRBLK
  1

  9
$DIMLUNIT
 70
     2
  9
$DIMLWD
 70
    -2
  9
$DIMLWE
 70
    -2
  9
$DIMTMOVE
 70
     0
  9
$LUNITS
 70
     2
  9
$LUPREC
 70
     1
  9
$SKETCHINC
 40
1.0
  9
$FILLETRAD
 40
0.0
  9
$AUNITS
 70
     0
  9
$AUPREC
 70
     1
  9
$MENU
  1
.
  9
$ELEVATION
 40
0.0
  9
$PELEVATION
 40
0.0
  9
$THICKNESS
 40
0.0
  9
$LIMCHECK
 70
     0
  9
$CHAMFERA
 40
0.0
  9
$CHAMFERB
 40
0.0
  9
$CHAMFERC
 40
0.0
  9
$CHAMFERD
 40
0.0
  9
$SKPOLY
 70
     0
  9
$TDCREATE
 40
2460042.400794016
  9
$TDUCREATE
 40
2460042.317460683
  9
$TDUPDATE
 40
2460042.40079434
  9
$TDUUPDATE
 40
2460042.317461007
  9
$TDINDWG
 40
0.0000000116
  9
$TDUSRTIMER
 40
0.0000000116
  9
$USRTIMER
 70
     1
  9
$ANGBASE
 50
0.0
  9
$ANGDIR
 70
     0
  9
$PDMODE
 70
     0
  9
$PDSIZE
 40
-1.0
  9
$PLINEWID
 40
0.0
  9
$SPLFRAME
 70
     0
  9
$SPLINETYPE
 70
     6
  9
$SPLINESEGS
 70
     8
  9
$HANDSEED
  5
1D4
  9
$SURFTAB1
 70
     6
  9
$SURFTAB2
 70
     6
  9
$SURFTYPE
 70
     6
  9
$SURFU
 70
     6
  9
$SURFV
 70
     6
  9
$UCSBASE
  2

  9
$UCSNAME
  2

  9
$UCSORG
 10
0.0
 20
0.0
 30
0.0
  9
$UCSXDIR
 10
1.0
 20
0.0
 30
0.0
  9
$UCSYDIR
 10
0.0
 20
1.0
 30
0.0
  9
$UCSORTHOREF
  2

  9
$UCSORTHOVIEW
 70
     0
  9
$UCSORGTOP
 10
0.0
 20
0.0
 30
0.0
  9
$UCSORGBOTTOM
 10
0.0
 20
0.0
 30
0.0
  9
$UCSORGLEFT
 10
0.0
 20
0.0
 30
0.0
  9
$UCSORGRIGHT
 10
0.0
 20
0.0
 30
0.0
  9
$UCSORGFRONT
 10
0.0
 20
0.0
 30
0.0
  9
$UCSORGBACK
 10
0.0
 20
0.0
 30
0.0
  9
$PUCSBASE
  2

  9
$PUCSNAME
  2

  9
$PUCSORG
 10
0.0
 20
0.0
 30
0.0
  9
$PUCSXDIR
 10
1.0
 20
0.0
 30
0.0
  9
$PUCSYDIR
 10
0.0
 20
1.0
 30
0.0
  9
$PUCSORTHOREF
  2

  9
$PUCSORTHOVIEW
 70
     0
  9
$PUCSORGTOP
 10
0.0
 20
0.0
 30
0.0
  9
$PUCSORGBOTTOM
 10
0.0
 20
0.0
 30
0.0
  9
$PUCSORGLEFT
 10
0.0
 20
0.0
 30
0.0
  9
$PUCSORGRIGHT
 10
0.0
 20
0.0
 30
0.0
  9
$PUCSORGFRONT
 10
0.0
 20
0.0
 30
0.0
  9
$PUCSORGBACK
 10
0.0
 20
0.0
 30
0.0
  9
$USERI1
 70
     0
  9
$USERI2
 70
     0
  9
$USERI3
 70
     0
  9
$USERI4
 70
     0
  9
$USERI5
 70
     0
  9
$USERR1
 40
0.0
  9
$USERR2
 40
0.0
  9
$USERR3
 40
0.0
  9
$USERR4
 40
0.0
  9
$USERR5
 40
0.0
  9
$WORLDVIEW
 70
     1
  9
$SHADEDGE
 70
     3
  9
$SHADEDIF
 70
    70
  9
$TILEMODE
 70
     1
  9
$MAXACTVP
 70
    64
  9
$PINSBASE
 10
0.0
 20
0.0
 30
0.0
  9
$PLIMCHECK
 70
     0
  9
$PEXTMIN
 10
1.0000000000E+20
 20
1.0000000000E+20
 30
1.0000000000E+20
  9
$PEXTMAX
 10
-1.0000000000E+20
 20
-1.0000000000E+20
 30
-1.0000000000E+20
  9
$PLIMMIN
 10
0.0
 20
0.0
  9
$PLIMMAX
 10
420.0
 20
297.0
  9
$UNITMODE
 70
     0
  9
$VISRETAIN
 70
     1
  9
$PLINEGEN
 70
     0
  9
$PSLTSCALE
 70
     1
  9
$TREEDEPTH
 70
  3020
  9
$CMLSTYLE
  2
Standard
  9
$CMLJUST
 70
     0
  9
$CMLSCALE
 40
20.0
  9
$PROXYGRAPHICS
 70
     1
  9
$MEASUREMENT
 70
     1
  9
$CELWEIGHT
370
    -1
  9
$ENDCAPS
280
     0
  9
$JOINSTYLE
280
     0
  9
$LWDISPLAY
290
     1
  9
$INSUNITS
 70
     4
  9
$HYPERLINKBASE
  1

  9
$STYLESHEET
  1

  9
$XEDIT
290
     1
  9
$CEPSNTYPE
380
     0
  9
$PSTYLEMODE
290
     1
  9
$FINGERPRINTGUID
  2
{26361337-dfd0-4215-b2ca-addfb39d30fe}
  9
$VERSIONGUID
  2
{FAEB1C32-E019-11D5-929B-00C0DF256EC4}
  9
$EXTNAMES
290
     1
  9
$PSVPSCALE
 40
0.0
  9
$OLESTARTUP
290
     0
  0
ENDSEC
  0
SECTION
  2
CLASSES
  0
CLASS
  1
ACDBDICTIONARYWDFLT
  2
AcDbDictionaryWithDefault
  3
ObjectDBX Classes
 90
        0
280
     0
281
     0
  0
CLASS
  1
VISUALSTYLE
  2
AcDbVisualStyle
  3
ObjectDBX Classes
 90
     4095
280
     0
281
     0
  0
CLASS
  1
MATERIAL
  2
AcDbMaterial
  3
ObjectDBX Classes
 90
     1153
280
     0
281
     0
  0
CLASS
  1
SCALE
  2
AcDbScale
  3
ObjectDBX Classes
 90
     1153
280
     0
281
     0
  0
CLASS
  1
TABLESTYLE
  2
AcDbTableStyle
  3
ObjectDBX Classes
 90
     4095
280
     0
281
     0
  0
CLASS
  1
MLEADERSTYLE
  2
AcDbMLeaderStyle
  3
ACDB_MLEADERSTYLE_CLASS
 90
     4095
280
     0
281
     0
  0
CLASS
  1
SUN
  2
AcDbSun
  3
SCENEOE
 90
     1153
280
     0
281
     0
  0
CLASS
  1
ACDBPLACEHOLDER
  2
AcDbPlaceHolder
  3
ObjectDBX Classes
 90
        0
280
     0
281
     0
  0
CLASS
  1
LAYOUT
  2
AcDbLayout
  3
ObjectDBX Classes
 90
        0
280
     0
281
     0
  0
ENDSEC
  0
SECTION
  2
TABLES
  0
TABLE
  2
VPORT
  5
8
330
0
100
AcDbSymbolTable
 70
     1
  0
VPORT
  5
29
330
8
100
AcDbSymbolTableRecord
100
AcDbViewportTableRecord
  2
*Active
 70
     0
 10
0.0
 20
0.0
 11
1.0
 21
1.0
 12
148.5
 22
105.0
 13
0.0
 23
0.0
 14
10.0
 24
10.0
 15
10.0
 25
10.0
 16
0.0
 26
0.0
 36
1.0
 17
0.0
 27
0.0
 37
0.0
 40
210.0
 41
1.4142857143
 42
50.0
 43
0.0
 44
0.0
 50
0.0
 51
0.0
 71
     0
 72
  2000
 73
     1
 74
     3
 75
     0
 76
     0
 77
     0
 78
     0
281
     0
 65
     1
110
0.0
120
0.0
130
0.0
111
1.0
121
0.0
131
0.0
112
0.0
122
1.0
132
0.0
 79
     0
146
0.0
  0
ENDTAB
  0
TABLE
  2
LTYPE
  5
5
330
0
100
AcDbSymbolTable
 70
     6
  0
LTYPE
  5
14
330
5
100
AcDbSymbolTableRecord
100
AcDbLinetypeTableRecord
  2
ByBlock
 70
     0
  3

 72
    65
 73
     0
 40
0.0
  0
LTYPE
  5
15
330
5
100
AcDbSymbolTableRecord
100
AcDbLinetypeTableRecord
  2
ByLayer
 70
     0
  3

 72
    65
 73
     0
 40
0.0
  0
LTYPE
  5
16
330
5
100
AcDbSymbolTableRecord
100
AcDbLinetypeTableRecord
  2
Continuous
 70
     0
  3
Solid line
 72
    65
 73
     0
 40
0.0
  0
LTYPE
  5
5E
330
5
100
AcDbSymbolTableRecord
100
AcDbLinetypeTableRecord
  2
HIDDEN
 70
     0
  3
Hidden __ __ __ __ __ __ __ __ __ __ __ __ __ __
 72
    65
 73
     2
 40
1.905
 49
1.27
 74
     0
 49
-0.635
 74
     0
  0
LTYPE
  5
5F
330
5
100
AcDbSymbolTableRecord
100
AcDbLinetypeTableRecord
  2
PHANTOM
 70
     0
  3
Phantom ______  __  __  ______  __  __  ______
 72
    65
 73
     6
 40
12.7
 49
6.35
 74
     0
 49
-1.27
 74
     0
 49
1.27
 74
     0
 49
-1.27
 74
     0
 49
1.27
 74
     0
 49
-1.27
 74
     0
  0
LTYPE
  5
60
330
5
100
AcDbSymbolTableRecord
100
AcDbLinetypeTableRecord
  2
CENTER
 70
     0
  3
Center ____ _ ____ _ ____ _ ____ _ ____ _ ____
 72
    65
 73
     4
 40
10.16
 49
6.35
 74
     0
 49
-1.27
 74
     0
 49
1.27
 74
     0
 49
-1.27
 74
     0
  0
LTYPE
  5
61
330
5
100
AcDbSymbolTableRecord
100
AcDbLinetypeTableRecord
  2
CENTERX2
 70
     0
  3
Center (2x) ________  __  ________  __  _____
 72
    65
 73
     4
 40
20.32
 49
12.7
 74
     0
 49
-2.54
 74
     0
 49
2.54
 74
     0
 49
-2.54
 74
     0
  0
LTYPE
  5
62
330
5
100
AcDbSymbolTableRecord
100
AcDbLinetypeTableRecord
  2
DOT2
 70
     0
  3
Dot (.5x) ........................................
 72
    65
 73
     2
 40
0.635
 49
0.0
 74
     0
 49
-0.635
 74
     0
  0
ENDTAB
  0
TABLE
  2
LAYER
  5
2
330
0
100
AcDbSymbolTable
 70
     4
  0
LAYER
  5
10
330
2
100
AcDbSymbolTableRecord
100
AcDbLayerTableRecord
  2
0
 70
     0
 62
     7
  6
Continuous
370
    -3
390
F
  0
LAYER
  5
63
330
2
100
AcDbSymbolTableRecord
100
AcDbLayerTableRecord
  2
FRAME_&_TABLE
 70
     0
 62
     8
  6
Continuous
370
    50
390
F
  0
LAYER
  5
64
330
2
100
AcDbSymbolTableRecord
100
AcDbLayerTableRecord
  2
DIMENSIONS
 70
     0
 62
     7
  6
Continuous
370
    -3
390
F
  0
LAYER
  5
65
330
2
100
AcDbSymbolTableRecord
100
AcDbLayerTableRecord
  2
FORMAT
 70
     0
 62
     7
  6
Continuous
370
    -3
390
F
  0
ENDTAB
  0
TABLE
  2
STYLE
  5
3
330
0
100
AcDbSymbolTable
 70
     1
  0
STYLE
  5
11
330
3
100
AcDbSymbolTableRecord
100
AcDbTextStyleTableRecord
  2
Standard
 70
     0
 40
0.0
 41
1.0
 50
0.0
 71
     0
 42
3.5277777778
  3
txt
  4

  0
ENDTAB
  0
TABLE
  2
VIEW
  5
6
330
0
100
AcDbSymbolTable
 70
     0
  0
ENDTAB
  0
TABLE
  2
UCS
  5
7
330
0
100
AcDbSymbolTable
 70
     0
  0
ENDTAB
  0
TABLE
  2
APPID
  5
9
330
0
100
AcDbSymbolTable
 70
     1
  0
APPID
  5
12
330
9
100
AcDbSymbolTableRecord
100
AcDbRegAppTableRecord
  2
ACAD
 70
     0
  0
ENDTAB
  0
TABLE
  2
DIMSTYLE
  5
A
330
0
100
AcDbSymbolTable
 70
     1
100
AcDbDimStyleTable
  0
DIMSTYLE
105
27
330
A
100
AcDbSymbolTableRecord
100
AcDbDimStyleTableRecord
  2
ISO-25
 70
     0
 41
2.5
 42
0.625
 43
3.75
 44
1.25
 73
     0
 74
     0
 77
     1
 78
     8
140
2.5
141
2.5
143
0.0393700787
147
0.625
171
     3
172
     1
178
     0
271
     2
272
     2
274
     3
278
    44
283
     0
284
     8
340
11
  0
ENDTAB
  0
TABLE
  2
BLOCK_RECORD
  5
1
330
0
100
AcDbSymbolTable
 70
     1
  0
BLOCK_RECORD
  5
1F
330
1
100
AcDbSymbolTableRecord
100
AcDbBlockTableRecord
  2
*Model_Space
340
22
  0
BLOCK_RECORD
  5
1B
330
1
100
AcDbSymbolTableRecord
100
AcDbBlockTableRecord
  2
*Paper_Space
340
1E
  0
BLOCK_RECORD
  5
23
330
1
100
AcDbSymbolTableRecord
100
AcDbBlockTableRecord
  2
*Paper_Space0
340
26
  0
ENDTAB
  0
ENDSEC
  0
SECTION
  2
BLOCKS
  0
BLOCK
  5
20
330
1F
100
AcDbEntity
  8
0
100
AcDbBlockBegin
  2
*Model_Space
 70
     0
 10
0.0
 20
0.0
 30
0.0
  3
*Model_Space
  1

  0
ENDBLK
  5
21
330
1F
100
AcDbEntity
  8
0
100
AcDbBlockEnd
  0
BLOCK
  5
1C
330
1B
100
AcDbEntity
 67
     1
  8
0
100
AcDbBlockBegin
  2
*Paper_Space
 70
     0
 10
0.0
 20
0.0
 30
0.0
  3
*Paper_Space
  1

  0
ENDBLK
  5
1D
330
1B
100
AcDbEntity
 67
     1
  8
0
100
AcDbBlockEnd
  0
BLOCK
  5
24
330
23
100
AcDbEntity
  8
0
100
AcDbBlockBegin
  2
*Paper_Space0
 70
     0
 10
0.0
 20
0.0
 30
0.0
  3
*Paper_Space0
  1

  0
ENDBLK
  5
25
330
23
100
AcDbEntity
  8
0
100
AcDbBlockEnd
  0
ENDSEC
  0
SECTION
  2
ENTITIES
  0
LINE
  5
66
330
1F
100
AcDbEntity
  8
0
  6
Continuous
 62
     7
370
    25
100
AcDbLine
 10
174.4087272727
 20
-2.2738181818
 30
0.0
 11
174.4087272727
 21
67.7261818182
 31
0.0
  0
LINE
  5
67
330
1F
100
AcDbEntity
  8
0
  6
Continuous
 62
     7
370
    25
100
AcDbLine
 10
174.4087272727
 20
147.7261818182
 30
0.0
 11
174.4087272727
 21
217.7261818182
 31
0.0
  0
LINE
  5
68
330
1F
100
AcDbEntity
  8
0
  6
Continuous
 62
     7
370
    25
100
AcDbLine
 10
124.4087272727
 20
217.7261818182
 30
0.0
 11
124.4087272727
 21
147.7261818182
 31
0.0
  0
LINE
  5
69
330
1F
100
AcDbEntity
  8
0
  6
Continuous
 62
     7
370
    25
100
AcDbLine
 10
124.4087272727
 20
67.7261818182
 30
0.0
 11
124.4087272727
 21
-2.2738181818
 31
0.0
  0
LINE
  5
6A
330
1F
100
AcDbEntity
  8
0
  6
Continuous
 62
     7
370
    25
100
AcDbLine
 10
1040.9587272727
 20
57.7261818182
 30
0.0
 11
1040.9587272727
 21
56.7172234858
 31
0.0
  0
LINE
  5
6B
330
1F
100
AcDbEntity
  8
0
  6
Continuous
 62
     7
370
    25
100
AcDbLine
 10
1040.9587272727
 20
28.7434437742
 30
0.0
 11
1040.9587272727
 21
28.1579858391
 31
0.0
  0
LINE
  5
6C
330
1F
100
AcDbEntity
  8
0
  6
Continuous
 62
     7
370
    25
100
AcDbLine
 10
1067.8587272727
 20
28.1579858391
 30
0.0
 11
1067.8587272727
 21
28.7436902378
 31
0.0
  0
LINE
  5
6D
330
1F
100
AcDbEntity
  8
0
  6
Continuous
 62
     7
370
    25
100
AcDbLine
 10
1067.8587272727
 20
56.7254035595
 30
0.0
 11
1067.8587272727
 21
57.7261818182
 31
0.0
  0
LINE
  5
6E
330
1F
100
AcDbEntity
  8
0
  6
Continuous
 62
     7
370
    25
100
AcDbLine
 10
-769.0412727273
 20
187.1922776724
 30
0.0
 11
-769.0412727273
 21
186.7086733985
 31
0.0
  0
LINE
  5
6F
330
1F
100
AcDbEntity
  8
0
  6
Continuous
 62
     7
370
    25
100
AcDbLine
 10
-769.0412727273
 20
158.7269600769
 30
0.0
 11
-769.0412727273
 21
157.7261818182
 31
0.0
  0
LINE
  5
70
330
1F
100
AcDbEntity
  8
0
  6
Continuous
 62
     7
370
    25
100
AcDbLine
 10
-742.1412727273
 20
157.7261818182
 30
0.0
 11
-742.1412727273
 21
158.7351401505
 31
0.0
  0
LINE
  5
71
330
1F
100
AcDbEntity
  8
0
  6
Continuous
 62
     7
370
    25
100
AcDbLine
 10
-742.1412727273
 20
186.7089198622
 30
0.0
 11
-742.1412727273
 21
187.1922776724
 31
0.0
  0
LINE
  5
72
330
1F
100
AcDbEntity
  8
0
  6
Continuous
 62
     7
370
    25
100
AcDbLine
 10
1067.8587272727
 20
157.7261818182
 30
0.0
 11
1067.8587272727
 21
158.7351401505
 31
0.0
  0
LINE
  5
73
330
1F
100
AcDbEntity
  8
0
  6
Continuous
 62
     7
370
    25
100
AcDbLine
 10
1067.8587272727
 20
186.7089198622
 30
0.0
 11
1067.8587272727
 21
187.1922760938
 31
0.0
  0
LINE
  5
74
330
1F
100
AcDbEntity
  8
0
  6
Continuous
 62
     7
370
    25
100
AcDbLine
 10
1040.9587272727
 20
187.1922760938
 30
0.0
 11
1040.9587272727
 21
186.7086733985
 31
0.0
  0
LINE
  5
75
330
1F
100
AcDbEntity
  8
0
  6
Continuous
 62
     7
370
    25
100
AcDbLine
 10
1040.9587272727
 20
158.7269600769
 30
0.0
 11
1040.9587272727
 21
157.7261818182
 31
0.0
  0
LINE
  5
76
330
1F
100
AcDbEntity
  8
0
  6
Continuous
 62
     7
370
    25
100
AcDbLine
 10
-769.0412727273
 20
57.7261818182
 30
0.0
 11
-769.0412727273
 21
56.7172234858
 31
0.0
  0
LINE
  5
77
330
1F
100
AcDbEntity
  8
0
  6
Continuous
 62
     7
370
    25
100
AcDbLine
 10
-769.0412727273
 20
28.7434437742
 30
0.0
 11
-769.0412727273
 21
28.1579858391
 31
0.0
  0
LINE
  5
78
330
1F
100
AcDbEntity
  8
0
  6
Continuous
 62
     7
370
    25
100
AcDbLine
 10
-742.1412727273
 20
28.1579858391
 30
0.0
 11
-742.1412727273
 21
28.7436902378
 31
0.0
  0
LINE
  5
79
330
1F
100
AcDbEntity
  8
0
  6
Continuous
 62
     7
370
    25
100
AcDbLine
 10
-742.1412727273
 20
56.7254035595
 30
0.0
 11
-742.1412727273
 21
57.7261818182
 31
0.0
  0
LINE
  5
7A
330
1F
100
AcDbEntity
  8
0
  6
Continuous
 62
     7
370
    25
100
AcDbLine
 10
1040.9587272727
 20
186.7086733985
 30
0.0
 11
1040.9587272727
 21
158.7269600769
 31
0.0
  0
LINE
  5
7B
330
1F
100
AcDbEntity
  8
0
  6
Continuous
 62
     7
370
    25
100
AcDbLine
 10
1067.8587272727
 20
158.7351401505
 30
0.0
 11
1067.8587272727
 21
186.7089198622
 31
0.0
  0
LWPOLYLINE
  5
7C
330
1F
100
AcDbEntity
  8
0
  6
Continuous
 62
     7
370
    25
100
AcDbPolyline
 90
        3
 70
   128
 43
0.0
 10
1066.8587272693
 20
157.7261818182
 10
1067.3587166692
 20
158.2261597413
 10
1067.8586819183
 20
158.7260921643
  0
LWPOLYLINE
  5
7D
330
1F
100
AcDbEntity
  8
0
  6
Continuous
 62
     7
370
    25
100
AcDbPolyline
 90
        3
 70
   128
 43
0.0
 10
1040.9587734748
 20
158.7260910122
 10
1041.4587385008
 20
158.2261589321
 10
1041.9587272166
 20
157.7261818182
  0
LWPOLYLINE
  5
7E
330
1F
100
AcDbEntity
  8
0
  6
Continuous
 62
     7
370
    25
100
AcDbPolyline
 90
        3
 70
   128
 43
0.0
 10
1041.9587272762
 20
57.7261818182
 10
1041.4587378763
 20
57.226203895
 10
1040.9587726271
 20
56.726271472
  0
LWPOLYLINE
  5
7F
330
1F
100
AcDbEntity
  8
0
  6
Continuous
 62
     7
370
    25
100
AcDbPolyline
 90
        3
 70
   128
 43
0.0
 10
1067.8586810707
 20
56.7262726241
 10
1067.3587160447
 20
57.2262047042
 10
1066.8587273289
 20
57.7261818182
  0
LINE
  5
80
330
1F
100
AcDbEntity
  8
0
  6
Continuous
 62
     7
370
    25
100
AcDbLine
 10
1067.8587272727
 20
28.7436902378
 30
0.0
 11
1067.8587272727
 21
56.7254035595
 31
0.0
  0
LINE
  5
81
330
1F
100
AcDbEntity
  8
0
  6
Continuous
 62
     7
370
    25
100
AcDbLine
 10
1040.9587272727
 20
56.7172234858
 30
0.0
 11
1040.9587272727
 21
28.7434437742
 31
0.0
  0
LWPOLYLINE
  5
82
330
1F
100
AcDbEntity
  8
0
  6
Continuous
 62
     7
370
    25
100
AcDbPolyline
 90
        3
 70
   128
 43
0.0
 10
-768.0412727238
 20
57.7261818182
 10
-768.5412621237
 20
57.226203895
 10
-769.0412273729
 20
56.726271472
  0
LWPOLYLINE
  5
83
330
1F
100
AcDbEntity
  8
0
  6
Continuous
 62
     7
370
    25
100
AcDbPolyline
 90
        3
 70
   128
 43
0.0
 10
-742.1413189293
 20
56.7262726241
 10
-742.6412839553
 20
57.2262047042
 10
-743.1412726711
 20
57.7261818182
  0
LINE
  5
84
330
1F
100
AcDbEntity
  8
0
  6
Continuous
 62
     7
370
    25
100
AcDbLine
 10
-742.1412727273
 20
28.7436902378
 30
0.0
 11
-742.1412727273
 21
56.7254035595
 31
0.0
  0
LINE
  5
85
330
1F
100
AcDbEntity
  8
0
  6
Continuous
 62
     7
370
    25
100
AcDbLine
 10
-769.0412727273
 20
56.7172234858
 30
0.0
 11
-769.0412727273
 21
28.7434437742
 31
0.0
  0
LINE
  5
86
330
1F
100
AcDbEntity
  8
0
  6
Continuous
 62
     7
370
    25
100
AcDbLine
 10
-769.0412727273
 20
186.7086733985
 30
0.0
 11
-769.0412727273
 21
158.7269600769
 31
0.0
  0
LINE
  5
87
330
1F
100
AcDbEntity
  8
0
  6
Continuous
 62
     7
370
    25
100
AcDbLine
 10
-742.1412727273
 20
158.7351401505
 30
0.0
 11
-742.1412727273
 21
186.7089198622
 31
0.0
  0
LWPOLYLINE
  5
88
330
1F
100
AcDbEntity
  8
0
  6
Continuous
 62
     7
370
    25
100
AcDbPolyline
 90
        3
 70
   128
 43
0.0
 10
-743.1412727307
 20
157.7261818182
 10
-742.6412833308
 20
158.2261597413
 10
-742.1413180817
 20
158.7260921643
  0
LWPOLYLINE
  5
89
330
1F
100
AcDbEntity
  8
0
  6
Continuous
 62
     7
370
    25
100
AcDbPolyline
 90
        3
 70
   128
 43
0.0
 10
-769.0412265252
 20
158.7260910122
 10
-768.5412614992
 20
158.2261589321
 10
-768.0412727834
 20
157.7261818182
  0
LINE
  5
8A
330
1F
100
AcDbEntity
  8
0
  6
Continuous
 62
     7
370
    25
100
AcDbLine
 10
-742.1412727273
 20
57.7261818182
 30
0.0
 11
-742.1412727273
 21
157.7261818182
 31
0.0
  0
LINE
  5
8B
330
1F
100
AcDbEntity
  8
0
  6
Continuous
 62
     7
370
    25
100
AcDbLine
 10
-769.0412727273
 20
157.7261818182
 30
0.0
 11
-769.0412727273
 21
57.7261818182
 31
0.0
  0
LINE
  5
8C
330
1F
100
AcDbEntity
  8
0
  6
Continuous
 62
     7
370
    25
100
AcDbLine
 10
1040.9587272727
 20
157.7261818182
 30
0.0
 11
1040.9587272727
 21
57.7261818182
 31
0.0
  0
LINE
  5
8D
330
1F
100
AcDbEntity
  8
0
  6
Continuous
 62
     7
370
    25
100
AcDbLine
 10
1067.8587272727
 20
57.7261818182
 30
0.0
 11
1067.8587272727
 21
157.7261818182
 31
0.0
  0
ARC
  5
8E
330
1F
100
AcDbEntity
  8
0
  6
Continuous
 62
     7
370
    25
100
AcDbCircle
 10
-1095.1556758643
 20
-92.2738181818
 30
0.0
 40
1000.0
100
AcDbArc
 50
180.0
 51
270.0
  0
ARC
  5
8F
330
1F
100
AcDbEntity
  8
0
  6
Continuous
 62
     7
370
    25
100
AcDbCircle
 10
1393.9731304097
 20
307.7261818182
 30
0.0
 40
1000.0
100
AcDbArc
 50
0.0
 51
90.0
  0
LINE
  5
90
330
1F
100
AcDbEntity
  8
0
  6
Continuous
 62
     7
370
    25
100
AcDbLine
 10
2393.9731304097
 20
-92.2738181818
 30
0.0
 11
2393.9731304097
 21
307.7261818182
 31
0.0
  0
LINE
  5
91
330
1F
100
AcDbEntity
  8
0
  6
Continuous
 62
     7
370
    25
100
AcDbLine
 10
1393.9731304097
 20
-1092.2738181818
 30
0.0
 11
-1095.1556758642
 21
-1092.2738181818
 31
0.0
  0
ARC
  5
92
330
1F
100
AcDbEntity
  8
0
  6
Continuous
 62
     7
370
    25
100
AcDbCircle
 10
-1095.1556758643
 20
307.7261818182
 30
0.0
 40
1000.0
100
AcDbArc
 50
90.0
 51
180.0
  0
LINE
  5
93
330
1F
100
AcDbEntity
  8
0
  6
Continuous
 62
     7
370
    25
100
AcDbLine
 10
-2095.1556758643
 20
-92.2738181818
 30
0.0
 11
-2095.1556758643
 21
307.7261818182
 31
0.0
  0
LINE
  5
94
330
1F
100
AcDbEntity
  8
0
  6
Continuous
 62
     7
370
    25
100
AcDbLine
 10
1393.9731304097
 20
1307.7261818182
 30
0.0
 11
-1095.1556758642
 21
1307.7261818182
 31
0.0
  0
ARC
  5
95
330
1F
100
AcDbEntity
  8
0
  6
Continuous
 62
     7
370
    25
100
AcDbCircle
 10
1393.9731304097
 20
-92.2738181818
 30
0.0
 40
1000.0
100
AcDbArc
 50
270.0
 51
0.0
  0
LINE
  5
96
330
1F
100
AcDbEntity
  8
0
  6
Continuous
 62
     7
370
    25
100
AcDbLine
 10
112.4087272727
 20
304.7261818182
 30
0.0
 11
112.4087272727
 21
230.7261818182
 31
0.0
  0
LINE
  5
97
330
1F
100
AcDbEntity
  8
0
  6
Continuous
 62
     7
370
    25
100
AcDbLine
 10
112.4087272727
 20
230.7261818182
 30
0.0
 11
109.4087272727
 21
229.7261818182
 31
0.0
  0
LINE
  5
98
330
1F
100
AcDbEntity
  8
0
  6
Continuous
 62
     7
370
    25
100
AcDbLine
 10
109.4087272727
 20
229.7261818182
 30
0.0
 11
109.4087272727
 21
305.7261818182
 31
0.0
  0
LINE
  5
99
330
1F
100
AcDbEntity
  8
0
  6
Continuous
 62
     7
370
    25
100
AcDbLine
 10
112.4087272727
 20
304.7261818182
 30
0.0
 11
109.4087272727
 21
305.7261818182
 31
0.0
  0
LINE
  5
9A
330
1F
100
AcDbEntity
  8
0
  6
Continuous
 62
     7
370
    25
100
AcDbLine
 10
189.4087272727
 20
305.7261818182
 30
0.0
 11
189.4087272727
 21
229.7261818182
 31
0.0
  0
LINE
  5
9B
330
1F
100
AcDbEntity
  8
0
  6
Continuous
 62
     7
370
    25
100
AcDbLine
 10
189.4087272727
 20
229.7261818182
 30
0.0
 11
186.4087272727
 21
230.7261818182
 31
0.0
  0
LINE
  5
9C
330
1F
100
AcDbEntity
  8
0
  6
Continuous
 62
     7
370
    25
100
AcDbLine
 10
186.4087272727
 20
230.7261818182
 30
0.0
 11
186.4087272727
 21
304.7261818182
 31
0.0
  0
LINE
  5
9D
330
1F
100
AcDbEntity
  8
0
  6
Continuous
 62
     7
370
    25
100
AcDbLine
 10
189.4087272727
 20
305.7261818182
 30
0.0
 11
186.4087272727
 21
304.7261818182
 31
0.0
  0
LINE
  5
9E
330
1F
100
AcDbEntity
  8
0
  6
Continuous
 62
     7
370
    25
100
AcDbLine
 10
187.4087272727
 20
227.7261818182
 30
0.0
 11
186.4087272727
 21
230.7261818182
 31
0.0
  0
ARC
  5
9F
330
1F
100
AcDbEntity
  8
0
  6
Continuous
 62
     7
370
    25
100
AcDbCircle
 10
187.4087272727
 20
229.7261818182
 30
0.0
 40
2.0
100
AcDbArc
 50
270.0
 51
0.0
  0
LINE
  5
A0
330
1F
100
AcDbEntity
  8
0
  6
Continuous
 62
     7
370
    25
100
AcDbLine
 10
186.4087272727
 20
304.7261818182
 30
0.0
 11
112.4087272727
 21
304.7261818182
 31
0.0
  0
LINE
  5
A1
330
1F
100
AcDbEntity
  8
0
  6
Continuous
 62
     7
370
    25
100
AcDbLine
 10
112.4087272727
 20
304.7261818182
 30
0.0
 11
111.4087272727
 21
307.7261818182
 31
0.0
  0
LINE
  5
A2
330
1F
100
AcDbEntity
  8
0
  6
Continuous
 62
     7
370
    25
100
AcDbLine
 10
111.4087272727
 20
307.7261818182
 30
0.0
 11
187.4087272727
 21
307.7261818182
 31
0.0
  0
LINE
  5
A3
330
1F
100
AcDbEntity
  8
0
  6
Continuous
 62
     7
370
    25
100
AcDbLine
 10
187.4087272727
 20
307.7261818182
 30
0.0
 11
186.4087272727
 21
304.7261818182
 31
0.0
  0
ARC
  5
A4
330
1F
100
AcDbEntity
  8
0
  6
Continuous
 62
     7
370
    25
100
AcDbCircle
 10
111.4087272727
 20
305.7261818182
 30
0.0
 40
2.0
100
AcDbArc
 50
90.0
 51
180.0
  0
ARC
  5
A5
330
1F
100
AcDbEntity
  8
0
  6
Continuous
 62
     7
370
    25
100
AcDbCircle
 10
187.4087272727
 20
305.7261818182
 30
0.0
 40
2.0
100
AcDbArc
 50
0.0
 51
90.0
  0
LINE
  5
A6
330
1F
100
AcDbEntity
  8
0
  6
Continuous
 62
     7
370
    25
100
AcDbLine
 10
112.4087272727
 20
230.7261818182
 30
0.0
 11
186.4087272727
 21
230.7261818182
 31
0.0
  0
CIRCLE
  5
A7
330
1F
100
AcDbEntity
  8
0
  6
Continuous
 62
     7
370
    25
100
AcDbCircle
 10
149.4087272727
 20
267.7261818182
 30
0.0
 40
1.0
  0
LINE
  5
A8
330
1F
100
AcDbEntity
  8
0
  6
Continuous
 62
     7
370
    25
100
AcDbLine
 10
112.4087272727
 20
230.7261818182
 30
0.0
 11
111.4087272727
 21
227.7261818182
 31
0.0
  0
ARC
  5
A9
330
1F
100
AcDbEntity
  8
0
  6
Continuous
 62
     7
370
    25
100
AcDbCircle
 10
111.4087272727
 20
229.7261818182
 30
0.0
 40
2.0
100
AcDbArc
 50
180.0
 51
270.0
  0
LINE
  5
AA
330
1F
100
AcDbEntity
  8
0
  6
Continuous
 62
     7
370
    25
100
AcDbLine
 10
187.4087272727
 20
227.7261818182
 30
0.0
 11
111.4087272727
 21
227.7261818182
 31
0.0
  0
LINE
  5
AB
330
1F
100
AcDbEntity
  8
0
  6
Continuous
 62
     7
370
    25
100
AcDbLine
 10
112.4087272727
 20
-89.2738181818
 30
0.0
 11
186.4087272727
 21
-89.2738181818
 31
0.0
  0
LINE
  5
AC
330
1F
100
AcDbEntity
  8
0
  6
Continuous
 62
     7
370
    25
100
AcDbLine
 10
187.4087272727
 20
-92.2738181818
 30
0.0
 11
186.4087272727
 21
-89.2738181818
 31
0.0
  0
LINE
  5
AD
330
1F
100
AcDbEntity
  8
0
  6
Continuous
 62
     7
370
    25
100
AcDbLine
 10
187.4087272727
 20
-92.2738181818
 30
0.0
 11
111.4087272727
 21
-92.2738181818
 31
0.0
  0
LINE
  5
AE
330
1F
100
AcDbEntity
  8
0
  6
Continuous
 62
     7
370
    25
100
AcDbLine
 10
112.4087272727
 20
-89.2738181818
 30
0.0
 11
111.4087272727
 21
-92.2738181818
 31
0.0
  0
ARC
  5
AF
330
1F
100
AcDbEntity
  8
0
  6
Continuous
 62
     7
370
    25
100
AcDbCircle
 10
111.4087272727
 20
-90.2738181818
 30
0.0
 40
2.000000000000014
100
AcDbArc
 50
180.0
 51
270.0
  0
LINE
  5
B0
330
1F
100
AcDbEntity
  8
0
  6
Continuous
 62
     7
370
    25
100
AcDbLine
 10
112.4087272727
 20
-89.2738181818
 30
0.0
 11
109.4087272727
 21
-90.2738181818
 31
0.0
  0
LINE
  5
B1
330
1F
100
AcDbEntity
  8
0
  6
Continuous
 62
     7
370
    25
100
AcDbLine
 10
112.4087272727
 20
-15.2738181818
 30
0.0
 11
112.4087272727
 21
-89.2738181818
 31
0.0
  0
LINE
  5
B2
330
1F
100
AcDbEntity
  8
0
  6
Continuous
 62
     7
370
    25
100
AcDbLine
 10
109.4087272727
 20
-90.2738181818
 30
0.0
 11
109.4087272727
 21
-14.2738181818
 31
0.0
  0
LINE
  5
B3
330
1F
100
AcDbEntity
  8
0
  6
Continuous
 62
     7
370
    25
100
AcDbLine
 10
112.4087272727
 20
-15.2738181818
 30
0.0
 11
109.4087272727
 21
-14.2738181818
 31
0.0
  0
ARC
  5
B4
330
1F
100
AcDbEntity
  8
0
  6
Continuous
 62
     7
370
    25
100
AcDbCircle
 10
111.4087272727
 20
-14.2738181818
 30
0.0
 40
2.000000000000002
100
AcDbArc
 50
90.0
 51
180.0
  0
LINE
  5
B5
330
1F
100
AcDbEntity
  8
0
  6
Continuous
 62
     7
370
    25
100
AcDbLine
 10
112.4087272727
 20
-15.2738181818
 30
0.0
 11
111.4087272727
 21
-12.2738181818
 31
0.0
  0
LINE
  5
B6
330
1F
100
AcDbEntity
  8
0
  6
Continuous
 62
     7
370
    25
100
AcDbLine
 10
189.4087272727
 20
-90.2738181818
 30
0.0
 11
186.4087272727
 21
-89.2738181818
 31
0.0
  0
ARC
  5
B7
330
1F
100
AcDbEntity
  8
0
  6
Continuous
 62
     7
370
    25
100
AcDbCircle
 10
187.4087272727
 20
-90.2738181818
 30
0.0
 40
2.000000000000014
100
AcDbArc
 50
270.0
 51
0.0
  0
LINE
  5
B8
330
1F
100
AcDbEntity
  8
0
  6
Continuous
 62
     7
370
    25
100
AcDbLine
 10
189.4087272727
 20
-14.2738181818
 30
0.0
 11
189.4087272727
 21
-90.2738181818
 31
0.0
  0
LINE
  5
B9
330
1F
100
AcDbEntity
  8
0
  6
Continuous
 62
     7
370
    25
100
AcDbLine
 10
186.4087272727
 20
-89.2738181818
 30
0.0
 11
186.4087272727
 21
-15.2738181818
 31
0.0
  0
LINE
  5
BA
330
1F
100
AcDbEntity
  8
0
  6
Continuous
 62
     7
370
    25
100
AcDbLine
 10
189.4087272727
 20
-14.2738181818
 30
0.0
 11
186.4087272727
 21
-15.2738181818
 31
0.0
  0
LINE
  5
BB
330
1F
100
AcDbEntity
  8
0
  6
Continuous
 62
     7
370
    25
100
AcDbLine
 10
187.4087272727
 20
-12.2738181818
 30
0.0
 11
186.4087272727
 21
-15.2738181818
 31
0.0
  0
ARC
  5
BC
330
1F
100
AcDbEntity
  8
0
  6
Continuous
 62
     7
370
    25
100
AcDbCircle
 10
187.4087272727
 20
-14.2738181818
 30
0.0
 40
2.000000000000002
100
AcDbArc
 50
0.0
 51
90.0
  0
LINE
  5
BD
330
1F
100
AcDbEntity
  8
0
  6
Continuous
 62
     7
370
    25
100
AcDbLine
 10
186.4087272727
 20
-15.2738181818
 30
0.0
 11
112.4087272727
 21
-15.2738181818
 31
0.0
  0
CIRCLE
  5
BE
330
1F
100
AcDbEntity
  8
0
  6
Continuous
 62
     7
370
    25
100
AcDbCircle
 10
149.4087272727
 20
-52.2738181818
 30
0.0
 40
1.0
  0
LINE
  5
BF
330
1F
100
AcDbEntity
  8
0
  6
Continuous
 62
     7
370
    25
100
AcDbLine
 10
111.4087272727
 20
-12.2738181818
 30
0.0
 11
187.4087272727
 21
-12.2738181818
 31
0.0
  0
CIRCLE
  5
C0
330
1F
100
AcDbEntity
  8
0
  6
Continuous
 62
     7
370
    25
100
AcDbCircle
 10
549.4087272727
 20
107.7261818182
 30
0.0
 40
19.99999999999998
  0
CIRCLE
  5
C1
330
1F
100
AcDbEntity
  8
0
  6
Continuous
 62
     7
370
    25
100
AcDbCircle
 10
-250.5912727273
 20
107.7261818182
 30
0.0
 40
19.99999999999999
  0
CIRCLE
  5
C2
330
1F
100
AcDbEntity
  8
0
  6
Continuous
 62
     7
370
    25
100
AcDbCircle
 10
249.4087272727
 20
107.7261818182
 30
0.0
 40
20.00000000000001
  0
CIRCLE
  5
C3
330
1F
100
AcDbEntity
  8
0
  6
Continuous
 62
     7
370
    25
100
AcDbCircle
 10
49.4087272727
 20
107.7261818182
 30
0.0
 40
20.0
  0
CIRCLE
  5
C4
330
1F
100
AcDbEntity
  8
0
  6
Continuous
 62
     7
370
    25
100
AcDbCircle
 10
249.4087272727
 20
107.7261818182
 30
0.0
 40
13.36655020039052
  0
CIRCLE
  5
C5
330
1F
100
AcDbEntity
  8
0
  6
Continuous
 62
     7
370
    25
100
AcDbCircle
 10
249.4087272727
 20
107.7261818182
 30
0.0
 40
13.7
  0
CIRCLE
  5
C6
330
1F
100
AcDbEntity
  8
0
  6
Continuous
 62
     7
370
    25
100
AcDbCircle
 10
-250.5912727273
 20
107.7261818182
 30
0.0
 40
13.3665502003905
  0
CIRCLE
  5
C7
330
1F
100
AcDbEntity
  8
0
  6
Continuous
 62
     7
370
    25
100
AcDbCircle
 10
-250.5912727273
 20
107.7261818182
 30
0.0
 40
13.7
  0
CIRCLE
  5
C8
330
1F
100
AcDbEntity
  8
0
  6
Continuous
 62
     7
370
    25
100
AcDbCircle
 10
49.4087272727
 20
107.7261818182
 30
0.0
 40
13.36655020039052
  0
CIRCLE
  5
C9
330
1F
100
AcDbEntity
  8
0
  6
Continuous
 62
     7
370
    25
100
AcDbCircle
 10
49.4087272727
 20
107.7261818182
 30
0.0
 40
13.7
  0
CIRCLE
  5
CA
330
1F
100
AcDbEntity
  8
0
  6
Continuous
 62
     7
370
    25
100
AcDbCircle
 10
549.4087272727
 20
107.7261818182
 30
0.0
 40
13.36655020039047
  0
CIRCLE
  5
CB
330
1F
100
AcDbEntity
  8
0
  6
Continuous
 62
     7
370
    25
100
AcDbCircle
 10
549.4087272727
 20
107.7261818182
 30
0.0
 40
13.69999999999995
  0
ARC
  5
CC
330
1F
100
AcDbEntity
  8
0
  6
Continuous
 62
     7
370
    25
100
AcDbCircle
 10
1304.4087272727
 20
92.7261818182
 30
0.0
 40
2.250000000000022
100
AcDbArc
 50
300.9010615918
 51
0.9010615918
  0
ARC
  5
CD
330
1F
100
AcDbEntity
  8
0
  6
Continuous
 62
     7
370
    25
100
AcDbCircle
 10
1306.208504687
 20
92.7544883361
 30
0.0
 40
0.4499999999999641
100
AcDbArc
 50
284.242819819
 51
0.9010615918
  0
ARC
  5
CE
330
1F
100
AcDbEntity
  8
0
  6
Continuous
 62
     7
370
    25
100
AcDbCircle
 10
1306.5129690757
 20
91.5550269211
 30
0.0
 40
0.7874999999999931
100
AcDbArc
 50
104.2428198191
 51
197.5593033646
  0
ARC
  5
CF
330
1F
100
AcDbEntity
  8
0
  6
Continuous
 62
     7
370
    25
100
AcDbCircle
 10
1305.3331301435
 20
91.1816821152
 30
0.0
 40
0.4499999999999835
100
AcDbArc
 50
300.9010615918
 51
17.5593033646
  0
ARC
  5
D0
330
1F
100
AcDbEntity
  8
0
  6
Continuous
 62
     7
370
    25
100
AcDbCircle
 10
1304.4087272727
 20
92.7261818182
 30
0.0
 40
2.250000000000081
100
AcDbArc
 50
240.9010615918
 51
300.9010615918
  0
ARC
  5
D1
330
1F
100
AcDbEntity
  8
0
  6
Continuous
 62
     7
370
    25
100
AcDbCircle
 10
1303.5333527292
 20
91.1533755973
 30
0.0
 40
0.4500000000001269
100
AcDbArc
 50
240.9010615918
 51
317.5593033646
  0
ARC
  5
D2
330
1F
100
AcDbEntity
  8
0
  6
Continuous
 62
     7
370
    25
100
AcDbCircle
 10
1304.4465982816
 20
90.3182775126
 30
0.0
 40
0.7874999999999898
100
AcDbArc
 50
44.2428198191
 51
137.5593033646
  0
ARC
  5
D3
330
1F
100
AcDbEntity
  8
0
  6
Continuous
 62
     7
370
    25
100
AcDbCircle
 10
1305.3331301435
 20
91.1816821152
 30
0.0
 40
0.4500000000001789
100
AcDbArc
 50
224.242819819
 51
300.9010615918
  0
ARC
  5
D4
330
1F
100
AcDbEntity
  8
0
  6
Continuous
 62
     7
370
    25
100
AcDbCircle
 10
1304.4087272727
 20
92.7261818182
 30
0.0
 40
2.249999999999996
100
AcDbArc
 50
0.9010615918
 51
60.9010615918
  0
ARC
  5
D5
330
1F
100
AcDbEntity
  8
0
  6
Continuous
 62
     7
370
    25
100
AcDbCircle
 10
1305.2841018163
 20
94.2989880391
 30
0.0
 40
0.4500000000000934
100
AcDbArc
 50
344.2428198191
 51
60.9010615918
  0
ARC
  5
D6
330
1F
100
AcDbEntity
  8
0
  6
Continuous
 62
     7
370
    25
100
AcDbCircle
 10
1306.4750980668
 20
93.9629312267
 30
0.0
 40
0.7874999999999854
100
AcDbArc
 50
164.2428198191
 51
257.5593033646
  0
ARC
  5
D7
330
1F
100
AcDbEntity
  8
0
  6
Continuous
 62
     7
370
    25
100
AcDbCircle
 10
1306.208504687
 20
92.7544883361
 30
0.0
 40
0.4500000000000086
100
AcDbArc
 50
0.9010615918
 51
77.5593033646
  0
ARC
  5
D8
330
1F
100
AcDbEntity
  8
0
  6
Continuous
 62
     7
370
    25
100
AcDbCircle
 10
1304.4087272727
 20
92.7261818182
 30
0.0
 40
2.250000000000034
100
AcDbArc
 50
120.9010615918
 51
180.9010615918
  0
ARC
  5
D9
330
1F
100
AcDbEntity
  8
0
  6
Continuous
 62
     7
370
    25
100
AcDbCircle
 10
1302.3044854698
 20
93.8973367152
 30
0.0
 40
0.7875000000000965
100
AcDbArc
 50
284.2428198191
 51
17.5593033646
  0
ARC
  5
DA
330
1F
100
AcDbEntity
  8
0
  6
Continuous
 62
     7
370
    25
100
AcDbCircle
 10
1303.484324402
 20
94.2706815212
 30
0.0
 40
0.4499999999999835
100
AcDbArc
 50
120.9010615918
 51
197.5593033646
  0
ARC
  5
DB
330
1F
100
AcDbEntity
  8
0
  6
Continuous
 62
     7
370
    25
100
AcDbCircle
 10
1302.6089498584
 20
92.6978753002
 30
0.0
 40
0.4500000000000201
100
AcDbArc
 50
104.2428198191
 51
180.9010615918
  0
ARC
  5
DC
330
1F
100
AcDbEntity
  8
0
  6
Continuous
 62
     7
370
    25
100
AcDbCircle
 10
1304.4087272727
 20
92.7261818182
 30
0.0
 40
2.250000000000081
100
AcDbArc
 50
180.9010615918
 51
240.9010615918
  0
ARC
  5
DD
330
1F
100
AcDbEntity
  8
0
  6
Continuous
 62
     7
370
    25
100
AcDbCircle
 10
1302.3423564786
 20
91.4894324096
 30
0.0
 40
0.7874999999999854
100
AcDbArc
 50
344.2428198191
 51
77.5593033646
  0
ARC
  5
DE
330
1F
100
AcDbEntity
  8
0
  6
Continuous
 62
     7
370
    25
100
AcDbCircle
 10
1303.5333527292
 20
91.1533755973
 30
0.0
 40
0.4500000000003123
100
AcDbArc
 50
164.2428198191
 51
240.9010615918
  0
ARC
  5
DF
330
1F
100
AcDbEntity
  8
0
  6
Continuous
 62
     7
370
    25
100
AcDbCircle
 10
1302.6089498584
 20
92.6978753002
 30
0.0
 40
0.4500000000000576
100
AcDbArc
 50
180.9010615918
 51
257.5593033646
  0
ARC
  5
E0
330
1F
100
AcDbEntity
  8
0
  6
Continuous
 62
     7
370
    25
100
AcDbCircle
 10
1304.4087272727
 20
92.7261818182
 30
0.0
 40
2.250000000000034
100
AcDbArc
 50
60.9010615918
 51
120.9010615918
  0
ARC
  5
E1
330
1F
100
AcDbEntity
  8
0
  6
Continuous
 62
     7
370
    25
100
AcDbCircle
 10
1304.3708562639
 20
95.1340861238
 30
0.0
 40
0.787500000000095
100
AcDbArc
 50
224.2428198191
 51
317.5593033646
  0
ARC
  5
E2
330
1F
100
AcDbEntity
  8
0
  6
Continuous
 62
     7
370
    25
100
AcDbCircle
 10
1305.2841018163
 20
94.2989880391
 30
0.0
 40
0.4500000000000287
100
AcDbArc
 50
60.9010615918
 51
137.5593033646
  0
ARC
  5
E3
330
1F
100
AcDbEntity
  8
0
  6
Continuous
 62
     7
370
    25
100
AcDbCircle
 10
1303.484324402
 20
94.2706815212
 30
0.0
 40
0.450000000000016
100
AcDbArc
 50
44.2428198191
 51
120.9010615918
  0
CIRCLE
  5
E4
330
1F
100
AcDbEntity
  8
0
  6
Continuous
 62
     7
370
    25
100
AcDbCircle
 10
1304.4087272727
 20
92.7261818182
 30
0.0
 40
3.849999999999974
  0
ARC
  5
E5
330
1F
100
AcDbEntity
  8
0
  6
Continuous
 62
     7
370
    25
100
AcDbCircle
 10
-1005.5912727273
 20
92.7261818182
 30
0.0
 40
2.250000000000094
100
AcDbArc
 50
119.0989384082
 51
179.0989384082
  0
ARC
  5
E6
330
1F
100
AcDbEntity
  8
0
  6
Continuous
 62
     7
370
    25
100
AcDbCircle
 10
-1006.4666472708
 20
94.2989880391
 30
0.0
 40
0.4500000000000973
100
AcDbArc
 50
119.0989384082
 51
195.7571801809
  0
ARC
  5
E7
330
1F
100
AcDbEntity
  8
0
  6
Continuous
 62
     7
370
    25
100
AcDbCircle
 10
-1007.6576435214
 20
93.9629312267
 30
0.0
 40
0.7874999999999854
100
AcDbArc
 50
282.4406966354
 51
15.7571801809
  0
ARC
  5
E8
330
1F
100
AcDbEntity
  8
0
  6
Continuous
 62
     7
370
    25
100
AcDbCircle
 10
-1007.3910501416
 20
92.7544883361
 30
0.0
 40
0.4500000000000331
100
AcDbArc
 50
102.4406966354
 51
179.0989384082
  0
ARC
  5
E9
330
1F
100
AcDbEntity
  8
0
  6
Continuous
 62
     7
370
    25
100
AcDbCircle
 10
-1005.5912727273
 20
92.7261818182
 30
0.0
 40
2.250000000000039
100
AcDbArc
 50
239.0989384082
 51
299.0989384082
  0
ARC
  5
EA
330
1F
100
AcDbEntity
  8
0
  6
Continuous
 62
     7
370
    25
100
AcDbCircle
 10
-1005.6291437361
 20
90.3182775126
 30
0.0
 40
0.7875000000000111
100
AcDbArc
 50
42.4406966354
 51
135.7571801809
  0
ARC
  5
EB
330
1F
100
AcDbEntity
  8
0
  6
Continuous
 62
     7
370
    25
100
AcDbCircle
 10
-1004.7158981837
 20
91.1533755973
 30
0.0
 40
0.4500000000000716
100
AcDbArc
 50
222.4406966354
 51
299.0989384082
  0
ARC
  5
EC
330
1F
100
AcDbEntity
  8
0
  6
Continuous
 62
     7
370
    25
100
AcDbCircle
 10
-1006.5156755981
 20
91.1816821152
 30
0.0
 40
0.4500000000000876
100
AcDbArc
 50
239.0989384082
 51
315.7571801809
  0
ARC
  5
ED
330
1F
100
AcDbEntity
  8
0
  6
Continuous
 62
     7
370
    25
100
AcDbCircle
 10
-1005.5912727273
 20
92.7261818182
 30
0.0
 40
2.250000000000094
100
AcDbArc
 50
59.0989384082
 51
119.0989384082
  0
ARC
  5
EE
330
1F
100
AcDbEntity
  8
0
  6
Continuous
 62
     7
370
    25
100
AcDbCircle
 10
-1005.5534017184
 20
95.1340861238
 30
0.0
 40
0.7875000000000207
100
AcDbArc
 50
222.4406966354
 51
315.7571801809
  0
ARC
  5
EF
330
1F
100
AcDbEntity
  8
0
  6
Continuous
 62
     7
370
    25
100
AcDbCircle
 10
-1006.4666472708
 20
94.2989880391
 30
0.0
 40
0.4500000000000716
100
AcDbArc
 50
42.4406966354
 51
119.0989384082
  0
ARC
  5
F0
330
1F
100
AcDbEntity
  8
0
  6
Continuous
 62
     7
370
    25
100
AcDbCircle
 10
-1004.6668698565
 20
94.2706815212
 30
0.0
 40
0.450000000000169
100
AcDbArc
 50
59.0989384082
 51
135.757180181
  0
ARC
  5
F1
330
1F
100
AcDbEntity
  8
0
  6
Continuous
 62
     7
370
    25
100
AcDbCircle
 10
-1005.5912727273
 20
92.7261818182
 30
0.0
 40
2.250000000000022
100
AcDbArc
 50
359.0989384082
 51
59.0989384082
  0
ARC
  5
F2
330
1F
100
AcDbEntity
  8
0
  6
Continuous
 62
     7
370
    25
100
AcDbCircle
 10
-1003.791495313
 20
92.6978753002
 30
0.0
 40
0.4499999999999783
100
AcDbArc
 50
359.0989384082
 51
75.7571801809
  0
ARC
  5
F3
330
1F
100
AcDbEntity
  8
0
  6
Continuous
 62
     7
370
    25
100
AcDbCircle
 10
-1003.4870309243
 20
93.8973367152
 30
0.0
 40
0.7874999999999931
100
AcDbArc
 50
162.4406966354
 51
255.7571801809
  0
ARC
  5
F4
330
1F
100
AcDbEntity
  8
0
  6
Continuous
 62
     7
370
    25
100
AcDbCircle
 10
-1004.6668698565
 20
94.2706815212
 30
0.0
 40
0.4499999999999713
100
AcDbArc
 50
342.4406966354
 51
59.0989384082
  0
ARC
  5
F5
330
1F
100
AcDbEntity
  8
0
  6
Continuous
 62
     7
370
    25
100
AcDbCircle
 10
-1005.5912727273
 20
92.7261818182
 30
0.0
 40
2.250000000000034
100
AcDbArc
 50
179.0989384082
 51
239.0989384082
  0
ARC
  5
F6
330
1F
100
AcDbEntity
  8
0
  6
Continuous
 62
     7
370
    25
100
AcDbCircle
 10
-1007.3910501416
 20
92.7544883361
 30
0.0
 40
0.4500000000000201
100
AcDbArc
 50
179.0989384082
 51
255.7571801809
  0
ARC
  5
F7
330
1F
100
AcDbEntity
  8
0
  6
Continuous
 62
     7
370
    25
100
AcDbCircle
 10
-1007.6955145302
 20
91.5550269211
 30
0.0
 40
0.7875000000000965
100
AcDbArc
 50
342.4406966354
 51
75.7571801809
  0
ARC
  5
F8
330
1F
100
AcDbEntity
  8
0
  6
Continuous
 62
     7
370
    25
100
AcDbCircle
 10
-1006.5156755981
 20
91.1816821152
 30
0.0
 40
0.4499999999999835
100
AcDbArc
 50
162.4406966354
 51
239.0989384082
  0
ARC
  5
F9
330
1F
100
AcDbEntity
  8
0
  6
Continuous
 62
     7
370
    25
100
AcDbCircle
 10
-1005.5912727273
 20
92.7261818182
 30
0.0
 40
2.250000000000039
100
AcDbArc
 50
299.0989384082
 51
359.0989384082
  0
CIRCLE
  5
FA
330
1F
100
AcDbEntity
  8
0
  6
Continuous
 62
     7
370
    25
100
AcDbCircle
 10
-1005.5912727273
 20
92.7261818182
 30
0.0
 40
3.850000000000088
  0
ARC
  5
FB
330
1F
100
AcDbEntity
  8
0
  6
Continuous
 62
     7
370
    25
100
AcDbCircle
 10
-1003.791495313
 20
92.6978753002
 30
0.0
 40
0.4500000000000086
100
AcDbArc
 50
282.4406966354
 51
359.0989384082
  0
ARC
  5
FC
330
1F
100
AcDbEntity
  8
0
  6
Continuous
 62
     7
370
    25
100
AcDbCircle
 10
-1004.7158981837
 20
91.1533755973
 30
0.0
 40
0.4500000000000934
100
AcDbArc
 50
299.0989384082
 51
15.7571801809
  0
ARC
  5
FD
330
1F
100
AcDbEntity
  8
0
  6
Continuous
 62
     7
370
    25
100
AcDbCircle
 10
-1003.5249019332
 20
91.4894324096
 30
0.0
 40
0.7874999999999993
100
AcDbArc
 50
102.4406966354
 51
195.7571801809
  0
ARC
  5
FE
330
1F
100
AcDbEntity
  8
0
  6
Continuous
 62
     7
370
    25
100
AcDbCircle
 10
1214.4087272727
 20
107.7261818182
 30
0.0
 40
2.250000000000106
100
AcDbArc
 50
0.9010615918
 51
60.9010615918
  0
ARC
  5
FF
330
1F
100
AcDbEntity
  8
0
  6
Continuous
 62
     7
370
    25
100
AcDbCircle
 10
1216.208504687
 20
107.7544883361
 30
0.0
 40
0.4500000000000086
100
AcDbArc
 50
0.9010615918
 51
77.5593033646
  0
ARC
  5
100
330
1F
100
AcDbEntity
  8
0
  6
Continuous
 62
     7
370
    25
100
AcDbCircle
 10
1215.2841018163
 20
109.2989880391
 30
0.0
 40
0.4500000000003123
100
AcDbArc
 50
344.2428198191
 51
60.9010615918
  0
ARC
  5
101
330
1F
100
AcDbEntity
  8
0
  6
Continuous
 62
     7
370
    25
100
AcDbCircle
 10
1216.4750980668
 20
108.9629312267
 30
0.0
 40
0.7875000000000344
100
AcDbArc
 50
164.2428198191
 51
257.5593033646
  0
ARC
  5
102
330
1F
100
AcDbEntity
  8
0
  6
Continuous
 62
     7
370
    25
100
AcDbCircle
 10
1214.4087272727
 20
107.7261818182
 30
0.0
 40
2.250000000000022
100
AcDbArc
 50
240.9010615918
 51
300.9010615918
  0
ARC
  5
103
330
1F
100
AcDbEntity
  8
0
  6
Continuous
 62
     7
370
    25
100
AcDbCircle
 10
1213.5333527292
 20
106.1533755973
 30
0.0
 40
0.4500000000000038
100
AcDbArc
 50
240.9010615918
 51
317.5593033646
  0
ARC
  5
104
330
1F
100
AcDbEntity
  8
0
  6
Continuous
 62
     7
370
    25
100
AcDbCircle
 10
1214.4465982816
 20
105.3182775126
 30
0.0
 40
0.7875000000001046
100
AcDbArc
 50
44.2428198191
 51
137.5593033646
  0
ARC
  5
105
330
1F
100
AcDbEntity
  8
0
  6
Continuous
 62
     7
370
    25
100
AcDbCircle
 10
1215.3331301435
 20
106.1816821152
 30
0.0
 40
0.450000000000016
100
AcDbArc
 50
224.2428198191
 51
300.9010615918
  0
ARC
  5
106
330
1F
100
AcDbEntity
  8
0
  6
Continuous
 62
     7
370
    25
100
AcDbCircle
 10
1214.4087272727
 20
107.7261818182
 30
0.0
 40
2.250000000000106
100
AcDbArc
 50
60.9010615918
 51
120.9010615918
  0
ARC
  5
107
330
1F
100
AcDbEntity
  8
0
  6
Continuous
 62
     7
370
    25
100
AcDbCircle
 10
1215.2841018163
 20
109.2989880391
 30
0.0
 40
0.4500000000001392
100
AcDbArc
 50
60.9010615918
 51
137.5593033646
  0
ARC
  5
108
330
1F
100
AcDbEntity
  8
0
  6
Continuous
 62
     7
370
    25
100
AcDbCircle
 10
1214.3708562639
 20
110.1340861238
 30
0.0
 40
0.7874999999999798
100
AcDbArc
 50
224.2428198191
 51
317.5593033646
  0
ARC
  5
109
330
1F
100
AcDbEntity
  8
0
  6
Continuous
 62
     7
370
    25
100
AcDbCircle
 10
1213.484324402
 20
109.2706815212
 30
0.0
 40
0.4500000000001789
100
AcDbArc
 50
44.242819819
 51
120.9010615918
  0
ARC
  5
10A
330
1F
100
AcDbEntity
  8
0
  6
Continuous
 62
     7
370
    25
100
AcDbCircle
 10
1214.4087272727
 20
107.7261818182
 30
0.0
 40
2.250000000000022
100
AcDbArc
 50
300.9010615918
 51
0.9010615918
  0
ARC
  5
10B
330
1F
100
AcDbEntity
  8
0
  6
Continuous
 62
     7
370
    25
100
AcDbCircle
 10
1216.5129690757
 20
106.5550269211
 30
0.0
 40
0.7875000000001007
100
AcDbArc
 50
104.2428198191
 51
197.5593033646
  0
ARC
  5
10C
330
1F
100
AcDbEntity
  8
0
  6
Continuous
 62
     7
370
    25
100
AcDbCircle
 10
1216.208504687
 20
107.7544883361
 30
0.0
 40
0.4500000000000201
100
AcDbArc
 50
284.2428198191
 51
0.9010615918
  0
ARC
  5
10D
330
1F
100
AcDbEntity
  8
0
  6
Continuous
 62
     7
370
    25
100
AcDbCircle
 10
1215.3331301435
 20
106.1816821152
 30
0.0
 40
0.4499999999999835
100
AcDbArc
 50
300.9010615918
 51
17.5593033646
  0
ARC
  5
10E
330
1F
100
AcDbEntity
  8
0
  6
Continuous
 62
     7
370
    25
100
AcDbCircle
 10
1214.4087272727
 20
107.7261818182
 30
0.0
 40
2.249999999999971
100
AcDbArc
 50
180.9010615918
 51
240.9010615918
  0
ARC
  5
10F
330
1F
100
AcDbEntity
  8
0
  6
Continuous
 62
     7
370
    25
100
AcDbCircle
 10
1212.3423564786
 20
106.4894324096
 30
0.0
 40
0.7874999999999854
100
AcDbArc
 50
344.2428198191
 51
77.5593033646
  0
ARC
  5
110
330
1F
100
AcDbEntity
  8
0
  6
Continuous
 62
     7
370
    25
100
AcDbCircle
 10
1212.6089498584
 20
107.6978753002
 30
0.0
 40
0.4500000000000086
100
AcDbArc
 50
180.9010615918
 51
257.5593033646
  0
ARC
  5
111
330
1F
100
AcDbEntity
  8
0
  6
Continuous
 62
     7
370
    25
100
AcDbCircle
 10
1213.5333527292
 20
106.1533755973
 30
0.0
 40
0.4500000000000934
100
AcDbArc
 50
164.2428198191
 51
240.9010615918
  0
ARC
  5
112
330
1F
100
AcDbEntity
  8
0
  6
Continuous
 62
     7
370
    25
100
AcDbCircle
 10
1214.4087272727
 20
107.7261818182
 30
0.0
 40
2.250000000000034
100
AcDbArc
 50
120.9010615918
 51
180.9010615918
  0
ARC
  5
113
330
1F
100
AcDbEntity
  8
0
  6
Continuous
 62
     7
370
    25
100
AcDbCircle
 10
1213.484324402
 20
109.2706815212
 30
0.0
 40
0.4499999999999835
100
AcDbArc
 50
120.9010615918
 51
197.5593033646
  0
ARC
  5
114
330
1F
100
AcDbEntity
  8
0
  6
Continuous
 62
     7
370
    25
100
AcDbCircle
 10
1212.3044854698
 20
108.8973367152
 30
0.0
 40
0.7874999999999931
100
AcDbArc
 50
284.2428198191
 51
17.5593033646
  0
ARC
  5
115
330
1F
100
AcDbEntity
  8
0
  6
Continuous
 62
     7
370
    25
100
AcDbCircle
 10
1212.6089498584
 20
107.6978753002
 30
0.0
 40
0.4499999999999641
100
AcDbArc
 50
104.242819819
 51
180.9010615918
  0
CIRCLE
  5
116
330
1F
100
AcDbEntity
  8
0
  6
Continuous
 62
     7
370
    25
100
AcDbCircle
 10
1214.4087272727
 20
107.7261818182
 30
0.0
 40
3.850000000000201
  0
ARC
  5
117
330
1F
100
AcDbEntity
  8
0
  6
Continuous
 62
     7
370
    25
100
AcDbCircle
 10
-915.5912727273
 20
107.7261818182
 30
0.0
 40
2.250000000000094
100
AcDbArc
 50
239.0989384082
 51
299.0989384082
  0
ARC
  5
118
330
1F
100
AcDbEntity
  8
0
  6
Continuous
 62
     7
370
    25
100
AcDbCircle
 10
-916.5156755981
 20
106.1816821152
 30
0.0
 40
0.4500000000000876
100
AcDbArc
 50
239.0989384082
 51
315.7571801809
  0
ARC
  5
119
330
1F
100
AcDbEntity
  8
0
  6
Continuous
 62
     7
370
    25
100
AcDbCircle
 10
-915.6291437361
 20
105.3182775126
 30
0.0
 40
0.7875000000000111
100
AcDbArc
 50
42.4406966354
 51
135.7571801809
  0
ARC
  5
11A
330
1F
100
AcDbEntity
  8
0
  6
Continuous
 62
     7
370
    25
100
AcDbCircle
 10
-914.7158981837
 20
106.1533755973
 30
0.0
 40
0.4500000000000716
100
AcDbArc
 50
222.4406966354
 51
299.0989384082
  0
ARC
  5
11B
330
1F
100
AcDbEntity
  8
0
  6
Continuous
 62
     7
370
    25
100
AcDbCircle
 10
-915.5912727273
 20
107.7261818182
 30
0.0
 40
2.250000000000039
100
AcDbArc
 50
119.0989384082
 51
179.0989384082
  0
ARC
  5
11C
330
1F
100
AcDbEntity
  8
0
  6
Continuous
 62
     7
370
    25
100
AcDbCircle
 10
-917.6576435214
 20
108.9629312267
 30
0.0
 40
0.7874999999999854
100
AcDbArc
 50
282.4406966354
 51
15.7571801809
  0
ARC
  5
11D
330
1F
100
AcDbEntity
  8
0
  6
Continuous
 62
     7
370
    25
100
AcDbCircle
 10
-916.4666472708
 20
109.2989880391
 30
0.0
 40
0.4500000000000973
100
AcDbArc
 50
119.0989384082
 51
195.7571801809
  0
ARC
  5
11E
330
1F
100
AcDbEntity
  8
0
  6
Continuous
 62
     7
370
    25
100
AcDbCircle
 10
-917.3910501416
 20
107.7544883361
 30
0.0
 40
0.4499999999999947
100
AcDbArc
 50
102.4406966354
 51
179.0989384082
  0
ARC
  5
11F
330
1F
100
AcDbEntity
  8
0
  6
Continuous
 62
     7
370
    25
100
AcDbCircle
 10
-915.5912727273
 20
107.7261818182
 30
0.0
 40
2.249999999999976
100
AcDbArc
 50
179.0989384082
 51
239.0989384082
  0
ARC
  5
120
330
1F
100
AcDbEntity
  8
0
  6
Continuous
 62
     7
370
    25
100
AcDbCircle
 10
-917.6955145302
 20
106.5550269211
 30
0.0
 40
0.7874999999999931
100
AcDbArc
 50
342.4406966354
 51
75.7571801809
  0
ARC
  5
121
330
1F
100
AcDbEntity
  8
0
  6
Continuous
 62
     7
370
    25
100
AcDbCircle
 10
-916.5156755981
 20
106.1816821152
 30
0.0
 40
0.4499999999999957
100
AcDbArc
 50
162.4406966354
 51
239.0989384082
  0
ARC
  5
122
330
1F
100
AcDbEntity
  8
0
  6
Continuous
 62
     7
370
    25
100
AcDbCircle
 10
-917.3910501416
 20
107.7544883361
 30
0.0
 40
0.4499999999999921
100
AcDbArc
 50
179.0989384082
 51
255.7571801809
  0
ARC
  5
123
330
1F
100
AcDbEntity
  8
0
  6
Continuous
 62
     7
370
    25
100
AcDbCircle
 10
-915.5912727273
 20
107.7261818182
 30
0.0
 40
2.250000000000094
100
AcDbArc
 50
299.0989384082
 51
359.0989384082
  0
ARC
  5
124
330
1F
100
AcDbEntity
  8
0
  6
Continuous
 62
     7
370
    25
100
AcDbCircle
 10
-915.5912727273
 20
107.7261818182
 30
0.0
 40
2.250000000000022
100
AcDbArc
 50
359.0989384082
 51
59.0989384082
  0
ARC
  5
125
330
1F
100
AcDbEntity
  8
0
  6
Continuous
 62
     7
370
    25
100
AcDbCircle
 10
-915.5912727273
 20
107.7261818182
 30
0.0
 40
2.250000000000039
100
AcDbArc
 50
59.0989384082
 51
119.0989384082
  0
CIRCLE
  5
126
330
1F
100
AcDbEntity
  8
0
  6
Continuous
 62
     7
370
    25
100
AcDbCircle
 10
-915.5912727273
 20
107.7261818182
 30
0.0
 40
3.849999999999974
  0
ARC
  5
127
330
1F
100
AcDbEntity
  8
0
  6
Continuous
 62
     7
370
    25
100
AcDbCircle
 10
-914.6668698565
 20
109.2706815212
 30
0.0
 40
0.4499999999999835
100
AcDbArc
 50
342.4406966354
 51
59.0989384082
  0
ARC
  5
128
330
1F
100
AcDbEntity
  8
0
  6
Continuous
 62
     7
370
    25
100
AcDbCircle
 10
-913.4870309243
 20
108.8973367152
 30
0.0
 40
0.7874999999999931
100
AcDbArc
 50
162.4406966354
 51
255.7571801809
  0
ARC
  5
129
330
1F
100
AcDbEntity
  8
0
  6
Continuous
 62
     7
370
    25
100
AcDbCircle
 10
-913.791495313
 20
107.6978753002
 30
0.0
 40
0.4500000000000201
100
AcDbArc
 50
359.0989384082
 51
75.7571801809
  0
ARC
  5
12A
330
1F
100
AcDbEntity
  8
0
  6
Continuous
 62
     7
370
    25
100
AcDbCircle
 10
-914.6668698565
 20
109.2706815212
 30
0.0
 40
0.4500000000000975
100
AcDbArc
 50
59.0989384082
 51
135.7571801809
  0
ARC
  5
12B
330
1F
100
AcDbEntity
  8
0
  6
Continuous
 62
     7
370
    25
100
AcDbCircle
 10
-915.5534017184
 20
110.1340861238
 30
0.0
 40
0.7875000000000207
100
AcDbArc
 50
222.4406966354
 51
315.7571801809
  0
ARC
  5
12C
330
1F
100
AcDbEntity
  8
0
  6
Continuous
 62
     7
370
    25
100
AcDbCircle
 10
-916.4666472708
 20
109.2989880391
 30
0.0
 40
0.4500000000000716
100
AcDbArc
 50
42.4406966354
 51
119.0989384082
  0
ARC
  5
12D
330
1F
100
AcDbEntity
  8
0
  6
Continuous
 62
     7
370
    25
100
AcDbCircle
 10
-914.7158981837
 20
106.1533755973
 30
0.0
 40
0.4500000000000934
100
AcDbArc
 50
299.0989384082
 51
15.7571801809
  0
ARC
  5
12E
330
1F
100
AcDbEntity
  8
0
  6
Continuous
 62
     7
370
    25
100
AcDbCircle
 10
-913.791495313
 20
107.6978753002
 30
0.0
 40
0.4500000000000331
100
AcDbArc
 50
282.4406966354
 51
359.0989384082
  0
ARC
  5
12F
330
1F
100
AcDbEntity
  8
0
  6
Continuous
 62
     7
370
    25
100
AcDbCircle
 10
-913.5249019332
 20
106.4894324096
 30
0.0
 40
0.7874999999999854
100
AcDbArc
 50
102.4406966354
 51
195.7571801809
  0
ARC
  5
130
330
1F
100
AcDbEntity
  8
0
  6
Continuous
 62
     7
370
    25
100
AcDbCircle
 10
-1005.5912727273
 20
122.7261818182
 30
0.0
 40
2.250000000000022
100
AcDbArc
 50
179.0989384082
 51
239.0989384082
  0
ARC
  5
131
330
1F
100
AcDbEntity
  8
0
  6
Continuous
 62
     7
370
    25
100
AcDbCircle
 10
-1005.5912727273
 20
122.7261818182
 30
0.0
 40
2.250000000000039
100
AcDbArc
 50
239.0989384082
 51
299.0989384082
  0
ARC
  5
132
330
1F
100
AcDbEntity
  8
0
  6
Continuous
 62
     7
370
    25
100
AcDbCircle
 10
-1005.5912727273
 20
122.7261818182
 30
0.0
 40
2.250000000000039
100
AcDbArc
 50
299.0989384082
 51
359.0989384082
  0
ARC
  5
133
330
1F
100
AcDbEntity
  8
0
  6
Continuous
 62
     7
370
    25
100
AcDbCircle
 10
-1005.5912727273
 20
122.7261818182
 30
0.0
 40
2.250000000000022
100
AcDbArc
 50
359.0989384082
 51
59.0989384082
  0
ARC
  5
134
330
1F
100
AcDbEntity
  8
0
  6
Continuous
 62
     7
370
    25
100
AcDbCircle
 10
-1005.5912727273
 20
122.7261818182
 30
0.0
 40
2.250000000000106
100
AcDbArc
 50
59.0989384082
 51
119.0989384082
  0
ARC
  5
135
330
1F
100
AcDbEntity
  8
0
  6
Continuous
 62
     7
370
    25
100
AcDbCircle
 10
-1005.5912727273
 20
122.7261818182
 30
0.0
 40
2.250000000000106
100
AcDbArc
 50
119.0989384082
 51
179.0989384082
  0
CIRCLE
  5
136
330
1F
100
AcDbEntity
  8
0
  6
Continuous
 62
     7
370
    25
100
AcDbCircle
 10
-1005.5912727273
 20
122.7261818182
 30
0.0
 40
3.850000000000088
  0
ARC
  5
137
330
1F
100
AcDbEntity
  8
0
  6
Continuous
 62
     7
370
    25
100
AcDbCircle
 10
-1003.791495313
 20
122.6978753002
 30
0.0
 40
0.4500000000000086
100
AcDbArc
 50
282.4406966354
 51
359.0989384082
  0
ARC
  5
138
330
1F
100
AcDbEntity
  8
0
  6
Continuous
 62
     7
370
    25
100
AcDbCircle
 10
-1004.7158981837
 20
121.1533755973
 30
0.0
 40
0.4500000000000973
100
AcDbArc
 50
299.0989384082
 51
15.7571801809
  0
ARC
  5
139
330
1F
100
AcDbEntity
  8
0
  6
Continuous
 62
     7
370
    25
100
AcDbCircle
 10
-1003.5249019332
 20
121.4894324096
 30
0.0
 40
0.7874999999999714
100
AcDbArc
 50
102.4406966354
 51
195.7571801809
  0
ARC
  5
13A
330
1F
100
AcDbEntity
  8
0
  6
Continuous
 62
     7
370
    25
100
AcDbCircle
 10
-1006.4666472708
 20
124.2989880391
 30
0.0
 40
0.4500000000000973
100
AcDbArc
 50
119.0989384082
 51
195.7571801809
  0
ARC
  5
13B
330
1F
100
AcDbEntity
  8
0
  6
Continuous
 62
     7
370
    25
100
AcDbCircle
 10
-1007.6576435214
 20
123.9629312267
 30
0.0
 40
0.7874999999999714
100
AcDbArc
 50
282.4406966354
 51
15.7571801809
  0
ARC
  5
13C
330
1F
100
AcDbEntity
  8
0
  6
Continuous
 62
     7
370
    25
100
AcDbCircle
 10
-1007.3910501416
 20
122.7544883361
 30
0.0
 40
0.4500000000000331
100
AcDbArc
 50
102.4406966354
 51
179.0989384082
  0
ARC
  5
13D
330
1F
100
AcDbEntity
  8
0
  6
Continuous
 62
     7
370
    25
100
AcDbCircle
 10
-1004.6668698565
 20
124.2706815212
 30
0.0
 40
0.4500000000001888
100
AcDbArc
 50
59.0989384082
 51
135.757180181
  0
ARC
  5
13E
330
1F
100
AcDbEntity
  8
0
  6
Continuous
 62
     7
370
    25
100
AcDbCircle
 10
-1005.5534017184
 20
125.1340861238
 30
0.0
 40
0.7875000000000111
100
AcDbArc
 50
222.4406966354
 51
315.7571801809
  0
ARC
  5
13F
330
1F
100
AcDbEntity
  8
0
  6
Continuous
 62
     7
370
    25
100
AcDbCircle
 10
-1006.4666472708
 20
124.2989880391
 30
0.0
 40
0.4500000000000839
100
AcDbArc
 50
42.4406966354
 51
119.0989384082
  0
ARC
  5
140
330
1F
100
AcDbEntity
  8
0
  6
Continuous
 62
     7
370
    25
100
AcDbCircle
 10
-1006.5156755981
 20
121.1816821152
 30
0.0
 40
0.4500000000000876
100
AcDbArc
 50
239.0989384082
 51
315.7571801809
  0
ARC
  5
141
330
1F
100
AcDbEntity
  8
0
  6
Continuous
 62
     7
370
    25
100
AcDbCircle
 10
-1005.6291437361
 20
120.3182775126
 30
0.0
 40
0.7875000000000207
100
AcDbArc
 50
42.4406966354
 51
135.7571801809
  0
ARC
  5
142
330
1F
100
AcDbEntity
  8
0
  6
Continuous
 62
     7
370
    25
100
AcDbCircle
 10
-1004.7158981837
 20
121.1533755973
 30
0.0
 40
0.4500000000000716
100
AcDbArc
 50
222.4406966354
 51
299.0989384082
  0
ARC
  5
143
330
1F
100
AcDbEntity
  8
0
  6
Continuous
 62
     7
370
    25
100
AcDbCircle
 10
-1006.5156755981
 20
121.1816821152
 30
0.0
 40
0.4499999999999835
100
AcDbArc
 50
162.4406966354
 51
239.0989384082
  0
ARC
  5
144
330
1F
100
AcDbEntity
  8
0
  6
Continuous
 62
     7
370
    25
100
AcDbCircle
 10
-1007.6955145302
 20
121.5550269211
 30
0.0
 40
0.7875000000000965
100
AcDbArc
 50
342.4406966354
 51
75.7571801809
  0
ARC
  5
145
330
1F
100
AcDbEntity
  8
0
  6
Continuous
 62
     7
370
    25
100
AcDbCircle
 10
-1007.3910501416
 20
122.7544883361
 30
0.0
 40
0.4500000000000338
100
AcDbArc
 50
179.0989384082
 51
255.7571801809
  0
ARC
  5
146
330
1F
100
AcDbEntity
  8
0
  6
Continuous
 62
     7
370
    25
100
AcDbCircle
 10
-1003.4870309243
 20
123.8973367152
 30
0.0
 40
0.7874999999999931
100
AcDbArc
 50
162.4406966354
 51
255.7571801809
  0
ARC
  5
147
330
1F
100
AcDbEntity
  8
0
  6
Continuous
 62
     7
370
    25
100
AcDbCircle
 10
-1004.6668698565
 20
124.2706815212
 30
0.0
 40
0.4499999999999835
100
AcDbArc
 50
342.4406966354
 51
59.0989384082
  0
ARC
  5
148
330
1F
100
AcDbEntity
  8
0
  6
Continuous
 62
     7
370
    25
100
AcDbCircle
 10
-1003.791495313
 20
122.6978753002
 30
0.0
 40
0.4500000000000058
100
AcDbArc
 50
359.0989384082
 51
75.7571801809
  0
ARC
  5
149
330
1F
100
AcDbEntity
  8
0
  6
Continuous
 62
     7
370
    25
100
AcDbCircle
 10
1304.4087272727
 20
122.7261818182
 30
0.0
 40
2.250000000000034
100
AcDbArc
 50
60.9010615918
 51
120.9010615918
  0
ARC
  5
14A
330
1F
100
AcDbEntity
  8
0
  6
Continuous
 62
     7
370
    25
100
AcDbCircle
 10
1305.2841018163
 20
124.2989880391
 30
0.0
 40
0.4500000000000163
100
AcDbArc
 50
60.9010615918
 51
137.5593033646
  0
ARC
  5
14B
330
1F
100
AcDbEntity
  8
0
  6
Continuous
 62
     7
370
    25
100
AcDbCircle
 10
1304.3708562639
 20
125.1340861238
 30
0.0
 40
0.787500000000095
100
AcDbArc
 50
224.2428198191
 51
317.5593033646
  0
ARC
  5
14C
330
1F
100
AcDbEntity
  8
0
  6
Continuous
 62
     7
370
    25
100
AcDbCircle
 10
1303.484324402
 20
124.2706815212
 30
0.0
 40
0.450000000000016
100
AcDbArc
 50
44.2428198191
 51
120.9010615918
  0
ARC
  5
14D
330
1F
100
AcDbEntity
  8
0
  6
Continuous
 62
     7
370
    25
100
AcDbCircle
 10
1304.4087272727
 20
122.7261818182
 30
0.0
 40
2.249999999999996
100
AcDbArc
 50
0.9010615918
 51
60.9010615918
  0
ARC
  5
14E
330
1F
100
AcDbEntity
  8
0
  6
Continuous
 62
     7
370
    25
100
AcDbCircle
 10
1306.208504687
 20
122.7544883361
 30
0.0
 40
0.4500000000000086
100
AcDbArc
 50
0.9010615918
 51
77.5593033646
  0
ARC
  5
14F
330
1F
100
AcDbEntity
  8
0
  6
Continuous
 62
     7
370
    25
100
AcDbCircle
 10
1306.4750980668
 20
123.9629312267
 30
0.0
 40
0.7874999999999854
100
AcDbArc
 50
164.2428198191
 51
257.5593033646
  0
ARC
  5
150
330
1F
100
AcDbEntity
  8
0
  6
Continuous
 62
     7
370
    25
100
AcDbCircle
 10
1305.2841018163
 20
124.2989880391
 30
0.0
 40
0.4500000000000973
100
AcDbArc
 50
344.2428198191
 51
60.9010615918
  0
ARC
  5
151
330
1F
100
AcDbEntity
  8
0
  6
Continuous
 62
     7
370
    25
100
AcDbCircle
 10
1304.4087272727
 20
122.7261818182
 30
0.0
 40
2.250000000000034
100
AcDbArc
 50
120.9010615918
 51
180.9010615918
  0
ARC
  5
152
330
1F
100
AcDbEntity
  8
0
  6
Continuous
 62
     7
370
    25
100
AcDbCircle
 10
1304.4087272727
 20
122.7261818182
 30
0.0
 40
2.250000000000081
100
AcDbArc
 50
180.9010615918
 51
240.9010615918
  0
ARC
  5
153
330
1F
100
AcDbEntity
  8
0
  6
Continuous
 62
     7
370
    25
100
AcDbCircle
 10
1304.4087272727
 20
122.7261818182
 30
0.0
 40
2.250000000000081
100
AcDbArc
 50
240.9010615918
 51
300.9010615918
  0
ARC
  5
154
330
1F
100
AcDbEntity
  8
0
  6
Continuous
 62
     7
370
    25
100
AcDbCircle
 10
1304.4087272727
 20
122.7261818182
 30
0.0
 40
2.250000000000022
100
AcDbArc
 50
300.9010615918
 51
0.9010615918
  0
CIRCLE
  5
155
330
1F
100
AcDbEntity
  8
0
  6
Continuous
 62
     7
370
    25
100
AcDbCircle
 10
1304.4087272727
 20
122.7261818182
 30
0.0
 40
3.849999999999974
  0
ARC
  5
156
330
1F
100
AcDbEntity
  8
0
  6
Continuous
 62
     7
370
    25
100
AcDbCircle
 10
1303.484324402
 20
124.2706815212
 30
0.0
 40
0.4499999999999835
100
AcDbArc
 50
120.9010615918
 51
197.5593033646
  0
ARC
  5
157
330
1F
100
AcDbEntity
  8
0
  6
Continuous
 62
     7
370
    25
100
AcDbCircle
 10
1302.6089498584
 20
122.6978753002
 30
0.0
 40
0.4500000000000201
100
AcDbArc
 50
104.2428198191
 51
180.9010615918
  0
ARC
  5
158
330
1F
100
AcDbEntity
  8
0
  6
Continuous
 62
     7
370
    25
100
AcDbCircle
 10
1302.3044854698
 20
123.8973367152
 30
0.0
 40
0.7875000000000965
100
AcDbArc
 50
284.2428198191
 51
17.5593033646
  0
ARC
  5
159
330
1F
100
AcDbEntity
  8
0
  6
Continuous
 62
     7
370
    25
100
AcDbCircle
 10
1305.3331301435
 20
121.1816821152
 30
0.0
 40
0.4499999999999957
100
AcDbArc
 50
300.9010615918
 51
17.5593033646
  0
ARC
  5
15A
330
1F
100
AcDbEntity
  8
0
  6
Continuous
 62
     7
370
    25
100
AcDbCircle
 10
1306.5129690757
 20
121.5550269211
 30
0.0
 40
0.7874999999999794
100
AcDbArc
 50
104.2428198191
 51
197.5593033646
  0
ARC
  5
15B
330
1F
100
AcDbEntity
  8
0
  6
Continuous
 62
     7
370
    25
100
AcDbCircle
 10
1306.208504687
 20
122.7544883361
 30
0.0
 40
0.4499999999999779
100
AcDbArc
 50
284.242819819
 51
0.9010615918
  0
ARC
  5
15C
330
1F
100
AcDbEntity
  8
0
  6
Continuous
 62
     7
370
    25
100
AcDbCircle
 10
1303.5333527292
 20
121.1533755973
 30
0.0
 40
0.4500000000001269
100
AcDbArc
 50
240.9010615918
 51
317.5593033646
  0
ARC
  5
15D
330
1F
100
AcDbEntity
  8
0
  6
Continuous
 62
     7
370
    25
100
AcDbCircle
 10
1305.3331301435
 20
121.1816821152
 30
0.0
 40
0.4500000000001888
100
AcDbArc
 50
224.242819819
 51
300.9010615918
  0
ARC
  5
15E
330
1F
100
AcDbEntity
  8
0
  6
Continuous
 62
     7
370
    25
100
AcDbCircle
 10
1304.4465982816
 20
120.3182775126
 30
0.0
 40
0.7874999999999898
100
AcDbArc
 50
44.2428198191
 51
137.5593033646
  0
ARC
  5
15F
330
1F
100
AcDbEntity
  8
0
  6
Continuous
 62
     7
370
    25
100
AcDbCircle
 10
1302.6089498584
 20
122.6978753002
 30
0.0
 40
0.4500000000000437
100
AcDbArc
 50
180.9010615918
 51
257.5593033646
  0
ARC
  5
160
330
1F
100
AcDbEntity
  8
0
  6
Continuous
 62
     7
370
    25
100
AcDbCircle
 10
1302.3423564786
 20
121.4894324096
 30
0.0
 40
0.7874999999999854
100
AcDbArc
 50
344.2428198191
 51
77.5593033646
  0
ARC
  5
161
330
1F
100
AcDbEntity
  8
0
  6
Continuous
 62
     7
370
    25
100
AcDbCircle
 10
1303.5333527292
 20
121.1533755973
 30
0.0
 40
0.4500000000003162
100
AcDbArc
 50
164.2428198191
 51
240.9010615918
  0
LINE
  5
162
330
1F
100
AcDbEntity
  8
0
  6
Continuous
 62
     7
370
    25
100
AcDbLine
 10
124.4087272727
 20
217.7261818182
 30
0.0
 11
174.4087272727
 21
217.7261818182
 31
0.0
  0
LINE
  5
163
330
1F
100
AcDbEntity
  8
0
  6
Continuous
 62
     7
370
    25
100
AcDbLine
 10
124.4087272727
 20
-2.2738181818
 30
0.0
 11
174.4087272727
 21
-2.2738181818
 31
0.0
  0
LINE
  5
164
330
1F
100
AcDbEntity
  8
0
  6
Continuous
 62
     7
370
    25
100
AcDbLine
 10
165.958561708
 20
-2.2738181818
 30
0.0
 11
165.958561708
 21
-10.2738181818
 31
0.0
  0
ARC
  5
165
330
1F
100
AcDbEntity
  8
0
  6
Continuous
 62
     7
370
    25
100
AcDbCircle
 10
158.1338258282
 20
4.0139120145
 30
0.0
 40
16.29004990018983
100
AcDbArc
 50
270.9669362788
 51
298.7075032749
  0
ARC
  5
166
330
1F
100
AcDbEntity
  8
0
  6
Continuous
 62
     7
370
    25
100
AcDbCircle
 10
158.7578158535
 20
4.2939623123
 30
0.0
 40
16.57145779154605
100
AcDbArc
 50
241.5326227461
 51
268.7929377002
  0
LINE
  5
167
330
1F
100
AcDbEntity
  8
0
  6
Continuous
 62
     7
370
    25
100
AcDbLine
 10
150.8588928375
 20
-10.2738181818
 30
0.0
 11
150.8588928375
 21
-2.2738181818
 31
0.0
  0
LINE
  5
168
330
1F
100
AcDbEntity
  8
0
  6
Continuous
 62
     7
370
    25
100
AcDbLine
 10
147.958561708
 20
-2.2738181818
 30
0.0
 11
147.958561708
 21
-10.2738181818
 31
0.0
  0
ARC
  5
169
330
1F
100
AcDbEntity
  8
0
  6
Continuous
 62
     7
370
    25
100
AcDbCircle
 10
140.1338258282
 20
4.0139120144
 30
0.0
 40
16.29004990018502
100
AcDbArc
 50
270.9669362788
 51
298.7075032749
  0
ARC
  5
16A
330
1F
100
AcDbEntity
  8
0
  6
Continuous
 62
     7
370
    25
100
AcDbCircle
 10
140.7578158535
 20
4.2939623122
 30
0.0
 40
16.5714577915417
100
AcDbArc
 50
241.5326227461
 51
268.7929377002
  0
LINE
  5
16B
330
1F
100
AcDbEntity
  8
0
  6
Continuous
 62
     7
370
    25
100
AcDbLine
 10
132.8588928375
 20
-10.2738181818
 30
0.0
 11
132.8588928375
 21
-2.2738181818
 31
0.0
  0
LINE
  5
16C
330
1F
100
AcDbEntity
  8
0
  6
Continuous
 62
     7
370
    25
100
AcDbLine
 10
150.8588928375
 20
-10.2738181818
 30
0.0
 11
147.958561708
 21
-10.2738181818
 31
0.0
  0
LINE
  5
16D
330
1F
100
AcDbEntity
  8
0
  6
Continuous
 62
     7
370
    25
100
AcDbLine
 10
131.4087272727
 20
-10.2738181818
 30
0.0
 11
131.4087272727
 21
-12.2738181818
 31
0.0
  0
LINE
  5
16E
330
1F
100
AcDbEntity
  8
0
  6
Continuous
 62
     7
370
    25
100
AcDbLine
 10
132.8588928375
 20
-10.2738181818
 30
0.0
 11
131.4087272727
 21
-10.2738181818
 31
0.0
  0
LINE
  5
16F
330
1F
100
AcDbEntity
  8
0
  6
Continuous
 62
     7
370
    25
100
AcDbLine
 10
167.4087272727
 20
-10.2738181818
 30
0.0
 11
165.958561708
 21
-10.2738181818
 31
0.0
  0
LINE
  5
170
330
1F
100
AcDbEntity
  8
0
  6
Continuous
 62
     7
370
    25
100
AcDbLine
 10
167.4087272727
 20
-12.2738181818
 30
0.0
 11
167.4087272727
 21
-10.2738181818
 31
0.0
  0
LINE
  5
171
330
1F
100
AcDbEntity
  8
0
  6
Continuous
 62
     7
370
    25
100
AcDbLine
 10
167.4087272727
 20
-10.2738181818
 30
0.0
 11
167.4087272727
 21
-2.2738181818
 31
0.0
  0
LINE
  5
172
330
1F
100
AcDbEntity
  8
0
  6
Continuous
 62
     7
370
    25
100
AcDbLine
 10
131.4087272727
 20
-2.2738181818
 30
0.0
 11
131.4087272727
 21
-10.2738181818
 31
0.0
  0
LINE
  5
173
330
1F
100
AcDbEntity
  8
0
  6
Continuous
 62
     7
370
    25
100
AcDbLine
 10
132.8588928375
 20
217.7261818182
 30
0.0
 11
132.8588928375
 21
225.7261818182
 31
0.0
  0
ARC
  5
174
330
1F
100
AcDbEntity
  8
0
  6
Continuous
 62
     7
370
    25
100
AcDbCircle
 10
140.6836287173
 20
211.4384516219
 30
0.0
 40
16.29004990019057
100
AcDbArc
 50
90.9669362788
 51
118.7075032749
  0
ARC
  5
175
330
1F
100
AcDbEntity
  8
0
  6
Continuous
 62
     7
370
    25
100
AcDbCircle
 10
140.0596386919
 20
211.1584013241
 30
0.0
 40
16.57145779154647
100
AcDbArc
 50
61.5326227461
 51
88.7929377002
  0
LINE
  5
176
330
1F
100
AcDbEntity
  8
0
  6
Continuous
 62
     7
370
    25
100
AcDbLine
 10
147.958561708
 20
225.7261818182
 30
0.0
 11
147.958561708
 21
217.7261818182
 31
0.0
  0
LINE
  5
177
330
1F
100
AcDbEntity
  8
0
  6
Continuous
 62
     7
370
    25
100
AcDbLine
 10
150.8588928375
 20
217.7261818182
 30
0.0
 11
150.8588928375
 21
225.7261818182
 31
0.0
  0
ARC
  5
178
330
1F
100
AcDbEntity
  8
0
  6
Continuous
 62
     7
370
    25
100
AcDbCircle
 10
158.6836287173
 20
211.4384516219
 30
0.0
 40
16.29004990018651
100
AcDbArc
 50
90.9669362788
 51
118.7075032749
  0
ARC
  5
179
330
1F
100
AcDbEntity
  8
0
  6
Continuous
 62
     7
370
    25
100
AcDbCircle
 10
158.059638692
 20
211.1584013241
 30
0.0
 40
16.57145779154191
100
AcDbArc
 50
61.5326227461
 51
88.7929377002
  0
LINE
  5
17A
330
1F
100
AcDbEntity
  8
0
  6
Continuous
 62
     7
370
    25
100
AcDbLine
 10
165.958561708
 20
225.7261818182
 30
0.0
 11
165.958561708
 21
217.7261818182
 31
0.0
  0
LINE
  5
17B
330
1F
100
AcDbEntity
  8
0
  6
Continuous
 62
     7
370
    25
100
AcDbLine
 10
147.958561708
 20
225.7261818182
 30
0.0
 11
150.8588928375
 21
225.7261818182
 31
0.0
  0
LINE
  5
17C
330
1F
100
AcDbEntity
  8
0
  6
Continuous
 62
     7
370
    25
100
AcDbLine
 10
167.4087272727
 20
225.7261818182
 30
0.0
 11
167.4087272727
 21
227.7261818182
 31
0.0
  0
LINE
  5
17D
330
1F
100
AcDbEntity
  8
0
  6
Continuous
 62
     7
370
    25
100
AcDbLine
 10
165.958561708
 20
225.7261818182
 30
0.0
 11
167.4087272727
 21
225.7261818182
 31
0.0
  0
LINE
  5
17E
330
1F
100
AcDbEntity
  8
0
  6
Continuous
 62
     7
370
    25
100
AcDbLine
 10
131.4087272727
 20
225.7261818182
 30
0.0
 11
132.8588928375
 21
225.7261818182
 31
0.0
  0
LINE
  5
17F
330
1F
100
AcDbEntity
  8
0
  6
Continuous
 62
     7
370
    25
100
AcDbLine
 10
131.4087272727
 20
227.7261818182
 30
0.0
 11
131.4087272727
 21
225.7261818182
 31
0.0
  0
LINE
  5
180
330
1F
100
AcDbEntity
  8
0
  6
Continuous
 62
     7
370
    25
100
AcDbLine
 10
131.4087272727
 20
225.7261818182
 30
0.0
 11
131.4087272727
 21
217.7261818182
 31
0.0
  0
LINE
  5
181
330
1F
100
AcDbEntity
  8
0
  6
Continuous
 62
     7
370
    25
100
AcDbLine
 10
167.4087272727
 20
217.7261818182
 30
0.0
 11
167.4087272727
 21
225.7261818182
 31
0.0
  0
ARC
  5
182
330
1F
100
AcDbEntity
  8
0
  6
Continuous
 62
     7
370
    25
100
AcDbCircle
 10
1298.9094189715
 20
161.7243861586
 30
0.0
 40
63.47444413198338
100
AcDbArc
 50
67.7246621443
 51
140.422626138
  0
LWPOLYLINE
  5
183
330
1F
100
AcDbEntity
  8
0
  6
Continuous
 62
     7
370
    25
100
AcDbPolyline
 90
        7
 70
   128
 43
0.0
 10
1322.9699072727
 20
220.4619206708
 10
1322.9013177366
 20
220.3073841695
 10
1322.7033173156
 20
219.8612320634
 10
1322.3982361197
 20
219.1736634927
 10
1322.0203935872
 20
218.3218820801
 10
1321.7709259396
 20
217.7593570386
 10
1321.7527991839
 20
217.7184784679
  0
ARC
  5
184
330
1F
100
AcDbEntity
  8
0
  6
Continuous
 62
     7
370
    25
100
AcDbCircle
 10
1298.9094189715
 20
161.7243861586
 30
0.0
 40
60.47444413198319
100
AcDbArc
 50
67.8064786741
 51
140.4360199895
  0
LWPOLYLINE
  5
185
330
1F
100
AcDbEntity
  8
0
  6
Continuous
 62
     7
370
    25
100
AcDbPolyline
 90
        7
 70
   128
 43
0.0
 10
1249.9855452727
 20
202.1652026708
 10
1250.1153732701
 20
202.0568341032
 10
1250.490225035
 20
201.7439540026
 10
1251.0678559691
 20
201.2618537753
 10
1251.7831672475
 20
200.6649025572
 10
1252.203507884
 20
200.3141450966
 10
1252.2888343435
 20
200.2429463863
  0
ARC
  5
186
330
1F
100
AcDbEntity
  8
0
  6
Continuous
 62
     7
370
    25
100
AcDbCircle
 10
1298.9094196509
 20
53.7279776829
 30
0.0
 40
60.47444433711906
100
AcDbArc
 50
219.5639792539
 51
292.1935205693
  0
LWPOLYLINE
  5
187
330
1F
100
AcDbEntity
  8
0
  6
Continuous
 62
     7
370
    25
100
AcDbPolyline
 90
        7
 70
   128
 43
0.0
 10
1322.9699072727
 20
-5.0095573292
 10
1322.9013177376
 20
-4.8550208276
 10
1322.7033173195
 20
-4.4088687202
 10
1322.3982361281
 20
-3.7213001476
 10
1322.020393601
 20
-2.8695187326
 10
1321.7709259548
 20
-2.3069936843
 10
1321.7527992015
 20
-2.2661151179
  0
ARC
  5
188
330
1F
100
AcDbEntity
  8
0
  6
Continuous
 62
     7
370
    25
100
AcDbCircle
 10
1298.9094196509
 20
53.7279776829
 30
0.0
 40
63.47444433711917
100
AcDbArc
 50
219.5773731234
 51
292.2753371171
  0
LWPOLYLINE
  5
189
330
1F
100
AcDbEntity
  8
0
  6
Continuous
 62
     7
370
    25
100
AcDbPolyline
 90
        7
 70
   128
 43
0.0
 10
1252.2888343562
 20
15.2094179402
 10
1252.2035079535
 20
15.1382192782
 10
1251.7831672573
 20
14.7874617725
 10
1251.067855975
 20
14.1905105592
 10
1250.4902250377
 20
13.7084103356
 10
1250.1153732708
 20
13.3955302375
 10
1249.9855452727
 20
13.2871616708
  0
ARC
  5
18A
330
1F
100
AcDbEntity
  8
0
  6
Continuous
 62
     7
370
    25
100
AcDbCircle
 10
1154.4087632398
 20
282.72612007
 30
0.0
 40
124.9999307039029
100
AcDbArc
 50
277.9281298636
 51
319.8727244278
  0
ARC
  5
18B
330
1F
100
AcDbEntity
  8
0
  6
Continuous
 62
     7
370
    25
100
AcDbCircle
 10
1154.4087632398
 20
282.72612007
 30
0.0
 40
127.9999307039029
100
AcDbArc
 50
277.928130342
 51
319.8792848399
  0
LINE
  5
18C
330
1F
100
AcDbEntity
  8
0
  6
Continuous
 62
     7
370
    25
100
AcDbLine
 10
1171.6501072727
 20
158.9209556708
 30
0.0
 11
1172.0639008176
 21
155.9496302254
 31
0.0
  0
ARC
  5
18D
330
1F
100
AcDbEntity
  8
0
  6
Continuous
 62
     7
370
    25
100
AcDbCircle
 10
1154.4087632398
 20
-67.2737557285
 30
0.0
 40
127.9999307039032
100
AcDbArc
 50
40.1207151513
 51
82.0718701364
  0
ARC
  5
18E
330
1F
100
AcDbEntity
  8
0
  6
Continuous
 62
     7
370
    25
100
AcDbCircle
 10
1154.4087632398
 20
-67.2737557285
 30
0.0
 40
124.999930703903
100
AcDbArc
 50
40.1272755722
 51
82.0718701364
  0
LINE
  5
18F
330
1F
100
AcDbEntity
  8
0
  6
Continuous
 62
     7
370
    25
100
AcDbLine
 10
1172.0638997589
 20
59.5027342635
 30
0.0
 11
1171.6501072727
 21
56.5314086708
 31
0.0
  0
ARC
  5
190
330
1F
100
AcDbEntity
  8
0
  6
Continuous
 62
     7
370
    25
100
AcDbCircle
 10
1268.9731391454
 20
107.7261816708
 30
0.0
 40
124.9999912642761
100
AcDbArc
 50
295.5929116477
 51
64.4070883523
  0
ARC
  5
191
330
1F
100
AcDbEntity
  8
0
  6
Continuous
 62
     7
370
    25
100
AcDbCircle
 10
1268.9731391454
 20
107.7261816708
 30
0.0
 40
121.9999912642761
100
AcDbArc
 50
295.6339596125
 51
64.3660403967
  0
ARC
  5
192
330
1F
100
AcDbEntity
  8
0
  6
Continuous
 62
     7
370
    25
100
AcDbCircle
 10
1174.408731486
 20
76.3402491462
 30
0.0
 40
17.00000421330671
100
AcDbArc
 50
180.0000099564
 51
262.0718461204
  0
LINE
  5
193
330
1F
100
AcDbEntity
  8
0
  6
Continuous
 62
     7
370
    25
100
AcDbLine
 10
1157.4087272727
 20
139.1121186708
 30
0.0
 11
1157.4087272727
 21
76.3402461921
 31
0.0
  0
ARC
  5
194
330
1F
100
AcDbEntity
  8
0
  6
Continuous
 62
     7
370
    25
100
AcDbCircle
 10
1174.408731486
 20
139.1121151953
 30
0.0
 40
17.00000421330664
100
AcDbArc
 50
97.9281502772
 51
179.9999882865
  0
ARC
  5
195
330
1F
100
AcDbEntity
  8
0
  6
Continuous
 62
     7
370
    25
100
AcDbCircle
 10
1174.408731486
 20
76.3402491462
 30
0.0
 40
20.00000421330672
100
AcDbArc
 50
180.0000099564
 51
262.0718497228
  0
LINE
  5
196
330
1F
100
AcDbEntity
  8
0
  6
Continuous
 62
     7
370
    25
100
AcDbLine
 10
1157.4087272727
 20
76.3402461921
 30
0.0
 11
1154.4087272727
 21
76.3402456708
 31
0.0
  0
LINE
  5
197
330
1F
100
AcDbEntity
  8
0
  6
Continuous
 62
     7
370
    25
100
AcDbLine
 10
1157.4087272727
 20
139.1121186708
 30
0.0
 11
1154.4087272727
 21
139.1121186708
 31
0.0
  0
ARC
  5
198
330
1F
100
AcDbEntity
  8
0
  6
Continuous
 62
     7
370
    25
100
AcDbCircle
 10
1174.408731486
 20
139.1121151953
 30
0.0
 40
20.00000421330668
100
AcDbArc
 50
97.9281502772
 51
179.9999900436
  0
LINE
  5
199
330
1F
100
AcDbEntity
  8
0
  6
Continuous
 62
     7
370
    25
100
AcDbLine
 10
1154.4087272727
 20
76.3402456708
 30
0.0
 11
1154.4087272727
 21
139.1121186708
 31
0.0
  0
ARC
  5
19A
330
1F
100
AcDbEntity
  8
0
  6
Continuous
 62
     7
370
    25
100
AcDbCircle
 10
-855.5913086943
 20
-67.2737564336
 30
0.0
 40
124.9999307039029
100
AcDbArc
 50
97.9281298636
 51
139.8727244278
  0
LWPOLYLINE
  5
19B
330
1F
100
AcDbEntity
  8
0
  6
Continuous
 62
     7
370
    25
100
AcDbPolyline
 90
        7
 70
   128
 43
0.0
 10
-951.1680907273
 20
13.2871609656
 10
-951.2979187247
 20
13.3955295332
 10
-951.6727704896
 20
13.7084096338
 10
-952.2504014236
 20
14.1905098611
 10
-952.965712702
 20
14.7874610792
 10
-953.3860533385
 20
15.1382185398
 10
-953.471379798
 20
15.2094172501
  0
ARC
  5
19C
330
1F
100
AcDbEntity
  8
0
  6
Continuous
 62
     7
370
    25
100
AcDbCircle
 10
-855.5913086943
 20
-67.2737564336
 30
0.0
 40
127.9999307039029
100
AcDbArc
 50
97.928130342
 51
139.8792848399
  0
LINE
  5
19D
330
1F
100
AcDbEntity
  8
0
  6
Continuous
 62
     7
370
    25
100
AcDbLine
 10
-872.8326527273
 20
56.5314079656
 30
0.0
 11
-873.2464462721
 21
59.502733411
 31
0.0
  0
ARC
  5
19E
330
1F
100
AcDbEntity
  8
0
  6
Continuous
 62
     7
370
    25
100
AcDbCircle
 10
-1000.091964426
 20
53.7279774778
 30
0.0
 40
63.47444413198319
100
AcDbArc
 50
247.7246621443
 51
320.422626138
  0
LWPOLYLINE
  5
19F
330
1F
100
AcDbEntity
  8
0
  6
Continuous
 62
     7
370
    25
100
AcDbPolyline
 90
        7
 70
   128
 43
0.0
 10
-1024.1524527273
 20
-5.0095570344
 10
-1024.0838631912
 20
-4.8550205331
 10
-1023.8858627702
 20
-4.408868427
 10
-1023.5807815742
 20
-3.7212998563
 10
-1023.2029390417
 20
-2.8695184438
 10
-1022.9534713941
 20
-2.3069934022
 10
-1022.9353446385
 20
-2.2661148315
  0
ARC
  5
1A0
330
1F
100
AcDbEntity
  8
0
  6
Continuous
 62
     7
370
    25
100
AcDbCircle
 10
-1000.091964426
 20
53.7279774778
 30
0.0
 40
60.47444413198321
100
AcDbArc
 50
247.8064786741
 51
320.4360199895
  0
ARC
  5
1A1
330
1F
100
AcDbEntity
  8
0
  6
Continuous
 62
     7
370
    25
100
AcDbCircle
 10
-855.5913086943
 20
282.7261193648
 30
0.0
 40
127.9999307039032
100
AcDbArc
 50
220.1207151513
 51
262.0718701364
  0
LWPOLYLINE
  5
1A2
330
1F
100
AcDbEntity
  8
0
  6
Continuous
 62
     7
370
    25
100
AcDbPolyline
 90
        7
 70
   128
 43
0.0
 10
-953.4713798107
 20
200.2429456962
 10
-953.386053408
 20
200.3141443581
 10
-952.9657127118
 20
200.6649018638
 10
-952.2504014295
 20
201.2618530772
 10
-951.6727704923
 20
201.7439533007
 10
-951.2979187254
 20
202.0568333989
 10
-951.1680907273
 20
202.1652019656
  0
ARC
  5
1A3
330
1F
100
AcDbEntity
  8
0
  6
Continuous
 62
     7
370
    25
100
AcDbCircle
 10
-855.5913086943
 20
282.7261193648
 30
0.0
 40
124.9999307039029
100
AcDbArc
 50
220.1272755722
 51
262.0718701364
  0
LINE
  5
1A4
330
1F
100
AcDbEntity
  8
0
  6
Continuous
 62
     7
370
    25
100
AcDbLine
 10
-873.2464452135
 20
155.9496293728
 30
0.0
 11
-872.8326527273
 21
158.9209549656
 31
0.0
  0
ARC
  5
1A5
330
1F
100
AcDbEntity
  8
0
  6
Continuous
 62
     7
370
    25
100
AcDbCircle
 10
-1000.0919651055
 20
161.7243859534
 30
0.0
 40
60.47444433711897
100
AcDbArc
 50
39.5639792539
 51
112.1935205693
  0
LWPOLYLINE
  5
1A6
330
1F
100
AcDbEntity
  8
0
  6
Continuous
 62
     7
370
    25
100
AcDbPolyline
 90
        7
 70
   128
 43
0.0
 10
-1024.1524527273
 20
220.4619209656
 10
-1024.0838631922
 20
220.3073844639
 10
-1023.8858627741
 20
219.8612323566
 10
-1023.5807815826
 20
219.173663784
 10
-1023.2029390556
 20
218.3218823689
 10
-1022.9534714094
 20
217.7593573206
 10
-1022.935344656
 20
217.7184787543
  0
ARC
  5
1A7
330
1F
100
AcDbEntity
  8
0
  6
Continuous
 62
     7
370
    25
100
AcDbCircle
 10
-1000.0919651055
 20
161.7243859534
 30
0.0
 40
63.47444433711905
100
AcDbArc
 50
39.5773731234
 51
112.2753371171
  0
ARC
  5
1A8
330
1F
100
AcDbEntity
  8
0
  6
Continuous
 62
     7
370
    25
100
AcDbCircle
 10
-970.1556846
 20
107.7261819656
 30
0.0
 40
124.9999912642761
100
AcDbArc
 50
115.5929116477
 51
244.4070883523
  0
ARC
  5
1A9
330
1F
100
AcDbEntity
  8
0
  6
Continuous
 62
     7
370
    25
100
AcDbCircle
 10
-970.1556846
 20
107.7261819656
 30
0.0
 40
121.9999912642761
100
AcDbArc
 50
115.6339596125
 51
244.3660403967
  0
ARC
  5
1AA
330
1F
100
AcDbEntity
  8
0
  6
Continuous
 62
     7
370
    25
100
AcDbCircle
 10
-875.5912769406
 20
76.3402484411
 30
0.0
 40
17.00000421330687
100
AcDbArc
 50
277.9281502772
 51
359.9999882865
  0
LINE
  5
1AB
330
1F
100
AcDbEntity
  8
0
  6
Continuous
 62
     7
370
    25
100
AcDbLine
 10
-858.5912727273
 20
76.3402449656
 30
0.0
 11
-855.5912727273
 21
76.3402449656
 31
0.0
  0
ARC
  5
1AC
330
1F
100
AcDbEntity
  8
0
  6
Continuous
 62
     7
370
    25
100
AcDbCircle
 10
-875.5912769406
 20
76.3402484411
 30
0.0
 40
20.00000421330671
100
AcDbArc
 50
277.9281502772
 51
359.9999900436
  0
LINE
  5
1AD
330
1F
100
AcDbEntity
  8
0
  6
Continuous
 62
     7
370
    25
100
AcDbLine
 10
-858.5912727273
 20
76.3402449656
 30
0.0
 11
-858.5912727273
 21
139.1121174443
 31
0.0
  0
LINE
  5
1AE
330
1F
100
AcDbEntity
  8
0
  6
Continuous
 62
     7
370
    25
100
AcDbLine
 10
-858.5912727273
 20
139.1121174443
 30
0.0
 11
-855.5912727273
 21
139.1121179656
 31
0.0
  0
LINE
  5
1AF
330
1F
100
AcDbEntity
  8
0
  6
Continuous
 62
     7
370
    25
100
AcDbLine
 10
-855.5912727273
 20
139.1121179656
 30
0.0
 11
-855.5912727273
 21
76.3402449656
 31
0.0
  0
ARC
  5
1B0
330
1F
100
AcDbEntity
  8
0
  6
Continuous
 62
     7
370
    25
100
AcDbCircle
 10
-875.5912769406
 20
139.1121144902
 30
0.0
 40
17.00000421330677
100
AcDbArc
 50
0.0000099564
 51
82.0718461204
  0
ARC
  5
1B1
330
1F
100
AcDbEntity
  8
0
  6
Continuous
 62
     7
370
    25
100
AcDbCircle
 10
-875.5912769406
 20
139.1121144902
 30
0.0
 40
20.00000421330673
100
AcDbArc
 50
0.0000099564
 51
82.0718497228
  0
LINE
  5
1B2
330
1F
100
AcDbEntity
  8
0
  6
Continuous
 62
     7
370
    25
100
AcDbLine
 10
1156.3588554546
 20
147.7261818182
 30
0.0
 11
1067.8587272727
 21
147.7261818182
 31
0.0
  0
LINE
  5
1B3
330
1F
100
AcDbEntity
  8
0
  6
Continuous
 62
     7
370
    25
100
AcDbLine
 10
1040.9587272727
 20
147.7261818182
 30
0.0
 11
-742.1412727273
 21
147.7261818182
 31
0.0
  0
LINE
  5
1B4
330
1F
100
AcDbEntity
  8
0
  6
Continuous
 62
     7
370
    25
100
AcDbLine
 10
-769.0412727273
 20
147.7261818182
 30
0.0
 11
-857.5414012457
 21
147.7261818182
 31
0.0
  0
LINE
  5
1B5
330
1F
100
AcDbEntity
  8
0
  6
Continuous
 62
     7
370
    25
100
AcDbLine
 10
1156.3588557912
 20
67.7261818182
 30
0.0
 11
1067.8587272727
 21
67.7261818182
 31
0.0
  0
LINE
  5
1B6
330
1F
100
AcDbEntity
  8
0
  6
Continuous
 62
     7
370
    25
100
AcDbLine
 10
1040.9587272727
 20
67.7261818182
 30
0.0
 11
-742.1412727273
 21
67.7261818182
 31
0.0
  0
LINE
  5
1B7
330
1F
100
AcDbEntity
  8
0
  6
Continuous
 62
     7
370
    25
100
AcDbLine
 10
-769.0412727273
 20
67.7261818182
 30
0.0
 11
-857.5414009092
 21
67.7261818182
 31
0.0
  0
LWPOLYLINE
  5
1B8
330
1F
100
AcDbEntity
  8
0
  6
Continuous
 62
     7
370
    25
100
AcDbPolyline
 90
       23
 70
   128
 43
0.0
 10
1067.8132800308
 20
29.1290960363
 10
1067.8587272727
 20
28.1579858391
 10
1067.7939618465
 20
26.7740874302
 10
1067.6002892942
 20
25.4035167196
 10
1067.2795747883
 20
24.0594730523
 10
1066.834906985
 20
22.7549003037
 10
1065.5919935582
 20
20.3139214348
 10
1063.9193134797
 20
18.174385562
 10
1061.8811469069
 20
16.418513849
 10
1059.555819438
 20
15.1137834609
 10
1057.0326921039
 20
14.310334455
 10
1054.4087272727
 20
14.0390429259
 10
1051.7847624416
 20
14.310334455
 10
1049.2616351074
 20
15.1137834609
 10
1046.9363076386
 20
16.418513849
 10
1044.8981410658
 20
18.174385562
 10
1043.2254609873
 20
20.3139214348
 10
1041.9825475605
 20
22.7549003037
 10
1041.5378797571
 20
24.0594730523
 10
1041.2171652513
 20
25.4035167196
 10
1041.023492699
 20
26.7740874302
 10
1040.9587272727
 20
28.1579858391
 10
1040.9874251021
 20
28.7711969724
  0
ARC
  5
1B9
330
1F
100
AcDbEntity
  8
0
  6
Continuous
 62
     7
370
    25
100
AcDbCircle
 10
-756.0319849775
 20
187.4313523132
 30
0.0
 40
13.88686323631845
100
AcDbArc
 50
357.5966909616
 51
88.181360897
  0
ARC
  5
1BA
330
1F
100
AcDbEntity
  8
0
  6
Continuous
 62
     7
370
    25
100
AcDbCircle
 10
-755.1981272263
 20
187.4670138565
 30
0.0
 40
13.8497878445462
100
AcDbArc
 50
91.6266389366
 51
184.7374708608
  0
LWPOLYLINE
  5
1BB
330
1F
100
AcDbEntity
  8
0
  6
Continuous
 62
     7
370
    25
100
AcDbPolyline
 90
       23
 70
   128
 43
0.0
 10
1040.9923058143
 20
186.4747745985
 10
1040.9587272727
 20
187.1922760938
 10
1041.023492699
 20
188.5761745026
 10
1041.2171652513
 20
189.9467452133
 10
1041.5378797571
 20
191.2907888805
 10
1041.9825475605
 20
192.5953616292
 10
1043.2254609873
 20
195.036340498
 10
1044.8981410658
 20
197.1758763709
 10
1046.9363076386
 20
198.9317480839
 10
1049.2616351074
 20
200.2364784719
 10
1051.7847624416
 20
201.0399274779
 10
1054.4087272727
 20
201.3112190069
 10
1057.0326921039
 20
201.0399274779
 10
1059.555819438
 20
200.2364784719
 10
1061.8811469069
 20
198.9317480839
 10
1063.9193134797
 20
197.1758763709
 10
1065.5919935582
 20
195.036340498
 10
1066.834906985
 20
192.5953616292
 10
1067.2795747883
 20
191.2907888805
 10
1067.6002892942
 20
189.9467452133
 10
1067.7939618465
 20
188.5761745026
 10
1067.8587272727
 20
187.1922760938
 10
1067.8426635618
 20
186.8490290054
  0
LWPOLYLINE
  5
1BC
330
1F
100
AcDbEntity
  8
0
  6
Continuous
 62
     7
370
    25
100
AcDbPolyline
 90
       23
 70
   128
 43
0.0
 10
-742.1867199692
 20
29.1290960363
 10
-742.1412727273
 20
28.1579858391
 10
-742.2060381535
 20
26.7740874302
 10
-742.3997107058
 20
25.4035167196
 10
-742.7204252117
 20
24.0594730523
 10
-743.165093015
 20
22.7549003037
 10
-744.4080064418
 20
20.3139214348
 10
-746.0806865203
 20
18.174385562
 10
-748.1188530931
 20
16.418513849
 10
-750.444180562
 20
15.1137834609
 10
-752.9673078961
 20
14.310334455
 10
-755.5912727273
 20
14.0390429259
 10
-758.2152375584
 20
14.310334455
 10
-760.7383648926
 20
15.1137834609
 10
-763.0636923614
 20
16.418513849
 10
-765.1018589342
 20
18.174385562
 10
-766.7745390127
 20
20.3139214348
 10
-768.0174524395
 20
22.7549003037
 10
-768.4621202429
 20
24.0594730523
 10
-768.7828347487
 20
25.4035167196
 10
-768.976507301
 20
26.7740874302
 10
-769.0412727273
 20
28.1579858391
 10
-769.0125748979
 20
28.7711969724
  0
LWPOLYLINE
  5
1BD
330
1F
100
AcDbEntity
  8
0
  6
Continuous
 62
     7
370
    25
100
AcDbPolyline
 90
       18
 70
   128
 43
0.0
 10
1040.9587401623
 20
158.7262295291
 10
1041.214456654
 20
158.7323828203
 10
1041.988949619
 20
158.7375449158
 10
1043.2109205862
 20
158.7416172333
 10
1044.912888128
 20
158.744908832
 10
1046.9255472002
 20
158.747292866
 10
1049.2840452322
 20
158.74900453
 10
1051.7952878101
 20
158.7499692701
 10
1054.4324783399
 20
158.7503072442
 10
1057.0678986245
 20
158.7499576713
 10
1059.5754075986
 20
158.7489816729
 10
1061.9270826724
 20
158.7472599784
 10
1063.9323300208
 20
158.7448669534
 10
1065.6266956348
 20
158.7415665101
 10
1066.8414886015
 20
158.7374856287
 10
1067.6099217847
 20
158.7323059486
 10
1067.8587128621
 20
158.7261313091
 10
1067.8501196062
 20
158.72578408
  0
ARC
  5
1BE
330
1F
100
AcDbEntity
  8
0
  6
Continuous
 62
     7
370
    25
100
AcDbCircle
 10
1054.4081004975
 20
186.7135772727
 30
0.0
 40
13.44936808501348
100
AcDbArc
 50
359.9168225712
 51
179.9463032494
  0
LINE
  5
1BF
330
1F
100
AcDbEntity
  8
0
  6
Continuous
 62
     7
370
    25
100
AcDbLine
 10
1066.8576956527
 20
157.7261818182
 30
0.0
 11
1041.958739204
 21
157.7261818182
 31
0.0
  0
LINE
  5
1C0
330
1F
100
AcDbEntity
  8
0
  6
Continuous
 62
     7
370
    25
100
AcDbLine
 10
1041.9597588927
 20
57.7261818182
 30
0.0
 11
1066.8587153415
 21
57.7261818182
 31
0.0
  0
LWPOLYLINE
  5
1C1
330
1F
100
AcDbEntity
  8
0
  6
Continuous
 62
     7
370
    25
100
AcDbPolyline
 90
       18
 70
   128
 43
0.0
 10
1067.8587143831
 20
56.7261341073
 10
1067.6029978915
 20
56.7199808161
 10
1066.8285049265
 20
56.7148187205
 10
1065.6065339593
 20
56.710746403
 10
1063.9045664175
 20
56.7074548044
 10
1061.8919073453
 20
56.7050707704
 10
1059.5334093133
 20
56.7033591063
 10
1057.0221667354
 20
56.7023943663
 10
1054.3849762055
 20
56.7020563921
 10
1051.749555921
 20
56.702405965
 10
1049.2420469469
 20
56.7033819635
 10
1046.8903718731
 20
56.705103658
 10
1044.8851245247
 20
56.707496683
 10
1043.1907589107
 20
56.7107971263
 10
1041.975965944
 20
56.7148780077
 10
1041.2075327607
 20
56.7200576878
 10
1040.9587416833
 20
56.7262323273
 10
1040.9597637171
 20
56.7262736248
  0
ARC
  5
1C2
330
1F
100
AcDbEntity
  8
0
  6
Continuous
 62
     7
370
    25
100
AcDbCircle
 10
1054.409354048
 20
28.7387863636
 30
0.0
 40
13.44936808501371
100
AcDbArc
 50
179.9168225712
 51
359.9463032494
  0
LINE
  5
1C3
330
1F
100
AcDbEntity
  8
0
  6
Continuous
 62
     7
370
    25
100
AcDbLine
 10
-768.0402411073
 20
57.7261818182
 30
0.0
 11
-743.1412846585
 21
57.7261818182
 31
0.0
  0
LWPOLYLINE
  5
1C4
330
1F
100
AcDbEntity
  8
0
  6
Continuous
 62
     7
370
    25
100
AcDbPolyline
 90
       18
 70
   128
 43
0.0
 10
-742.1412856169
 20
56.7261341073
 10
-742.3970021085
 20
56.7199808161
 10
-743.1714950735
 20
56.7148187205
 10
-744.3934660407
 20
56.710746403
 10
-746.0954335825
 20
56.7074548044
 10
-748.1080926547
 20
56.7050707704
 10
-750.4665906867
 20
56.7033591063
 10
-752.9778332646
 20
56.7023943663
 10
-755.6150237945
 20
56.7020563921
 10
-758.250444079
 20
56.702405965
 10
-760.7579530531
 20
56.7033819635
 10
-763.1096281269
 20
56.705103658
 10
-765.1148754753
 20
56.707496683
 10
-766.8092410893
 20
56.7107971263
 10
-768.024034056
 20
56.7148780077
 10
-768.7924672393
 20
56.7200576878
 10
-769.0412583167
 20
56.7262323273
 10
-769.0402362829
 20
56.7262736248
  0
ARC
  5
1C5
330
1F
100
AcDbEntity
  8
0
  6
Continuous
 62
     7
370
    25
100
AcDbCircle
 10
-755.590645952
 20
28.7387863636
 30
0.0
 40
13.44936808501349
100
AcDbArc
 50
179.9168225712
 51
359.9463032494
  0
LWPOLYLINE
  5
1C6
330
1F
100
AcDbEntity
  8
0
  6
Continuous
 62
     7
370
    25
100
AcDbPolyline
 90
       18
 70
   128
 43
0.0
 10
-769.0412598377
 20
158.7262295291
 10
-768.785543346
 20
158.7323828203
 10
-768.011050381
 20
158.7375449158
 10
-766.7890794138
 20
158.7416172333
 10
-765.087111872
 20
158.744908832
 10
-763.0744527998
 20
158.747292866
 10
-760.7159547678
 20
158.74900453
 10
-758.2047121899
 20
158.7499692701
 10
-755.5675216601
 20
158.7503072442
 10
-752.9321013755
 20
158.7499576713
 10
-750.4245924014
 20
158.7489816729
 10
-748.0729173276
 20
158.7472599784
 10
-746.0676699792
 20
158.7448669534
 10
-744.3733043652
 20
158.7415665101
 10
-743.1585113985
 20
158.7374856287
 10
-742.3900782153
 20
158.7323059486
 10
-742.1412871379
 20
158.7261313091
 10
-742.1498803938
 20
158.72578408
  0
ARC
  5
1C7
330
1F
100
AcDbEntity
  8
0
  6
Continuous
 62
     7
370
    25
100
AcDbCircle
 10
-755.5918995025
 20
186.7135772727
 30
0.0
 40
13.44936808501349
100
AcDbArc
 50
359.9168225712
 51
179.9463032494
  0
LINE
  5
1C8
330
1F
100
AcDbEntity
  8
0
  6
Continuous
 62
     7
370
    25
100
AcDbLine
 10
-743.1423043473
 20
157.7261818182
 30
0.0
 11
-768.041260796
 21
157.7261818182
 31
0.0
  0
LINE
  5
1C9
330
1F
100
AcDbEntity
  8
0
  6
Continuous
 62
     7
370
    25
100
AcDbLine
 10
-769.0412727273
 20
157.7261818182
 30
0.0
 11
-742.1412727273
 21
157.7261818182
 31
0.0
  0
LINE
  5
1CA
330
1F
100
AcDbEntity
  8
0
  6
Continuous
 62
     7
370
    25
100
AcDbLine
 10
-769.0412727273
 20
57.7261818182
 30
0.0
 11
-742.1412727273
 21
57.7261818182
 31
0.0
  0
LINE
  5
1CB
330
1F
100
AcDbEntity
  8
0
  6
Continuous
 62
     7
370
    25
100
AcDbLine
 10
1067.8587272727
 20
157.7261818182
 30
0.0
 11
1040.9587272727
 21
157.7261818182
 31
0.0
  0
LINE
  5
1CC
330
1F
100
AcDbEntity
  8
0
  6
Continuous
 62
     7
370
    25
100
AcDbLine
 10
1067.8587272727
 20
57.7261818182
 30
0.0
 11
1040.9587272727
 21
57.7261818182
 31
0.0
  0
LINE
  5
1CD
330
1F
100
AcDbEntity
  8
0
  6
Continuous
 62
     7
370
    25
100
AcDbLine
 10
1154.9482443973
 20
143.7261818182
 30
0.0
 11
1067.8587272727
 21
143.7261818182
 31
0.0
  0
LINE
  5
1CE
330
1F
100
AcDbEntity
  8
0
  6
Continuous
 62
     7
370
    25
100
AcDbLine
 10
1040.9587272727
 20
143.7261818182
 30
0.0
 11
-742.1412727273
 21
143.7261818182
 31
0.0
  0
LINE
  5
1CF
330
1F
100
AcDbEntity
  8
0
  6
Continuous
 62
     7
370
    25
100
AcDbLine
 10
-769.0412727273
 20
143.7261818182
 30
0.0
 11
-856.130790019
 21
143.7261818182
 31
0.0
  0
LINE
  5
1D0
330
1F
100
AcDbEntity
  8
0
  6
Continuous
 62
     7
370
    25
100
AcDbLine
 10
1154.9482445645
 20
71.7261818182
 30
0.0
 11
1067.8587272727
 21
71.7261818182
 31
0.0
  0
LINE
  5
1D1
330
1F
100
AcDbEntity
  8
0
  6
Continuous
 62
     7
370
    25
100
AcDbLine
 10
1040.9587272727
 20
71.7261818182
 30
0.0
 11
-742.1412727273
 21
71.7261818182
 31
0.0
  0
LINE
  5
1D2
330
1F
100
AcDbEntity
  8
0
  6
Continuous
 62
     7
370
    25
100
AcDbLine
 10
-769.0412727273
 20
71.7261818182
 30
0.0
 11
-856.1307898518
 21
71.7261818182
 31
0.0
  0
ENDSEC
  0
SECTION
  2
OBJECTS
  0
DICTIONARY
  5
C
330
0
100
AcDbDictionary
281
     1
  3
ACAD_GROUP
350
D
  3
ACAD_LAYOUT
350
1A
  3
ACAD_MLINESTYLE
350
17
  3
ACAD_PLOTSETTINGS
350
19
  3
ACAD_PLOTSTYLENAME
350
E
  3
ACAD_SCALELIST
350
47
  3
DWGPROPS
350
1D3
  0
DICTIONARY
  5
D
102
{ACAD_REACTORS
330
C
102
}
330
C
100
AcDbDictionary
281
     1
  0
DICTIONARY
  5
1A
102
{ACAD_REACTORS
330
C
102
}
330
C
100
AcDbDictionary
281
     1
  3
Layout1
350
1E
  3
Layout2
350
26
  3
Model
350
22
  0
DICTIONARY
  5
17
102
{ACAD_REACTORS
330
C
102
}
330
C
100
AcDbDictionary
281
     1
  3
Standard
350
18
  0
DICTIONARY
  5
19
102
{ACAD_REACTORS
330
C
102
}
330
C
100
AcDbDictionary
281
     1
  0
ACDBDICTIONARYWDFLT
  5
E
102
{ACAD_REACTORS
330
C
102
}
330
C
100
AcDbDictionary
281
     1
  3
Normal
350
F
100
AcDbDictionaryWithDefault
340
F
  0
DICTIONARY
  5
47
102
{ACAD_REACTORS
330
C
102
}
330
C
100
AcDbDictionary
281
     1
  3
A0
350
48
  3
A1
350
49
  3
A2
350
4A
  3
A3
350
4B
  3
A4
350
4C
  3
A5
350
4D
  3
A6
350
4E
  3
A7
350
4F
  3
A8
350
50
  3
A9
350
51
  3
B0
350
52
  3
B1
350
53
  3
B2
350
54
  3
B3
350
55
  3
B4
350
56
  3
B5
350
57
  3
B6
350
58
  0
XRECORD
  5
1D3
102
{ACAD_REACTORS
330
C
102
}
330
C
100
AcDbXrecord
280
     1
  1
DWGPROPS COOKIE
  2

  3

  4

  6

  7

  8
Swing
  9

300
=
301
=
302
=
303
=
304
=
305
=
306
=
307
=
308
=
309
=
 40
0.0
 41
2460042.317460683
 42
2460042.317461007
  1

 90
        0
  0
LAYOUT
  5
1E
102
{ACAD_REACTORS
330
1A
102
}
330
1A
100
AcDbPlotSettings
  1

  2
none_device
  4

  6

 40
0.0
 41
0.0
 42
0.0
 43
0.0
 44
0.0
 45
0.0
 46
0.0
 47
0.0
 48
0.0
 49
0.0
140
0.0
141
0.0
142
1.0
143
1.0
 70
   688
 72
     1
 73
     0
 74
     5
  7

 75
    16
147
1.0
148
0.0
149
0.0
100
AcDbLayout
  1
Layout1
 70
     1
 71
     1
 10
0.0
 20
0.0
 11
420.0
 21
297.0
 12
0.0
 22
0.0
 32
0.0
 14
1.0000000000E+20
 24
1.0000000000E+20
 34
1.0000000000E+20
 15
-1.0000000000E+20
 25
-1.0000000000E+20
 35
-1.0000000000E+20
146
0.0
 13
0.0
 23
0.0
 33
0.0
 16
1.0
 26
0.0
 36
0.0
 17
0.0
 27
1.0
 37
0.0
 76
     0
330
1B
  0
LAYOUT
  5
26
102
{ACAD_REACTORS
330
1A
102
}
330
1A
100
AcDbPlotSettings
  1

  2
none_device
  4

  6

 40
0.0
 41
0.0
 42
0.0
 43
0.0
 44
0.0
 45
0.0
 46
0.0
 47
0.0
 48
0.0
 49
0.0
140
0.0
141
0.0
142
1.0
143
1.0
 70
   688
 72
     1
 73
     0
 74
     5
  7

 75
    16
147
1.0
148
0.0
149
0.0
100
AcDbLayout
  1
Layout2
 70
     1
 71
     2
 10
0.0
 20
0.0
 11
0.0
 21
0.0
 12
0.0
 22
0.0
 32
0.0
 14
0.0
 24
0.0
 34
0.0
 15
0.0
 25
0.0
 35
0.0
146
0.0
 13
0.0
 23
0.0
 33
0.0
 16
1.0
 26
0.0
 36
0.0
 17
0.0
 27
1.0
 37
0.0
 76
     0
330
23
  0
LAYOUT
  5
22
102
{ACAD_REACTORS
330
1A
102
}
330
1A
100
AcDbPlotSettings
  1

  2
none_device
  4
Letter_(8.50_x_11.00_Inches)
  6

 40
6.35
 41
6.35
 42
6.35000508
 43
6.35000508
 44
215.9
 45
279.4
 46
0.0
 47
0.0
 48
0.0
 49
0.0
140
0.0
141
0.0
142
1.0
143
1.0
 70
  1712
 72
     1
 73
     0
 74
     0
  7

 75
     0
147
1.0
148
0.0
149
0.0
100
AcDbLayout
  1
Model
 70
     1
 71
     0
 10
0.0
 20
0.0
 11
297.0
 21
210.0
 12
0.0
 22
0.0
 32
0.0
 14
0.0
 24
0.0
 34
0.0
 15
297.0
 25
210.0
 35
0.0
146
0.0
 13
0.0
 23
0.0
 33
0.0
 16
1.0
 26
0.0
 36
0.0
 17
0.0
 27
1.0
 37
0.0
 76
     0
330
1F
331
29
  0
MLINESTYLE
  5
18
102
{ACAD_REACTORS
330
17
102
}
330
17
100
AcDbMlineStyle
  2
Standard
 70
     0
  3

 62
   256
 51
90.0
 52
90.0
 71
     2
 49
0.5
 62
   256
  6
BYLAYER
 49
-0.5
 62
   256
  6
BYLAYER
  0
ACDBPLACEHOLDER
  5
F
102
{ACAD_REACTORS
330
E
102
}
330
E
  0
SCALE
  5
48
102
{ACAD_REACTORS
330
47
102
}
330
47
100
AcDbScale
 70
     0
300
1:1
140
1.0
141
1.0
290
     1
  0
SCALE
  5
49
102
{ACAD_REACTORS
330
47
102
}
330
47
100
AcDbScale
 70
     0
300
1:2
140
1.0
141
2.0
290
     0
  0
SCALE
  5
4A
102
{ACAD_REACTORS
330
47
102
}
330
47
100
AcDbScale
 70
     0
300
1:4
140
1.0
141
4.0
290
     0
  0
SCALE
  5
4B
102
{ACAD_REACTORS
330
47
102
}
330
47
100
AcDbScale
 70
     0
300
1:5
140
1.0
141
5.0
290
     0
  0
SCALE
  5
4C
102
{ACAD_REACTORS
330
47
102
}
330
47
100
AcDbScale
 70
     0
300
1:8
140
1.0
141
8.0
290
     0
  0
SCALE
  5
4D
102
{ACAD_REACTORS
330
47
102
}
330
47
100
AcDbScale
 70
     0
300
1:10
140
1.0
141
10.0
290
     0
  0
SCALE
  5
4E
102
{ACAD_REACTORS
330
47
102
}
330
47
100
AcDbScale
 70
     0
300
1:16
140
1.0
141
16.0
290
     0
  0
SCALE
  5
4F
102
{ACAD_REACTORS
330
47
102
}
330
47
100
AcDbScale
 70
     0
300
1:20
140
1.0
141
20.0
290
     0
  0
SCALE
  5
50
102
{ACAD_REACTORS
330
47
102
}
330
47
100
AcDbScale
 70
     0
300
1:30
140
1.0
141
30.0
290
     0
  0
SCALE
  5
51
102
{ACAD_REACTORS
330
47
102
}
330
47
100
AcDbScale
 70
     0
300
1:40
140
1.0
141
40.0
290
     0
  0
SCALE
  5
52
102
{ACAD_REACTORS
330
47
102
}
330
47
100
AcDbScale
 70
     0
300
1:50
140
1.0
141
50.0
290
     0
  0
SCALE
  5
53
102
{ACAD_REACTORS
330
47
102
}
330
47
100
AcDbScale
 70
     0
300
1:100
140
1.0
141
100.0
290
     0
  0
SCALE
  5
54
102
{ACAD_REACTORS
330
47
102
}
330
47
100
AcDbScale
 70
     0
300
2:1
140
2.0
141
1.0
290
     0
  0
SCALE
  5
55
102
{ACAD_REACTORS
330
47
102
}
330
47
100
AcDbScale
 70
     0
300
4:1
140
4.0
141
1.0
290
     0
  0
SCALE
  5
56
102
{ACAD_REACTORS
330
47
102
}
330
47
100
AcDbScale
 70
     0
300
8:1
140
8.0
141
1.0
290
     0
  0
SCALE
  5
57
102
{ACAD_REACTORS
330
47
102
}
330
47
100
AcDbScale
 70
     0
300
10:1
140
10.0
141
1.0
290
     0
  0
SCALE
  5
58
102
{ACAD_REACTORS
330
47
102
}
330
47
100
AcDbScale
 70
     0
300
100:1
140
100.0
141
1.0
290
     0
  0
ENDSEC
  0
EOF
